999
Converted by 3D Exploration 
999
XDimension Software, LLC
999
http://www.xdsoft.com/explorer/
0
SECTION
2
HEADER
9
$ACADVER
1
AC1008
9
$UCSORG
10
0.0
20
0.0
30
0.0
9
$UCSXDIR
10
1.0
20
0.0
30
0.0
9
$TILEMODE
70
1
9
$UCSYDIR
10
0.0
20
1.0
30
0.0
9
$EXTMIN
10
-10.155000
20
-616.992981
30
-616.992981
9
$EXTMAX
10
50.051998
20
26.912001
30
27.253000
0
ENDSEC
0
SECTION
2
TABLES
0
TABLE
2
LTYPE
70
1
0
LTYPE
2
CONTINUOUS
70
64
3
Solid line
72
65
73
0
40
0.0
0
ENDTAB
0
TABLE
2
LAYER
70
42
0
LAYER
2
OBJECT__0
70
0
62
253
6
CONTINUOUS
0
LAYER
2
OBJECT__1
70
0
62
253
6
CONTINUOUS
0
LAYER
2
OBJECT__3
70
0
62
253
6
CONTINUOUS
0
LAYER
2
OBJECT__4
70
0
62
253
6
CONTINUOUS
0
LAYER
2
OBJECT__5
70
0
62
253
6
CONTINUOUS
0
LAYER
2
OBJECT__6
70
0
62
253
6
CONTINUOUS
0
LAYER
2
OBJECT__7
70
0
62
253
6
CONTINUOUS
0
LAYER
2
OBJECT__9
70
0
62
253
6
CONTINUOUS
0
LAYER
2
OBJECT__10
70
0
62
253
6
CONTINUOUS
0
LAYER
2
OBJECT__11
70
0
62
253
6
CONTINUOUS
0
LAYER
2
OBJECT__12
70
0
62
253
6
CONTINUOUS
0
LAYER
2
OBJECT__13
70
0
62
253
6
CONTINUOUS
0
LAYER
2
OBJECT__14
70
0
62
253
6
CONTINUOUS
0
LAYER
2
OBJECT__16
70
0
62
253
6
CONTINUOUS
0
LAYER
2
OBJECT__17
70
0
62
253
6
CONTINUOUS
0
LAYER
2
OBJECT__18
70
0
62
253
6
CONTINUOUS
0
LAYER
2
OBJECT__19
70
0
62
253
6
CONTINUOUS
0
LAYER
2
OBJECT__20
70
0
62
253
6
CONTINUOUS
0
LAYER
2
OBJECT__21
70
0
62
253
6
CONTINUOUS
0
LAYER
2
OBJECT__22
70
0
62
253
6
CONTINUOUS
0
LAYER
2
OBJECT__23
70
0
62
253
6
CONTINUOUS
0
LAYER
2
OBJECT__24
70
0
62
253
6
CONTINUOUS
0
LAYER
2
OBJECT__25
70
0
62
253
6
CONTINUOUS
0
LAYER
2
OBJECT__27
70
0
62
253
6
CONTINUOUS
0
LAYER
2
OBJECT__28
70
0
62
253
6
CONTINUOUS
0
LAYER
2
OBJECT__30
70
0
62
253
6
CONTINUOUS
0
LAYER
2
OBJECT__31
70
0
62
253
6
CONTINUOUS
0
LAYER
2
OBJECT__32
70
0
62
253
6
CONTINUOUS
0
LAYER
2
OBJECT__34
70
0
62
253
6
CONTINUOUS
0
LAYER
2
OBJECT__35
70
0
62
253
6
CONTINUOUS
0
LAYER
2
OBJECT__36
70
0
62
253
6
CONTINUOUS
0
LAYER
2
OBJECT__37
70
0
62
253
6
CONTINUOUS
0
LAYER
2
OBJECT__38
70
0
62
253
6
CONTINUOUS
0
LAYER
2
OBJECT__39
70
0
62
253
6
CONTINUOUS
0
LAYER
2
OBJECT__40
70
0
62
253
6
CONTINUOUS
0
LAYER
2
OBJECT__41
70
0
62
253
6
CONTINUOUS
0
ENDTAB
0
TABLE
2
STYLE
70
1
0
STYLE
2
STANDARD
70
0
40
0.0
41
1.0
50
0.0
71
0
42
0.2
3
txt
4
1
0
ENDTAB
0
TABLE
2
UCS
70
0
0
ENDTAB
0
ENDSEC
0
SECTION
2
ENTITIES
0
POLYLINE
8
OBJECT__0
66
1
70
64
71
12
72
10
62
253
0
VERTEX
8
OBJECT__0
10
0.000000
20
-23.471001
30
-13.677000
70
192
0
VERTEX
8
OBJECT__0
10
0.000000
20
23.295000
30
-13.677000
70
192
0
VERTEX
8
OBJECT__0
10
0.000000
20
26.912001
30
-0.177000
70
192
0
VERTEX
8
OBJECT__0
10
0.000000
20
23.295000
30
13.323000
70
192
0
VERTEX
8
OBJECT__0
10
0.000000
20
-23.471001
30
13.323000
70
192
0
VERTEX
8
OBJECT__0
10
0.000000
20
-27.087999
30
-0.177000
70
192
0
VERTEX
8
OBJECT__0
10
0.000000
20
13.412000
30
-23.559999
70
192
0
VERTEX
8
OBJECT__0
10
0.000000
20
-13.588000
30
-23.559999
70
192
0
VERTEX
8
OBJECT__0
10
0.000000
20
-0.088000
30
-27.177000
70
192
0
VERTEX
8
OBJECT__0
10
0.000000
20
-13.588000
30
23.205999
70
192
0
VERTEX
8
OBJECT__0
10
0.000000
20
13.412000
30
23.205999
70
192
0
VERTEX
8
OBJECT__0
10
0.000000
20
-0.088000
30
26.823000
70
192
0
VERTEX
8
OBJECT__0
10
0
20
0
30
0
70
128
71
1
72
2
73
3
0
VERTEX
8
OBJECT__0
10
0
20
0
30
0
70
128
71
4
72
5
73
6
0
VERTEX
8
OBJECT__0
10
0
20
0
30
0
70
128
71
1
72
7
73
2
0
VERTEX
8
OBJECT__0
10
0
20
0
30
0
70
128
71
1
72
8
73
9
0
VERTEX
8
OBJECT__0
10
0
20
0
30
0
70
128
71
4
72
10
73
5
0
VERTEX
8
OBJECT__0
10
0
20
0
30
0
70
128
71
4
72
11
73
12
0
VERTEX
8
OBJECT__0
10
0
20
0
30
0
70
128
71
9
72
7
73
1
0
VERTEX
8
OBJECT__0
10
0
20
0
30
0
70
128
71
12
72
10
73
4
0
VERTEX
8
OBJECT__0
10
0
20
0
30
0
70
128
71
6
72
1
73
4
0
VERTEX
8
OBJECT__0
10
0
20
0
30
0
70
128
71
3
72
4
73
1
0
SEQEND
8
OBJECT__0
0
POLYLINE
8
OBJECT__1
66
1
70
64
71
34
72
36
62
253
0
VERTEX
8
OBJECT__1
10
-10.000000
20
-13.588000
30
23.205999
70
192
0
VERTEX
8
OBJECT__1
10
0.000000
20
-13.588000
30
23.205999
70
192
0
VERTEX
8
OBJECT__1
10
0.000000
20
-0.088000
30
26.823000
70
192
0
VERTEX
8
OBJECT__1
10
-10.000000
20
-23.471001
30
13.323000
70
192
0
VERTEX
8
OBJECT__1
10
0.000000
20
-23.471001
30
13.323000
70
192
0
VERTEX
8
OBJECT__1
10
-10.000000
20
-27.087999
30
-0.177000
70
192
0
VERTEX
8
OBJECT__1
10
0.000000
20
-27.087999
30
-0.177000
70
192
0
VERTEX
8
OBJECT__1
10
-10.000000
20
-23.471001
30
-13.677000
70
192
0
VERTEX
8
OBJECT__1
10
0.000000
20
-23.471001
30
-13.677000
70
192
0
VERTEX
8
OBJECT__1
10
-10.000000
20
-13.588000
30
-23.559999
70
192
0
VERTEX
8
OBJECT__1
10
0.000000
20
-13.588000
30
-23.559999
70
192
0
VERTEX
8
OBJECT__1
10
-10.000000
20
23.295000
30
-13.677000
70
192
0
VERTEX
8
OBJECT__1
10
0.000000
20
23.295000
30
-13.677000
70
192
0
VERTEX
8
OBJECT__1
10
0.000000
20
13.412000
30
-23.559999
70
192
0
VERTEX
8
OBJECT__1
10
-10.000000
20
26.912001
30
-0.177000
70
192
0
VERTEX
8
OBJECT__1
10
0.000000
20
26.912001
30
-0.177000
70
192
0
VERTEX
8
OBJECT__1
10
-10.000000
20
23.295000
30
13.323000
70
192
0
VERTEX
8
OBJECT__1
10
0.000000
20
23.295000
30
13.323000
70
192
0
VERTEX
8
OBJECT__1
10
-10.000000
20
13.412000
30
23.205999
70
192
0
VERTEX
8
OBJECT__1
10
0.000000
20
13.412000
30
23.205999
70
192
0
VERTEX
8
OBJECT__1
10
-10.000000
20
-0.088000
30
26.823000
70
192
0
VERTEX
8
OBJECT__1
10
0.000000
20
-0.088000
30
-27.177000
70
192
0
VERTEX
8
OBJECT__1
10
-3.906000
20
-0.618000
30
-27.172001
70
192
0
VERTEX
8
OBJECT__1
10
-3.854000
20
-0.120000
30
-27.177000
70
192
0
VERTEX
8
OBJECT__1
10
-6.100000
20
-2.371000
30
-27.080000
70
192
0
VERTEX
8
OBJECT__1
10
-6.629000
20
-2.308000
30
-27.084999
70
192
0
VERTEX
8
OBJECT__1
10
-10.000000
20
-0.088000
30
-27.177000
70
192
0
VERTEX
8
OBJECT__1
10
-8.334000
20
-0.108000
30
-27.176001
70
192
0
VERTEX
8
OBJECT__1
10
-8.350000
20
-0.088000
30
-27.177000
70
192
0
VERTEX
8
OBJECT__1
10
-10.000000
20
13.412000
30
-23.559999
70
192
0
VERTEX
8
OBJECT__1
10
-6.100000
20
2.129000
30
-27.086000
70
192
0
VERTEX
8
OBJECT__1
10
-8.294000
20
0.376000
30
-27.173000
70
192
0
VERTEX
8
OBJECT__1
10
-5.635000
20
2.081000
30
-27.090000
70
192
0
VERTEX
8
OBJECT__1
10
-3.850000
20
-0.088000
30
-27.177000
70
192
0
VERTEX
8
OBJECT__1
10
0
20
0
30
0
70
128
71
1
72
2
73
3
0
VERTEX
8
OBJECT__1
10
0
20
0
30
0
70
128
71
4
72
5
73
2
0
VERTEX
8
OBJECT__1
10
0
20
0
30
0
70
128
71
6
72
7
73
5
0
VERTEX
8
OBJECT__1
10
0
20
0
30
0
70
128
71
8
72
9
73
7
0
VERTEX
8
OBJECT__1
10
0
20
0
30
0
70
128
71
10
72
11
73
9
0
VERTEX
8
OBJECT__1
10
0
20
0
30
0
70
128
71
12
72
13
73
14
0
VERTEX
8
OBJECT__1
10
0
20
0
30
0
70
128
71
15
72
16
73
13
0
VERTEX
8
OBJECT__1
10
0
20
0
30
0
70
128
71
17
72
18
73
16
0
VERTEX
8
OBJECT__1
10
0
20
0
30
0
70
128
71
19
72
20
73
18
0
VERTEX
8
OBJECT__1
10
0
20
0
30
0
70
128
71
21
72
3
73
20
0
VERTEX
8
OBJECT__1
10
0
20
0
30
0
70
128
71
22
72
23
73
24
0
VERTEX
8
OBJECT__1
10
0
20
0
30
0
70
128
71
11
72
25
73
23
0
VERTEX
8
OBJECT__1
10
0
20
0
30
0
70
128
71
23
72
22
73
11
0
VERTEX
8
OBJECT__1
10
0
20
0
30
0
70
128
71
10
72
26
73
25
0
VERTEX
8
OBJECT__1
10
0
20
0
30
0
70
128
71
10
72
27
73
28
0
VERTEX
8
OBJECT__1
10
0
20
0
30
0
70
128
71
27
72
29
73
28
0
VERTEX
8
OBJECT__1
10
0
20
0
30
0
70
128
71
28
72
26
73
10
0
VERTEX
8
OBJECT__1
10
0
20
0
30
0
70
128
71
25
72
11
73
10
0
VERTEX
8
OBJECT__1
10
0
20
0
30
0
70
128
71
30
72
31
73
32
0
VERTEX
8
OBJECT__1
10
0
20
0
30
0
70
128
71
14
72
33
73
31
0
VERTEX
8
OBJECT__1
10
0
20
0
30
0
70
128
71
14
72
22
73
34
0
VERTEX
8
OBJECT__1
10
0
20
0
30
0
70
128
71
34
72
33
73
14
0
VERTEX
8
OBJECT__1
10
0
20
0
30
0
70
128
71
31
72
30
73
14
0
VERTEX
8
OBJECT__1
10
0
20
0
30
0
70
128
71
32
72
27
73
30
0
VERTEX
8
OBJECT__1
10
0
20
0
30
0
70
128
71
32
72
29
73
27
0
VERTEX
8
OBJECT__1
10
0
20
0
30
0
70
128
71
24
72
34
73
22
0
VERTEX
8
OBJECT__1
10
0
20
0
30
0
70
128
71
20
72
19
73
21
0
VERTEX
8
OBJECT__1
10
0
20
0
30
0
70
128
71
18
72
17
73
19
0
VERTEX
8
OBJECT__1
10
0
20
0
30
0
70
128
71
16
72
15
73
17
0
VERTEX
8
OBJECT__1
10
0
20
0
30
0
70
128
71
13
72
12
73
15
0
VERTEX
8
OBJECT__1
10
0
20
0
30
0
70
128
71
14
72
30
73
12
0
VERTEX
8
OBJECT__1
10
0
20
0
30
0
70
128
71
9
72
8
73
10
0
VERTEX
8
OBJECT__1
10
0
20
0
30
0
70
128
71
7
72
6
73
8
0
VERTEX
8
OBJECT__1
10
0
20
0
30
0
70
128
71
5
72
4
73
6
0
VERTEX
8
OBJECT__1
10
0
20
0
30
0
70
128
71
2
72
1
73
4
0
VERTEX
8
OBJECT__1
10
0
20
0
30
0
70
128
71
3
72
21
73
1
0
SEQEND
8
OBJECT__1
0
POLYLINE
8
OBJECT__3
66
1
70
64
71
12
72
10
62
253
0
VERTEX
8
OBJECT__3
10
-10.000000
20
23.295000
30
13.323000
70
192
0
VERTEX
8
OBJECT__3
10
-10.000000
20
-13.588000
30
23.205999
70
192
0
VERTEX
8
OBJECT__3
10
-10.000000
20
-0.088000
30
26.823000
70
192
0
VERTEX
8
OBJECT__3
10
-10.000000
20
-27.087999
30
-0.177000
70
192
0
VERTEX
8
OBJECT__3
10
-10.000000
20
-23.471001
30
13.323000
70
192
0
VERTEX
8
OBJECT__3
10
-10.000000
20
-23.471001
30
-13.677000
70
192
0
VERTEX
8
OBJECT__3
10
-10.000000
20
26.912001
30
-0.177000
70
192
0
VERTEX
8
OBJECT__3
10
-10.000000
20
23.295000
30
-13.677000
70
192
0
VERTEX
8
OBJECT__3
10
-10.000000
20
13.412000
30
-23.559999
70
192
0
VERTEX
8
OBJECT__3
10
-10.000000
20
-0.088000
30
-27.177000
70
192
0
VERTEX
8
OBJECT__3
10
-10.000000
20
-13.588000
30
-23.559999
70
192
0
VERTEX
8
OBJECT__3
10
-10.000000
20
13.412000
30
23.205999
70
192
0
VERTEX
8
OBJECT__3
10
0
20
0
30
0
70
128
71
1
72
2
73
3
0
VERTEX
8
OBJECT__3
10
0
20
0
30
0
70
128
71
1
72
4
73
5
0
VERTEX
8
OBJECT__3
10
0
20
0
30
0
70
128
71
6
72
7
73
8
0
VERTEX
8
OBJECT__3
10
0
20
0
30
0
70
128
71
5
72
2
73
1
0
VERTEX
8
OBJECT__3
10
0
20
0
30
0
70
128
71
6
72
9
73
10
0
VERTEX
8
OBJECT__3
10
0
20
0
30
0
70
128
71
6
72
1
73
7
0
VERTEX
8
OBJECT__3
10
0
20
0
30
0
70
128
71
1
72
6
73
4
0
VERTEX
8
OBJECT__3
10
0
20
0
30
0
70
128
71
8
72
9
73
6
0
VERTEX
8
OBJECT__3
10
0
20
0
30
0
70
128
71
10
72
11
73
6
0
VERTEX
8
OBJECT__3
10
0
20
0
30
0
70
128
71
3
72
12
73
1
0
SEQEND
8
OBJECT__3
0
POLYLINE
8
OBJECT__4
66
1
70
64
71
19
72
19
62
253
0
VERTEX
8
OBJECT__4
10
-4.342000
20
-0.119000
30
-25.329000
70
192
0
VERTEX
8
OBJECT__4
10
-3.854000
20
-0.120000
30
-27.177000
70
192
0
VERTEX
8
OBJECT__4
10
-3.906000
20
-0.618000
30
-27.172001
70
192
0
VERTEX
8
OBJECT__4
10
-6.100000
20
-2.371000
30
-27.080000
70
192
0
VERTEX
8
OBJECT__4
10
-5.611000
20
-2.317000
30
-25.268999
70
192
0
VERTEX
8
OBJECT__4
10
-4.346000
20
-1.530000
30
-25.327000
70
192
0
VERTEX
8
OBJECT__4
10
-6.100000
20
-2.371000
30
-25.264000
70
192
0
VERTEX
8
OBJECT__4
10
-5.635000
20
2.081000
30
-27.090000
70
192
0
VERTEX
8
OBJECT__4
10
-3.850000
20
-0.088000
30
-27.177000
70
192
0
VERTEX
8
OBJECT__4
10
-4.337000
20
1.278000
30
-25.330999
70
192
0
VERTEX
8
OBJECT__4
10
-6.197000
20
1.707000
30
-25.302000
70
192
0
VERTEX
8
OBJECT__4
10
-6.100000
20
2.129000
30
-27.086000
70
192
0
VERTEX
8
OBJECT__4
10
-8.294000
20
0.376000
30
-27.173000
70
192
0
VERTEX
8
OBJECT__4
10
-7.072000
20
1.908000
30
-25.289000
70
192
0
VERTEX
8
OBJECT__4
10
-8.110000
20
-0.237000
30
-25.351000
70
192
0
VERTEX
8
OBJECT__4
10
-8.334000
20
-0.108000
30
-27.176001
70
192
0
VERTEX
8
OBJECT__4
10
-8.350000
20
-0.088000
30
-27.177000
70
192
0
VERTEX
8
OBJECT__4
10
-8.294000
20
-0.618000
30
-25.362000
70
192
0
VERTEX
8
OBJECT__4
10
-6.629000
20
-2.308000
30
-27.084999
70
192
0
VERTEX
8
OBJECT__4
10
0
20
0
30
0
70
128
71
1
72
2
73
3
0
VERTEX
8
OBJECT__4
10
0
20
0
30
0
70
128
71
4
72
5
73
6
0
VERTEX
8
OBJECT__4
10
0
20
0
30
0
70
128
71
4
72
7
73
5
0
VERTEX
8
OBJECT__4
10
0
20
0
30
0
70
128
71
6
72
3
73
4
0
VERTEX
8
OBJECT__4
10
0
20
0
30
0
70
128
71
8
72
9
73
10
0
VERTEX
8
OBJECT__4
10
0
20
0
30
0
70
128
71
11
72
12
73
8
0
VERTEX
8
OBJECT__4
10
0
20
0
30
0
70
128
71
1
72
10
73
9
0
VERTEX
8
OBJECT__4
10
0
20
0
30
0
70
128
71
9
72
2
73
1
0
VERTEX
8
OBJECT__4
10
0
20
0
30
0
70
128
71
13
72
12
73
14
0
VERTEX
8
OBJECT__4
10
0
20
0
30
0
70
128
71
12
72
11
73
14
0
VERTEX
8
OBJECT__4
10
0
20
0
30
0
70
128
71
15
72
16
73
17
0
VERTEX
8
OBJECT__4
10
0
20
0
30
0
70
128
71
17
72
13
73
15
0
VERTEX
8
OBJECT__4
10
0
20
0
30
0
70
128
71
18
72
7
73
19
0
VERTEX
8
OBJECT__4
10
0
20
0
30
0
70
128
71
7
72
4
73
19
0
VERTEX
8
OBJECT__4
10
0
20
0
30
0
70
128
71
16
72
15
73
18
0
VERTEX
8
OBJECT__4
10
0
20
0
30
0
70
128
71
19
72
16
73
18
0
VERTEX
8
OBJECT__4
10
0
20
0
30
0
70
128
71
14
72
15
73
13
0
VERTEX
8
OBJECT__4
10
0
20
0
30
0
70
128
71
10
72
11
73
8
0
VERTEX
8
OBJECT__4
10
0
20
0
30
0
70
128
71
3
72
6
73
1
0
SEQEND
8
OBJECT__4
0
POLYLINE
8
OBJECT__5
66
1
70
64
71
10
72
9
62
253
0
VERTEX
8
OBJECT__5
10
-6.149000
20
-0.333000
30
-25.367001
70
192
0
VERTEX
8
OBJECT__5
10
-4.342000
20
-0.119000
30
-25.329000
70
192
0
VERTEX
8
OBJECT__5
10
-4.346000
20
-1.530000
30
-25.327000
70
192
0
VERTEX
8
OBJECT__5
10
-5.611000
20
-2.317000
30
-25.268999
70
192
0
VERTEX
8
OBJECT__5
10
-6.197000
20
1.707000
30
-25.302000
70
192
0
VERTEX
8
OBJECT__5
10
-4.337000
20
1.278000
30
-25.330999
70
192
0
VERTEX
8
OBJECT__5
10
-6.100000
20
-2.371000
30
-25.264000
70
192
0
VERTEX
8
OBJECT__5
10
-8.294000
20
-0.618000
30
-25.362000
70
192
0
VERTEX
8
OBJECT__5
10
-8.110000
20
-0.237000
30
-25.351000
70
192
0
VERTEX
8
OBJECT__5
10
-7.072000
20
1.908000
30
-25.289000
70
192
0
VERTEX
8
OBJECT__5
10
0
20
0
30
0
70
128
71
1
72
2
73
3
0
VERTEX
8
OBJECT__5
10
0
20
0
30
0
70
128
71
3
72
4
73
1
0
VERTEX
8
OBJECT__5
10
0
20
0
30
0
70
128
71
1
72
5
73
6
0
VERTEX
8
OBJECT__5
10
0
20
0
30
0
70
128
71
6
72
2
73
1
0
VERTEX
8
OBJECT__5
10
0
20
0
30
0
70
128
71
7
72
8
73
9
0
VERTEX
8
OBJECT__5
10
0
20
0
30
0
70
128
71
9
72
10
73
5
0
VERTEX
8
OBJECT__5
10
0
20
0
30
0
70
128
71
5
72
1
73
9
0
VERTEX
8
OBJECT__5
10
0
20
0
30
0
70
128
71
9
72
1
73
7
0
VERTEX
8
OBJECT__5
10
0
20
0
30
0
70
128
71
4
72
7
73
1
0
SEQEND
8
OBJECT__5
0
POLYLINE
8
OBJECT__6
66
1
70
64
71
8
72
6
62
253
0
VERTEX
8
OBJECT__6
10
-6.100000
20
-2.371000
30
-25.264000
70
192
0
VERTEX
8
OBJECT__6
10
-7.677000
20
1.485000
30
-25.319000
70
192
0
VERTEX
8
OBJECT__6
10
-8.350000
20
-0.085000
30
-25.368000
70
192
0
VERTEX
8
OBJECT__6
10
-6.095000
20
2.129000
30
-25.270000
70
192
0
VERTEX
8
OBJECT__6
10
-4.500000
20
-1.703000
30
-25.316000
70
192
0
VERTEX
8
OBJECT__6
10
-3.850000
20
-0.095000
30
-25.368000
70
192
0
VERTEX
8
OBJECT__6
10
-4.516000
20
1.477000
30
-25.319000
70
192
0
VERTEX
8
OBJECT__6
10
-7.703000
20
-1.699000
30
-25.316000
70
192
0
VERTEX
8
OBJECT__6
10
0
20
0
30
0
70
128
71
1
72
2
73
3
0
VERTEX
8
OBJECT__6
10
0
20
0
30
0
70
128
71
1
72
4
73
2
0
VERTEX
8
OBJECT__6
10
0
20
0
30
0
70
128
71
1
72
5
73
6
0
VERTEX
8
OBJECT__6
10
0
20
0
30
0
70
128
71
6
72
7
73
1
0
VERTEX
8
OBJECT__6
10
0
20
0
30
0
70
128
71
7
72
4
73
1
0
VERTEX
8
OBJECT__6
10
0
20
0
30
0
70
128
71
3
72
8
73
1
0
SEQEND
8
OBJECT__6
0
POLYLINE
8
OBJECT__7
66
1
70
64
71
6
72
4
62
253
0
VERTEX
8
OBJECT__7
10
-7.703000
20
-1.699000
30
-27.129000
70
192
0
VERTEX
8
OBJECT__7
10
-7.703000
20
-1.699000
30
-25.316000
70
192
0
VERTEX
8
OBJECT__7
10
-8.350000
20
-0.085000
30
-25.368000
70
192
0
VERTEX
8
OBJECT__7
10
-6.100000
20
-2.371000
30
-27.080000
70
192
0
VERTEX
8
OBJECT__7
10
-6.100000
20
-2.371000
30
-25.264000
70
192
0
VERTEX
8
OBJECT__7
10
-8.350000
20
-0.088000
30
-27.177000
70
192
0
VERTEX
8
OBJECT__7
10
0
20
0
30
0
70
128
71
1
72
2
73
3
0
VERTEX
8
OBJECT__7
10
0
20
0
30
0
70
128
71
4
72
5
73
2
0
VERTEX
8
OBJECT__7
10
0
20
0
30
0
70
128
71
2
72
1
73
4
0
VERTEX
8
OBJECT__7
10
0
20
0
30
0
70
128
71
3
72
6
73
1
0
SEQEND
8
OBJECT__7
0
POLYLINE
8
OBJECT__9
66
1
70
64
71
8
72
6
62
253
0
VERTEX
8
OBJECT__9
10
-6.100000
20
-2.371000
30
-27.080000
70
192
0
VERTEX
8
OBJECT__9
10
-4.520000
20
1.481000
30
-27.131001
70
192
0
VERTEX
8
OBJECT__9
10
-3.850000
20
-0.088000
30
-27.177000
70
192
0
VERTEX
8
OBJECT__9
10
-6.100000
20
2.129000
30
-27.086000
70
192
0
VERTEX
8
OBJECT__9
10
-7.703000
20
-1.699000
30
-27.129000
70
192
0
VERTEX
8
OBJECT__9
10
-8.350000
20
-0.088000
30
-27.177000
70
192
0
VERTEX
8
OBJECT__9
10
-7.679000
20
1.482000
30
-27.131001
70
192
0
VERTEX
8
OBJECT__9
10
-4.498000
20
-1.701000
30
-27.129000
70
192
0
VERTEX
8
OBJECT__9
10
0
20
0
30
0
70
128
71
1
72
2
73
3
0
VERTEX
8
OBJECT__9
10
0
20
0
30
0
70
128
71
1
72
4
73
2
0
VERTEX
8
OBJECT__9
10
0
20
0
30
0
70
128
71
1
72
5
73
6
0
VERTEX
8
OBJECT__9
10
0
20
0
30
0
70
128
71
6
72
7
73
1
0
VERTEX
8
OBJECT__9
10
0
20
0
30
0
70
128
71
7
72
4
73
1
0
VERTEX
8
OBJECT__9
10
0
20
0
30
0
70
128
71
3
72
8
73
1
0
SEQEND
8
OBJECT__9
0
POLYLINE
8
OBJECT__10
66
1
70
64
71
6
72
4
62
253
0
VERTEX
8
OBJECT__10
10
-7.679000
20
1.482000
30
-27.131001
70
192
0
VERTEX
8
OBJECT__10
10
-8.350000
20
-0.088000
30
-27.177000
70
192
0
VERTEX
8
OBJECT__10
10
-8.350000
20
-0.085000
30
-25.368000
70
192
0
VERTEX
8
OBJECT__10
10
-6.100000
20
2.129000
30
-27.086000
70
192
0
VERTEX
8
OBJECT__10
10
-7.677000
20
1.485000
30
-25.319000
70
192
0
VERTEX
8
OBJECT__10
10
-6.095000
20
2.129000
30
-25.270000
70
192
0
VERTEX
8
OBJECT__10
10
0
20
0
30
0
70
128
71
1
72
2
73
3
0
VERTEX
8
OBJECT__10
10
0
20
0
30
0
70
128
71
4
72
1
73
5
0
VERTEX
8
OBJECT__10
10
0
20
0
30
0
70
128
71
5
72
6
73
4
0
VERTEX
8
OBJECT__10
10
0
20
0
30
0
70
128
71
3
72
5
73
1
0
SEQEND
8
OBJECT__10
0
POLYLINE
8
OBJECT__11
66
1
70
64
71
6
72
4
62
253
0
VERTEX
8
OBJECT__11
10
-4.520000
20
1.481000
30
-27.131001
70
192
0
VERTEX
8
OBJECT__11
10
-4.516000
20
1.477000
30
-25.319000
70
192
0
VERTEX
8
OBJECT__11
10
-3.850000
20
-0.095000
30
-25.368000
70
192
0
VERTEX
8
OBJECT__11
10
-6.100000
20
2.129000
30
-27.086000
70
192
0
VERTEX
8
OBJECT__11
10
-6.095000
20
2.129000
30
-25.270000
70
192
0
VERTEX
8
OBJECT__11
10
-3.850000
20
-0.088000
30
-27.177000
70
192
0
VERTEX
8
OBJECT__11
10
0
20
0
30
0
70
128
71
1
72
2
73
3
0
VERTEX
8
OBJECT__11
10
0
20
0
30
0
70
128
71
4
72
5
73
2
0
VERTEX
8
OBJECT__11
10
0
20
0
30
0
70
128
71
2
72
1
73
4
0
VERTEX
8
OBJECT__11
10
0
20
0
30
0
70
128
71
3
72
6
73
1
0
SEQEND
8
OBJECT__11
0
POLYLINE
8
OBJECT__12
66
1
70
64
71
6
72
4
62
253
0
VERTEX
8
OBJECT__12
10
-6.100000
20
-2.371000
30
-27.080000
70
192
0
VERTEX
8
OBJECT__12
10
-4.498000
20
-1.701000
30
-27.129000
70
192
0
VERTEX
8
OBJECT__12
10
-4.500000
20
-1.703000
30
-25.316000
70
192
0
VERTEX
8
OBJECT__12
10
-3.850000
20
-0.088000
30
-27.177000
70
192
0
VERTEX
8
OBJECT__12
10
-3.850000
20
-0.095000
30
-25.368000
70
192
0
VERTEX
8
OBJECT__12
10
-6.100000
20
-2.371000
30
-25.264000
70
192
0
VERTEX
8
OBJECT__12
10
0
20
0
30
0
70
128
71
1
72
2
73
3
0
VERTEX
8
OBJECT__12
10
0
20
0
30
0
70
128
71
2
72
4
73
5
0
VERTEX
8
OBJECT__12
10
0
20
0
30
0
70
128
71
5
72
3
73
2
0
VERTEX
8
OBJECT__12
10
0
20
0
30
0
70
128
71
3
72
6
73
1
0
SEQEND
8
OBJECT__12
0
POLYLINE
8
OBJECT__13
66
1
70
64
71
7
72
5
62
253
0
VERTEX
8
OBJECT__13
10
50.000000
20
7.794000
30
-4.500000
70
192
0
VERTEX
8
OBJECT__13
10
50.000000
20
-7.794000
30
4.500000
70
192
0
VERTEX
8
OBJECT__13
10
50.000000
20
-7.794000
30
-4.500000
70
192
0
VERTEX
8
OBJECT__13
10
50.000000
20
9.000000
30
0.000000
70
192
0
VERTEX
8
OBJECT__13
10
50.000000
20
7.794000
30
4.500000
70
192
0
VERTEX
8
OBJECT__13
10
50.000000
20
0.000000
30
-9.000000
70
192
0
VERTEX
8
OBJECT__13
10
50.000000
20
0.000000
30
9.000000
70
192
0
VERTEX
8
OBJECT__13
10
0
20
0
30
0
70
128
71
1
72
2
73
3
0
VERTEX
8
OBJECT__13
10
0
20
0
30
0
70
128
71
2
72
4
73
5
0
VERTEX
8
OBJECT__13
10
0
20
0
30
0
70
128
71
3
72
6
73
1
0
VERTEX
8
OBJECT__13
10
0
20
0
30
0
70
128
71
1
72
4
73
2
0
VERTEX
8
OBJECT__13
10
0
20
0
30
0
70
128
71
5
72
7
73
2
0
SEQEND
8
OBJECT__13
0
POLYLINE
8
OBJECT__14
66
1
70
64
71
23
72
23
62
253
0
VERTEX
8
OBJECT__14
10
50.000000
20
7.794000
30
4.500000
70
192
0
VERTEX
8
OBJECT__14
10
37.000000
20
7.794000
30
4.500000
70
192
0
VERTEX
8
OBJECT__14
10
37.000000
20
4.500000
30
7.794000
70
192
0
VERTEX
8
OBJECT__14
10
50.000000
20
0.000000
30
9.000000
70
192
0
VERTEX
8
OBJECT__14
10
37.000000
20
7.794000
30
-4.500000
70
192
0
VERTEX
8
OBJECT__14
10
50.000000
20
9.000000
30
0.000000
70
192
0
VERTEX
8
OBJECT__14
10
50.000000
20
7.794000
30
-4.500000
70
192
0
VERTEX
8
OBJECT__14
10
50.000000
20
0.000000
30
-9.000000
70
192
0
VERTEX
8
OBJECT__14
10
37.000000
20
4.500000
30
-7.794000
70
192
0
VERTEX
8
OBJECT__14
10
37.000000
20
0.000000
30
-9.000000
70
192
0
VERTEX
8
OBJECT__14
10
38.833000
20
-7.647000
30
-4.745000
70
192
0
VERTEX
8
OBJECT__14
10
37.000000
20
-6.913000
30
-5.763000
70
192
0
VERTEX
8
OBJECT__14
10
37.000000
20
-3.817000
30
-8.151000
70
192
0
VERTEX
8
OBJECT__14
10
50.000000
20
-7.794000
30
-4.500000
70
192
0
VERTEX
8
OBJECT__14
10
39.064999
20
-7.777000
30
-4.491000
70
192
0
VERTEX
8
OBJECT__14
10
37.000000
20
0.000000
30
9.000000
70
192
0
VERTEX
8
OBJECT__14
10
38.639999
20
-7.685000
30
4.436000
70
192
0
VERTEX
8
OBJECT__14
10
37.000000
20
-6.913000
30
5.763000
70
192
0
VERTEX
8
OBJECT__14
10
50.000000
20
-7.794000
30
4.500000
70
192
0
VERTEX
8
OBJECT__14
10
40.923000
20
-8.881000
30
1.457000
70
192
0
VERTEX
8
OBJECT__14
10
41.099998
20
-9.000000
30
0.000000
70
192
0
VERTEX
8
OBJECT__14
10
40.216999
20
-8.426000
30
3.162000
70
192
0
VERTEX
8
OBJECT__14
10
40.078999
20
-8.342000
30
-3.378000
70
192
0
VERTEX
8
OBJECT__14
10
0
20
0
30
0
70
128
71
1
72
2
73
3
0
VERTEX
8
OBJECT__14
10
0
20
0
30
0
70
128
71
3
72
4
73
1
0
VERTEX
8
OBJECT__14
10
0
20
0
30
0
70
128
71
5
72
2
73
6
0
VERTEX
8
OBJECT__14
10
0
20
0
30
0
70
128
71
2
72
1
73
6
0
VERTEX
8
OBJECT__14
10
0
20
0
30
0
70
128
71
7
72
8
73
9
0
VERTEX
8
OBJECT__14
10
0
20
0
30
0
70
128
71
8
72
10
73
9
0
VERTEX
8
OBJECT__14
10
0
20
0
30
0
70
128
71
8
72
11
73
12
0
VERTEX
8
OBJECT__14
10
0
20
0
30
0
70
128
71
12
72
13
73
8
0
VERTEX
8
OBJECT__14
10
0
20
0
30
0
70
128
71
8
72
14
73
15
0
VERTEX
8
OBJECT__14
10
0
20
0
30
0
70
128
71
15
72
11
73
8
0
VERTEX
8
OBJECT__14
10
0
20
0
30
0
70
128
71
4
72
16
73
17
0
VERTEX
8
OBJECT__14
10
0
20
0
30
0
70
128
71
16
72
18
73
17
0
VERTEX
8
OBJECT__14
10
0
20
0
30
0
70
128
71
19
72
20
73
21
0
VERTEX
8
OBJECT__14
10
0
20
0
30
0
70
128
71
19
72
22
73
20
0
VERTEX
8
OBJECT__14
10
0
20
0
30
0
70
128
71
21
72
14
73
19
0
VERTEX
8
OBJECT__14
10
0
20
0
30
0
70
128
71
21
72
23
73
14
0
VERTEX
8
OBJECT__14
10
0
20
0
30
0
70
128
71
19
72
17
73
22
0
VERTEX
8
OBJECT__14
10
0
20
0
30
0
70
128
71
23
72
15
73
14
0
VERTEX
8
OBJECT__14
10
0
20
0
30
0
70
128
71
17
72
19
73
4
0
VERTEX
8
OBJECT__14
10
0
20
0
30
0
70
128
71
13
72
10
73
8
0
VERTEX
8
OBJECT__14
10
0
20
0
30
0
70
128
71
9
72
5
73
7
0
VERTEX
8
OBJECT__14
10
0
20
0
30
0
70
128
71
6
72
7
73
5
0
VERTEX
8
OBJECT__14
10
0
20
0
30
0
70
128
71
3
72
16
73
4
0
SEQEND
8
OBJECT__14
0
POLYLINE
8
OBJECT__16
66
1
70
64
71
18
72
16
62
253
0
VERTEX
8
OBJECT__16
10
37.000000
20
4.500000
30
7.794000
70
192
0
VERTEX
8
OBJECT__16
10
37.000000
20
4.804000
30
7.012000
70
192
0
VERTEX
8
OBJECT__16
10
37.000000
20
0.980000
30
8.443000
70
192
0
VERTEX
8
OBJECT__16
10
37.000000
20
7.794000
30
4.500000
70
192
0
VERTEX
8
OBJECT__16
10
37.000000
20
7.519000
30
3.963000
70
192
0
VERTEX
8
OBJECT__16
10
37.000000
20
-6.913000
30
-5.763000
70
192
0
VERTEX
8
OBJECT__16
10
37.000000
20
-6.248000
30
-5.763000
70
192
0
VERTEX
8
OBJECT__16
10
37.000000
20
-4.732000
30
-7.061000
70
192
0
VERTEX
8
OBJECT__16
10
37.000000
20
0.000000
30
9.000000
70
192
0
VERTEX
8
OBJECT__16
10
37.000000
20
-6.248000
30
5.763000
70
192
0
VERTEX
8
OBJECT__16
10
37.000000
20
7.519000
30
-3.963000
70
192
0
VERTEX
8
OBJECT__16
10
37.000000
20
7.794000
30
-4.500000
70
192
0
VERTEX
8
OBJECT__16
10
37.000000
20
4.500000
30
-7.794000
70
192
0
VERTEX
8
OBJECT__16
10
37.000000
20
0.000000
30
-9.000000
70
192
0
VERTEX
8
OBJECT__16
10
37.000000
20
-3.817000
30
-8.151000
70
192
0
VERTEX
8
OBJECT__16
10
37.000000
20
-2.955000
30
-7.970000
70
192
0
VERTEX
8
OBJECT__16
10
37.000000
20
0.980000
30
-8.443000
70
192
0
VERTEX
8
OBJECT__16
10
37.000000
20
-6.913000
30
5.763000
70
192
0
VERTEX
8
OBJECT__16
10
0
20
0
30
0
70
128
71
1
72
2
73
3
0
VERTEX
8
OBJECT__16
10
0
20
0
30
0
70
128
71
4
72
5
73
2
0
VERTEX
8
OBJECT__16
10
0
20
0
30
0
70
128
71
6
72
7
73
8
0
VERTEX
8
OBJECT__16
10
0
20
0
30
0
70
128
71
9
72
3
73
10
0
VERTEX
8
OBJECT__16
10
0
20
0
30
0
70
128
71
2
72
1
73
4
0
VERTEX
8
OBJECT__16
10
0
20
0
30
0
70
128
71
11
72
12
73
13
0
VERTEX
8
OBJECT__16
10
0
20
0
30
0
70
128
71
14
72
15
73
16
0
VERTEX
8
OBJECT__16
10
0
20
0
30
0
70
128
71
8
72
15
73
6
0
VERTEX
8
OBJECT__16
10
0
20
0
30
0
70
128
71
3
72
9
73
1
0
VERTEX
8
OBJECT__16
10
0
20
0
30
0
70
128
71
4
72
12
73
11
0
VERTEX
8
OBJECT__16
10
0
20
0
30
0
70
128
71
13
72
14
73
17
0
VERTEX
8
OBJECT__16
10
0
20
0
30
0
70
128
71
8
72
16
73
15
0
VERTEX
8
OBJECT__16
10
0
20
0
30
0
70
128
71
11
72
5
73
4
0
VERTEX
8
OBJECT__16
10
0
20
0
30
0
70
128
71
16
72
17
73
14
0
VERTEX
8
OBJECT__16
10
0
20
0
30
0
70
128
71
13
72
17
73
11
0
VERTEX
8
OBJECT__16
10
0
20
0
30
0
70
128
71
10
72
18
73
9
0
SEQEND
8
OBJECT__16
0
POLYLINE
8
OBJECT__17
66
1
70
64
71
15
72
13
62
253
0
VERTEX
8
OBJECT__17
10
36.000000
20
7.519000
30
3.963000
70
192
0
VERTEX
8
OBJECT__17
10
36.000000
20
0.980000
30
8.443000
70
192
0
VERTEX
8
OBJECT__17
10
37.000000
20
4.804000
30
7.012000
70
192
0
VERTEX
8
OBJECT__17
10
37.000000
20
0.980000
30
8.443000
70
192
0
VERTEX
8
OBJECT__17
10
37.000000
20
7.519000
30
-3.963000
70
192
0
VERTEX
8
OBJECT__17
10
36.000000
20
7.519000
30
-3.963000
70
192
0
VERTEX
8
OBJECT__17
10
37.000000
20
0.980000
30
-8.443000
70
192
0
VERTEX
8
OBJECT__17
10
36.000000
20
0.980000
30
-8.443000
70
192
0
VERTEX
8
OBJECT__17
10
36.000000
20
-6.003000
30
6.017000
70
192
0
VERTEX
8
OBJECT__17
10
36.000000
20
-6.003000
30
-6.017000
70
192
0
VERTEX
8
OBJECT__17
10
37.000000
20
-2.955000
30
-7.970000
70
192
0
VERTEX
8
OBJECT__17
10
37.000000
20
-4.732000
30
-7.061000
70
192
0
VERTEX
8
OBJECT__17
10
37.000000
20
-6.248000
30
-5.763000
70
192
0
VERTEX
8
OBJECT__17
10
37.000000
20
-6.248000
30
5.763000
70
192
0
VERTEX
8
OBJECT__17
10
37.000000
20
7.519000
30
3.963000
70
192
0
VERTEX
8
OBJECT__17
10
0
20
0
30
0
70
128
71
1
72
2
73
3
0
VERTEX
8
OBJECT__17
10
0
20
0
30
0
70
128
71
2
72
4
73
3
0
VERTEX
8
OBJECT__17
10
0
20
0
30
0
70
128
71
5
72
6
73
1
0
VERTEX
8
OBJECT__17
10
0
20
0
30
0
70
128
71
7
72
8
73
6
0
VERTEX
8
OBJECT__17
10
0
20
0
30
0
70
128
71
4
72
2
73
9
0
VERTEX
8
OBJECT__17
10
0
20
0
30
0
70
128
71
10
72
11
73
12
0
VERTEX
8
OBJECT__17
10
0
20
0
30
0
70
128
71
8
72
7
73
11
0
VERTEX
8
OBJECT__17
10
0
20
0
30
0
70
128
71
11
72
10
73
8
0
VERTEX
8
OBJECT__17
10
0
20
0
30
0
70
128
71
12
72
13
73
10
0
VERTEX
8
OBJECT__17
10
0
20
0
30
0
70
128
71
9
72
14
73
4
0
VERTEX
8
OBJECT__17
10
0
20
0
30
0
70
128
71
6
72
5
73
7
0
VERTEX
8
OBJECT__17
10
0
20
0
30
0
70
128
71
1
72
15
73
5
0
VERTEX
8
OBJECT__17
10
0
20
0
30
0
70
128
71
3
72
15
73
1
0
SEQEND
8
OBJECT__17
0
POLYLINE
8
OBJECT__18
66
1
70
64
71
12
72
10
62
253
0
VERTEX
8
OBJECT__18
10
36.000000
20
7.951000
30
4.217000
70
192
0
VERTEX
8
OBJECT__18
10
36.000000
20
0.969000
30
8.948000
70
192
0
VERTEX
8
OBJECT__18
10
36.000000
20
0.980000
30
8.443000
70
192
0
VERTEX
8
OBJECT__18
10
36.000000
20
-6.693000
30
6.017000
70
192
0
VERTEX
8
OBJECT__18
10
36.000000
20
-6.003000
30
6.017000
70
192
0
VERTEX
8
OBJECT__18
10
36.000000
20
0.969000
30
-8.948000
70
192
0
VERTEX
8
OBJECT__18
10
36.000000
20
0.980000
30
-8.443000
70
192
0
VERTEX
8
OBJECT__18
10
36.000000
20
-6.003000
30
-6.017000
70
192
0
VERTEX
8
OBJECT__18
10
36.000000
20
7.951000
30
-4.217000
70
192
0
VERTEX
8
OBJECT__18
10
36.000000
20
7.519000
30
-3.963000
70
192
0
VERTEX
8
OBJECT__18
10
36.000000
20
7.519000
30
3.963000
70
192
0
VERTEX
8
OBJECT__18
10
36.000000
20
-6.693000
30
-6.017000
70
192
0
VERTEX
8
OBJECT__18
10
0
20
0
30
0
70
128
71
1
72
2
73
3
0
VERTEX
8
OBJECT__18
10
0
20
0
30
0
70
128
71
2
72
4
73
5
0
VERTEX
8
OBJECT__18
10
0
20
0
30
0
70
128
71
6
72
7
73
8
0
VERTEX
8
OBJECT__18
10
0
20
0
30
0
70
128
71
9
72
10
73
7
0
VERTEX
8
OBJECT__18
10
0
20
0
30
0
70
128
71
1
72
11
73
10
0
VERTEX
8
OBJECT__18
10
0
20
0
30
0
70
128
71
5
72
3
73
2
0
VERTEX
8
OBJECT__18
10
0
20
0
30
0
70
128
71
7
72
6
73
9
0
VERTEX
8
OBJECT__18
10
0
20
0
30
0
70
128
71
3
72
11
73
1
0
VERTEX
8
OBJECT__18
10
0
20
0
30
0
70
128
71
10
72
9
73
1
0
VERTEX
8
OBJECT__18
10
0
20
0
30
0
70
128
71
8
72
12
73
6
0
SEQEND
8
OBJECT__18
0
POLYLINE
8
OBJECT__19
66
1
70
64
71
14
72
12
62
253
0
VERTEX
8
OBJECT__19
10
36.000000
20
7.951000
30
4.217000
70
192
0
VERTEX
8
OBJECT__19
10
34.000000
20
7.951000
30
4.217000
70
192
0
VERTEX
8
OBJECT__19
10
34.000000
20
0.969000
30
8.948000
70
192
0
VERTEX
8
OBJECT__19
10
36.000000
20
7.951000
30
-4.217000
70
192
0
VERTEX
8
OBJECT__19
10
34.000000
20
7.951000
30
-4.217000
70
192
0
VERTEX
8
OBJECT__19
10
36.000000
20
0.969000
30
-8.948000
70
192
0
VERTEX
8
OBJECT__19
10
34.000000
20
0.969000
30
-8.948000
70
192
0
VERTEX
8
OBJECT__19
10
34.000000
20
-6.693000
30
6.017000
70
192
0
VERTEX
8
OBJECT__19
10
35.536999
20
-6.639000
30
6.076000
70
192
0
VERTEX
8
OBJECT__19
10
36.000000
20
0.969000
30
8.948000
70
192
0
VERTEX
8
OBJECT__19
10
36.000000
20
-6.693000
30
-6.017000
70
192
0
VERTEX
8
OBJECT__19
10
34.463001
20
-6.639000
30
-6.076000
70
192
0
VERTEX
8
OBJECT__19
10
34.000000
20
-6.693000
30
-6.017000
70
192
0
VERTEX
8
OBJECT__19
10
36.000000
20
-6.693000
30
6.017000
70
192
0
VERTEX
8
OBJECT__19
10
0
20
0
30
0
70
128
71
1
72
2
73
3
0
VERTEX
8
OBJECT__19
10
0
20
0
30
0
70
128
71
4
72
5
73
2
0
VERTEX
8
OBJECT__19
10
0
20
0
30
0
70
128
71
6
72
7
73
5
0
VERTEX
8
OBJECT__19
10
0
20
0
30
0
70
128
71
3
72
8
73
9
0
VERTEX
8
OBJECT__19
10
0
20
0
30
0
70
128
71
9
72
10
73
3
0
VERTEX
8
OBJECT__19
10
0
20
0
30
0
70
128
71
6
72
11
73
12
0
VERTEX
8
OBJECT__19
10
0
20
0
30
0
70
128
71
12
72
7
73
6
0
VERTEX
8
OBJECT__19
10
0
20
0
30
0
70
128
71
12
72
13
73
7
0
VERTEX
8
OBJECT__19
10
0
20
0
30
0
70
128
71
9
72
14
73
10
0
VERTEX
8
OBJECT__19
10
0
20
0
30
0
70
128
71
5
72
4
73
6
0
VERTEX
8
OBJECT__19
10
0
20
0
30
0
70
128
71
2
72
1
73
4
0
VERTEX
8
OBJECT__19
10
0
20
0
30
0
70
128
71
3
72
10
73
1
0
SEQEND
8
OBJECT__19
0
POLYLINE
8
OBJECT__20
66
1
70
64
71
12
72
10
62
253
0
VERTEX
8
OBJECT__20
10
34.000000
20
0.969000
30
8.948000
70
192
0
VERTEX
8
OBJECT__20
10
34.000000
20
0.980000
30
8.443000
70
192
0
VERTEX
8
OBJECT__20
10
34.000000
20
-6.003000
30
6.017000
70
192
0
VERTEX
8
OBJECT__20
10
34.000000
20
7.951000
30
4.217000
70
192
0
VERTEX
8
OBJECT__20
10
34.000000
20
7.519000
30
3.963000
70
192
0
VERTEX
8
OBJECT__20
10
34.000000
20
7.951000
30
-4.217000
70
192
0
VERTEX
8
OBJECT__20
10
34.000000
20
7.519000
30
-3.963000
70
192
0
VERTEX
8
OBJECT__20
10
34.000000
20
0.969000
30
-8.948000
70
192
0
VERTEX
8
OBJECT__20
10
34.000000
20
0.980000
30
-8.443000
70
192
0
VERTEX
8
OBJECT__20
10
34.000000
20
-6.693000
30
-6.017000
70
192
0
VERTEX
8
OBJECT__20
10
34.000000
20
-6.003000
30
-6.017000
70
192
0
VERTEX
8
OBJECT__20
10
34.000000
20
-6.693000
30
6.017000
70
192
0
VERTEX
8
OBJECT__20
10
0
20
0
30
0
70
128
71
1
72
2
73
3
0
VERTEX
8
OBJECT__20
10
0
20
0
30
0
70
128
71
4
72
5
73
2
0
VERTEX
8
OBJECT__20
10
0
20
0
30
0
70
128
71
2
72
1
73
4
0
VERTEX
8
OBJECT__20
10
0
20
0
30
0
70
128
71
4
72
6
73
7
0
VERTEX
8
OBJECT__20
10
0
20
0
30
0
70
128
71
6
72
8
73
9
0
VERTEX
8
OBJECT__20
10
0
20
0
30
0
70
128
71
8
72
10
73
11
0
VERTEX
8
OBJECT__20
10
0
20
0
30
0
70
128
71
7
72
5
73
4
0
VERTEX
8
OBJECT__20
10
0
20
0
30
0
70
128
71
11
72
9
73
8
0
VERTEX
8
OBJECT__20
10
0
20
0
30
0
70
128
71
9
72
7
73
6
0
VERTEX
8
OBJECT__20
10
0
20
0
30
0
70
128
71
3
72
12
73
1
0
SEQEND
8
OBJECT__20
0
POLYLINE
8
OBJECT__21
66
1
70
64
71
15
72
13
62
253
0
VERTEX
8
OBJECT__21
10
34.000000
20
7.519000
30
3.963000
70
192
0
VERTEX
8
OBJECT__21
10
33.000000
20
7.519000
30
3.963000
70
192
0
VERTEX
8
OBJECT__21
10
33.000000
20
0.980000
30
8.443000
70
192
0
VERTEX
8
OBJECT__21
10
34.000000
20
7.519000
30
-3.963000
70
192
0
VERTEX
8
OBJECT__21
10
33.000000
20
7.519000
30
-3.963000
70
192
0
VERTEX
8
OBJECT__21
10
34.000000
20
0.980000
30
-8.443000
70
192
0
VERTEX
8
OBJECT__21
10
33.000000
20
4.804000
30
-7.012000
70
192
0
VERTEX
8
OBJECT__21
10
33.000000
20
0.980000
30
-8.443000
70
192
0
VERTEX
8
OBJECT__21
10
34.000000
20
-6.003000
30
6.017000
70
192
0
VERTEX
8
OBJECT__21
10
33.000000
20
-2.955000
30
7.970000
70
192
0
VERTEX
8
OBJECT__21
10
33.000000
20
-4.732000
30
7.061000
70
192
0
VERTEX
8
OBJECT__21
10
34.000000
20
0.980000
30
8.443000
70
192
0
VERTEX
8
OBJECT__21
10
34.000000
20
-6.003000
30
-6.017000
70
192
0
VERTEX
8
OBJECT__21
10
33.000000
20
-6.248000
30
-5.763000
70
192
0
VERTEX
8
OBJECT__21
10
33.000000
20
-6.248000
30
5.763000
70
192
0
VERTEX
8
OBJECT__21
10
0
20
0
30
0
70
128
71
1
72
2
73
3
0
VERTEX
8
OBJECT__21
10
0
20
0
30
0
70
128
71
4
72
5
73
2
0
VERTEX
8
OBJECT__21
10
0
20
0
30
0
70
128
71
4
72
6
73
7
0
VERTEX
8
OBJECT__21
10
0
20
0
30
0
70
128
71
6
72
8
73
7
0
VERTEX
8
OBJECT__21
10
0
20
0
30
0
70
128
71
9
72
10
73
11
0
VERTEX
8
OBJECT__21
10
0
20
0
30
0
70
128
71
12
72
3
73
10
0
VERTEX
8
OBJECT__21
10
0
20
0
30
0
70
128
71
10
72
9
73
12
0
VERTEX
8
OBJECT__21
10
0
20
0
30
0
70
128
71
8
72
6
73
13
0
VERTEX
8
OBJECT__21
10
0
20
0
30
0
70
128
71
13
72
14
73
8
0
VERTEX
8
OBJECT__21
10
0
20
0
30
0
70
128
71
11
72
15
73
9
0
VERTEX
8
OBJECT__21
10
0
20
0
30
0
70
128
71
7
72
5
73
4
0
VERTEX
8
OBJECT__21
10
0
20
0
30
0
70
128
71
2
72
1
73
4
0
VERTEX
8
OBJECT__21
10
0
20
0
30
0
70
128
71
3
72
12
73
1
0
SEQEND
8
OBJECT__21
0
POLYLINE
8
OBJECT__22
66
1
70
64
71
18
72
16
62
253
0
VERTEX
8
OBJECT__22
10
33.000000
20
4.500000
30
-7.794000
70
192
0
VERTEX
8
OBJECT__22
10
33.000000
20
4.804000
30
-7.012000
70
192
0
VERTEX
8
OBJECT__22
10
33.000000
20
0.980000
30
-8.443000
70
192
0
VERTEX
8
OBJECT__22
10
33.000000
20
7.794000
30
-4.500000
70
192
0
VERTEX
8
OBJECT__22
10
33.000000
20
7.519000
30
-3.963000
70
192
0
VERTEX
8
OBJECT__22
10
33.000000
20
-6.913000
30
5.763000
70
192
0
VERTEX
8
OBJECT__22
10
33.000000
20
-6.248000
30
5.763000
70
192
0
VERTEX
8
OBJECT__22
10
33.000000
20
-4.732000
30
7.061000
70
192
0
VERTEX
8
OBJECT__22
10
33.000000
20
0.000000
30
-9.000000
70
192
0
VERTEX
8
OBJECT__22
10
33.000000
20
-6.248000
30
-5.763000
70
192
0
VERTEX
8
OBJECT__22
10
33.000000
20
7.519000
30
3.963000
70
192
0
VERTEX
8
OBJECT__22
10
33.000000
20
7.794000
30
4.500000
70
192
0
VERTEX
8
OBJECT__22
10
33.000000
20
4.500000
30
7.794000
70
192
0
VERTEX
8
OBJECT__22
10
33.000000
20
0.000000
30
9.000000
70
192
0
VERTEX
8
OBJECT__22
10
33.000000
20
-3.817000
30
8.151000
70
192
0
VERTEX
8
OBJECT__22
10
33.000000
20
-2.955000
30
7.970000
70
192
0
VERTEX
8
OBJECT__22
10
33.000000
20
0.980000
30
8.443000
70
192
0
VERTEX
8
OBJECT__22
10
33.000000
20
-6.913000
30
-5.763000
70
192
0
VERTEX
8
OBJECT__22
10
0
20
0
30
0
70
128
71
1
72
2
73
3
0
VERTEX
8
OBJECT__22
10
0
20
0
30
0
70
128
71
4
72
5
73
2
0
VERTEX
8
OBJECT__22
10
0
20
0
30
0
70
128
71
6
72
7
73
8
0
VERTEX
8
OBJECT__22
10
0
20
0
30
0
70
128
71
9
72
3
73
10
0
VERTEX
8
OBJECT__22
10
0
20
0
30
0
70
128
71
2
72
1
73
4
0
VERTEX
8
OBJECT__22
10
0
20
0
30
0
70
128
71
11
72
12
73
13
0
VERTEX
8
OBJECT__22
10
0
20
0
30
0
70
128
71
14
72
15
73
16
0
VERTEX
8
OBJECT__22
10
0
20
0
30
0
70
128
71
8
72
15
73
6
0
VERTEX
8
OBJECT__22
10
0
20
0
30
0
70
128
71
3
72
9
73
1
0
VERTEX
8
OBJECT__22
10
0
20
0
30
0
70
128
71
12
72
11
73
5
0
VERTEX
8
OBJECT__22
10
0
20
0
30
0
70
128
71
13
72
14
73
17
0
VERTEX
8
OBJECT__22
10
0
20
0
30
0
70
128
71
8
72
16
73
15
0
VERTEX
8
OBJECT__22
10
0
20
0
30
0
70
128
71
5
72
4
73
12
0
VERTEX
8
OBJECT__22
10
0
20
0
30
0
70
128
71
16
72
17
73
14
0
VERTEX
8
OBJECT__22
10
0
20
0
30
0
70
128
71
13
72
17
73
11
0
VERTEX
8
OBJECT__22
10
0
20
0
30
0
70
128
71
10
72
18
73
9
0
SEQEND
8
OBJECT__22
0
POLYLINE
8
OBJECT__23
66
1
70
64
71
23
72
23
62
253
0
VERTEX
8
OBJECT__23
10
0.000000
20
7.794000
30
4.500000
70
192
0
VERTEX
8
OBJECT__23
10
0.000000
20
0.000000
30
9.000000
70
192
0
VERTEX
8
OBJECT__23
10
33.000000
20
4.500000
30
7.794000
70
192
0
VERTEX
8
OBJECT__23
10
33.000000
20
0.000000
30
9.000000
70
192
0
VERTEX
8
OBJECT__23
10
33.000000
20
7.794000
30
-4.500000
70
192
0
VERTEX
8
OBJECT__23
10
0.000000
20
7.794000
30
-4.500000
70
192
0
VERTEX
8
OBJECT__23
10
0.000000
20
9.000000
30
0.000000
70
192
0
VERTEX
8
OBJECT__23
10
33.000000
20
7.794000
30
4.500000
70
192
0
VERTEX
8
OBJECT__23
10
33.000000
20
4.500000
30
-7.794000
70
192
0
VERTEX
8
OBJECT__23
10
0.000000
20
0.000000
30
-9.000000
70
192
0
VERTEX
8
OBJECT__23
10
33.000000
20
0.000000
30
-9.000000
70
192
0
VERTEX
8
OBJECT__23
10
31.360001
20
-7.685000
30
-4.436000
70
192
0
VERTEX
8
OBJECT__23
10
33.000000
20
-6.913000
30
-5.763000
70
192
0
VERTEX
8
OBJECT__23
10
0.000000
20
-7.794000
30
-4.500000
70
192
0
VERTEX
8
OBJECT__23
10
29.077000
20
-8.881000
30
-1.457000
70
192
0
VERTEX
8
OBJECT__23
10
28.900000
20
-9.000000
30
0.000000
70
192
0
VERTEX
8
OBJECT__23
10
29.783001
20
-8.426000
30
-3.162000
70
192
0
VERTEX
8
OBJECT__23
10
0.000000
20
-7.794000
30
4.500000
70
192
0
VERTEX
8
OBJECT__23
10
29.921000
20
-8.342000
30
3.378000
70
192
0
VERTEX
8
OBJECT__23
10
33.000000
20
-3.817000
30
8.151000
70
192
0
VERTEX
8
OBJECT__23
10
31.167000
20
-7.647000
30
4.745000
70
192
0
VERTEX
8
OBJECT__23
10
33.000000
20
-6.913000
30
5.763000
70
192
0
VERTEX
8
OBJECT__23
10
30.934999
20
-7.777000
30
4.491000
70
192
0
VERTEX
8
OBJECT__23
10
0
20
0
30
0
70
128
71
1
72
2
73
3
0
VERTEX
8
OBJECT__23
10
0
20
0
30
0
70
128
71
2
72
4
73
3
0
VERTEX
8
OBJECT__23
10
0
20
0
30
0
70
128
71
5
72
6
73
7
0
VERTEX
8
OBJECT__23
10
0
20
0
30
0
70
128
71
7
72
8
73
5
0
VERTEX
8
OBJECT__23
10
0
20
0
30
0
70
128
71
6
72
5
73
9
0
VERTEX
8
OBJECT__23
10
0
20
0
30
0
70
128
71
9
72
10
73
6
0
VERTEX
8
OBJECT__23
10
0
20
0
30
0
70
128
71
10
72
11
73
12
0
VERTEX
8
OBJECT__23
10
0
20
0
30
0
70
128
71
11
72
13
73
12
0
VERTEX
8
OBJECT__23
10
0
20
0
30
0
70
128
71
14
72
15
73
16
0
VERTEX
8
OBJECT__23
10
0
20
0
30
0
70
128
71
14
72
17
73
15
0
VERTEX
8
OBJECT__23
10
0
20
0
30
0
70
128
71
16
72
18
73
14
0
VERTEX
8
OBJECT__23
10
0
20
0
30
0
70
128
71
16
72
19
73
18
0
VERTEX
8
OBJECT__23
10
0
20
0
30
0
70
128
71
14
72
12
73
17
0
VERTEX
8
OBJECT__23
10
0
20
0
30
0
70
128
71
20
72
2
73
21
0
VERTEX
8
OBJECT__23
10
0
20
0
30
0
70
128
71
21
72
22
73
20
0
VERTEX
8
OBJECT__23
10
0
20
0
30
0
70
128
71
2
72
18
73
23
0
VERTEX
8
OBJECT__23
10
0
20
0
30
0
70
128
71
23
72
21
73
2
0
VERTEX
8
OBJECT__23
10
0
20
0
30
0
70
128
71
20
72
4
73
2
0
VERTEX
8
OBJECT__23
10
0
20
0
30
0
70
128
71
19
72
23
73
18
0
VERTEX
8
OBJECT__23
10
0
20
0
30
0
70
128
71
12
72
14
73
10
0
VERTEX
8
OBJECT__23
10
0
20
0
30
0
70
128
71
9
72
11
73
10
0
VERTEX
8
OBJECT__23
10
0
20
0
30
0
70
128
71
7
72
1
73
8
0
VERTEX
8
OBJECT__23
10
0
20
0
30
0
70
128
71
3
72
8
73
1
0
SEQEND
8
OBJECT__23
0
POLYLINE
8
OBJECT__24
66
1
70
64
71
8
72
6
62
253
0
VERTEX
8
OBJECT__24
10
38.000000
20
5.000000
30
-5.196000
70
192
0
VERTEX
8
OBJECT__24
10
41.000000
20
5.000000
30
0.000000
70
192
0
VERTEX
8
OBJECT__24
10
41.000000
20
-595.000000
30
0.000000
70
192
0
VERTEX
8
OBJECT__24
10
32.000000
20
-595.000000
30
-5.196000
70
192
0
VERTEX
8
OBJECT__24
10
32.000000
20
5.000000
30
-5.196000
70
192
0
VERTEX
8
OBJECT__24
10
29.000000
20
-595.000000
30
0.000000
70
192
0
VERTEX
8
OBJECT__24
10
29.000000
20
5.000000
30
0.000000
70
192
0
VERTEX
8
OBJECT__24
10
38.000000
20
-595.000000
30
-5.196000
70
192
0
VERTEX
8
OBJECT__24
10
0
20
0
30
0
70
128
71
1
72
2
73
3
0
VERTEX
8
OBJECT__24
10
0
20
0
30
0
70
128
71
4
72
5
73
1
0
VERTEX
8
OBJECT__24
10
0
20
0
30
0
70
128
71
6
72
7
73
5
0
VERTEX
8
OBJECT__24
10
0
20
0
30
0
70
128
71
5
72
4
73
6
0
VERTEX
8
OBJECT__24
10
0
20
0
30
0
70
128
71
1
72
8
73
4
0
VERTEX
8
OBJECT__24
10
0
20
0
30
0
70
128
71
3
72
8
73
1
0
SEQEND
8
OBJECT__24
0
POLYLINE
8
OBJECT__25
66
1
70
64
71
8
72
6
62
253
0
VERTEX
8
OBJECT__25
10
32.000000
20
-595.000000
30
5.196000
70
192
0
VERTEX
8
OBJECT__25
10
32.000000
20
5.000000
30
5.196000
70
192
0
VERTEX
8
OBJECT__25
10
29.000000
20
5.000000
30
0.000000
70
192
0
VERTEX
8
OBJECT__25
10
38.000000
20
-595.000000
30
5.196000
70
192
0
VERTEX
8
OBJECT__25
10
38.000000
20
5.000000
30
5.196000
70
192
0
VERTEX
8
OBJECT__25
10
41.000000
20
5.000000
30
0.000000
70
192
0
VERTEX
8
OBJECT__25
10
41.000000
20
-595.000000
30
0.000000
70
192
0
VERTEX
8
OBJECT__25
10
29.000000
20
-595.000000
30
0.000000
70
192
0
VERTEX
8
OBJECT__25
10
0
20
0
30
0
70
128
71
1
72
2
73
3
0
VERTEX
8
OBJECT__25
10
0
20
0
30
0
70
128
71
4
72
5
73
2
0
VERTEX
8
OBJECT__25
10
0
20
0
30
0
70
128
71
6
72
5
73
4
0
VERTEX
8
OBJECT__25
10
0
20
0
30
0
70
128
71
4
72
7
73
6
0
VERTEX
8
OBJECT__25
10
0
20
0
30
0
70
128
71
2
72
1
73
4
0
VERTEX
8
OBJECT__25
10
0
20
0
30
0
70
128
71
3
72
8
73
1
0
SEQEND
8
OBJECT__25
0
POLYLINE
8
OBJECT__27
66
1
70
64
71
11
72
9
62
253
0
VERTEX
8
OBJECT__27
10
-0.044000
20
-615.859009
30
-7.564000
70
192
0
VERTEX
8
OBJECT__27
10
-0.156000
20
-590.604980
30
-26.790001
70
192
0
VERTEX
8
OBJECT__27
10
-0.128000
20
-574.622986
30
-21.990999
70
192
0
VERTEX
8
OBJECT__27
10
-0.051000
20
-564.515015
30
-8.714000
70
192
0
VERTEX
8
OBJECT__27
10
0.157000
20
-589.395020
30
27.195000
70
192
0
VERTEX
8
OBJECT__27
10
0.129000
20
-605.377014
30
22.396000
70
192
0
VERTEX
8
OBJECT__27
10
0.046000
20
-564.140991
30
7.969000
70
192
0
VERTEX
8
OBJECT__27
10
-0.124000
20
-606.354980
30
-21.280001
70
192
0
VERTEX
8
OBJECT__27
10
0.125000
20
-573.645020
30
21.684999
70
192
0
VERTEX
8
OBJECT__27
10
0.004000
20
-616.992981
30
0.807000
70
192
0
VERTEX
8
OBJECT__27
10
0.052000
20
-615.484985
30
9.119000
70
192
0
VERTEX
8
OBJECT__27
10
0
20
0
30
0
70
128
71
1
72
2
73
3
0
VERTEX
8
OBJECT__27
10
0
20
0
30
0
70
128
71
4
72
5
73
6
0
VERTEX
8
OBJECT__27
10
0
20
0
30
0
70
128
71
5
72
4
73
7
0
VERTEX
8
OBJECT__27
10
0
20
0
30
0
70
128
71
1
72
8
73
2
0
VERTEX
8
OBJECT__27
10
0
20
0
30
0
70
128
71
7
72
9
73
5
0
VERTEX
8
OBJECT__27
10
0
20
0
30
0
70
128
71
4
72
10
73
1
0
VERTEX
8
OBJECT__27
10
0
20
0
30
0
70
128
71
6
72
11
73
4
0
VERTEX
8
OBJECT__27
10
0
20
0
30
0
70
128
71
11
72
10
73
4
0
VERTEX
8
OBJECT__27
10
0
20
0
30
0
70
128
71
3
72
4
73
1
0
SEQEND
8
OBJECT__27
0
POLYLINE
8
OBJECT__28
66
1
70
64
71
22
72
22
62
253
0
VERTEX
8
OBJECT__28
10
0.129000
20
-605.377014
30
22.396000
70
192
0
VERTEX
8
OBJECT__28
10
0.157000
20
-589.395020
30
27.195000
70
192
0
VERTEX
8
OBJECT__28
10
-9.843000
20
-589.395020
30
27.253000
70
192
0
VERTEX
8
OBJECT__28
10
0.052000
20
-615.484985
30
9.119000
70
192
0
VERTEX
8
OBJECT__28
10
-9.871000
20
-605.377014
30
22.452999
70
192
0
VERTEX
8
OBJECT__28
10
-10.044000
20
-615.859009
30
-7.506000
70
192
0
VERTEX
8
OBJECT__28
10
-0.044000
20
-615.859009
30
-7.564000
70
192
0
VERTEX
8
OBJECT__28
10
0.004000
20
-616.992981
30
0.807000
70
192
0
VERTEX
8
OBJECT__28
10
-9.948000
20
-615.484985
30
9.177000
70
192
0
VERTEX
8
OBJECT__28
10
-9.996000
20
-616.992981
30
0.865000
70
192
0
VERTEX
8
OBJECT__28
10
-0.124000
20
-606.354980
30
-21.280001
70
192
0
VERTEX
8
OBJECT__28
10
-0.156000
20
-590.604980
30
-26.790001
70
192
0
VERTEX
8
OBJECT__28
10
-10.124000
20
-606.354980
30
-21.222000
70
192
0
VERTEX
8
OBJECT__28
10
-10.128000
20
-574.622986
30
-21.933001
70
192
0
VERTEX
8
OBJECT__28
10
-0.128000
20
-574.622986
30
-21.990999
70
192
0
VERTEX
8
OBJECT__28
10
-10.051000
20
-564.515015
30
-8.656000
70
192
0
VERTEX
8
OBJECT__28
10
-0.051000
20
-564.515015
30
-8.714000
70
192
0
VERTEX
8
OBJECT__28
10
-9.954000
20
-564.140991
30
8.026000
70
192
0
VERTEX
8
OBJECT__28
10
0.046000
20
-564.140991
30
7.969000
70
192
0
VERTEX
8
OBJECT__28
10
-9.875000
20
-573.645020
30
21.743000
70
192
0
VERTEX
8
OBJECT__28
10
0.125000
20
-573.645020
30
21.684999
70
192
0
VERTEX
8
OBJECT__28
10
-10.155000
20
-590.604980
30
-26.732000
70
192
0
VERTEX
8
OBJECT__28
10
0
20
0
30
0
70
128
71
1
72
2
73
3
0
VERTEX
8
OBJECT__28
10
0
20
0
30
0
70
128
71
4
72
1
73
5
0
VERTEX
8
OBJECT__28
10
0
20
0
30
0
70
128
71
6
72
7
73
8
0
VERTEX
8
OBJECT__28
10
0
20
0
30
0
70
128
71
4
72
9
73
10
0
VERTEX
8
OBJECT__28
10
0
20
0
30
0
70
128
71
10
72
8
73
4
0
VERTEX
8
OBJECT__28
10
0
20
0
30
0
70
128
71
11
72
7
73
6
0
VERTEX
8
OBJECT__28
10
0
20
0
30
0
70
128
71
12
72
11
73
13
0
VERTEX
8
OBJECT__28
10
0
20
0
30
0
70
128
71
14
72
15
73
12
0
VERTEX
8
OBJECT__28
10
0
20
0
30
0
70
128
71
16
72
17
73
15
0
VERTEX
8
OBJECT__28
10
0
20
0
30
0
70
128
71
18
72
19
73
17
0
VERTEX
8
OBJECT__28
10
0
20
0
30
0
70
128
71
20
72
21
73
19
0
VERTEX
8
OBJECT__28
10
0
20
0
30
0
70
128
71
3
72
2
73
21
0
VERTEX
8
OBJECT__28
10
0
20
0
30
0
70
128
71
21
72
20
73
3
0
VERTEX
8
OBJECT__28
10
0
20
0
30
0
70
128
71
19
72
18
73
20
0
VERTEX
8
OBJECT__28
10
0
20
0
30
0
70
128
71
17
72
16
73
18
0
VERTEX
8
OBJECT__28
10
0
20
0
30
0
70
128
71
15
72
14
73
16
0
VERTEX
8
OBJECT__28
10
0
20
0
30
0
70
128
71
12
72
22
73
14
0
VERTEX
8
OBJECT__28
10
0
20
0
30
0
70
128
71
13
72
22
73
12
0
VERTEX
8
OBJECT__28
10
0
20
0
30
0
70
128
71
6
72
13
73
11
0
VERTEX
8
OBJECT__28
10
0
20
0
30
0
70
128
71
8
72
10
73
6
0
VERTEX
8
OBJECT__28
10
0
20
0
30
0
70
128
71
5
72
9
73
4
0
VERTEX
8
OBJECT__28
10
0
20
0
30
0
70
128
71
3
72
5
73
1
0
SEQEND
8
OBJECT__28
0
POLYLINE
8
OBJECT__30
66
1
70
64
71
11
72
9
62
253
0
VERTEX
8
OBJECT__30
10
-9.843000
20
-589.395020
30
27.253000
70
192
0
VERTEX
8
OBJECT__30
10
-9.875000
20
-573.645020
30
21.743000
70
192
0
VERTEX
8
OBJECT__30
10
-9.954000
20
-564.140991
30
8.026000
70
192
0
VERTEX
8
OBJECT__30
10
-10.051000
20
-564.515015
30
-8.656000
70
192
0
VERTEX
8
OBJECT__30
10
-9.948000
20
-615.484985
30
9.177000
70
192
0
VERTEX
8
OBJECT__30
10
-9.871000
20
-605.377014
30
22.452999
70
192
0
VERTEX
8
OBJECT__30
10
-10.044000
20
-615.859009
30
-7.506000
70
192
0
VERTEX
8
OBJECT__30
10
-10.128000
20
-574.622986
30
-21.933001
70
192
0
VERTEX
8
OBJECT__30
10
-10.155000
20
-590.604980
30
-26.732000
70
192
0
VERTEX
8
OBJECT__30
10
-9.996000
20
-616.992981
30
0.865000
70
192
0
VERTEX
8
OBJECT__30
10
-10.124000
20
-606.354980
30
-21.222000
70
192
0
VERTEX
8
OBJECT__30
10
0
20
0
30
0
70
128
71
1
72
2
73
3
0
VERTEX
8
OBJECT__30
10
0
20
0
30
0
70
128
71
4
72
5
73
6
0
VERTEX
8
OBJECT__30
10
0
20
0
30
0
70
128
71
7
72
4
73
8
0
VERTEX
8
OBJECT__30
10
0
20
0
30
0
70
128
71
6
72
1
73
4
0
VERTEX
8
OBJECT__30
10
0
20
0
30
0
70
128
71
8
72
9
73
7
0
VERTEX
8
OBJECT__30
10
0
20
0
30
0
70
128
71
4
72
10
73
5
0
VERTEX
8
OBJECT__30
10
0
20
0
30
0
70
128
71
9
72
11
73
7
0
VERTEX
8
OBJECT__30
10
0
20
0
30
0
70
128
71
7
72
10
73
4
0
VERTEX
8
OBJECT__30
10
0
20
0
30
0
70
128
71
3
72
4
73
1
0
SEQEND
8
OBJECT__30
0
POLYLINE
8
OBJECT__31
66
1
70
64
71
7
72
5
62
253
0
VERTEX
8
OBJECT__31
10
49.973999
20
-582.205994
30
-4.587000
70
192
0
VERTEX
8
OBJECT__31
10
50.026001
20
-582.205994
30
4.413000
70
192
0
VERTEX
8
OBJECT__31
10
50.051998
20
-590.000000
30
8.913000
70
192
0
VERTEX
8
OBJECT__31
10
50.000000
20
-599.000000
30
-0.087000
70
192
0
VERTEX
8
OBJECT__31
10
49.973999
20
-597.794006
30
-4.587000
70
192
0
VERTEX
8
OBJECT__31
10
50.026001
20
-597.794006
30
4.413000
70
192
0
VERTEX
8
OBJECT__31
10
49.948002
20
-590.000000
30
-9.087000
70
192
0
VERTEX
8
OBJECT__31
10
0
20
0
30
0
70
128
71
1
72
2
73
3
0
VERTEX
8
OBJECT__31
10
0
20
0
30
0
70
128
71
1
72
4
73
5
0
VERTEX
8
OBJECT__31
10
0
20
0
30
0
70
128
71
3
72
6
73
1
0
VERTEX
8
OBJECT__31
10
0
20
0
30
0
70
128
71
6
72
4
73
1
0
VERTEX
8
OBJECT__31
10
0
20
0
30
0
70
128
71
5
72
7
73
1
0
SEQEND
8
OBJECT__31
0
POLYLINE
8
OBJECT__32
66
1
70
64
71
23
72
23
62
253
0
VERTEX
8
OBJECT__32
10
49.948002
20
-590.000000
30
-9.087000
70
192
0
VERTEX
8
OBJECT__32
10
49.973999
20
-597.794006
30
-4.587000
70
192
0
VERTEX
8
OBJECT__32
10
36.955002
20
-594.500000
30
-7.806000
70
192
0
VERTEX
8
OBJECT__32
10
36.973999
20
-597.794006
30
-4.511000
70
192
0
VERTEX
8
OBJECT__32
10
50.000000
20
-599.000000
30
-0.087000
70
192
0
VERTEX
8
OBJECT__32
10
37.026001
20
-597.794006
30
4.488000
70
192
0
VERTEX
8
OBJECT__32
10
50.051998
20
-590.000000
30
8.913000
70
192
0
VERTEX
8
OBJECT__32
10
37.051998
20
-590.000000
30
8.988000
70
192
0
VERTEX
8
OBJECT__32
10
37.044998
20
-594.500000
30
7.783000
70
192
0
VERTEX
8
OBJECT__32
10
50.026001
20
-597.794006
30
4.413000
70
192
0
VERTEX
8
OBJECT__32
10
38.860001
20
-582.353027
30
4.723000
70
192
0
VERTEX
8
OBJECT__32
10
37.033001
20
-583.086975
30
5.751000
70
192
0
VERTEX
8
OBJECT__32
10
37.047001
20
-586.182983
30
8.139000
70
192
0
VERTEX
8
OBJECT__32
10
50.026001
20
-582.205994
30
4.413000
70
192
0
VERTEX
8
OBJECT__32
10
39.091000
20
-582.223022
30
4.467000
70
192
0
VERTEX
8
OBJECT__32
10
36.948002
20
-590.000000
30
-9.011000
70
192
0
VERTEX
8
OBJECT__32
10
38.615002
20
-582.315002
30
-4.457000
70
192
0
VERTEX
8
OBJECT__32
10
36.966999
20
-583.086975
30
-5.774000
70
192
0
VERTEX
8
OBJECT__32
10
49.973999
20
-582.205994
30
-4.587000
70
192
0
VERTEX
8
OBJECT__32
10
40.915001
20
-581.119019
30
-1.492000
70
192
0
VERTEX
8
OBJECT__32
10
41.099998
20
-581.000000
30
-0.035000
70
192
0
VERTEX
8
OBJECT__32
10
40.198002
20
-581.573975
30
-3.192000
70
192
0
VERTEX
8
OBJECT__32
10
40.098999
20
-581.658020
30
3.349000
70
192
0
VERTEX
8
OBJECT__32
10
0
20
0
30
0
70
128
71
1
72
2
73
3
0
VERTEX
8
OBJECT__32
10
0
20
0
30
0
70
128
71
2
72
4
73
3
0
VERTEX
8
OBJECT__32
10
0
20
0
30
0
70
128
71
4
72
2
73
5
0
VERTEX
8
OBJECT__32
10
0
20
0
30
0
70
128
71
5
72
6
73
4
0
VERTEX
8
OBJECT__32
10
0
20
0
30
0
70
128
71
7
72
8
73
9
0
VERTEX
8
OBJECT__32
10
0
20
0
30
0
70
128
71
9
72
10
73
7
0
VERTEX
8
OBJECT__32
10
0
20
0
30
0
70
128
71
7
72
11
73
12
0
VERTEX
8
OBJECT__32
10
0
20
0
30
0
70
128
71
12
72
13
73
7
0
VERTEX
8
OBJECT__32
10
0
20
0
30
0
70
128
71
7
72
14
73
15
0
VERTEX
8
OBJECT__32
10
0
20
0
30
0
70
128
71
15
72
11
73
7
0
VERTEX
8
OBJECT__32
10
0
20
0
30
0
70
128
71
1
72
16
73
17
0
VERTEX
8
OBJECT__32
10
0
20
0
30
0
70
128
71
16
72
18
73
17
0
VERTEX
8
OBJECT__32
10
0
20
0
30
0
70
128
71
19
72
20
73
21
0
VERTEX
8
OBJECT__32
10
0
20
0
30
0
70
128
71
19
72
22
73
20
0
VERTEX
8
OBJECT__32
10
0
20
0
30
0
70
128
71
21
72
14
73
19
0
VERTEX
8
OBJECT__32
10
0
20
0
30
0
70
128
71
21
72
23
73
14
0
VERTEX
8
OBJECT__32
10
0
20
0
30
0
70
128
71
19
72
17
73
22
0
VERTEX
8
OBJECT__32
10
0
20
0
30
0
70
128
71
23
72
15
73
14
0
VERTEX
8
OBJECT__32
10
0
20
0
30
0
70
128
71
17
72
19
73
1
0
VERTEX
8
OBJECT__32
10
0
20
0
30
0
70
128
71
13
72
8
73
7
0
VERTEX
8
OBJECT__32
10
0
20
0
30
0
70
128
71
9
72
6
73
10
0
VERTEX
8
OBJECT__32
10
0
20
0
30
0
70
128
71
5
72
10
73
6
0
VERTEX
8
OBJECT__32
10
0
20
0
30
0
70
128
71
3
72
16
73
1
0
SEQEND
8
OBJECT__32
0
POLYLINE
8
OBJECT__34
66
1
70
64
71
18
72
16
62
253
0
VERTEX
8
OBJECT__34
10
36.955002
20
-594.500000
30
-7.806000
70
192
0
VERTEX
8
OBJECT__34
10
36.959000
20
-594.804016
30
-7.024000
70
192
0
VERTEX
8
OBJECT__34
10
36.951000
20
-590.979980
30
-8.455000
70
192
0
VERTEX
8
OBJECT__34
10
36.973999
20
-597.794006
30
-4.511000
70
192
0
VERTEX
8
OBJECT__34
10
36.977001
20
-597.518982
30
-3.975000
70
192
0
VERTEX
8
OBJECT__34
10
37.033001
20
-583.086975
30
5.751000
70
192
0
VERTEX
8
OBJECT__34
10
37.033001
20
-583.752014
30
5.751000
70
192
0
VERTEX
8
OBJECT__34
10
37.041000
20
-585.268005
30
7.049000
70
192
0
VERTEX
8
OBJECT__34
10
36.948002
20
-590.000000
30
-9.011000
70
192
0
VERTEX
8
OBJECT__34
10
36.966999
20
-583.752014
30
-5.774000
70
192
0
VERTEX
8
OBJECT__34
10
37.022999
20
-597.518982
30
3.952000
70
192
0
VERTEX
8
OBJECT__34
10
37.026001
20
-597.794006
30
4.488000
70
192
0
VERTEX
8
OBJECT__34
10
37.044998
20
-594.500000
30
7.783000
70
192
0
VERTEX
8
OBJECT__34
10
37.051998
20
-590.000000
30
8.988000
70
192
0
VERTEX
8
OBJECT__34
10
37.047001
20
-586.182983
30
8.139000
70
192
0
VERTEX
8
OBJECT__34
10
37.046001
20
-587.044983
30
7.958000
70
192
0
VERTEX
8
OBJECT__34
10
37.049000
20
-590.979980
30
8.432000
70
192
0
VERTEX
8
OBJECT__34
10
36.966999
20
-583.086975
30
-5.774000
70
192
0
VERTEX
8
OBJECT__34
10
0
20
0
30
0
70
128
71
1
72
2
73
3
0
VERTEX
8
OBJECT__34
10
0
20
0
30
0
70
128
71
4
72
5
73
2
0
VERTEX
8
OBJECT__34
10
0
20
0
30
0
70
128
71
6
72
7
73
8
0
VERTEX
8
OBJECT__34
10
0
20
0
30
0
70
128
71
9
72
3
73
10
0
VERTEX
8
OBJECT__34
10
0
20
0
30
0
70
128
71
2
72
1
73
4
0
VERTEX
8
OBJECT__34
10
0
20
0
30
0
70
128
71
11
72
12
73
13
0
VERTEX
8
OBJECT__34
10
0
20
0
30
0
70
128
71
14
72
15
73
16
0
VERTEX
8
OBJECT__34
10
0
20
0
30
0
70
128
71
8
72
15
73
6
0
VERTEX
8
OBJECT__34
10
0
20
0
30
0
70
128
71
3
72
9
73
1
0
VERTEX
8
OBJECT__34
10
0
20
0
30
0
70
128
71
4
72
12
73
11
0
VERTEX
8
OBJECT__34
10
0
20
0
30
0
70
128
71
13
72
14
73
17
0
VERTEX
8
OBJECT__34
10
0
20
0
30
0
70
128
71
8
72
16
73
15
0
VERTEX
8
OBJECT__34
10
0
20
0
30
0
70
128
71
11
72
5
73
4
0
VERTEX
8
OBJECT__34
10
0
20
0
30
0
70
128
71
16
72
17
73
14
0
VERTEX
8
OBJECT__34
10
0
20
0
30
0
70
128
71
13
72
17
73
11
0
VERTEX
8
OBJECT__34
10
0
20
0
30
0
70
128
71
10
72
18
73
9
0
SEQEND
8
OBJECT__34
0
POLYLINE
8
OBJECT__35
66
1
70
64
71
15
72
13
62
253
0
VERTEX
8
OBJECT__35
10
35.951000
20
-590.979980
30
-8.449000
70
192
0
VERTEX
8
OBJECT__35
10
36.951000
20
-590.979980
30
-8.455000
70
192
0
VERTEX
8
OBJECT__35
10
36.959000
20
-594.804016
30
-7.024000
70
192
0
VERTEX
8
OBJECT__35
10
35.977001
20
-597.518982
30
-3.969000
70
192
0
VERTEX
8
OBJECT__35
10
36.022999
20
-597.518982
30
3.957000
70
192
0
VERTEX
8
OBJECT__35
10
36.977001
20
-597.518982
30
-3.975000
70
192
0
VERTEX
8
OBJECT__35
10
37.022999
20
-597.518982
30
3.952000
70
192
0
VERTEX
8
OBJECT__35
10
37.049000
20
-590.979980
30
8.432000
70
192
0
VERTEX
8
OBJECT__35
10
35.965000
20
-583.997009
30
-6.023000
70
192
0
VERTEX
8
OBJECT__35
10
36.049000
20
-590.979980
30
8.437000
70
192
0
VERTEX
8
OBJECT__35
10
37.046001
20
-587.044983
30
7.958000
70
192
0
VERTEX
8
OBJECT__35
10
36.035000
20
-583.997009
30
6.012000
70
192
0
VERTEX
8
OBJECT__35
10
37.041000
20
-585.268005
30
7.049000
70
192
0
VERTEX
8
OBJECT__35
10
37.033001
20
-583.752014
30
5.751000
70
192
0
VERTEX
8
OBJECT__35
10
36.966999
20
-583.752014
30
-5.774000
70
192
0
VERTEX
8
OBJECT__35
10
0
20
0
30
0
70
128
71
1
72
2
73
3
0
VERTEX
8
OBJECT__35
10
0
20
0
30
0
70
128
71
3
72
4
73
1
0
VERTEX
8
OBJECT__35
10
0
20
0
30
0
70
128
71
5
72
4
73
6
0
VERTEX
8
OBJECT__35
10
0
20
0
30
0
70
128
71
5
72
7
73
8
0
VERTEX
8
OBJECT__35
10
0
20
0
30
0
70
128
71
2
72
1
73
9
0
VERTEX
8
OBJECT__35
10
0
20
0
30
0
70
128
71
10
72
8
73
11
0
VERTEX
8
OBJECT__35
10
0
20
0
30
0
70
128
71
11
72
12
73
10
0
VERTEX
8
OBJECT__35
10
0
20
0
30
0
70
128
71
11
72
13
73
12
0
VERTEX
8
OBJECT__35
10
0
20
0
30
0
70
128
71
13
72
14
73
12
0
VERTEX
8
OBJECT__35
10
0
20
0
30
0
70
128
71
9
72
15
73
2
0
VERTEX
8
OBJECT__35
10
0
20
0
30
0
70
128
71
8
72
10
73
5
0
VERTEX
8
OBJECT__35
10
0
20
0
30
0
70
128
71
6
72
7
73
5
0
VERTEX
8
OBJECT__35
10
0
20
0
30
0
70
128
71
3
72
6
73
4
0
SEQEND
8
OBJECT__35
0
POLYLINE
8
OBJECT__36
66
1
70
64
71
12
72
10
62
253
0
VERTEX
8
OBJECT__36
10
36.051998
20
-590.968994
30
8.942000
70
192
0
VERTEX
8
OBJECT__36
10
36.049000
20
-590.979980
30
8.437000
70
192
0
VERTEX
8
OBJECT__36
10
36.035000
20
-583.997009
30
6.012000
70
192
0
VERTEX
8
OBJECT__36
10
36.023998
20
-597.950989
30
4.211000
70
192
0
VERTEX
8
OBJECT__36
10
36.022999
20
-597.518982
30
3.957000
70
192
0
VERTEX
8
OBJECT__36
10
35.976002
20
-597.950989
30
-4.223000
70
192
0
VERTEX
8
OBJECT__36
10
35.977001
20
-597.518982
30
-3.969000
70
192
0
VERTEX
8
OBJECT__36
10
35.948002
20
-590.968994
30
-8.953000
70
192
0
VERTEX
8
OBJECT__36
10
35.951000
20
-590.979980
30
-8.449000
70
192
0
VERTEX
8
OBJECT__36
10
35.965000
20
-583.307007
30
-6.023000
70
192
0
VERTEX
8
OBJECT__36
10
35.965000
20
-583.997009
30
-6.023000
70
192
0
VERTEX
8
OBJECT__36
10
36.035000
20
-583.307007
30
6.012000
70
192
0
VERTEX
8
OBJECT__36
10
0
20
0
30
0
70
128
71
1
72
2
73
3
0
VERTEX
8
OBJECT__36
10
0
20
0
30
0
70
128
71
4
72
5
73
2
0
VERTEX
8
OBJECT__36
10
0
20
0
30
0
70
128
71
2
72
1
73
4
0
VERTEX
8
OBJECT__36
10
0
20
0
30
0
70
128
71
4
72
6
73
7
0
VERTEX
8
OBJECT__36
10
0
20
0
30
0
70
128
71
6
72
8
73
9
0
VERTEX
8
OBJECT__36
10
0
20
0
30
0
70
128
71
8
72
10
73
11
0
VERTEX
8
OBJECT__36
10
0
20
0
30
0
70
128
71
7
72
5
73
4
0
VERTEX
8
OBJECT__36
10
0
20
0
30
0
70
128
71
11
72
9
73
8
0
VERTEX
8
OBJECT__36
10
0
20
0
30
0
70
128
71
9
72
7
73
6
0
VERTEX
8
OBJECT__36
10
0
20
0
30
0
70
128
71
3
72
12
73
1
0
SEQEND
8
OBJECT__36
0
POLYLINE
8
OBJECT__37
66
1
70
64
71
14
72
12
62
253
0
VERTEX
8
OBJECT__37
10
33.976002
20
-597.950989
30
-4.211000
70
192
0
VERTEX
8
OBJECT__37
10
33.948002
20
-590.968994
30
-8.942000
70
192
0
VERTEX
8
OBJECT__37
10
35.948002
20
-590.968994
30
-8.953000
70
192
0
VERTEX
8
OBJECT__37
10
36.023998
20
-597.950989
30
4.211000
70
192
0
VERTEX
8
OBJECT__37
10
34.023998
20
-597.950989
30
4.223000
70
192
0
VERTEX
8
OBJECT__37
10
34.051998
20
-590.968994
30
8.953000
70
192
0
VERTEX
8
OBJECT__37
10
33.965000
20
-583.307007
30
-6.012000
70
192
0
VERTEX
8
OBJECT__37
10
35.501999
20
-583.361023
30
-6.079000
70
192
0
VERTEX
8
OBJECT__37
10
36.051998
20
-590.968994
30
8.942000
70
192
0
VERTEX
8
OBJECT__37
10
36.035000
20
-583.307007
30
6.012000
70
192
0
VERTEX
8
OBJECT__37
10
34.498001
20
-583.361023
30
6.079000
70
192
0
VERTEX
8
OBJECT__37
10
34.035000
20
-583.307007
30
6.023000
70
192
0
VERTEX
8
OBJECT__37
10
35.965000
20
-583.307007
30
-6.023000
70
192
0
VERTEX
8
OBJECT__37
10
35.976002
20
-597.950989
30
-4.223000
70
192
0
VERTEX
8
OBJECT__37
10
0
20
0
30
0
70
128
71
1
72
2
73
3
0
VERTEX
8
OBJECT__37
10
0
20
0
30
0
70
128
71
4
72
5
73
1
0
VERTEX
8
OBJECT__37
10
0
20
0
30
0
70
128
71
6
72
5
73
4
0
VERTEX
8
OBJECT__37
10
0
20
0
30
0
70
128
71
2
72
7
73
8
0
VERTEX
8
OBJECT__37
10
0
20
0
30
0
70
128
71
8
72
3
73
2
0
VERTEX
8
OBJECT__37
10
0
20
0
30
0
70
128
71
9
72
10
73
11
0
VERTEX
8
OBJECT__37
10
0
20
0
30
0
70
128
71
11
72
6
73
9
0
VERTEX
8
OBJECT__37
10
0
20
0
30
0
70
128
71
11
72
12
73
6
0
VERTEX
8
OBJECT__37
10
0
20
0
30
0
70
128
71
8
72
13
73
3
0
VERTEX
8
OBJECT__37
10
0
20
0
30
0
70
128
71
4
72
9
73
6
0
VERTEX
8
OBJECT__37
10
0
20
0
30
0
70
128
71
1
72
14
73
4
0
VERTEX
8
OBJECT__37
10
0
20
0
30
0
70
128
71
3
72
14
73
1
0
SEQEND
8
OBJECT__37
0
POLYLINE
8
OBJECT__38
66
1
70
64
71
12
72
10
62
253
0
VERTEX
8
OBJECT__38
10
33.948002
20
-590.968994
30
-8.942000
70
192
0
VERTEX
8
OBJECT__38
10
33.951000
20
-590.979980
30
-8.437000
70
192
0
VERTEX
8
OBJECT__38
10
33.965000
20
-583.997009
30
-6.012000
70
192
0
VERTEX
8
OBJECT__38
10
33.976002
20
-597.950989
30
-4.211000
70
192
0
VERTEX
8
OBJECT__38
10
33.977001
20
-597.518982
30
-3.957000
70
192
0
VERTEX
8
OBJECT__38
10
34.023998
20
-597.950989
30
4.223000
70
192
0
VERTEX
8
OBJECT__38
10
34.022999
20
-597.518982
30
3.969000
70
192
0
VERTEX
8
OBJECT__38
10
34.051998
20
-590.968994
30
8.953000
70
192
0
VERTEX
8
OBJECT__38
10
34.049000
20
-590.979980
30
8.449000
70
192
0
VERTEX
8
OBJECT__38
10
34.035000
20
-583.307007
30
6.023000
70
192
0
VERTEX
8
OBJECT__38
10
34.035000
20
-583.997009
30
6.023000
70
192
0
VERTEX
8
OBJECT__38
10
33.965000
20
-583.307007
30
-6.012000
70
192
0
VERTEX
8
OBJECT__38
10
0
20
0
30
0
70
128
71
1
72
2
73
3
0
VERTEX
8
OBJECT__38
10
0
20
0
30
0
70
128
71
4
72
5
73
2
0
VERTEX
8
OBJECT__38
10
0
20
0
30
0
70
128
71
2
72
1
73
4
0
VERTEX
8
OBJECT__38
10
0
20
0
30
0
70
128
71
6
72
7
73
5
0
VERTEX
8
OBJECT__38
10
0
20
0
30
0
70
128
71
6
72
8
73
9
0
VERTEX
8
OBJECT__38
10
0
20
0
30
0
70
128
71
8
72
10
73
11
0
VERTEX
8
OBJECT__38
10
0
20
0
30
0
70
128
71
5
72
4
73
6
0
VERTEX
8
OBJECT__38
10
0
20
0
30
0
70
128
71
11
72
9
73
8
0
VERTEX
8
OBJECT__38
10
0
20
0
30
0
70
128
71
9
72
7
73
6
0
VERTEX
8
OBJECT__38
10
0
20
0
30
0
70
128
71
3
72
12
73
1
0
SEQEND
8
OBJECT__38
0
POLYLINE
8
OBJECT__39
66
1
70
64
71
15
72
13
62
253
0
VERTEX
8
OBJECT__39
10
33.977001
20
-597.518982
30
-3.957000
70
192
0
VERTEX
8
OBJECT__39
10
32.977001
20
-597.518982
30
-3.952000
70
192
0
VERTEX
8
OBJECT__39
10
32.951000
20
-590.979980
30
-8.432000
70
192
0
VERTEX
8
OBJECT__39
10
33.022999
20
-597.518982
30
3.975000
70
192
0
VERTEX
8
OBJECT__39
10
34.049000
20
-590.979980
30
8.449000
70
192
0
VERTEX
8
OBJECT__39
10
33.049000
20
-590.979980
30
8.455000
70
192
0
VERTEX
8
OBJECT__39
10
33.041000
20
-594.804016
30
7.024000
70
192
0
VERTEX
8
OBJECT__39
10
34.022999
20
-597.518982
30
3.969000
70
192
0
VERTEX
8
OBJECT__39
10
33.965000
20
-583.997009
30
-6.012000
70
192
0
VERTEX
8
OBJECT__39
10
32.953999
20
-587.044983
30
-7.958000
70
192
0
VERTEX
8
OBJECT__39
10
32.959000
20
-585.268005
30
-7.049000
70
192
0
VERTEX
8
OBJECT__39
10
33.951000
20
-590.979980
30
-8.437000
70
192
0
VERTEX
8
OBJECT__39
10
34.035000
20
-583.997009
30
6.023000
70
192
0
VERTEX
8
OBJECT__39
10
33.033001
20
-583.752014
30
5.774000
70
192
0
VERTEX
8
OBJECT__39
10
32.966999
20
-583.752014
30
-5.751000
70
192
0
VERTEX
8
OBJECT__39
10
0
20
0
30
0
70
128
71
1
72
2
73
3
0
VERTEX
8
OBJECT__39
10
0
20
0
30
0
70
128
71
4
72
2
73
1
0
VERTEX
8
OBJECT__39
10
0
20
0
30
0
70
128
71
5
72
6
73
7
0
VERTEX
8
OBJECT__39
10
0
20
0
30
0
70
128
71
7
72
8
73
5
0
VERTEX
8
OBJECT__39
10
0
20
0
30
0
70
128
71
9
72
10
73
11
0
VERTEX
8
OBJECT__39
10
0
20
0
30
0
70
128
71
12
72
3
73
10
0
VERTEX
8
OBJECT__39
10
0
20
0
30
0
70
128
71
10
72
9
73
12
0
VERTEX
8
OBJECT__39
10
0
20
0
30
0
70
128
71
6
72
5
73
13
0
VERTEX
8
OBJECT__39
10
0
20
0
30
0
70
128
71
13
72
14
73
6
0
VERTEX
8
OBJECT__39
10
0
20
0
30
0
70
128
71
11
72
15
73
9
0
VERTEX
8
OBJECT__39
10
0
20
0
30
0
70
128
71
7
72
4
73
8
0
VERTEX
8
OBJECT__39
10
0
20
0
30
0
70
128
71
1
72
8
73
4
0
VERTEX
8
OBJECT__39
10
0
20
0
30
0
70
128
71
3
72
12
73
1
0
SEQEND
8
OBJECT__39
0
POLYLINE
8
OBJECT__40
66
1
70
64
71
18
72
16
62
253
0
VERTEX
8
OBJECT__40
10
33.044998
20
-594.500000
30
7.806000
70
192
0
VERTEX
8
OBJECT__40
10
33.041000
20
-594.804016
30
7.024000
70
192
0
VERTEX
8
OBJECT__40
10
33.049000
20
-590.979980
30
8.455000
70
192
0
VERTEX
8
OBJECT__40
10
33.026001
20
-597.794006
30
4.511000
70
192
0
VERTEX
8
OBJECT__40
10
33.022999
20
-597.518982
30
3.975000
70
192
0
VERTEX
8
OBJECT__40
10
32.966999
20
-583.086975
30
-5.751000
70
192
0
VERTEX
8
OBJECT__40
10
32.966999
20
-583.752014
30
-5.751000
70
192
0
VERTEX
8
OBJECT__40
10
32.959000
20
-585.268005
30
-7.049000
70
192
0
VERTEX
8
OBJECT__40
10
33.051998
20
-590.000000
30
9.011000
70
192
0
VERTEX
8
OBJECT__40
10
33.033001
20
-583.752014
30
5.774000
70
192
0
VERTEX
8
OBJECT__40
10
32.977001
20
-597.518982
30
-3.952000
70
192
0
VERTEX
8
OBJECT__40
10
32.973999
20
-597.794006
30
-4.488000
70
192
0
VERTEX
8
OBJECT__40
10
32.955002
20
-594.500000
30
-7.783000
70
192
0
VERTEX
8
OBJECT__40
10
32.948002
20
-590.000000
30
-8.988000
70
192
0
VERTEX
8
OBJECT__40
10
32.952999
20
-586.182983
30
-8.139000
70
192
0
VERTEX
8
OBJECT__40
10
32.953999
20
-587.044983
30
-7.958000
70
192
0
VERTEX
8
OBJECT__40
10
32.951000
20
-590.979980
30
-8.432000
70
192
0
VERTEX
8
OBJECT__40
10
33.033001
20
-583.086975
30
5.774000
70
192
0
VERTEX
8
OBJECT__40
10
0
20
0
30
0
70
128
71
1
72
2
73
3
0
VERTEX
8
OBJECT__40
10
0
20
0
30
0
70
128
71
4
72
5
73
2
0
VERTEX
8
OBJECT__40
10
0
20
0
30
0
70
128
71
6
72
7
73
8
0
VERTEX
8
OBJECT__40
10
0
20
0
30
0
70
128
71
9
72
3
73
10
0
VERTEX
8
OBJECT__40
10
0
20
0
30
0
70
128
71
2
72
1
73
4
0
VERTEX
8
OBJECT__40
10
0
20
0
30
0
70
128
71
11
72
12
73
13
0
VERTEX
8
OBJECT__40
10
0
20
0
30
0
70
128
71
14
72
15
73
16
0
VERTEX
8
OBJECT__40
10
0
20
0
30
0
70
128
71
8
72
15
73
6
0
VERTEX
8
OBJECT__40
10
0
20
0
30
0
70
128
71
3
72
9
73
1
0
VERTEX
8
OBJECT__40
10
0
20
0
30
0
70
128
71
12
72
11
73
5
0
VERTEX
8
OBJECT__40
10
0
20
0
30
0
70
128
71
13
72
14
73
17
0
VERTEX
8
OBJECT__40
10
0
20
0
30
0
70
128
71
8
72
16
73
15
0
VERTEX
8
OBJECT__40
10
0
20
0
30
0
70
128
71
5
72
4
73
12
0
VERTEX
8
OBJECT__40
10
0
20
0
30
0
70
128
71
16
72
17
73
14
0
VERTEX
8
OBJECT__40
10
0
20
0
30
0
70
128
71
13
72
17
73
11
0
VERTEX
8
OBJECT__40
10
0
20
0
30
0
70
128
71
10
72
18
73
9
0
SEQEND
8
OBJECT__40
0
POLYLINE
8
OBJECT__41
66
1
70
64
71
23
72
23
62
253
0
VERTEX
8
OBJECT__41
10
-0.051000
20
-590.000000
30
-8.797000
70
192
0
VERTEX
8
OBJECT__41
10
32.948002
20
-590.000000
30
-8.988000
70
192
0
VERTEX
8
OBJECT__41
10
32.955002
20
-594.500000
30
-7.783000
70
192
0
VERTEX
8
OBJECT__41
10
-0.025000
20
-597.794006
30
-4.297000
70
192
0
VERTEX
8
OBJECT__41
10
33.026001
20
-597.794006
30
4.511000
70
192
0
VERTEX
8
OBJECT__41
10
0.027000
20
-597.794006
30
4.702000
70
192
0
VERTEX
8
OBJECT__41
10
0.001000
20
-599.000000
30
0.202000
70
192
0
VERTEX
8
OBJECT__41
10
32.973999
20
-597.794006
30
-4.488000
70
192
0
VERTEX
8
OBJECT__41
10
0.053000
20
-590.000000
30
9.202000
70
192
0
VERTEX
8
OBJECT__41
10
33.044998
20
-594.500000
30
7.806000
70
192
0
VERTEX
8
OBJECT__41
10
33.051998
20
-590.000000
30
9.011000
70
192
0
VERTEX
8
OBJECT__41
10
31.385000
20
-582.315002
30
4.457000
70
192
0
VERTEX
8
OBJECT__41
10
33.033001
20
-583.086975
30
5.774000
70
192
0
VERTEX
8
OBJECT__41
10
0.027000
20
-582.205994
30
4.702000
70
192
0
VERTEX
8
OBJECT__41
10
29.084999
20
-581.119019
30
1.492000
70
192
0
VERTEX
8
OBJECT__41
10
28.900000
20
-581.000000
30
0.035000
70
192
0
VERTEX
8
OBJECT__41
10
29.802000
20
-581.573975
30
3.192000
70
192
0
VERTEX
8
OBJECT__41
10
-0.025000
20
-582.205994
30
-4.297000
70
192
0
VERTEX
8
OBJECT__41
10
29.900999
20
-581.658020
30
-3.349000
70
192
0
VERTEX
8
OBJECT__41
10
32.952999
20
-586.182983
30
-8.139000
70
192
0
VERTEX
8
OBJECT__41
10
31.139999
20
-582.353027
30
-4.723000
70
192
0
VERTEX
8
OBJECT__41
10
32.966999
20
-583.086975
30
-5.751000
70
192
0
VERTEX
8
OBJECT__41
10
30.909000
20
-582.223022
30
-4.467000
70
192
0
VERTEX
8
OBJECT__41
10
0
20
0
30
0
70
128
71
1
72
2
73
3
0
VERTEX
8
OBJECT__41
10
0
20
0
30
0
70
128
71
3
72
4
73
1
0
VERTEX
8
OBJECT__41
10
0
20
0
30
0
70
128
71
5
72
6
73
7
0
VERTEX
8
OBJECT__41
10
0
20
0
30
0
70
128
71
7
72
8
73
5
0
VERTEX
8
OBJECT__41
10
0
20
0
30
0
70
128
71
9
72
6
73
10
0
VERTEX
8
OBJECT__41
10
0
20
0
30
0
70
128
71
6
72
5
73
10
0
VERTEX
8
OBJECT__41
10
0
20
0
30
0
70
128
71
9
72
11
73
12
0
VERTEX
8
OBJECT__41
10
0
20
0
30
0
70
128
71
11
72
13
73
12
0
VERTEX
8
OBJECT__41
10
0
20
0
30
0
70
128
71
14
72
15
73
16
0
VERTEX
8
OBJECT__41
10
0
20
0
30
0
70
128
71
14
72
17
73
15
0
VERTEX
8
OBJECT__41
10
0
20
0
30
0
70
128
71
16
72
18
73
14
0
VERTEX
8
OBJECT__41
10
0
20
0
30
0
70
128
71
16
72
19
73
18
0
VERTEX
8
OBJECT__41
10
0
20
0
30
0
70
128
71
14
72
12
73
17
0
VERTEX
8
OBJECT__41
10
0
20
0
30
0
70
128
71
20
72
1
73
21
0
VERTEX
8
OBJECT__41
10
0
20
0
30
0
70
128
71
21
72
22
73
20
0
VERTEX
8
OBJECT__41
10
0
20
0
30
0
70
128
71
1
72
18
73
23
0
VERTEX
8
OBJECT__41
10
0
20
0
30
0
70
128
71
23
72
21
73
1
0
VERTEX
8
OBJECT__41
10
0
20
0
30
0
70
128
71
20
72
2
73
1
0
VERTEX
8
OBJECT__41
10
0
20
0
30
0
70
128
71
19
72
23
73
18
0
VERTEX
8
OBJECT__41
10
0
20
0
30
0
70
128
71
12
72
14
73
9
0
VERTEX
8
OBJECT__41
10
0
20
0
30
0
70
128
71
10
72
11
73
9
0
VERTEX
8
OBJECT__41
10
0
20
0
30
0
70
128
71
7
72
4
73
8
0
VERTEX
8
OBJECT__41
10
0
20
0
30
0
70
128
71
3
72
8
73
4
0
SEQEND
8
OBJECT__41
0
ENDSEC
0
EOF
