  0
SECTION
  2
HEADER
  9
$ACADVER
  1
AC1027
  9
$ACADMAINTVER
 70
   125
  9
$DWGCODEPAGE
  3
ANSI_1252
  9
$LASTSAVEDBY
  1
danica
  9
$REQUIREDVERSIONS
160
                 0
  9
$INSBASE
 10
0.0
 20
0.0
 30
0.0
  9
$EXTMIN
 10
-46.14323818973416
 20
-75.27969361866164
 30
-0.0000000000022887
  9
$EXTMAX
 10
7.469689048012824
 20
-0.8257739021967154
 30
0.0000000000000001
  9
$LIMMIN
 10
0.0
 20
0.0
  9
$LIMMAX
 10
12.0
 20
9.0
  9
$ORTHOMODE
 70
     0
  9
$REGENMODE
 70
     1
  9
$FILLMODE
 70
     1
  9
$QTEXTMODE
 70
     0
  9
$MIRRTEXT
 70
     0
  9
$LTSCALE
 40
1.0
  9
$ATTMODE
 70
     1
  9
$TEXTSIZE
 40
0.2
  9
$TRACEWID
 40
0.05
  9
$TEXTSTYLE
  7
Standard
  9
$CLAYER
  8
0
  9
$CELTYPE
  6
ByLayer
  9
$CECOLOR
 62
   256
  9
$CELTSCALE
 40
1.0
  9
$DISPSILH
 70
     0
  9
$DIMSCALE
 40
1.0
  9
$DIMASZ
 40
0.18
  9
$DIMEXO
 40
0.0625
  9
$DIMDLI
 40
0.38
  9
$DIMRND
 40
0.0
  9
$DIMDLE
 40
0.0
  9
$DIMEXE
 40
0.18
  9
$DIMTP
 40
0.0
  9
$DIMTM
 40
0.0
  9
$DIMTXT
 40
0.18
  9
$DIMCEN
 40
0.09
  9
$DIMTSZ
 40
0.0
  9
$DIMTOL
 70
     0
  9
$DIMLIM
 70
     0
  9
$DIMTIH
 70
     1
  9
$DIMTOH
 70
     1
  9
$DIMSE1
 70
     0
  9
$DIMSE2
 70
     0
  9
$DIMTAD
 70
     0
  9
$DIMZIN
 70
     0
  9
$DIMBLK
  1

  9
$DIMASO
 70
     1
  9
$DIMSHO
 70
     1
  9
$DIMPOST
  1

  9
$DIMAPOST
  1

  9
$DIMALT
 70
     0
  9
$DIMALTD
 70
     2
  9
$DIMALTF
 40
25.4
  9
$DIMLFAC
 40
1.0
  9
$DIMTOFL
 70
     0
  9
$DIMTVP
 40
0.0
  9
$DIMTIX
 70
     0
  9
$DIMSOXD
 70
     0
  9
$DIMSAH
 70
     0
  9
$DIMBLK1
  1

  9
$DIMBLK2
  1

  9
$DIMSTYLE
  2
Standard
  9
$DIMCLRD
 70
     0
  9
$DIMCLRE
 70
     0
  9
$DIMCLRT
 70
     0
  9
$DIMTFAC
 40
1.0
  9
$DIMGAP
 40
0.09
  9
$DIMJUST
 70
     0
  9
$DIMSD1
 70
     0
  9
$DIMSD2
 70
     0
  9
$DIMTOLJ
 70
     1
  9
$DIMTZIN
 70
     0
  9
$DIMALTZ
 70
     0
  9
$DIMALTTZ
 70
     0
  9
$DIMUPT
 70
     0
  9
$DIMDEC
 70
     4
  9
$DIMTDEC
 70
     4
  9
$DIMALTU
 70
     4
  9
$DIMALTTD
 70
     2
  9
$DIMTXSTY
  7
Standard
  9
$DIMAUNIT
 70
     0
  9
$DIMADEC
 70
     0
  9
$DIMALTRND
 40
0.0
  9
$DIMAZIN
 70
     0
  9
$DIMDSEP
 70
    46
  9
$DIMATFIT
 70
     3
  9
$DIMFRAC
 70
     0
  9
$DIMLDRBLK
  1

  9
$DIMLUNIT
 70
     4
  9
$DIMLWD
 70
    -2
  9
$DIMLWE
 70
    -2
  9
$DIMTMOVE
 70
     0
  9
$DIMFXL
 40
1.0
  9
$DIMFXLON
 70
     0
  9
$DIMJOGANG
 40
0.7853981633974483
  9
$DIMTFILL
 70
     0
  9
$DIMTFILLCLR
 70
     0
  9
$DIMARCSYM
 70
     0
  9
$DIMLTYPE
  6

  9
$DIMLTEX1
  6

  9
$DIMLTEX2
  6

  9
$DIMTXTDIRECTION
 70
     0
  9
$LUNITS
 70
     4
  9
$LUPREC
 70
     4
  9
$SKETCHINC
 40
0.1
  9
$FILLETRAD
 40
0.0625
  9
$AUNITS
 70
     0
  9
$AUPREC
 70
     0
  9
$MENU
  1
.
  9
$ELEVATION
 40
0.0
  9
$PELEVATION
 40
0.0
  9
$THICKNESS
 40
0.0
  9
$LIMCHECK
 70
     0
  9
$CHAMFERA
 40
0.0
  9
$CHAMFERB
 40
0.0
  9
$CHAMFERC
 40
0.0
  9
$CHAMFERD
 40
0.0
  9
$SKPOLY
 70
     0
  9
$TDCREATE
 40
2458919.354918982
  9
$TDUCREATE
 40
2458919.521587894
  9
$TDUPDATE
 40
2458919.360439815
  9
$TDUUPDATE
 40
2458919.527106482
  9
$TDINDWG
 40
0.0032229745
  9
$TDUSRTIMER
 40
0.0032229745
  9
$USRTIMER
 70
     1
  9
$ANGBASE
 50
0.0
  9
$ANGDIR
 70
     0
  9
$PDMODE
 70
     0
  9
$PDSIZE
 40
0.0
  9
$PLINEWID
 40
0.0
  9
$SPLFRAME
 70
     0
  9
$SPLINETYPE
 70
     6
  9
$SPLINESEGS
 70
     8
  9
$HANDSEED
  5
34A
  9
$SURFTAB1
 70
     6
  9
$SURFTAB2
 70
     6
  9
$SURFTYPE
 70
     6
  9
$SURFU
 70
     6
  9
$SURFV
 70
     6
  9
$UCSBASE
  2

  9
$UCSNAME
  2

  9
$UCSORG
 10
0.0
 20
0.0
 30
0.0
  9
$UCSXDIR
 10
1.0
 20
0.0
 30
0.0
  9
$UCSYDIR
 10
0.0
 20
1.0
 30
0.0
  9
$UCSORTHOREF
  2

  9
$UCSORTHOVIEW
 70
     0
  9
$UCSORGTOP
 10
0.0
 20
0.0
 30
0.0
  9
$UCSORGBOTTOM
 10
0.0
 20
0.0
 30
0.0
  9
$UCSORGLEFT
 10
0.0
 20
0.0
 30
0.0
  9
$UCSORGRIGHT
 10
0.0
 20
0.0
 30
0.0
  9
$UCSORGFRONT
 10
0.0
 20
0.0
 30
0.0
  9
$UCSORGBACK
 10
0.0
 20
0.0
 30
0.0
  9
$PUCSBASE
  2

  9
$PUCSNAME
  2

  9
$PUCSORG
 10
0.0
 20
0.0
 30
0.0
  9
$PUCSXDIR
 10
1.0
 20
0.0
 30
0.0
  9
$PUCSYDIR
 10
0.0
 20
1.0
 30
0.0
  9
$PUCSORTHOREF
  2

  9
$PUCSORTHOVIEW
 70
     0
  9
$PUCSORGTOP
 10
0.0
 20
0.0
 30
0.0
  9
$PUCSORGBOTTOM
 10
0.0
 20
0.0
 30
0.0
  9
$PUCSORGLEFT
 10
0.0
 20
0.0
 30
0.0
  9
$PUCSORGRIGHT
 10
0.0
 20
0.0
 30
0.0
  9
$PUCSORGFRONT
 10
0.0
 20
0.0
 30
0.0
  9
$PUCSORGBACK
 10
0.0
 20
0.0
 30
0.0
  9
$USERI1
 70
     0
  9
$USERI2
 70
     0
  9
$USERI3
 70
     0
  9
$USERI4
 70
     0
  9
$USERI5
 70
     0
  9
$USERR1
 40
0.0
  9
$USERR2
 40
0.0
  9
$USERR3
 40
0.0
  9
$USERR4
 40
0.0
  9
$USERR5
 40
0.0
  9
$WORLDVIEW
 70
     1
  9
$SHADEDGE
 70
     3
  9
$SHADEDIF
 70
    70
  9
$TILEMODE
 70
     1
  9
$MAXACTVP
 70
    64
  9
$PINSBASE
 10
0.0
 20
0.0
 30
0.0
  9
$PLIMCHECK
 70
     0
  9
$PEXTMIN
 10
1.000000000000000E+20
 20
1.000000000000000E+20
 30
1.000000000000000E+20
  9
$PEXTMAX
 10
-1.000000000000000E+20
 20
-1.000000000000000E+20
 30
-1.000000000000000E+20
  9
$PLIMMIN
 10
0.0
 20
0.0
  9
$PLIMMAX
 10
12.0
 20
9.0
  9
$UNITMODE
 70
     0
  9
$VISRETAIN
 70
     1
  9
$PLINEGEN
 70
     0
  9
$PSLTSCALE
 70
     1
  9
$TREEDEPTH
 70
  3020
  9
$CMLSTYLE
  2
Standard
  9
$CMLJUST
 70
     0
  9
$CMLSCALE
 40
1.0
  9
$PROXYGRAPHICS
 70
     1
  9
$MEASUREMENT
 70
     0
  9
$CELWEIGHT
370
    -1
  9
$ENDCAPS
280
     0
  9
$JOINSTYLE
280
     0
  9
$LWDISPLAY
290
     0
  9
$INSUNITS
 70
     1
  9
$HYPERLINKBASE
  1

  9
$STYLESHEET
  1

  9
$XEDIT
290
     1
  9
$CEPSNTYPE
380
     0
  9
$PSTYLEMODE
290
     1
  9
$FINGERPRINTGUID
  2
{C6D861B6-C89E-45BE-8E5D-2262E6E8DA42}
  9
$VERSIONGUID
  2
{9CD633F6-EB23-8149-B08F-4594D5A4BFD8}
  9
$EXTNAMES
290
     1
  9
$PSVPSCALE
 40
0.0
  9
$OLESTARTUP
290
     0
  9
$SORTENTS
280
   127
  9
$INDEXCTL
280
     0
  9
$HIDETEXT
280
     1
  9
$XCLIPFRAME
280
     2
  9
$HALOGAP
280
     0
  9
$OBSCOLOR
 70
   257
  9
$OBSLTYPE
280
     0
  9
$INTERSECTIONDISPLAY
280
     0
  9
$INTERSECTIONCOLOR
 70
   257
  9
$DIMASSOC
280
     2
  9
$PROJECTNAME
  1

  9
$CAMERADISPLAY
290
     0
  9
$LENSLENGTH
 40
50.0
  9
$CAMERAHEIGHT
 40
0.0
  9
$STEPSPERSEC
 40
2.0
  9
$STEPSIZE
 40
6.0
  9
$3DDWFPREC
 40
2.0
  9
$PSOLWIDTH
 40
0.25
  9
$PSOLHEIGHT
 40
4.0
  9
$LOFTANG1
 40
1.570796326794896
  9
$LOFTANG2
 40
1.570796326794896
  9
$LOFTMAG1
 40
0.0
  9
$LOFTMAG2
 40
0.0
  9
$LOFTPARAM
 70
     7
  9
$LOFTNORMALS
280
     1
  9
$LATITUDE
 40
0.0
  9
$LONGITUDE
 40
0.0
  9
$NORTHDIRECTION
 40
0.0
  9
$TIMEZONE
 70
     0
  9
$LIGHTGLYPHDISPLAY
280
     1
  9
$TILEMODELIGHTSYNCH
280
     1
  9
$CMATERIAL
347
11
  9
$SOLIDHIST
280
     0
  9
$SHOWHIST
280
     1
  9
$DWFFRAME
280
     2
  9
$DGNFRAME
280
     0
  9
$REALWORLDSCALE
290
     1
  9
$INTERFERECOLOR
 62
     1
  9
$INTERFEREOBJVS
345
33
  9
$INTERFEREVPVS
346
30
  9
$CSHADOW
280
     0
  9
$SHADOWPLANELOCATION
 40
0.0
  0
ENDSEC
  0
SECTION
  2
CLASSES
  0
CLASS
  1
ACDBDICTIONARYWDFLT
  2
AcDbDictionaryWithDefault
  3
ObjectDBX Classes
 90
        0
 91
        1
280
     0
281
     0
  0
CLASS
  1
MATERIAL
  2
AcDbMaterial
  3
ObjectDBX Classes
 90
     1153
 91
        3
280
     0
281
     0
  0
CLASS
  1
VISUALSTYLE
  2
AcDbVisualStyle
  3
ObjectDBX Classes
 90
     4095
 91
       24
280
     0
281
     0
  0
CLASS
  1
SCALE
  2
AcDbScale
  3
ObjectDBX Classes
 90
     1153
 91
       17
280
     0
281
     0
  0
CLASS
  1
TABLESTYLE
  2
AcDbTableStyle
  3
ObjectDBX Classes
 90
     4095
 91
        1
280
     0
281
     0
  0
CLASS
  1
MLEADERSTYLE
  2
AcDbMLeaderStyle
  3
ACDB_MLEADERSTYLE_CLASS
 90
     4095
 91
        1
280
     0
281
     0
  0
CLASS
  1
ACDBSECTIONVIEWSTYLE
  2
AcDbSectionViewStyle
  3
ObjectDBX Classes
 90
     1025
 91
        1
280
     0
281
     0
  0
CLASS
  1
ACDBDETAILVIEWSTYLE
  2
AcDbDetailViewStyle
  3
ObjectDBX Classes
 90
     1025
 91
        1
280
     0
281
     0
  0
CLASS
  1
RASTERVARIABLES
  2
AcDbRasterVariables
  3
ISM
 90
        0
 91
        1
280
     0
281
     0
  0
CLASS
  1
DICTIONARYVAR
  2
AcDbDictionaryVar
  3
ObjectDBX Classes
 90
        0
 91
        5
280
     0
281
     0
  0
CLASS
  1
SORTENTSTABLE
  2
AcDbSortentsTable
  3
ObjectDBX Classes
 90
        0
 91
        3
280
     0
281
     0
  0
CLASS
  1
EXACXREFPANELOBJECT
  2
ExAcXREFPanelObject
  3
EXAC_ESW
 90
     1025
 91
        1
280
     0
281
     0
  0
CLASS
  1
NPOCOLLECTION
  2
AcDbImpNonPersistentObjectsCollection
  3
ObjectDBX Classes
 90
     1153
 91
        1
280
     0
281
     0
  0
CLASS
  1
CELLSTYLEMAP
  2
AcDbCellStyleMap
  3
ObjectDBX Classes
 90
     1152
 91
        1
280
     0
281
     0
  0
ENDSEC
  0
SECTION
  2
TABLES
  0
TABLE
  2
VPORT
  5
8
330
0
100
AcDbSymbolTable
 70
     1
1001
ACAD
1000
DbSaveVer
1071
      123
  0
VPORT
  5
57
330
8
100
AcDbSymbolTableRecord
100
AcDbViewportTableRecord
  2
*Active
 70
     0
 10
0.0
 20
0.0
 11
1.0
 21
1.0
 12
-19.33677457086067
 22
-38.05273376042918
 13
0.0
 23
0.0
 14
1.0
 24
1.0
 15
0.0
 25
0.0
 16
0.0
 26
0.0
 36
1.0
 17
0.0
 27
0.0
 37
0.0
 40
74.98700267386204
 41
1.844683393070489
 42
50.0
 43
0.0
 44
0.0
 50
0.0
 51
0.0
 71
     0
 72
  1000
 73
     1
 74
     1
 75
     0
 76
     0
 77
     0
 78
     0
281
     0
 65
     1
110
0.0
120
0.0
130
0.0
111
1.0
121
0.0
131
0.0
112
0.0
122
1.0
132
0.0
 79
     0
146
0.0
348
2F
 60
     3
 61
     5
292
     1
282
     1
141
0.0
142
0.0
 63
   250
421
  3355443
1001
ACAD_NAV_VCDISPLAY
1070
     3
  0
ENDTAB
  0
TABLE
  2
LTYPE
  5
5
330
0
100
AcDbSymbolTable
 70
     1
  0
LTYPE
  5
5B
330
5
100
AcDbSymbolTableRecord
100
AcDbLinetypeTableRecord
  2
ByBlock
 70
     0
  3

 72
    65
 73
     0
 40
0.0
  0
LTYPE
  5
5C
330
5
100
AcDbSymbolTableRecord
100
AcDbLinetypeTableRecord
  2
ByLayer
 70
     0
  3

 72
    65
 73
     0
 40
0.0
  0
LTYPE
  5
5D
330
5
100
AcDbSymbolTableRecord
100
AcDbLinetypeTableRecord
  2
Continuous
 70
     0
  3
Solid line
 72
    65
 73
     0
 40
0.0
  0
ENDTAB
  0
TABLE
  2
LAYER
  5
2
330
0
100
AcDbSymbolTable
 70
     3
  0
LAYER
  5
54
330
2
100
AcDbSymbolTableRecord
100
AcDbLayerTableRecord
  2
0
 70
     0
 62
     7
  6
Continuous
370
    -3
390
F
347
21
348
0
  0
LAYER
  5
98
330
2
100
AcDbSymbolTableRecord
100
AcDbLayerTableRecord
  2
39661000
 70
     0
 62
     7
  6
Continuous
370
     9
390
F
347
21
348
0
  0
ENDTAB
  0
TABLE
  2
STYLE
  5
3
330
0
100
AcDbSymbolTable
 70
     3
  0
STYLE
  5
55
330
3
100
AcDbSymbolTableRecord
100
AcDbTextStyleTableRecord
  2
Standard
 70
     0
 40
0.0
 41
1.0
 50
0.0
 71
     0
 42
0.2
  3
txt
  4

  0
ENDTAB
  0
TABLE
  2
VIEW
  5
6
330
0
100
AcDbSymbolTable
 70
     0
  0
ENDTAB
  0
TABLE
  2
UCS
  5
7
330
0
100
AcDbSymbolTable
 70
     0
  0
ENDTAB
  0
TABLE
  2
APPID
  5
9
330
0
100
AcDbSymbolTable
 70
     4
  0
APPID
  5
56
330
9
100
AcDbSymbolTableRecord
100
AcDbRegAppTableRecord
  2
ACAD
 70
     0
  0
APPID
  5
5E
330
9
100
AcDbSymbolTableRecord
100
AcDbRegAppTableRecord
  2
AcadAnnotative
 70
     0
  0
APPID
  5
78
330
9
100
AcDbSymbolTableRecord
100
AcDbRegAppTableRecord
  2
REVIT
 70
     0
  0
APPID
  5
174
330
9
100
AcDbSymbolTableRecord
100
AcDbRegAppTableRecord
  2
ACAD_NAV_VCDISPLAY
 70
     0
  0
ENDTAB
  0
TABLE
  2
DIMSTYLE
  5
A
330
0
100
AcDbSymbolTable
 70
     2
100
AcDbDimStyleTable
 71
     0
  0
DIMSTYLE
105
58
330
A
100
AcDbSymbolTableRecord
100
AcDbDimStyleTableRecord
  2
Standard
 70
     0
340
55
  0
ENDTAB
  0
TABLE
  2
BLOCK_RECORD
  5
1
330
0
100
AcDbSymbolTable
 70
    16
  0
BLOCK_RECORD
  5
70
102
{ACAD_XDICTIONARY
360
106
102
}
330
1
100
AcDbSymbolTableRecord
100
AcDbBlockTableRecord
  2
*Model_Space
340
73
 70
     0
280
     1
281
     0
  0
BLOCK_RECORD
  5
6C
330
1
100
AcDbSymbolTableRecord
100
AcDbBlockTableRecord
  2
*Paper_Space
340
6F
 70
     0
280
     1
281
     0
  0
BLOCK_RECORD
  5
74
330
1
100
AcDbSymbolTableRecord
100
AcDbBlockTableRecord
  2
*Paper_Space0
340
77
 70
     0
280
     1
281
     0
  0
BLOCK_RECORD
  5
2A9
330
1
100
AcDbSymbolTableRecord
100
AcDbBlockTableRecord
  2
GROHE_Eurocube_39661000_Side View
340
0
310
2800000020000000200000000100200000000000001000000100000001000000000000000000000001000000302821FF302821FF302821FF302821FF302821FF302821FF302821FF302821FF302821FF302821FF302821FF302821FF302821FF302821FF302821FF302821FF302821FF302821FF302821FF302821FF302821
310
FF302821FF302821FF302821FF302821FF302821FF302821FF302821FF302821FF302821FF302821FF302821FF302821FF302821FF302821FF302821FF302821FFFFFFFFFFFFFFFFFFFFFFFFFFFFFFFFFFFFFFFFFFFFFFFFFFFFFFFFFFFFFFFFFFFFFFFFFFFFFFFFFFFFFFFFFFFFFFFFFFFFFFFFFFFFFFFFFFFFFFFFFFFFFF
310
FFFFFFFFFFFFFFFFFFFFFFFFFFFFFFFFFFFFFFFFFFFFFFFFFFFF302821FF302821FF302821FF302821FF302821FF302821FF302821FF302821FF302821FF302821FFFFFFFFFF302821FF302821FF302821FF302821FF302821FF302821FF302821FF302821FF302821FF302821FF302821FF302821FF302821FF302821FF30
310
2821FF302821FF302821FF302821FF302821FF302821FFFFFFFFFF302821FF302821FF302821FF302821FF302821FF302821FF302821FF302821FF302821FF302821FFFFFFFFFF302821FF302821FF302821FF302821FF302821FFFFFFFFFFFFFFFFFFFFFFFFFFFFFFFFFF302821FF302821FF302821FF302821FF302821FF
310
302821FF302821FF302821FF302821FF302821FF302821FFFFFFFFFF302821FF302821FF302821FF302821FF302821FF302821FF302821FF302821FF302821FF302821FFFFFFFFFF302821FF302821FF302821FF302821FF302821FFFFFFFFFF302821FF302821FFFFFFFFFF302821FF302821FF302821FF302821FF302821
310
FF302821FF302821FF302821FF302821FF302821FF302821FF302821FFFFFFFFFF302821FF302821FF302821FF302821FF302821FF302821FF302821FF302821FF302821FFFFFFFFFF302821FF302821FF302821FF302821FF302821FFFFFFFFFFFFFFFFFFFFFFFFFFFFFFFFFF302821FF302821FF302821FF302821FF3028
310
21FF302821FF302821FF302821FF302821FF302821FF302821FF302821FFFFFFFFFF302821FF302821FF302821FF302821FF302821FF302821FF302821FF302821FFFFFFFFFFFFFFFFFF302821FF302821FF302821FF302821FF302821FF302821FF302821FF302821FF302821FF302821FF302821FF302821FF302821FF30
310
2821FF302821FF302821FF302821FF302821FF302821FF302821FF302821FFFFFFFFFF302821FF302821FF302821FF302821FF302821FF302821FF302821FF302821FFFFFFFFFFFFFFFFFF302821FF302821FF302821FF302821FF302821FF302821FF302821FF302821FF302821FF302821FF302821FF302821FF302821FF
310
302821FF302821FF302821FF302821FF302821FF302821FF302821FF302821FFFFFFFFFF302821FF302821FF302821FF302821FF302821FF302821FF302821FF302821FFFFFFFFFFFFFFFFFF302821FF302821FF302821FF302821FF302821FF302821FF302821FF302821FF302821FF302821FF302821FF302821FF302821
310
FF302821FF302821FF302821FF302821FF302821FF302821FF302821FF302821FFFFFFFFFF302821FF302821FF302821FF302821FF302821FF302821FF302821FF302821FFFFFFFFFFFFFFFFFF302821FF302821FF302821FF302821FF302821FF302821FF302821FF302821FF302821FF302821FF302821FF302821FF3028
310
21FF302821FF302821FF302821FF302821FF302821FF302821FF302821FF302821FF302821FFFFFFFFFF302821FF302821FF302821FF302821FF302821FF302821FF302821FFFFFFFFFFFFFFFFFF302821FF302821FF302821FF302821FF302821FF302821FF302821FF302821FF302821FF302821FF302821FF302821FF30
310
2821FF302821FF302821FF302821FF302821FF302821FF302821FF302821FF302821FF302821FFFFFFFFFF302821FF302821FF302821FF302821FF302821FF302821FF302821FF302821FFFFFFFFFF302821FF302821FF302821FF302821FF302821FF302821FF302821FF302821FF302821FF302821FF302821FF302821FF
310
302821FF302821FF302821FF302821FF302821FF302821FF302821FF302821FF302821FF302821FFFFFFFFFF302821FF302821FF302821FF302821FF302821FF302821FF302821FF302821FFFFFFFFFF302821FF302821FF302821FF302821FF302821FF302821FF302821FF302821FF302821FF302821FF302821FF302821
310
FF302821FF302821FF302821FF302821FF302821FF302821FF302821FF302821FF302821FF302821FFFFFFFFFF302821FF302821FF302821FF302821FF302821FF302821FF302821FFFFFFFFFFFFFFFFFF302821FF302821FF302821FF302821FF302821FF302821FF302821FF302821FF302821FF302821FF302821FF3028
310
21FF302821FF302821FF302821FF302821FF302821FF302821FF302821FF302821FF302821FF302821FFFFFFFFFF302821FF302821FF302821FF302821FF302821FF302821FFFFFFFFFFFFFFFFFF302821FF302821FF302821FF302821FF302821FF302821FF302821FF302821FF302821FF302821FF302821FF302821FF30
310
2821FF302821FF302821FF302821FF302821FF302821FF302821FF302821FF302821FF302821FF302821FF302821FFFFFFFFFF302821FF302821FF302821FF302821FF302821FFFFFFFFFF302821FF302821FF302821FF302821FF302821FF302821FF302821FF302821FF302821FF302821FF302821FF302821FF302821FF
310
302821FF302821FF302821FF302821FF302821FF302821FF302821FF302821FF302821FF302821FF302821FF302821FFFFFFFFFF302821FF302821FF302821FF302821FF302821FFFFFFFFFF302821FF302821FF302821FF302821FF302821FFFFFFFFFFFFFFFFFFFFFFFFFFFFFFFFFFFFFFFFFFFFFFFFFFFFFFFFFFFFFFFF
310
FFFFFFFFFFFFFFFFFFFFFFFFFFFFFFFFFFFFFFFFFFFFFFFFFFFFFFFFFFFFFFFFFFFFFFFFFFFFFFFFFFFFFFFFFFFFFFFFFFFFFFFFFF302821FF302821FF302821FF302821FF302821FFFFFFFFFFFFFFFFFFFFFFFFFFFFFFFFFFFFFFFFFFFFFFFFFFFFFFFFFF302821FF302821FF302821FFFFFFFFFF302821FF302821FF3028
310
21FF302821FF302821FF302821FF302821FF302821FF302821FF302821FF302821FF302821FF302821FF302821FF302821FFFFFFFFFF302821FF302821FF302821FF302821FF302821FFFFFFFFFF302821FF302821FF302821FF302821FF302821FFFFFFFFFF302821FF302821FF302821FFFFFFFFFFFFFFFFFFFFFFFFFFFF
310
FFFFFFFFFFFFFFFFFFFFFFFFFFFFFFFFFFFFFFFFFFFFFFFFFFFFFFFFFFFFFFFFFFFFFFFFFFFFFFFFFFFFFFFFFFFFFFFFFFFFFFFFFFFFFF302821FF302821FF302821FF302821FF302821FFFFFFFFFF302821FF302821FF302821FF302821FF302821FFFFFFFFFF302821FF302821FF302821FF302821FF302821FF302821FF
310
302821FF302821FF302821FF302821FF302821FF302821FF302821FF302821FF302821FF302821FF302821FF302821FF302821FF302821FF302821FF302821FF302821FF302821FF302821FFFFFFFFFF302821FF302821FF302821FF302821FF302821FFFFFFFFFF302821FF302821FF302821FF302821FF302821FF302821
310
FF302821FF302821FF302821FF302821FF302821FF302821FF302821FF302821FF302821FF302821FF302821FF302821FF302821FF302821FF302821FF302821FF302821FF302821FF302821FFFFFFFFFF302821FF302821FF302821FF302821FF302821FFFFFFFFFF302821FF302821FF302821FF302821FF302821FF3028
310
21FF302821FF302821FF302821FF302821FF302821FF302821FF302821FF302821FF302821FF302821FF302821FF302821FF302821FF302821FF302821FF302821FF302821FF302821FF302821FFFFFFFFFF302821FF302821FF302821FF302821FF302821FFFFFFFFFF302821FF302821FF302821FF302821FF302821FF30
310
2821FF302821FF302821FF302821FF302821FF302821FF302821FF302821FF302821FF302821FF302821FF302821FF302821FF302821FF302821FF302821FF302821FF302821FF302821FFFFFFFFFF302821FF302821FF302821FF302821FF302821FF302821FFFFFFFFFF302821FF302821FF302821FF302821FF302821FF
310
302821FF302821FF302821FF302821FF302821FF302821FF302821FF302821FF302821FF302821FF302821FF302821FF302821FF302821FF302821FF302821FF302821FF302821FF302821FFFFFFFFFF302821FF302821FF302821FF302821FF302821FF302821FFFFFFFFFF302821FF302821FF302821FF302821FF302821
310
FF302821FF302821FF302821FF302821FF302821FF302821FF302821FF302821FF302821FF302821FF302821FF302821FF302821FF302821FF302821FF302821FF302821FF302821FF302821FFFFFFFFFF302821FF302821FF302821FF302821FF302821FF302821FFFFFFFFFF302821FF302821FF302821FF302821FF3028
310
21FF302821FF302821FF302821FF302821FF302821FF302821FF302821FF302821FF302821FF302821FF302821FF302821FF302821FF302821FF302821FF302821FF302821FF302821FF302821FFFFFFFFFF302821FF302821FF302821FF302821FF302821FF302821FFFFFFFFFF302821FF302821FF302821FF302821FF30
310
2821FF302821FF302821FF302821FF302821FF302821FF302821FF302821FF302821FF302821FF302821FF302821FF302821FF302821FF302821FF302821FF302821FF302821FF302821FF302821FFFFFFFFFF302821FF302821FF302821FF302821FF302821FF302821FFFFFFFFFF302821FF302821FF302821FF302821FF
310
302821FF302821FF302821FF302821FF302821FF302821FF302821FF302821FF302821FF302821FF302821FF302821FF302821FF302821FF302821FF302821FF302821FF302821FF302821FF302821FFFFFFFFFF302821FF302821FF302821FF302821FF302821FF302821FFFFFFFFFF302821FF302821FF302821FF302821
310
FF302821FF302821FF302821FF302821FF302821FF302821FF302821FF302821FF302821FF302821FF302821FF302821FF302821FF302821FF302821FF302821FF302821FF302821FF302821FF302821FFFFFFFFFFFFFFFFFFFFFFFFFFFFFFFFFFFFFFFFFFFFFFFFFFFFFFFFFFFFFFFFFF302821FF302821FF302821FF3028
310
21FF302821FF302821FF302821FF302821FF302821FF302821FF302821FF302821FF302821FF302821FF302821FF302821FF302821FF302821FF302821FF302821FF302821FF302821FF302821FF302821FFFFFFFFFFFFFFFFFFFFFFFFFFFFFFFFFFFFFFFFFFFFFFFFFFFFFFFFFFFFFFFFFF302821FF302821FF302821FF30
310
2821FF302821FF302821FF302821FF302821FF302821FF302821FF302821FF302821FF302821FF302821FF302821FF302821FF302821FF302821FF302821FF302821FF302821FF302821FF302821FF302821FF302821FF302821FF302821FF302821FF302821FF302821FF302821FF302821FF302821FF302821FF302821FF
310
302821FF302821FF302821FF302821FF302821FF302821FF302821FF302821FF302821FF302821FF302821FF302821FF302821FF302821FF302821FF302821FF302821FF302821FF
102
{BLKREFS
331
2EB
102
}
 70
     1
280
     1
281
     0
  0
BLOCK_RECORD
  5
2EC
330
1
100
AcDbSymbolTableRecord
100
AcDbBlockTableRecord
  2
GROHE_Eurocube_39661000_Front View
340
0
310
2800000020000000200000000100200000000000001000000100000001000000000000000000000003000000302821FF302821FF302821FF302821FF302821FF302821FF302821FF302821FF302821FF302821FF302821FF302821FF302821FF302821FF302821FF302821FF302821FF302821FF302821FF302821FF302821
310
FF302821FF302821FF302821FF302821FF302821FF302821FF302821FF302821FF302821FF302821FF302821FF302821FF302821FF302821FF302821FF302821FF302821FF302821FF302821FF302821FF302821FFFFFFFFFFFFFFFFFFFFFFFFFFFFFFFFFFFFFFFFFFFFFFFFFFFFFFFFFFFFFFFFFFFFFFFFFFFFFFFFFFFFFF
310
FFFFFFFFFFFF302821FF302821FF302821FF302821FF302821FF302821FF302821FF302821FF302821FF302821FF302821FF302821FF302821FF302821FF302821FF302821FF302821FF302821FF302821FF302821FFFFFFFFFF302821FF302821FF302821FF302821FF302821FF302821FF302821FF302821FF302821FF30
310
2821FFFFFFFFFF302821FF302821FF302821FF302821FF302821FF302821FF302821FF302821FF302821FF302821FF302821FF302821FF302821FF302821FF302821FF302821FF302821FF302821FF302821FF302821FFFFFFFFFF302821FF302821FF302821FF302821FF302821FF302821FF302821FF302821FF302821FF
310
302821FFFFFFFFFF302821FF302821FF302821FF302821FF302821FF302821FF302821FF302821FF302821FF302821FF302821FF302821FF302821FF302821FF302821FF302821FF302821FF302821FF302821FF302821FFFFFFFFFF302821FF302821FF302821FF302821FF302821FF302821FF302821FF302821FF302821
310
FF302821FFFFFFFFFF302821FF302821FF302821FF302821FF302821FF302821FF302821FF302821FF302821FF302821FF302821FF302821FF302821FF302821FF302821FF302821FF302821FF302821FF302821FF302821FFFFFFFFFF302821FF302821FF302821FF302821FF302821FF302821FF302821FF302821FF3028
310
21FF302821FFFFFFFFFF302821FF302821FF302821FF302821FF302821FF302821FF302821FF302821FF302821FF302821FF302821FF302821FF302821FF302821FF302821FF302821FF302821FF302821FF302821FF302821FFFFFFFFFF302821FF302821FF302821FF302821FF302821FF302821FF302821FF302821FF30
310
2821FF302821FFFFFFFFFF302821FF302821FF302821FF302821FF302821FF302821FF302821FF302821FF302821FF302821FF302821FF302821FF302821FF302821FF302821FF302821FF302821FF302821FF302821FF302821FFFFFFFFFF302821FF302821FF302821FF302821FF302821FF302821FF302821FF302821FF
310
302821FF302821FFFFFFFFFF302821FF302821FF302821FF302821FF302821FF302821FF302821FF302821FF302821FF302821FF302821FF302821FF302821FF302821FF302821FF302821FF302821FF302821FF302821FF302821FFFFFFFFFF302821FF302821FF302821FF302821FF302821FF302821FF302821FF302821
310
FF302821FF302821FFFFFFFFFF302821FF302821FF302821FF302821FF302821FF302821FF302821FF302821FF302821FF302821FF302821FF302821FF302821FF302821FF302821FF302821FF302821FF302821FF302821FF302821FFFFFFFFFF302821FF302821FF302821FF302821FF302821FF302821FF302821FF3028
310
21FF302821FF302821FF302821FFFFFFFFFF302821FF302821FF302821FF302821FF302821FF302821FF302821FF302821FF302821FF302821FF302821FF302821FF302821FF302821FF302821FF302821FF302821FF302821FFFFFFFFFF302821FF302821FF302821FF302821FF302821FF302821FF302821FF302821FF30
310
2821FF302821FF302821FF302821FFFFFFFFFF302821FF302821FF302821FF302821FF302821FF302821FF302821FF302821FF302821FF302821FF302821FF302821FF302821FF302821FF302821FF302821FF302821FF302821FFFFFFFFFF302821FF302821FF302821FF302821FF302821FF302821FF302821FF302821FF
310
302821FF302821FF302821FF302821FFFFFFFFFF302821FF302821FF302821FF302821FF302821FF302821FF302821FF302821FF302821FF302821FF302821FF302821FF302821FF302821FF302821FF302821FF302821FF302821FFFFFFFFFF302821FF302821FF302821FF302821FF302821FF302821FF302821FF302821
310
FF302821FF302821FF302821FF302821FFFFFFFFFF302821FF302821FF302821FF302821FF302821FF302821FF302821FF302821FF302821FF302821FF302821FF302821FF302821FF302821FF302821FF302821FF302821FF302821FFFFFFFFFF302821FF302821FF302821FF302821FF302821FF302821FF302821FF3028
310
21FF302821FF302821FF302821FF302821FFFFFFFFFF302821FF302821FF302821FF302821FF302821FF302821FF302821FF302821FF302821FF302821FF302821FF302821FF302821FF302821FF302821FF302821FF302821FF302821FFFFFFFFFF302821FF302821FF302821FF302821FF302821FF302821FF302821FF30
310
2821FF302821FF302821FF302821FF302821FFFFFFFFFF302821FF302821FF302821FF302821FF302821FF302821FF302821FF302821FF302821FF302821FF302821FF302821FF302821FF302821FF302821FF302821FF302821FF302821FFFFFFFFFF302821FF302821FF302821FF302821FF302821FF302821FF302821FF
310
302821FF302821FF302821FF302821FF302821FFFFFFFFFF302821FF302821FF302821FF302821FF302821FF302821FF302821FF302821FF302821FF302821FF302821FF302821FF302821FF302821FF302821FF302821FF302821FF302821FFFFFFFFFFFFFFFFFFFFFFFFFFFFFFFFFFFFFFFFFFFFFFFFFFFFFFFFFFFFFFFF
310
FFFFFFFFFFFFFFFFFFFFFFFFFFFFFFFFFFFFFFFFFFFFFFFFFF302821FF302821FF302821FF302821FF302821FF302821FF302821FF302821FF302821FF302821FF302821FF302821FF302821FF302821FF302821FF302821FF302821FF302821FFFFFFFFFF302821FF302821FF302821FF302821FF302821FF302821FF3028
310
21FF302821FF302821FF302821FF302821FF302821FFFFFFFFFF302821FF302821FF302821FF302821FF302821FF302821FF302821FF302821FF302821FF302821FF302821FF302821FF302821FF302821FF302821FF302821FF302821FF302821FFFFFFFFFFFFFFFFFFFFFFFFFFFFFFFFFFFFFFFFFFFFFFFFFFFFFFFFFFFF
310
FFFFFFFFFFFFFFFFFFFFFFFFFFFFFFFFFFFFFFFFFFFFFFFFFFFFFF302821FF302821FF302821FF302821FF302821FF302821FF302821FF302821FF302821FF302821FF302821FF302821FF302821FF302821FF302821FF302821FF302821FF302821FFFFFFFFFF302821FF302821FF302821FF302821FF302821FF302821FF
310
302821FF302821FF302821FF302821FF302821FF302821FFFFFFFFFF302821FF302821FF302821FF302821FF302821FF302821FF302821FF302821FF302821FF302821FF302821FF302821FF302821FF302821FF302821FF302821FF302821FF302821FFFFFFFFFF302821FF302821FF302821FF302821FF302821FF302821
310
FF302821FF302821FF302821FF302821FF302821FF302821FFFFFFFFFF302821FF302821FF302821FF302821FF302821FF302821FF302821FF302821FF302821FF302821FF302821FF302821FF302821FF302821FF302821FF302821FF302821FF302821FFFFFFFFFF302821FF302821FF302821FF302821FF302821FF3028
310
21FF302821FF302821FF302821FF302821FF302821FF302821FFFFFFFFFF302821FF302821FF302821FF302821FF302821FF302821FF302821FF302821FF302821FF302821FF302821FF302821FF302821FF302821FF302821FF302821FF302821FF302821FFFFFFFFFF302821FF302821FF302821FF302821FF302821FF30
310
2821FF302821FF302821FF302821FF302821FF302821FF302821FFFFFFFFFF302821FF302821FF302821FF302821FF302821FF302821FF302821FF302821FF302821FF302821FF302821FF302821FF302821FF302821FF302821FF302821FF302821FF302821FFFFFFFFFF302821FF302821FF302821FF302821FF302821FF
310
302821FF302821FF302821FF302821FF302821FF302821FF302821FFFFFFFFFF302821FF302821FF302821FF302821FF302821FF302821FF302821FF302821FF302821FF302821FF302821FF302821FF302821FF302821FF302821FF302821FF302821FF302821FFFFFFFFFF302821FF302821FF302821FF302821FF302821
310
FF302821FF302821FF302821FF302821FF302821FF302821FF302821FFFFFFFFFF302821FF302821FF302821FF302821FF302821FF302821FF302821FF302821FF302821FF302821FF302821FF302821FF302821FF302821FF302821FF302821FF302821FF302821FFFFFFFFFF302821FF302821FF302821FF302821FF3028
310
21FF302821FF302821FF302821FF302821FF302821FF302821FF302821FFFFFFFFFF302821FF302821FF302821FF302821FF302821FF302821FF302821FF302821FF302821FF302821FF302821FF302821FF302821FF302821FF302821FF302821FF302821FF302821FFFFFFFFFF302821FF302821FF302821FF302821FF30
310
2821FF302821FF302821FF302821FF302821FF302821FF302821FF302821FFFFFFFFFF302821FF302821FF302821FF302821FF302821FF302821FF302821FF302821FF302821FF302821FF302821FF302821FF302821FF302821FF302821FF302821FF302821FF302821FFFFFFFFFF302821FF302821FF302821FF302821FF
310
302821FF302821FF302821FF302821FF302821FF302821FF302821FF302821FFFFFFFFFF302821FF302821FF302821FF302821FF302821FF302821FF302821FF302821FF302821FF302821FF302821FF302821FF302821FF302821FF302821FF302821FF302821FF302821FFFFFFFFFF302821FF302821FF302821FF302821
310
FF302821FF302821FF302821FF302821FF302821FF302821FF302821FF302821FFFFFFFFFF302821FF302821FF302821FF302821FF302821FF302821FF302821FF302821FF302821FF302821FF302821FF302821FF302821FF302821FF302821FF302821FF302821FF302821FFFFFFFFFFFFFFFFFFFFFFFFFFFFFFFFFFFFFF
310
FFFFFFFFFFFFFFFFFFFFFFFFFFFFFFFFFFFFFFFFFFFFFFFFFFFFFFFFFFFFFFFFFFFFFFFFFFFF302821FF302821FF302821FF302821FF302821FF302821FF302821FF302821FF302821FF302821FF302821FF302821FF302821FF302821FF302821FF302821FF302821FF302821FFFFFFFFFFFFFFFFFFFFFFFFFFFFFFFFFFFF
310
FFFFFFFFFFFFFFFFFFFFFFFFFFFFFFFFFFFFFFFFFFFFFFFFFFFFFFFFFFFFFFFFFFFFFFFFFFFFFF302821FF302821FF302821FF302821FF302821FF302821FF302821FF302821FF302821FF302821FF302821FF302821FF302821FF302821FF302821FF302821FF302821FF302821FF302821FF302821FF302821FF302821FF
310
302821FF302821FF302821FF302821FF302821FF302821FF302821FF302821FF302821FF302821FF302821FF302821FF302821FF302821FF302821FF302821FF302821FF302821FF
102
{BLKREFS
331
321
102
}
 70
     1
280
     1
281
     0
  0
BLOCK_RECORD
  5
322
330
1
100
AcDbSymbolTableRecord
100
AcDbBlockTableRecord
  2
GROHE_Eurocube_39661000_Plan View
340
0
310
2800000020000000200000000100200000000000001000000100000001000000000000000000000003000000302821FF302821FF302821FF302821FF302821FF302821FF302821FF302821FF302821FF302821FF302821FF302821FF302821FF302821FF302821FF302821FF302821FF302821FF302821FF302821FF302821
310
FF302821FF302821FF302821FF302821FF302821FF302821FF302821FF302821FF302821FF302821FF302821FF302821FF302821FF302821FF302821FF302821FF302821FF302821FF302821FF302821FF302821FF302821FFFFFFFFFFFFFFFFFFFFFFFFFFFFFFFFFFFFFFFFFFFFFFFFFFFFFFFFFFFFFFFFFFFFFFFFFFFFFF
310
FFFF302821FF302821FF302821FF302821FF302821FF302821FF302821FF302821FF302821FF302821FF302821FF302821FF302821FF302821FF302821FF302821FF302821FF302821FF302821FF302821FFFFFFFFFFFFFFFFFF302821FF302821FF302821FF302821FF302821FF302821FF302821FF302821FF302821FF30
310
2821FFFFFFFFFFFFFFFFFF302821FF302821FF302821FF302821FF302821FF302821FF302821FF302821FF302821FF302821FF302821FF302821FF302821FF302821FF302821FF302821FF302821FF302821FFFFFFFFFF302821FF302821FF302821FF302821FF302821FF302821FF302821FF302821FF302821FF302821FF
310
302821FF302821FFFFFFFFFF302821FF302821FF302821FF302821FF302821FF302821FF302821FF302821FF302821FF302821FF302821FF302821FF302821FF302821FF302821FF302821FF302821FF302821FFFFFFFFFF302821FF302821FF302821FF302821FF302821FF302821FF302821FF302821FF302821FF302821
310
FF302821FF302821FFFFFFFFFF302821FF302821FF302821FF302821FF302821FF302821FF302821FF302821FF302821FF302821FF302821FF302821FF302821FF302821FF302821FF302821FF302821FF302821FFFFFFFFFF302821FF302821FF302821FF302821FF302821FF302821FF302821FF302821FF302821FF3028
310
21FF302821FF302821FFFFFFFFFF302821FF302821FF302821FF302821FF302821FF302821FF302821FF302821FF302821FF302821FF302821FF302821FF302821FF302821FF302821FF302821FF302821FF302821FFFFFFFFFF302821FF302821FF302821FF302821FF302821FF302821FF302821FF302821FF302821FF30
310
2821FF302821FF302821FFFFFFFFFF302821FF302821FF302821FF302821FF302821FF302821FF302821FF302821FF302821FF302821FF302821FF302821FF302821FF302821FF302821FF302821FF302821FF302821FFFFFFFFFF302821FF302821FF302821FF302821FF302821FF302821FF302821FF302821FF302821FF
310
302821FF302821FF302821FFFFFFFFFF302821FF302821FF302821FF302821FF302821FF302821FF302821FF302821FF302821FF302821FF302821FF302821FF302821FF302821FF302821FF302821FF302821FF302821FFFFFFFFFF302821FF302821FF302821FF302821FF302821FF302821FF302821FF302821FF302821
310
FF302821FF302821FF302821FFFFFFFFFF302821FF302821FF302821FF302821FF302821FF302821FF302821FF302821FF302821FF302821FF302821FF302821FF302821FF302821FF302821FF302821FF302821FF302821FFFFFFFFFF302821FF302821FF302821FF302821FF302821FF302821FF302821FF302821FF3028
310
21FF302821FF302821FF302821FFFFFFFFFF302821FF302821FF302821FF302821FF302821FF302821FF302821FF302821FF302821FF302821FF302821FF302821FF302821FF302821FF302821FF302821FF302821FF302821FFFFFFFFFF302821FF302821FF302821FF302821FF302821FF302821FF302821FF302821FF30
310
2821FF302821FF302821FF302821FFFFFFFFFF302821FF302821FF302821FF302821FF302821FF302821FF302821FF302821FF302821FF302821FF302821FF302821FF302821FF302821FF302821FF302821FF302821FF302821FFFFFFFFFF302821FF302821FF302821FF302821FF302821FF302821FF302821FF302821FF
310
302821FF302821FF302821FF302821FFFFFFFFFF302821FF302821FF302821FF302821FF302821FF302821FF302821FF302821FF302821FF302821FF302821FF302821FF302821FF302821FF302821FF302821FF302821FF302821FFFFFFFFFF302821FF302821FF302821FF302821FF302821FF302821FF302821FF302821
310
FF302821FF302821FF302821FF302821FFFFFFFFFF302821FF302821FF302821FF302821FF302821FF302821FF302821FF302821FF302821FF302821FF302821FF302821FF302821FF302821FF302821FF302821FF302821FF302821FFFFFFFFFF302821FF302821FF302821FF302821FF302821FF302821FF302821FF3028
310
21FF302821FF302821FF302821FF302821FFFFFFFFFF302821FF302821FF302821FF302821FF302821FF302821FF302821FF302821FF302821FF302821FF302821FF302821FF302821FF302821FF302821FF302821FF302821FF302821FFFFFFFFFF302821FF302821FF302821FF302821FF302821FF302821FF302821FF30
310
2821FF302821FF302821FF302821FF302821FFFFFFFFFF302821FF302821FF302821FF302821FF302821FF302821FF302821FF302821FF302821FF302821FF302821FF302821FF302821FF302821FF302821FF302821FF302821FF302821FFFFFFFFFF302821FF302821FF302821FF302821FF302821FF302821FF302821FF
310
302821FF302821FF302821FF302821FF302821FFFFFFFFFF302821FF302821FF302821FF302821FF302821FF302821FF302821FF302821FF302821FF302821FF302821FF302821FF302821FF302821FF302821FF302821FF302821FF302821FFFFFFFFFF302821FF302821FF302821FF302821FF302821FF302821FF302821
310
FF302821FF302821FF302821FF302821FF302821FFFFFFFFFF302821FF302821FF302821FF302821FF302821FF302821FF302821FF302821FF302821FF302821FF302821FF302821FF302821FF302821FF302821FF302821FF302821FF302821FFFFFFFFFF302821FF302821FF302821FF302821FF302821FF302821FF3028
310
21FF302821FF302821FF302821FF302821FF302821FFFFFFFFFF302821FF302821FF302821FF302821FF302821FF302821FF302821FF302821FF302821FF302821FF302821FF302821FF302821FF302821FF302821FF302821FF302821FF302821FFFFFFFFFF302821FF302821FF302821FF302821FF302821FF302821FF30
310
2821FF302821FF302821FF302821FF302821FF302821FFFFFFFFFF302821FF302821FF302821FF302821FF302821FF302821FF302821FF302821FF302821FF302821FF302821FF302821FF302821FF302821FF302821FF302821FF302821FF302821FFFFFFFFFFFFFFFFFFFFFFFFFFFFFFFFFFFFFFFFFFFFFFFFFFFFFFFFFF
310
FFFFFFFFFFFFFFFFFFFFFFFFFFFFFFFFFFFFFFFFFFFFFFFFFFFFFFFF302821FF302821FF302821FF302821FF302821FF302821FF302821FF302821FF302821FF302821FF302821FF302821FF302821FF302821FF302821FF302821FF302821FF302821FFFFFFFFFF302821FF302821FF302821FF302821FF302821FF302821
310
FF302821FF302821FF302821FF302821FF302821FF302821FFFFFFFFFF302821FF302821FF302821FF302821FF302821FF302821FF302821FF302821FF302821FF302821FF302821FF302821FF302821FF302821FF302821FF302821FF302821FF302821FFFFFFFFFF302821FF302821FF302821FF302821FF302821FF3028
310
21FF302821FF302821FF302821FF302821FF302821FF302821FFFFFFFFFF302821FF302821FF302821FF302821FF302821FF302821FF302821FF302821FF302821FF302821FF302821FF302821FF302821FF302821FF302821FF302821FF302821FF302821FFFFFFFFFF302821FF302821FF302821FF302821FF302821FF30
310
2821FF302821FF302821FF302821FF302821FF302821FF302821FFFFFFFFFF302821FF302821FF302821FF302821FF302821FF302821FF302821FF302821FF302821FF302821FF302821FF302821FF302821FF302821FF302821FF302821FF302821FFFFFFFFFFFFFFFFFFFFFFFFFFFFFFFFFFFFFFFFFFFFFFFFFFFFFFFFFF
310
FFFFFFFFFFFFFFFFFFFFFFFFFFFFFFFFFFFFFFFFFFFFFFFFFFFFFFFFFFFFFFFFFFFFFFFF302821FF302821FF302821FF302821FF302821FF302821FF302821FF302821FF302821FF302821FF302821FF302821FF302821FF302821FF302821FF302821FFFFFFFFFF302821FF302821FF302821FF302821FF302821FF302821
310
FF302821FF302821FF302821FF302821FF302821FF302821FF302821FF302821FFFFFFFFFF302821FF302821FF302821FF302821FF302821FF302821FF302821FF302821FF302821FF302821FF302821FF302821FF302821FF302821FF302821FF302821FFFFFFFFFF302821FF302821FF302821FF302821FFFFFFFFFFFFFF
310
FFFFFFFFFFFFFFFFFFFFFFFFFFFFFFFFFFFF302821FF302821FF302821FF302821FFFFFFFFFF302821FF302821FF302821FF302821FF302821FF302821FF302821FF302821FF302821FF302821FF302821FF302821FF302821FF302821FF302821FF302821FFFFFFFFFF302821FF302821FF302821FF302821FFFFFFFFFFFF
310
FFFFFFFFFFFFFFFFFFFFFFFFFFFFFFFFFFFFFF302821FF302821FF302821FF302821FFFFFFFFFF302821FF302821FF302821FF302821FF302821FF302821FF302821FF302821FF302821FF302821FF302821FF302821FF302821FF302821FF302821FF302821FFFFFFFFFF302821FF302821FF302821FF302821FFFFFFFFFF
310
FFFFFFFFFFFFFFFFFFFFFFFFFFFFFFFFFFFFFFFF302821FF302821FF302821FF302821FFFFFFFFFF302821FF302821FF302821FF302821FF302821FF302821FF302821FF302821FF302821FF302821FF302821FF302821FF302821FF302821FF302821FF302821FFFFFFFFFF302821FF302821FF302821FF302821FF302821
310
FF302821FF302821FF302821FF302821FF302821FF302821FF302821FF302821FF302821FFFFFFFFFF302821FF302821FF302821FF302821FF302821FF302821FF302821FF302821FF302821FF302821FF302821FF302821FF302821FF302821FF302821FF302821FFFFFFFFFFFFFFFFFF302821FF302821FF302821FF3028
310
21FF302821FF302821FF302821FF302821FF302821FF302821FF302821FF302821FFFFFFFFFFFFFFFFFF302821FF302821FF302821FF302821FF302821FF302821FF302821FF302821FF302821FF302821FF302821FF302821FF302821FF302821FF302821FF302821FF302821FFFFFFFFFFFFFFFFFFFFFFFFFFFFFFFFFFFF
310
FFFFFFFFFFFFFFFFFFFFFFFFFFFFFFFFFFFFFFFFFFFFFFFFFFFFFFFFFFFFFFFFFFFFFFFFFFFFFF302821FF302821FF302821FF302821FF302821FF302821FF302821FF302821FF302821FF302821FF302821FF302821FF302821FF302821FF302821FF302821FF302821FF302821FF302821FF302821FF302821FF302821FF
310
302821FF302821FF302821FF302821FF302821FF302821FF302821FF302821FF302821FF302821FF302821FF302821FF302821FF302821FF302821FF302821FF302821FF302821FF
102
{BLKREFS
331
33E
102
}
 70
     1
280
     1
281
     0
  0
ENDTAB
  0
ENDSEC
  0
SECTION
  2
BLOCKS
  0
BLOCK
  5
71
330
70
100
AcDbEntity
  8
0
100
AcDbBlockBegin
  2
*Model_Space
 70
     0
 10
0.0
 20
0.0
 30
0.0
  3
*Model_Space
  1

  0
ENDBLK
  5
72
330
70
100
AcDbEntity
  8
0
100
AcDbBlockEnd
  0
BLOCK
  5
6D
330
6C
100
AcDbEntity
 67
     1
  8
0
100
AcDbBlockBegin
  2
*Paper_Space
 70
     0
 10
0.0
 20
0.0
 30
0.0
  3
*Paper_Space
  1

  0
ENDBLK
  5
6E
330
6C
100
AcDbEntity
 67
     1
  8
0
100
AcDbBlockEnd
  0
BLOCK
  5
75
330
74
100
AcDbEntity
 67
     1
  8
0
100
AcDbBlockBegin
  2
*Paper_Space0
 70
     0
 10
0.0
 20
0.0
 30
0.0
  3
*Paper_Space0
  1

  0
ENDBLK
  5
76
330
74
100
AcDbEntity
 67
     1
  8
0
100
AcDbBlockEnd
  0
BLOCK
  5
2AA
330
2A9
100
AcDbEntity
  8
0
100
AcDbBlockBegin
  2
GROHE_Eurocube_39661000_Side View
 70
     0
 10
0.0
 20
0.0
 30
0.0
  3
GROHE_Eurocube_39661000_Side View
  1

  0
LINE
  5
2AC
330
2A9
100
AcDbEntity
  8
39661000
100
AcDbLine
 10
26.43750000000027
 20
0.0
 30
0.0
 11
30.01968875317307
 21
16.4999999999998
 31
0.0
1001
REVIT
1002
{
1070
     2
1000
-2001160
1002
}
  0
LWPOLYLINE
  5
2AD
330
2A9
100
AcDbEntity
  8
39661000
100
AcDbPolyline
 90
       19
 70
   128
 43
0.0
 10
3.437500000000014
 20
9.587020137032169
 10
3.344340765792779
 20
9.316787650612909
 10
3.262062466243953
 20
9.043045945610245
 10
3.190796729081064
 20
8.76623295035705
 10
3.130657564281001
 20
8.486791506595452
 10
3.081741181678459
 20
8.205168661024472
 10
3.044125837050664
 20
7.92181495012069
 10
3.017871706924836
 20
7.637183679375979
 10
3.003020792308589
 20
7.351730198105428
 10
2.999596851497287
 20
7.065911170985586
 10
3.007605362065838
 20
6.780183847488359
 10
3.027033512105703
 20
6.495005330379427
 10
3.057850220721277
 20
6.210831844451348
 10
3.100006187752661
 20
5.928118006661151
 10
3.153433972645395
 20
5.647316098840235
 10
3.218048102340972
 20
5.368875344139894
 10
3.293745208015486
 20
5.093241188370114
 10
3.38040419044772
 20
4.820854587381333
 10
3.437500000000021
 20
4.659447018374649
1001
REVIT
1002
{
1070
     2
1000
-2001160
1002
}
  0
LINE
  5
2AE
330
2A9
100
AcDbEntity
  8
39661000
100
AcDbLine
 10
8.125000000000859
 20
29.76561642072805
 30
0.0
 11
8.125000000000859
 21
30.75000000000006
 31
0.0
1001
REVIT
1002
{
1070
     2
1000
-2001160
1002
}
  0
ARC
  5
2AF
330
2A9
100
AcDbEntity
  8
39661000
100
AcDbCircle
 10
8.062500000000859
 20
30.75000000000006
 30
0.0
 40
0.0625
100
AcDbArc
 50
0.0
 51
90.0
1001
REVIT
1002
{
1070
     2
1000
-2001160
1002
}
  0
LINE
  5
2B0
330
2A9
100
AcDbEntity
  8
39661000
100
AcDbLine
 10
0.8125000000008526
 20
30.75000000000006
 30
0.0
 11
0.8125000000008526
 21
29.76561642072805
 31
0.0
1001
REVIT
1002
{
1070
     2
1000
-2001160
1002
}
  0
ARC
  5
2B1
330
2A9
100
AcDbEntity
  8
39661000
100
AcDbCircle
 10
0.8750000000008526
 20
29.76561642072805
 30
0.0
 40
0.0625
100
AcDbArc
 50
180.0
 51
270.0
1001
REVIT
1002
{
1070
     2
1000
-2001160
1002
}
  0
LWPOLYLINE
  5
2B2
330
2A9
100
AcDbEntity
  8
39661000
100
AcDbPolyline
 90
        7
 70
   128
 43
0.0
 10
0.8580511472308245
 20
30.81122490888221
 10
0.8603133505639419
 20
30.81166184382963
 10
0.8625912171133052
 20
30.8120079652706
 10
0.8648811027783622
 20
30.81226271948465
 10
0.8671793442305286
 20
30.8124256989194
 10
0.869482264773751
 20
30.81249664284252
 10
0.8701041660939381
 20
30.81250000000006
1001
REVIT
1002
{
1070
     2
1000
-2001160
1002
}
  0
LINE
  5
2B3
330
2A9
100
AcDbEntity
  8
39661000
100
AcDbLine
 10
0.8886495839606141
 20
29.70311642072805
 30
0.0
 11
1.534422224541827
 21
17.27295914968371
 31
0.0
1001
REVIT
1002
{
1070
     2
1000
-2001160
1002
}
  0
LINE
  5
2B4
330
2A9
100
AcDbEntity
  8
39661000
100
AcDbLine
 10
7.87500000000081
 20
17.27295914968371
 30
0.0
 11
8.058618879684907
 21
29.70311642072805
 31
0.0
1001
REVIT
1002
{
1070
     2
1000
-2001160
1002
}
  0
LINE
  5
2B5
330
2A9
100
AcDbEntity
  8
39661000
100
AcDbLine
 10
8.312500000000802
 20
16.49999999999993
 30
0.0
 11
30.01968875317303
 21
16.49999999999978
 31
0.0
1001
REVIT
1002
{
1070
     2
1000
-2001160
1002
}
  0
LWPOLYLINE
  5
2B6
330
2A9
100
AcDbEntity
  8
39661000
100
AcDbPolyline
 90
        8
 70
   128
 43
0.0
 10
8.312500000000802
 20
16.49999999999987
 10
8.201239533022643
 20
16.51253604390896
 10
8.095558130442022
 20
16.54951556604866
 10
8.000755099071433
 20
16.60908425876585
 10
7.921584258766785
 20
16.6882550990705
 10
7.862015566049592
 20
16.78305813044109
 10
7.825036043909889
 20
16.88873953302172
 10
7.812500000000802
 20
16.99999999999987
1001
REVIT
1002
{
1070
     2
1000
-2001160
1002
}
  0
LINE
  5
2B7
330
2A9
100
AcDbEntity
  8
39661000
100
AcDbLine
 10
7.812500000000802
 20
16.99999999999987
 30
0.0
 11
7.812500000000802
 21
17.2729591496837
 31
0.0
1001
REVIT
1002
{
1070
     2
1000
-2001160
1002
}
  0
LINE
  5
2B8
330
2A9
100
AcDbEntity
  8
39661000
100
AcDbLine
 10
1.643797224541792
 20
17.2729591496837
 30
0.0
 11
1.643797224541799
 21
16.49999999999989
 31
0.0
1001
REVIT
1002
{
1070
     2
1000
-2001160
1002
}
  0
LINE
  5
2B9
330
2A9
100
AcDbEntity
  8
39661000
100
AcDbLine
 10
1.643797224541799
 20
16.49999999999996
 30
0.0
 11
1.687561891278107
 21
16.49999999999996
 31
0.0
1001
REVIT
1002
{
1070
     2
1000
-2001160
1002
}
  0
LWPOLYLINE
  5
2BA
330
2A9
100
AcDbEntity
  8
39661000
100
AcDbPolyline
 90
        8
 70
   128
 43
0.0
 10
1.687561891278107
 20
16.49999999999988
 10
1.778653134960613
 20
16.48973648177502
 10
1.865176683320967
 20
16.45946058276094
 10
1.942793884353513
 20
16.41069046295536
 10
2.007612687497264
 20
16.34587165981161
 10
2.056382807302846
 20
16.26825445877907
 10
2.086658706316931
 20
16.18173091041871
 10
2.096922224541792
 20
16.09063966673621
1001
REVIT
1002
{
1070
     2
1000
-2001160
1002
}
  0
LINE
  5
2BB
330
2A9
100
AcDbEntity
  8
39661000
100
AcDbLine
 10
2.096922224541792
 20
16.09063966673621
 30
0.0
 11
2.096922224541799
 21
13.62487831695149
 31
0.0
1001
REVIT
1002
{
1070
     2
1000
-2001160
1002
}
  0
LWPOLYLINE
  5
2BC
330
2A9
100
AcDbEntity
  8
39661000
100
AcDbPolyline
 90
        8
 70
   128
 43
0.0
 10
2.096922224541799
 20
13.62487831695149
 10
2.380627679621944
 20
13.63903746756641
 10
2.659054067278638
 20
13.58275235901351
 10
2.914981988528325
 20
13.45950396789549
 10
3.132583471661426
 20
13.27691464365488
 10
3.29840085991983
 20
13.04627670111392
 10
3.402179106032825
 20
12.78185404243641
 10
3.437500000000014
 20
12.50000000000004
1001
REVIT
1002
{
1070
     2
1000
-2001160
1002
}
  0
LINE
  5
2BD
330
2A9
100
AcDbEntity
  8
39661000
100
AcDbLine
 10
3.437500000000014
 20
12.50000000000004
 30
0.0
 11
3.437500000000028
 21
0.0
 31
0.0
1001
REVIT
1002
{
1070
     2
1000
-2001160
1002
}
  0
LINE
  5
2BE
330
2A9
100
AcDbEntity
  8
39661000
100
AcDbLine
 10
26.43750000000024
 20
0.0
 30
0.0
 11
3.437500000000028
 21
0.0
 31
0.0
1001
REVIT
1002
{
1070
     2
1000
-2001160
1002
}
  0
LWPOLYLINE
  5
2BF
330
2A9
100
AcDbEntity
  8
39661000
100
AcDbPolyline
 90
        4
 70
   128
 43
0.0
 10
13.6412616023296
 20
3.759615835894649
 10
13.71226629468845
 20
3.734770219457033
 10
13.77596208139056
 20
3.694747504037664
 10
13.79236550026473
 20
3.680764773289354
1001
REVIT
1002
{
1070
     2
1000
-2001160
1002
}
  0
LWPOLYLINE
  5
2C0
330
2A9
100
AcDbEntity
  8
39661000
100
AcDbPolyline
 90
        4
 70
   128
 43
0.0
 10
13.81517225897193
 20
3.657958014582163
 10
13.82915498972025
 20
3.641554595707987
 10
13.86917770513962
 20
3.577858809005874
 10
13.89402332157723
 20
3.506854116647019
1001
REVIT
1002
{
1070
     2
1000
-2001160
1002
}
  0
LWPOLYLINE
  5
2C1
330
2A9
100
AcDbEntity
  8
39661000
100
AcDbPolyline
 90
        4
 70
   128
 43
0.0
 10
13.89402332157723
 20
1.61059912512961
 10
13.86917770513962
 20
1.539594432770755
 10
13.82915498972025
 20
1.475898646068642
 10
13.81517225897193
 20
1.459495227194466
1001
REVIT
1002
{
1070
     2
1000
-2001160
1002
}
  0
LWPOLYLINE
  5
2C2
330
2A9
100
AcDbEntity
  8
39661000
100
AcDbPolyline
 90
        4
 70
   128
 43
0.0
 10
13.79236550026473
 20
1.436688468487261
 10
13.77596208139056
 20
1.422705737738951
 10
13.71226629468845
 20
1.382683022319582
 10
13.6412616023296
 20
1.35783740588198
1001
REVIT
1002
{
1070
     2
1000
-2001160
1002
}
  0
LWPOLYLINE
  5
2C3
330
2A9
100
AcDbEntity
  8
39661000
100
AcDbPolyline
 90
        4
 70
   128
 43
0.0
 10
10.4136303498277
 20
1.35783740588198
 10
10.34262565746885
 20
1.382683022319582
 10
10.27892987076674
 20
1.422705737738951
 10
10.26252645189259
 20
1.436688468487247
1001
REVIT
1002
{
1070
     2
1000
-2001160
1002
}
  0
LWPOLYLINE
  5
2C4
330
2A9
100
AcDbEntity
  8
39661000
100
AcDbPolyline
 90
        4
 70
   128
 43
0.0
 10
10.23971969318533
 20
1.459495227194508
 10
10.22573696243704
 20
1.475898646068628
 10
10.18571424701768
 20
1.539594432770755
 10
10.16086863058007
 20
1.61059912512961
1001
REVIT
1002
{
1070
     2
1000
-2001160
1002
}
  0
LWPOLYLINE
  5
2C5
330
2A9
100
AcDbEntity
  8
39661000
100
AcDbPolyline
 90
        4
 70
   128
 43
0.0
 10
10.16083885185759
 20
3.507777547256793
 10
10.18559662535725
 20
3.578531198921979
 10
10.22547783843489
 20
3.642001785937338
 10
10.23941113252895
 20
3.658347209691513
1001
REVIT
1002
{
1070
     2
1000
-2001160
1002
}
  0
LWPOLYLINE
  5
2C6
330
2A9
100
AcDbEntity
  8
39661000
100
AcDbPolyline
 90
        4
 70
   128
 43
0.0
 10
10.26213725678322
 20
3.681073333945775
 10
10.27848268053738
 20
3.69500662803982
 10
10.34195326755274
 20
3.734887841117469
 10
10.41270691921792
 20
3.759645614617127
1001
REVIT
1002
{
1070
     2
1000
-2001160
1002
}
  0
LINE
  5
2C7
330
2A9
100
AcDbEntity
  8
39661000
100
AcDbLine
 10
13.56650847607864
 20
3.768038490396065
 30
0.0
 11
10.48719575199691
 21
3.768038490396065
 31
0.0
1001
REVIT
1002
{
1070
     2
1000
-2001160
1002
}
  0
ARC
  5
2C8
330
2A9
100
AcDbEntity
  8
39661000
100
AcDbCircle
 10
10.48719575199691
 20
3.433288714477797
 30
0.0
 40
0.3347497759182659
100
AcDbArc
 50
89.99999999999959
 51
180.0
1001
REVIT
1002
{
1070
     2
1000
-2001160
1002
}
  0
LINE
  5
2C9
330
2A9
100
AcDbEntity
  8
39661000
100
AcDbLine
 10
10.15244597607865
 20
3.433288714477797
 30
0.0
 11
10.15244597607865
 21
1.68535225138055
 31
0.0
1001
REVIT
1002
{
1070
     2
1000
-2001160
1002
}
  0
ARC
  5
2CA
330
2A9
100
AcDbEntity
  8
39661000
100
AcDbCircle
 10
10.48838347607865
 20
1.68535225138055
 30
0.0
 40
0.3359375
100
AcDbArc
 50
180.0
 51
269.9999999999996
1001
REVIT
1002
{
1070
     2
1000
-2001160
1002
}
  0
LINE
  5
2CB
330
2A9
100
AcDbEntity
  8
39661000
100
AcDbLine
 10
10.48838347607865
 20
1.34941475138055
 30
0.0
 11
13.56650847607864
 21
1.34941475138055
 31
0.0
1001
REVIT
1002
{
1070
     2
1000
-2001160
1002
}
  0
ARC
  5
2CC
330
2A9
100
AcDbEntity
  8
39661000
100
AcDbCircle
 10
13.56650847607864
 20
1.68535225138055
 30
0.0
 40
0.3359375
100
AcDbArc
 50
269.9999999999996
 51
359.9999999999992
1001
REVIT
1002
{
1070
     2
1000
-2001160
1002
}
  0
LINE
  5
2CD
330
2A9
100
AcDbEntity
  8
39661000
100
AcDbLine
 10
13.90244597607865
 20
1.68535225138055
 30
0.0
 11
13.90244597607865
 21
3.432100990396065
 31
0.0
1001
REVIT
1002
{
1070
     2
1000
-2001160
1002
}
  0
ARC
  5
2CE
330
2A9
100
AcDbEntity
  8
39661000
100
AcDbCircle
 10
13.56650847607864
 20
3.432100990396065
 30
0.0
 40
0.3359375000000019
100
AcDbArc
 50
359.9999999999992
 51
89.99999999999959
1001
REVIT
1002
{
1070
     2
1000
-2001160
1002
}
  0
LINE
  5
2CF
330
2A9
100
AcDbEntity
  8
39661000
100
AcDbLine
 10
7.875000000000802
 20
17.27295914968368
 30
0.0
 11
1.53442222454182
 21
17.27295914968368
 31
0.0
1001
REVIT
1002
{
1070
     2
1000
-2001160
1002
}
  0
LINE
  5
2D0
330
2A9
100
AcDbEntity
  8
39661000
100
AcDbLine
 10
3.788033082893051
 20
30.85895763563981
 30
0.0
 11
5.288033082893051
 21
30.85895763563981
 31
0.0
1001
REVIT
1002
{
1070
     2
1000
-2001160
1002
}
  0
LINE
  5
2D1
330
2A9
100
AcDbEntity
  8
39661000
100
AcDbLine
 10
3.788033082893051
 20
30.81250000000002
 30
0.0
 11
3.788033082893051
 21
30.85895763563981
 31
0.0
1001
REVIT
1002
{
1070
     2
1000
-2001160
1002
}
  0
LINE
  5
2D2
330
2A9
100
AcDbEntity
  8
39661000
100
AcDbLine
 10
5.288033082893051
 20
30.81250000000002
 30
0.0
 11
5.288033082893051
 21
30.85895763563981
 31
0.0
1001
REVIT
1002
{
1070
     2
1000
-2001160
1002
}
  0
LINE
  5
2D3
330
2A9
100
AcDbEntity
  8
39661000
100
AcDbLine
 10
4.038033082893051
 20
30.89267566187911
 30
0.0
 11
5.038033082893051
 21
30.89267566187911
 31
0.0
1001
REVIT
1002
{
1070
     2
1000
-2001160
1002
}
  0
LINE
  5
2D4
330
2A9
100
AcDbEntity
  8
39661000
100
AcDbLine
 10
5.038033082893051
 20
30.89267566187911
 30
0.0
 11
5.038033082893051
 21
30.85895763563981
 31
0.0
1001
REVIT
1002
{
1070
     2
1000
-2001160
1002
}
  0
LINE
  5
2D5
330
2A9
100
AcDbEntity
  8
39661000
100
AcDbLine
 10
4.038033082893051
 20
30.85895763563981
 30
0.0
 11
4.038033082893051
 21
30.89267566187911
 31
0.0
1001
REVIT
1002
{
1070
     2
1000
-2001160
1002
}
  0
LWPOLYLINE
  5
2D6
330
2A9
100
AcDbEntity
  8
39661000
100
AcDbPolyline
 90
        5
 70
   128
 43
0.0
 10
30.01966925392126
 20
16.52340248240377
 10
30.01961078736024
 20
16.52242920933186
 10
30.01951344702408
 20
16.52145905281345
 10
30.0193773886366
 20
16.520493564892
 10
30.01920282986216
 20
16.51953429014223
1001
REVIT
1002
{
1070
     2
1000
-2001160
1002
}
  0
LWPOLYLINE
  5
2D7
330
2A9
100
AcDbEntity
  8
39661000
100
AcDbPolyline
 90
        7
 70
   128
 43
0.0
 10
30.01736685446423
 20
16.513994054489
 10
30.01693399280914
 20
16.51312037857723
 10
30.01646653967918
 20
16.51226471136238
 10
30.01596524289968
 20
16.51142842172947
 10
30.01543090443851
 20
16.51061284756351
 10
30.01486437912324
 20
16.50981929360918
 10
30.01426657327354
 20
16.50904902938353
1001
REVIT
1002
{
1070
     2
1000
-2001160
1002
}
  0
LWPOLYLINE
  5
2D8
330
2A9
100
AcDbEntity
  8
39661000
100
AcDbPolyline
 90
       17
 70
   128
 43
0.0
 10
30.0136384432512
 20
16.50830328714501
 10
30.01298099393031
 20
16.50758325992211
 10
30.0122952770895
 20
16.5068900996048
 10
30.01158238972945
 20
16.50622491510171
 10
30.01084347231786
 20
16.50558877056615
 10
30.01007970696497
 20
16.50498268369368
 10
30.0092923155324
 20
16.504407624094
 10
30.00848255767849
 20
16.50386451173979
 10
30.00765172884306
 20
16.50335421549496
 10
30.00680115817501
 20
16.50287755172466
 10
30.00593220640597
 20
16.50243528298923
 10
30.0050462636734
 20
16.5020281168243
 10
30.00414474729668
 20
16.50165670460888
 10
30.00322909950968
 20
16.50132164052326
 10
30.00230078515359
 20
16.50102346059854
 10
30.00136128933328
 20
16.50076264185897
 10
30.0004121150417
 20
16.50053960155888
1001
REVIT
1002
{
1070
     2
1000
-2001160
1002
}
  0
LWPOLYLINE
  5
2D9
330
2A9
100
AcDbEntity
  8
39661000
100
AcDbPolyline
 90
        3
 70
   128
 43
0.0
 10
29.88458773185887
 20
17.9999999999998
 10
29.88999033174916
 20
17.99989193359276
 10
29.89538428863213
 20
17.99956790725483
1001
REVIT
1002
{
1070
     2
1000
-2001160
1002
}
  0
LWPOLYLINE
  5
2DA
330
2A9
100
AcDbEntity
  8
39661000
100
AcDbPolyline
 90
        6
 70
   128
 43
0.0
 10
29.90611178428642
 20
17.99827439293889
 10
29.91142816135311
 20
17.99730697430786
 10
29.91670159945826
 20
17.99612773112938
 10
29.92192366222586
 20
17.99473854994095
 10
29.92708599546943
 20
17.99314165313615
 10
29.93218034055704
 20
17.9913395954092
1001
REVIT
1002
{
1070
     2
1000
-2001160
1002
}
  0
LWPOLYLINE
  5
2DB
330
2A9
100
AcDbEntity
  8
39661000
100
AcDbPolyline
 90
        5
 70
   128
 43
0.0
 10
29.94213258860735
 20
17.98713185242234
 10
29.94697457009619
 20
17.98473289865359
 10
29.95171674595235
 20
17.98214223617609
 10
29.95635152970603
 20
17.97936400949717
 10
29.96087150669196
 20
17.97640266318687
1001
REVIT
1002
{
1070
     2
1000
-2001160
1002
}
  0
LWPOLYLINE
  5
2DC
330
2A9
100
AcDbEntity
  8
39661000
100
AcDbPolyline
 90
        6
 70
   128
 43
0.0
 10
29.96953831159907
 20
17.9699498471349
 10
29.97367127448121
 20
17.96646870052238
 10
29.97766172269862
 20
17.96282506402198
 10
29.98150327238542
 20
17.95902476667483
 10
29.9851897778816
 20
17.95507388814599
 10
29.98871534156475
 20
17.95097874899831
1001
REVIT
1002
{
1070
     2
1000
-2001160
1002
}
  0
LWPOLYLINE
  5
2DD
330
2A9
100
AcDbEntity
  8
39661000
100
AcDbPolyline
 90
        5
 70
   128
 43
0.0
 10
29.99526134938839
 20
17.94238211454806
 10
29.99827132131276
 20
17.93789437202676
 10
30.00109942374521
 20
17.93328985244764
 10
30.00374113232514
 20
17.92857592205978
 10
30.00619222088236
 20
17.9237601221462
1001
REVIT
1002
{
1070
     2
1000
-2001160
1002
}
  0
LWPOLYLINE
  5
2DE
330
2A9
100
AcDbEntity
  8
39661000
100
AcDbPolyline
 90
        6
 70
   128
 43
0.0
 10
30.01050716427787
 20
17.91385388139646
 10
30.01236411612721
 20
17.90877928843228
 10
30.01401665301923
 20
17.90363449633312
 10
30.01546213124742
 20
17.89842773566889
 10
30.01669823835497
 20
17.89316733614588
 10
30.0177229968342
 20
17.88786171328121
1001
REVIT
1002
{
1070
     2
1000
-2001160
1002
}
  0
LWPOLYLINE
  5
2DF
330
2A9
100
AcDbEntity
  8
39661000
100
AcDbPolyline
 90
        3
 70
   128
 43
0.0
 10
30.01913225106325
 20
17.87714880775486
 10
30.01951449230692
 20
17.87175866345674
 10
30.01968087951671
 20
17.86635754512632
1001
REVIT
1002
{
1070
     2
1000
-2001160
1002
}
  0
LINE
  5
2E0
330
2A9
100
AcDbEntity
  8
39661000
100
AcDbLine
 10
30.01968875317307
 20
16.52437731499989
 30
0.0
 11
30.01968875317307
 21
17.86489897868551
 31
0.0
1001
REVIT
1002
{
1070
     2
1000
-2001160
1002
}
  0
LINE
  5
2E1
330
2A9
100
AcDbEntity
  8
39661000
100
AcDbLine
 10
29.88458773185886
 20
17.99999999999981
 30
0.0
 11
12.29759396049907
 21
17.99999999999981
 31
0.0
1001
REVIT
1002
{
1070
     2
1000
-2001160
1002
}
  0
LWPOLYLINE
  5
2E2
330
2A9
100
AcDbEntity
  8
39661000
100
AcDbPolyline
 90
        2
 70
   128
 43
0.0
 10
12.17822357908968
 20
17.86489897868551
 10
11.81949616870322
 20
16.5261100570556
1001
REVIT
1002
{
1070
     2
1000
-2001160
1002
}
  0
SPLINE
  5
2E3
330
2A9
100
AcDbEntity
  8
39661000
100
AcDbSpline
210
0.0
220
0.0
230
1.0
 70
     8
 71
     3
 72
    11
 73
     7
 74
     0
 42
0.000000001
 43
0.0000000001
 40
-1.0
 40
-1.0
 40
-1.0
 40
-1.0
 40
-0.625
 40
-0.4375
 40
-0.25
 40
0.0
 40
0.0
 40
0.0
 40
0.0
 10
11.81984333266984
 20
16.52437731499986
 30
0.0
 10
11.81980985276052
 20
16.5193631845118
 30
0.0
 10
11.82216933673935
 20
16.5119970621227
 30
0.0
 10
11.82882231441562
 20
16.50494889826417
 30
0.0
 10
11.8356487837762
 20
16.50101478638028
 30
0.0
 10
11.84102473902749
 20
16.49999999999986
 30
0.0
 10
11.84405842102566
 20
16.49999999999986
 30
0.0
1001
REVIT
1002
{
1070
     2
1000
-2001160
1002
}
  0
SPLINE
  5
2E4
330
2A9
100
AcDbEntity
  8
39661000
100
AcDbSpline
210
0.0
220
0.0
230
1.0
 70
    24
 71
     3
 72
     9
 73
     5
 74
     0
 42
0.000000001
 43
0.0000000001
 40
-1.0
 40
-1.0
 40
-1.0
 40
-1.0
 40
-0.5
 40
0.0
 40
0.0
 40
0.0
 40
0.0
 10
12.18750000000085
 20
17.89951905283838
 30
0.0
 10
12.18597834517616
 20
17.89384015972108
 30
0.0
 10
12.18291062019962
 20
17.88239125424494
 30
0.0
 10
12.17979406456872
 20
17.87076011028581
 30
0.0
 10
12.17822357908968
 20
17.8648989786855
 30
0.0
1001
REVIT
1002
{
1070
     2
1000
-2001160
1002
}
  0
SPLINE
  5
2E5
330
2A9
100
AcDbEntity
  8
39661000
100
AcDbSpline
210
0.0
220
0.0
230
1.0
 70
     8
 71
     3
 72
    22
 73
    18
 74
     0
 42
0.000000001
 43
0.0000000001
 40
0.0
 40
0.0
 40
0.0
 40
0.0
 40
0.1666666666666666
 40
0.3333333333333333
 40
0.4166666666666666
 40
0.4583333333333333
 40
0.5
 40
0.5416666666666666
 40
0.5833333333333333
 40
0.625
 40
0.6666666666666666
 40
0.7083333333333333
 40
0.75
 40
0.7916666666666668
 40
0.8333333333333333
 40
0.9166666666666667
 40
1.0
 40
1.0
 40
1.0
 40
1.0
 10
12.29759396049906
 20
17.99999999999978
 30
0.0
 10
12.29052373510701
 20
17.99999999999978
 30
0.0
 10
12.27655582787243
 20
17.99863891851243
 30
0.0
 10
12.25932578619088
 20
17.99348176940405
 30
0.0
 10
12.24770281276023
 20
17.98795715223155
 30
0.0
 10
12.24118861296283
 20
17.98424460939868
 30
0.0
 10
12.23643959757803
 20
17.98116006022336
 30
0.0
 10
12.23178276421765
 20
17.97778001533942
 30
0.0
 10
12.22720088162428
 20
17.97411116821911
 30
0.0
 10
12.22275706530494
 20
17.97013593200395
 30
0.0
 10
12.21852863241542
 20
17.96583378684845
 30
0.0
 10
12.21445574675196
 20
17.9612065008601
 30
0.0
 10
12.21050836021879
 20
17.95626579244377
 30
0.0
 10
12.20679161646484
 20
17.95099800516507
 30
0.0
 10
12.20227389203506
 20
17.94352358611788
 30
0.0
 10
12.19742776231127
 20
17.93334228432151
 30
0.0
 10
12.19427935168259
 20
17.9243545265067
 30
0.0
 10
12.19289776418784
 20
17.91966378303151
 30
0.0
1001
REVIT
1002
{
1070
     2
1000
-2001160
1002
}
  0
LWPOLYLINE
  5
2E6
330
2A9
100
AcDbEntity
  8
39661000
100
AcDbPolyline
 90
        2
 70
   128
 43
0.0
 10
12.19289776418784
 20
17.91966378303152
 10
12.18750000000085
 20
17.89951905283838
1001
REVIT
1002
{
1070
     2
1000
-2001160
1002
}
  0
LINE
  5
2E7
330
2A9
100
AcDbEntity
  8
39661000
100
AcDbLine
 10
8.062500000000859
 20
30.81250000000006
 30
0.0
 11
0.8750000000008526
 21
30.81250000000006
 31
0.0
  0
ARC
  5
2E8
330
2A9
100
AcDbEntity
  8
39661000
100
AcDbCircle
 10
0.8750000000008526
 20
30.75000000000006
 30
0.0
 40
0.0625
100
AcDbArc
 50
90.0
 51
180.0
  0
LINE
  5
2E9
330
2A9
100
AcDbEntity
  8
39661000
100
AcDbLine
 10
0.8750000000008526
 20
29.70311642072805
 30
0.0
 11
8.062500000000859
 21
29.70311642072805
 31
0.0
  0
ARC
  5
2EA
330
2A9
100
AcDbEntity
  8
39661000
100
AcDbCircle
 10
8.062500000000859
 20
29.76561642072805
 30
0.0
 40
0.0625
100
AcDbArc
 50
270.0
 51
0.0
  0
ENDBLK
  5
2AB
330
2A9
100
AcDbEntity
  8
0
100
AcDbBlockEnd
  0
BLOCK
  5
2ED
330
2EC
100
AcDbEntity
  8
0
100
AcDbBlockBegin
  2
GROHE_Eurocube_39661000_Front View
 70
     0
 10
0.0
 20
0.0
 30
0.0
  3
GROHE_Eurocube_39661000_Front View
  1

  0
LINE
  5
2EF
330
2EC
100
AcDbEntity
  8
39661000
100
AcDbLine
 10
-6.687499999999499
 20
17.2729591496837
 30
0.0
 11
-6.499999999999536
 21
0.0
 31
0.0
1001
REVIT
1002
{
1070
     2
1000
-2001160
1002
}
  0
LINE
  5
2F0
330
2EC
100
AcDbEntity
  8
39661000
100
AcDbLine
 10
6.499999999999534
 20
0.0
 30
0.0
 11
6.687499999999557
 21
17.2729591496837
 31
0.0
1001
REVIT
1002
{
1070
     2
1000
-2001160
1002
}
  0
LINE
  5
2F1
330
2EC
100
AcDbEntity
  8
39661000
100
AcDbLine
 10
6.564897584613106
 20
3.768038490395937
 30
0.0
 11
6.540902500308093
 21
3.768038490395937
 31
0.0
1001
REVIT
1002
{
1070
     2
1000
-2001160
1002
}
  0
LINE
  5
2F2
330
2EC
100
AcDbEntity
  8
39661000
100
AcDbLine
 10
-6.540902500308072
 20
3.768038490396065
 30
0.0
 11
-6.560403854615865
 21
3.768038490396065
 31
0.0
1001
REVIT
1002
{
1070
     2
1000
-2001160
1002
}
  0
LINE
  5
2F3
330
2EC
100
AcDbEntity
  8
39661000
100
AcDbLine
 10
-6.560403854615891
 20
1.349414751380564
 30
0.0
 11
-6.514648055592748
 21
1.34941475138055
 31
0.0
1001
REVIT
1002
{
1070
     2
1000
-2001160
1002
}
  0
LINE
  5
2F4
330
2EC
100
AcDbEntity
  8
39661000
100
AcDbLine
 10
6.514648055592759
 20
1.349414751380422
 30
0.0
 11
6.564897584613079
 21
1.349414751380422
 31
0.0
1001
REVIT
1002
{
1070
     2
1000
-2001160
1002
}
  0
LINE
  5
2F5
330
2EC
100
AcDbEntity
  8
39661000
100
AcDbLine
 10
7.468750000000492
 20
29.76561642072805
 30
0.0
 11
7.468750000000492
 21
30.75000000000006
 31
0.0
1001
REVIT
1002
{
1070
     2
1000
-2001160
1002
}
  0
ARC
  5
2F6
330
2EC
100
AcDbEntity
  8
39661000
100
AcDbCircle
 10
7.406250000000492
 20
30.75000000000006
 30
0.0
 40
0.0625
100
AcDbArc
 50
0.0
 51
90.0
1001
REVIT
1002
{
1070
     2
1000
-2001160
1002
}
  0
LINE
  5
2F7
330
2EC
100
AcDbEntity
  8
39661000
100
AcDbLine
 10
-7.468749999999497
 20
30.75000000000006
 30
0.0
 11
-7.468749999999497
 21
29.76561642072805
 31
0.0
1001
REVIT
1002
{
1070
     2
1000
-2001160
1002
}
  0
LINE
  5
2F8
330
2EC
100
AcDbEntity
  8
39661000
100
AcDbLine
 10
-7.392666078893675
 20
29.70311642072805
 30
0.0
 11
-6.749999999999506
 21
17.27295914968371
 31
0.0
1001
REVIT
1002
{
1070
     2
1000
-2001160
1002
}
  0
LINE
  5
2F9
330
2EC
100
AcDbEntity
  8
39661000
100
AcDbLine
 10
6.749999999999565
 20
17.27295914968371
 30
0.0
 11
7.392666078894649
 21
29.70311642072805
 31
0.0
1001
REVIT
1002
{
1070
     2
1000
-2001160
1002
}
  0
LINE
  5
2FA
330
2EC
100
AcDbEntity
  8
39661000
100
AcDbLine
 10
6.67910943765813
 20
17.27295914968368
 30
0.0
 11
6.749999999999559
 21
17.27295914968368
 31
0.0
1001
REVIT
1002
{
1070
     2
1000
-2001160
1002
}
  0
LINE
  5
2FB
330
2EC
100
AcDbEntity
  8
39661000
100
AcDbLine
 10
6.499999999999528
 20
0.0
 30
0.0
 11
-6.499999999999528
 21
0.0
 31
0.0
1001
REVIT
1002
{
1070
     2
1000
-2001160
1002
}
  0
LINE
  5
2FC
330
2EC
100
AcDbEntity
  8
39661000
100
AcDbLine
 10
-6.679109437658141
 20
16.49999999999981
 30
0.0
 11
6.67910943765813
 21
16.49999999999967
 31
0.0
1001
REVIT
1002
{
1070
     2
1000
-2001160
1002
}
  0
LINE
  5
2FD
330
2EC
100
AcDbEntity
  8
39661000
100
AcDbLine
 10
6.564897584613098
 20
3.768038490395923
 30
0.0
 11
6.564897584613071
 21
1.349414751380422
 31
0.0
1001
REVIT
1002
{
1070
     2
1000
-2001160
1002
}
  0
LINE
  5
2FE
330
2EC
100
AcDbEntity
  8
39661000
100
AcDbLine
 10
-6.560403854615883
 20
1.34941475138055
 30
0.0
 11
-6.560403854615858
 21
3.768038490396065
 31
0.0
1001
REVIT
1002
{
1070
     2
1000
-2001160
1002
}
  0
LINE
  5
2FF
330
2EC
100
AcDbEntity
  8
39661000
100
AcDbLine
 10
-6.679109437658138
 20
17.27295914968368
 30
0.0
 11
-6.749999999999498
 21
17.27295914968368
 31
0.0
1001
REVIT
1002
{
1070
     2
1000
-2001160
1002
}
  0
LINE
  5
300
330
2EC
100
AcDbEntity
  8
39661000
100
AcDbLine
 10
-2.088532197693623
 20
30.85895763563981
 30
0.0
 11
2.088532197693653
 21
30.85895763563981
 31
0.0
1001
REVIT
1002
{
1070
     2
1000
-2001160
1002
}
  0
LINE
  5
301
330
2EC
100
AcDbEntity
  8
39661000
100
AcDbLine
 10
-2.088532197693623
 20
30.81250000000002
 30
0.0
 11
-2.088532197693623
 21
30.85895763563981
 31
0.0
1001
REVIT
1002
{
1070
     2
1000
-2001160
1002
}
  0
LINE
  5
302
330
2EC
100
AcDbEntity
  8
39661000
100
AcDbLine
 10
2.088532197693653
 20
30.81250000000002
 30
0.0
 11
2.088532197693653
 21
30.85895763563981
 31
0.0
1001
REVIT
1002
{
1070
     2
1000
-2001160
1002
}
  0
LINE
  5
303
330
2EC
100
AcDbEntity
  8
39661000
100
AcDbLine
 10
0.0624999999995215
 20
30.89267566187911
 30
0.0
 11
1.838532197693653
 21
30.89267566187911
 31
0.0
1001
REVIT
1002
{
1070
     2
1000
-2001160
1002
}
  0
LINE
  5
304
330
2EC
100
AcDbEntity
  8
39661000
100
AcDbLine
 10
-1.838532197693624
 20
30.89267566187911
 30
0.0
 11
-0.0624999999994919
 21
30.89267566187911
 31
0.0
1001
REVIT
1002
{
1070
     2
1000
-2001160
1002
}
  0
LINE
  5
305
330
2EC
100
AcDbEntity
  8
39661000
100
AcDbLine
 10
0.0624999999995215
 20
30.85895763563981
 30
0.0
 11
0.0624999999995215
 21
30.89267566187911
 31
0.0
1001
REVIT
1002
{
1070
     2
1000
-2001160
1002
}
  0
LINE
  5
306
330
2EC
100
AcDbEntity
  8
39661000
100
AcDbLine
 10
1.838532197693653
 20
30.85895763563981
 30
0.0
 11
1.838532197693653
 21
30.89267566187911
 31
0.0
1001
REVIT
1002
{
1070
     2
1000
-2001160
1002
}
  0
LINE
  5
307
330
2EC
100
AcDbEntity
  8
39661000
100
AcDbLine
 10
-1.838532197693624
 20
30.89267566187911
 30
0.0
 11
-1.838532197693624
 21
30.85895763563981
 31
0.0
1001
REVIT
1002
{
1070
     2
1000
-2001160
1002
}
  0
LINE
  5
308
330
2EC
100
AcDbEntity
  8
39661000
100
AcDbLine
 10
-0.0624999999994919
 20
30.85895763563981
 30
0.0
 11
-0.0624999999994919
 21
30.89267566187911
 31
0.0
1001
REVIT
1002
{
1070
     2
1000
-2001160
1002
}
  0
LWPOLYLINE
  5
309
330
2EC
100
AcDbEntity
  8
39661000
100
AcDbPolyline
 90
       18
 70
   128
 43
0.0
 10
-6.658615872765949
 20
16.50031136453637
 10
-6.659575147515712
 20
16.5004859233108
 10
-6.660526674458827
 20
16.50069870321538
 10
-6.661468931355165
 20
16.50094936384765
 10
-6.662400410794697
 20
16.50123750420406
 10
-6.663319622609025
 20
16.50156266332152
 10
-6.664225096255334
 20
16.5019243210148
 10
-6.665115383168946
 20
16.50232189870873
 10
-6.665989059080718
 20
16.50275476036383
 10
-6.666844726295567
 20
16.50322221349378
 10
-6.667681015928478
 20
16.50372351027329
 10
-6.668496590094442
 20
16.50425784873445
 10
-6.669290144048769
 20
16.50482437404972
 10
-6.670060408274418
 20
16.50542217989942
 10
-6.670806150512939
 20
16.50605030992176
 10
-6.671526177735836
 20
16.50670775924266
 10
-6.672219338053151
 20
16.50739347608346
 10
-6.672884522556239
 20
16.50810636344352
1001
REVIT
1002
{
1070
     2
1000
-2001160
1002
}
  0
LWPOLYLINE
  5
30A
330
2EC
100
AcDbEntity
  8
39661000
100
AcDbPolyline
 90
        7
 70
   128
 43
0.0
 10
-6.673520667091796
 20
16.5088452808551
 10
-6.674126753964268
 20
16.509609046208
 10
-6.674701813563951
 20
16.51039643764056
 10
-6.675244925918155
 20
16.51120619549447
 10
-6.675755222162979
 20
16.5120370243299
 10
-6.676231885933281
 20
16.51288759499795
 10
-6.676674154668715
 20
16.513756546767
1001
REVIT
1002
{
1070
     2
1000
-2001160
1002
}
  0
LWPOLYLINE
  5
30B
330
2EC
100
AcDbEntity
  8
39661000
100
AcDbPolyline
 90
        4
 70
   128
 43
0.0
 10
-6.67875474114274
 20
16.52023397241774
 10
-6.678901215121396
 20
16.5211979351685
 10
-6.679009023707907
 20
16.52216698424875
 10
-6.679077994431535
 20
16.5231395693867
1001
REVIT
1002
{
1070
     2
1000
-2001160
1002
}
  0
LWPOLYLINE
  5
30C
330
2EC
100
AcDbEntity
  8
39661000
100
AcDbPolyline
 90
        3
 70
   128
 43
0.0
 10
-6.679109437658149
 20
17.86489897868551
 10
-6.679001371251104
 20
17.87030157857582
 10
-6.67867734491317
 20
17.87569553545877
1001
REVIT
1002
{
1070
     2
1000
-2001160
1002
}
  0
LWPOLYLINE
  5
30D
330
2EC
100
AcDbEntity
  8
39661000
100
AcDbPolyline
 90
        3
 70
   128
 43
0.0
 10
-6.677383830597237
 20
17.88642303111307
 10
-6.676416411966211
 20
17.89173940817976
 10
-6.675237168787721
 20
17.89701284628492
1001
REVIT
1002
{
1070
     2
1000
-2001160
1002
}
  0
LWPOLYLINE
  5
30E
330
2EC
100
AcDbEntity
  8
39661000
100
AcDbPolyline
 90
        5
 70
   128
 43
0.0
 10
6.679089938406296
 20
16.52340248240378
 10
6.679031471845264
 20
16.52242920933187
 10
6.678934131509118
 20
16.52145905281345
 10
6.678798073121628
 20
16.520493564892
 10
6.678623514347193
 20
16.51953429014224
1001
REVIT
1002
{
1070
     2
1000
-2001160
1002
}
  0
LWPOLYLINE
  5
30F
330
2EC
100
AcDbEntity
  8
39661000
100
AcDbPolyline
 90
        7
 70
   128
 43
0.0
 10
6.676787538949267
 20
16.51399405448901
 10
6.676354677294169
 20
16.51312037857724
 10
6.67588722416422
 20
16.51226471136239
 10
6.675385927384712
 20
16.51142842172947
 10
6.674851588923544
 20
16.51061284756352
 10
6.674285063608281
 20
16.50981929360918
 10
6.673687257758568
 20
16.50904902938354
1001
REVIT
1002
{
1070
     2
1000
-2001160
1002
}
  0
LWPOLYLINE
  5
310
330
2EC
100
AcDbEntity
  8
39661000
100
AcDbPolyline
 90
       17
 70
   128
 43
0.0
 10
6.673059127736242
 20
16.50830328714502
 10
6.67240167841534
 20
16.50758325992212
 10
6.671715961574532
 20
16.50689009960481
 10
6.671003074214487
 20
16.50622491510172
 10
6.670264156802896
 20
16.50558877056616
 10
6.669500391450003
 20
16.50498268369369
 10
6.668713000017436
 20
16.50440762409401
 10
6.667903242163524
 20
16.5038645117398
 10
6.66707241332809
 20
16.50335421549498
 10
6.666221842660043
 20
16.50287755172468
 10
6.665352890890999
 20
16.50243528298924
 10
6.664466948158429
 20
16.5020281168243
 10
6.663565431781705
 20
16.50165670460888
 10
6.662649783994726
 20
16.50132164052327
 10
6.661721469638618
 20
16.50102346059854
 10
6.660781973818323
 20
16.50076264185897
 10
6.65983279952674
 20
16.5005396015589
1001
REVIT
1002
{
1070
     2
1000
-2001160
1002
}
  0
LWPOLYLINE
  5
311
330
2EC
100
AcDbEntity
  8
39661000
100
AcDbPolyline
 90
        3
 70
   128
 43
0.0
 10
6.674598371646027
 20
17.89951905283842
 10
6.675878347325506
 20
17.89426915510772
 10
6.676947359246165
 20
17.88897227136003
1001
REVIT
1002
{
1070
     2
1000
-2001160
1002
}
  0
LWPOLYLINE
  5
312
330
2EC
100
AcDbEntity
  8
39661000
100
AcDbPolyline
 90
        3
 70
   128
 43
0.0
 10
6.678445991279856
 20
17.87827150296118
 10
6.67887321390133
 20
17.87288473725673
 10
6.67908468161633
 20
17.86748519604211
1001
REVIT
1002
{
1070
     2
1000
-2001160
1002
}
  0
LINE
  5
313
330
2EC
100
AcDbEntity
  8
39661000
100
AcDbLine
 10
6.679109437658136
 20
16.52437731499989
 30
0.0
 11
6.679109437658136
 21
17.86489897868551
 31
0.0
1001
REVIT
1002
{
1070
     2
1000
-2001160
1002
}
  0
LINE
  5
314
330
2EC
100
AcDbEntity
  8
39661000
100
AcDbLine
 10
-6.679109437658146
 20
17.86489897868551
 30
0.0
 11
-6.679109437658146
 21
16.52437731499989
 31
0.0
1001
REVIT
1002
{
1070
     2
1000
-2001160
1002
}
  0
SPLINE
  5
315
330
2EC
100
AcDbEntity
  8
39661000
100
AcDbSpline
210
0.0
220
0.0
230
1.0
 70
     8
 71
     3
 72
     9
 73
     5
 74
     0
 42
0.000000001
 43
0.0000000001
 40
-1.0
 40
-1.0
 40
-1.0
 40
-1.0
 40
-0.5
 40
0.0
 40
0.0
 40
0.0
 40
0.0
 10
-6.674598371645983
 20
17.89951905283838
 30
0.0
 10
-6.676099928611889
 20
17.89384015972108
 30
0.0
 10
-6.678338986681297
 20
17.88239125424494
 30
0.0
 10
-6.679049933025899
 20
17.87076011028581
 30
0.0
 10
-6.679023378266999
 20
17.8648989786855
 30
0.0
1001
REVIT
1002
{
1070
     2
1000
-2001160
1002
}
  0
SPLINE
  5
316
330
2EC
100
AcDbEntity
  8
39661000
100
AcDbSpline
210
0.0
220
0.0
230
1.0
 70
     8
 71
     3
 72
     9
 73
     5
 74
     0
 42
0.000000001
 43
0.0000000001
 40
-1.0
 40
-1.0
 40
-1.0
 40
-1.0
 40
-0.5
 40
0.0
 40
0.0
 40
0.0
 40
0.0
 10
6.679023378267042
 20
17.8648989786855
 30
0.0
 10
6.679049933025941
 20
17.87076011028581
 30
0.0
 10
6.678338986681337
 20
17.88239125424495
 30
0.0
 10
6.676099928611931
 20
17.89384015972108
 30
0.0
 10
6.674598371646024
 20
17.8995190528384
 30
0.0
1001
REVIT
1002
{
1070
     2
1000
-2001160
1002
}
  0
SPLINE
  5
317
330
2EC
100
AcDbEntity
  8
39661000
100
AcDbSpline
210
0.0
220
0.0
230
1.0
 70
     8
 71
     3
 72
    11
 73
     7
 74
     0
 42
0.000000001
 43
0.0000000001
 40
0.0
 40
0.0
 40
0.0
 40
0.0
 40
0.0833333333333333
 40
0.1666666666666666
 40
0.25
 40
0.3333333333333333
 40
0.3333333333333333
 40
0.3333333333333333
 40
0.3333333333333333
 10
6.667511866356928
 20
17.91966378303138
 30
0.0
 10
6.665431862530085
 20
17.92435452650656
 30
0.0
 10
6.660807312276799
 20
17.93334168445158
 30
0.0
 10
6.652703730915224
 20
17.94556194602144
 30
0.0
 10
6.643701174120969
 20
17.95642836554511
 30
0.0
 10
6.637211749038085
 20
17.96280430024688
 30
0.0
 10
6.633871572683134
 20
17.96577959670955
 30
0.0
1001
REVIT
1002
{
1070
     2
1000
-2001160
1002
}
  0
SPLINE
  5
318
330
2EC
100
AcDbEntity
  8
39661000
100
AcDbSpline
210
0.0
220
0.0
230
1.0
 70
     8
 71
     3
 72
     8
 73
     4
 74
     0
 42
0.000000001
 43
0.0000000001
 40
0.6666666666666666
 40
0.6666666666666666
 40
0.6666666666666666
 40
0.6666666666666666
 40
0.8333333333333333
 40
0.8333333333333333
 40
0.8333333333333333
 40
0.8333333333333333
 10
6.590575252010206
 20
17.99172096327883
 30
0.0
 10
6.582974786751818
 20
17.99451319963726
 30
0.0
 10
6.575260449230167
 20
17.99691898399456
 30
0.0
 10
6.567467060813442
 20
17.99794775906253
 30
0.0
1001
REVIT
1002
{
1070
     2
1000
-2001160
1002
}
  0
SPLINE
  5
319
330
2EC
100
AcDbEntity
  8
39661000
100
AcDbSpline
210
0.0
220
0.0
230
1.0
 70
     8
 71
     3
 72
     8
 73
     4
 74
     0
 42
0.000000001
 43
0.0000000001
 40
0.1666666666666666
 40
0.1666666666666666
 40
0.1666666666666666
 40
0.1666666666666666
 40
0.3333333333333333
 40
0.3333333333333333
 40
0.3333333333333333
 40
0.3333333333333333
 10
-6.567467060813117
 20
17.9979477590626
 30
0.0
 10
-6.575259877658469
 20
17.99657605886908
 30
0.0
 10
-6.582974787310586
 20
17.99451319949702
 30
0.0
 10
-6.590575252010046
 20
17.9917209632789
 30
0.0
1001
REVIT
1002
{
1070
     2
1000
-2001160
1002
}
  0
SPLINE
  5
31A
330
2EC
100
AcDbEntity
  8
39661000
100
AcDbSpline
210
0.0
220
0.0
230
1.0
 70
     8
 71
     3
 72
    13
 73
     9
 74
     0
 42
0.000000001
 43
0.0000000001
 40
0.6666666666666666
 40
0.6666666666666666
 40
0.6666666666666666
 40
0.6666666666666666
 40
0.7083333333333333
 40
0.75
 40
0.7916666666666668
 40
0.8333333333333333
 40
0.9166666666666667
 40
1.0
 40
1.0
 40
1.0
 40
1.0
 10
-6.633871572683052
 20
17.96577959670964
 30
0.0
 10
-6.635542259371439
 20
17.96429135818566
 30
0.0
 10
-6.638837974143878
 20
17.96120650086009
 30
0.0
 10
-6.643609454220686
 20
17.95626579244377
 30
0.0
 10
-6.648199672868687
 20
17.95099800516507
 30
0.0
 10
-6.654055937079428
 20
17.94352358611788
 30
0.0
 10
-6.660806727087421
 20
17.93334228432151
 30
0.0
 10
-6.665431862530042
 20
17.9243545265067
 30
0.0
 10
-6.667511866356886
 20
17.91966378303151
 30
0.0
1001
REVIT
1002
{
1070
     2
1000
-2001160
1002
}
  0
LINE
  5
31B
330
2EC
100
AcDbEntity
  8
39661000
100
AcDbLine
 10
6.544008416343876
 20
17.99999999999981
 30
0.0
 11
-6.544008416343943
 21
17.99999999999981
 31
0.0
  0
LINE
  5
31C
330
2EC
100
AcDbEntity
  8
39661000
100
AcDbLine
 10
7.406250000000492
 20
30.81250000000006
 30
0.0
 11
-7.406249999999498
 21
30.81250000000006
 31
0.0
  0
ARC
  5
31D
330
2EC
100
AcDbEntity
  8
39661000
100
AcDbCircle
 10
-7.406249999999496
 20
30.75000000000006
 30
0.0
 40
0.0625
100
AcDbArc
 50
90.0
 51
180.0
  0
LINE
  5
31E
330
2EC
100
AcDbEntity
  8
39661000
100
AcDbLine
 10
-7.406249999999497
 20
29.70311642072805
 30
0.0
 11
7.406250000000492
 21
29.70311642072805
 31
0.0
  0
ARC
  5
31F
330
2EC
100
AcDbEntity
  8
39661000
100
AcDbCircle
 10
7.406250000000492
 20
29.76561642072805
 30
0.0
 40
0.0625
100
AcDbArc
 50
270.0
 51
0.0
  0
ARC
  5
320
330
2EC
100
AcDbEntity
  8
39661000
100
AcDbCircle
 10
-7.406249999999497
 20
29.76561642072805
 30
0.0
 40
0.0625
100
AcDbArc
 50
180.0
 51
270.0
  0
ENDBLK
  5
2EE
330
2EC
100
AcDbEntity
  8
0
100
AcDbBlockEnd
  0
BLOCK
  5
323
330
322
100
AcDbEntity
  8
0
100
AcDbBlockBegin
  2
GROHE_Eurocube_39661000_Plan View
 70
     0
 10
0.0
 20
0.0
 30
0.0
  3
GROHE_Eurocube_39661000_Plan View
  1

  0
ARC
  5
325
330
322
100
AcDbEntity
  8
39661000
100
AcDbCircle
 10
-4.71350361395903
 20
-28.05325100253847
 30
0.0
 40
1.966437750634426
100
AcDbArc
 50
179.9999999999998
 51
269.9999999999993
1001
REVIT
1002
{
1070
     1
1000
81804
1002
}
1002
{
1070
     2
1000
-2001160
1002
}
  0
LINE
  5
326
330
322
100
AcDbEntity
  8
39661000
100
AcDbLine
 10
-4.713503613959047
 20
-30.01968875317289
 30
0.0
 11
4.711839760088385
 21
-30.0196887531729
 31
0.0
1001
REVIT
1002
{
1070
     1
1000
81804
1002
}
1002
{
1070
     2
1000
-2001160
1002
}
  0
ARC
  5
327
330
322
100
AcDbEntity
  8
39661000
100
AcDbCircle
 10
4.711839760088387
 20
-28.05325100253848
 30
0.0
 40
1.966437750634426
100
AcDbArc
 50
269.9999999999995
 51
359.9999999999996
1001
REVIT
1002
{
1070
     1
1000
81804
1002
}
1002
{
1070
     2
1000
-2001160
1002
}
  0
LINE
  5
328
330
322
100
AcDbEntity
  8
39661000
100
AcDbLine
 10
6.678277510722819
 20
-28.05325100253848
 30
0.0
 11
6.678277510722851
 21
-8.114373069661052
 31
0.0
1001
REVIT
1002
{
1070
     1
1000
81804
1002
}
1002
{
1070
     2
1000
-2001160
1002
}
  0
ARC
  5
329
330
322
100
AcDbEntity
  8
39661000
100
AcDbCircle
 10
6.569207405740256
 20
-7.235992133465687
 30
0.0
 40
0.8851267462190717
100
AcDbArc
 50
277.0782868944079
 51
0.0
1001
REVIT
1002
{
1070
     1
1000
81804
1002
}
1002
{
1070
     2
1000
-2001160
1002
}
  0
LINE
  5
32A
330
322
100
AcDbEntity
  8
39661000
100
AcDbLine
 10
7.454334151959327
 20
-7.235992133465687
 30
0.0
 11
7.454334151959328
 21
-1.711276330179538
 31
0.0
1001
REVIT
1002
{
1070
     1
1000
81804
1002
}
1002
{
1070
     2
1000
-2001160
1002
}
  0
ARC
  5
32B
330
322
100
AcDbEntity
  8
39661000
100
AcDbCircle
 10
6.569207405740261
 20
-1.711276330179538
 30
0.0
 40
0.8851267462190655
100
AcDbArc
 50
359.9999999999996
 51
90.00000000000021
1001
REVIT
1002
{
1070
     1
1000
81804
1002
}
1002
{
1070
     2
1000
-2001160
1002
}
  0
LINE
  5
32C
330
322
100
AcDbEntity
  8
39661000
100
AcDbLine
 10
6.569207405740258
 20
-0.8261495839604723
 30
0.0
 11
-6.569207405740258
 21
-0.8261495839604723
 31
0.0
1001
REVIT
1002
{
1070
     1
1000
81804
1002
}
1002
{
1070
     2
1000
-2001160
1002
}
  0
ARC
  5
32D
330
322
100
AcDbEntity
  8
39661000
100
AcDbCircle
 10
-6.569207405740262
 20
-1.712940184049191
 30
0.0
 40
0.8867906000887172
100
AcDbArc
 50
89.99999999999971
 51
180.0
1001
REVIT
1002
{
1070
     1
1000
81804
1002
}
1002
{
1070
     2
1000
-2001160
1002
}
  0
LINE
  5
32E
330
322
100
AcDbEntity
  8
39661000
100
AcDbLine
 10
-7.455998005828984
 20
-1.712940184049191
 30
0.0
 11
-7.455998005828985
 21
-7.235992133465691
 31
0.0
1001
REVIT
1002
{
1070
     1
1000
81804
1002
}
1002
{
1070
     2
1000
-2001160
1002
}
  0
ARC
  5
32F
330
322
100
AcDbEntity
  8
39661000
100
AcDbCircle
 10
-6.570871259609909
 20
-7.235992133465691
 30
0.0
 40
0.8851267462190721
100
AcDbArc
 50
180.0000000000004
 51
262.9217131055312
1001
REVIT
1002
{
1070
     1
1000
81804
1002
}
1002
{
1070
     2
1000
-2001160
1002
}
  0
LINE
  5
330
330
322
100
AcDbEntity
  8
39661000
100
AcDbLine
 10
-6.679941364593426
 20
-8.11437306966094
 30
0.0
 11
-6.679941364593456
 21
-28.05325100253846
 31
0.0
1001
REVIT
1002
{
1070
     1
1000
81804
1002
}
1002
{
1070
     2
1000
-2001160
1002
}
  0
LINE
  5
331
330
322
100
AcDbEntity
  8
39661000
100
AcDbLine
 10
-6.679941364593426
 20
-8.11437306966094
 30
0.0
 11
6.678277510722851
 21
-8.114373069660983
 31
0.0
1001
REVIT
1002
{
1070
     1
1000
82009
1002
}
1002
{
1070
     2
1000
-2001160
1002
}
  0
LINE
  5
332
330
322
100
AcDbEntity
  8
39661000
100
AcDbLine
 10
-2.089364124628938
 20
-3.788033082892912
 30
0.0
 11
2.087700270758339
 21
-3.788033082892912
 31
0.0
1001
REVIT
1002
{
1070
     1
1000
82043
1002
}
1002
{
1070
     2
1000
-2001160
1002
}
  0
LINE
  5
333
330
322
100
AcDbEntity
  8
39661000
100
AcDbLine
 10
-2.089364124628938
 20
-5.288033082892912
 30
0.0
 11
-2.089364124628938
 21
-3.788033082892912
 31
0.0
1001
REVIT
1002
{
1070
     1
1000
82044
1002
}
1002
{
1070
     2
1000
-2001160
1002
}
  0
LINE
  5
334
330
322
100
AcDbEntity
  8
39661000
100
AcDbLine
 10
2.087700270758339
 20
-5.288033082892912
 30
0.0
 11
-2.089364124628938
 21
-5.288033082892912
 31
0.0
1001
REVIT
1002
{
1070
     1
1000
82045
1002
}
1002
{
1070
     2
1000
-2001160
1002
}
  0
LINE
  5
335
330
322
100
AcDbEntity
  8
39661000
100
AcDbLine
 10
2.087700270758339
 20
-3.788033082892912
 30
0.0
 11
2.087700270758339
 21
-5.288033082892912
 31
0.0
1001
REVIT
1002
{
1070
     1
1000
82046
1002
}
1002
{
1070
     2
1000
-2001160
1002
}
  0
ARC
  5
336
330
322
100
AcDbEntity
  8
39661000
100
AcDbCircle
 10
-6.179941364593305
 20
-12.18750000000081
 30
0.0
 40
0.5000000000001505
100
AcDbArc
 50
132.6075690083156
 51
178.9369394740013
1001
REVIT
1002
{
1070
     1
1000
82136
1002
}
1002
{
1070
     2
1000
-2001160
1002
}
  0
LINE
  5
337
330
322
100
AcDbEntity
  8
39661000
100
AcDbLine
 10
-6.518427967209043
 20
-11.81949616870308
 30
0.0
 11
6.516887683742534
 21
-11.81949616870312
 31
0.0
1001
REVIT
1002
{
1070
     1
1000
82205
1002
}
1002
{
1070
     2
1000
-2001160
1002
}
  0
ARC
  5
338
330
322
100
AcDbEntity
  8
39661000
100
AcDbCircle
 10
6.17769356949625
 20
-12.18764595304844
 30
0.0
 40
0.5005865667922191
100
AcDbArc
 50
1.078523036676768
 51
47.34413828921598
1001
REVIT
1002
{
1070
     1
1000
82249
1002
}
1002
{
1070
     2
1000
-2001160
1002
}
  0
LINE
  5
339
330
322
100
AcDbEntity
  8
39661000
100
AcDbLine
 10
-1.839364124628937
 20
-4.038033082892912
 30
0.0
 11
1.837700270758339
 21
-4.038033082892912
 31
0.0
1001
REVIT
1002
{
1070
     1
1000
82290
1002
}
1002
{
1070
     2
1000
-2001160
1002
}
  0
LINE
  5
33A
330
322
100
AcDbEntity
  8
39661000
100
AcDbLine
 10
-1.839364124628937
 20
-5.038033082892912
 30
0.0
 11
-1.839364124628937
 21
-4.038033082892912
 31
0.0
1001
REVIT
1002
{
1070
     1
1000
82291
1002
}
1002
{
1070
     2
1000
-2001160
1002
}
  0
LINE
  5
33B
330
322
100
AcDbEntity
  8
39661000
100
AcDbLine
 10
1.837700270758339
 20
-5.038033082892912
 30
0.0
 11
-1.839364124628937
 21
-5.038033082892912
 31
0.0
1001
REVIT
1002
{
1070
     1
1000
82292
1002
}
1002
{
1070
     2
1000
-2001160
1002
}
  0
LINE
  5
33C
330
322
100
AcDbEntity
  8
39661000
100
AcDbLine
 10
1.837700270758339
 20
-4.038033082892912
 30
0.0
 11
1.837700270758339
 21
-5.038033082892912
 31
0.0
1001
REVIT
1002
{
1070
     1
1000
82293
1002
}
1002
{
1070
     2
1000
-2001160
1002
}
  0
LINE
  5
33D
330
322
100
AcDbEntity
  8
39661000
100
AcDbLine
 10
-0.0008319269352995
 20
-4.038033082892912
 30
0.0
 11
-0.0008319269353011
 21
-5.038033082892912
 31
0.0
1001
REVIT
1002
{
1070
     1
1000
82434
1002
}
1002
{
1070
     2
1000
-2001160
1002
}
  0
ENDBLK
  5
324
330
322
100
AcDbEntity
  8
0
100
AcDbBlockEnd
  0
ENDSEC
  0
SECTION
  2
ENTITIES
  0
INSERT
  5
2EB
330
70
100
AcDbEntity
  8
39661000
100
AcDbBlockReference
  2
GROHE_Eurocube_39661000_Side View
 10
-46.95519221130158
 20
-75.27929701037108
 30
0.0
  0
INSERT
  5
321
330
70
100
AcDbEntity
  8
39661000
100
AcDbBlockReference
  2
GROHE_Eurocube_39661000_Front View
 10
-0.0000000461467158
 20
-75.27929697777596
 30
0.0
  0
INSERT
  5
33E
330
70
100
AcDbEntity
  8
39661000
100
AcDbBlockReference
  2
GROHE_Eurocube_39661000_Plan View
 10
0.000831926935546
 20
-0.0000000000004436
 30
0.0
  0
ENDSEC
  0
SECTION
  2
OBJECTS
  0
DICTIONARY
  5
C
330
0
100
AcDbDictionary
281
     1
  3
ACAD_CIP_PREVIOUS_PRODUCT_INFO
350
79
  3
ACAD_COLOR
350
63
  3
ACAD_DETAILVIEWSTYLE
350
6A
  3
ACAD_GROUP
350
D
  3
ACAD_IMAGE_VARS
350
7A
  3
ACAD_LAYOUT
350
62
  3
ACAD_MATERIAL
350
10
  3
ACAD_MLEADERSTYLE
350
66
  3
ACAD_MLINESTYLE
350
5F
  3
ACAD_PLOTSETTINGS
350
61
  3
ACAD_PLOTSTYLENAME
350
E
  3
ACAD_SCALELIST
350
42
  3
ACAD_SECTIONVIEWSTYLE
350
68
  3
ACAD_TABLESTYLE
350
64
  3
ACAD_VISUALSTYLE
350
29
  3
ACDB_RECOMPOSE_DATA
350
345
  3
AcDbVariableDictionary
350
10E
  3
REVIT_DICTIONARY
350
103
  0
DICTIONARY
  5
106
330
70
100
AcDbDictionary
280
     1
281
     1
  3
ACAD_SORTENTS
360
107
  0
XRECORD
  5
79
102
{ACAD_REACTORS
330
C
102
}
330
C
100
AcDbXrecord
280
     1
300
ACD
300
2019
300
87084ACD_2019_0F
  0
DICTIONARY
  5
63
102
{ACAD_REACTORS
330
C
102
}
330
C
100
AcDbDictionary
281
     1
  0
DICTIONARY
  5
6A
102
{ACAD_REACTORS
330
C
102
}
330
C
100
AcDbDictionary
281
     1
  3
Imperial24
350
6B
  0
DICTIONARY
  5
D
102
{ACAD_REACTORS
330
C
102
}
330
C
100
AcDbDictionary
281
     1
  0
RASTERVARIABLES
  5
7A
102
{ACAD_REACTORS
330
C
102
}
330
C
100
AcDbRasterVariables
 90
        0
 70
     0
 71
     1
 72
     5
  0
DICTIONARY
  5
62
102
{ACAD_REACTORS
330
C
102
}
330
C
100
AcDbDictionary
281
     1
  3
Layout1
350
6F
  3
Layout2
350
77
  3
Model
350
73
  0
DICTIONARY
  5
10
102
{ACAD_REACTORS
330
C
102
}
330
C
100
AcDbDictionary
281
     1
  3
ByBlock
350
19
  3
ByLayer
350
11
  3
Global
350
21
  0
DICTIONARY
  5
66
102
{ACAD_REACTORS
330
C
102
}
330
C
100
AcDbDictionary
281
     1
  3
Standard
350
67
  0
DICTIONARY
  5
5F
102
{ACAD_REACTORS
330
C
102
}
330
C
100
AcDbDictionary
281
     1
  3
Standard
350
60
  0
DICTIONARY
  5
61
102
{ACAD_REACTORS
330
C
102
}
330
C
100
AcDbDictionary
281
     1
  0
ACDBDICTIONARYWDFLT
  5
E
102
{ACAD_REACTORS
330
C
102
}
330
C
100
AcDbDictionary
281
     1
  3
Normal
350
F
100
AcDbDictionaryWithDefault
340
F
  0
DICTIONARY
  5
42
102
{ACAD_REACTORS
330
C
102
}
330
C
100
AcDbDictionary
281
     1
  3
A0
350
43
  3
A1
350
44
  3
A2
350
45
  3
A3
350
46
  3
A4
350
47
  3
A5
350
48
  3
A6
350
49
  3
A7
350
4A
  3
A8
350
4B
  3
A9
350
4C
  3
B0
350
4D
  3
B1
350
4E
  3
B2
350
4F
  3
B3
350
50
  3
B4
350
51
  3
B5
350
52
  3
B6
350
53
  0
DICTIONARY
  5
68
102
{ACAD_REACTORS
330
C
102
}
330
C
100
AcDbDictionary
281
     1
  3
Imperial24
350
69
  0
DICTIONARY
  5
64
102
{ACAD_REACTORS
330
C
102
}
330
C
100
AcDbDictionary
281
     1
  3
Standard
350
65
  0
DICTIONARY
  5
29
102
{ACAD_REACTORS
330
C
102
}
330
C
100
AcDbDictionary
281
     1
  3
2dWireframe
350
2F
  3
Basic
350
2E
  3
Brighten
350
35
  3
ColorChange
350
39
  3
Conceptual
350
32
  3
Dim
350
34
  3
EdgeColorOff
350
41
  3
Facepattern
350
38
  3
Flat
350
2A
  3
FlatWithEdges
350
2B
  3
Gouraud
350
2C
  3
GouraudWithEdges
350
2D
  3
Hidden
350
31
  3
JitterOff
350
3F
  3
Linepattern
350
37
  3
OverhangOff
350
40
  3
Realistic
350
33
  3
Shaded
350
3E
  3
Shaded with edges
350
3D
  3
Shades of Gray
350
3A
  3
Sketchy
350
3B
  3
Thicken
350
36
  3
Wireframe
350
30
  3
X-Ray
350
3C
  0
XRECORD
  5
345
102
{ACAD_REACTORS
330
C
102
}
330
C
100
AcDbXrecord
280
     1
 90
        1
330
65
  0
DICTIONARY
  5
10E
102
{ACAD_REACTORS
330
C
102
}
330
C
100
AcDbDictionary
281
     1
  3
CANNOSCALE
350
113
  3
CMLEADERSTYLE
350
110
  3
CTABLESTYLE
350
10F
  3
CVIEWDETAILSTYLE
350
111
  3
CVIEWSECTIONSTYLE
350
112
  0
DICTIONARY
  5
103
102
{ACAD_REACTORS
330
C
102
}
330
C
100
AcDbDictionary
281
     1
  3
DRAWING_TOOL
350
105
  3
REVIT_CATEGORY_MAPPING
350
104
  0
SORTENTSTABLE
  5
107
102
{ACAD_REACTORS
330
106
102
}
330
106
100
AcDbSortentsTable
330
70
  0
ACDBDETAILVIEWSTYLE
  5
6B
102
{ACAD_XDICTIONARY
360
348
102
}
102
{ACAD_REACTORS
330
6A
102
}
330
6A
100
AcDbModelDocViewStyle
 70
     0
  3
Imperial24
290
     0
100
AcDbDetailViewStyle
 70
     0
 71
     0
 90
        3
 71
     1
340
55
 62
   256
 40
0.24
340
0
 62
   256
 40
0.24
300

 40
0.36
280
     3
 71
     2
340
5D
 90
       25
 62
   256
 71
     3
340
55
 62
   256
 40
0.24
 90
        1
 40
0.75
 90
        1
300
%<\AcVar ViewType \f "%tc1">% %<\AcVar ViewDetailId>%\PSCALE %<\AcVar ViewScale \f "%sn">%
 71
     4
340
5D
 90
       25
 62
   256
340
5D
 90
       25
 62
   256
280
     0
  0
LAYOUT
  5
6F
102
{ACAD_REACTORS
330
62
102
}
330
62
100
AcDbPlotSettings
  1

  2

  4

  6

 40
0.0
 41
0.0
 42
0.0
 43
0.0
 44
0.0
 45
0.0
 46
0.0
 47
0.0
 48
0.0
 49
0.0
140
0.0
141
0.0
142
1.0
143
1.0
 70
   688
 72
     0
 73
     0
 74
     5
  7

 75
    16
147
1.0
 76
     0
 77
     2
 78
   300
148
0.0
149
0.0
100
AcDbLayout
  1
Layout1
 70
     1
 71
     1
 10
0.0
 20
0.0
 11
12.0
 21
9.0
 12
0.0
 22
0.0
 32
0.0
 14
1.000000000000000E+20
 24
1.000000000000000E+20
 34
1.000000000000000E+20
 15
-1.000000000000000E+20
 25
-1.000000000000000E+20
 35
-1.000000000000000E+20
146
0.0
 13
0.0
 23
0.0
 33
0.0
 16
1.0
 26
0.0
 36
0.0
 17
0.0
 27
1.0
 37
0.0
 76
     0
330
6C
  0
LAYOUT
  5
77
102
{ACAD_REACTORS
330
62
102
}
330
62
100
AcDbPlotSettings
  1

  2

  4

  6

 40
0.0
 41
0.0
 42
0.0
 43
0.0
 44
0.0
 45
0.0
 46
0.0
 47
0.0
 48
0.0
 49
0.0
140
0.0
141
0.0
142
1.0
143
1.0
 70
   688
 72
     0
 73
     0
 74
     5
  7

 75
    16
147
1.0
 76
     0
 77
     2
 78
   300
148
0.0
149
0.0
100
AcDbLayout
  1
Layout2
 70
     1
 71
     2
 10
0.0
 20
0.0
 11
12.0
 21
9.0
 12
0.0
 22
0.0
 32
0.0
 14
0.0
 24
0.0
 34
0.0
 15
0.0
 25
0.0
 35
0.0
146
0.0
 13
0.0
 23
0.0
 33
0.0
 16
1.0
 26
0.0
 36
0.0
 17
0.0
 27
1.0
 37
0.0
 76
     0
330
74
  0
LAYOUT
  5
73
102
{ACAD_REACTORS
330
62
102
}
330
62
100
AcDbPlotSettings
  1

  2

  4

  6

 40
0.0
 41
0.0
 42
0.0
 43
0.0
 44
0.0
 45
0.0
 46
0.0
 47
0.0
 48
0.0
 49
0.0
140
0.0
141
0.0
142
1.0
143
1.0
 70
  1712
 72
     0
 73
     0
 74
     0
  7

 75
     0
147
1.0
 76
     0
 77
     2
 78
   300
148
0.0
149
0.0
100
AcDbLayout
  1
Model
 70
     1
 71
     0
 10
0.0
 20
0.0
 11
12.0
 21
9.0
 12
0.0
 22
0.0
 32
0.0
 14
0.0
 24
0.0
 34
0.0
 15
0.0
 25
0.0
 35
0.0
146
0.0
 13
0.0
 23
0.0
 33
0.0
 16
1.0
 26
0.0
 36
0.0
 17
0.0
 27
1.0
 37
0.0
 76
     0
330
70
331
57
  0
MATERIAL
  5
19
102
{ACAD_XDICTIONARY
360
1A
102
}
102
{ACAD_REACTORS
330
10
102
}
330
10
100
AcDbMaterial
  1
ByBlock
 72
     0
 43
0.0208333333333333
 43
0.0
 43
0.0
 43
0.0
 43
0.0
 43
0.0208333333333333
 43
0.0
 43
0.0
 43
0.0
 43
0.0
 43
1.0
 43
0.0
 43
0.0
 43
0.0
 43
0.0
 43
1.0
 77
     0
 47
0.0208333333333333
 47
0.0
 47
0.0
 47
0.0
 47
0.0
 47
0.0208333333333333
 47
0.0
 47
0.0
 47
0.0
 47
0.0
 47
1.0
 47
0.0
 47
0.0
 47
0.0
 47
0.0
 47
1.0
171
     0
 49
0.0208333333333333
 49
0.0
 49
0.0
 49
0.0
 49
0.0
 49
0.0208333333333333
 49
0.0
 49
0.0
 49
0.0
 49
0.0
 49
1.0
 49
0.0
 49
0.0
 49
0.0
 49
0.0
 49
1.0
175
     0
142
0.0208333333333333
142
0.0
142
0.0
142
0.0
142
0.0
142
0.0208333333333333
142
0.0
142
0.0
142
0.0
142
0.0
142
1.0
142
0.0
142
0.0
142
0.0
142
0.0
142
1.0
179
     0
144
0.0208333333333333
144
0.0
144
0.0
144
0.0
144
0.0
144
0.0208333333333333
144
0.0
144
0.0
144
0.0
144
0.0
144
1.0
144
0.0
144
0.0
144
0.0
144
0.0
144
1.0
147
0.0208333333333333
147
0.0
147
0.0
147
0.0
147
0.0
147
0.0208333333333333
147
0.0
147
0.0
147
0.0
147
0.0
147
1.0
147
0.0
147
0.0
147
0.0
147
0.0
147
1.0
  0
MATERIAL
  5
11
102
{ACAD_XDICTIONARY
360
12
102
}
102
{ACAD_REACTORS
330
10
102
}
330
10
100
AcDbMaterial
  1
ByLayer
 72
     0
 43
0.0208333333333333
 43
0.0
 43
0.0
 43
0.0
 43
0.0
 43
0.0208333333333333
 43
0.0
 43
0.0
 43
0.0
 43
0.0
 43
1.0
 43
0.0
 43
0.0
 43
0.0
 43
0.0
 43
1.0
 77
     0
 47
0.0208333333333333
 47
0.0
 47
0.0
 47
0.0
 47
0.0
 47
0.0208333333333333
 47
0.0
 47
0.0
 47
0.0
 47
0.0
 47
1.0
 47
0.0
 47
0.0
 47
0.0
 47
0.0
 47
1.0
171
     0
 49
0.0208333333333333
 49
0.0
 49
0.0
 49
0.0
 49
0.0
 49
0.0208333333333333
 49
0.0
 49
0.0
 49
0.0
 49
0.0
 49
1.0
 49
0.0
 49
0.0
 49
0.0
 49
0.0
 49
1.0
175
     0
142
0.0208333333333333
142
0.0
142
0.0
142
0.0
142
0.0
142
0.0208333333333333
142
0.0
142
0.0
142
0.0
142
0.0
142
1.0
142
0.0
142
0.0
142
0.0
142
0.0
142
1.0
179
     0
144
0.0208333333333333
144
0.0
144
0.0
144
0.0
144
0.0
144
0.0208333333333333
144
0.0
144
0.0
144
0.0
144
0.0
144
1.0
144
0.0
144
0.0
144
0.0
144
0.0
144
1.0
147
0.0208333333333333
147
0.0
147
0.0
147
0.0
147
0.0
147
0.0208333333333333
147
0.0
147
0.0
147
0.0
147
0.0
147
1.0
147
0.0
147
0.0
147
0.0
147
0.0
147
1.0
  0
MATERIAL
  5
21
102
{ACAD_XDICTIONARY
360
22
102
}
102
{ACAD_REACTORS
330
10
102
}
330
10
100
AcDbMaterial
  1
Global
 72
     0
 43
0.0208333333333333
 43
0.0
 43
0.0
 43
0.0
 43
0.0
 43
0.0208333333333333
 43
0.0
 43
0.0
 43
0.0
 43
0.0
 43
1.0
 43
0.0
 43
0.0
 43
0.0
 43
0.0
 43
1.0
 77
     0
 47
0.0208333333333333
 47
0.0
 47
0.0
 47
0.0
 47
0.0
 47
0.0208333333333333
 47
0.0
 47
0.0
 47
0.0
 47
0.0
 47
1.0
 47
0.0
 47
0.0
 47
0.0
 47
0.0
 47
1.0
171
     0
 49
0.0208333333333333
 49
0.0
 49
0.0
 49
0.0
 49
0.0
 49
0.0208333333333333
 49
0.0
 49
0.0
 49
0.0
 49
0.0
 49
1.0
 49
0.0
 49
0.0
 49
0.0
 49
0.0
 49
1.0
175
     0
142
0.0208333333333333
142
0.0
142
0.0
142
0.0
142
0.0
142
0.0208333333333333
142
0.0
142
0.0
142
0.0
142
0.0
142
1.0
142
0.0
142
0.0
142
0.0
142
0.0
142
1.0
179
     0
144
0.0208333333333333
144
0.0
144
0.0
144
0.0
144
0.0
144
0.0208333333333333
144
0.0
144
0.0
144
0.0
144
0.0
144
1.0
144
0.0
144
0.0
144
0.0
144
0.0
144
1.0
147
0.0208333333333333
147
0.0
147
0.0
147
0.0
147
0.0
147
0.0208333333333333
147
0.0
147
0.0
147
0.0
147
0.0
147
1.0
147
0.0
147
0.0
147
0.0
147
0.0
147
1.0
  0
MLEADERSTYLE
  5
67
102
{ACAD_REACTORS
330
66
102
}
330
66
100
AcDbMLeaderStyle
179
     2
170
     2
171
     1
172
     0
 90
        2
 40
0.0
 41
0.0
173
     1
 91
-1056964608
340
5B
 92
       -2
290
     1
 42
0.09
291
     1
 43
0.36
  3
Standard
 44
0.18
300

342
55
174
     1
178
     6
175
     1
176
     0
 93
-1056964608
 45
0.18
292
     0
297
     0
 46
0.18
 94
-1056964608
 47
1.0
 49
1.0
140
1.0
293
     1
141
0.0
294
     1
177
     0
142
1.0
295
     0
296
     0
143
0.125
271
     0
272
     9
273
     9
298
     1
  0
MLINESTYLE
  5
60
102
{ACAD_REACTORS
330
5F
102
}
330
5F
100
AcDbMlineStyle
  2
STANDARD
 70
     0
  3

 62
   256
 51
90.0
 52
90.0
 71
     2
 49
0.5
 62
   256
  6
BYLAYER
 49
-0.5
 62
   256
  6
BYLAYER
  0
ACDBPLACEHOLDER
  5
F
102
{ACAD_REACTORS
330
E
102
}
330
E
  0
SCALE
  5
43
102
{ACAD_REACTORS
330
42
102
}
330
42
100
AcDbScale
 70
     0
300
1:1
140
1.0
141
1.0
290
     1
  0
SCALE
  5
44
102
{ACAD_REACTORS
330
42
102
}
330
42
100
AcDbScale
 70
     0
300
1/128" = 1'-0"
140
0.0078125
141
12.0
290
     0
  0
SCALE
  5
45
102
{ACAD_REACTORS
330
42
102
}
330
42
100
AcDbScale
 70
     0
300
1/64" = 1'-0"
140
0.015625
141
12.0
290
     0
  0
SCALE
  5
46
102
{ACAD_REACTORS
330
42
102
}
330
42
100
AcDbScale
 70
     0
300
1/32" = 1'-0"
140
0.03125
141
12.0
290
     0
  0
SCALE
  5
47
102
{ACAD_REACTORS
330
42
102
}
330
42
100
AcDbScale
 70
     0
300
1/16" = 1'-0"
140
0.0625
141
12.0
290
     0
  0
SCALE
  5
48
102
{ACAD_REACTORS
330
42
102
}
330
42
100
AcDbScale
 70
     0
300
3/32" = 1'-0"
140
0.09375
141
12.0
290
     0
  0
SCALE
  5
49
102
{ACAD_REACTORS
330
42
102
}
330
42
100
AcDbScale
 70
     0
300
1/8" = 1'-0"
140
0.125
141
12.0
290
     0
  0
SCALE
  5
4A
102
{ACAD_REACTORS
330
42
102
}
330
42
100
AcDbScale
 70
     0
300
3/16" = 1'-0"
140
0.1875
141
12.0
290
     0
  0
SCALE
  5
4B
102
{ACAD_REACTORS
330
42
102
}
330
42
100
AcDbScale
 70
     0
300
1/4" = 1'-0"
140
0.25
141
12.0
290
     0
  0
SCALE
  5
4C
102
{ACAD_REACTORS
330
42
102
}
330
42
100
AcDbScale
 70
     0
300
3/8" = 1'-0"
140
0.375
141
12.0
290
     0
  0
SCALE
  5
4D
102
{ACAD_REACTORS
330
42
102
}
330
42
100
AcDbScale
 70
     0
300
1/2" = 1'-0"
140
0.5
141
12.0
290
     0
  0
SCALE
  5
4E
102
{ACAD_REACTORS
330
42
102
}
330
42
100
AcDbScale
 70
     0
300
3/4" = 1'-0"
140
0.75
141
12.0
290
     0
  0
SCALE
  5
4F
102
{ACAD_REACTORS
330
42
102
}
330
42
100
AcDbScale
 70
     0
300
1" = 1'-0"
140
1.0
141
12.0
290
     0
  0
SCALE
  5
50
102
{ACAD_REACTORS
330
42
102
}
330
42
100
AcDbScale
 70
     0
300
1-1/2" = 1'-0"
140
1.5
141
12.0
290
     0
  0
SCALE
  5
51
102
{ACAD_REACTORS
330
42
102
}
330
42
100
AcDbScale
 70
     0
300
3" = 1'-0"
140
3.0
141
12.0
290
     0
  0
SCALE
  5
52
102
{ACAD_REACTORS
330
42
102
}
330
42
100
AcDbScale
 70
     0
300
6" = 1'-0"
140
6.0
141
12.0
290
     0
  0
SCALE
  5
53
102
{ACAD_REACTORS
330
42
102
}
330
42
100
AcDbScale
 70
     0
300
1'-0" = 1'-0"
140
12.0
141
12.0
290
     0
  0
ACDBSECTIONVIEWSTYLE
  5
69
102
{ACAD_XDICTIONARY
360
346
102
}
102
{ACAD_REACTORS
330
68
102
}
330
68
100
AcDbModelDocViewStyle
 70
     0
  3
Imperial24
290
     0
100
AcDbSectionViewStyle
 70
     0
 71
     0
 90
       78
 71
     1
340
55
 62
   256
 40
0.24
340
0
340
0
 62
   256
 40
0.24
300
I, O, Q, S, X, Z
 40
0.48
 90
        3
 40
0.18
 90
        1
 71
     2
340
5D
 90
       25
 62
   256
340
5D
 90
       50
 62
   256
 40
0.24
 40
0.0
 40
0.24
 71
     3
340
55
 62
   256
 40
0.24
 90
        1
 40
0.75
 90
        1
300
%<\AcVar ViewType \f "%tc1">% %<\AcVar ViewSectionStartId>%-%<\AcVar ViewSectionEndId>%\PSCALE %<\AcVar ViewScale \f "%sn">%
 71
     4
 62
   256
 62
   257
300
ANSI31
 40
1.0
 90
        0
290
     0
290
     0
 90
        6
 40
0.0
 40
1.570796326794896
 40
0.2617993877991494
 40
1.308996938995747
 40
-0.2617993877991494
 40
1.832595714594046
  0
TABLESTYLE
  5
65
102
{ACAD_XDICTIONARY
360
343
102
}
102
{ACAD_REACTORS
330
64
102
}
330
64
100
AcDbTableStyle
280
     0
  3
Standard
 70
     0
 71
     0
 40
0.06
 41
0.06
280
     0
281
     0
  7
Standard
140
0.18
170
     2
 62
     0
 63
     7
283
     0
 90
      512
 91
        0
  1

274
    -2
284
     1
 64
     0
275
    -2
285
     1
 65
     0
276
    -2
286
     1
 66
     0
277
    -2
287
     1
 67
     0
278
    -2
288
     1
 68
     0
279
    -2
289
     1
 69
     0
  7
Standard
140
0.25
170
     5
 62
     0
 63
     7
283
     0
 90
      512
 91
        0
  1

274
    -2
284
     1
 64
     0
275
    -2
285
     1
 65
     0
276
    -2
286
     1
 66
     0
277
    -2
287
     1
 67
     0
278
    -2
288
     1
 68
     0
279
    -2
289
     1
 69
     0
  7
Standard
140
0.18
170
     5
 62
     0
 63
     7
283
     0
 90
      512
 91
        0
  1

274
    -2
284
     1
 64
     0
275
    -2
285
     1
 65
     0
276
    -2
286
     1
 66
     0
277
    -2
287
     1
 67
     0
278
    -2
288
     1
 68
     0
279
    -2
289
     1
 69
     0
  0
VISUALSTYLE
  5
2F
102
{ACAD_REACTORS
330
29
102
}
330
29
100
AcDbVisualStyle
  2
2dWireframe
 70
     4
177
     3
291
     0
 70
    58
 90
        0
176
     1
 90
        2
176
     1
 90
        0
176
     1
 90
        0
176
     1
 40
0.6
176
     1
 40
30.0
176
     1
 62
     7
420
 16777215
176
     1
 90
        1
176
     1
 90
        4
176
     1
 62
     7
176
     1
 62
   257
176
     1
 90
        1
176
     1
 90
        1
176
     1
 40
1.0
176
     1
 90
        0
176
     1
 62
   257
176
     1
 40
1.0
176
     1
 90
        1
176
     1
 90
        6
176
     1
 90
        2
176
     1
 62
     7
176
     1
 90
        5
176
     1
 90
        0
176
     1
 90
        0
176
     1
290
     0
176
     1
 90
        1
176
     1
 40
0.0
176
     1
 90
        0
176
     1
290
     1
176
     1
290
     1
176
     1
290
     0
176
     1
290
     0
176
     1
290
     0
176
     1
290
     0
176
     1
290
     0
176
     1
290
     0
176
     1
290
     0
176
     1
 90
       50
176
     1
 40
0.0
176
     1
 40
1.0
176
     1
 90
        0
176
     1
 62
    18
420
        0
176
     1
 90
       50
176
     1
 90
        3
176
     1
 62
     5
420
      255
176
     1
290
     0
176
     1
 90
       50
176
     1
 90
       50
176
     1
 90
       50
176
     1
290
     0
176
     1
 90
       50
176
     1
 62
   256
176
     0
 40
1.0
176
     0
 90
        2
176
     1
  1
strokes_ogs.tif
176
     1
290
     0
176
     1
 40
1.0
176
     1
 40
1.0
176
     1
1001
ACAD
1000
AcDbSavedByObjectVersion
1070
     0
  0
VISUALSTYLE
  5
2E
102
{ACAD_REACTORS
330
29
102
}
330
29
100
AcDbVisualStyle
  2
Basic
 70
     7
177
     3
291
     1
 70
    58
 90
        1
176
     1
 90
        0
176
     1
 90
        1
176
     1
 90
        0
176
     1
 40
0.6
176
     1
 40
30.0
176
     1
 62
     7
420
 16777215
176
     1
 90
        0
176
     1
 90
        4
176
     1
 62
     7
176
     1
 62
   257
176
     1
 90
        1
176
     1
 90
        1
176
     1
 40
1.0
176
     1
 90
        8
176
     1
 62
     7
176
     1
 40
1.0
176
     1
 90
        1
176
     1
 90
        6
176
     1
 90
        2
176
     1
 62
     7
176
     1
 90
        5
176
     1
 90
        0
176
     1
 90
        0
176
     1
290
     0
176
     1
 90
        1
176
     1
 40
0.0
176
     1
 90
        0
176
     1
290
     0
176
     1
290
     1
176
     1
290
     1
176
     1
290
     0
176
     1
290
     0
176
     1
290
     0
176
     1
290
     0
176
     1
290
     0
176
     1
290
     0
176
     1
 90
       50
176
     1
 40
0.0
176
     1
 40
1.0
176
     1
 90
        0
176
     1
 62
    18
420
        0
176
     1
 90
       50
176
     1
 90
        3
176
     1
 62
     5
420
      255
176
     1
290
     0
176
     1
 90
       50
176
     1
 90
       50
176
     1
 90
       50
176
     1
290
     0
176
     1
 90
       50
176
     1
 62
   256
176
     0
 40
1.0
176
     0
 90
        2
176
     1
  1
strokes_ogs.tif
176
     1
290
     0
176
     1
 40
1.0
176
     1
 40
1.0
176
     1
1001
ACAD
1000
AcDbSavedByObjectVersion
1070
     0
  0
VISUALSTYLE
  5
35
102
{ACAD_REACTORS
330
29
102
}
330
29
100
AcDbVisualStyle
  2
Brighten
 70
    12
177
     3
291
     1
 70
    58
 90
        2
176
     1
 90
        2
176
     1
 90
        0
176
     1
 90
        0
176
     1
 40
0.6
176
     1
 40
30.0
176
     1
 62
     7
420
 16777215
176
     1
 90
        1
176
     1
 90
        4
176
     1
 62
     7
176
     1
 62
   257
176
     1
 90
        1
176
     1
 90
        1
176
     1
 40
1.0
176
     1
 90
        8
176
     1
 62
     7
176
     1
 40
1.0
176
     1
 90
        1
176
     1
 90
        6
176
     1
 90
        2
176
     1
 62
     7
176
     1
 90
        5
176
     1
 90
        0
176
     1
 90
        0
176
     1
290
     0
176
     1
 90
        1
176
     1
 40
50.0
176
     1
 90
        0
176
     1
290
     0
176
     1
290
     1
176
     1
290
     1
176
     1
290
     0
176
     1
290
     0
176
     1
290
     0
176
     1
290
     0
176
     1
290
     0
176
     1
290
     0
176
     1
 90
       50
176
     1
 40
0.0
176
     1
 40
1.0
176
     1
 90
        0
176
     1
 62
    18
420
        0
176
     1
 90
       50
176
     1
 90
        3
176
     1
 62
     5
420
      255
176
     1
290
     0
176
     1
 90
       50
176
     1
 90
       50
176
     1
 90
       50
176
     1
290
     0
176
     1
 90
       50
176
     1
 62
   256
176
     0
 40
1.0
176
     0
 90
        2
176
     1
  1
strokes_ogs.tif
176
     1
290
     0
176
     1
 40
1.0
176
     1
 40
1.0
176
     1
1001
ACAD
1000
AcDbSavedByObjectVersion
1070
     0
  0
VISUALSTYLE
  5
39
102
{ACAD_REACTORS
330
29
102
}
330
29
100
AcDbVisualStyle
  2
ColorChange
 70
    16
177
     3
291
     1
 70
    58
 90
        2
176
     1
 90
        2
176
     1
 90
        3
176
     1
 90
        0
176
     1
 40
0.6
176
     1
 40
30.0
176
     1
 62
     8
420
  8421504
176
     1
 90
        1
176
     1
 90
        4
176
     1
 62
     7
176
     1
 62
   257
176
     1
 90
        1
176
     1
 90
        1
176
     1
 40
1.0
176
     1
 90
        8
176
     1
 62
     8
420
  8421504
176
     1
 40
1.0
176
     1
 90
        1
176
     1
 90
        6
176
     1
 90
        2
176
     1
 62
     7
176
     1
 90
        5
176
     1
 90
        0
176
     1
 90
        0
176
     1
290
     0
176
     1
 90
        1
176
     1
 40
0.0
176
     1
 90
        0
176
     1
290
     0
176
     1
290
     1
176
     1
290
     1
176
     1
290
     0
176
     1
290
     0
176
     1
290
     0
176
     1
290
     0
176
     1
290
     0
176
     1
290
     0
176
     1
 90
       50
176
     1
 40
0.0
176
     1
 40
1.0
176
     1
 90
        0
176
     1
 62
    18
420
        0
176
     1
 90
       50
176
     1
 90
        3
176
     1
 62
     5
420
      255
176
     1
290
     0
176
     1
 90
       50
176
     1
 90
       50
176
     1
 90
       50
176
     1
290
     0
176
     1
 90
       50
176
     1
 62
   256
176
     0
 40
1.0
176
     0
 90
        2
176
     1
  1
strokes_ogs.tif
176
     1
290
     0
176
     1
 40
1.0
176
     1
 40
1.0
176
     1
1001
ACAD
1000
AcDbSavedByObjectVersion
1070
     0
  0
VISUALSTYLE
  5
32
102
{ACAD_REACTORS
330
29
102
}
330
29
100
AcDbVisualStyle
  2
Conceptual
 70
     9
177
     3
291
     0
 70
    58
 90
        3
176
     1
 90
        2
176
     1
 90
        0
176
     1
 90
        0
176
     1
 40
0.6
176
     1
 40
30.0
176
     1
 62
     7
420
 16777215
176
     1
 90
        2
176
     1
 90
        2
176
     1
 62
     7
176
     1
 62
   257
176
     1
 90
        1
176
     1
 90
        1
176
     1
 40
179.0
176
     1
 90
        8
176
     1
 62
     7
176
     1
 40
1.0
176
     1
 90
        1
176
     1
 90
        6
176
     1
 90
        2
176
     1
 62
     7
176
     1
 90
        3
176
     1
 90
        0
176
     1
 90
        0
176
     1
290
     0
176
     1
 90
        1
176
     1
 40
0.0
176
     1
 90
        0
176
     1
290
     0
176
     1
290
     1
176
     1
290
     1
176
     1
290
     0
176
     1
290
     0
176
     1
290
     0
176
     1
290
     0
176
     1
290
     0
176
     1
290
     0
176
     1
 90
       50
176
     1
 40
0.0
176
     1
 40
1.0
176
     1
 90
        0
176
     1
 62
    18
420
        0
176
     1
 90
       50
176
     1
 90
        3
176
     1
 62
     5
420
      255
176
     1
290
     0
176
     1
 90
       50
176
     1
 90
       50
176
     1
 90
       50
176
     1
290
     0
176
     1
 90
       50
176
     1
 62
   256
176
     0
 40
1.0
176
     0
 90
        2
176
     1
  1
strokes_ogs.tif
176
     1
290
     0
176
     1
 40
1.0
176
     1
 40
1.0
176
     1
1001
ACAD
1000
AcDbSavedByObjectVersion
1070
     0
  0
VISUALSTYLE
  5
34
102
{ACAD_REACTORS
330
29
102
}
330
29
100
AcDbVisualStyle
  2
Dim
 70
    11
177
     3
291
     1
 70
    58
 90
        2
176
     1
 90
        2
176
     1
 90
        0
176
     1
 90
        0
176
     1
 40
0.6
176
     1
 40
30.0
176
     1
 62
     7
420
 16777215
176
     1
 90
        1
176
     1
 90
        4
176
     1
 62
     7
176
     1
 62
   257
176
     1
 90
        1
176
     1
 90
        1
176
     1
 40
1.0
176
     1
 90
        8
176
     1
 62
     7
176
     1
 40
1.0
176
     1
 90
        1
176
     1
 90
        6
176
     1
 90
        2
176
     1
 62
     7
176
     1
 90
        5
176
     1
 90
        0
176
     1
 90
        0
176
     1
290
     0
176
     1
 90
        1
176
     1
 40
-50.0
176
     1
 90
        0
176
     1
290
     0
176
     1
290
     1
176
     1
290
     1
176
     1
290
     0
176
     1
290
     0
176
     1
290
     0
176
     1
290
     0
176
     1
290
     0
176
     1
290
     0
176
     1
 90
       50
176
     1
 40
0.0
176
     1
 40
1.0
176
     1
 90
        0
176
     1
 62
    18
420
        0
176
     1
 90
       50
176
     1
 90
        3
176
     1
 62
     5
420
      255
176
     1
290
     0
176
     1
 90
       50
176
     1
 90
       50
176
     1
 90
       50
176
     1
290
     0
176
     1
 90
       50
176
     1
 62
   256
176
     0
 40
1.0
176
     0
 90
        2
176
     1
  1
strokes_ogs.tif
176
     1
290
     0
176
     1
 40
1.0
176
     1
 40
1.0
176
     1
1001
ACAD
1000
AcDbSavedByObjectVersion
1070
     0
  0
VISUALSTYLE
  5
41
102
{ACAD_REACTORS
330
29
102
}
330
29
100
AcDbVisualStyle
  2
EdgeColorOff
 70
    22
177
     3
291
     1
 70
    58
 90
        2
176
     0
 90
        2
176
     0
 90
        0
176
     0
 90
        0
176
     0
 40
0.6
176
     0
 40
30.0
176
     0
 62
     7
420
 16777215
176
     0
 90
        1
176
     0
 90
        4
176
     0
 62
     7
176
     0
 62
   257
176
     0
 90
        1
176
     0
 90
        1
176
     0
 40
1.0
176
     0
 90
        8
176
     2
 62
     7
176
     0
 40
1.0
176
     0
 90
        1
176
     0
 90
        6
176
     0
 90
        2
176
     0
 62
     7
176
     0
 90
        5
176
     0
 90
        0
176
     0
 90
        0
176
     0
290
     0
176
     0
 90
        1
176
     0
 40
0.0
176
     0
 90
        0
176
     0
290
     0
176
     0
290
     1
176
     0
290
     1
176
     0
290
     0
176
     0
290
     0
176
     0
290
     0
176
     0
290
     0
176
     0
290
     0
176
     0
290
     0
176
     0
 90
       50
176
     0
 40
0.0
176
     0
 40
1.0
176
     0
 90
        0
176
     0
 62
    18
420
        0
176
     0
 90
       50
176
     0
 90
        3
176
     0
 62
     5
420
      255
176
     0
290
     0
176
     0
 90
       50
176
     0
 90
       50
176
     0
 90
       50
176
     0
290
     0
176
     0
 90
       50
176
     0
 62
   256
176
     0
 40
1.0
176
     0
 90
        2
176
     0
  1
strokes_ogs.tif
176
     0
290
     0
176
     0
 40
1.0
176
     0
 40
1.0
176
     0
1001
ACAD
1000
AcDbSavedByObjectVersion
1070
     0
  0
VISUALSTYLE
  5
38
102
{ACAD_REACTORS
330
29
102
}
330
29
100
AcDbVisualStyle
  2
Facepattern
 70
    15
177
     3
291
     1
 70
    58
 90
        2
176
     1
 90
        2
176
     1
 90
        0
176
     1
 90
        0
176
     1
 40
0.6
176
     1
 40
30.0
176
     1
 62
     7
420
 16777215
176
     1
 90
        1
176
     1
 90
        4
176
     1
 62
     7
176
     1
 62
   257
176
     1
 90
        1
176
     1
 90
        1
176
     1
 40
1.0
176
     1
 90
        8
176
     1
 62
     7
176
     1
 40
1.0
176
     1
 90
        1
176
     1
 90
        6
176
     1
 90
        2
176
     1
 62
     7
176
     1
 90
        5
176
     1
 90
        0
176
     1
 90
        0
176
     1
290
     0
176
     1
 90
        1
176
     1
 40
0.0
176
     1
 90
        0
176
     1
290
     0
176
     1
290
     1
176
     1
290
     1
176
     1
290
     0
176
     1
290
     0
176
     1
290
     0
176
     1
290
     0
176
     1
290
     0
176
     1
290
     0
176
     1
 90
       50
176
     1
 40
0.0
176
     1
 40
1.0
176
     1
 90
        0
176
     1
 62
    18
420
        0
176
     1
 90
       50
176
     1
 90
        3
176
     1
 62
     5
420
      255
176
     1
290
     0
176
     1
 90
       50
176
     1
 90
       50
176
     1
 90
       50
176
     1
290
     0
176
     1
 90
       50
176
     1
 62
   256
176
     0
 40
1.0
176
     0
 90
        2
176
     1
  1
strokes_ogs.tif
176
     1
290
     0
176
     1
 40
1.0
176
     1
 40
1.0
176
     1
1001
ACAD
1000
AcDbSavedByObjectVersion
1070
     0
  0
VISUALSTYLE
  5
2A
102
{ACAD_REACTORS
330
29
102
}
330
29
100
AcDbVisualStyle
  2
Flat
 70
     0
177
     3
291
     1
 70
    58
 90
        2
176
     1
 90
        1
176
     1
 90
        1
176
     1
 90
        2
176
     1
 40
0.6
176
     1
 40
30.0
176
     1
 62
     7
420
 16777215
176
     1
 90
        0
176
     1
 90
        0
176
     1
 62
     7
176
     1
 62
   257
176
     1
 90
        1
176
     1
 90
        1
176
     1
 40
1.0
176
     1
 90
        8
176
     1
 62
     7
176
     1
 40
1.0
176
     1
 90
        1
176
     1
 90
        6
176
     1
 90
        2
176
     1
 62
     7
176
     1
 90
        5
176
     1
 90
        0
176
     1
 90
        0
176
     1
290
     0
176
     1
 90
       13
176
     1
 40
0.0
176
     1
 90
        0
176
     1
290
     0
176
     1
290
     1
176
     1
290
     1
176
     1
290
     0
176
     1
290
     0
176
     1
290
     0
176
     1
290
     0
176
     1
290
     0
176
     1
290
     0
176
     1
 90
       50
176
     1
 40
0.0
176
     1
 40
1.0
176
     1
 90
        0
176
     1
 62
    18
420
        0
176
     1
 90
       50
176
     1
 90
        3
176
     1
 62
     5
420
      255
176
     1
290
     0
176
     1
 90
       50
176
     1
 90
       50
176
     1
 90
       50
176
     1
290
     0
176
     1
 90
       50
176
     1
 62
   256
176
     0
 40
1.0
176
     0
 90
        2
176
     1
  1
strokes_ogs.tif
176
     1
290
     0
176
     1
 40
1.0
176
     1
 40
1.0
176
     1
1001
ACAD
1000
AcDbSavedByObjectVersion
1070
     0
  0
VISUALSTYLE
  5
2B
102
{ACAD_REACTORS
330
29
102
}
330
29
100
AcDbVisualStyle
  2
FlatWithEdges
 70
     1
177
     3
291
     1
 70
    58
 90
        2
176
     1
 90
        1
176
     1
 90
        1
176
     1
 90
        2
176
     1
 40
0.6
176
     1
 40
30.0
176
     1
 62
     7
420
 16777215
176
     1
 90
        1
176
     1
 90
        0
176
     1
 62
     7
176
     1
 62
   257
176
     1
 90
        1
176
     1
 90
        1
176
     1
 40
1.0
176
     1
 90
        0
176
     1
 62
   257
176
     1
 40
1.0
176
     1
 90
        1
176
     1
 90
        6
176
     1
 90
        2
176
     1
 62
     7
176
     1
 90
        5
176
     1
 90
        0
176
     1
 90
        0
176
     1
290
     0
176
     1
 90
       13
176
     1
 40
0.0
176
     1
 90
        0
176
     1
290
     0
176
     1
290
     1
176
     1
290
     1
176
     1
290
     0
176
     1
290
     0
176
     1
290
     0
176
     1
290
     0
176
     1
290
     0
176
     1
290
     0
176
     1
 90
       50
176
     1
 40
0.0
176
     1
 40
1.0
176
     1
 90
        0
176
     1
 62
    18
420
        0
176
     1
 90
       50
176
     1
 90
        3
176
     1
 62
     5
420
      255
176
     1
290
     0
176
     1
 90
       50
176
     1
 90
       50
176
     1
 90
       50
176
     1
290
     0
176
     1
 90
       50
176
     1
 62
   256
176
     0
 40
1.0
176
     0
 90
        2
176
     1
  1
strokes_ogs.tif
176
     1
290
     0
176
     1
 40
1.0
176
     1
 40
1.0
176
     1
1001
ACAD
1000
AcDbSavedByObjectVersion
1070
     0
  0
VISUALSTYLE
  5
2C
102
{ACAD_REACTORS
330
29
102
}
330
29
100
AcDbVisualStyle
  2
Gouraud
 70
     2
177
     3
291
     1
 70
    58
 90
        2
176
     1
 90
        2
176
     1
 90
        1
176
     1
 90
        2
176
     1
 40
0.6
176
     1
 40
30.0
176
     1
 62
     7
420
 16777215
176
     1
 90
        0
176
     1
 90
        0
176
     1
 62
     7
176
     1
 62
   257
176
     1
 90
        1
176
     1
 90
        1
176
     1
 40
1.0
176
     1
 90
        0
176
     1
 62
     7
176
     1
 40
1.0
176
     1
 90
        1
176
     1
 90
        6
176
     1
 90
        2
176
     1
 62
     7
176
     1
 90
        5
176
     1
 90
        0
176
     1
 90
        0
176
     1
290
     0
176
     1
 90
       13
176
     1
 40
0.0
176
     1
 90
        0
176
     1
290
     0
176
     1
290
     1
176
     1
290
     1
176
     1
290
     0
176
     1
290
     0
176
     1
290
     0
176
     1
290
     0
176
     1
290
     0
176
     1
290
     0
176
     1
 90
       50
176
     1
 40
0.0
176
     1
 40
1.0
176
     1
 90
        0
176
     1
 62
    18
420
        0
176
     1
 90
       50
176
     1
 90
        3
176
     1
 62
     5
420
      255
176
     1
290
     0
176
     1
 90
       50
176
     1
 90
       50
176
     1
 90
       50
176
     1
290
     0
176
     1
 90
       50
176
     1
 62
   256
176
     0
 40
1.0
176
     0
 90
        2
176
     1
  1
strokes_ogs.tif
176
     1
290
     0
176
     1
 40
1.0
176
     1
 40
1.0
176
     1
1001
ACAD
1000
AcDbSavedByObjectVersion
1070
     0
  0
VISUALSTYLE
  5
2D
102
{ACAD_REACTORS
330
29
102
}
330
29
100
AcDbVisualStyle
  2
GouraudWithEdges
 70
     3
177
     3
291
     1
 70
    58
 90
        2
176
     1
 90
        2
176
     1
 90
        1
176
     1
 90
        2
176
     1
 40
0.6
176
     1
 40
30.0
176
     1
 62
     7
420
 16777215
176
     1
 90
        1
176
     1
 90
        0
176
     1
 62
     7
176
     1
 62
   257
176
     1
 90
        1
176
     1
 90
        1
176
     1
 40
1.0
176
     1
 90
        0
176
     1
 62
   257
176
     1
 40
1.0
176
     1
 90
        1
176
     1
 90
        6
176
     1
 90
        2
176
     1
 62
     7
176
     1
 90
        5
176
     1
 90
        0
176
     1
 90
        0
176
     1
290
     0
176
     1
 90
       13
176
     1
 40
0.0
176
     1
 90
        0
176
     1
290
     0
176
     1
290
     1
176
     1
290
     1
176
     1
290
     0
176
     1
290
     0
176
     1
290
     0
176
     1
290
     0
176
     1
290
     0
176
     1
290
     0
176
     1
 90
       50
176
     1
 40
0.0
176
     1
 40
1.0
176
     1
 90
        0
176
     1
 62
    18
420
        0
176
     1
 90
       50
176
     1
 90
        3
176
     1
 62
     5
420
      255
176
     1
290
     0
176
     1
 90
       50
176
     1
 90
       50
176
     1
 90
       50
176
     1
290
     0
176
     1
 90
       50
176
     1
 62
   256
176
     0
 40
1.0
176
     0
 90
        2
176
     1
  1
strokes_ogs.tif
176
     1
290
     0
176
     1
 40
1.0
176
     1
 40
1.0
176
     1
1001
ACAD
1000
AcDbSavedByObjectVersion
1070
     0
  0
VISUALSTYLE
  5
31
102
{ACAD_REACTORS
330
29
102
}
330
29
100
AcDbVisualStyle
  2
Hidden
 70
     6
177
     3
291
     0
 70
    58
 90
        1
176
     1
 90
        2
176
     1
 90
        2
176
     1
 90
        0
176
     1
 40
0.6
176
     1
 40
30.0
176
     1
 62
     7
420
 16777215
176
     1
 90
        2
176
     1
 90
        2
176
     1
 62
     7
176
     1
 62
   257
176
     1
 90
        2
176
     1
 90
        1
176
     1
 40
40.0
176
     1
 90
        0
176
     1
 62
   257
176
     1
 40
1.0
176
     1
 90
        1
176
     1
 90
        6
176
     1
 90
        2
176
     1
 62
     7
176
     1
 90
        3
176
     1
 90
        0
176
     1
 90
        0
176
     1
290
     0
176
     1
 90
        1
176
     1
 40
0.0
176
     1
 90
        0
176
     1
290
     0
176
     1
290
     1
176
     1
290
     1
176
     1
290
     0
176
     1
290
     0
176
     1
290
     0
176
     1
290
     0
176
     1
290
     0
176
     1
290
     0
176
     1
 90
       50
176
     1
 40
0.0
176
     1
 40
1.0
176
     1
 90
        0
176
     1
 62
    18
420
        0
176
     1
 90
       50
176
     1
 90
        3
176
     1
 62
     5
420
      255
176
     1
290
     0
176
     1
 90
       50
176
     1
 90
       50
176
     1
 90
       50
176
     1
290
     0
176
     1
 90
       50
176
     1
 62
   256
176
     0
 40
1.0
176
     0
 90
        2
176
     1
  1
strokes_ogs.tif
176
     1
290
     0
176
     1
 40
1.0
176
     1
 40
1.0
176
     1
1001
ACAD
1000
AcDbSavedByObjectVersion
1070
     0
  0
VISUALSTYLE
  5
3F
102
{ACAD_REACTORS
330
29
102
}
330
29
100
AcDbVisualStyle
  2
JitterOff
 70
    20
177
     3
291
     1
 70
    58
 90
        2
176
     0
 90
        2
176
     0
 90
        0
176
     0
 90
        0
176
     0
 40
0.6
176
     0
 40
30.0
176
     0
 62
     7
420
 16777215
176
     0
 90
        1
176
     0
 90
        4
176
     0
 62
     7
176
     0
 62
   257
176
     0
 90
        1
176
     0
 90
        1
176
     0
 40
1.0
176
     0
 90
       10
176
     2
 62
     7
176
     0
 40
1.0
176
     0
 90
        1
176
     0
 90
        6
176
     0
 90
        2
176
     0
 62
     7
176
     0
 90
        5
176
     0
 90
        0
176
     0
 90
        0
176
     0
290
     0
176
     0
 90
        1
176
     0
 40
0.0
176
     0
 90
        0
176
     0
290
     0
176
     0
290
     1
176
     0
290
     1
176
     0
290
     0
176
     0
290
     0
176
     0
290
     0
176
     0
290
     0
176
     0
290
     0
176
     0
290
     0
176
     0
 90
       50
176
     0
 40
0.0
176
     0
 40
1.0
176
     0
 90
        0
176
     0
 62
    18
420
        0
176
     0
 90
       50
176
     0
 90
        3
176
     0
 62
     5
420
      255
176
     0
290
     0
176
     0
 90
       50
176
     0
 90
       50
176
     0
 90
       50
176
     0
290
     0
176
     0
 90
       50
176
     0
 62
   256
176
     0
 40
1.0
176
     0
 90
        2
176
     0
  1
strokes_ogs.tif
176
     0
290
     0
176
     0
 40
1.0
176
     0
 40
1.0
176
     0
1001
ACAD
1000
AcDbSavedByObjectVersion
1070
     0
  0
VISUALSTYLE
  5
37
102
{ACAD_REACTORS
330
29
102
}
330
29
100
AcDbVisualStyle
  2
Linepattern
 70
    14
177
     3
291
     1
 70
    58
 90
        2
176
     1
 90
        2
176
     1
 90
        0
176
     1
 90
        0
176
     1
 40
0.6
176
     1
 40
30.0
176
     1
 62
     7
420
 16777215
176
     1
 90
        1
176
     1
 90
        4
176
     1
 62
     7
176
     1
 62
   257
176
     1
 90
        7
176
     1
 90
        7
176
     1
 40
1.0
176
     1
 90
        8
176
     1
 62
     7
176
     1
 40
1.0
176
     1
 90
        1
176
     1
 90
        6
176
     1
 90
        2
176
     1
 62
     7
176
     1
 90
        5
176
     1
 90
        0
176
     1
 90
        0
176
     1
290
     0
176
     1
 90
        1
176
     1
 40
0.0
176
     1
 90
        0
176
     1
290
     0
176
     1
290
     1
176
     1
290
     1
176
     1
290
     0
176
     1
290
     0
176
     1
290
     0
176
     1
290
     0
176
     1
290
     0
176
     1
290
     0
176
     1
 90
       50
176
     1
 40
0.0
176
     1
 40
1.0
176
     1
 90
        0
176
     1
 62
    18
420
        0
176
     1
 90
       50
176
     1
 90
        3
176
     1
 62
     5
420
      255
176
     1
290
     0
176
     1
 90
       50
176
     1
 90
       50
176
     1
 90
       50
176
     1
290
     0
176
     1
 90
       50
176
     1
 62
   256
176
     0
 40
1.0
176
     0
 90
        2
176
     1
  1
strokes_ogs.tif
176
     1
290
     0
176
     1
 40
1.0
176
     1
 40
1.0
176
     1
1001
ACAD
1000
AcDbSavedByObjectVersion
1070
     0
  0
VISUALSTYLE
  5
40
102
{ACAD_REACTORS
330
29
102
}
330
29
100
AcDbVisualStyle
  2
OverhangOff
 70
    21
177
     3
291
     1
 70
    58
 90
        2
176
     0
 90
        2
176
     0
 90
        0
176
     0
 90
        0
176
     0
 40
0.6
176
     0
 40
30.0
176
     0
 62
     7
420
 16777215
176
     0
 90
        1
176
     0
 90
        4
176
     0
 62
     7
176
     0
 62
   257
176
     0
 90
        1
176
     0
 90
        1
176
     0
 40
1.0
176
     0
 90
        9
176
     2
 62
     7
176
     0
 40
1.0
176
     0
 90
        1
176
     0
 90
        6
176
     0
 90
        2
176
     0
 62
     7
176
     0
 90
        5
176
     0
 90
        0
176
     0
 90
        0
176
     0
290
     0
176
     0
 90
        1
176
     0
 40
0.0
176
     0
 90
        0
176
     0
290
     0
176
     0
290
     1
176
     0
290
     1
176
     0
290
     0
176
     0
290
     0
176
     0
290
     0
176
     0
290
     0
176
     0
290
     0
176
     0
290
     0
176
     0
 90
       50
176
     0
 40
0.0
176
     0
 40
1.0
176
     0
 90
        0
176
     0
 62
    18
420
        0
176
     0
 90
       50
176
     0
 90
        3
176
     0
 62
     5
420
      255
176
     0
290
     0
176
     0
 90
       50
176
     0
 90
       50
176
     0
 90
       50
176
     0
290
     0
176
     0
 90
       50
176
     0
 62
   256
176
     0
 40
1.0
176
     0
 90
        2
176
     0
  1
strokes_ogs.tif
176
     0
290
     0
176
     0
 40
1.0
176
     0
 40
1.0
176
     0
1001
ACAD
1000
AcDbSavedByObjectVersion
1070
     0
  0
VISUALSTYLE
  5
33
102
{ACAD_REACTORS
330
29
102
}
330
29
100
AcDbVisualStyle
  2
Realistic
 70
     8
177
     3
291
     0
 70
    58
 90
        2
176
     1
 90
        3
176
     1
 90
        0
176
     1
 90
        2
176
     1
 40
0.6
176
     1
 40
30.0
176
     1
 62
     7
420
 16777215
176
     1
 90
        0
176
     1
 90
        0
176
     1
 62
     7
176
     1
 62
   257
176
     1
 90
        1
176
     1
 90
        1
176
     1
 40
1.0
176
     1
 90
        8
176
     1
 62
   257
176
     1
 40
1.0
176
     1
 90
        1
176
     1
 90
        6
176
     1
 90
        2
176
     1
 62
     7
176
     1
 90
        3
176
     1
 90
        0
176
     1
 90
        0
176
     1
290
     0
176
     1
 90
       13
176
     1
 40
0.0
176
     1
 90
        0
176
     1
290
     0
176
     1
290
     1
176
     1
290
     1
176
     1
290
     0
176
     1
290
     0
176
     1
290
     0
176
     1
290
     0
176
     1
290
     0
176
     1
290
     0
176
     1
 90
       50
176
     1
 40
0.0
176
     1
 40
1.0
176
     1
 90
        0
176
     1
 62
    18
420
        0
176
     1
 90
       50
176
     1
 90
        3
176
     1
 62
     5
420
      255
176
     1
290
     0
176
     1
 90
       50
176
     1
 90
       50
176
     1
 90
       50
176
     1
290
     0
176
     1
 90
       50
176
     1
 62
   256
176
     0
 40
1.0
176
     0
 90
        2
176
     1
  1
strokes_ogs.tif
176
     1
290
     0
176
     1
 40
1.0
176
     1
 40
1.0
176
     1
1001
ACAD
1000
AcDbSavedByObjectVersion
1070
     0
  0
VISUALSTYLE
  5
3E
102
{ACAD_REACTORS
330
29
102
}
330
29
100
AcDbVisualStyle
  2
Shaded
 70
    27
177
     3
291
     0
 70
    58
 90
        2
176
     1
 90
        2
176
     1
 90
        1
176
     1
 90
        2
176
     1
 40
0.6
176
     1
 40
30.0
176
     1
 62
     7
420
 16777215
176
     1
 90
        0
176
     1
 90
        4
176
     1
 62
     7
176
     1
 62
   257
176
     1
 90
        1
176
     1
 90
        1
176
     1
 40
1.0
176
     1
 90
        8
176
     1
 62
   257
176
     1
 40
1.0
176
     1
 90
        1
176
     1
 90
        6
176
     1
 90
        2
176
     1
 62
     8
420
  7895160
176
     1
 90
        3
176
     1
 90
        0
176
     1
 90
        0
176
     1
290
     0
176
     1
 90
        5
176
     1
 40
0.0
176
     1
 90
        0
176
     1
290
     0
176
     1
290
     1
176
     1
290
     1
176
     1
290
     0
176
     1
290
     0
176
     1
290
     0
176
     1
290
     0
176
     1
290
     0
176
     1
290
     0
176
     1
 90
       50
176
     1
 40
0.0
176
     1
 40
1.0
176
     1
 90
        0
176
     1
 62
    18
420
        0
176
     1
 90
       50
176
     1
 90
        3
176
     1
 62
     5
420
      255
176
     1
290
     0
176
     1
 90
       50
176
     1
 90
       50
176
     1
 90
       50
176
     1
290
     0
176
     1
 90
       50
176
     1
 62
   256
176
     0
 40
1.0
176
     0
 90
        2
176
     1
  1
strokes_ogs.tif
176
     1
290
     0
176
     1
 40
1.0
176
     1
 40
1.0
176
     1
1001
ACAD
1000
AcDbSavedByObjectVersion
1070
     0
  0
VISUALSTYLE
  5
3D
102
{ACAD_REACTORS
330
29
102
}
330
29
100
AcDbVisualStyle
  2
Shaded with edges
 70
    26
177
     3
291
     0
 70
    58
 90
        2
176
     1
 90
        2
176
     1
 90
        1
176
     1
 90
        2
176
     1
 40
0.6
176
     1
 40
30.0
176
     1
 62
     7
420
 16777215
176
     1
 90
        1
176
     1
 90
        2
176
     1
 62
     7
176
     1
 62
   257
176
     1
 90
        2
176
     1
 90
        1
176
     1
 40
1.0
176
     1
 90
        8
176
     1
 62
   257
176
     1
 40
1.0
176
     1
 90
        1
176
     1
 90
        6
176
     1
 90
        2
176
     1
 62
     7
176
     1
 90
        3
176
     1
 90
        0
176
     1
 90
        0
176
     1
290
     0
176
     1
 90
        5
176
     1
 40
0.0
176
     1
 90
        0
176
     1
290
     0
176
     1
290
     1
176
     1
290
     1
176
     1
290
     0
176
     1
290
     0
176
     1
290
     0
176
     1
290
     0
176
     1
290
     0
176
     1
290
     0
176
     1
 90
       50
176
     1
 40
0.0
176
     1
 40
1.0
176
     1
 90
        0
176
     1
 62
    18
420
        0
176
     1
 90
       50
176
     1
 90
        3
176
     1
 62
     5
420
      255
176
     1
290
     0
176
     1
 90
       50
176
     1
 90
       50
176
     1
 90
       50
176
     1
290
     0
176
     1
 90
       50
176
     1
 62
   256
176
     0
 40
1.0
176
     0
 90
        2
176
     1
  1
strokes_ogs.tif
176
     1
290
     0
176
     1
 40
1.0
176
     1
 40
1.0
176
     1
1001
ACAD
1000
AcDbSavedByObjectVersion
1070
     0
  0
VISUALSTYLE
  5
3A
102
{ACAD_REACTORS
330
29
102
}
330
29
100
AcDbVisualStyle
  2
Shades of Gray
 70
    23
177
     3
291
     0
 70
    58
 90
        2
176
     1
 90
        2
176
     1
 90
        3
176
     1
 90
        0
176
     1
 40
0.6
176
     1
 40
30.0
176
     1
 62
     7
420
 16777215
176
     1
 90
        2
176
     1
 90
        2
176
     1
 62
     7
176
     1
 62
     7
176
     1
 90
        1
176
     1
 90
        1
176
     1
 40
40.0
176
     1
 90
        8
176
     1
 62
     7
176
     1
 40
1.0
176
     1
 90
        1
176
     1
 90
        6
176
     1
 90
        2
176
     1
 62
     7
176
     1
 90
        3
176
     1
 90
        0
176
     1
 90
        0
176
     1
290
     0
176
     1
 90
        1
176
     1
 40
0.0
176
     1
 90
        0
176
     1
290
     0
176
     1
290
     1
176
     1
290
     1
176
     1
290
     0
176
     1
290
     0
176
     1
290
     0
176
     1
290
     0
176
     1
290
     0
176
     1
290
     0
176
     1
 90
       50
176
     1
 40
0.0
176
     1
 40
1.0
176
     1
 90
        0
176
     1
 62
    18
420
        0
176
     1
 90
       50
176
     1
 90
        3
176
     1
 62
     5
420
      255
176
     1
290
     0
176
     1
 90
       50
176
     1
 90
       50
176
     1
 90
       50
176
     1
290
     0
176
     1
 90
       50
176
     1
 62
   256
176
     0
 40
1.0
176
     0
 90
        2
176
     1
  1
strokes_ogs.tif
176
     1
290
     0
176
     1
 40
1.0
176
     1
 40
1.0
176
     1
1001
ACAD
1000
AcDbSavedByObjectVersion
1070
     0
  0
VISUALSTYLE
  5
3B
102
{ACAD_REACTORS
330
29
102
}
330
29
100
AcDbVisualStyle
  2
Sketchy
 70
    24
177
     3
291
     0
 70
    58
 90
        1
176
     1
 90
        2
176
     1
 90
        2
176
     1
 90
        0
176
     1
 40
0.6
176
     1
 40
30.0
176
     1
 62
     7
420
 16777215
176
     1
 90
        2
176
     1
 90
        2
176
     1
 62
     7
176
     1
 62
     7
176
     1
 90
        1
176
     1
 90
        1
176
     1
 40
40.0
176
     1
 90
       11
176
     1
 62
     7
176
     1
 40
1.0
176
     1
 90
        1
176
     1
 90
        6
176
     1
 90
        2
176
     1
 62
     7
176
     1
 90
        6
176
     1
 90
        0
176
     1
 90
        0
176
     1
290
     0
176
     1
 90
        1
176
     1
 40
0.0
176
     1
 90
        0
176
     1
290
     0
176
     1
290
     1
176
     1
290
     1
176
     1
290
     0
176
     1
290
     0
176
     1
290
     0
176
     1
290
     0
176
     1
290
     0
176
     1
290
     0
176
     1
 90
       50
176
     1
 40
0.0
176
     1
 40
1.0
176
     1
 90
        0
176
     1
 62
    18
420
        0
176
     1
 90
       50
176
     1
 90
        3
176
     1
 62
     5
420
      255
176
     1
290
     0
176
     1
 90
       50
176
     1
 90
       50
176
     1
 90
       50
176
     1
290
     0
176
     1
 90
       50
176
     1
 62
   256
176
     0
 40
1.0
176
     0
 90
        2
176
     1
  1
strokes_ogs.tif
176
     1
290
     0
176
     1
 40
1.0
176
     1
 40
1.0
176
     1
1001
ACAD
1000
AcDbSavedByObjectVersion
1070
     0
  0
VISUALSTYLE
  5
36
102
{ACAD_REACTORS
330
29
102
}
330
29
100
AcDbVisualStyle
  2
Thicken
 70
    13
177
     3
291
     1
 70
    58
 90
        2
176
     1
 90
        2
176
     1
 90
        0
176
     1
 90
        0
176
     1
 40
0.6
176
     1
 40
30.0
176
     1
 62
     7
420
 16777215
176
     1
 90
        1
176
     1
 90
        4
176
     1
 62
     7
176
     1
 62
   257
176
     1
 90
        1
176
     1
 90
        1
176
     1
 40
1.0
176
     1
 90
       12
176
     1
 62
     7
176
     1
 40
1.0
176
     1
 90
        1
176
     1
 90
        6
176
     1
 90
        2
176
     1
 62
     7
176
     1
 90
        5
176
     1
 90
        0
176
     1
 90
        0
176
     1
290
     0
176
     1
 90
        1
176
     1
 40
0.0
176
     1
 90
        0
176
     1
290
     0
176
     1
290
     1
176
     1
290
     1
176
     1
290
     0
176
     1
290
     0
176
     1
290
     0
176
     1
290
     0
176
     1
290
     0
176
     1
290
     0
176
     1
 90
       50
176
     1
 40
0.0
176
     1
 40
1.0
176
     1
 90
        0
176
     1
 62
    18
420
        0
176
     1
 90
       50
176
     1
 90
        3
176
     1
 62
     5
420
      255
176
     1
290
     0
176
     1
 90
       50
176
     1
 90
       50
176
     1
 90
       50
176
     1
290
     0
176
     1
 90
       50
176
     1
 62
   256
176
     0
 40
1.0
176
     0
 90
        2
176
     1
  1
strokes_ogs.tif
176
     1
290
     0
176
     1
 40
1.0
176
     1
 40
1.0
176
     1
1001
ACAD
1000
AcDbSavedByObjectVersion
1070
     0
  0
VISUALSTYLE
  5
30
102
{ACAD_REACTORS
330
29
102
}
330
29
100
AcDbVisualStyle
  2
Wireframe
 70
     5
177
     3
291
     0
 70
    58
 90
        0
176
     1
 90
        2
176
     1
 90
        0
176
     1
 90
        0
176
     1
 40
0.6
176
     1
 40
30.0
176
     1
 62
     7
420
 16777215
176
     1
 90
        1
176
     1
 90
        4
176
     1
 62
     7
176
     1
 62
   257
176
     1
 90
        1
176
     1
 90
        1
176
     1
 40
1.0
176
     1
 90
        0
176
     1
 62
   257
176
     1
 40
1.0
176
     1
 90
        1
176
     1
 90
        6
176
     1
 90
        2
176
     1
 62
     7
176
     1
 90
        3
176
     1
 90
        0
176
     1
 90
        0
176
     1
290
     0
176
     1
 90
        1
176
     1
 40
0.0
176
     1
 90
        0
176
     1
290
     0
176
     1
290
     1
176
     1
290
     1
176
     1
290
     0
176
     1
290
     0
176
     1
290
     0
176
     1
290
     0
176
     1
290
     0
176
     1
290
     0
176
     1
 90
       50
176
     1
 40
0.0
176
     1
 40
1.0
176
     1
 90
        0
176
     1
 62
    18
420
        0
176
     1
 90
       50
176
     1
 90
        3
176
     1
 62
     5
420
      255
176
     1
290
     0
176
     1
 90
       50
176
     1
 90
       50
176
     1
 90
       50
176
     1
290
     0
176
     1
 90
       50
176
     1
 62
   256
176
     0
 40
1.0
176
     0
 90
        2
176
     1
  1
strokes_ogs.tif
176
     1
290
     0
176
     1
 40
1.0
176
     1
 40
1.0
176
     1
1001
ACAD
1000
AcDbSavedByObjectVersion
1070
     0
  0
VISUALSTYLE
  5
3C
102
{ACAD_REACTORS
330
29
102
}
330
29
100
AcDbVisualStyle
  2
X-Ray
 70
    25
177
     3
291
     0
 70
    58
 90
        2
176
     1
 90
        2
176
     1
 90
        1
176
     1
 90
        1
176
     1
 40
0.5
176
     1
 40
30.0
176
     1
 62
     7
420
 16777215
176
     1
 90
        1
176
     1
 90
        0
176
     1
 62
     7
176
     1
 62
   257
176
     1
 90
        1
176
     1
 90
        1
176
     1
 40
1.0
176
     1
 90
        8
176
     1
 62
     7
176
     1
 40
1.0
176
     1
 90
        1
176
     1
 90
        6
176
     1
 90
        2
176
     1
 62
     7
176
     1
 90
        3
176
     1
 90
        0
176
     1
 90
        0
176
     1
290
     0
176
     1
 90
       13
176
     1
 40
0.0
176
     1
 90
        0
176
     1
290
     0
176
     1
290
     1
176
     1
290
     1
176
     1
290
     0
176
     1
290
     0
176
     1
290
     0
176
     1
290
     0
176
     1
290
     0
176
     1
290
     0
176
     1
 90
       50
176
     1
 40
0.0
176
     1
 40
1.0
176
     1
 90
        0
176
     1
 62
    18
420
        0
176
     1
 90
       50
176
     1
 90
        3
176
     1
 62
     5
420
      255
176
     1
290
     0
176
     1
 90
       50
176
     1
 90
       50
176
     1
 90
       50
176
     1
290
     0
176
     1
 90
       50
176
     1
 62
   256
176
     0
 40
1.0
176
     0
 90
        2
176
     1
  1
strokes_ogs.tif
176
     1
290
     0
176
     1
 40
1.0
176
     1
 40
1.0
176
     1
1001
ACAD
1000
AcDbSavedByObjectVersion
1070
     0
  0
DICTIONARYVAR
  5
113
102
{ACAD_REACTORS
330
10E
102
}
330
10E
100
DictionaryVariables
280
     0
  1
1:1
  0
DICTIONARYVAR
  5
110
102
{ACAD_REACTORS
330
10E
102
}
330
10E
100
DictionaryVariables
280
     0
  1
STANDARD
  0
DICTIONARYVAR
  5
10F
102
{ACAD_REACTORS
330
10E
102
}
330
10E
100
DictionaryVariables
280
     0
  1
STANDARD
  0
DICTIONARYVAR
  5
111
102
{ACAD_REACTORS
330
10E
102
}
330
10E
100
DictionaryVariables
280
     0
  1
Imperial24
  0
DICTIONARYVAR
  5
112
102
{ACAD_REACTORS
330
10E
102
}
330
10E
100
DictionaryVariables
280
     0
  1
Imperial24
  0
XRECORD
  5
105
102
{ACAD_REACTORS
330
103
102
}
330
103
100
AcDbXrecord
280
     1
  1
BUILDING_ID
  1
Toilet-Elongated-DXV-Eurocube-3966_Series
  1
FLOOR_ID
  1
23
  0
XRECORD
  5
104
102
{ACAD_REACTORS
330
103
102
}
330
103
100
AcDbXrecord
280
     1
  1
-2001160
  1
Plumbing Fixtures
  1
-2002000
  1
Detail Items
  1
-2007000
  1
Connector Element
  0
DICTIONARY
  5
348
330
6B
100
AcDbDictionary
280
     1
281
     1
  3
ACAD_XREC_ROUNDTRIP
360
349
  0
DICTIONARY
  5
1A
330
19
100
AcDbDictionary
280
     1
281
     1
  3
BUMPTILE
360
1C
  3
DIFFUSETILE
360
1B
  3
OPACITYTILE
360
1F
  3
REFLECTIONTILE
360
1E
  3
REFRACTIONTILE
360
20
  3
SPECULARTILE
360
1D
  0
DICTIONARY
  5
12
330
11
100
AcDbDictionary
280
     1
281
     1
  3
BUMPTILE
360
14
  3
DIFFUSETILE
360
13
  3
OPACITYTILE
360
17
  3
REFLECTIONTILE
360
16
  3
REFRACTIONTILE
360
18
  3
SPECULARTILE
360
15
  0
DICTIONARY
  5
22
330
21
100
AcDbDictionary
280
     1
281
     1
  3
BUMPTILE
360
24
  3
DIFFUSETILE
360
23
  3
OPACITYTILE
360
27
  3
REFLECTIONTILE
360
26
  3
REFRACTIONTILE
360
28
  3
SPECULARTILE
360
25
  0
DICTIONARY
  5
346
330
69
100
AcDbDictionary
280
     1
281
     1
  3
ACAD_XREC_ROUNDTRIP
360
347
  0
DICTIONARY
  5
343
330
65
100
AcDbDictionary
280
     1
281
     1
  3
ACAD_ROUNDTRIP_2008_TABLESTYLE_CELLSTYLEMAP
360
344
  0
XRECORD
  5
349
102
{ACAD_REACTORS
330
348
102
}
330
348
100
AcDbXrecord
280
     1
102
DISPLAYNAME
  1
Imperial24
102
FLAGS
 90
        0
  0
XRECORD
  5
1C
102
{ACAD_REACTORS
330
1A
102
}
330
1A
100
AcDbXrecord
280
     1
270
     1
271
     1
  0
XRECORD
  5
1B
102
{ACAD_REACTORS
330
1A
102
}
330
1A
100
AcDbXrecord
280
     1
270
     1
271
     1
  0
XRECORD
  5
1F
102
{ACAD_REACTORS
330
1A
102
}
330
1A
100
AcDbXrecord
280
     1
270
     1
271
     1
  0
XRECORD
  5
1E
102
{ACAD_REACTORS
330
1A
102
}
330
1A
100
AcDbXrecord
280
     1
270
     1
271
     1
  0
XRECORD
  5
20
102
{ACAD_REACTORS
330
1A
102
}
330
1A
100
AcDbXrecord
280
     1
270
     1
271
     1
  0
XRECORD
  5
1D
102
{ACAD_REACTORS
330
1A
102
}
330
1A
100
AcDbXrecord
280
     1
270
     1
271
     1
  0
XRECORD
  5
14
102
{ACAD_REACTORS
330
12
102
}
330
12
100
AcDbXrecord
280
     1
270
     1
271
     1
  0
XRECORD
  5
13
102
{ACAD_REACTORS
330
12
102
}
330
12
100
AcDbXrecord
280
     1
270
     1
271
     1
  0
XRECORD
  5
17
102
{ACAD_REACTORS
330
12
102
}
330
12
100
AcDbXrecord
280
     1
270
     1
271
     1
  0
XRECORD
  5
16
102
{ACAD_REACTORS
330
12
102
}
330
12
100
AcDbXrecord
280
     1
270
     1
271
     1
  0
XRECORD
  5
18
102
{ACAD_REACTORS
330
12
102
}
330
12
100
AcDbXrecord
280
     1
270
     1
271
     1
  0
XRECORD
  5
15
102
{ACAD_REACTORS
330
12
102
}
330
12
100
AcDbXrecord
280
     1
270
     1
271
     1
  0
XRECORD
  5
24
102
{ACAD_REACTORS
330
22
102
}
330
22
100
AcDbXrecord
280
     1
270
     1
271
     1
  0
XRECORD
  5
23
102
{ACAD_REACTORS
330
22
102
}
330
22
100
AcDbXrecord
280
     1
270
     1
271
     1
  0
XRECORD
  5
27
102
{ACAD_REACTORS
330
22
102
}
330
22
100
AcDbXrecord
280
     1
270
     1
271
     1
  0
XRECORD
  5
26
102
{ACAD_REACTORS
330
22
102
}
330
22
100
AcDbXrecord
280
     1
270
     1
271
     1
  0
XRECORD
  5
28
102
{ACAD_REACTORS
330
22
102
}
330
22
100
AcDbXrecord
280
     1
270
     1
271
     1
  0
XRECORD
  5
25
102
{ACAD_REACTORS
330
22
102
}
330
22
100
AcDbXrecord
280
     1
270
     1
271
     1
  0
XRECORD
  5
347
102
{ACAD_REACTORS
330
346
102
}
330
346
100
AcDbXrecord
280
     1
102
DISPLAYNAME
  1
Imperial24
102
FLAGS
 90
        0
  0
CELLSTYLEMAP
  5
344
102
{ACAD_REACTORS
330
343
102
}
330
343
100
AcDbCellStyleMap
 90
        3
300
CELLSTYLE
  1
TABLEFORMAT_BEGIN
 90
        5
170
     1
 91
        0
 92
    32768
 62
   257
 93
        1
300
CONTENTFORMAT
  1
CONTENTFORMAT_BEGIN
 90
        0
 91
        0
 92
      512
 93
        0
300

 40
0.0
140
1.0
 94
        5
 62
     0
340
55
144
0.25
309
CONTENTFORMAT_END
171
     0
 94
        0
309
TABLEFORMAT_END
  1
CELLSTYLE_BEGIN
 90
        1
 91
        1
300
_TITLE
309
CELLSTYLE_END
300
CELLSTYLE
  1
TABLEFORMAT_BEGIN
 90
        5
170
     1
 91
        0
 92
        0
 62
   257
 93
        1
300
CONTENTFORMAT
  1
CONTENTFORMAT_BEGIN
 90
        0
 91
        0
 92
      512
 93
        0
300

 40
0.0
140
1.0
 94
        5
 62
     0
340
55
144
0.18
309
CONTENTFORMAT_END
171
     0
 94
        0
309
TABLEFORMAT_END
  1
CELLSTYLE_BEGIN
 90
        2
 91
        1
300
_HEADER
309
CELLSTYLE_END
300
CELLSTYLE
  1
TABLEFORMAT_BEGIN
 90
        5
170
     1
 91
        0
 92
        0
 62
   257
 93
        1
300
CONTENTFORMAT
  1
CONTENTFORMAT_BEGIN
 90
        0
 91
        0
 92
      512
 93
        0
300

 40
0.0
140
1.0
 94
        2
 62
     0
340
55
144
0.18
309
CONTENTFORMAT_END
171
     0
 94
        0
309
TABLEFORMAT_END
  1
CELLSTYLE_BEGIN
 90
        3
 91
        2
300
_DATA
309
CELLSTYLE_END
  0
ENDSEC
  0
EOF
