  0
SECTION
  2
HEADER
  9
$ACADVER
  1
AC1015
  9
$ACADMAINTVER
 70
     6
  9
$DWGCODEPAGE
  3
ANSI_1252
  9
$INSBASE
 10
0.0
 20
0.0
 30
0.0
  9
$EXTMIN
 10
0.0
 20
0.0
 30
0.0
  9
$EXTMAX
 10
3000.0
 20
4500.0
 30
0.0
  9
$LIMMIN
 10
0.0
 20
0.0
  9
$LIMMAX
 10
3000.0
 20
4500.0
  9
$ORTHOMODE
 70
     0
  9
$REGENMODE
 70
     1
  9
$FILLMODE
 70
     1
  9
$QTEXTMODE
 70
     0
  9
$MIRRTEXT
 70
     1
  9
$LTSCALE
 40
1.0
  9
$ATTMODE
 70
     1
  9
$TEXTSIZE
 40
2.5
  9
$TRACEWID
 40
1.0
  9
$TEXTSTYLE
  7
Standard
  9
$CLAYER
  8
0
  9
$CELTYPE
  6
ByLayer
  9
$CECOLOR
 62
   256
  9
$CELTSCALE
 40
1.0
  9
$DISPSILH
 70
     0
  9
$DIMSCALE
 40
1.0
  9
$DIMASZ
 40
2.5
  9
$DIMEXO
 40
0.625
  9
$DIMDLI
 40
3.75
  9
$DIMRND
 40
0.0
  9
$DIMDLE
 40
0.0
  9
$DIMEXE
 40
1.25
  9
$DIMTP
 40
0.0
  9
$DIMTM
 40
0.0
  9
$DIMTXT
 40
2.5
  9
$DIMCEN
 40
2.5
  9
$DIMTSZ
 40
0.0
  9
$DIMTOL
 70
     0
  9
$DIMLIM
 70
     0
  9
$DIMTIH
 70
     0
  9
$DIMTOH
 70
     0
  9
$DIMSE1
 70
     0
  9
$DIMSE2
 70
     0
  9
$DIMTAD
 70
     1
  9
$DIMZIN
 70
     8
  9
$DIMBLK
  1

  9
$DIMASO
 70
     1
  9
$DIMSHO
 70
     1
  9
$DIMPOST
  1

  9
$DIMAPOST
  1

  9
$DIMALT
 70
     0
  9
$DIMALTD
 70
     3
  9
$DIMALTF
 40
0.0393700787
  9
$DIMLFAC
 40
1.0
  9
$DIMTOFL
 70
     1
  9
$DIMTVP
 40
0.0
  9
$DIMTIX
 70
     0
  9
$DIMSOXD
 70
     0
  9
$DIMSAH
 70
     0
  9
$DIMBLK1
  1

  9
$DIMBLK2
  1

  9
$DIMSTYLE
  2
ISO-25
  9
$DIMCLRD
 70
     0
  9
$DIMCLRE
 70
     0
  9
$DIMCLRT
 70
     0
  9
$DIMTFAC
 40
1.0
  9
$DIMGAP
 40
0.625
  9
$DIMJUST
 70
     0
  9
$DIMSD1
 70
     0
  9
$DIMSD2
 70
     0
  9
$DIMTOLJ
 70
     0
  9
$DIMTZIN
 70
     8
  9
$DIMALTZ
 70
     0
  9
$DIMALTTZ
 70
     0
  9
$DIMUPT
 70
     0
  9
$DIMDEC
 70
     2
  9
$DIMTDEC
 70
     2
  9
$DIMALTU
 70
     2
  9
$DIMALTTD
 70
     3
  9
$DIMTXSTY
  7
Standard
  9
$DIMAUNIT
 70
     0
  9
$DIMADEC
 70
     0
  9
$DIMALTRND
 40
0.0
  9
$DIMAZIN
 70
     0
  9
$DIMDSEP
 70
    44
  9
$DIMATFIT
 70
     3
  9
$DIMFRAC
 70
     0
  9
$DIMLDRBLK
  1

  9
$DIMLUNIT
 70
     2
  9
$DIMLWD
 70
    -2
  9
$DIMLWE
 70
    -2
  9
$DIMTMOVE
 70
     0
  9
$LUNITS
 70
     2
  9
$LUPREC
 70
     4
  9
$SKETCHINC
 40
1.0
  9
$FILLETRAD
 40
10.0
  9
$AUNITS
 70
     0
  9
$AUPREC
 70
     0
  9
$MENU
  1
.
  9
$ELEVATION
 40
0.0
  9
$PELEVATION
 40
0.0
  9
$THICKNESS
 40
0.0
  9
$LIMCHECK
 70
     0
  9
$CHAMFERA
 40
10.0
  9
$CHAMFERB
 40
10.0
  9
$CHAMFERC
 40
20.0
  9
$CHAMFERD
 40
0.0
  9
$SKPOLY
 70
     0
  9
$TDCREATE
 40
2455860.405411424
  9
$TDUCREATE
 40
2455860.32207809
  9
$TDUPDATE
 40
2455860.405411435
  9
$TDUUPDATE
 40
2455860.322078102
  9
$TDINDWG
 40
0.0000000116
  9
$TDUSRTIMER
 40
0.0000000116
  9
$USRTIMER
 70
     1
  9
$ANGBASE
 50
0.0
  9
$ANGDIR
 70
     0
  9
$PDMODE
 70
     0
  9
$PDSIZE
 40
0.0
  9
$PLINEWID
 40
0.0
  9
$SPLFRAME
 70
     0
  9
$SPLINETYPE
 70
     6
  9
$SPLINESEGS
 70
     8
  9
$HANDSEED
  5
F0
  9
$SURFTAB1
 70
     6
  9
$SURFTAB2
 70
     6
  9
$SURFTYPE
 70
     6
  9
$SURFU
 70
     6
  9
$SURFV
 70
     6
  9
$UCSBASE
  2

  9
$UCSNAME
  2

  9
$UCSORG
 10
0.0
 20
0.0
 30
0.0
  9
$UCSXDIR
 10
1.0
 20
0.0
 30
0.0
  9
$UCSYDIR
 10
0.0
 20
1.0
 30
0.0
  9
$UCSORTHOREF
  2

  9
$UCSORTHOVIEW
 70
     0
  9
$UCSORGTOP
 10
0.0
 20
0.0
 30
0.0
  9
$UCSORGBOTTOM
 10
0.0
 20
0.0
 30
0.0
  9
$UCSORGLEFT
 10
0.0
 20
0.0
 30
0.0
  9
$UCSORGRIGHT
 10
0.0
 20
0.0
 30
0.0
  9
$UCSORGFRONT
 10
0.0
 20
0.0
 30
0.0
  9
$UCSORGBACK
 10
0.0
 20
0.0
 30
0.0
  9
$PUCSBASE
  2

  9
$PUCSNAME
  2

  9
$PUCSORG
 10
0.0
 20
0.0
 30
0.0
  9
$PUCSXDIR
 10
1.0
 20
0.0
 30
0.0
  9
$PUCSYDIR
 10
0.0
 20
1.0
 30
0.0
  9
$PUCSORTHOREF
  2

  9
$PUCSORTHOVIEW
 70
     0
  9
$PUCSORGTOP
 10
0.0
 20
0.0
 30
0.0
  9
$PUCSORGBOTTOM
 10
0.0
 20
0.0
 30
0.0
  9
$PUCSORGLEFT
 10
0.0
 20
0.0
 30
0.0
  9
$PUCSORGRIGHT
 10
0.0
 20
0.0
 30
0.0
  9
$PUCSORGFRONT
 10
0.0
 20
0.0
 30
0.0
  9
$PUCSORGBACK
 10
0.0
 20
0.0
 30
0.0
  9
$USERI1
 70
     0
  9
$USERI2
 70
     0
  9
$USERI3
 70
     0
  9
$USERI4
 70
     0
  9
$USERI5
 70
     0
  9
$USERR1
 40
0.0
  9
$USERR2
 40
0.0
  9
$USERR3
 40
0.0
  9
$USERR4
 40
0.0
  9
$USERR5
 40
0.0
  9
$WORLDVIEW
 70
     1
  9
$SHADEDGE
 70
     3
  9
$SHADEDIF
 70
    70
  9
$TILEMODE
 70
     1
  9
$MAXACTVP
 70
    64
  9
$PINSBASE
 10
0.0
 20
0.0
 30
0.0
  9
$PLIMCHECK
 70
     0
  9
$PEXTMIN
 10
0.0
 20
0.0
 30
0.0
  9
$PEXTMAX
 10
3000.0
 20
4500.0
 30
0.0
  9
$PLIMMIN
 10
0.0
 20
0.0
  9
$PLIMMAX
 10
3000.0
 20
4500.0
  9
$UNITMODE
 70
     0
  9
$VISRETAIN
 70
     1
  9
$PLINEGEN
 70
     0
  9
$PSLTSCALE
 70
     1
  9
$TREEDEPTH
 70
  3020
  9
$CMLSTYLE
  2
Standard
  9
$CMLJUST
 70
     0
  9
$CMLSCALE
 40
20.0
  9
$PROXYGRAPHICS
 70
     1
  9
$MEASUREMENT
 70
     1
  9
$CELWEIGHT
370
    -1
  9
$ENDCAPS
280
     0
  9
$JOINSTYLE
280
     0
  9
$LWDISPLAY
290
     0
  9
$INSUNITS
 70
     4
  9
$HYPERLINKBASE
  1

  9
$STYLESHEET
  1

  9
$XEDIT
290
     1
  9
$CEPSNTYPE
380
     0
  9
$PSTYLEMODE
290
     1
  9
$FINGERPRINTGUID
  2
{AEDA205C-2F56-4AED-97E0-E5F3D43574CD}
  9
$VERSIONGUID
  2
{FAEB1C32-E019-11D5-929B-00C0DF256EC4}
  9
$EXTNAMES
290
     1
  9
$PSVPSCALE
 40
0.0
  9
$OLESTARTUP
290
     0
  0
ENDSEC
  0
SECTION
  2
CLASSES
  0
CLASS
  1
ACDBDICTIONARYWDFLT
  2
AcDbDictionaryWithDefault
  3
ObjectDBX Classes
 90
        0
280
     0
281
     0
  0
CLASS
  1
VISUALSTYLE
  2
AcDbVisualStyle
  3
ObjectDBX Classes
 90
     4095
280
     0
281
     0
  0
CLASS
  1
SCALE
  2
AcDbScale
  3
ObjectDBX Classes
 90
     1153
280
     0
281
     0
  0
CLASS
  1
DICTIONARYVAR
  2
AcDbDictionaryVar
  3
ObjectDBX Classes
 90
        0
280
     0
281
     0
  0
CLASS
  1
ACDBPLACEHOLDER
  2
AcDbPlaceHolder
  3
ObjectDBX Classes
 90
        0
280
     0
281
     0
  0
CLASS
  1
LAYOUT
  2
AcDbLayout
  3
ObjectDBX Classes
 90
        0
280
     0
281
     0
  0
ENDSEC
  0
SECTION
  2
TABLES
  0
TABLE
  2
VPORT
  5
8
330
0
100
AcDbSymbolTable
 70
     1
  0
VPORT
  5
29
330
8
100
AcDbSymbolTableRecord
100
AcDbViewportTableRecord
  2
*Active
 70
     0
 10
0.0
 20
0.0
 11
1.0
 21
1.0
 12
344.1869158879
 22
148.5
 13
0.0
 23
0.0
 14
10.0
 24
10.0
 15
10.0
 25
10.0
 16
0.0
 26
0.0
 36
1.0
 17
0.0
 27
0.0
 37
0.0
 40
297.0
 41
1.9729729729
 42
50.0
 43
0.0
 44
0.0
 50
0.0
 51
0.0
 71
     0
 72
   100
 73
     1
 74
     3
 75
     0
 76
     0
 77
     0
 78
     0
281
     0
 65
     1
110
0.0
120
0.0
130
0.0
111
1.0
121
0.0
131
0.0
112
0.0
122
1.0
132
0.0
 79
     0
146
0.0
  0
ENDTAB
  0
TABLE
  2
LTYPE
  5
5
330
0
100
AcDbSymbolTable
 70
     2
  0
LTYPE
  5
14
330
5
100
AcDbSymbolTableRecord
100
AcDbLinetypeTableRecord
  2
ByBlock
 70
     0
  3

 72
    65
 73
     0
 40
0.0
  0
LTYPE
  5
15
330
5
100
AcDbSymbolTableRecord
100
AcDbLinetypeTableRecord
  2
ByLayer
 70
     0
  3

 72
    65
 73
     0
 40
0.0
  0
LTYPE
  5
16
330
5
100
AcDbSymbolTableRecord
100
AcDbLinetypeTableRecord
  2
Continuous
 70
     0
  3
Solid line
 72
    65
 73
     0
 40
0.0
  0
LTYPE
  5
60
330
5
100
AcDbSymbolTableRecord
100
AcDbLinetypeTableRecord
  2
CENTER2
 70
     0
  3
Center (.5x) ___ _ ___ _ ___ _ ___ _ ___ _ ___
 72
    65
 73
     4
 40
28.575
 49
19.05
 74
     4
 75
     0
340
0
 46
0.0
 50
0.0
 44
0.0
 45
0.0
 49
-3.175
 74
     4
 75
     0
340
0
 46
0.0
 50
0.0
 44
0.0
 45
0.0
 49
3.175
 74
     4
 75
     0
340
0
 46
0.0
 50
0.0
 44
0.0
 45
0.0
 49
-3.175
 74
     4
 75
     0
340
0
 46
0.0
 50
0.0
 44
0.0
 45
0.0
  0
ENDTAB
  0
TABLE
  2
LAYER
  5
2
330
0
100
AcDbSymbolTable
 70
     5
  0
LAYER
  5
10
330
2
100
AcDbSymbolTableRecord
100
AcDbLayerTableRecord
  2
0
 70
     0
 62
     7
  6
Continuous
370
    -3
390
F
  0
LAYER
  5
5D
330
2
100
AcDbSymbolTableRecord
100
AcDbLayerTableRecord
  2
Default
 70
     0
 62
     7
  6
Continuous
370
    -3
390
F
  0
LAYER
  5
77
330
2
100
AcDbSymbolTableRecord
100
AcDbLayerTableRecord
  2
DV1_Default
 70
     0
 62
     7
  6
Continuous
370
    -3
390
F
  0
LAYER
  5
97
330
2
100
AcDbSymbolTableRecord
100
AcDbLayerTableRecord
  2
DV2_Default
 70
     0
 62
     7
  6
Continuous
370
    -3
390
F
  0
LAYER
  5
BD
330
2
100
AcDbSymbolTableRecord
100
AcDbLayerTableRecord
  2
DV3_Default
 70
     0
 62
     7
  6
Continuous
370
    -3
390
F
  0
ENDTAB
  0
TABLE
  2
STYLE
  5
3
330
0
100
AcDbSymbolTable
 70
     2
  0
STYLE
  5
11
330
3
100
AcDbSymbolTableRecord
100
AcDbTextStyleTableRecord
  2
Standard
 70
     0
 40
0.0
 41
1.0
 50
0.0
 71
     0
 42
2.5
  3
txt
  4

  0
STYLE
  5
DF
330
3
100
AcDbSymbolTableRecord
100
AcDbTextStyleTableRecord
  2
SEACAD_seiso_ttf
 70
     0
 40
0.0
 41
1.0
 50
0.0
 71
     0
 42
0.2
  3
seiso.ttf
  4

  0
ENDTAB
  0
TABLE
  2
VIEW
  5
6
330
0
100
AcDbSymbolTable
 70
     0
  0
ENDTAB
  0
TABLE
  2
UCS
  5
7
330
0
100
AcDbSymbolTable
 70
     0
  0
ENDTAB
  0
TABLE
  2
APPID
  5
9
330
0
100
AcDbSymbolTable
 70
     1
  0
APPID
  5
12
330
9
100
AcDbSymbolTableRecord
100
AcDbRegAppTableRecord
  2
ACAD
 70
     0
  0
ENDTAB
  0
TABLE
  2
DIMSTYLE
  5
A
330
0
100
AcDbSymbolTable
 70
     1
100
AcDbDimStyleTable
  0
DIMSTYLE
105
27
330
A
100
AcDbSymbolTableRecord
100
AcDbDimStyleTableRecord
  2
ISO-25
 70
     0
 41
2.5
 42
0.625
 43
3.75
 44
1.25
 73
     0
 74
     0
 77
     1
 78
     8
140
2.5
141
2.5
143
0.0393700787
147
0.625
171
     3
172
     1
271
     2
272
     2
274
     3
278
    44
283
     0
284
     8
340
11
  0
ENDTAB
  0
TABLE
  2
BLOCK_RECORD
  5
1
330
0
100
AcDbSymbolTable
 70
     7
  0
BLOCK_RECORD
  5
1F
330
1
100
AcDbSymbolTableRecord
100
AcDbBlockTableRecord
  2
*Model_Space
340
22
  0
BLOCK_RECORD
  5
1B
330
1
100
AcDbSymbolTableRecord
100
AcDbBlockTableRecord
  2
*Paper_Space
340
1E
  0
BLOCK_RECORD
  5
5E
330
1
100
AcDbSymbolTableRecord
100
AcDbBlockTableRecord
  2
SEANNOT_GROUP
340
0
102
{BLKREFS
331
5F
102
}
  0
BLOCK_RECORD
  5
69
330
1
100
AcDbSymbolTableRecord
100
AcDbBlockTableRecord
  2
SEANNOT_GROUP1
340
0
102
{BLKREFS
331
6A
102
}
  0
BLOCK_RECORD
  5
6F
330
1
100
AcDbSymbolTableRecord
100
AcDbBlockTableRecord
  2
SEANNOT_GROUP2
340
0
102
{BLKREFS
331
70
102
}
  0
BLOCK_RECORD
  5
75
330
1
100
AcDbSymbolTableRecord
100
AcDbBlockTableRecord
  2
SE
340
0
102
{BLKREFS
331
76
102
}
  0
BLOCK_RECORD
  5
95
330
1
100
AcDbSymbolTableRecord
100
AcDbBlockTableRecord
  2
SE1
340
0
102
{BLKREFS
331
96
102
}
  0
BLOCK_RECORD
  5
BB
330
1
100
AcDbSymbolTableRecord
100
AcDbBlockTableRecord
  2
SE2
340
0
102
{BLKREFS
331
BC
102
}
  0
ENDTAB
  0
ENDSEC
  0
SECTION
  2
BLOCKS
  0
BLOCK
  5
20
330
1F
100
AcDbEntity
  8
0
100
AcDbBlockBegin
  2
*Model_Space
 70
     0
 10
0.0
 20
0.0
 30
0.0
  3
*Model_Space
  1

  0
ENDBLK
  5
21
330
1F
100
AcDbEntity
  8
0
100
AcDbBlockEnd
  0
BLOCK
  5
1C
330
1B
100
AcDbEntity
 67
     1
  8
0
100
AcDbBlockBegin
  2
*Paper_Space
 70
     0
 10
0.0
 20
0.0
 30
0.0
  3
*Paper_Space
  1

  0
ENDBLK
  5
1D
330
1B
100
AcDbEntity
 67
     1
  8
0
100
AcDbBlockEnd
  0
BLOCK
  5
67
330
5E
100
AcDbEntity
  8
0
100
AcDbBlockBegin
  2
SEANNOT_GROUP
 70
     0
 10
0.0
 20
0.0
 30
0.0
  3
SEANNOT_GROUP
  1

  0
LINE
  5
61
330
5E
100
AcDbEntity
  8
Default
  6
CENTER2
 62
     7
100
AcDbLine
 10
131.099999553
 20
469.9393979085
 30
0.0
 11
91.100000447
 21
469.9393979085
 31
0.0
  0
LINE
  5
62
330
5E
100
AcDbEntity
  8
Default
  6
CENTER2
 62
     7
100
AcDbLine
 10
111.1
 20
489.9393974614
 30
0.0
 11
111.1
 21
449.9393983555
 31
0.0
  0
LINE
  5
63
330
5E
100
AcDbEntity
  8
Default
  6
CENTER2
 62
     7
100
AcDbLine
 10
136.0999994412
 20
469.9393979085
 30
0.0
 11
141.6
 21
469.9393979085
 31
0.0
  0
LINE
  5
64
330
5E
100
AcDbEntity
  8
Default
  6
CENTER2
 62
     7
100
AcDbLine
 10
111.1
 20
494.9393973497
 30
0.0
 11
111.1
 21
500.4393979085
 31
0.0
  0
LINE
  5
65
330
5E
100
AcDbEntity
  8
Default
  6
CENTER2
 62
     7
100
AcDbLine
 10
86.1000005588
 20
469.9393979085
 30
0.0
 11
80.6
 21
469.9393979085
 31
0.0
  0
LINE
  5
66
330
5E
100
AcDbEntity
  8
Default
  6
CENTER2
 62
     7
100
AcDbLine
 10
111.1
 20
444.9393984673
 30
0.0
 11
111.1
 21
439.4393979085
 31
0.0
  0
ENDBLK
  5
68
330
5E
100
AcDbEntity
  8
0
100
AcDbBlockEnd
  0
BLOCK
  5
6D
330
69
100
AcDbEntity
  8
0
100
AcDbBlockBegin
  2
SEANNOT_GROUP1
 70
     0
 10
0.0
 20
0.0
 30
0.0
  3
SEANNOT_GROUP1
  1

  0
LINE
  5
6B
330
69
100
AcDbEntity
  8
Default
  6
CENTER2
 62
     7
100
AcDbLine
 10
336.826963856
 20
469.9393979085
 30
0.0
 11
296.8269647501
 21
469.9393979085
 31
0.0
  0
LINE
  5
6C
330
69
100
AcDbEntity
  8
Default
  6
CENTER2
 62
     7
100
AcDbLine
 10
316.826964303
 20
489.9393974614
 30
0.0
 11
316.826964303
 21
449.9393983555
 31
0.0
  0
ENDBLK
  5
6E
330
69
100
AcDbEntity
  8
0
100
AcDbBlockEnd
  0
BLOCK
  5
73
330
6F
100
AcDbEntity
  8
0
100
AcDbBlockBegin
  2
SEANNOT_GROUP2
 70
     0
 10
0.0
 20
0.0
 30
0.0
  3
SEANNOT_GROUP2
  1

  0
LINE
  5
71
330
6F
100
AcDbEntity
  8
Default
  6
CENTER2
 62
     7
100
AcDbLine
 10
131.099999553
 20
164.6290570165
 30
0.0
 11
91.100000447
 21
164.6290570165
 31
0.0
  0
LINE
  5
72
330
6F
100
AcDbEntity
  8
Default
  6
CENTER2
 62
     7
100
AcDbLine
 10
111.1
 20
184.6290565695
 30
0.0
 11
111.1
 21
144.6290574635
 31
0.0
  0
ENDBLK
  5
74
330
6F
100
AcDbEntity
  8
0
100
AcDbBlockEnd
  0
BLOCK
  5
93
330
75
100
AcDbEntity
  8
0
100
AcDbBlockBegin
  2
SE
 70
     0
 10
0.0
 20
0.0
 30
0.0
  3
SE
  1

  0
ARC
  5
78
330
75
100
AcDbEntity
  8
DV1_Default
  6
Continuous
 62
     7
100
AcDbCircle
 10
111.1
 20
370.3560213195
 30
0.0
 40
95.25
100
AcDbArc
 50
180.0
 51
83.9735890465
  0
ARC
  5
79
330
75
100
AcDbEntity
  8
DV1_Default
  6
Continuous
 62
     7
100
AcDbCircle
 10
111.1
 20
370.3560213195
 30
0.0
 40
95.25
100
AcDbArc
 50
96.0264109446
 51
180.0
  0
ARC
  5
7A
330
75
100
AcDbEntity
  8
DV1_Default
  6
Continuous
 62
     7
100
AcDbCircle
 10
111.1
 20
370.3560213195
 30
0.0
 40
104.75
100
AcDbArc
 50
95.478107091
 51
0.0
  0
ARC
  5
7B
330
75
100
AcDbEntity
  8
DV1_Default
  6
Continuous
 62
     7
100
AcDbCircle
 10
111.1
 20
370.3560213195
 30
0.0
 40
104.75
100
AcDbArc
 50
0.0
 51
84.5218929009
  0
LINE
  5
7C
330
75
100
AcDbEntity
  8
DV1_Default
  6
Continuous
 62
     7
100
AcDbLine
 10
109.0999999437
 20
442.9393976365
 30
0.0
 11
113.1000000563
 21
442.9393976365
 31
0.0
  0
LINE
  5
7D
330
75
100
AcDbEntity
  8
DV1_Default
  6
Continuous
 62
     7
100
AcDbLine
 10
109.0197419783
 20
443.0196555887
 30
0.0
 11
109.0999999437
 21
442.9393976365
 31
0.0
  0
LINE
  5
7E
330
75
100
AcDbEntity
  8
DV1_Default
  6
Continuous
 62
     7
100
AcDbLine
 10
113.1000000563
 20
442.9393976365
 30
0.0
 11
113.1802580217
 21
443.0196555887
 31
0.0
  0
ARC
  5
7F
330
75
100
AcDbEntity
  8
DV1_Default
  6
Continuous
 62
     7
100
AcDbCircle
 10
111.1
 20
469.9393979085
 30
0.0
 40
27.0
100
AcDbArc
 50
3.4831870022
 51
176.5168129978
  0
ARC
  5
80
330
75
100
AcDbEntity
  8
DV1_Default
  6
Continuous
 62
     7
100
AcDbCircle
 10
111.1
 20
469.9393979085
 30
0.0
 40
27.0
100
AcDbArc
 50
197.0117755179
 51
342.9882244821
  0
SPLINE
  5
81
330
75
100
AcDbEntity
  8
DV1_Default
  6
Continuous
 62
     7
100
AcDbSpline
210
0.0
220
0.0
230
1.0
 70
     8
 71
     2
 72
    20
 73
    17
 74
     0
 42
0.0000000002557617
 43
0.0000000001
 40
0.0
 40
0.0
 40
0.0
 40
0.1309645093764331
 40
0.1309645093764331
 40
0.2619290187528662
 40
0.2619290187528662
 40
0.3928935281292992
 40
0.3928935281292992
 40
0.5238580375057323
 40
0.5238580375057323
 40
0.6548225468821655
 40
0.6548225468821655
 40
0.7857870562585985
 40
0.7857870562585985
 40
0.9167515656350316
 40
0.9167515656350316
 40
1.0
 40
1.0
 40
1.0
 10
111.1
 20
495.9393979084575
 30
0.0
 10
108.5389564281468
 20
495.9392895566139
 30
0.0
 10
106.0276516275807
 20
495.4398151989414
 30
0.0
 10
103.5166086096259
 20
494.9403929073111
 30
0.0
 10
101.1502307585077
 20
493.9602657537509
 30
0.0
 10
98.78486918375981
 20
492.98055953046
 30
0.0
 10
96.65517394149039
 20
491.5576078283237
 30
0.0
 10
94.52639332871301
 20
490.1352672340898
 30
0.0
 10
92.71522368914977
 20
488.3241742193077
 30
0.0
 10
90.90483188347821
 20
486.5138590055096
 30
0.0
 10
89.48179008013382
 20
484.3842239669671
 30
0.0
 10
88.05935942337493
 20
482.2555035320428
 30
0.0
 10
87.07913215470657
 20
479.8891671499498
 30
0.0
 10
86.09932585929248
 20
477.5238470263913
 30
0.0
 10
85.59958270951603
 20
475.0117462808768
 30
0.0
 10
85.28205418180859
 20
473.4155990369721
 30
0.0
 10
85.16634281630748
 20
471.7991257609712
 30
0.0
  0
SPLINE
  5
82
330
75
100
AcDbEntity
  8
DV1_Default
  6
Continuous
 62
     7
100
AcDbSpline
210
0.0
220
0.0
230
1.0
 70
     8
 71
     2
 72
    18
 73
    15
 74
     0
 42
0.0000000003020197
 43
0.0000000001
 40
0.0
 40
0.0
 40
0.0
 40
0.0720669051349081
 40
0.0720669051349081
 40
0.2267224209457568
 40
0.2267224209457568
 40
0.3813779367566054
 40
0.3813779367566054
 40
0.536033452567454
 40
0.536033452567454
 40
0.6906889683783026
 40
0.6906889683783026
 40
0.8453444841891513
 40
0.8453444841891513
 40
0.9999999999999999
 40
0.9999999999999999
 40
0.9999999999999999
 10
86.27006667581908
 20
462.2264269958245
 30
0.0
 10
86.62240915826796
 20
461.0923214950772
 30
0.0
 10
87.07913215470657
 20
459.9896286669651
 30
0.0
 10
88.05883837801062
 20
457.6242670921854
 30
0.0
 10
89.48179008013382
 20
455.4945718499478
 30
0.0
 10
90.90413067439198
 20
453.3657912371461
 30
0.0
 10
92.71522368914977
 20
451.5546215976073
 30
0.0
 10
94.52553890294787
 20
449.7442297919357
 30
0.0
 10
96.65517394149036
 20
448.3211879885912
 30
0.0
 10
98.78389437638292
 20
446.8987573318536
 30
0.0
 10
101.1502307585077
 20
445.918530063164
 30
0.0
 10
103.5155508820287
 20
444.9387237677573
 30
0.0
 10
106.0276516275807
 20
444.4389806179735
 30
0.0
 10
108.5384010952108
 20
443.9395062837958
 30
0.0
 10
111.1
 20
443.9393979084575
 30
0.0
  0
SPLINE
  5
83
330
75
100
AcDbEntity
  8
DV1_Default
  6
Continuous
 62
     7
100
AcDbSpline
210
0.0
220
0.0
230
1.0
 70
     8
 71
     2
 72
    18
 73
    15
 74
     0
 42
0.0000000003016365
 43
0.0000000001
 40
0.0
 40
0.0
 40
0.0
 40
0.1544561944171875
 40
0.1544561944171875
 40
0.308912388834375
 40
0.308912388834375
 40
0.4633685832515625
 40
0.4633685832515625
 40
0.61782477766875
 40
0.61782477766875
 40
0.7722809720859375
 40
0.7722809720859375
 40
0.926737166503125
 40
0.926737166503125
 40
1.0
 40
1.0
 40
1.0
 10
111.1
 20
443.9393979084575
 30
0.0
 10
113.6610435718532
 20
443.939506260301
 30
0.0
 10
116.1723483724193
 20
444.4389806179735
 30
0.0
 10
118.6833913903741
 20
444.9384029096038
 30
0.0
 10
121.0497692414924
 20
445.918530063164
 30
0.0
 10
123.4151308162402
 20
446.8982362864549
 30
0.0
 10
125.5448260585097
 20
448.3211879885912
 30
0.0
 10
127.673606671287
 20
449.7435285828251
 30
0.0
 10
129.4847763108503
 20
451.5546215976073
 30
0.0
 10
131.2951681165218
 20
453.3649368114053
 30
0.0
 10
132.7182099198662
 20
455.4945718499478
 30
0.0
 10
134.1406405766251
 20
457.6232922848722
 30
0.0
 10
135.1208678452935
 20
459.9896286669651
 30
0.0
 10
135.5856169979641
 20
461.1115652460253
 30
0.0
 10
135.9423583484788
 20
462.266525506492
 30
0.0
  0
SPLINE
  5
84
330
75
100
AcDbEntity
  8
DV1_Default
  6
Continuous
 62
     7
100
AcDbSpline
210
0.0
220
0.0
230
1.0
 70
     8
 71
     2
 72
    20
 73
    17
 74
     0
 42
0.0000000002556103
 43
0.0000000001
 40
0.0
 40
0.0
 40
0.0
 40
0.0837791482141811
 40
0.0837791482141811
 40
0.2146678413264409
 40
0.2146678413264409
 40
0.3455565344387008
 40
0.3455565344387008
 40
0.4764452275509606
 40
0.4764452275509606
 40
0.6073339206632205
 40
0.6073339206632205
 40
0.7382226137754803
 40
0.7382226137754803
 40
0.8691113068877401
 40
0.8691113068877401
 40
1.0
 40
1.0
 40
1.0
 10
137.035307569919
 20
471.7761231166187
 30
0.0
 10
136.92022452696
 20
473.4037889635615
 30
0.0
 10
136.600417290484
 20
475.0117462808768
 30
0.0
 10
136.1009949988692
 20
477.522789298794
 30
0.0
 10
135.1208678452935
 20
479.8891671499498
 30
0.0
 10
134.1411616219894
 20
482.2545287247295
 30
0.0
 10
132.7182099198662
 20
484.3842239669671
 30
0.0
 10
131.2958693256081
 20
486.5130045797688
 30
0.0
 10
129.4847763108503
 20
488.3241742193077
 30
0.0
 10
127.6744610970522
 20
490.1345660249793
 30
0.0
 10
125.5448260585097
 20
491.5576078283237
 30
0.0
 10
123.4161056236171
 20
492.9800384850614
 30
0.0
 10
121.0497692414924
 20
493.9602657537509
 30
0.0
 10
118.6844491179713
 20
494.9400720491575
 30
0.0
 10
116.1723483724194
 20
495.4398151989414
 30
0.0
 10
113.6615989047892
 20
495.9392895331191
 30
0.0
 10
111.1
 20
495.9393979084575
 30
0.0
  0
SPLINE
  5
85
330
75
100
AcDbEntity
  8
DV1_Default
  6
Continuous
 62
     7
100
AcDbSpline
210
0.0
220
0.0
230
1.0
 70
     8
 71
     2
 72
    20
 73
    17
 74
     0
 42
0.0000000002557617
 43
0.0000000001
 40
0.0
 40
0.0
 40
0.0
 40
0.1309645093764331
 40
0.1309645093764331
 40
0.2619290187528662
 40
0.2619290187528662
 40
0.3928935281292992
 40
0.3928935281292992
 40
0.5238580375057323
 40
0.5238580375057323
 40
0.6548225468821655
 40
0.6548225468821655
 40
0.7857870562585985
 40
0.7857870562585985
 40
0.9167515656350316
 40
0.9167515656350316
 40
1.0
 40
1.0
 40
1.0
 10
111.1
 20
495.9393979084575
 30
0.0
 10
108.5389564281468
 20
495.9392895566139
 30
0.0
 10
106.0276516275807
 20
495.4398151989414
 30
0.0
 10
103.5166086096259
 20
494.9403929073111
 30
0.0
 10
101.1502307585077
 20
493.9602657537509
 30
0.0
 10
98.78486918375981
 20
492.98055953046
 30
0.0
 10
96.65517394149039
 20
491.5576078283237
 30
0.0
 10
94.52639332871301
 20
490.1352672340898
 30
0.0
 10
92.71522368914977
 20
488.3241742193077
 30
0.0
 10
90.90483188347821
 20
486.5138590055096
 30
0.0
 10
89.48179008013382
 20
484.3842239669671
 30
0.0
 10
88.05935942337493
 20
482.2555035320428
 30
0.0
 10
87.07913215470657
 20
479.8891671499498
 30
0.0
 10
86.09932585929248
 20
477.5238470263913
 30
0.0
 10
85.59958270951603
 20
475.0117462808768
 30
0.0
 10
85.28205418180859
 20
473.4155990369721
 30
0.0
 10
85.16634281630748
 20
471.7991257609712
 30
0.0
  0
SPLINE
  5
86
330
75
100
AcDbEntity
  8
DV1_Default
  6
Continuous
 62
     7
100
AcDbSpline
210
0.0
220
0.0
230
1.0
 70
     8
 71
     2
 72
    18
 73
    15
 74
     0
 42
0.0000000003020197
 43
0.0000000001
 40
0.0
 40
0.0
 40
0.0
 40
0.0720669051349081
 40
0.0720669051349081
 40
0.2267224209457568
 40
0.2267224209457568
 40
0.3813779367566054
 40
0.3813779367566054
 40
0.536033452567454
 40
0.536033452567454
 40
0.6906889683783026
 40
0.6906889683783026
 40
0.8453444841891513
 40
0.8453444841891513
 40
0.9999999999999999
 40
0.9999999999999999
 40
0.9999999999999999
 10
86.27006667581908
 20
462.2264269958245
 30
0.0
 10
86.62240915826796
 20
461.0923214950772
 30
0.0
 10
87.07913215470657
 20
459.9896286669651
 30
0.0
 10
88.05883837801062
 20
457.6242670921854
 30
0.0
 10
89.48179008013382
 20
455.4945718499478
 30
0.0
 10
90.90413067439198
 20
453.3657912371461
 30
0.0
 10
92.71522368914977
 20
451.5546215976073
 30
0.0
 10
94.52553890294787
 20
449.7442297919357
 30
0.0
 10
96.65517394149036
 20
448.3211879885912
 30
0.0
 10
98.78389437638292
 20
446.8987573318536
 30
0.0
 10
101.1502307585077
 20
445.918530063164
 30
0.0
 10
103.5155508820287
 20
444.9387237677573
 30
0.0
 10
106.0276516275807
 20
444.4389806179735
 30
0.0
 10
108.5384010952108
 20
443.9395062837958
 30
0.0
 10
111.1
 20
443.9393979084575
 30
0.0
  0
SPLINE
  5
87
330
75
100
AcDbEntity
  8
DV1_Default
  6
Continuous
 62
     7
100
AcDbSpline
210
0.0
220
0.0
230
1.0
 70
     8
 71
     2
 72
    18
 73
    15
 74
     0
 42
0.0000000003016365
 43
0.0000000001
 40
0.0
 40
0.0
 40
0.0
 40
0.1544561944171875
 40
0.1544561944171875
 40
0.308912388834375
 40
0.308912388834375
 40
0.4633685832515625
 40
0.4633685832515625
 40
0.61782477766875
 40
0.61782477766875
 40
0.7722809720859375
 40
0.7722809720859375
 40
0.926737166503125
 40
0.926737166503125
 40
1.0
 40
1.0
 40
1.0
 10
111.1
 20
443.9393979084575
 30
0.0
 10
113.6610435718532
 20
443.939506260301
 30
0.0
 10
116.1723483724193
 20
444.4389806179735
 30
0.0
 10
118.6833913903741
 20
444.9384029096038
 30
0.0
 10
121.0497692414924
 20
445.918530063164
 30
0.0
 10
123.4151308162402
 20
446.8982362864549
 30
0.0
 10
125.5448260585097
 20
448.3211879885912
 30
0.0
 10
127.673606671287
 20
449.7435285828251
 30
0.0
 10
129.4847763108503
 20
451.5546215976073
 30
0.0
 10
131.2951681165218
 20
453.3649368114053
 30
0.0
 10
132.7182099198662
 20
455.4945718499478
 30
0.0
 10
134.1406405766251
 20
457.6232922848722
 30
0.0
 10
135.1208678452935
 20
459.9896286669651
 30
0.0
 10
135.5856169979641
 20
461.1115652460253
 30
0.0
 10
135.9423583484788
 20
462.266525506492
 30
0.0
  0
SPLINE
  5
88
330
75
100
AcDbEntity
  8
DV1_Default
  6
Continuous
 62
     7
100
AcDbSpline
210
0.0
220
0.0
230
1.0
 70
     8
 71
     2
 72
    20
 73
    17
 74
     0
 42
0.0000000002556103
 43
0.0000000001
 40
0.0
 40
0.0
 40
0.0
 40
0.0837791482141811
 40
0.0837791482141811
 40
0.2146678413264409
 40
0.2146678413264409
 40
0.3455565344387008
 40
0.3455565344387008
 40
0.4764452275509606
 40
0.4764452275509606
 40
0.6073339206632205
 40
0.6073339206632205
 40
0.7382226137754803
 40
0.7382226137754803
 40
0.8691113068877401
 40
0.8691113068877401
 40
1.0
 40
1.0
 40
1.0
 10
137.035307569919
 20
471.7761231166187
 30
0.0
 10
136.92022452696
 20
473.4037889635615
 30
0.0
 10
136.600417290484
 20
475.0117462808768
 30
0.0
 10
136.1009949988692
 20
477.522789298794
 30
0.0
 10
135.1208678452935
 20
479.8891671499498
 30
0.0
 10
134.1411616219894
 20
482.2545287247295
 30
0.0
 10
132.7182099198662
 20
484.3842239669671
 30
0.0
 10
131.2958693256081
 20
486.5130045797688
 30
0.0
 10
129.4847763108503
 20
488.3241742193077
 30
0.0
 10
127.6744610970522
 20
490.1345660249793
 30
0.0
 10
125.5448260585097
 20
491.5576078283237
 30
0.0
 10
123.4161056236171
 20
492.9800384850614
 30
0.0
 10
121.0497692414924
 20
493.9602657537509
 30
0.0
 10
118.6844491179713
 20
494.9400720491575
 30
0.0
 10
116.1723483724194
 20
495.4398151989414
 30
0.0
 10
113.6615989047892
 20
495.9392895331191
 30
0.0
 10
111.1
 20
495.9393979084575
 30
0.0
  0
LINE
  5
89
330
75
100
AcDbEntity
  8
DV1_Default
  6
Continuous
 62
     7
100
AcDbLine
 10
121.1000008027
 20
476.7393979154
 30
0.0
 11
121.1000008027
 21
463.1393979016
 31
0.0
  0
LINE
  5
8A
330
75
100
AcDbEntity
  8
DV1_Default
  6
Continuous
 62
     7
100
AcDbLine
 10
120.8999991727
 20
476.9393979085
 30
0.0
 11
120.8999991727
 21
462.9393979085
 31
0.0
  0
LINE
  5
8B
330
75
100
AcDbEntity
  8
DV1_Default
  6
Continuous
 62
     7
100
AcDbLine
 10
101.3000010183
 20
476.9393979085
 30
0.0
 11
101.3000010183
 21
462.9393979085
 31
0.0
  0
LINE
  5
8C
330
75
100
AcDbEntity
  8
DV1_Default
  6
Continuous
 62
     7
100
AcDbLine
 10
101.0999992121
 20
476.7393977168
 30
0.0
 11
101.0999992121
 21
463.1393981002
 31
0.0
  0
LINE
  5
8D
330
75
100
AcDbEntity
  8
DV1_Default
  6
Continuous
 62
     7
100
AcDbLine
 10
120.8999991727
 20
462.9393979085
 30
0.0
 11
121.1000008027
 21
463.1393979016
 31
0.0
  0
LINE
  5
8E
330
75
100
AcDbEntity
  8
DV1_Default
  6
Continuous
 62
     7
100
AcDbLine
 10
121.1000008027
 20
476.7393979154
 30
0.0
 11
120.8999991727
 21
476.9393979085
 31
0.0
  0
LINE
  5
8F
330
75
100
AcDbEntity
  8
DV1_Default
  6
Continuous
 62
     7
100
AcDbLine
 10
120.8999991727
 20
476.9393979085
 30
0.0
 11
101.3000010183
 21
476.9393979085
 31
0.0
  0
LINE
  5
90
330
75
100
AcDbEntity
  8
DV1_Default
  6
Continuous
 62
     7
100
AcDbLine
 10
101.3000010183
 20
462.9393979085
 30
0.0
 11
120.8999991727
 21
462.9393979085
 31
0.0
  0
LINE
  5
91
330
75
100
AcDbEntity
  8
DV1_Default
  6
Continuous
 62
     7
100
AcDbLine
 10
101.3000010183
 20
476.9393979085
 30
0.0
 11
101.0999992121
 21
476.7393977168
 31
0.0
  0
LINE
  5
92
330
75
100
AcDbEntity
  8
DV1_Default
  6
Continuous
 62
     7
100
AcDbLine
 10
101.0999992121
 20
463.1393981002
 30
0.0
 11
101.3000010183
 21
462.9393979085
 31
0.0
  0
ENDBLK
  5
94
330
75
100
AcDbEntity
  8
0
100
AcDbBlockEnd
  0
BLOCK
  5
B9
330
95
100
AcDbEntity
  8
0
100
AcDbBlockBegin
  2
SE1
 70
     0
 10
0.0
 20
0.0
 30
0.0
  3
SE1
  1

  0
ARC
  5
98
330
95
100
AcDbEntity
  8
DV2_Default
  6
Continuous
 62
     7
100
AcDbCircle
 10
368.1060213195
 20
270.3560213195
 30
0.0
 40
4.750000000000004
100
AcDbArc
 50
180.0
 51
0.0
  0
LINE
  5
99
330
95
100
AcDbEntity
  8
DV2_Default
  6
Continuous
 62
     7
100
AcDbLine
 10
363.3560213195
 20
469.9393979085
 30
0.0
 11
363.3560213195
 21
270.3560213195
 31
0.0
  0
LINE
  5
9A
330
95
100
AcDbEntity
  8
DV2_Default
  6
Continuous
 62
     7
100
AcDbLine
 10
372.8560213195
 20
270.3560213195
 30
0.0
 11
372.8560213195
 21
469.9393979085
 31
0.0
  0
ARC
  5
9B
330
95
100
AcDbEntity
  8
DV2_Default
  6
Continuous
 62
     7
100
AcDbCircle
 10
368.1060213195
 20
469.9393979085
 30
0.0
 40
6.0
100
AcDbArc
 50
0.0
 51
217.6584620062
  0
ARC
  5
9C
330
95
100
AcDbEntity
  8
DV2_Default
  6
Continuous
 62
     7
100
AcDbCircle
 10
368.1060213195
 20
469.9393979085
 30
0.0
 40
6.0
100
AcDbArc
 50
322.3415379938
 51
0.0
  0
CIRCLE
  5
9D
330
95
100
AcDbEntity
  8
DV2_Default
  6
Continuous
 62
     7
100
AcDbCircle
 10
368.1060213195
 20
469.9393979085
 30
0.0
 40
4.75
  0
LINE
  5
9E
330
95
100
AcDbEntity
  8
DV2_Default
  6
Continuous
 62
     7
100
AcDbLine
 10
318.8269642467
 20
442.9393976365
 30
0.0
 11
322.8269643593
 21
442.9393976365
 31
0.0
  0
LINE
  5
9F
330
95
100
AcDbEntity
  8
DV2_Default
  6
Continuous
 62
     7
100
AcDbLine
 10
318.7781237683
 20
442.9882381069
 30
0.0
 11
318.8269642467
 21
442.9393976365
 31
0.0
  0
LINE
  5
A0
330
95
100
AcDbEntity
  8
DV2_Default
  6
Continuous
 62
     7
100
AcDbLine
 10
322.8269643593
 20
442.9393976365
 30
0.0
 11
322.8758075084
 21
442.9882407776
 31
0.0
  0
LINE
  5
A1
330
95
100
AcDbEntity
  8
DV2_Default
  6
Continuous
 62
     7
100
AcDbLine
 10
316.826964303
 20
496.9393979085
 30
0.0
 11
316.826964303
 21
442.9393979085
 31
0.0
  0
ARC
  5
A2
330
95
100
AcDbEntity
  8
DV2_Default
  6
Continuous
 62
     7
100
AcDbCircle
 10
320.8348804071
 20
416.9108535867
 30
0.0
 40
26.15892158360272
100
AcDbArc
 50
90.0173384563
 51
95.7217216732
  0
ARC
  5
A3
330
95
100
AcDbEntity
  8
DV2_Default
  6
Continuous
 62
     7
100
AcDbCircle
 10
320.8195758995
 20
416.9211943244
 30
0.0
 40
26.14858069198381
100
AcDbArc
 50
84.277168216
 51
89.9838106552
  0
LINE
  5
A4
330
95
100
AcDbEntity
  8
DV2_Default
  6
Continuous
 62
     7
100
AcDbLine
 10
326.826964303
 20
443.9393979085
 30
0.0
 11
326.826964303
 21
495.9393979085
 31
0.0
  0
LINE
  5
A5
330
95
100
AcDbEntity
  8
DV2_Default
  6
Continuous
 62
     7
100
AcDbLine
 10
325.826964303
 20
496.9393979085
 30
0.0
 11
316.826964303
 21
496.9393979085
 31
0.0
  0
LINE
  5
A6
330
95
100
AcDbEntity
  8
DV2_Default
  6
Continuous
 62
     7
100
AcDbLine
 10
323.4270146056
 20
442.9393979085
 30
0.0
 11
325.826964303
 21
442.9393979085
 31
0.0
  0
LINE
  5
A7
330
95
100
AcDbEntity
  8
DV2_Default
  6
Continuous
 62
     7
100
AcDbLine
 10
316.826964303
 20
442.9393979085
 30
0.0
 11
318.2269148517
 21
442.9393979085
 31
0.0
  0
ARC
  5
A8
330
95
100
AcDbEntity
  8
DV2_Default
  6
Continuous
 62
     7
100
AcDbCircle
 10
325.826964303
 20
495.9393979085
 30
0.0
 40
0.9999999999999991
100
AcDbArc
 50
0.0
 51
90.0
  0
ARC
  5
A9
330
95
100
AcDbEntity
  8
DV2_Default
  6
Continuous
 62
     7
100
AcDbCircle
 10
325.826964303
 20
443.9393979085
 30
0.0
 40
1.000000000000001
100
AcDbArc
 50
270.0
 51
0.0
  0
LINE
  5
AA
330
95
100
AcDbEntity
  8
DV2_Default
  6
Continuous
 62
     7
100
AcDbLine
 10
352.3574568304
 20
464.1893979085
 30
0.0
 11
352.3574568304
 21
475.6893979085
 31
0.0
  0
LINE
  5
AB
330
95
100
AcDbEntity
  8
DV2_Default
  6
Continuous
 62
     7
100
AcDbLine
 10
353.2882644196
 20
464.2768021411
 30
0.0
 11
362.3269643699
 21
465.9893979211
 31
0.0
  0
LINE
  5
AC
330
95
100
AcDbEntity
  8
DV2_Default
  6
Continuous
 62
     7
100
AcDbLine
 10
362.3269642399
 20
473.8893979204
 30
0.0
 11
353.2882644196
 21
475.6019936758
 31
0.0
  0
ARC
  5
AD
330
95
100
AcDbEntity
  8
DV2_Default
  6
Continuous
 62
     7
100
AcDbCircle
 10
352.3574567992
 20
469.1893979084
 30
0.0
 40
4.999999999919232
100
AcDbArc
 50
270.0000003573
 51
280.728859313
  0
ARC
  5
AE
330
95
100
AcDbEntity
  8
DV2_Default
  6
Continuous
 62
     7
100
AcDbCircle
 10
352.3574567992
 20
470.6893979085
 30
0.0
 40
4.999999999919123
100
AcDbArc
 50
79.271140687
 51
89.9999996427
  0
LINE
  5
AF
330
95
100
AcDbEntity
  8
DV2_Default
  6
Continuous
 62
     7
100
AcDbLine
 10
326.826964303
 20
464.1893979085
 30
0.0
 11
352.3574568304
 21
464.1893979085
 31
0.0
  0
LINE
  5
B0
330
95
100
AcDbEntity
  8
DV2_Default
  6
Continuous
 62
     7
100
AcDbLine
 10
352.3574568304
 20
475.6893979085
 30
0.0
 11
326.826964303
 21
475.6893979085
 31
0.0
  0
ARC
  5
B1
330
95
100
AcDbEntity
  8
DV2_Default
  6
Continuous
 62
     7
100
AcDbCircle
 10
368.1060213195
 20
469.9393979085
 30
0.0
 40
6.05
100
AcDbArc
 50
0.0
 51
218.2678548582
  0
ARC
  5
B2
330
95
100
AcDbEntity
  8
DV2_Default
  6
Continuous
 62
     7
100
AcDbCircle
 10
368.1060213195
 20
469.9393979085
 30
0.0
 40
6.05
100
AcDbArc
 50
321.7321451418
 51
0.0
  0
ARC
  5
B3
330
95
100
AcDbEntity
  8
DV2_Default
  6
Continuous
 62
     7
100
AcDbCircle
 10
368.1060213195
 20
469.9393979085
 30
0.0
 40
6.250001543980001
100
AcDbArc
 50
0.0
 51
220.5358186628
  0
ARC
  5
B4
330
95
100
AcDbEntity
  8
DV2_Default
  6
Continuous
 62
     7
100
AcDbCircle
 10
368.1060213195
 20
469.9393979085
 30
0.0
 40
6.250001543980001
100
AcDbArc
 50
319.4641813372
 51
0.0
  0
ARC
  5
B5
330
95
100
AcDbEntity
  8
DV2_Default
  6
Continuous
 62
     7
100
AcDbCircle
 10
368.1060213195
 20
469.9393979085
 30
0.0
 40
7.0
100
AcDbArc
 50
0.0
 51
227.2678899574
  0
ARC
  5
B6
330
95
100
AcDbEntity
  8
DV2_Default
  6
Continuous
 62
     7
100
AcDbCircle
 10
368.1060213195
 20
469.9393979085
 30
0.0
 40
7.0
100
AcDbArc
 50
312.7321100426
 51
0.0
  0
ARC
  5
B7
330
95
100
AcDbEntity
  8
DV2_Default
  6
Continuous
 62
     7
100
AcDbCircle
 10
368.1060213195
 20
469.9393979085
 30
0.0
 40
6.799999808304
100
AcDbArc
 50
0.0
 51
225.6908611695
  0
ARC
  5
B8
330
95
100
AcDbEntity
  8
DV2_Default
  6
Continuous
 62
     7
100
AcDbCircle
 10
368.1060213195
 20
469.9393979085
 30
0.0
 40
6.799999808304
100
AcDbArc
 50
314.3091388305
 51
0.0
  0
ENDBLK
  5
BA
330
95
100
AcDbEntity
  8
0
100
AcDbBlockEnd
  0
BLOCK
  5
DD
330
BB
100
AcDbEntity
  8
0
100
AcDbBlockBegin
  2
SE2
 70
     0
 10
0.0
 20
0.0
 30
0.0
  3
SE2
  1

  0
ARC
  5
BE
330
BB
100
AcDbEntity
  8
DV3_Default
  6
Continuous
 62
     7
100
AcDbCircle
 10
211.1
 20
113.35
 30
0.0
 40
4.749999999999997
100
AcDbArc
 50
270.0
 51
90.0
  0
ARC
  5
BF
330
BB
100
AcDbEntity
  8
DV3_Default
  6
Continuous
 62
     7
100
AcDbCircle
 10
11.1
 20
113.35
 30
0.0
 40
4.749999999999997
100
AcDbArc
 50
90.0
 51
270.0
  0
LINE
  5
C0
330
BB
100
AcDbEntity
  8
DV3_Default
  6
Continuous
 62
     7
100
AcDbLine
 10
101.0999992121
 20
118.1
 30
0.0
 11
11.1
 21
118.1
 31
0.0
  0
LINE
  5
C1
330
BB
100
AcDbEntity
  8
DV3_Default
  6
Continuous
 62
     7
100
AcDbLine
 10
211.1
 20
118.1
 30
0.0
 11
121.1000008027
 21
118.1
 31
0.0
  0
LINE
  5
C2
330
BB
100
AcDbEntity
  8
DV3_Default
  6
Continuous
 62
     7
100
AcDbLine
 10
121.1000008027
 20
108.6
 30
0.0
 11
211.1
 21
108.6
 31
0.0
  0
LINE
  5
C3
330
BB
100
AcDbEntity
  8
DV3_Default
  6
Continuous
 62
     7
100
AcDbLine
 10
11.1
 20
108.6
 30
0.0
 11
101.0999992121
 21
108.6
 31
0.0
  0
LINE
  5
C4
330
BB
100
AcDbEntity
  8
DV3_Default
  6
Continuous
 62
     7
100
AcDbLine
 10
84.1
 20
164.6290570165
 30
0.0
 11
138.1
 21
164.6290570165
 31
0.0
  0
LINE
  5
C5
330
BB
100
AcDbEntity
  8
DV3_Default
  6
Continuous
 62
     7
100
AcDbLine
 10
137.1
 20
154.6290570165
 30
0.0
 11
85.1
 21
154.6290570165
 31
0.0
  0
LINE
  5
C6
330
BB
100
AcDbEntity
  8
DV3_Default
  6
Continuous
 62
     7
100
AcDbLine
 10
138.1
 20
155.6290570165
 30
0.0
 11
138.1
 21
164.6290570165
 31
0.0
  0
LINE
  5
C7
330
BB
100
AcDbEntity
  8
DV3_Default
  6
Continuous
 62
     7
100
AcDbLine
 10
84.1
 20
164.6290570165
 30
0.0
 11
84.1
 21
155.6290570165
 31
0.0
  0
ARC
  5
C8
330
BB
100
AcDbEntity
  8
DV3_Default
  6
Continuous
 62
     7
100
AcDbCircle
 10
137.1
 20
155.6290570165
 30
0.0
 40
0.9999999999999991
100
AcDbArc
 50
270.0
 51
0.0
  0
ARC
  5
C9
330
BB
100
AcDbEntity
  8
DV3_Default
  6
Continuous
 62
     7
100
AcDbCircle
 10
85.1
 20
155.6290570165
 30
0.0
 40
1.000000000000001
100
AcDbArc
 50
180.0
 51
270.0
  0
ARC
  5
CA
330
BB
100
AcDbEntity
  8
DV3_Default
  6
Continuous
 62
     7
100
AcDbCircle
 10
111.1000000003
 20
126.8107733576
 30
0.0
 40
7.695789189548551
100
AcDbArc
 50
237.0895408319
 51
302.9104591138
  0
LINE
  5
CB
330
BB
100
AcDbEntity
  8
DV3_Default
  6
Continuous
 62
     7
100
AcDbLine
 10
105.4374042326
 20
128.1677569
 30
0.0
 11
106.9186634347
 21
120.35
 31
0.0
  0
LINE
  5
CC
330
BB
100
AcDbEntity
  8
DV3_Default
  6
Continuous
 62
     7
100
AcDbLine
 10
115.2813365653
 20
120.35
 30
0.0
 11
116.7625957674
 21
128.1677569
 31
0.0
  0
ARC
  5
CD
330
BB
100
AcDbEntity
  8
DV3_Default
  6
Continuous
 62
     7
100
AcDbCircle
 10
110.3499999999
 20
129.0985645204
 30
0.0
 40
4.999999999919119
100
AcDbArc
 50
180.0000003573
 51
190.728859313
  0
ARC
  5
CE
330
BB
100
AcDbEntity
  8
DV3_Default
  6
Continuous
 62
     7
100
AcDbCircle
 10
111.8500000001
 20
129.0985645204
 30
0.0
 40
4.999999999919233
100
AcDbArc
 50
349.271140687
 51
359.9999996427
  0
LINE
  5
CF
330
BB
100
AcDbEntity
  8
DV3_Default
  6
Continuous
 62
     7
100
AcDbLine
 10
105.35
 20
154.6290570165
 30
0.0
 11
105.35
 21
129.0985644892
 31
0.0
  0
LINE
  5
D0
330
BB
100
AcDbEntity
  8
DV3_Default
  6
Continuous
 62
     7
100
AcDbLine
 10
116.85
 20
129.0985644892
 30
0.0
 11
116.85
 21
154.6290570165
 31
0.0
  0
LINE
  5
D1
330
BB
100
AcDbEntity
  8
DV3_Default
  6
Continuous
 62
     7
100
AcDbLine
 10
121.1000008027
 20
120.1500000069
 30
0.0
 11
121.1000008027
 21
106.5499999931
 31
0.0
  0
LINE
  5
D2
330
BB
100
AcDbEntity
  8
DV3_Default
  6
Continuous
 62
     7
100
AcDbLine
 10
120.8999991727
 20
120.35
 30
0.0
 11
120.8999991727
 21
106.35
 31
0.0
  0
LINE
  5
D3
330
BB
100
AcDbEntity
  8
DV3_Default
  6
Continuous
 62
     7
100
AcDbLine
 10
101.3000010183
 20
120.35
 30
0.0
 11
101.3000010183
 21
106.35
 31
0.0
  0
LINE
  5
D4
330
BB
100
AcDbEntity
  8
DV3_Default
  6
Continuous
 62
     7
100
AcDbLine
 10
101.0999992121
 20
120.1499998083
 30
0.0
 11
101.0999992121
 21
106.5500001917
 31
0.0
  0
LINE
  5
D5
330
BB
100
AcDbEntity
  8
DV3_Default
  6
Continuous
 62
     7
100
AcDbLine
 10
120.8999991727
 20
106.35
 30
0.0
 11
121.1000008027
 21
106.5499999931
 31
0.0
  0
LINE
  5
D6
330
BB
100
AcDbEntity
  8
DV3_Default
  6
Continuous
 62
     7
100
AcDbLine
 10
121.1000008027
 20
120.1500000069
 30
0.0
 11
120.8999991727
 21
120.35
 31
0.0
  0
LINE
  5
D7
330
BB
100
AcDbEntity
  8
DV3_Default
  6
Continuous
 62
     7
100
AcDbLine
 10
120.8999991727
 20
120.35
 30
0.0
 11
115.2813365653
 21
120.35
 31
0.0
  0
LINE
  5
D8
330
BB
100
AcDbEntity
  8
DV3_Default
  6
Continuous
 62
     7
100
AcDbLine
 10
115.2670531918
 20
120.35
 30
0.0
 11
115.263225722
 21
120.35
 31
0.0
  0
LINE
  5
D9
330
BB
100
AcDbEntity
  8
DV3_Default
  6
Continuous
 62
     7
100
AcDbLine
 10
106.9186634347
 20
120.35
 30
0.0
 11
101.3000010183
 21
120.35
 31
0.0
  0
LINE
  5
DA
330
BB
100
AcDbEntity
  8
DV3_Default
  6
Continuous
 62
     7
100
AcDbLine
 10
101.3000010183
 20
106.35
 30
0.0
 11
120.8999991727
 21
106.35
 31
0.0
  0
LINE
  5
DB
330
BB
100
AcDbEntity
  8
DV3_Default
  6
Continuous
 62
     7
100
AcDbLine
 10
101.3000010183
 20
120.35
 30
0.0
 11
101.0999992121
 21
120.1499998083
 31
0.0
  0
LINE
  5
DC
330
BB
100
AcDbEntity
  8
DV3_Default
  6
Continuous
 62
     7
100
AcDbLine
 10
101.0999992121
 20
106.5500001917
 30
0.0
 11
101.3000010183
 21
106.35
 31
0.0
  0
ENDBLK
  5
DE
330
BB
100
AcDbEntity
  8
0
100
AcDbBlockEnd
  0
ENDSEC
  0
SECTION
  2
ENTITIES
  0
INSERT
  5
5F
330
1F
100
AcDbEntity
  8
Default
100
AcDbBlockReference
  2
SEANNOT_GROUP
 10
0.0
 20
0.0
 30
0.0
  0
INSERT
  5
6A
330
1F
100
AcDbEntity
  8
Default
100
AcDbBlockReference
  2
SEANNOT_GROUP1
 10
0.0
 20
0.0
 30
0.0
  0
INSERT
  5
70
330
1F
100
AcDbEntity
  8
Default
100
AcDbBlockReference
  2
SEANNOT_GROUP2
 10
0.0
 20
0.0
 30
0.0
  0
INSERT
  5
76
330
1F
100
AcDbEntity
  8
Default
100
AcDbBlockReference
  2
SE
 10
0.0
 20
0.0
 30
0.0
  0
INSERT
  5
96
330
1F
100
AcDbEntity
  8
Default
100
AcDbBlockReference
  2
SE1
 10
0.0
 20
0.0
 30
0.0
  0
INSERT
  5
BC
330
1F
100
AcDbEntity
  8
Default
100
AcDbBlockReference
  2
SE2
 10
0.0
 20
0.0
 30
0.0
  0
TEXT
  5
E0
330
1F
100
AcDbEntity
  8
Default
  6
Continuous
 62
     7
100
AcDbText
 10
5.9362635081
 20
53.4225120485
 30
0.0
 40
10.0
  1
Grohe AG^J
  7
SEACAD_seiso_ttf
 11
5.9362635081
 21
63.4225120485
 31
0.0
100
AcDbText
 73
     3
  0
TEXT
  5
E1
330
1F
100
AcDbEntity
  8
Default
  6
Continuous
 62
     7
100
AcDbText
 10
5.9362635081
 20
37.0588756849
 30
0.0
 40
10.0
  1
 
  7
SEACAD_seiso_ttf
 11
5.9362635081
 21
47.0588756849
 31
0.0
100
AcDbText
 73
     3
  0
TEXT
  5
E2
330
1F
100
AcDbEntity
  8
Default
  6
Continuous
 62
     7
100
AcDbText
 10
5.9362635081
 20
20.6952393213
 30
0.0
 40
10.0
  1
ecn:
  7
SEACAD_seiso_ttf
 11
5.9362635081
 21
30.6952393213
 31
0.0
100
AcDbText
 73
     3
  0
TEXT
  5
E3
330
1F
100
AcDbEntity
  8
Default
  6
Continuous
 62
     7
100
AcDbText
 10
5.9362635081
 20
4.3316029576
 30
0.0
 40
10.0
  1
unit: mm
  7
SEACAD_seiso_ttf
 11
5.9362635081
 21
14.3316029576
 31
0.0
100
AcDbText
 73
     3
  0
LINE
  5
E4
330
1F
100
AcDbEntity
  8
Default
  6
Continuous
 62
     7
100
AcDbLine
 10
0.0
 20
0.0
 30
0.0
 11
100.0
 21
0.0
 31
0.0
  0
LINE
  5
E5
330
1F
100
AcDbEntity
  8
Default
  6
Continuous
 62
     7
100
AcDbLine
 10
0.0
 20
0.0
 30
0.0
 11
0.0
 21
100.0
 31
0.0
  0
TEXT
  5
E6
330
1F
100
AcDbEntity
  8
Default
  6
Continuous
 62
     7
100
AcDbText
 10
24.3923665681
 20
-18.2375342018
 30
0.0
 40
10.0
  1
100 mm
  7
SEACAD_seiso_ttf
 11
24.3923665681
 21
-8.2375342018
 31
0.0
100
AcDbText
 73
     3
  0
TEXT
  5
E7
330
1F
100
AcDbEntity
  8
Default
  6
Continuous
 62
     7
100
AcDbText
 10
-7.6150308803
 20
24.6231930421
 30
0.0
 40
10.0
  1
100 mm
 50
90.0
  7
SEACAD_seiso_ttf
 11
-17.6150308803
 21
24.6231930421
 31
0.0
100
AcDbText
 73
     3
  0
TEXT
  5
E8
330
1F
100
AcDbEntity
  8
Default
  6
Continuous
 62
     7
100
AcDbText
 10
28.4878128572
 20
20.0907663715
 30
0.0
 40
10.0
  1
223210
  7
SEACAD_seiso_ttf
 11
28.4878128572
 21
30.0907663715
 31
0.0
100
AcDbText
 73
     3
  0
TEXT
  5
E9
330
1F
100
AcDbEntity
  8
Default
  6
Continuous
 62
     7
100
AcDbText
 10
5.9012241913
 20
36.7242780188
 30
0.0
 40
10.0
  1
40460000
  7
SEACAD_seiso_ttf
 11
5.9012241913
 21
46.7242780188
 31
0.0
100
AcDbText
 73
     3
  0
ENDSEC
  0
SECTION
  2
OBJECTS
  0
DICTIONARY
  5
C
330
0
100
AcDbDictionary
281
     1
  3
ACAD_GROUP
350
D
  3
ACAD_LAYOUT
350
1A
  3
ACAD_MLEADERSTYLE
350
ED
  3
ACAD_MLINESTYLE
350
17
  3
ACAD_PLOTSETTINGS
350
19
  3
ACAD_PLOTSTYLENAME
350
E
  3
ACAD_SCALELIST
350
3B
  3
ACAD_TABLESTYLE
350
EC
  3
ACAD_VISUALSTYLE
350
2A
  3
AcDbVariableDictionary
350
EA
  0
DICTIONARY
  5
D
102
{ACAD_REACTORS
330
C
102
}
330
C
100
AcDbDictionary
281
     1
  0
DICTIONARY
  5
1A
102
{ACAD_REACTORS
330
C
102
}
330
C
100
AcDbDictionary
281
     1
  3
Layout1
350
1E
  3
Model
350
22
  0
DICTIONARY
  5
ED
102
{ACAD_REACTORS
330
C
102
}
330
C
100
AcDbDictionary
281
     1
  0
DICTIONARY
  5
17
102
{ACAD_REACTORS
330
C
102
}
330
C
100
AcDbDictionary
281
     1
  3
Standard
350
18
  0
DICTIONARY
  5
19
102
{ACAD_REACTORS
330
C
102
}
330
C
100
AcDbDictionary
281
     1
  0
ACDBDICTIONARYWDFLT
  5
E
102
{ACAD_REACTORS
330
C
102
}
330
C
100
AcDbDictionary
281
     1
  3
Normal
350
F
100
AcDbDictionaryWithDefault
340
F
  0
DICTIONARY
  5
3B
102
{ACAD_REACTORS
330
C
102
}
330
C
100
AcDbDictionary
281
     1
  3
A0
350
3C
  3
A1
350
3D
  3
A2
350
3E
  3
A3
350
3F
  3
A4
350
40
  3
A5
350
41
  3
A6
350
42
  3
A7
350
43
  3
A8
350
44
  3
A9
350
45
  3
B0
350
46
  3
B1
350
47
  3
B2
350
48
  3
B3
350
49
  3
B4
350
4A
  3
B5
350
4B
  3
B6
350
4C
  3
B7
350
4D
  3
B8
350
4E
  3
B9
350
4F
  3
C0
350
50
  3
C1
350
51
  3
C2
350
52
  3
C3
350
53
  3
C4
350
54
  3
C5
350
55
  3
C6
350
56
  3
C7
350
57
  3
C8
350
58
  3
C9
350
59
  3
D0
350
5A
  3
D1
350
5B
  3
D2
350
5C
  0
DICTIONARY
  5
EC
102
{ACAD_REACTORS
330
C
102
}
330
C
100
AcDbDictionary
281
     1
  0
DICTIONARY
  5
2A
102
{ACAD_REACTORS
330
C
102
}
330
C
100
AcDbDictionary
281
     1
  3
2dWireframe
350
2F
  3
3D Hidden
350
31
  3
3dWireframe
350
30
  3
Basic
350
32
  3
Brighten
350
36
  3
ColorChange
350
3A
  3
Conceptual
350
34
  3
Dim
350
35
  3
Facepattern
350
39
  3
Flat
350
2B
  3
FlatWithEdges
350
2C
  3
Gouraud
350
2D
  3
GouraudWithEdges
350
2E
  3
Linepattern
350
38
  3
Realistic
350
33
  3
Thicken
350
37
  0
DICTIONARY
  5
EA
102
{ACAD_REACTORS
330
C
102
}
330
C
100
AcDbDictionary
281
     1
  3
CANNOSCALE
350
EB
  3
PSOLHEIGHT
350
EF
  3
PSOLWIDTH
350
EE
  0
LAYOUT
  5
1E
102
{ACAD_REACTORS
330
1A
102
}
330
1A
100
AcDbPlotSettings
  1

  2
none_device
  4

  6

 40
0.0
 41
0.0
 42
0.0
 43
0.0
 44
0.0
 45
0.0
 46
0.0
 47
0.0
 48
0.0
 49
0.0
140
0.0
141
0.0
142
1.0
143
1.0
 70
   688
 72
     0
 73
     0
 74
     5
  7

 75
    16
147
1.0
148
0.0
149
0.0
100
AcDbLayout
  1
Layout1
 70
     1
 71
     1
 10
0.0
 20
0.0
 11
3000.0
 21
4500.0
 12
0.0
 22
0.0
 32
0.0
 14
0.0
 24
0.0
 34
0.0
 15
3000.0
 25
4500.0
 35
0.0
146
0.0
 13
0.0
 23
0.0
 33
0.0
 16
1.0
 26
0.0
 36
0.0
 17
0.0
 27
1.0
 37
0.0
 76
     0
330
1B
  0
LAYOUT
  5
22
102
{ACAD_REACTORS
330
1A
102
}
330
1A
100
AcDbPlotSettings
  1

  2
none_device
  4

  6

 40
0.0
 41
0.0
 42
0.0
 43
0.0
 44
0.0
 45
0.0
 46
0.0
 47
0.0
 48
0.0
 49
0.0
140
0.0
141
0.0
142
1.0
143
1.0
 70
  1712
 72
     0
 73
     0
 74
     0
  7

 75
     0
147
1.0
148
0.0
149
0.0
100
AcDbLayout
  1
Model
 70
     1
 71
     0
 10
0.0
 20
0.0
 11
3000.0
 21
4500.0
 12
0.0
 22
0.0
 32
0.0
 14
0.0
 24
0.0
 34
0.0
 15
3000.0
 25
4500.0
 35
0.0
146
0.0
 13
0.0
 23
0.0
 33
0.0
 16
1.0
 26
0.0
 36
0.0
 17
0.0
 27
1.0
 37
0.0
 76
     0
330
1F
331
29
  0
MLINESTYLE
  5
18
102
{ACAD_REACTORS
330
17
102
}
330
17
100
AcDbMlineStyle
  2
Standard
 70
     0
  3

 62
   256
 51
90.0
 52
90.0
 71
     2
 49
0.5
 62
   256
  6
BYLAYER
 49
-0.5
 62
   256
  6
BYLAYER
  0
ACDBPLACEHOLDER
  5
F
102
{ACAD_REACTORS
330
E
102
}
330
E
  0
SCALE
  5
3C
102
{ACAD_REACTORS
330
3B
102
}
330
3B
100
AcDbScale
 70
     0
300
1:1
140
1.0
141
1.0
290
     1
  0
SCALE
  5
3D
102
{ACAD_REACTORS
330
3B
102
}
330
3B
100
AcDbScale
 70
     0
300
1:2
140
1.0
141
2.0
290
     0
  0
SCALE
  5
3E
102
{ACAD_REACTORS
330
3B
102
}
330
3B
100
AcDbScale
 70
     0
300
1:4
140
1.0
141
4.0
290
     0
  0
SCALE
  5
3F
102
{ACAD_REACTORS
330
3B
102
}
330
3B
100
AcDbScale
 70
     0
300
1:5
140
1.0
141
5.0
290
     0
  0
SCALE
  5
40
102
{ACAD_REACTORS
330
3B
102
}
330
3B
100
AcDbScale
 70
     0
300
1:8
140
1.0
141
8.0
290
     0
  0
SCALE
  5
41
102
{ACAD_REACTORS
330
3B
102
}
330
3B
100
AcDbScale
 70
     0
300
1:10
140
1.0
141
10.0
290
     0
  0
SCALE
  5
42
102
{ACAD_REACTORS
330
3B
102
}
330
3B
100
AcDbScale
 70
     0
300
1:16
140
1.0
141
16.0
290
     0
  0
SCALE
  5
43
102
{ACAD_REACTORS
330
3B
102
}
330
3B
100
AcDbScale
 70
     0
300
1:20
140
1.0
141
20.0
290
     0
  0
SCALE
  5
44
102
{ACAD_REACTORS
330
3B
102
}
330
3B
100
AcDbScale
 70
     0
300
1:30
140
1.0
141
30.0
290
     0
  0
SCALE
  5
45
102
{ACAD_REACTORS
330
3B
102
}
330
3B
100
AcDbScale
 70
     0
300
1:40
140
1.0
141
40.0
290
     0
  0
SCALE
  5
46
102
{ACAD_REACTORS
330
3B
102
}
330
3B
100
AcDbScale
 70
     0
300
1:50
140
1.0
141
50.0
290
     0
  0
SCALE
  5
47
102
{ACAD_REACTORS
330
3B
102
}
330
3B
100
AcDbScale
 70
     0
300
1:100
140
1.0
141
100.0
290
     0
  0
SCALE
  5
48
102
{ACAD_REACTORS
330
3B
102
}
330
3B
100
AcDbScale
 70
     0
300
2:1
140
2.0
141
1.0
290
     0
  0
SCALE
  5
49
102
{ACAD_REACTORS
330
3B
102
}
330
3B
100
AcDbScale
 70
     0
300
4:1
140
4.0
141
1.0
290
     0
  0
SCALE
  5
4A
102
{ACAD_REACTORS
330
3B
102
}
330
3B
100
AcDbScale
 70
     0
300
8:1
140
8.0
141
1.0
290
     0
  0
SCALE
  5
4B
102
{ACAD_REACTORS
330
3B
102
}
330
3B
100
AcDbScale
 70
     0
300
10:1
140
10.0
141
1.0
290
     0
  0
SCALE
  5
4C
102
{ACAD_REACTORS
330
3B
102
}
330
3B
100
AcDbScale
 70
     0
300
100:1
140
100.0
141
1.0
290
     0
  0
SCALE
  5
4D
102
{ACAD_REACTORS
330
3B
102
}
330
3B
100
AcDbScale
 70
     0
300
1/128" = 1'-0"
140
0.0078125
141
12.0
290
     0
  0
SCALE
  5
4E
102
{ACAD_REACTORS
330
3B
102
}
330
3B
100
AcDbScale
 70
     0
300
1/64" = 1'-0"
140
0.015625
141
12.0
290
     0
  0
SCALE
  5
4F
102
{ACAD_REACTORS
330
3B
102
}
330
3B
100
AcDbScale
 70
     0
300
1/32" = 1'-0"
140
0.03125
141
12.0
290
     0
  0
SCALE
  5
50
102
{ACAD_REACTORS
330
3B
102
}
330
3B
100
AcDbScale
 70
     0
300
1/16" = 1'-0"
140
0.0625
141
12.0
290
     0
  0
SCALE
  5
51
102
{ACAD_REACTORS
330
3B
102
}
330
3B
100
AcDbScale
 70
     0
300
3/32" = 1'-0"
140
0.09375
141
12.0
290
     0
  0
SCALE
  5
52
102
{ACAD_REACTORS
330
3B
102
}
330
3B
100
AcDbScale
 70
     0
300
1/8" = 1'-0"
140
0.125
141
12.0
290
     0
  0
SCALE
  5
53
102
{ACAD_REACTORS
330
3B
102
}
330
3B
100
AcDbScale
 70
     0
300
3/16" = 1'-0"
140
0.1875
141
12.0
290
     0
  0
SCALE
  5
54
102
{ACAD_REACTORS
330
3B
102
}
330
3B
100
AcDbScale
 70
     0
300
1/4" = 1'-0"
140
0.25
141
12.0
290
     0
  0
SCALE
  5
55
102
{ACAD_REACTORS
330
3B
102
}
330
3B
100
AcDbScale
 70
     0
300
3/8" = 1'-0"
140
0.375
141
12.0
290
     0
  0
SCALE
  5
56
102
{ACAD_REACTORS
330
3B
102
}
330
3B
100
AcDbScale
 70
     0
300
1/2" = 1'-0"
140
0.5
141
12.0
290
     0
  0
SCALE
  5
57
102
{ACAD_REACTORS
330
3B
102
}
330
3B
100
AcDbScale
 70
     0
300
3/4" = 1'-0"
140
0.75
141
12.0
290
     0
  0
SCALE
  5
58
102
{ACAD_REACTORS
330
3B
102
}
330
3B
100
AcDbScale
 70
     0
300
1" = 1'-0"
140
1.0
141
12.0
290
     0
  0
SCALE
  5
59
102
{ACAD_REACTORS
330
3B
102
}
330
3B
100
AcDbScale
 70
     0
300
1-1/2" = 1'-0"
140
1.5
141
12.0
290
     0
  0
SCALE
  5
5A
102
{ACAD_REACTORS
330
3B
102
}
330
3B
100
AcDbScale
 70
     0
300
3" = 1'-0"
140
3.0
141
12.0
290
     0
  0
SCALE
  5
5B
102
{ACAD_REACTORS
330
3B
102
}
330
3B
100
AcDbScale
 70
     0
300
6" = 1'-0"
140
6.0
141
12.0
290
     0
  0
SCALE
  5
5C
102
{ACAD_REACTORS
330
3B
102
}
330
3B
100
AcDbScale
 70
     0
300
1'-0" = 1'-0"
140
12.0
141
12.0
290
     0
  0
VISUALSTYLE
  5
2F
102
{ACAD_REACTORS
330
2A
102
}
330
2A
100
AcDbVisualStyle
  2
2dWireframe
 70
     4
 71
     0
 72
     2
 73
     0
 90
        0
 40
-0.6
 41
-30.0
 62
     5
 63
     7
 74
     1
 91
        4
 64
     7
 65
   257
 75
     1
175
     1
 42
1.0
 92
        0
 66
   257
 43
1.0
 76
     1
 77
     6
 78
     2
 67
     7
 79
     5
170
     0
171
     0
290
     0
174
     0
 93
        1
 44
0.0
173
     0
291
     0
 45
0.0
1001
ACAD
1000
AcDbSavedByObjectVersion
1070
     0
  0
VISUALSTYLE
  5
31
102
{ACAD_REACTORS
330
2A
102
}
330
2A
100
AcDbVisualStyle
  2
3D Hidden
 70
     6
 71
     1
 72
     2
 73
     2
 90
        0
 40
-0.6
 41
-30.0
 62
     5
 63
     7
 74
     2
 91
        2
 64
     7
 65
   257
 75
     2
175
     1
 42
40.0
 92
        0
 66
   257
 43
1.0
 76
     1
 77
     6
 78
     2
 67
     7
 79
     3
170
     0
171
     0
290
     0
174
     0
 93
        1
 44
0.0
173
     0
291
     0
 45
0.0
1001
ACAD
1000
AcDbSavedByObjectVersion
1070
     0
  0
VISUALSTYLE
  5
30
102
{ACAD_REACTORS
330
2A
102
}
330
2A
100
AcDbVisualStyle
  2
3dWireframe
 70
     5
 71
     0
 72
     2
 73
     0
 90
        0
 40
-0.6
 41
-30.0
 62
     5
 63
     7
 74
     1
 91
        4
 64
     7
 65
   257
 75
     1
175
     1
 42
1.0
 92
        0
 66
   257
 43
1.0
 76
     1
 77
     6
 78
     2
 67
     7
 79
     5
170
     0
171
     0
290
     0
174
     0
 93
        1
 44
0.0
173
     0
291
     0
 45
0.0
1001
ACAD
1000
AcDbSavedByObjectVersion
1070
     0
  0
VISUALSTYLE
  5
32
102
{ACAD_REACTORS
330
2A
102
}
330
2A
100
AcDbVisualStyle
  2
Basic
 70
     7
 71
     1
 72
     0
 73
     1
 90
        0
 40
-0.6
 41
-30.0
 62
     5
 63
     7
 74
     0
 91
        4
 64
     7
 65
   257
 75
     1
175
     1
 42
1.0
 92
        8
 66
     7
 43
1.0
 76
     1
 77
     6
 78
     2
 67
     7
 79
     5
170
     0
171
     0
290
     0
174
     0
 93
        1
 44
0.0
173
     0
291
     1
 45
0.0
1001
ACAD
1000
AcDbSavedByObjectVersion
1070
     0
  0
VISUALSTYLE
  5
36
102
{ACAD_REACTORS
330
2A
102
}
330
2A
100
AcDbVisualStyle
  2
Brighten
 70
    12
 71
     2
 72
     2
 73
     0
 90
        0
 40
-0.6
 41
-30.0
 62
     5
 63
     7
 74
     1
 91
        4
 64
     7
 65
   257
 75
     1
175
     1
 42
1.0
 92
        8
 66
     7
 43
1.0
 76
     1
 77
     6
 78
     2
 67
     7
 79
     5
170
     0
171
     0
290
     0
174
     0
 93
        1
 44
50.0
173
     0
291
     1
 45
0.0
1001
ACAD
1000
AcDbSavedByObjectVersion
1070
     0
  0
VISUALSTYLE
  5
3A
102
{ACAD_REACTORS
330
2A
102
}
330
2A
100
AcDbVisualStyle
  2
ColorChange
 70
    16
 71
     2
 72
     2
 73
     3
 90
        0
 40
-0.6
 41
-30.0
 62
     5
 63
     8
 74
     1
 91
        4
 64
     7
 65
   257
 75
     1
175
     1
 42
1.0
 92
        8
 66
     8
 43
1.0
 76
     1
 77
     6
 78
     2
 67
     7
 79
     5
170
     0
171
     0
290
     0
174
     0
 93
        1
 44
0.0
173
     0
291
     1
 45
0.0
1001
ACAD
1000
AcDbSavedByObjectVersion
1070
     0
  0
VISUALSTYLE
  5
34
102
{ACAD_REACTORS
330
2A
102
}
330
2A
100
AcDbVisualStyle
  2
Conceptual
 70
     9
 71
     3
 72
     2
 73
     0
 90
        0
 40
-0.6
 41
-30.0
 62
     5
 63
     7
 74
     2
 91
        2
 64
     7
 65
   257
 75
     1
175
     1
 42
40.0
 92
        8
 66
     7
 43
1.0
 76
     1
 77
     6
 78
     2
 67
     7
 79
     3
170
     0
171
     0
290
     0
174
     0
 93
        1
 44
0.0
173
     0
291
     0
 45
0.0
1001
ACAD
1000
AcDbSavedByObjectVersion
1070
     0
  0
VISUALSTYLE
  5
35
102
{ACAD_REACTORS
330
2A
102
}
330
2A
100
AcDbVisualStyle
  2
Dim
 70
    11
 71
     2
 72
     2
 73
     0
 90
        0
 40
-0.6
 41
-30.0
 62
     5
 63
     7
 74
     1
 91
        4
 64
     7
 65
   257
 75
     1
175
     1
 42
1.0
 92
        8
 66
     7
 43
1.0
 76
     1
 77
     6
 78
     2
 67
     7
 79
     5
170
     0
171
     0
290
     0
174
     0
 93
        1
 44
-50.0
173
     0
291
     1
 45
0.0
1001
ACAD
1000
AcDbSavedByObjectVersion
1070
     0
  0
VISUALSTYLE
  5
39
102
{ACAD_REACTORS
330
2A
102
}
330
2A
100
AcDbVisualStyle
  2
Facepattern
 70
    15
 71
     2
 72
     2
 73
     0
 90
        0
 40
-0.6
 41
-30.0
 62
     5
 63
     7
 74
     1
 91
        4
 64
     7
 65
   257
 75
     1
175
     1
 42
1.0
 92
        8
 66
     7
 43
1.0
 76
     1
 77
     6
 78
     2
 67
     7
 79
     5
170
     0
171
     0
290
     0
174
     0
 93
        1
 44
0.0
173
     0
291
     1
 45
0.0
1001
ACAD
1000
AcDbSavedByObjectVersion
1070
     0
  0
VISUALSTYLE
  5
2B
102
{ACAD_REACTORS
330
2A
102
}
330
2A
100
AcDbVisualStyle
  2
Flat
 70
     0
 71
     2
 72
     1
 73
     1
 90
        2
 40
-0.6
 41
30.0
 62
     5
 63
     7
 74
     0
 91
        4
 64
     7
 65
   257
 75
     1
175
     1
 42
1.0
 92
        8
 66
     7
 43
1.0
 76
     1
 77
     6
 78
     2
 67
     7
 79
     5
170
     0
171
     0
290
     0
174
     0
 93
       13
 44
0.0
173
     0
291
     1
 45
0.0
1001
ACAD
1000
AcDbSavedByObjectVersion
1070
     0
  0
VISUALSTYLE
  5
2C
102
{ACAD_REACTORS
330
2A
102
}
330
2A
100
AcDbVisualStyle
  2
FlatWithEdges
 70
     1
 71
     2
 72
     1
 73
     1
 90
        2
 40
-0.6
 41
30.0
 62
     5
 63
     7
 74
     1
 91
        4
 64
     7
 65
   257
 75
     1
175
     1
 42
1.0
 92
        0
 66
   257
 43
1.0
 76
     1
 77
     6
 78
     2
 67
     7
 79
     5
170
     0
171
     0
290
     0
174
     0
 93
       13
 44
0.0
173
     0
291
     1
 45
0.0
1001
ACAD
1000
AcDbSavedByObjectVersion
1070
     0
  0
VISUALSTYLE
  5
2D
102
{ACAD_REACTORS
330
2A
102
}
330
2A
100
AcDbVisualStyle
  2
Gouraud
 70
     2
 71
     2
 72
     2
 73
     1
 90
        2
 40
-0.6
 41
30.0
 62
     5
 63
     7
 74
     0
 91
        4
 64
     7
 65
   257
 75
     1
175
     1
 42
1.0
 92
        0
 66
     7
 43
1.0
 76
     1
 77
     6
 78
     2
 67
     7
 79
     5
170
     0
171
     0
290
     0
174
     0
 93
       13
 44
0.0
173
     0
291
     1
 45
0.0
1001
ACAD
1000
AcDbSavedByObjectVersion
1070
     0
  0
VISUALSTYLE
  5
2E
102
{ACAD_REACTORS
330
2A
102
}
330
2A
100
AcDbVisualStyle
  2
GouraudWithEdges
 70
     3
 71
     2
 72
     2
 73
     1
 90
        2
 40
-0.6
 41
30.0
 62
     5
 63
     7
 74
     1
 91
        4
 64
     7
 65
   257
 75
     1
175
     1
 42
1.0
 92
        0
 66
   257
 43
1.0
 76
     1
 77
     6
 78
     2
 67
     7
 79
     5
170
     0
171
     0
290
     0
174
     0
 93
       13
 44
0.0
173
     0
291
     1
 45
0.0
1001
ACAD
1000
AcDbSavedByObjectVersion
1070
     0
  0
VISUALSTYLE
  5
38
102
{ACAD_REACTORS
330
2A
102
}
330
2A
100
AcDbVisualStyle
  2
Linepattern
 70
    14
 71
     2
 72
     2
 73
     0
 90
        0
 40
-0.6
 41
-30.0
 62
     5
 63
     7
 74
     1
 91
        4
 64
     7
 65
   257
 75
     7
175
     7
 42
1.0
 92
        8
 66
     7
 43
1.0
 76
     1
 77
     6
 78
     2
 67
     7
 79
     5
170
     0
171
     0
290
     0
174
     0
 93
        1
 44
0.0
173
     0
291
     1
 45
0.0
1001
ACAD
1000
AcDbSavedByObjectVersion
1070
     0
  0
VISUALSTYLE
  5
33
102
{ACAD_REACTORS
330
2A
102
}
330
2A
100
AcDbVisualStyle
  2
Realistic
 70
     8
 71
     2
 72
     2
 73
     0
 90
        0
 40
-0.6
 41
-30.0
 62
     5
 63
     7
 74
     1
 91
        0
 64
     7
 65
   257
 75
     1
175
     1
 42
1.0
 92
        8
 66
     8
 43
1.0
 76
     1
 77
     6
 78
     2
 67
     7
 79
     5
170
     0
171
     0
290
     0
174
     0
 93
       13
 44
0.0
173
     0
291
     0
 45
0.0
1001
ACAD
1000
AcDbSavedByObjectVersion
1070
     0
  0
VISUALSTYLE
  5
37
102
{ACAD_REACTORS
330
2A
102
}
330
2A
100
AcDbVisualStyle
  2
Thicken
 70
    13
 71
     2
 72
     2
 73
     0
 90
        0
 40
-0.6
 41
-30.0
 62
     5
 63
     7
 74
     1
 91
        4
 64
     7
 65
   257
 75
     1
175
     1
 42
1.0
 92
       12
 66
     7
 43
1.0
 76
     1
 77
     6
 78
     2
 67
     7
 79
     5
170
     0
171
     0
290
     0
174
     0
 93
        1
 44
0.0
173
     0
291
     1
 45
0.0
1001
ACAD
1000
AcDbSavedByObjectVersion
1070
     0
  0
DICTIONARYVAR
  5
EB
102
{ACAD_REACTORS
330
EA
102
}
330
EA
100
DictionaryVariables
280
     0
  1
1:1
  0
DICTIONARYVAR
  5
EF
102
{ACAD_REACTORS
330
EA
102
}
330
EA
100
DictionaryVariables
280
     0
  1
80.000000
  0
DICTIONARYVAR
  5
EE
102
{ACAD_REACTORS
330
EA
102
}
330
EA
100
DictionaryVariables
280
     0
  1
5.000000
  0
ENDSEC
  0
EOF
