  0
SECTION
  2
HEADER
  9
$ACADVER
  1
AC1015
  9
$ACADMAINTVER
 70
     6
  9
$DWGCODEPAGE
  3
ANSI_1252
  9
$INSBASE
 10
0.0
 20
0.0
 30
0.0
  9
$EXTMIN
 10
0.0
 20
0.0
 30
0.0
  9
$EXTMAX
 10
1682.0
 20
2378.0
 30
0.0
  9
$LIMMIN
 10
0.0
 20
0.0
  9
$LIMMAX
 10
1682.0
 20
2378.0
  9
$ORTHOMODE
 70
     0
  9
$REGENMODE
 70
     1
  9
$FILLMODE
 70
     1
  9
$QTEXTMODE
 70
     0
  9
$MIRRTEXT
 70
     1
  9
$LTSCALE
 40
1.0
  9
$ATTMODE
 70
     1
  9
$TEXTSIZE
 40
2.5
  9
$TRACEWID
 40
1.0
  9
$TEXTSTYLE
  7
Standard
  9
$CLAYER
  8
0
  9
$CELTYPE
  6
ByLayer
  9
$CECOLOR
 62
   256
  9
$CELTSCALE
 40
1.0
  9
$DISPSILH
 70
     0
  9
$DIMSCALE
 40
1.0
  9
$DIMASZ
 40
2.5
  9
$DIMEXO
 40
0.625
  9
$DIMDLI
 40
3.75
  9
$DIMRND
 40
0.0
  9
$DIMDLE
 40
0.0
  9
$DIMEXE
 40
1.25
  9
$DIMTP
 40
0.0
  9
$DIMTM
 40
0.0
  9
$DIMTXT
 40
2.5
  9
$DIMCEN
 40
2.5
  9
$DIMTSZ
 40
0.0
  9
$DIMTOL
 70
     0
  9
$DIMLIM
 70
     0
  9
$DIMTIH
 70
     0
  9
$DIMTOH
 70
     0
  9
$DIMSE1
 70
     0
  9
$DIMSE2
 70
     0
  9
$DIMTAD
 70
     1
  9
$DIMZIN
 70
     8
  9
$DIMBLK
  1

  9
$DIMASO
 70
     1
  9
$DIMSHO
 70
     1
  9
$DIMPOST
  1

  9
$DIMAPOST
  1

  9
$DIMALT
 70
     0
  9
$DIMALTD
 70
     3
  9
$DIMALTF
 40
0.0393700787
  9
$DIMLFAC
 40
1.0
  9
$DIMTOFL
 70
     1
  9
$DIMTVP
 40
0.0
  9
$DIMTIX
 70
     0
  9
$DIMSOXD
 70
     0
  9
$DIMSAH
 70
     0
  9
$DIMBLK1
  1

  9
$DIMBLK2
  1

  9
$DIMSTYLE
  2
ISO-25
  9
$DIMCLRD
 70
     0
  9
$DIMCLRE
 70
     0
  9
$DIMCLRT
 70
     0
  9
$DIMTFAC
 40
1.0
  9
$DIMGAP
 40
0.625
  9
$DIMJUST
 70
     0
  9
$DIMSD1
 70
     0
  9
$DIMSD2
 70
     0
  9
$DIMTOLJ
 70
     0
  9
$DIMTZIN
 70
     8
  9
$DIMALTZ
 70
     0
  9
$DIMALTTZ
 70
     0
  9
$DIMUPT
 70
     0
  9
$DIMDEC
 70
     2
  9
$DIMTDEC
 70
     2
  9
$DIMALTU
 70
     2
  9
$DIMALTTD
 70
     3
  9
$DIMTXSTY
  7
Standard
  9
$DIMAUNIT
 70
     0
  9
$DIMADEC
 70
     0
  9
$DIMALTRND
 40
0.0
  9
$DIMAZIN
 70
     0
  9
$DIMDSEP
 70
    44
  9
$DIMATFIT
 70
     3
  9
$DIMFRAC
 70
     0
  9
$DIMLDRBLK
  1

  9
$DIMLUNIT
 70
     2
  9
$DIMLWD
 70
    -2
  9
$DIMLWE
 70
    -2
  9
$DIMTMOVE
 70
     0
  9
$LUNITS
 70
     2
  9
$LUPREC
 70
     4
  9
$SKETCHINC
 40
1.0
  9
$FILLETRAD
 40
10.0
  9
$AUNITS
 70
     0
  9
$AUPREC
 70
     0
  9
$MENU
  1
.
  9
$ELEVATION
 40
0.0
  9
$PELEVATION
 40
0.0
  9
$THICKNESS
 40
0.0
  9
$LIMCHECK
 70
     0
  9
$CHAMFERA
 40
10.0
  9
$CHAMFERB
 40
10.0
  9
$CHAMFERC
 40
20.0
  9
$CHAMFERD
 40
0.0
  9
$SKPOLY
 70
     0
  9
$TDCREATE
 40
2455569.488437118
  9
$TDUCREATE
 40
2455569.446770451
  9
$TDUPDATE
 40
2455569.48843713
  9
$TDUUPDATE
 40
2455569.446770463
  9
$TDINDWG
 40
0.0000000116
  9
$TDUSRTIMER
 40
0.0000000116
  9
$USRTIMER
 70
     1
  9
$ANGBASE
 50
0.0
  9
$ANGDIR
 70
     0
  9
$PDMODE
 70
     0
  9
$PDSIZE
 40
0.0
  9
$PLINEWID
 40
0.0
  9
$SPLFRAME
 70
     0
  9
$SPLINETYPE
 70
     6
  9
$SPLINESEGS
 70
     8
  9
$HANDSEED
  5
103
  9
$SURFTAB1
 70
     6
  9
$SURFTAB2
 70
     6
  9
$SURFTYPE
 70
     6
  9
$SURFU
 70
     6
  9
$SURFV
 70
     6
  9
$UCSBASE
  2

  9
$UCSNAME
  2

  9
$UCSORG
 10
0.0
 20
0.0
 30
0.0
  9
$UCSXDIR
 10
1.0
 20
0.0
 30
0.0
  9
$UCSYDIR
 10
0.0
 20
1.0
 30
0.0
  9
$UCSORTHOREF
  2

  9
$UCSORTHOVIEW
 70
     0
  9
$UCSORGTOP
 10
0.0
 20
0.0
 30
0.0
  9
$UCSORGBOTTOM
 10
0.0
 20
0.0
 30
0.0
  9
$UCSORGLEFT
 10
0.0
 20
0.0
 30
0.0
  9
$UCSORGRIGHT
 10
0.0
 20
0.0
 30
0.0
  9
$UCSORGFRONT
 10
0.0
 20
0.0
 30
0.0
  9
$UCSORGBACK
 10
0.0
 20
0.0
 30
0.0
  9
$PUCSBASE
  2

  9
$PUCSNAME
  2

  9
$PUCSORG
 10
0.0
 20
0.0
 30
0.0
  9
$PUCSXDIR
 10
1.0
 20
0.0
 30
0.0
  9
$PUCSYDIR
 10
0.0
 20
1.0
 30
0.0
  9
$PUCSORTHOREF
  2

  9
$PUCSORTHOVIEW
 70
     0
  9
$PUCSORGTOP
 10
0.0
 20
0.0
 30
0.0
  9
$PUCSORGBOTTOM
 10
0.0
 20
0.0
 30
0.0
  9
$PUCSORGLEFT
 10
0.0
 20
0.0
 30
0.0
  9
$PUCSORGRIGHT
 10
0.0
 20
0.0
 30
0.0
  9
$PUCSORGFRONT
 10
0.0
 20
0.0
 30
0.0
  9
$PUCSORGBACK
 10
0.0
 20
0.0
 30
0.0
  9
$USERI1
 70
     0
  9
$USERI2
 70
     0
  9
$USERI3
 70
     0
  9
$USERI4
 70
     0
  9
$USERI5
 70
     0
  9
$USERR1
 40
0.0
  9
$USERR2
 40
0.0
  9
$USERR3
 40
0.0
  9
$USERR4
 40
0.0
  9
$USERR5
 40
0.0
  9
$WORLDVIEW
 70
     1
  9
$SHADEDGE
 70
     3
  9
$SHADEDIF
 70
    70
  9
$TILEMODE
 70
     1
  9
$MAXACTVP
 70
    64
  9
$PINSBASE
 10
0.0
 20
0.0
 30
0.0
  9
$PLIMCHECK
 70
     0
  9
$PEXTMIN
 10
0.0
 20
0.0
 30
0.0
  9
$PEXTMAX
 10
1682.0
 20
2378.0
 30
0.0
  9
$PLIMMIN
 10
0.0
 20
0.0
  9
$PLIMMAX
 10
1682.0
 20
2378.0
  9
$UNITMODE
 70
     0
  9
$VISRETAIN
 70
     1
  9
$PLINEGEN
 70
     0
  9
$PSLTSCALE
 70
     1
  9
$TREEDEPTH
 70
  3020
  9
$CMLSTYLE
  2
Standard
  9
$CMLJUST
 70
     0
  9
$CMLSCALE
 40
20.0
  9
$PROXYGRAPHICS
 70
     1
  9
$MEASUREMENT
 70
     1
  9
$CELWEIGHT
370
    -1
  9
$ENDCAPS
280
     0
  9
$JOINSTYLE
280
     0
  9
$LWDISPLAY
290
     0
  9
$INSUNITS
 70
     4
  9
$HYPERLINKBASE
  1

  9
$STYLESHEET
  1

  9
$XEDIT
290
     1
  9
$CEPSNTYPE
380
     0
  9
$PSTYLEMODE
290
     1
  9
$FINGERPRINTGUID
  2
{F9B8B4CB-6684-4988-B6C2-3C9A985ADD5A}
  9
$VERSIONGUID
  2
{FAEB1C32-E019-11D5-929B-00C0DF256EC4}
  9
$EXTNAMES
290
     1
  9
$PSVPSCALE
 40
0.0
  9
$OLESTARTUP
290
     0
  0
ENDSEC
  0
SECTION
  2
CLASSES
  0
CLASS
  1
ACDBDICTIONARYWDFLT
  2
AcDbDictionaryWithDefault
  3
ObjectDBX Classes
 90
        0
280
     0
281
     0
  0
CLASS
  1
VISUALSTYLE
  2
AcDbVisualStyle
  3
ObjectDBX Classes
 90
     4095
280
     0
281
     0
  0
CLASS
  1
SCALE
  2
AcDbScale
  3
ObjectDBX Classes
 90
     1153
280
     0
281
     0
  0
CLASS
  1
DICTIONARYVAR
  2
AcDbDictionaryVar
  3
ObjectDBX Classes
 90
        0
280
     0
281
     0
  0
CLASS
  1
ACDBPLACEHOLDER
  2
AcDbPlaceHolder
  3
ObjectDBX Classes
 90
        0
280
     0
281
     0
  0
CLASS
  1
LAYOUT
  2
AcDbLayout
  3
ObjectDBX Classes
 90
        0
280
     0
281
     0
  0
ENDSEC
  0
SECTION
  2
TABLES
  0
TABLE
  2
VPORT
  5
8
330
0
100
AcDbSymbolTable
 70
     1
  0
VPORT
  5
29
330
8
100
AcDbSymbolTableRecord
100
AcDbViewportTableRecord
  2
*Active
 70
     0
 10
0.0
 20
0.0
 11
1.0
 21
1.0
 12
344.1869158879
 22
148.5
 13
0.0
 23
0.0
 14
10.0
 24
10.0
 15
10.0
 25
10.0
 16
0.0
 26
0.0
 36
1.0
 17
0.0
 27
0.0
 37
0.0
 40
297.0
 41
1.9729729729
 42
50.0
 43
0.0
 44
0.0
 50
0.0
 51
0.0
 71
     0
 72
   100
 73
     1
 74
     3
 75
     0
 76
     0
 77
     0
 78
     0
281
     0
 65
     1
110
0.0
120
0.0
130
0.0
111
1.0
121
0.0
131
0.0
112
0.0
122
1.0
132
0.0
 79
     0
146
0.0
  0
ENDTAB
  0
TABLE
  2
LTYPE
  5
5
330
0
100
AcDbSymbolTable
 70
     2
  0
LTYPE
  5
14
330
5
100
AcDbSymbolTableRecord
100
AcDbLinetypeTableRecord
  2
ByBlock
 70
     0
  3

 72
    65
 73
     0
 40
0.0
  0
LTYPE
  5
15
330
5
100
AcDbSymbolTableRecord
100
AcDbLinetypeTableRecord
  2
ByLayer
 70
     0
  3

 72
    65
 73
     0
 40
0.0
  0
LTYPE
  5
16
330
5
100
AcDbSymbolTableRecord
100
AcDbLinetypeTableRecord
  2
Continuous
 70
     0
  3
Solid line
 72
    65
 73
     0
 40
0.0
  0
LTYPE
  5
60
330
5
100
AcDbSymbolTableRecord
100
AcDbLinetypeTableRecord
  2
CENTER2
 70
     0
  3
Center (.5x) ___ _ ___ _ ___ _ ___ _ ___ _ ___
 72
    65
 73
     4
 40
28.575
 49
19.05
 74
     4
 75
     0
340
0
 46
0.0
 50
0.0
 44
0.0
 45
0.0
 49
-3.175
 74
     4
 75
     0
340
0
 46
0.0
 50
0.0
 44
0.0
 45
0.0
 49
3.175
 74
     4
 75
     0
340
0
 46
0.0
 50
0.0
 44
0.0
 45
0.0
 49
-3.175
 74
     4
 75
     0
340
0
 46
0.0
 50
0.0
 44
0.0
 45
0.0
  0
ENDTAB
  0
TABLE
  2
LAYER
  5
2
330
0
100
AcDbSymbolTable
 70
     3
  0
LAYER
  5
10
330
2
100
AcDbSymbolTableRecord
100
AcDbLayerTableRecord
  2
0
 70
     0
 62
     7
  6
Continuous
370
    -3
390
F
  0
LAYER
  5
5D
330
2
100
AcDbSymbolTableRecord
100
AcDbLayerTableRecord
  2
Default
 70
     0
 62
     7
  6
Continuous
370
    -3
390
F
  0
LAYER
  5
76
330
2
100
AcDbSymbolTableRecord
100
AcDbLayerTableRecord
  2
40296000_HALTER_
 70
     0
 62
     7
  6
Continuous
370
    -3
390
F
  0
ENDTAB
  0
TABLE
  2
STYLE
  5
3
330
0
100
AcDbSymbolTable
 70
     2
  0
STYLE
  5
11
330
3
100
AcDbSymbolTableRecord
100
AcDbTextStyleTableRecord
  2
Standard
 70
     0
 40
0.0
 41
1.0
 50
0.0
 71
     0
 42
2.5
  3
txt
  4

  0
STYLE
  5
F2
330
3
100
AcDbSymbolTableRecord
100
AcDbTextStyleTableRecord
  2
SEACAD_seiso_ttf
 70
     0
 40
0.0
 41
1.0
 50
0.0
 71
     0
 42
0.2
  3
seiso.ttf
  4

  0
ENDTAB
  0
TABLE
  2
VIEW
  5
6
330
0
100
AcDbSymbolTable
 70
     0
  0
ENDTAB
  0
TABLE
  2
UCS
  5
7
330
0
100
AcDbSymbolTable
 70
     0
  0
ENDTAB
  0
TABLE
  2
APPID
  5
9
330
0
100
AcDbSymbolTable
 70
     1
  0
APPID
  5
12
330
9
100
AcDbSymbolTableRecord
100
AcDbRegAppTableRecord
  2
ACAD
 70
     0
  0
ENDTAB
  0
TABLE
  2
DIMSTYLE
  5
A
330
0
100
AcDbSymbolTable
 70
     1
100
AcDbDimStyleTable
  0
DIMSTYLE
105
27
330
A
100
AcDbSymbolTableRecord
100
AcDbDimStyleTableRecord
  2
ISO-25
 70
     0
 41
2.5
 42
0.625
 43
3.75
 44
1.25
 73
     0
 74
     0
 77
     1
 78
     8
140
2.5
141
2.5
143
0.0393700787
147
0.625
171
     3
172
     1
271
     2
272
     2
274
     3
278
    44
283
     0
284
     8
340
11
  0
ENDTAB
  0
TABLE
  2
BLOCK_RECORD
  5
1
330
0
100
AcDbSymbolTable
 70
     7
  0
BLOCK_RECORD
  5
1F
330
1
100
AcDbSymbolTableRecord
100
AcDbBlockTableRecord
  2
*Model_Space
340
22
  0
BLOCK_RECORD
  5
1B
330
1
100
AcDbSymbolTableRecord
100
AcDbBlockTableRecord
  2
*Paper_Space
340
1E
  0
BLOCK_RECORD
  5
5E
330
1
100
AcDbSymbolTableRecord
100
AcDbBlockTableRecord
  2
SEANNOT_GROUP
340
0
102
{BLKREFS
331
5F
102
}
  0
BLOCK_RECORD
  5
69
330
1
100
AcDbSymbolTableRecord
100
AcDbBlockTableRecord
  2
SEANNOT_GROUP1
340
0
102
{BLKREFS
331
6A
102
}
  0
BLOCK_RECORD
  5
6F
330
1
100
AcDbSymbolTableRecord
100
AcDbBlockTableRecord
  2
SEANNOT_GROUP2
340
0
102
{BLKREFS
331
70
102
}
  0
BLOCK_RECORD
  5
74
330
1
100
AcDbSymbolTableRecord
100
AcDbBlockTableRecord
  2
SE
340
0
102
{BLKREFS
331
75
102
}
  0
BLOCK_RECORD
  5
97
330
1
100
AcDbSymbolTableRecord
100
AcDbBlockTableRecord
  2
SE1
340
0
102
{BLKREFS
331
98
102
}
  0
BLOCK_RECORD
  5
BC
330
1
100
AcDbSymbolTableRecord
100
AcDbBlockTableRecord
  2
SE2
340
0
102
{BLKREFS
331
BD
102
}
  0
ENDTAB
  0
ENDSEC
  0
SECTION
  2
BLOCKS
  0
BLOCK
  5
20
330
1F
100
AcDbEntity
  8
0
100
AcDbBlockBegin
  2
*Model_Space
 70
     0
 10
0.0
 20
0.0
 30
0.0
  3
*Model_Space
  1

  0
ENDBLK
  5
21
330
1F
100
AcDbEntity
  8
0
100
AcDbBlockEnd
  0
BLOCK
  5
1C
330
1B
100
AcDbEntity
 67
     1
  8
0
100
AcDbBlockBegin
  2
*Paper_Space
 70
     0
 10
0.0
 20
0.0
 30
0.0
  3
*Paper_Space
  1

  0
ENDBLK
  5
1D
330
1B
100
AcDbEntity
 67
     1
  8
0
100
AcDbBlockEnd
  0
BLOCK
  5
67
330
5E
100
AcDbEntity
  8
0
100
AcDbBlockBegin
  2
SEANNOT_GROUP
 70
     0
 10
0.0
 20
0.0
 30
0.0
  3
SEANNOT_GROUP
  1

  0
LINE
  5
61
330
5E
100
AcDbEntity
  8
Default
  6
CENTER2
 62
     7
100
AcDbLine
 10
46.3670475746
 20
292.550019661
 30
0.0
 11
6.3670484687
 21
292.550019661
 31
0.0
  0
LINE
  5
62
330
5E
100
AcDbEntity
  8
Default
  6
CENTER2
 62
     7
100
AcDbLine
 10
26.3670480217
 20
312.550019214
 30
0.0
 11
26.3670480217
 21
272.5500201081
 31
0.0
  0
LINE
  5
63
330
5E
100
AcDbEntity
  8
Default
  6
CENTER2
 62
     7
100
AcDbLine
 10
51.3670474629
 20
292.550019661
 30
0.0
 11
49.8562492496
 21
292.550019661
 31
0.0
  0
LINE
  5
64
330
5E
100
AcDbEntity
  8
Default
  6
CENTER2
 62
     7
100
AcDbLine
 10
26.3670480217
 20
317.5500191022
 30
0.0
 11
26.3670480217
 21
316.039220889
 31
0.0
  0
LINE
  5
65
330
5E
100
AcDbEntity
  8
Default
  6
CENTER2
 62
     7
100
AcDbLine
 10
1.3670485805
 20
292.550019661
 30
0.0
 11
2.8778467937
 21
292.550019661
 31
0.0
  0
LINE
  5
66
330
5E
100
AcDbEntity
  8
Default
  6
CENTER2
 62
     7
100
AcDbLine
 10
26.3670480217
 20
267.5500202198
 30
0.0
 11
26.3670480217
 21
269.0608184331
 31
0.0
  0
ENDBLK
  5
68
330
5E
100
AcDbEntity
  8
0
100
AcDbBlockEnd
  0
BLOCK
  5
6D
330
69
100
AcDbEntity
  8
0
100
AcDbBlockBegin
  2
SEANNOT_GROUP1
 70
     0
 10
0.0
 20
0.0
 30
0.0
  3
SEANNOT_GROUP1
  1

  0
LINE
  5
6B
330
69
100
AcDbEntity
  8
Default
  6
CENTER2
 62
     7
100
AcDbLine
 10
46.3852797682
 20
198.35
 30
0.0
 11
6.3852806622
 21
198.35
 31
0.0
  0
LINE
  5
6C
330
69
100
AcDbEntity
  8
Default
  6
CENTER2
 62
     7
100
AcDbLine
 10
26.3852802152
 20
218.349999553
 30
0.0
 11
26.3852802152
 21
178.350000447
 31
0.0
  0
ENDBLK
  5
6E
330
69
100
AcDbEntity
  8
0
100
AcDbBlockEnd
  0
BLOCK
  5
72
330
6F
100
AcDbEntity
  8
0
100
AcDbBlockBegin
  2
SEANNOT_GROUP2
 70
     0
 10
0.0
 20
0.0
 30
0.0
  3
SEANNOT_GROUP2
  1

  0
LINE
  5
71
330
6F
100
AcDbEntity
  8
Default
  6
CENTER2
 62
     7
100
AcDbLine
 10
277.8449975275
 20
292.5716354047
 30
0.0
 11
215.0576039566
 21
292.5716354047
 31
0.0
  0
ENDBLK
  5
73
330
6F
100
AcDbEntity
  8
0
100
AcDbBlockEnd
  0
BLOCK
  5
95
330
74
100
AcDbEntity
  8
0
100
AcDbBlockBegin
  2
SE
 70
     0
 10
0.0
 20
0.0
 30
0.0
  3
SE
  1

  0
LINE
  5
77
330
74
100
AcDbEntity
  8
40296000_HALTER_
  6
Continuous
 62
     7
100
AcDbLine
 10
21.3752930943
 20
273.2026354047
 30
0.0
 11
21.3133565277
 21
273.218815375
 31
0.0
  0
LINE
  5
78
330
74
100
AcDbEntity
  8
40296000_HALTER_
  6
Continuous
 62
     7
100
AcDbLine
 10
21.3752930943
 20
273.2026354047
 30
0.0
 11
21.326057741
 21
273.2026354047
 31
0.0
  0
LINE
  5
79
330
74
100
AcDbEntity
  8
40296000_HALTER_
  6
Continuous
 62
     7
100
AcDbLine
 10
21.3133565277
 20
273.218815375
 30
0.0
 11
21.326057741
 21
273.2026354047
 31
0.0
  0
SPLINE
  5
7A
330
74
100
AcDbEntity
  8
40296000_HALTER_
  6
Continuous
 62
     7
100
AcDbSpline
210
0.0
220
0.0
230
1.0
 70
    12
 71
     4
 72
    13
 73
     8
 74
     0
 42
0.0000000000750113
 43
0.0000000001
 40
0.2304369861553121
 40
0.2304369861553121
 40
0.2304369861553121
 40
0.2304369861553121
 40
0.2304369861553121
 40
0.5000008836345458
 40
0.5000008836345458
 40
0.5000008836345458
 40
0.7695648233290358
 40
0.7695648233290358
 40
0.7695648233290358
 40
0.7695648233290358
 40
0.7695648233290358
 10
46.38502064043284
 20
283.5713888297535
 30
0.0
 41
0.58578643761428
 10
46.38494138839227
 20
275.793229195195
 30
0.0
 41
0.585785641116711
 10
42.84932881528513
 20
265.4606573186517
 30
0.0
 41
0.5522852808439025
 10
33.45603241392152
 20
261.5716354047111
 30
0.0
 41
0.585786437626905
 10
19.31400776209548
 20
261.5716354047111
 30
0.0
 41
0.585786437626905
 10
9.920709347539761
 20
265.4606586106262
 30
0.0
 41
0.5522852703509532
 10
6.385098328890323
 20
275.7932337719974
 30
0.0
 41
0.5857856568557631
 10
6.385020642896061
 20
283.5713937021648
 30
0.0
 41
0.585786437614774
  0
ARC
  5
7B
330
74
100
AcDbEntity
  8
40296000_HALTER_
  6
Continuous
 62
     7
100
AcDbCircle
 10
26.3670480217
 20
292.550019661
 30
0.0
 40
19.98920122798631
100
AcDbArc
 50
77.5260444031
 51
77.7054057429
  0
ARC
  5
7C
330
74
100
AcDbEntity
  8
40296000_HALTER_
  6
Continuous
 62
     7
100
AcDbCircle
 10
26.3670480217
 20
292.550019661
 30
0.0
 40
19.98920122798631
100
AcDbArc
 50
17.5152760124
 51
51.7937406116
  0
ARC
  5
7D
330
74
100
AcDbEntity
  8
40296000_HALTER_
  6
Continuous
 62
     7
100
AcDbCircle
 10
26.3670480217
 20
292.550019661
 30
0.0
 40
19.98920122798631
100
AcDbArc
 50
102.2091670621
 51
342.6136588639
  0
ARC
  5
7E
330
74
100
AcDbEntity
  8
40296000_HALTER_
  6
Continuous
 62
     7
100
AcDbCircle
 10
26.3815321687
 20
311.8732917428
 30
0.0
 40
3.102290322018049
100
AcDbArc
 50
190.8717529255
 51
349.0373368653
  0
ARC
  5
7F
330
74
100
AcDbEntity
  8
40296000_HALTER_
  6
Continuous
 62
     7
100
AcDbCircle
 10
26.3850206417
 20
292.5716354047
 30
0.0
 40
6.25
100
AcDbArc
 50
73.7397952917
 51
286.2602047083
  0
LINE
  5
80
330
74
100
AcDbEntity
  8
40296000_HALTER_
  6
Continuous
 62
     7
100
AcDbLine
 10
46.3850206404
 20
283.571384602
 30
0.0
 11
46.3850206401
 21
286.5778111502
 31
0.0
  0
LINE
  5
81
330
74
100
AcDbEntity
  8
40296000_HALTER_
  6
Continuous
 62
     7
100
AcDbLine
 10
6.3850206873
 20
292.5624538686
 30
0.0
 11
6.3850206429
 21
283.5713895512
 31
0.0
  0
ARC
  5
82
330
74
100
AcDbEntity
  8
40296000_HALTER_
  6
Continuous
 62
     7
100
AcDbCircle
 10
26.3743067542
 20
292.5156248332
 30
0.0
 40
20.01871771045789
100
AcDbArc
 50
51.8718287525
 51
77.7468009102
  0
ARC
  5
83
330
74
100
AcDbEntity
  8
40296000_HALTER_
  6
Continuous
 62
     7
100
AcDbCircle
 10
22.350882802
 20
311.1103777711
 30
0.0
 40
0.9999999999999946
100
AcDbArc
 50
10.3490997491
 51
102.200610528
  0
ARC
  5
84
330
74
100
AcDbEntity
  8
40296000_HALTER_
  6
Continuous
 62
     7
100
AcDbCircle
 10
30.4111098187
 20
311.1046989542
 30
0.0
 40
1.000000000000041
100
AcDbArc
 50
77.7236380375
 51
169.6307065348
  0
CIRCLE
  5
85
330
74
100
AcDbEntity
  8
40296000_HALTER_
  6
Continuous
 62
     7
100
AcDbCircle
 10
26.385044099
 20
311.9037231915
 30
0.0
 40
2.949882501993239
  0
LINE
  5
86
330
74
100
AcDbEntity
  8
40296000_HALTER_
  6
Continuous
 62
     7
100
AcDbLine
 10
29.3350206417
 20
310.9409842279
 30
0.0
 11
29.3350206417
 21
311.9000290658
 31
0.0
  0
LINE
  5
87
330
74
100
AcDbEntity
  8
40296000_HALTER_
  6
Continuous
 62
     7
100
AcDbLine
 10
23.4350206417
 20
311.899958291
 30
0.0
 11
23.4350206417
 21
310.9385459389
 31
0.0
  0
ARC
  5
88
330
74
100
AcDbEntity
  8
40296000_HALTER_
  6
Continuous
 62
     7
100
AcDbCircle
 10
26.3850206417
 20
292.5716354047
 30
0.0
 40
6.0
100
AcDbArc
 50
90.0
 51
270.0
  0
LINE
  5
89
330
74
100
AcDbEntity
  8
40296000_HALTER_
  6
Continuous
 62
     7
100
AcDbLine
 10
26.3850206417
 20
286.5716354047
 30
0.0
 11
47.3850206417
 21
286.5716354047
 31
0.0
  0
LINE
  5
8A
330
74
100
AcDbEntity
  8
40296000_HALTER_
  6
Continuous
 62
     7
100
AcDbLine
 10
47.3850206417
 20
298.5716354047
 30
0.0
 11
26.3850206417
 21
298.5716354047
 31
0.0
  0
LINE
  5
8B
330
74
100
AcDbEntity
  8
40296000_HALTER_
  6
Continuous
 62
     7
100
AcDbLine
 10
47.3850206417
 20
286.5716354047
 30
0.0
 11
156.3850206417
 21
286.5716354047
 31
0.0
  0
LINE
  5
8C
330
74
100
AcDbEntity
  8
40296000_HALTER_
  6
Continuous
 62
     7
100
AcDbLine
 10
156.3850206417
 20
298.5716354047
 30
0.0
 11
47.3850206417
 21
298.5716354047
 31
0.0
  0
LINE
  5
8D
330
74
100
AcDbEntity
  8
40296000_HALTER_
  6
Continuous
 62
     7
100
AcDbLine
 10
156.3850206417
 20
303.5716354047
 30
0.0
 11
156.3850206417
 21
281.5716354047
 31
0.0
  0
LINE
  5
8E
330
74
100
AcDbEntity
  8
40296000_HALTER_
  6
Continuous
 62
     7
100
AcDbLine
 10
167.5025661054
 20
304.5716354047
 30
0.0
 11
157.3850206417
 21
304.5716354047
 31
0.0
  0
LINE
  5
8F
330
74
100
AcDbEntity
  8
40296000_HALTER_
  6
Continuous
 62
     7
100
AcDbLine
 10
157.3850206417
 20
280.5716354047
 30
0.0
 11
167.5025661054
 21
280.5716354047
 31
0.0
  0
ARC
  5
90
330
74
100
AcDbEntity
  8
40296000_HALTER_
  6
Continuous
 62
     7
100
AcDbCircle
 10
99.3850206417
 20
292.5716354047
 30
0.0
 40
69.99999999999999
100
AcDbArc
 50
350.8267506162
 51
9.1732493838
  0
ARC
  5
91
330
74
100
AcDbEntity
  8
40296000_HALTER_
  6
Continuous
 62
     7
100
AcDbCircle
 10
157.3850206417
 20
281.5716354047
 30
0.0
 40
1.000000000000001
100
AcDbArc
 50
180.0
 51
270.0
  0
ARC
  5
92
330
74
100
AcDbEntity
  8
40296000_HALTER_
  6
Continuous
 62
     7
100
AcDbCircle
 10
157.3850206417
 20
303.5716354047
 30
0.0
 40
1.000000000000001
100
AcDbArc
 50
90.0
 51
180.0
  0
ARC
  5
93
330
74
100
AcDbEntity
  8
40296000_HALTER_
  6
Continuous
 62
     7
100
AcDbCircle
 10
167.5025661054
 20
281.5716354047
 30
0.0
 40
1.0
100
AcDbArc
 50
270.0
 51
350.8267506162
  0
ARC
  5
94
330
74
100
AcDbEntity
  8
40296000_HALTER_
  6
Continuous
 62
     7
100
AcDbCircle
 10
167.5025661054
 20
303.5716354047
 30
0.0
 40
0.9999999999999888
100
AcDbArc
 50
9.1732493838
 51
90.0
  0
ENDBLK
  5
96
330
74
100
AcDbEntity
  8
0
100
AcDbBlockEnd
  0
BLOCK
  5
BA
330
97
100
AcDbEntity
  8
0
100
AcDbBlockBegin
  2
SE1
 70
     0
 10
0.0
 20
0.0
 30
0.0
  3
SE1
  1

  0
ARC
  5
99
330
97
100
AcDbEntity
  8
40296000_HALTER_
  6
Continuous
 62
     7
100
AcDbCircle
 10
268.2271822084
 20
256.397833303
 30
0.0
 40
16.32886864711054
100
AcDbArc
 50
81.5308985451
 51
106.3444806568
  0
LINE
  5
9A
330
97
100
AcDbEntity
  8
40296000_HALTER_
  6
Continuous
 62
     7
100
AcDbLine
 10
232.1320356389
 20
305.0716534739
 30
0.0
 11
232.1320356389
 21
261.5716354047
 31
0.0
  0
SPLINE
  5
9B
330
97
100
AcDbEntity
  8
40296000_HALTER_
  6
Continuous
 62
     7
100
AcDbSpline
210
0.0
220
0.0
230
1.0
 70
     8
 71
     3
 72
    10
 73
     6
 74
     0
 42
0.0000000015603939
 43
0.0000000001
 40
0.5032424086217453
 40
0.5032424086217453
 40
0.5032424086217453
 40
0.5032424086217453
 40
0.75
 40
0.75
 40
0.939041337505895
 40
0.939041337505895
 40
0.939041337505895
 40
0.939041337505895
 10
273.1368569205278
 20
307.9671423887492
 30
0.0
 10
273.1344863793884
 20
307.9765624003269
 30
0.0
 10
273.0469136531493
 20
308.3278589115897
 30
0.0
 10
272.7792529648603
 20
309.3984969741117
 30
0.0
 10
272.6276025702115
 20
310.0042599560146
 30
0.0
 10
272.4589116068001
 20
310.6764880812405
 30
0.0
  0
ELLIPSE
  5
9C
330
97
100
AcDbEntity
  8
40296000_HALTER_
  6
Continuous
 62
     7
100
AcDbEllipse
 10
271.3202858893
 20
311.1103777711
 30
0.0
 11
0.0385317192606871
 21
-0.9992573775613744
 31
0.0
210
0.0
220
0.0
230
1.0
 40
0.0007746821
 41
3.138755707745612
 42
3.331478692056075
  0
LINE
  5
9D
330
97
100
AcDbEntity
  8
40296000_HALTER_
  6
Continuous
 62
     7
100
AcDbLine
 10
270.6245210255
 20
272.546560213
 30
0.0
 11
271.3278272697
 21
272.5613317565
 31
0.0
  0
ARC
  5
9E
330
97
100
AcDbEntity
  8
40296000_HALTER_
  6
Continuous
 62
     7
100
AcDbCircle
 10
272.6200454943
 20
192.5541517335
 30
0.0
 40
80.01682320174636
100
AcDbArc
 50
96.4444477759
 51
120.3973398032
  0
ARC
  5
9F
330
97
100
AcDbEntity
  8
40296000_HALTER_
  6
Continuous
 62
     7
100
AcDbCircle
 10
194.6218781586
 20
292.5716354047
 30
0.0
 40
80.01015748031135
100
AcDbArc
 50
4.8699762708
 51
11.0998134397
  0
ARC
  5
A0
330
97
100
AcDbEntity
  8
40296000_HALTER_
  6
Continuous
 62
     7
100
AcDbCircle
 10
194.6218781586
 20
292.5716354047
 30
0.0
 40
80.0101574803113
100
AcDbArc
 50
346.0880652452
 51
355.1300237292
  0
ARC
  5
A1
330
97
100
AcDbEntity
  8
40296000_HALTER_
  6
Continuous
 62
     7
100
AcDbCircle
 10
271.3158061202
 20
273.559892738
 30
0.0
 40
0.9947574188553909
100
AcDbArc
 50
270.7358680732
 51
346.9183707603
  0
ARC
  5
A2
330
97
100
AcDbEntity
  8
40296000_HALTER_
  6
Continuous
 62
     7
100
AcDbCircle
 10
276.7574749817
 20
168.4320261201
 30
0.0
 40
143.7749846758595
100
AcDbArc
 50
92.1825732618
 51
108.0847850749
  0
ARC
  5
A3
330
97
100
AcDbEntity
  8
40296000_HALTER_
  6
Continuous
 62
     7
100
AcDbCircle
 10
271.3202858893
 20
311.1103777711
 30
0.0
 40
1.000000000000002
100
AcDbArc
 50
14.1071200431
 51
92.2082515505
  0
SPLINE
  5
A4
330
97
100
AcDbEntity
  8
40296000_HALTER_
  6
Continuous
 62
     7
100
AcDbSpline
210
0.0
220
0.0
230
1.0
 70
     8
 71
     3
 72
     8
 73
     4
 74
     0
 42
0.0000000147057303
 43
0.0000000001
 40
0.0
 40
0.0
 40
0.0
 40
0.0
 40
1.0
 40
1.0
 40
1.0
 40
1.0
 10
272.4554416747114
 20
310.6956813888426
 30
0.0
 10
272.4003312353877
 20
310.9152852068023
 30
0.0
 10
272.3451202359065
 20
311.1351273877495
 30
0.0
 10
272.2898086762676
 20
311.3552079316846
 30
0.0
  0
ARC
  5
A5
330
97
100
AcDbEntity
  8
40296000_HALTER_
  6
Continuous
 62
     7
100
AcDbCircle
 10
272.1632833587
 20
307.7799263844
 30
0.0
 40
0.9912293784103293
100
AcDbArc
 50
13.9521805904
 51
16.5714105852
  0
LINE
  5
A6
330
97
100
AcDbEntity
  8
40296000_HALTER_
  6
Continuous
 62
     7
100
AcDbLine
 10
272.5052210441
 20
310.498503514
 30
0.0
 11
272.340727927
 21
311.1538202532
 31
0.0
  0
ARC
  5
A7
330
97
100
AcDbEntity
  8
40296000_HALTER_
  6
Continuous
 62
     7
100
AcDbCircle
 10
273.8449975275
 20
285.8216354047
 30
0.0
 40
0.5000000000000288
100
AcDbArc
 50
355.1300237292
 51
0.0
  0
ARC
  5
A8
330
97
100
AcDbEntity
  8
40296000_HALTER_
  6
Continuous
 62
     7
100
AcDbCircle
 10
273.8449975275
 20
299.3216354047
 30
0.0
 40
0.5000000000000004
100
AcDbArc
 50
0.0
 51
4.8699762708
  0
LINE
  5
A9
330
97
100
AcDbEntity
  8
40296000_HALTER_
  6
Continuous
 62
     7
100
AcDbLine
 10
274.3449975275
 20
285.8216354047
 30
0.0
 11
274.3449975275
 21
299.3216354047
 31
0.0
  0
SPLINE
  5
AA
330
97
100
AcDbEntity
  8
40296000_HALTER_
  6
Continuous
 62
     7
100
AcDbSpline
210
0.0
220
0.0
230
1.0
 70
     8
 71
     3
 72
    10
 73
     6
 74
     0
 42
0.0000000008386369
 43
0.0000000001
 40
0.2585934130472605
 40
0.2585934130472605
 40
0.2585934130472605
 40
0.2585934130472605
 40
0.3749999999999999
 40
0.3749999999999999
 40
0.4985403828880753
 40
0.4985403828880753
 40
0.4985403828880753
 40
0.4985403828880753
 10
232.4839756526267
 20
308.1163613653854
 30
0.0
 10
232.484068659901
 20
308.1142842638029
 30
0.0
 10
232.4979066209948
 20
307.8242486601951
 30
0.0
 10
232.5481108347481
 20
306.784243501508
 30
0.0
 10
232.5848594069856
 20
306.02901008658
 30
0.0
 10
232.6228897262798
 20
305.2585816309723
 30
0.0
  0
SPLINE
  5
AB
330
97
100
AcDbEntity
  8
40296000_HALTER_
  6
Continuous
 62
     7
100
AcDbSpline
210
0.0
220
0.0
230
1.0
 70
     8
 71
     3
 72
    14
 73
    10
 74
     0
 42
0.000000000787105
 43
0.0000000001
 40
0.4597132673914721
 40
0.4597132673914721
 40
0.4597132673914721
 40
0.4597132673914721
 40
0.5
 40
0.5
 40
0.625
 40
0.625
 40
0.75
 40
0.75
 40
0.7510221749954268
 40
0.7510221749954268
 40
0.7510221749954268
 40
0.7510221749954268
 10
272.3405208939495
 20
311.1525082322248
 30
0.0
 10
272.3392370422683
 20
311.3923743708879
 30
0.0
 10
272.3379174918402
 20
311.6399114676319
 30
0.0
 10
272.3325186771012
 20
312.658099372523
 30
0.0
 10
272.3284946495575
 20
313.4300126223037
 30
0.0
 10
272.3228452268813
 20
314.524314094532
 30
0.0
 10
272.3211959513938
 20
314.8487738039174
 30
0.0
 10
272.3211720703121
 20
314.8534535733939
 30
0.0
 10
272.3211719852503
 20
314.853470154943
 30
0.0
 10
272.3211720085924
 20
314.8534654110373
 30
0.0
  0
LINE
  5
AC
330
97
100
AcDbEntity
  8
40296000_HALTER_
  6
Continuous
 62
     7
100
AcDbLine
 10
232.1320356389
 20
307.6388217777
 30
0.0
 11
232.1320356389
 21
305.1084106731
 31
0.0
  0
SPLINE
  5
AD
330
97
100
AcDbEntity
  8
40296000_HALTER_
  6
Continuous
 62
     7
100
AcDbSpline
210
0.0
220
0.0
230
1.0
 70
     8
 71
     3
 72
    16
 73
    12
 74
     0
 42
0.0000000002467333
 43
0.0000000001
 40
0.0
 40
0.0
 40
0.0
 40
0.0
 40
0.1106899673963822
 40
0.2279431545447245
 40
0.3451963416930653
 40
0.4624495288414062
 40
0.5797027159897473
 40
0.6948622617699882
 40
0.8100218075502291
 40
0.9251813533304694
 40
1.0
 40
1.0
 40
1.0
 40
1.0
 10
272.3212996911321
 20
314.849550961936
 30
0.0
 10
270.6779668354737
 20
314.7826561657542
 30
0.0
 10
267.8243680795344
 20
314.6603308248356
 30
0.0
 10
263.0819977525076
 20
314.2778566937743
 30
0.0
 10
258.3844979441026
 20
313.7561778668666
 30
0.0
 10
253.6726001046956
 20
313.0829904199088
 30
0.0
 10
249.0232203714333
 20
312.2697083906523
 30
0.0
 10
244.4166719513048
 20
311.3167198771803
 30
0.0
 10
239.9066370527689
 20
310.2357066969669
 30
0.0
 10
235.832291110399
 20
309.1391916755188
 30
0.0
 10
233.5475999341069
 20
308.431020517234
 30
0.0
 10
232.486251474041
 20
308.1002473232033
 30
0.0
  0
ARC
  5
AE
330
97
100
AcDbEntity
  8
40296000_HALTER_
  6
Continuous
 62
     7
100
AcDbCircle
 10
253.0735032527
 20
311.9183158189
 30
0.0
 40
19.9181996719519
100
AcDbArc
 50
352.7169759047
 51
7.1835859247
  0
ARC
  5
AF
330
97
100
AcDbEntity
  8
40296000_HALTER_
  6
Continuous
 62
     7
100
AcDbCircle
 10
272.3383694759
 20
314.353763473
 30
0.0
 40
0.4999999264691271
100
AcDbArc
 50
6.3572911801
 51
91.9666881039
  0
ARC
  5
B0
330
97
100
AcDbEntity
  8
40296000_HALTER_
  6
Continuous
 62
     7
100
AcDbCircle
 10
272.3346556976
 20
309.4536689654
 30
0.0
 40
0.4999999697294168
100
AcDbArc
 50
340.7655473229
 51
353.0737421841
  0
ARC
  5
B1
330
97
100
AcDbEntity
  8
40296000_HALTER_
  6
Continuous
 62
     7
100
AcDbCircle
 10
232.6320356309
 20
307.6390145495
 30
0.0
 40
0.4999999854885599
100
AcDbArc
 50
107.4711053539
 51
180.0000175525
  0
ARC
  5
B2
330
97
100
AcDbEntity
  8
40296000_HALTER_
  6
Continuous
 62
     7
100
AcDbCircle
 10
312.1320356389
 20
292.5716354047
 30
0.0
 40
6.0
100
AcDbArc
 50
0.0
 51
90.0
  0
ARC
  5
B3
330
97
100
AcDbEntity
  8
40296000_HALTER_
  6
Continuous
 62
     7
100
AcDbCircle
 10
312.1320356389
 20
292.5716354047
 30
0.0
 40
6.0
100
AcDbArc
 50
270.0
 51
0.0
  0
LINE
  5
B4
330
97
100
AcDbEntity
  8
40296000_HALTER_
  6
Continuous
 62
     7
100
AcDbLine
 10
274.3449975275
 20
286.5716354047
 30
0.0
 11
291.1320356389
 21
286.5716354047
 31
0.0
  0
LINE
  5
B5
330
97
100
AcDbEntity
  8
40296000_HALTER_
  6
Continuous
 62
     7
100
AcDbLine
 10
291.1320356389
 20
298.5716354047
 30
0.0
 11
274.3449975275
 21
298.5716354047
 31
0.0
  0
LINE
  5
B6
330
97
100
AcDbEntity
  8
40296000_HALTER_
  6
Continuous
 62
     7
100
AcDbLine
 10
291.1320356389
 20
286.5716354047
 30
0.0
 11
312.1320356389
 21
286.5716354047
 31
0.0
  0
LINE
  5
B7
330
97
100
AcDbEntity
  8
40296000_HALTER_
  6
Continuous
 62
     7
100
AcDbLine
 10
312.1320356389
 20
298.5716354047
 30
0.0
 11
291.1320356389
 21
298.5716354047
 31
0.0
  0
ARC
  5
B8
330
97
100
AcDbEntity
  8
40296000_HALTER_
  6
Continuous
 62
     7
100
AcDbCircle
 10
312.1320356389
 20
292.5716354047
 30
0.0
 40
12.0
100
AcDbArc
 50
210.0
 51
0.0
  0
ARC
  5
B9
330
97
100
AcDbEntity
  8
40296000_HALTER_
  6
Continuous
 62
     7
100
AcDbCircle
 10
312.1320356389
 20
292.5716354047
 30
0.0
 40
12.0
100
AcDbArc
 50
0.0
 51
150.0
  0
ENDBLK
  5
BB
330
97
100
AcDbEntity
  8
0
100
AcDbBlockEnd
  0
BLOCK
  5
F0
330
BC
100
AcDbEntity
  8
0
100
AcDbBlockBegin
  2
SE2
 70
     0
 10
0.0
 20
0.0
 30
0.0
  3
SE2
  1

  0
LINE
  5
BE
330
BC
100
AcDbEntity
  8
40296000_HALTER_
  6
Continuous
 62
     7
100
AcDbLine
 10
46.3850206417
 20
198.35
 30
0.0
 11
30.6244672418
 21
198.35
 31
0.0
  0
LINE
  5
BF
330
BC
100
AcDbEntity
  8
40296000_HALTER_
  6
Continuous
 62
     7
100
AcDbLine
 10
22.1453786187
 20
198.35
 30
0.0
 11
6.3850206417
 21
198.35
 31
0.0
  0
SPLINE
  5
C0
330
BC
100
AcDbEntity
  8
40296000_HALTER_
  6
Continuous
 62
     7
100
AcDbSpline
210
0.0
220
0.0
230
1.0
 70
     8
 71
     3
 72
     8
 73
     4
 74
     0
 42
0.0000000094225352
 43
0.0000000001
 40
0.2313901409356347
 40
0.2313901409356347
 40
0.2313901409356347
 40
0.2313901409356347
 40
0.2323323944541221
 40
0.2323323944541221
 40
0.2323323944541221
 40
0.2323323944541221
 10
46.38511469566424
 20
159.1686549988383
 30
0.0
 10
46.38521555668029
 20
159.168578708527
 30
0.0
 10
46.38521523303685
 20
159.1685025159706
 30
0.0
 10
46.38511361212458
 20
159.1684264226965
 30
0.0
  0
LINE
  5
C1
330
BC
100
AcDbEntity
  8
40296000_HALTER_
  6
Continuous
 62
     7
100
AcDbLine
 10
29.4250578244
 20
198.35
 30
0.0
 11
28.9321610978
 21
198.35
 31
0.0
  0
LINE
  5
C2
330
BC
100
AcDbEntity
  8
40296000_HALTER_
  6
Continuous
 62
     7
100
AcDbLine
 10
23.8386739176
 20
198.35
 30
0.0
 11
23.345502606
 21
198.35
 31
0.0
  0
LINE
  5
C3
330
BC
100
AcDbEntity
  8
40296000_HALTER_
  6
Continuous
 62
     7
100
AcDbLine
 10
29.4250578244
 20
198.35
 30
0.0
 11
30.6244672418
 21
198.35
 31
0.0
  0
LINE
  5
C4
330
BC
100
AcDbEntity
  8
40296000_HALTER_
  6
Continuous
 62
     7
100
AcDbLine
 10
22.1453786187
 20
198.35
 30
0.0
 11
23.345502606
 21
198.35
 31
0.0
  0
SPLINE
  5
C5
330
BC
100
AcDbEntity
  8
40296000_HALTER_
  6
Continuous
 62
     7
100
AcDbSpline
210
0.0
220
0.0
230
1.0
 70
     8
 71
     3
 72
    20
 73
    16
 74
     0
 42
0.0000000001498107
 43
0.0000000001
 40
0.0
 40
0.0
 40
0.0
 40
0.0
 40
0.03125
 40
0.03125
 40
0.0625
 40
0.0625
 40
0.09375
 40
0.09375
 40
0.125
 40
0.125
 40
0.15625
 40
0.15625
 40
0.1875
 40
0.1875
 40
0.2269430046275477
 40
0.2269430046275477
 40
0.2269430046275477
 40
0.2269430046275477
 10
22.29982433095937
 20
158.1910086426782
 30
0.0
 10
21.15738750330339
 20
158.1913916437954
 30
0.0
 10
20.02130935605248
 20
158.191817720562
 30
0.0
 10
17.85440627885401
 20
158.1926894899788
 30
0.0
 10
16.82291028051175
 20
158.1931343590435
 30
0.0
 10
14.86289654683201
 20
158.1940122349312
 30
0.0
 10
13.92802757896279
 20
158.1944484837561
 30
0.0
 10
12.23430972952573
 20
158.1952531391777
 30
0.0
 10
11.46702866971198
 20
158.1956251954742
 30
0.0
 10
10.09264729406578
 20
158.1962957419772
 30
0.0
 10
9.486940394474285
 20
158.1965935913646
 30
0.0
 10
8.48751840968566
 20
158.1970890172908
 30
0.0
 10
8.085846517212184
 20
158.1972904747928
 30
0.0
 10
7.403899222796231
 20
158.1976506179854
 30
0.0
 10
7.191892960801666
 20
158.1977780821598
 30
0.0
 10
7.151175974658197
 20
158.1978540323641
 30
0.0
  0
SPLINE
  5
C6
330
BC
100
AcDbEntity
  8
40296000_HALTER_
  6
Continuous
 62
     7
100
AcDbSpline
210
0.0
220
0.0
230
1.0
 70
     8
 71
     3
 72
     8
 73
     4
 74
     0
 42
0.0000000064413439
 43
0.0000000001
 40
0.2269430046275477
 40
0.2269430046275477
 40
0.2269430046275477
 40
0.2269430046275477
 40
0.2316564709891729
 40
0.2316564709891729
 40
0.2316564709891729
 40
0.2316564709891729
 10
7.151175974658197
 20
158.1978540323641
 30
0.0
 10
7.146310266623365
 20
158.1978631084662
 30
0.0
 10
7.143890640613895
 20
158.1978714489273
 30
0.0
 10
7.143921882670268
 20
158.1978790912277
 30
0.0
  0
SPLINE
  5
C7
330
BC
100
AcDbEntity
  8
40296000_HALTER_
  6
Continuous
 62
     7
100
AcDbSpline
210
0.0
220
0.0
230
1.0
 70
     8
 71
     3
 72
     8
 73
     4
 74
     0
 42
0.0000000066483666
 43
0.0000000001
 40
0.2316564709891729
 40
0.2316564709891729
 40
0.2316564709891729
 40
0.2316564709891729
 40
0.2323213076475479
 40
0.2323213076475479
 40
0.2323213076475479
 40
0.2323213076475479
 10
7.143921882670268
 20
158.1978790912277
 30
0.0
 10
7.143926289377086
 20
158.1978801691778
 30
0.0
 10
7.143979456682118
 20
158.1978812332378
 30
0.0
 10
7.144081398016089
 20
158.1978822835129
 30
0.0
  0
SPLINE
  5
C8
330
BC
100
AcDbEntity
  8
40296000_HALTER_
  6
Continuous
 62
     7
100
AcDbSpline
210
0.0
220
0.0
230
1.0
 70
     8
 71
     3
 72
    20
 73
    16
 74
     0
 42
0.0000000001526961
 43
0.0000000001
 40
0.7684661221841621
 40
0.7684661221841621
 40
0.7684661221841621
 40
0.7684661221841621
 40
0.78125
 40
0.78125
 40
0.8125
 40
0.8125
 40
0.84375
 40
0.84375
 40
0.875
 40
0.875
 40
0.90625
 40
0.90625
 40
0.9375
 40
0.9375
 40
1.0
 40
1.0
 40
1.0
 40
1.0
 10
45.62507648098252
 20
158.1978704383968
 30
0.0
 10
45.62421855477651
 20
158.1976383954903
 30
0.0
 10
45.6053570570908
 20
158.1974007084461
 30
0.0
 10
45.47791966320585
 20
158.1965708928435
 30
0.0
 10
45.28200889731772
 20
158.195962569386
 30
0.0
 10
44.68056801697225
 20
158.1947368440128
 30
0.0
 10
44.26972342358824
 20
158.1941153281381
 30
0.0
 10
43.26570901607596
 20
158.1929435753408
 30
0.0
 10
42.67128326233614
 20
158.1923877713819
 30
0.0
 10
41.29582131830189
 20
158.1913672292874
 30
0.0
 10
40.51301337721413
 20
158.1909045165911
 30
0.0
 10
38.82204954681455
 20
158.190132833626
 30
0.0
 10
37.90710562405239
 20
158.1898180476321
 30
0.0
 10
34.94850041882703
 20
158.1891129968682
 30
0.0
 10
32.77591181879185
 20
158.1889865771892
 30
0.0
 10
30.4620664210838
 20
158.1891906102379
 30
0.0
  0
ELLIPSE
  5
C9
330
BC
100
AcDbEntity
  8
40296000_HALTER_
  6
Continuous
 62
     7
100
AcDbEllipse
 10
22.350882802
 20
159.1617497496
 30
0.0
 11
0.8089782079635468
 21
0.5878386335042008
 31
0.0
210
0.0
220
0.0
230
0.9999999999999996
 40
0.954979704
 41
-0.6552376675560367
 42
-0.6425923577669694
  0
ELLIPSE
  5
CA
330
BC
100
AcDbEntity
  8
40296000_HALTER_
  6
Continuous
 62
     7
100
AcDbEllipse
 10
22.350882802
 20
159.1617497496
 30
0.0
 11
0.8089782079635468
 21
0.5878386335042008
 31
0.0
210
0.0
220
0.0
230
0.9999999999999996
 40
0.954979704
 41
4.05387236411695
 42
5.627947639623549
  0
ELLIPSE
  5
CB
330
BC
100
AcDbEntity
  8
40296000_HALTER_
  6
Continuous
 62
     7
100
AcDbEllipse
 10
30.4111098187
 20
159.1599544397
 30
0.0
 11
-0.8083315332887161
 21
0.5887275535348612
 31
0.0
210
0.0
220
0.0
230
1.0
 40
0.9549392206
 41
0.6458263624228412
 42
0.6596825276378915
  0
ELLIPSE
  5
CC
330
BC
100
AcDbEntity
  8
40296000_HALTER_
  6
Continuous
 62
     7
100
AcDbEllipse
 10
30.4111098187
 20
159.1599544397
 30
0.0
 11
-0.8083315332887161
 21
0.5887275535348612
 31
0.0
210
0.0
220
0.0
230
1.0
 40
0.9549392206
 41
0.6596825276378915
 42
2.230275402787982
  0
LINE
  5
CD
330
BC
100
AcDbEntity
  8
40296000_HALTER_
  6
Continuous
 62
     7
100
AcDbLine
 10
6.3850805563
 20
198.35
 30
0.0
 11
6.3850853193
 21
159.1685056269
 31
0.0
  0
LINE
  5
CE
330
BC
100
AcDbEntity
  8
40296000_HALTER_
  6
Continuous
 62
     7
100
AcDbLine
 10
46.3849565261
 20
159.1684484443
 30
0.0
 11
46.3849550677
 21
198.35
 31
0.0
  0
ARC
  5
CF
330
BC
100
AcDbEntity
  8
40296000_HALTER_
  6
Continuous
 62
     7
100
AcDbCircle
 10
26.3850206417
 20
235.8601574803
 30
0.0
 40
80.0101574803113
100
AcDbArc
 50
256.0965825731
 51
265.1300237292
  0
ARC
  5
D0
330
BC
100
AcDbEntity
  8
40296000_HALTER_
  6
Continuous
 62
     7
100
AcDbCircle
 10
26.3850206417
 20
235.8601574803
 30
0.0
 40
80.01015748031135
100
AcDbArc
 50
274.8699762708
 51
283.910279013
  0
ARC
  5
D1
330
BC
100
AcDbEntity
  8
40296000_HALTER_
  6
Continuous
 62
     7
100
AcDbCircle
 10
7.3849971081
 20
159.1601168776
 30
0.0
 40
0.9902636546396252
100
AcDbArc
 50
179.4886243247
 51
256.8156303515
  0
ARC
  5
D2
330
BC
100
AcDbEntity
  8
40296000_HALTER_
  6
Continuous
 62
     7
100
AcDbCircle
 10
45.3966929245
 20
159.1525984607
 30
0.0
 40
0.9780250031942216
100
AcDbArc
 50
283.2322043497
 51
0.9418851655
  0
ARC
  5
D3
330
BC
100
AcDbEntity
  8
40296000_HALTER_
  6
Continuous
 62
     7
100
AcDbCircle
 10
19.6350206417
 20
156.6370381114
 30
0.0
 40
0.5000000000000285
100
AcDbArc
 50
265.1300237292
 51
270.0
  0
ARC
  5
D4
330
BC
100
AcDbEntity
  8
40296000_HALTER_
  6
Continuous
 62
     7
100
AcDbCircle
 10
33.1350206417
 20
156.6370381114
 30
0.0
 40
0.5000000000000004
100
AcDbArc
 50
270.0
 51
274.8699762708
  0
LINE
  5
D5
330
BC
100
AcDbEntity
  8
40296000_HALTER_
  6
Continuous
 62
     7
100
AcDbLine
 10
19.6350206417
 20
156.1370381114
 30
0.0
 11
33.1350206417
 21
156.1370381114
 31
0.0
  0
SPLINE
  5
D6
330
BC
100
AcDbEntity
  8
40296000_HALTER_
  6
Continuous
 62
     7
100
AcDbSpline
210
0.0
220
0.0
230
1.0
 70
     8
 71
     3
 72
    16
 73
    12
 74
     0
 42
0.0000000008405836
 43
0.0000000001
 40
0.0075052624627186
 40
0.0075052624627186
 40
0.0075052624627186
 40
0.0075052624627186
 40
0.125
 40
0.125
 40
0.2499999999999999
 40
0.2499999999999999
 40
0.3749999999999999
 40
0.3749999999999999
 40
0.4999999999999999
 40
0.4999999999999999
 40
0.509265049468298
 40
0.509265049468298
 40
0.509265049468298
 40
0.509265049468298
 10
29.33489239928203
 20
197.8491842984331
 30
0.0
 10
29.33794838544661
 20
197.8858987543671
 30
0.0
 10
29.07249456031083
 20
197.9217216440795
 30
0.0
 10
28.08477378811464
 20
197.9774192336404
 30
0.0
 10
27.32621920840107
 20
197.9957563707086
 30
0.0
 10
25.76473217862579
 20
197.9999527622905
 30
0.0
 10
24.96915753834487
 20
197.9859270216286
 30
0.0
 10
23.81993145274726
 20
197.9336194077977
 30
0.0
 10
23.47820599662952
 20
197.8963063490212
 30
0.0
 10
23.43607830064177
 20
197.8549431214433
 30
0.0
 10
23.43485255271186
 20
197.8520801281494
 30
0.0
 10
23.43528145177956
 20
197.8492132131458
 30
0.0
  0
SPLINE
  5
D7
330
BC
100
AcDbEntity
  8
40296000_HALTER_
  6
Continuous
 62
     7
100
AcDbSpline
210
0.0
220
0.0
230
1.0
 70
     8
 71
     3
 72
     8
 73
     4
 74
     0
 42
0.0000000278780698
 43
0.0000000001
 40
0.0
 40
0.0
 40
0.0
 40
0.0
 40
0.0027878069845946
 40
0.0027878069845946
 40
0.0027878069845946
 40
0.0027878069845946
 10
29.33498448884567
 20
158.1455943213093
 30
0.0
 10
29.33507056752325
 20
158.1455021734644
 30
0.0
 10
29.33499749752936
 20
158.1454100328577
 30
0.0
 10
29.33476632582527
 20
158.1453179120183
 30
0.0
  0
LINE
  5
D8
330
BC
100
AcDbEntity
  8
40296000_HALTER_
  6
Continuous
 62
     7
100
AcDbLine
 10
28.8349379396
 20
198.35
 30
0.0
 11
23.9350970218
 21
198.35
 31
0.0
  0
SPLINE
  5
D9
330
BC
100
AcDbEntity
  8
40296000_HALTER_
  6
Continuous
 62
     7
100
AcDbSpline
210
0.0
220
0.0
230
1.0
 70
     8
 71
     3
 72
    14
 73
    10
 74
     0
 42
0.0000000009640411
 43
0.0000000001
 40
0.0150784091373283
 40
0.0150784091373283
 40
0.0150784091373283
 40
0.0150784091373283
 40
0.1250000000000001
 40
0.1250000000000001
 40
0.2500000000000002
 40
0.2500000000000002
 40
0.3750000000000002
 40
0.3750000000000002
 40
0.498370725381285
 40
0.498370725381285
 40
0.498370725381285
 40
0.498370725381285
 10
28.88513860093261
 20
157.6493219571266
 30
0.0
 10
28.82550854028142
 20
157.6488837857378
 30
0.0
 10
28.56289057254593
 20
157.6484681643759
 30
0.0
 10
27.68703633940491
 20
157.6478141739724
 30
0.0
 10
27.02948758295738
 20
157.6476121846596
 30
0.0
 10
25.71834819286629
 20
157.6476165435737
 30
0.0
 10
25.06717073762092
 20
157.6478194272424
 30
0.0
 10
24.1391726435775
 20
157.6485256456764
 30
0.0
 10
23.87586804111007
 20
157.6490113099961
 30
0.0
 10
23.87198017826312
 20
157.6495020625246
 30
0.0
  0
LINE
  5
DA
330
BC
100
AcDbEntity
  8
40296000_HALTER_
  6
Continuous
 62
     7
100
AcDbLine
 10
23.4350206417
 20
197.8491136371
 30
0.0
 11
23.4350206417
 21
158.1454774234
 31
0.0
  0
LINE
  5
DB
330
BC
100
AcDbEntity
  8
40296000_HALTER_
  6
Continuous
 62
     7
100
AcDbLine
 10
29.3350206417
 20
158.145485081
 30
0.0
 11
29.3350206417
 21
197.8492443765
 31
0.0
  0
ARC
  5
DC
330
BC
100
AcDbEntity
  8
40296000_HALTER_
  6
Continuous
 62
     7
100
AcDbCircle
 10
26.3850206417
 20
177.4085323862
 30
0.0
 40
19.9181996719519
100
AcDbArc
 50
262.8335636357
 51
270.0
  0
ARC
  5
DD
330
BC
100
AcDbEntity
  8
40296000_HALTER_
  6
Continuous
 62
     7
100
AcDbCircle
 10
26.3850206417
 20
177.4085323862
 30
0.0
 40
19.9181996719519
100
AcDbArc
 50
270.0
 51
277.2486849294
  0
ARC
  5
DE
330
BC
100
AcDbEntity
  8
40296000_HALTER_
  6
Continuous
 62
     7
100
AcDbCircle
 10
23.9246757399
 20
158.1303595544
 30
0.0
 40
0.4827702770877428
100
AcDbArc
 50
178.2126718329
 51
258.3131143575
  0
ARC
  5
DF
330
BC
100
AcDbEntity
  8
40296000_HALTER_
  6
Continuous
 62
     7
100
AcDbCircle
 10
28.8429662115
 20
158.1359725436
 30
0.0
 40
0.488118622924741
100
AcDbArc
 50
284.2449577785
 51
1.1719188244
  0
ARC
  5
E0
330
BC
100
AcDbEntity
  8
40296000_HALTER_
  6
Continuous
 62
     7
100
AcDbCircle
 10
23.9350213997
 20
197.8499999998
 30
0.0
 40
0.4999998590979584
100
AcDbArc
 50
89.993233793
 51
180.0310649534
  0
ARC
  5
E1
330
BC
100
AcDbEntity
  8
40296000_HALTER_
  6
Continuous
 62
     7
100
AcDbCircle
 10
28.8350205946
 20
197.85
 30
0.0
 40
0.499999991239077
100
AcDbArc
 50
359.8450991266
 51
90.0261460243
  0
LINE
  5
E2
330
BC
100
AcDbEntity
  8
40296000_HALTER_
  6
Continuous
 62
     7
100
AcDbLine
 10
20.3850206417
 20
156.1370381114
 30
0.0
 11
20.3850206417
 21
139.35
 31
0.0
  0
LINE
  5
E3
330
BC
100
AcDbEntity
  8
40296000_HALTER_
  6
Continuous
 62
     7
100
AcDbLine
 10
32.3850206417
 20
139.35
 30
0.0
 11
32.3850206417
 21
156.1370381114
 31
0.0
  0
ARC
  5
E4
330
BC
100
AcDbEntity
  8
40296000_HALTER_
  6
Continuous
 62
     7
100
AcDbCircle
 10
47.3850206417
 20
139.35
 30
0.0
 40
15.0
100
AcDbArc
 50
180.0
 51
270.0
  0
ARC
  5
E5
330
BC
100
AcDbEntity
  8
40296000_HALTER_
  6
Continuous
 62
     7
100
AcDbCircle
 10
47.3850206417
 20
139.35
 30
0.0
 40
27.0
100
AcDbArc
 50
180.0
 51
270.0
  0
LINE
  5
E6
330
BC
100
AcDbEntity
  8
40296000_HALTER_
  6
Continuous
 62
     7
100
AcDbLine
 10
47.3850206417
 20
112.35
 30
0.0
 11
156.3850206417
 21
112.35
 31
0.0
  0
LINE
  5
E7
330
BC
100
AcDbEntity
  8
40296000_HALTER_
  6
Continuous
 62
     7
100
AcDbLine
 10
156.3850206417
 20
124.35
 30
0.0
 11
47.3850206417
 21
124.35
 31
0.0
  0
LINE
  5
E8
330
BC
100
AcDbEntity
  8
40296000_HALTER_
  6
Continuous
 62
     7
100
AcDbLine
 10
156.3850206417
 20
129.35
 30
0.0
 11
156.3850206417
 21
107.35
 31
0.0
  0
LINE
  5
E9
330
BC
100
AcDbEntity
  8
40296000_HALTER_
  6
Continuous
 62
     7
100
AcDbLine
 10
167.5025661054
 20
130.35
 30
0.0
 11
157.3850206417
 21
130.35
 31
0.0
  0
LINE
  5
EA
330
BC
100
AcDbEntity
  8
40296000_HALTER_
  6
Continuous
 62
     7
100
AcDbLine
 10
157.3850206417
 20
106.35
 30
0.0
 11
167.5025661054
 21
106.35
 31
0.0
  0
ARC
  5
EB
330
BC
100
AcDbEntity
  8
40296000_HALTER_
  6
Continuous
 62
     7
100
AcDbCircle
 10
99.3850206417
 20
118.35
 30
0.0
 40
69.99999999999999
100
AcDbArc
 50
350.8267506162
 51
9.1732493838
  0
ARC
  5
EC
330
BC
100
AcDbEntity
  8
40296000_HALTER_
  6
Continuous
 62
     7
100
AcDbCircle
 10
157.3850206417
 20
107.35
 30
0.0
 40
1.000000000000001
100
AcDbArc
 50
180.0
 51
270.0
  0
ARC
  5
ED
330
BC
100
AcDbEntity
  8
40296000_HALTER_
  6
Continuous
 62
     7
100
AcDbCircle
 10
157.3850206417
 20
129.35
 30
0.0
 40
1.000000000000001
100
AcDbArc
 50
90.0
 51
180.0
  0
ARC
  5
EE
330
BC
100
AcDbEntity
  8
40296000_HALTER_
  6
Continuous
 62
     7
100
AcDbCircle
 10
167.5025661054
 20
107.35
 30
0.0
 40
1.000000000000001
100
AcDbArc
 50
270.0
 51
350.8267506162
  0
ARC
  5
EF
330
BC
100
AcDbEntity
  8
40296000_HALTER_
  6
Continuous
 62
     7
100
AcDbCircle
 10
167.5025661054
 20
129.35
 30
0.0
 40
0.9999999999999883
100
AcDbArc
 50
9.1732493838
 51
90.0
  0
ENDBLK
  5
F1
330
BC
100
AcDbEntity
  8
0
100
AcDbBlockEnd
  0
ENDSEC
  0
SECTION
  2
ENTITIES
  0
INSERT
  5
5F
330
1F
100
AcDbEntity
  8
Default
100
AcDbBlockReference
  2
SEANNOT_GROUP
 10
0.0
 20
0.0
 30
0.0
  0
INSERT
  5
6A
330
1F
100
AcDbEntity
  8
Default
100
AcDbBlockReference
  2
SEANNOT_GROUP1
 10
0.0
 20
0.0
 30
0.0
  0
INSERT
  5
70
330
1F
100
AcDbEntity
  8
Default
100
AcDbBlockReference
  2
SEANNOT_GROUP2
 10
0.0
 20
0.0
 30
0.0
  0
INSERT
  5
75
330
1F
100
AcDbEntity
  8
Default
100
AcDbBlockReference
  2
SE
 10
0.0
 20
0.0
 30
0.0
  0
INSERT
  5
98
330
1F
100
AcDbEntity
  8
Default
100
AcDbBlockReference
  2
SE1
 10
0.0
 20
0.0
 30
0.0
  0
INSERT
  5
BD
330
1F
100
AcDbEntity
  8
Default
100
AcDbBlockReference
  2
SE2
 10
0.0
 20
0.0
 30
0.0
  0
TEXT
  5
F3
330
1F
100
AcDbEntity
  8
Default
  6
Continuous
 62
     7
100
AcDbText
 10
5.9362635081
 20
53.4225120485
 30
0.0
 40
10.0
  1
Grohe AG^J
  7
SEACAD_seiso_ttf
 11
5.9362635081
 21
63.4225120485
 31
0.0
100
AcDbText
 73
     3
  0
TEXT
  5
F4
330
1F
100
AcDbEntity
  8
Default
  6
Continuous
 62
     7
100
AcDbText
 10
5.9362635081
 20
37.0588756849
 30
0.0
 40
10.0
  1
 
  7
SEACAD_seiso_ttf
 11
5.9362635081
 21
47.0588756849
 31
0.0
100
AcDbText
 73
     3
  0
TEXT
  5
F5
330
1F
100
AcDbEntity
  8
Default
  6
Continuous
 62
     7
100
AcDbText
 10
5.9362635081
 20
20.6952393213
 30
0.0
 40
10.0
  1
ecn: 
  7
SEACAD_seiso_ttf
 11
5.9362635081
 21
30.6952393213
 31
0.0
100
AcDbText
 73
     3
  0
TEXT
  5
F6
330
1F
100
AcDbEntity
  8
Default
  6
Continuous
 62
     7
100
AcDbText
 10
5.9362635081
 20
4.3316029576
 30
0.0
 40
10.0
  1
unit: mm
  7
SEACAD_seiso_ttf
 11
5.9362635081
 21
14.3316029576
 31
0.0
100
AcDbText
 73
     3
  0
LINE
  5
F7
330
1F
100
AcDbEntity
  8
Default
  6
Continuous
 62
     7
100
AcDbLine
 10
0.0
 20
0.0
 30
0.0
 11
100.0
 21
0.0
 31
0.0
  0
LINE
  5
F8
330
1F
100
AcDbEntity
  8
Default
  6
Continuous
 62
     7
100
AcDbLine
 10
0.0
 20
0.0
 30
0.0
 11
0.0
 21
100.0
 31
0.0
  0
TEXT
  5
F9
330
1F
100
AcDbEntity
  8
Default
  6
Continuous
 62
     7
100
AcDbText
 10
24.3923665681
 20
-18.2375342018
 30
0.0
 40
10.0
  1
100 mm
  7
SEACAD_seiso_ttf
 11
24.3923665681
 21
-8.2375342018
 31
0.0
100
AcDbText
 73
     3
  0
TEXT
  5
FA
330
1F
100
AcDbEntity
  8
Default
  6
Continuous
 62
     7
100
AcDbText
 10
-7.6150308803
 20
24.6231930421
 30
0.0
 40
10.0
  1
100 mm
 50
90.0
  7
SEACAD_seiso_ttf
 11
-17.6150308803
 21
24.6231930421
 31
0.0
100
AcDbText
 73
     3
  0
TEXT
  5
FB
330
1F
100
AcDbEntity
  8
Default
  6
Continuous
 62
     7
100
AcDbText
 10
28.4878128572
 20
20.0907663715
 30
0.0
 40
10.0
  1
205305
  7
SEACAD_seiso_ttf
 11
28.4878128572
 21
30.0907663715
 31
0.0
100
AcDbText
 73
     3
  0
TEXT
  5
FC
330
1F
100
AcDbEntity
  8
Default
  6
Continuous
 62
     7
100
AcDbText
 10
5.9012241913
 20
36.7242780188
 30
0.0
 40
10.0
  1
40296000
  7
SEACAD_seiso_ttf
 11
5.9012241913
 21
46.7242780188
 31
0.0
100
AcDbText
 73
     3
  0
ENDSEC
  0
SECTION
  2
OBJECTS
  0
DICTIONARY
  5
C
330
0
100
AcDbDictionary
281
     1
  3
ACAD_GROUP
350
D
  3
ACAD_LAYOUT
350
1A
  3
ACAD_MLEADERSTYLE
350
100
  3
ACAD_MLINESTYLE
350
17
  3
ACAD_PLOTSETTINGS
350
19
  3
ACAD_PLOTSTYLENAME
350
E
  3
ACAD_SCALELIST
350
3B
  3
ACAD_TABLESTYLE
350
FF
  3
ACAD_VISUALSTYLE
350
2A
  3
AcDbVariableDictionary
350
FD
  0
DICTIONARY
  5
D
102
{ACAD_REACTORS
330
C
102
}
330
C
100
AcDbDictionary
281
     1
  0
DICTIONARY
  5
1A
102
{ACAD_REACTORS
330
C
102
}
330
C
100
AcDbDictionary
281
     1
  3
Layout1
350
1E
  3
Model
350
22
  0
DICTIONARY
  5
100
102
{ACAD_REACTORS
330
C
102
}
330
C
100
AcDbDictionary
281
     1
  0
DICTIONARY
  5
17
102
{ACAD_REACTORS
330
C
102
}
330
C
100
AcDbDictionary
281
     1
  3
Standard
350
18
  0
DICTIONARY
  5
19
102
{ACAD_REACTORS
330
C
102
}
330
C
100
AcDbDictionary
281
     1
  0
ACDBDICTIONARYWDFLT
  5
E
102
{ACAD_REACTORS
330
C
102
}
330
C
100
AcDbDictionary
281
     1
  3
Normal
350
F
100
AcDbDictionaryWithDefault
340
F
  0
DICTIONARY
  5
3B
102
{ACAD_REACTORS
330
C
102
}
330
C
100
AcDbDictionary
281
     1
  3
A0
350
3C
  3
A1
350
3D
  3
A2
350
3E
  3
A3
350
3F
  3
A4
350
40
  3
A5
350
41
  3
A6
350
42
  3
A7
350
43
  3
A8
350
44
  3
A9
350
45
  3
B0
350
46
  3
B1
350
47
  3
B2
350
48
  3
B3
350
49
  3
B4
350
4A
  3
B5
350
4B
  3
B6
350
4C
  3
B7
350
4D
  3
B8
350
4E
  3
B9
350
4F
  3
C0
350
50
  3
C1
350
51
  3
C2
350
52
  3
C3
350
53
  3
C4
350
54
  3
C5
350
55
  3
C6
350
56
  3
C7
350
57
  3
C8
350
58
  3
C9
350
59
  3
D0
350
5A
  3
D1
350
5B
  3
D2
350
5C
  0
DICTIONARY
  5
FF
102
{ACAD_REACTORS
330
C
102
}
330
C
100
AcDbDictionary
281
     1
  0
DICTIONARY
  5
2A
102
{ACAD_REACTORS
330
C
102
}
330
C
100
AcDbDictionary
281
     1
  3
2dWireframe
350
2F
  3
3D Hidden
350
31
  3
3dWireframe
350
30
  3
Basic
350
32
  3
Brighten
350
36
  3
ColorChange
350
3A
  3
Conceptual
350
34
  3
Dim
350
35
  3
Facepattern
350
39
  3
Flat
350
2B
  3
FlatWithEdges
350
2C
  3
Gouraud
350
2D
  3
GouraudWithEdges
350
2E
  3
Linepattern
350
38
  3
Realistic
350
33
  3
Thicken
350
37
  0
DICTIONARY
  5
FD
102
{ACAD_REACTORS
330
C
102
}
330
C
100
AcDbDictionary
281
     1
  3
CANNOSCALE
350
FE
  3
PSOLHEIGHT
350
102
  3
PSOLWIDTH
350
101
  0
LAYOUT
  5
1E
102
{ACAD_REACTORS
330
1A
102
}
330
1A
100
AcDbPlotSettings
  1

  2
none_device
  4

  6

 40
0.0
 41
0.0
 42
0.0
 43
0.0
 44
0.0
 45
0.0
 46
0.0
 47
0.0
 48
0.0
 49
0.0
140
0.0
141
0.0
142
1.0
143
1.0
 70
   688
 72
     0
 73
     0
 74
     5
  7

 75
    16
147
1.0
148
0.0
149
0.0
100
AcDbLayout
  1
Layout1
 70
     1
 71
     1
 10
0.0
 20
0.0
 11
1682.0
 21
2378.0
 12
0.0
 22
0.0
 32
0.0
 14
0.0
 24
0.0
 34
0.0
 15
1682.0
 25
2378.0
 35
0.0
146
0.0
 13
0.0
 23
0.0
 33
0.0
 16
1.0
 26
0.0
 36
0.0
 17
0.0
 27
1.0
 37
0.0
 76
     0
330
1B
  0
LAYOUT
  5
22
102
{ACAD_REACTORS
330
1A
102
}
330
1A
100
AcDbPlotSettings
  1

  2
none_device
  4

  6

 40
0.0
 41
0.0
 42
0.0
 43
0.0
 44
0.0
 45
0.0
 46
0.0
 47
0.0
 48
0.0
 49
0.0
140
0.0
141
0.0
142
1.0
143
1.0
 70
  1712
 72
     0
 73
     0
 74
     0
  7

 75
     0
147
1.0
148
0.0
149
0.0
100
AcDbLayout
  1
Model
 70
     1
 71
     0
 10
0.0
 20
0.0
 11
1682.0
 21
2378.0
 12
0.0
 22
0.0
 32
0.0
 14
0.0
 24
0.0
 34
0.0
 15
1682.0
 25
2378.0
 35
0.0
146
0.0
 13
0.0
 23
0.0
 33
0.0
 16
1.0
 26
0.0
 36
0.0
 17
0.0
 27
1.0
 37
0.0
 76
     0
330
1F
331
29
  0
MLINESTYLE
  5
18
102
{ACAD_REACTORS
330
17
102
}
330
17
100
AcDbMlineStyle
  2
Standard
 70
     0
  3

 62
   256
 51
90.0
 52
90.0
 71
     2
 49
0.5
 62
   256
  6
BYLAYER
 49
-0.5
 62
   256
  6
BYLAYER
  0
ACDBPLACEHOLDER
  5
F
102
{ACAD_REACTORS
330
E
102
}
330
E
  0
SCALE
  5
3C
102
{ACAD_REACTORS
330
3B
102
}
330
3B
100
AcDbScale
 70
     0
300
1:1
140
1.0
141
1.0
290
     1
  0
SCALE
  5
3D
102
{ACAD_REACTORS
330
3B
102
}
330
3B
100
AcDbScale
 70
     0
300
1:2
140
1.0
141
2.0
290
     0
  0
SCALE
  5
3E
102
{ACAD_REACTORS
330
3B
102
}
330
3B
100
AcDbScale
 70
     0
300
1:4
140
1.0
141
4.0
290
     0
  0
SCALE
  5
3F
102
{ACAD_REACTORS
330
3B
102
}
330
3B
100
AcDbScale
 70
     0
300
1:5
140
1.0
141
5.0
290
     0
  0
SCALE
  5
40
102
{ACAD_REACTORS
330
3B
102
}
330
3B
100
AcDbScale
 70
     0
300
1:8
140
1.0
141
8.0
290
     0
  0
SCALE
  5
41
102
{ACAD_REACTORS
330
3B
102
}
330
3B
100
AcDbScale
 70
     0
300
1:10
140
1.0
141
10.0
290
     0
  0
SCALE
  5
42
102
{ACAD_REACTORS
330
3B
102
}
330
3B
100
AcDbScale
 70
     0
300
1:16
140
1.0
141
16.0
290
     0
  0
SCALE
  5
43
102
{ACAD_REACTORS
330
3B
102
}
330
3B
100
AcDbScale
 70
     0
300
1:20
140
1.0
141
20.0
290
     0
  0
SCALE
  5
44
102
{ACAD_REACTORS
330
3B
102
}
330
3B
100
AcDbScale
 70
     0
300
1:30
140
1.0
141
30.0
290
     0
  0
SCALE
  5
45
102
{ACAD_REACTORS
330
3B
102
}
330
3B
100
AcDbScale
 70
     0
300
1:40
140
1.0
141
40.0
290
     0
  0
SCALE
  5
46
102
{ACAD_REACTORS
330
3B
102
}
330
3B
100
AcDbScale
 70
     0
300
1:50
140
1.0
141
50.0
290
     0
  0
SCALE
  5
47
102
{ACAD_REACTORS
330
3B
102
}
330
3B
100
AcDbScale
 70
     0
300
1:100
140
1.0
141
100.0
290
     0
  0
SCALE
  5
48
102
{ACAD_REACTORS
330
3B
102
}
330
3B
100
AcDbScale
 70
     0
300
2:1
140
2.0
141
1.0
290
     0
  0
SCALE
  5
49
102
{ACAD_REACTORS
330
3B
102
}
330
3B
100
AcDbScale
 70
     0
300
4:1
140
4.0
141
1.0
290
     0
  0
SCALE
  5
4A
102
{ACAD_REACTORS
330
3B
102
}
330
3B
100
AcDbScale
 70
     0
300
8:1
140
8.0
141
1.0
290
     0
  0
SCALE
  5
4B
102
{ACAD_REACTORS
330
3B
102
}
330
3B
100
AcDbScale
 70
     0
300
10:1
140
10.0
141
1.0
290
     0
  0
SCALE
  5
4C
102
{ACAD_REACTORS
330
3B
102
}
330
3B
100
AcDbScale
 70
     0
300
100:1
140
100.0
141
1.0
290
     0
  0
SCALE
  5
4D
102
{ACAD_REACTORS
330
3B
102
}
330
3B
100
AcDbScale
 70
     0
300
1/128" = 1'-0"
140
0.0078125
141
12.0
290
     0
  0
SCALE
  5
4E
102
{ACAD_REACTORS
330
3B
102
}
330
3B
100
AcDbScale
 70
     0
300
1/64" = 1'-0"
140
0.015625
141
12.0
290
     0
  0
SCALE
  5
4F
102
{ACAD_REACTORS
330
3B
102
}
330
3B
100
AcDbScale
 70
     0
300
1/32" = 1'-0"
140
0.03125
141
12.0
290
     0
  0
SCALE
  5
50
102
{ACAD_REACTORS
330
3B
102
}
330
3B
100
AcDbScale
 70
     0
300
1/16" = 1'-0"
140
0.0625
141
12.0
290
     0
  0
SCALE
  5
51
102
{ACAD_REACTORS
330
3B
102
}
330
3B
100
AcDbScale
 70
     0
300
3/32" = 1'-0"
140
0.09375
141
12.0
290
     0
  0
SCALE
  5
52
102
{ACAD_REACTORS
330
3B
102
}
330
3B
100
AcDbScale
 70
     0
300
1/8" = 1'-0"
140
0.125
141
12.0
290
     0
  0
SCALE
  5
53
102
{ACAD_REACTORS
330
3B
102
}
330
3B
100
AcDbScale
 70
     0
300
3/16" = 1'-0"
140
0.1875
141
12.0
290
     0
  0
SCALE
  5
54
102
{ACAD_REACTORS
330
3B
102
}
330
3B
100
AcDbScale
 70
     0
300
1/4" = 1'-0"
140
0.25
141
12.0
290
     0
  0
SCALE
  5
55
102
{ACAD_REACTORS
330
3B
102
}
330
3B
100
AcDbScale
 70
     0
300
3/8" = 1'-0"
140
0.375
141
12.0
290
     0
  0
SCALE
  5
56
102
{ACAD_REACTORS
330
3B
102
}
330
3B
100
AcDbScale
 70
     0
300
1/2" = 1'-0"
140
0.5
141
12.0
290
     0
  0
SCALE
  5
57
102
{ACAD_REACTORS
330
3B
102
}
330
3B
100
AcDbScale
 70
     0
300
3/4" = 1'-0"
140
0.75
141
12.0
290
     0
  0
SCALE
  5
58
102
{ACAD_REACTORS
330
3B
102
}
330
3B
100
AcDbScale
 70
     0
300
1" = 1'-0"
140
1.0
141
12.0
290
     0
  0
SCALE
  5
59
102
{ACAD_REACTORS
330
3B
102
}
330
3B
100
AcDbScale
 70
     0
300
1-1/2" = 1'-0"
140
1.5
141
12.0
290
     0
  0
SCALE
  5
5A
102
{ACAD_REACTORS
330
3B
102
}
330
3B
100
AcDbScale
 70
     0
300
3" = 1'-0"
140
3.0
141
12.0
290
     0
  0
SCALE
  5
5B
102
{ACAD_REACTORS
330
3B
102
}
330
3B
100
AcDbScale
 70
     0
300
6" = 1'-0"
140
6.0
141
12.0
290
     0
  0
SCALE
  5
5C
102
{ACAD_REACTORS
330
3B
102
}
330
3B
100
AcDbScale
 70
     0
300
1'-0" = 1'-0"
140
12.0
141
12.0
290
     0
  0
VISUALSTYLE
  5
2F
102
{ACAD_REACTORS
330
2A
102
}
330
2A
100
AcDbVisualStyle
  2
2dWireframe
 70
     4
 71
     0
 72
     2
 73
     0
 90
        0
 40
-0.6
 41
-30.0
 62
     5
 63
     7
 74
     1
 91
        4
 64
     7
 65
   257
 75
     1
175
     1
 42
1.0
 92
        0
 66
   257
 43
1.0
 76
     1
 77
     6
 78
     2
 67
     7
 79
     5
170
     0
171
     0
290
     0
174
     0
 93
        1
 44
0.0
173
     0
291
     0
 45
0.0
1001
ACAD
1000
AcDbSavedByObjectVersion
1070
     0
  0
VISUALSTYLE
  5
31
102
{ACAD_REACTORS
330
2A
102
}
330
2A
100
AcDbVisualStyle
  2
3D Hidden
 70
     6
 71
     1
 72
     2
 73
     2
 90
        0
 40
-0.6
 41
-30.0
 62
     5
 63
     7
 74
     2
 91
        2
 64
     7
 65
   257
 75
     2
175
     1
 42
40.0
 92
        0
 66
   257
 43
1.0
 76
     1
 77
     6
 78
     2
 67
     7
 79
     3
170
     0
171
     0
290
     0
174
     0
 93
        1
 44
0.0
173
     0
291
     0
 45
0.0
1001
ACAD
1000
AcDbSavedByObjectVersion
1070
     0
  0
VISUALSTYLE
  5
30
102
{ACAD_REACTORS
330
2A
102
}
330
2A
100
AcDbVisualStyle
  2
3dWireframe
 70
     5
 71
     0
 72
     2
 73
     0
 90
        0
 40
-0.6
 41
-30.0
 62
     5
 63
     7
 74
     1
 91
        4
 64
     7
 65
   257
 75
     1
175
     1
 42
1.0
 92
        0
 66
   257
 43
1.0
 76
     1
 77
     6
 78
     2
 67
     7
 79
     5
170
     0
171
     0
290
     0
174
     0
 93
        1
 44
0.0
173
     0
291
     0
 45
0.0
1001
ACAD
1000
AcDbSavedByObjectVersion
1070
     0
  0
VISUALSTYLE
  5
32
102
{ACAD_REACTORS
330
2A
102
}
330
2A
100
AcDbVisualStyle
  2
Basic
 70
     7
 71
     1
 72
     0
 73
     1
 90
        0
 40
-0.6
 41
-30.0
 62
     5
 63
     7
 74
     0
 91
        4
 64
     7
 65
   257
 75
     1
175
     1
 42
1.0
 92
        8
 66
     7
 43
1.0
 76
     1
 77
     6
 78
     2
 67
     7
 79
     5
170
     0
171
     0
290
     0
174
     0
 93
        1
 44
0.0
173
     0
291
     1
 45
0.0
1001
ACAD
1000
AcDbSavedByObjectVersion
1070
     0
  0
VISUALSTYLE
  5
36
102
{ACAD_REACTORS
330
2A
102
}
330
2A
100
AcDbVisualStyle
  2
Brighten
 70
    12
 71
     2
 72
     2
 73
     0
 90
        0
 40
-0.6
 41
-30.0
 62
     5
 63
     7
 74
     1
 91
        4
 64
     7
 65
   257
 75
     1
175
     1
 42
1.0
 92
        8
 66
     7
 43
1.0
 76
     1
 77
     6
 78
     2
 67
     7
 79
     5
170
     0
171
     0
290
     0
174
     0
 93
        1
 44
50.0
173
     0
291
     1
 45
0.0
1001
ACAD
1000
AcDbSavedByObjectVersion
1070
     0
  0
VISUALSTYLE
  5
3A
102
{ACAD_REACTORS
330
2A
102
}
330
2A
100
AcDbVisualStyle
  2
ColorChange
 70
    16
 71
     2
 72
     2
 73
     3
 90
        0
 40
-0.6
 41
-30.0
 62
     5
 63
     8
 74
     1
 91
        4
 64
     7
 65
   257
 75
     1
175
     1
 42
1.0
 92
        8
 66
     8
 43
1.0
 76
     1
 77
     6
 78
     2
 67
     7
 79
     5
170
     0
171
     0
290
     0
174
     0
 93
        1
 44
0.0
173
     0
291
     1
 45
0.0
1001
ACAD
1000
AcDbSavedByObjectVersion
1070
     0
  0
VISUALSTYLE
  5
34
102
{ACAD_REACTORS
330
2A
102
}
330
2A
100
AcDbVisualStyle
  2
Conceptual
 70
     9
 71
     3
 72
     2
 73
     0
 90
        0
 40
-0.6
 41
-30.0
 62
     5
 63
     7
 74
     2
 91
        2
 64
     7
 65
   257
 75
     1
175
     1
 42
40.0
 92
        8
 66
     7
 43
1.0
 76
     1
 77
     6
 78
     2
 67
     7
 79
     3
170
     0
171
     0
290
     0
174
     0
 93
        1
 44
0.0
173
     0
291
     0
 45
0.0
1001
ACAD
1000
AcDbSavedByObjectVersion
1070
     0
  0
VISUALSTYLE
  5
35
102
{ACAD_REACTORS
330
2A
102
}
330
2A
100
AcDbVisualStyle
  2
Dim
 70
    11
 71
     2
 72
     2
 73
     0
 90
        0
 40
-0.6
 41
-30.0
 62
     5
 63
     7
 74
     1
 91
        4
 64
     7
 65
   257
 75
     1
175
     1
 42
1.0
 92
        8
 66
     7
 43
1.0
 76
     1
 77
     6
 78
     2
 67
     7
 79
     5
170
     0
171
     0
290
     0
174
     0
 93
        1
 44
-50.0
173
     0
291
     1
 45
0.0
1001
ACAD
1000
AcDbSavedByObjectVersion
1070
     0
  0
VISUALSTYLE
  5
39
102
{ACAD_REACTORS
330
2A
102
}
330
2A
100
AcDbVisualStyle
  2
Facepattern
 70
    15
 71
     2
 72
     2
 73
     0
 90
        0
 40
-0.6
 41
-30.0
 62
     5
 63
     7
 74
     1
 91
        4
 64
     7
 65
   257
 75
     1
175
     1
 42
1.0
 92
        8
 66
     7
 43
1.0
 76
     1
 77
     6
 78
     2
 67
     7
 79
     5
170
     0
171
     0
290
     0
174
     0
 93
        1
 44
0.0
173
     0
291
     1
 45
0.0
1001
ACAD
1000
AcDbSavedByObjectVersion
1070
     0
  0
VISUALSTYLE
  5
2B
102
{ACAD_REACTORS
330
2A
102
}
330
2A
100
AcDbVisualStyle
  2
Flat
 70
     0
 71
     2
 72
     1
 73
     1
 90
        2
 40
-0.6
 41
30.0
 62
     5
 63
     7
 74
     0
 91
        4
 64
     7
 65
   257
 75
     1
175
     1
 42
1.0
 92
        8
 66
     7
 43
1.0
 76
     1
 77
     6
 78
     2
 67
     7
 79
     5
170
     0
171
     0
290
     0
174
     0
 93
       13
 44
0.0
173
     0
291
     1
 45
0.0
1001
ACAD
1000
AcDbSavedByObjectVersion
1070
     0
  0
VISUALSTYLE
  5
2C
102
{ACAD_REACTORS
330
2A
102
}
330
2A
100
AcDbVisualStyle
  2
FlatWithEdges
 70
     1
 71
     2
 72
     1
 73
     1
 90
        2
 40
-0.6
 41
30.0
 62
     5
 63
     7
 74
     1
 91
        4
 64
     7
 65
   257
 75
     1
175
     1
 42
1.0
 92
        0
 66
   257
 43
1.0
 76
     1
 77
     6
 78
     2
 67
     7
 79
     5
170
     0
171
     0
290
     0
174
     0
 93
       13
 44
0.0
173
     0
291
     1
 45
0.0
1001
ACAD
1000
AcDbSavedByObjectVersion
1070
     0
  0
VISUALSTYLE
  5
2D
102
{ACAD_REACTORS
330
2A
102
}
330
2A
100
AcDbVisualStyle
  2
Gouraud
 70
     2
 71
     2
 72
     2
 73
     1
 90
        2
 40
-0.6
 41
30.0
 62
     5
 63
     7
 74
     0
 91
        4
 64
     7
 65
   257
 75
     1
175
     1
 42
1.0
 92
        0
 66
     7
 43
1.0
 76
     1
 77
     6
 78
     2
 67
     7
 79
     5
170
     0
171
     0
290
     0
174
     0
 93
       13
 44
0.0
173
     0
291
     1
 45
0.0
1001
ACAD
1000
AcDbSavedByObjectVersion
1070
     0
  0
VISUALSTYLE
  5
2E
102
{ACAD_REACTORS
330
2A
102
}
330
2A
100
AcDbVisualStyle
  2
GouraudWithEdges
 70
     3
 71
     2
 72
     2
 73
     1
 90
        2
 40
-0.6
 41
30.0
 62
     5
 63
     7
 74
     1
 91
        4
 64
     7
 65
   257
 75
     1
175
     1
 42
1.0
 92
        0
 66
   257
 43
1.0
 76
     1
 77
     6
 78
     2
 67
     7
 79
     5
170
     0
171
     0
290
     0
174
     0
 93
       13
 44
0.0
173
     0
291
     1
 45
0.0
1001
ACAD
1000
AcDbSavedByObjectVersion
1070
     0
  0
VISUALSTYLE
  5
38
102
{ACAD_REACTORS
330
2A
102
}
330
2A
100
AcDbVisualStyle
  2
Linepattern
 70
    14
 71
     2
 72
     2
 73
     0
 90
        0
 40
-0.6
 41
-30.0
 62
     5
 63
     7
 74
     1
 91
        4
 64
     7
 65
   257
 75
     7
175
     7
 42
1.0
 92
        8
 66
     7
 43
1.0
 76
     1
 77
     6
 78
     2
 67
     7
 79
     5
170
     0
171
     0
290
     0
174
     0
 93
        1
 44
0.0
173
     0
291
     1
 45
0.0
1001
ACAD
1000
AcDbSavedByObjectVersion
1070
     0
  0
VISUALSTYLE
  5
33
102
{ACAD_REACTORS
330
2A
102
}
330
2A
100
AcDbVisualStyle
  2
Realistic
 70
     8
 71
     2
 72
     2
 73
     0
 90
        0
 40
-0.6
 41
-30.0
 62
     5
 63
     7
 74
     1
 91
        0
 64
     7
 65
   257
 75
     1
175
     1
 42
1.0
 92
        8
 66
     8
 43
1.0
 76
     1
 77
     6
 78
     2
 67
     7
 79
     5
170
     0
171
     0
290
     0
174
     0
 93
       13
 44
0.0
173
     0
291
     0
 45
0.0
1001
ACAD
1000
AcDbSavedByObjectVersion
1070
     0
  0
VISUALSTYLE
  5
37
102
{ACAD_REACTORS
330
2A
102
}
330
2A
100
AcDbVisualStyle
  2
Thicken
 70
    13
 71
     2
 72
     2
 73
     0
 90
        0
 40
-0.6
 41
-30.0
 62
     5
 63
     7
 74
     1
 91
        4
 64
     7
 65
   257
 75
     1
175
     1
 42
1.0
 92
       12
 66
     7
 43
1.0
 76
     1
 77
     6
 78
     2
 67
     7
 79
     5
170
     0
171
     0
290
     0
174
     0
 93
        1
 44
0.0
173
     0
291
     1
 45
0.0
1001
ACAD
1000
AcDbSavedByObjectVersion
1070
     0
  0
DICTIONARYVAR
  5
FE
102
{ACAD_REACTORS
330
FD
102
}
330
FD
100
DictionaryVariables
280
     0
  1
1:1
  0
DICTIONARYVAR
  5
102
102
{ACAD_REACTORS
330
FD
102
}
330
FD
100
DictionaryVariables
280
     0
  1
80.000000
  0
DICTIONARYVAR
  5
101
102
{ACAD_REACTORS
330
FD
102
}
330
FD
100
DictionaryVariables
280
     0
  1
5.000000
  0
ENDSEC
  0
EOF
