999
Converted by 3D Exploration 
999
XDimension Software, LLC
999
http://www.xdsoft.com/explorer/
0
SECTION
2
HEADER
9
$ACADVER
1
AC1008
9
$UCSORG
10
0.0
20
0.0
30
0.0
9
$UCSXDIR
10
1.0
20
0.0
30
0.0
9
$TILEMODE
70
1
9
$UCSYDIR
10
0.0
20
1.0
30
0.0
9
$EXTMIN
10
-16.000000
20
-38.500000
30
-38.500000
9
$EXTMAX
10
112.500000
20
44.500000
30
40.000000
0
ENDSEC
0
SECTION
2
TABLES
0
TABLE
2
LTYPE
70
1
0
LTYPE
2
CONTINUOUS
70
64
3
Solid line
72
65
73
0
40
0.0
0
ENDTAB
0
TABLE
2
LAYER
70
56
0
LAYER
2
OBJECT__0
70
0
62
253
6
CONTINUOUS
0
LAYER
2
OBJECT__1
70
0
62
253
6
CONTINUOUS
0
LAYER
2
OBJECT__3
70
0
62
253
6
CONTINUOUS
0
LAYER
2
OBJECT__4
70
0
62
253
6
CONTINUOUS
0
LAYER
2
OBJECT__5
70
0
62
253
6
CONTINUOUS
0
LAYER
2
OBJECT__6
70
0
62
253
6
CONTINUOUS
0
LAYER
2
OBJECT__7
70
0
62
253
6
CONTINUOUS
0
LAYER
2
OBJECT__8
70
0
62
253
6
CONTINUOUS
0
LAYER
2
OBJECT__9
70
0
62
253
6
CONTINUOUS
0
LAYER
2
OBJECT__10
70
0
62
253
6
CONTINUOUS
0
LAYER
2
OBJECT__11
70
0
62
253
6
CONTINUOUS
0
LAYER
2
OBJECT__12
70
0
62
253
6
CONTINUOUS
0
LAYER
2
OBJECT__13
70
0
62
253
6
CONTINUOUS
0
LAYER
2
OBJECT__14
70
0
62
253
6
CONTINUOUS
0
LAYER
2
OBJECT__15
70
0
62
253
6
CONTINUOUS
0
LAYER
2
OBJECT__16
70
0
62
253
6
CONTINUOUS
0
LAYER
2
OBJECT__17
70
0
62
253
6
CONTINUOUS
0
LAYER
2
OBJECT__18
70
0
62
253
6
CONTINUOUS
0
LAYER
2
OBJECT__19
70
0
62
253
6
CONTINUOUS
0
LAYER
2
OBJECT__20
70
0
62
253
6
CONTINUOUS
0
LAYER
2
OBJECT__21
70
0
62
253
6
CONTINUOUS
0
LAYER
2
OBJECT__22
70
0
62
253
6
CONTINUOUS
0
LAYER
2
OBJECT__24
70
0
62
253
6
CONTINUOUS
0
LAYER
2
OBJECT__25
70
0
62
253
6
CONTINUOUS
0
LAYER
2
OBJECT__26
70
0
62
253
6
CONTINUOUS
0
LAYER
2
OBJECT__27
70
0
62
253
6
CONTINUOUS
0
LAYER
2
OBJECT__28
70
0
62
253
6
CONTINUOUS
0
LAYER
2
OBJECT__29
70
0
62
253
6
CONTINUOUS
0
LAYER
2
OBJECT__30
70
0
62
253
6
CONTINUOUS
0
LAYER
2
OBJECT__31
70
0
62
253
6
CONTINUOUS
0
LAYER
2
OBJECT__32
70
0
62
253
6
CONTINUOUS
0
LAYER
2
OBJECT__33
70
0
62
253
6
CONTINUOUS
0
LAYER
2
OBJECT__34
70
0
62
253
6
CONTINUOUS
0
LAYER
2
OBJECT__35
70
0
62
253
6
CONTINUOUS
0
LAYER
2
OBJECT__36
70
0
62
253
6
CONTINUOUS
0
LAYER
2
OBJECT__37
70
0
62
253
6
CONTINUOUS
0
LAYER
2
OBJECT__38
70
0
62
253
6
CONTINUOUS
0
LAYER
2
OBJECT__39
70
0
62
253
6
CONTINUOUS
0
LAYER
2
OBJECT__40
70
0
62
253
6
CONTINUOUS
0
LAYER
2
OBJECT__41
70
0
62
253
6
CONTINUOUS
0
LAYER
2
OBJECT__42
70
0
62
253
6
CONTINUOUS
0
LAYER
2
OBJECT__43
70
0
62
253
6
CONTINUOUS
0
LAYER
2
OBJECT__44
70
0
62
253
6
CONTINUOUS
0
LAYER
2
OBJECT__45
70
0
62
253
6
CONTINUOUS
0
LAYER
2
OBJECT__46
70
0
62
253
6
CONTINUOUS
0
LAYER
2
OBJECT__47
70
0
62
253
6
CONTINUOUS
0
LAYER
2
OBJECT__48
70
0
62
253
6
CONTINUOUS
0
LAYER
2
OBJECT__49
70
0
62
253
6
CONTINUOUS
0
LAYER
2
OBJECT__50
70
0
62
253
6
CONTINUOUS
0
LAYER
2
OBJECT__51
70
0
62
253
6
CONTINUOUS
0
LAYER
2
OBJECT__52
70
0
62
253
6
CONTINUOUS
0
LAYER
2
OBJECT__53
70
0
62
253
6
CONTINUOUS
0
LAYER
2
OBJECT__54
70
0
62
253
6
CONTINUOUS
0
LAYER
2
OBJECT__55
70
0
62
253
6
CONTINUOUS
0
ENDTAB
0
TABLE
2
STYLE
70
1
0
STYLE
2
STANDARD
70
0
40
0.0
41
1.0
50
0.0
71
0
42
0.2
3
txt
4
1
0
ENDTAB
0
TABLE
2
UCS
70
0
0
ENDTAB
0
ENDSEC
0
SECTION
2
ENTITIES
0
POLYLINE
8
OBJECT__0
66
1
70
64
71
12
72
10
62
253
0
VERTEX
8
OBJECT__0
10
112.500000
20
5.820000
30
-19.820000
70
192
0
VERTEX
8
OBJECT__0
10
112.500000
20
18.790001
30
8.581000
70
192
0
VERTEX
8
OBJECT__0
10
112.500000
20
11.168000
30
17.378000
70
192
0
VERTEX
8
OBJECT__0
10
112.500000
20
15.612000
30
-13.527000
70
192
0
VERTEX
8
OBJECT__0
10
112.500000
20
0.000000
30
20.657000
70
192
0
VERTEX
8
OBJECT__0
10
112.500000
20
-20.447001
30
-2.940000
70
192
0
VERTEX
8
OBJECT__0
10
112.500000
20
-15.612000
30
-13.527000
70
192
0
VERTEX
8
OBJECT__0
10
112.500000
20
-11.168000
30
17.378000
70
192
0
VERTEX
8
OBJECT__0
10
112.500000
20
20.447001
30
-2.940000
70
192
0
VERTEX
8
OBJECT__0
10
112.500000
20
-18.790001
30
8.581000
70
192
0
VERTEX
8
OBJECT__0
10
112.500000
20
0.000000
30
-20.657000
70
192
0
VERTEX
8
OBJECT__0
10
112.500000
20
-5.820000
30
-19.820000
70
192
0
VERTEX
8
OBJECT__0
10
0
20
0
30
0
70
128
71
1
72
2
73
3
0
VERTEX
8
OBJECT__0
10
0
20
0
30
0
70
128
71
2
72
1
73
4
0
VERTEX
8
OBJECT__0
10
0
20
0
30
0
70
128
71
5
72
6
73
7
0
VERTEX
8
OBJECT__0
10
0
20
0
30
0
70
128
71
6
72
5
73
8
0
VERTEX
8
OBJECT__0
10
0
20
0
30
0
70
128
71
4
72
9
73
2
0
VERTEX
8
OBJECT__0
10
0
20
0
30
0
70
128
71
8
72
10
73
6
0
VERTEX
8
OBJECT__0
10
0
20
0
30
0
70
128
71
5
72
11
73
1
0
VERTEX
8
OBJECT__0
10
0
20
0
30
0
70
128
71
7
72
12
73
5
0
VERTEX
8
OBJECT__0
10
0
20
0
30
0
70
128
71
12
72
11
73
5
0
VERTEX
8
OBJECT__0
10
0
20
0
30
0
70
128
71
3
72
5
73
1
0
SEQEND
8
OBJECT__0
0
POLYLINE
8
OBJECT__1
66
1
70
64
71
41
72
41
62
253
0
VERTEX
8
OBJECT__1
10
43.500000
20
22.080000
30
10.083000
70
192
0
VERTEX
8
OBJECT__1
10
43.500000
20
13.123000
30
20.420000
70
192
0
VERTEX
8
OBJECT__1
10
112.500000
20
11.168000
30
17.378000
70
192
0
VERTEX
8
OBJECT__1
10
43.500000
20
24.025999
30
-3.454000
70
192
0
VERTEX
8
OBJECT__1
10
112.500000
20
18.790001
30
8.581000
70
192
0
VERTEX
8
OBJECT__1
10
43.500000
20
6.839000
30
-23.290001
70
192
0
VERTEX
8
OBJECT__1
10
43.500000
20
18.344000
30
-15.896000
70
192
0
VERTEX
8
OBJECT__1
10
112.500000
20
15.612000
30
-13.527000
70
192
0
VERTEX
8
OBJECT__1
10
43.500000
20
-6.839000
30
-23.290001
70
192
0
VERTEX
8
OBJECT__1
10
112.500000
20
0.000000
30
-20.657000
70
192
0
VERTEX
8
OBJECT__1
10
112.500000
20
5.820000
30
-19.820000
70
192
0
VERTEX
8
OBJECT__1
10
43.500000
20
-18.344000
30
-15.896000
70
192
0
VERTEX
8
OBJECT__1
10
112.500000
20
-5.820000
30
-19.820000
70
192
0
VERTEX
8
OBJECT__1
10
43.500000
20
-22.080000
30
10.083000
70
192
0
VERTEX
8
OBJECT__1
10
43.500000
20
-24.025999
30
-3.454000
70
192
0
VERTEX
8
OBJECT__1
10
112.500000
20
-20.447001
30
-2.940000
70
192
0
VERTEX
8
OBJECT__1
10
43.500000
20
-13.123000
30
20.420000
70
192
0
VERTEX
8
OBJECT__1
10
112.500000
20
-18.790001
30
8.581000
70
192
0
VERTEX
8
OBJECT__1
10
112.500000
20
-15.612000
30
-13.527000
70
192
0
VERTEX
8
OBJECT__1
10
93.000000
20
-18.388000
30
-11.482000
70
192
0
VERTEX
8
OBJECT__1
10
51.855000
20
-20.257000
30
-12.561000
70
192
0
VERTEX
8
OBJECT__1
10
93.000000
20
-19.138000
30
-10.183000
70
192
0
VERTEX
8
OBJECT__1
10
51.855000
20
-21.007000
30
-11.262000
70
192
0
VERTEX
8
OBJECT__1
10
43.500000
20
-21.386000
30
-11.481000
70
192
0
VERTEX
8
OBJECT__1
10
112.500000
20
20.447001
30
-2.940000
70
192
0
VERTEX
8
OBJECT__1
10
93.000000
20
19.138000
30
-10.183000
70
192
0
VERTEX
8
OBJECT__1
10
51.855000
20
21.007000
30
-11.262000
70
192
0
VERTEX
8
OBJECT__1
10
93.000000
20
18.388000
30
-11.482000
70
192
0
VERTEX
8
OBJECT__1
10
51.855000
20
20.257000
30
-12.561000
70
192
0
VERTEX
8
OBJECT__1
10
43.500000
20
20.636000
30
-12.780000
70
192
0
VERTEX
8
OBJECT__1
10
112.500000
20
0.000000
30
20.657000
70
192
0
VERTEX
8
OBJECT__1
10
93.000000
20
0.750000
30
21.666000
70
192
0
VERTEX
8
OBJECT__1
10
49.782001
20
0.750000
30
23.931999
70
192
0
VERTEX
8
OBJECT__1
10
43.500000
20
0.750000
30
24.261999
70
192
0
VERTEX
8
OBJECT__1
10
112.500000
20
-11.168000
30
17.378000
70
192
0
VERTEX
8
OBJECT__1
10
93.000000
20
-0.750000
30
21.666000
70
192
0
VERTEX
8
OBJECT__1
10
49.782001
20
-0.750000
30
23.931999
70
192
0
VERTEX
8
OBJECT__1
10
93.000000
20
0.000000
30
21.679001
70
192
0
VERTEX
8
OBJECT__1
10
43.500000
20
-0.750000
30
24.261999
70
192
0
VERTEX
8
OBJECT__1
10
43.500000
20
21.386000
30
-11.481000
70
192
0
VERTEX
8
OBJECT__1
10
43.500000
20
-20.636000
30
-12.780000
70
192
0
VERTEX
8
OBJECT__1
10
0
20
0
30
0
70
128
71
1
72
2
73
3
0
VERTEX
8
OBJECT__1
10
0
20
0
30
0
70
128
71
4
72
1
73
5
0
VERTEX
8
OBJECT__1
10
0
20
0
30
0
70
128
71
6
72
7
73
8
0
VERTEX
8
OBJECT__1
10
0
20
0
30
0
70
128
71
9
72
6
73
10
0
VERTEX
8
OBJECT__1
10
0
20
0
30
0
70
128
71
6
72
11
73
10
0
VERTEX
8
OBJECT__1
10
0
20
0
30
0
70
128
71
12
72
9
73
13
0
VERTEX
8
OBJECT__1
10
0
20
0
30
0
70
128
71
14
72
15
73
16
0
VERTEX
8
OBJECT__1
10
0
20
0
30
0
70
128
71
17
72
14
73
18
0
VERTEX
8
OBJECT__1
10
0
20
0
30
0
70
128
71
12
72
19
73
20
0
VERTEX
8
OBJECT__1
10
0
20
0
30
0
70
128
71
20
72
21
73
12
0
VERTEX
8
OBJECT__1
10
0
20
0
30
0
70
128
71
19
72
16
73
22
0
VERTEX
8
OBJECT__1
10
0
20
0
30
0
70
128
71
15
72
23
73
22
0
VERTEX
8
OBJECT__1
10
0
20
0
30
0
70
128
71
15
72
24
73
23
0
VERTEX
8
OBJECT__1
10
0
20
0
30
0
70
128
71
22
72
16
73
15
0
VERTEX
8
OBJECT__1
10
0
20
0
30
0
70
128
71
22
72
20
73
19
0
VERTEX
8
OBJECT__1
10
0
20
0
30
0
70
128
71
4
72
25
73
26
0
VERTEX
8
OBJECT__1
10
0
20
0
30
0
70
128
71
26
72
27
73
4
0
VERTEX
8
OBJECT__1
10
0
20
0
30
0
70
128
71
8
72
28
73
26
0
VERTEX
8
OBJECT__1
10
0
20
0
30
0
70
128
71
26
72
25
73
8
0
VERTEX
8
OBJECT__1
10
0
20
0
30
0
70
128
71
7
72
29
73
28
0
VERTEX
8
OBJECT__1
10
0
20
0
30
0
70
128
71
7
72
30
73
29
0
VERTEX
8
OBJECT__1
10
0
20
0
30
0
70
128
71
28
72
8
73
7
0
VERTEX
8
OBJECT__1
10
0
20
0
30
0
70
128
71
31
72
3
73
32
0
VERTEX
8
OBJECT__1
10
0
20
0
30
0
70
128
71
2
72
33
73
32
0
VERTEX
8
OBJECT__1
10
0
20
0
30
0
70
128
71
2
72
34
73
33
0
VERTEX
8
OBJECT__1
10
0
20
0
30
0
70
128
71
32
72
3
73
2
0
VERTEX
8
OBJECT__1
10
0
20
0
30
0
70
128
71
17
72
35
73
36
0
VERTEX
8
OBJECT__1
10
0
20
0
30
0
70
128
71
36
72
37
73
17
0
VERTEX
8
OBJECT__1
10
0
20
0
30
0
70
128
71
31
72
38
73
36
0
VERTEX
8
OBJECT__1
10
0
20
0
30
0
70
128
71
36
72
35
73
31
0
VERTEX
8
OBJECT__1
10
0
20
0
30
0
70
128
71
37
72
39
73
17
0
VERTEX
8
OBJECT__1
10
0
20
0
30
0
70
128
71
32
72
38
73
31
0
VERTEX
8
OBJECT__1
10
0
20
0
30
0
70
128
71
27
72
40
73
4
0
VERTEX
8
OBJECT__1
10
0
20
0
30
0
70
128
71
21
72
41
73
12
0
VERTEX
8
OBJECT__1
10
0
20
0
30
0
70
128
71
18
72
35
73
17
0
VERTEX
8
OBJECT__1
10
0
20
0
30
0
70
128
71
16
72
18
73
14
0
VERTEX
8
OBJECT__1
10
0
20
0
30
0
70
128
71
13
72
19
73
12
0
VERTEX
8
OBJECT__1
10
0
20
0
30
0
70
128
71
10
72
13
73
9
0
VERTEX
8
OBJECT__1
10
0
20
0
30
0
70
128
71
8
72
11
73
6
0
VERTEX
8
OBJECT__1
10
0
20
0
30
0
70
128
71
5
72
25
73
4
0
VERTEX
8
OBJECT__1
10
0
20
0
30
0
70
128
71
3
72
5
73
1
0
SEQEND
8
OBJECT__1
0
POLYLINE
8
OBJECT__3
66
1
70
64
71
13
72
11
62
253
0
VERTEX
8
OBJECT__3
10
43.500000
20
0.000000
30
-33.373001
70
192
0
VERTEX
8
OBJECT__3
10
43.500000
20
6.839000
30
-23.290001
70
192
0
VERTEX
8
OBJECT__3
10
43.500000
20
-6.839000
30
-23.290001
70
192
0
VERTEX
8
OBJECT__3
10
43.500000
20
15.509000
30
-29.551001
70
192
0
VERTEX
8
OBJECT__3
10
43.500000
20
27.466000
30
-18.958000
70
192
0
VERTEX
8
OBJECT__3
10
43.500000
20
18.344000
30
-15.896000
70
192
0
VERTEX
8
OBJECT__3
10
43.500000
20
20.636000
30
-12.780000
70
192
0
VERTEX
8
OBJECT__3
10
43.500000
20
-20.636000
30
-12.780000
70
192
0
VERTEX
8
OBJECT__3
10
43.500000
20
-28.520000
30
-17.332001
70
192
0
VERTEX
8
OBJECT__3
10
43.500000
20
-27.466000
30
-18.958000
70
192
0
VERTEX
8
OBJECT__3
10
43.500000
20
-15.509000
30
-29.551001
70
192
0
VERTEX
8
OBJECT__3
10
43.500000
20
-18.344000
30
-15.896000
70
192
0
VERTEX
8
OBJECT__3
10
43.500000
20
28.520000
30
-17.332001
70
192
0
VERTEX
8
OBJECT__3
10
0
20
0
30
0
70
128
71
1
72
2
73
3
0
VERTEX
8
OBJECT__3
10
0
20
0
30
0
70
128
71
4
72
5
73
6
0
VERTEX
8
OBJECT__3
10
0
20
0
30
0
70
128
71
7
72
6
73
5
0
VERTEX
8
OBJECT__3
10
0
20
0
30
0
70
128
71
8
72
9
73
10
0
VERTEX
8
OBJECT__3
10
0
20
0
30
0
70
128
71
11
72
3
73
12
0
VERTEX
8
OBJECT__3
10
0
20
0
30
0
70
128
71
3
72
11
73
1
0
VERTEX
8
OBJECT__3
10
0
20
0
30
0
70
128
71
5
72
13
73
7
0
VERTEX
8
OBJECT__3
10
0
20
0
30
0
70
128
71
12
72
10
73
11
0
VERTEX
8
OBJECT__3
10
0
20
0
30
0
70
128
71
6
72
2
73
4
0
VERTEX
8
OBJECT__3
10
0
20
0
30
0
70
128
71
1
72
4
73
2
0
VERTEX
8
OBJECT__3
10
0
20
0
30
0
70
128
71
10
72
12
73
8
0
SEQEND
8
OBJECT__3
0
POLYLINE
8
OBJECT__4
66
1
70
64
71
11
72
9
62
253
0
VERTEX
8
OBJECT__4
10
43.500000
20
7.987000
30
32.403999
70
192
0
VERTEX
8
OBJECT__4
10
43.500000
20
0.750000
30
24.261999
70
192
0
VERTEX
8
OBJECT__4
10
43.500000
20
13.123000
30
20.420000
70
192
0
VERTEX
8
OBJECT__4
10
43.500000
20
29.270000
30
-16.033001
70
192
0
VERTEX
8
OBJECT__4
10
43.500000
20
33.130001
30
-4.023000
70
192
0
VERTEX
8
OBJECT__4
10
43.500000
20
24.025999
30
-3.454000
70
192
0
VERTEX
8
OBJECT__4
10
43.500000
20
31.205000
30
11.834000
70
192
0
VERTEX
8
OBJECT__4
10
43.500000
20
22.080000
30
10.083000
70
192
0
VERTEX
8
OBJECT__4
10
43.500000
20
22.131001
30
24.980000
70
192
0
VERTEX
8
OBJECT__4
10
43.500000
20
0.750000
30
33.365002
70
192
0
VERTEX
8
OBJECT__4
10
43.500000
20
21.386000
30
-11.481000
70
192
0
VERTEX
8
OBJECT__4
10
0
20
0
30
0
70
128
71
1
72
2
73
3
0
VERTEX
8
OBJECT__4
10
0
20
0
30
0
70
128
71
4
72
5
73
6
0
VERTEX
8
OBJECT__4
10
0
20
0
30
0
70
128
71
7
72
8
73
6
0
VERTEX
8
OBJECT__4
10
0
20
0
30
0
70
128
71
9
72
3
73
8
0
VERTEX
8
OBJECT__4
10
0
20
0
30
0
70
128
71
3
72
9
73
1
0
VERTEX
8
OBJECT__4
10
0
20
0
30
0
70
128
71
6
72
5
73
7
0
VERTEX
8
OBJECT__4
10
0
20
0
30
0
70
128
71
1
72
10
73
2
0
VERTEX
8
OBJECT__4
10
0
20
0
30
0
70
128
71
8
72
7
73
9
0
VERTEX
8
OBJECT__4
10
0
20
0
30
0
70
128
71
6
72
11
73
4
0
SEQEND
8
OBJECT__4
0
POLYLINE
8
OBJECT__5
66
1
70
64
71
11
72
9
62
253
0
VERTEX
8
OBJECT__5
10
43.500000
20
-7.987000
30
32.403999
70
192
0
VERTEX
8
OBJECT__5
10
43.500000
20
-22.131001
30
24.980000
70
192
0
VERTEX
8
OBJECT__5
10
43.500000
20
-13.123000
30
20.420000
70
192
0
VERTEX
8
OBJECT__5
10
43.500000
20
-0.750000
30
24.261999
70
192
0
VERTEX
8
OBJECT__5
10
43.500000
20
-0.750000
30
33.365002
70
192
0
VERTEX
8
OBJECT__5
10
43.500000
20
-31.205000
30
11.834000
70
192
0
VERTEX
8
OBJECT__5
10
43.500000
20
-22.080000
30
10.083000
70
192
0
VERTEX
8
OBJECT__5
10
43.500000
20
-33.130001
30
-4.023000
70
192
0
VERTEX
8
OBJECT__5
10
43.500000
20
-24.025999
30
-3.454000
70
192
0
VERTEX
8
OBJECT__5
10
43.500000
20
-29.270000
30
-16.033001
70
192
0
VERTEX
8
OBJECT__5
10
43.500000
20
-21.386000
30
-11.481000
70
192
0
VERTEX
8
OBJECT__5
10
0
20
0
30
0
70
128
71
1
72
2
73
3
0
VERTEX
8
OBJECT__5
10
0
20
0
30
0
70
128
71
4
72
5
73
1
0
VERTEX
8
OBJECT__5
10
0
20
0
30
0
70
128
71
2
72
6
73
7
0
VERTEX
8
OBJECT__5
10
0
20
0
30
0
70
128
71
6
72
8
73
9
0
VERTEX
8
OBJECT__5
10
0
20
0
30
0
70
128
71
10
72
11
73
9
0
VERTEX
8
OBJECT__5
10
0
20
0
30
0
70
128
71
7
72
3
73
2
0
VERTEX
8
OBJECT__5
10
0
20
0
30
0
70
128
71
9
72
8
73
10
0
VERTEX
8
OBJECT__5
10
0
20
0
30
0
70
128
71
9
72
7
73
6
0
VERTEX
8
OBJECT__5
10
0
20
0
30
0
70
128
71
3
72
4
73
1
0
SEQEND
8
OBJECT__5
0
POLYLINE
8
OBJECT__6
66
1
70
64
71
5
72
3
62
253
0
VERTEX
8
OBJECT__6
10
93.000000
20
0.750000
30
34.229000
70
192
0
VERTEX
8
OBJECT__6
10
93.000000
20
-0.750000
30
34.229000
70
192
0
VERTEX
8
OBJECT__6
10
93.000000
20
0.000000
30
21.679001
70
192
0
VERTEX
8
OBJECT__6
10
93.000000
20
-0.750000
30
21.666000
70
192
0
VERTEX
8
OBJECT__6
10
93.000000
20
0.750000
30
21.666000
70
192
0
VERTEX
8
OBJECT__6
10
0
20
0
30
0
70
128
71
1
72
2
73
3
0
VERTEX
8
OBJECT__6
10
0
20
0
30
0
70
128
71
2
72
4
73
3
0
VERTEX
8
OBJECT__6
10
0
20
0
30
0
70
128
71
3
72
5
73
1
0
SEQEND
8
OBJECT__6
0
POLYLINE
8
OBJECT__7
66
1
70
64
71
6
72
4
62
253
0
VERTEX
8
OBJECT__7
10
49.577000
20
0.750000
30
33.471001
70
192
0
VERTEX
8
OBJECT__7
10
49.782001
20
0.750000
30
23.931999
70
192
0
VERTEX
8
OBJECT__7
10
43.500000
20
0.750000
30
24.261999
70
192
0
VERTEX
8
OBJECT__7
10
93.000000
20
0.750000
30
34.229000
70
192
0
VERTEX
8
OBJECT__7
10
93.000000
20
0.750000
30
21.666000
70
192
0
VERTEX
8
OBJECT__7
10
43.500000
20
0.750000
30
33.365002
70
192
0
VERTEX
8
OBJECT__7
10
0
20
0
30
0
70
128
71
1
72
2
73
3
0
VERTEX
8
OBJECT__7
10
0
20
0
30
0
70
128
71
4
72
5
73
2
0
VERTEX
8
OBJECT__7
10
0
20
0
30
0
70
128
71
2
72
1
73
4
0
VERTEX
8
OBJECT__7
10
0
20
0
30
0
70
128
71
3
72
6
73
1
0
SEQEND
8
OBJECT__7
0
POLYLINE
8
OBJECT__8
66
1
70
64
71
6
72
4
62
253
0
VERTEX
8
OBJECT__8
10
93.000000
20
-0.750000
30
34.229000
70
192
0
VERTEX
8
OBJECT__8
10
49.577000
20
-0.750000
30
33.471001
70
192
0
VERTEX
8
OBJECT__8
10
49.782001
20
-0.750000
30
23.931999
70
192
0
VERTEX
8
OBJECT__8
10
43.500000
20
-0.750000
30
33.365002
70
192
0
VERTEX
8
OBJECT__8
10
43.500000
20
-0.750000
30
24.261999
70
192
0
VERTEX
8
OBJECT__8
10
93.000000
20
-0.750000
30
21.666000
70
192
0
VERTEX
8
OBJECT__8
10
0
20
0
30
0
70
128
71
1
72
2
73
3
0
VERTEX
8
OBJECT__8
10
0
20
0
30
0
70
128
71
2
72
4
73
5
0
VERTEX
8
OBJECT__8
10
0
20
0
30
0
70
128
71
5
72
3
73
2
0
VERTEX
8
OBJECT__8
10
0
20
0
30
0
70
128
71
3
72
6
73
1
0
SEQEND
8
OBJECT__8
0
POLYLINE
8
OBJECT__9
66
1
70
64
71
4
72
2
62
253
0
VERTEX
8
OBJECT__9
10
93.000000
20
30.018000
30
-16.465000
70
192
0
VERTEX
8
OBJECT__9
10
93.000000
20
19.138000
30
-10.183000
70
192
0
VERTEX
8
OBJECT__9
10
93.000000
20
18.388000
30
-11.482000
70
192
0
VERTEX
8
OBJECT__9
10
93.000000
20
29.268000
30
-17.764000
70
192
0
VERTEX
8
OBJECT__9
10
0
20
0
30
0
70
128
71
1
72
2
73
3
0
VERTEX
8
OBJECT__9
10
0
20
0
30
0
70
128
71
3
72
4
73
1
0
SEQEND
8
OBJECT__9
0
POLYLINE
8
OBJECT__10
66
1
70
64
71
5
72
3
62
253
0
VERTEX
8
OBJECT__10
10
93.000000
20
29.268000
30
-17.764000
70
192
0
VERTEX
8
OBJECT__10
10
93.000000
20
18.388000
30
-11.482000
70
192
0
VERTEX
8
OBJECT__10
10
51.855000
20
20.257000
30
-12.561000
70
192
0
VERTEX
8
OBJECT__10
10
43.500000
20
28.520000
30
-17.332001
70
192
0
VERTEX
8
OBJECT__10
10
43.500000
20
20.636000
30
-12.780000
70
192
0
VERTEX
8
OBJECT__10
10
0
20
0
30
0
70
128
71
1
72
2
73
3
0
VERTEX
8
OBJECT__10
10
0
20
0
30
0
70
128
71
3
72
4
73
1
0
VERTEX
8
OBJECT__10
10
0
20
0
30
0
70
128
71
3
72
5
73
4
0
SEQEND
8
OBJECT__10
0
POLYLINE
8
OBJECT__11
66
1
70
64
71
5
72
3
62
253
0
VERTEX
8
OBJECT__11
10
93.000000
20
30.018000
30
-16.465000
70
192
0
VERTEX
8
OBJECT__11
10
43.500000
20
29.270000
30
-16.033001
70
192
0
VERTEX
8
OBJECT__11
10
51.855000
20
21.007000
30
-11.262000
70
192
0
VERTEX
8
OBJECT__11
10
43.500000
20
21.386000
30
-11.481000
70
192
0
VERTEX
8
OBJECT__11
10
93.000000
20
19.138000
30
-10.183000
70
192
0
VERTEX
8
OBJECT__11
10
0
20
0
30
0
70
128
71
1
72
2
73
3
0
VERTEX
8
OBJECT__11
10
0
20
0
30
0
70
128
71
2
72
4
73
3
0
VERTEX
8
OBJECT__11
10
0
20
0
30
0
70
128
71
3
72
5
73
1
0
SEQEND
8
OBJECT__11
0
POLYLINE
8
OBJECT__12
66
1
70
64
71
4
72
2
62
253
0
VERTEX
8
OBJECT__12
10
93.000000
20
-30.018000
30
-16.465000
70
192
0
VERTEX
8
OBJECT__12
10
93.000000
20
-29.268000
30
-17.764000
70
192
0
VERTEX
8
OBJECT__12
10
93.000000
20
-18.388000
30
-11.482000
70
192
0
VERTEX
8
OBJECT__12
10
93.000000
20
-19.138000
30
-10.183000
70
192
0
VERTEX
8
OBJECT__12
10
0
20
0
30
0
70
128
71
1
72
2
73
3
0
VERTEX
8
OBJECT__12
10
0
20
0
30
0
70
128
71
3
72
4
73
1
0
SEQEND
8
OBJECT__12
0
POLYLINE
8
OBJECT__13
66
1
70
64
71
5
72
3
62
253
0
VERTEX
8
OBJECT__13
10
93.000000
20
-30.018000
30
-16.465000
70
192
0
VERTEX
8
OBJECT__13
10
93.000000
20
-19.138000
30
-10.183000
70
192
0
VERTEX
8
OBJECT__13
10
51.855000
20
-21.007000
30
-11.262000
70
192
0
VERTEX
8
OBJECT__13
10
43.500000
20
-29.270000
30
-16.033001
70
192
0
VERTEX
8
OBJECT__13
10
43.500000
20
-21.386000
30
-11.481000
70
192
0
VERTEX
8
OBJECT__13
10
0
20
0
30
0
70
128
71
1
72
2
73
3
0
VERTEX
8
OBJECT__13
10
0
20
0
30
0
70
128
71
3
72
4
73
1
0
VERTEX
8
OBJECT__13
10
0
20
0
30
0
70
128
71
3
72
5
73
4
0
SEQEND
8
OBJECT__13
0
POLYLINE
8
OBJECT__14
66
1
70
64
71
5
72
3
62
253
0
VERTEX
8
OBJECT__14
10
93.000000
20
-29.268000
30
-17.764000
70
192
0
VERTEX
8
OBJECT__14
10
43.500000
20
-28.520000
30
-17.332001
70
192
0
VERTEX
8
OBJECT__14
10
51.855000
20
-20.257000
30
-12.561000
70
192
0
VERTEX
8
OBJECT__14
10
43.500000
20
-20.636000
30
-12.780000
70
192
0
VERTEX
8
OBJECT__14
10
93.000000
20
-18.388000
30
-11.482000
70
192
0
VERTEX
8
OBJECT__14
10
0
20
0
30
0
70
128
71
1
72
2
73
3
0
VERTEX
8
OBJECT__14
10
0
20
0
30
0
70
128
71
2
72
4
73
3
0
VERTEX
8
OBJECT__14
10
0
20
0
30
0
70
128
71
3
72
5
73
1
0
SEQEND
8
OBJECT__14
0
POLYLINE
8
OBJECT__15
66
1
70
64
71
40
72
40
62
253
0
VERTEX
8
OBJECT__15
10
98.000000
20
0.000000
30
-34.325001
70
192
0
VERTEX
8
OBJECT__15
10
98.000000
20
15.951000
30
-30.393000
70
192
0
VERTEX
8
OBJECT__15
10
43.500000
20
15.509000
30
-29.551001
70
192
0
VERTEX
8
OBJECT__15
10
98.000000
20
28.249001
30
-19.499001
70
192
0
VERTEX
8
OBJECT__15
10
43.500000
20
27.466000
30
-18.958000
70
192
0
VERTEX
8
OBJECT__15
10
98.000000
20
34.074001
30
-4.137000
70
192
0
VERTEX
8
OBJECT__15
10
98.000000
20
32.094002
30
12.172000
70
192
0
VERTEX
8
OBJECT__15
10
43.500000
20
31.205000
30
11.834000
70
192
0
VERTEX
8
OBJECT__15
10
98.000000
20
22.761999
30
25.691999
70
192
0
VERTEX
8
OBJECT__15
10
43.500000
20
22.131001
30
24.980000
70
192
0
VERTEX
8
OBJECT__15
10
98.000000
20
8.214000
30
33.327000
70
192
0
VERTEX
8
OBJECT__15
10
43.500000
20
7.987000
30
32.403999
70
192
0
VERTEX
8
OBJECT__15
10
98.000000
20
-8.214000
30
33.327000
70
192
0
VERTEX
8
OBJECT__15
10
98.000000
20
-22.761999
30
25.691999
70
192
0
VERTEX
8
OBJECT__15
10
43.500000
20
-22.131001
30
24.980000
70
192
0
VERTEX
8
OBJECT__15
10
98.000000
20
-32.094002
30
12.172000
70
192
0
VERTEX
8
OBJECT__15
10
43.500000
20
-31.205000
30
11.834000
70
192
0
VERTEX
8
OBJECT__15
10
98.000000
20
-34.074001
30
-4.137000
70
192
0
VERTEX
8
OBJECT__15
10
43.500000
20
-33.130001
30
-4.023000
70
192
0
VERTEX
8
OBJECT__15
10
98.000000
20
-28.249001
30
-19.499001
70
192
0
VERTEX
8
OBJECT__15
10
98.000000
20
-15.951000
30
-30.393000
70
192
0
VERTEX
8
OBJECT__15
10
43.500000
20
-15.509000
30
-29.551001
70
192
0
VERTEX
8
OBJECT__15
10
43.500000
20
0.000000
30
-33.373001
70
192
0
VERTEX
8
OBJECT__15
10
93.000000
20
29.268000
30
-17.764000
70
192
0
VERTEX
8
OBJECT__15
10
93.000000
20
30.018000
30
-16.465000
70
192
0
VERTEX
8
OBJECT__15
10
43.500000
20
33.130001
30
-4.023000
70
192
0
VERTEX
8
OBJECT__15
10
43.500000
20
29.270000
30
-16.033001
70
192
0
VERTEX
8
OBJECT__15
10
93.000000
20
-30.018000
30
-16.465000
70
192
0
VERTEX
8
OBJECT__15
10
93.000000
20
-29.268000
30
-17.764000
70
192
0
VERTEX
8
OBJECT__15
10
43.500000
20
-27.466000
30
-18.958000
70
192
0
VERTEX
8
OBJECT__15
10
43.500000
20
-28.520000
30
-17.332001
70
192
0
VERTEX
8
OBJECT__15
10
93.000000
20
0.750000
30
34.229000
70
192
0
VERTEX
8
OBJECT__15
10
49.577000
20
0.750000
30
33.471001
70
192
0
VERTEX
8
OBJECT__15
10
93.000000
20
-0.750000
30
34.229000
70
192
0
VERTEX
8
OBJECT__15
10
43.500000
20
-7.987000
30
32.403999
70
192
0
VERTEX
8
OBJECT__15
10
49.577000
20
-0.750000
30
33.471001
70
192
0
VERTEX
8
OBJECT__15
10
43.500000
20
-0.750000
30
33.365002
70
192
0
VERTEX
8
OBJECT__15
10
43.500000
20
0.750000
30
33.365002
70
192
0
VERTEX
8
OBJECT__15
10
43.500000
20
-29.270000
30
-16.033001
70
192
0
VERTEX
8
OBJECT__15
10
43.500000
20
28.520000
30
-17.332001
70
192
0
VERTEX
8
OBJECT__15
10
0
20
0
30
0
70
128
71
1
72
2
73
3
0
VERTEX
8
OBJECT__15
10
0
20
0
30
0
70
128
71
2
72
4
73
5
0
VERTEX
8
OBJECT__15
10
0
20
0
30
0
70
128
71
6
72
7
73
8
0
VERTEX
8
OBJECT__15
10
0
20
0
30
0
70
128
71
7
72
9
73
10
0
VERTEX
8
OBJECT__15
10
0
20
0
30
0
70
128
71
9
72
11
73
12
0
VERTEX
8
OBJECT__15
10
0
20
0
30
0
70
128
71
13
72
14
73
15
0
VERTEX
8
OBJECT__15
10
0
20
0
30
0
70
128
71
14
72
16
73
17
0
VERTEX
8
OBJECT__15
10
0
20
0
30
0
70
128
71
16
72
18
73
19
0
VERTEX
8
OBJECT__15
10
0
20
0
30
0
70
128
71
20
72
21
73
22
0
VERTEX
8
OBJECT__15
10
0
20
0
30
0
70
128
71
21
72
1
73
23
0
VERTEX
8
OBJECT__15
10
0
20
0
30
0
70
128
71
5
72
4
73
24
0
VERTEX
8
OBJECT__15
10
0
20
0
30
0
70
128
71
4
72
6
73
25
0
VERTEX
8
OBJECT__15
10
0
20
0
30
0
70
128
71
25
72
24
73
4
0
VERTEX
8
OBJECT__15
10
0
20
0
30
0
70
128
71
26
72
27
73
25
0
VERTEX
8
OBJECT__15
10
0
20
0
30
0
70
128
71
25
72
6
73
26
0
VERTEX
8
OBJECT__15
10
0
20
0
30
0
70
128
71
19
72
18
73
28
0
VERTEX
8
OBJECT__15
10
0
20
0
30
0
70
128
71
20
72
29
73
28
0
VERTEX
8
OBJECT__15
10
0
20
0
30
0
70
128
71
30
72
31
73
29
0
VERTEX
8
OBJECT__15
10
0
20
0
30
0
70
128
71
29
72
20
73
30
0
VERTEX
8
OBJECT__15
10
0
20
0
30
0
70
128
71
28
72
18
73
20
0
VERTEX
8
OBJECT__15
10
0
20
0
30
0
70
128
71
11
72
32
73
33
0
VERTEX
8
OBJECT__15
10
0
20
0
30
0
70
128
71
33
72
12
73
11
0
VERTEX
8
OBJECT__15
10
0
20
0
30
0
70
128
71
11
72
13
73
34
0
VERTEX
8
OBJECT__15
10
0
20
0
30
0
70
128
71
13
72
35
73
36
0
VERTEX
8
OBJECT__15
10
0
20
0
30
0
70
128
71
35
72
37
73
36
0
VERTEX
8
OBJECT__15
10
0
20
0
30
0
70
128
71
36
72
34
73
13
0
VERTEX
8
OBJECT__15
10
0
20
0
30
0
70
128
71
34
72
32
73
11
0
VERTEX
8
OBJECT__15
10
0
20
0
30
0
70
128
71
33
72
38
73
12
0
VERTEX
8
OBJECT__15
10
0
20
0
30
0
70
128
71
28
72
39
73
19
0
VERTEX
8
OBJECT__15
10
0
20
0
30
0
70
128
71
24
72
40
73
5
0
VERTEX
8
OBJECT__15
10
0
20
0
30
0
70
128
71
23
72
22
73
21
0
VERTEX
8
OBJECT__15
10
0
20
0
30
0
70
128
71
22
72
30
73
20
0
VERTEX
8
OBJECT__15
10
0
20
0
30
0
70
128
71
19
72
17
73
16
0
VERTEX
8
OBJECT__15
10
0
20
0
30
0
70
128
71
17
72
15
73
14
0
VERTEX
8
OBJECT__15
10
0
20
0
30
0
70
128
71
15
72
35
73
13
0
VERTEX
8
OBJECT__15
10
0
20
0
30
0
70
128
71
12
72
10
73
9
0
VERTEX
8
OBJECT__15
10
0
20
0
30
0
70
128
71
10
72
8
73
7
0
VERTEX
8
OBJECT__15
10
0
20
0
30
0
70
128
71
8
72
26
73
6
0
VERTEX
8
OBJECT__15
10
0
20
0
30
0
70
128
71
5
72
3
73
2
0
VERTEX
8
OBJECT__15
10
0
20
0
30
0
70
128
71
3
72
23
73
1
0
SEQEND
8
OBJECT__15
0
POLYLINE
8
OBJECT__16
66
1
70
64
71
26
72
26
62
253
0
VERTEX
8
OBJECT__16
10
98.000000
20
23.756001
30
26.815001
70
192
0
VERTEX
8
OBJECT__16
10
98.000000
20
8.573000
30
34.784000
70
192
0
VERTEX
8
OBJECT__16
10
98.000000
20
8.214000
30
33.327000
70
192
0
VERTEX
8
OBJECT__16
10
98.000000
20
-8.573000
30
34.784000
70
192
0
VERTEX
8
OBJECT__16
10
98.000000
20
-8.214000
30
33.327000
70
192
0
VERTEX
8
OBJECT__16
10
98.000000
20
35.563999
30
-4.318000
70
192
0
VERTEX
8
OBJECT__16
10
98.000000
20
33.497002
30
12.704000
70
192
0
VERTEX
8
OBJECT__16
10
98.000000
20
32.094002
30
12.172000
70
192
0
VERTEX
8
OBJECT__16
10
98.000000
20
22.761999
30
25.691999
70
192
0
VERTEX
8
OBJECT__16
10
98.000000
20
-23.756001
30
26.815001
70
192
0
VERTEX
8
OBJECT__16
10
98.000000
20
-22.761999
30
25.691999
70
192
0
VERTEX
8
OBJECT__16
10
98.000000
20
-33.497002
30
12.704000
70
192
0
VERTEX
8
OBJECT__16
10
98.000000
20
-35.563999
30
-4.318000
70
192
0
VERTEX
8
OBJECT__16
10
98.000000
20
-34.074001
30
-4.137000
70
192
0
VERTEX
8
OBJECT__16
10
98.000000
20
-29.483000
30
-20.351000
70
192
0
VERTEX
8
OBJECT__16
10
98.000000
20
-28.249001
30
-19.499001
70
192
0
VERTEX
8
OBJECT__16
10
98.000000
20
-32.094002
30
12.172000
70
192
0
VERTEX
8
OBJECT__16
10
98.000000
20
-16.649000
30
-31.721001
70
192
0
VERTEX
8
OBJECT__16
10
98.000000
20
-15.951000
30
-30.393000
70
192
0
VERTEX
8
OBJECT__16
10
98.000000
20
29.483000
30
-20.351000
70
192
0
VERTEX
8
OBJECT__16
10
98.000000
20
28.249001
30
-19.499001
70
192
0
VERTEX
8
OBJECT__16
10
98.000000
20
15.951000
30
-30.393000
70
192
0
VERTEX
8
OBJECT__16
10
98.000000
20
34.074001
30
-4.137000
70
192
0
VERTEX
8
OBJECT__16
10
98.000000
20
0.000000
30
-35.825001
70
192
0
VERTEX
8
OBJECT__16
10
98.000000
20
0.000000
30
-34.325001
70
192
0
VERTEX
8
OBJECT__16
10
98.000000
20
16.649000
30
-31.721001
70
192
0
VERTEX
8
OBJECT__16
10
0
20
0
30
0
70
128
71
1
72
2
73
3
0
VERTEX
8
OBJECT__16
10
0
20
0
30
0
70
128
71
2
72
4
73
5
0
VERTEX
8
OBJECT__16
10
0
20
0
30
0
70
128
71
6
72
7
73
8
0
VERTEX
8
OBJECT__16
10
0
20
0
30
0
70
128
71
7
72
1
73
9
0
VERTEX
8
OBJECT__16
10
0
20
0
30
0
70
128
71
5
72
3
73
2
0
VERTEX
8
OBJECT__16
10
0
20
0
30
0
70
128
71
10
72
11
73
5
0
VERTEX
8
OBJECT__16
10
0
20
0
30
0
70
128
71
9
72
8
73
7
0
VERTEX
8
OBJECT__16
10
0
20
0
30
0
70
128
71
5
72
4
73
10
0
VERTEX
8
OBJECT__16
10
0
20
0
30
0
70
128
71
12
72
13
73
14
0
VERTEX
8
OBJECT__16
10
0
20
0
30
0
70
128
71
13
72
15
73
16
0
VERTEX
8
OBJECT__16
10
0
20
0
30
0
70
128
71
3
72
9
73
1
0
VERTEX
8
OBJECT__16
10
0
20
0
30
0
70
128
71
12
72
17
73
11
0
VERTEX
8
OBJECT__16
10
0
20
0
30
0
70
128
71
16
72
14
73
13
0
VERTEX
8
OBJECT__16
10
0
20
0
30
0
70
128
71
18
72
19
73
16
0
VERTEX
8
OBJECT__16
10
0
20
0
30
0
70
128
71
11
72
10
73
12
0
VERTEX
8
OBJECT__16
10
0
20
0
30
0
70
128
71
16
72
15
73
18
0
VERTEX
8
OBJECT__16
10
0
20
0
30
0
70
128
71
20
72
21
73
22
0
VERTEX
8
OBJECT__16
10
0
20
0
30
0
70
128
71
6
72
23
73
21
0
VERTEX
8
OBJECT__16
10
0
20
0
30
0
70
128
71
14
72
17
73
12
0
VERTEX
8
OBJECT__16
10
0
20
0
30
0
70
128
71
24
72
25
73
19
0
VERTEX
8
OBJECT__16
10
0
20
0
30
0
70
128
71
26
72
22
73
25
0
VERTEX
8
OBJECT__16
10
0
20
0
30
0
70
128
71
21
72
20
73
6
0
VERTEX
8
OBJECT__16
10
0
20
0
30
0
70
128
71
19
72
18
73
24
0
VERTEX
8
OBJECT__16
10
0
20
0
30
0
70
128
71
22
72
26
73
20
0
VERTEX
8
OBJECT__16
10
0
20
0
30
0
70
128
71
25
72
24
73
26
0
VERTEX
8
OBJECT__16
10
0
20
0
30
0
70
128
71
8
72
23
73
6
0
SEQEND
8
OBJECT__16
0
POLYLINE
8
OBJECT__17
66
1
70
64
71
26
72
26
62
253
0
VERTEX
8
OBJECT__17
10
98.000000
20
16.649000
30
-31.721001
70
192
0
VERTEX
8
OBJECT__17
10
98.000000
20
0.000000
30
-35.825001
70
192
0
VERTEX
8
OBJECT__17
10
38.000000
20
0.000000
30
-34.778000
70
192
0
VERTEX
8
OBJECT__17
10
98.000000
20
29.483000
30
-20.351000
70
192
0
VERTEX
8
OBJECT__17
10
38.000000
20
16.162001
30
-30.794001
70
192
0
VERTEX
8
OBJECT__17
10
98.000000
20
35.563999
30
-4.318000
70
192
0
VERTEX
8
OBJECT__17
10
38.000000
20
28.621000
30
-19.756001
70
192
0
VERTEX
8
OBJECT__17
10
98.000000
20
33.497002
30
12.704000
70
192
0
VERTEX
8
OBJECT__17
10
38.000000
20
34.523998
30
-4.192000
70
192
0
VERTEX
8
OBJECT__17
10
98.000000
20
23.756001
30
26.815001
70
192
0
VERTEX
8
OBJECT__17
10
38.000000
20
32.518002
30
12.332000
70
192
0
VERTEX
8
OBJECT__17
10
98.000000
20
8.573000
30
34.784000
70
192
0
VERTEX
8
OBJECT__17
10
38.000000
20
23.062000
30
26.031000
70
192
0
VERTEX
8
OBJECT__17
10
98.000000
20
-8.573000
30
34.784000
70
192
0
VERTEX
8
OBJECT__17
10
38.000000
20
8.323000
30
33.766998
70
192
0
VERTEX
8
OBJECT__17
10
98.000000
20
-23.756001
30
26.815001
70
192
0
VERTEX
8
OBJECT__17
10
38.000000
20
-8.323000
30
33.766998
70
192
0
VERTEX
8
OBJECT__17
10
98.000000
20
-33.497002
30
12.704000
70
192
0
VERTEX
8
OBJECT__17
10
38.000000
20
-23.062000
30
26.031000
70
192
0
VERTEX
8
OBJECT__17
10
98.000000
20
-35.563999
30
-4.318000
70
192
0
VERTEX
8
OBJECT__17
10
38.000000
20
-32.518002
30
12.332000
70
192
0
VERTEX
8
OBJECT__17
10
98.000000
20
-29.483000
30
-20.351000
70
192
0
VERTEX
8
OBJECT__17
10
38.000000
20
-34.523998
30
-4.192000
70
192
0
VERTEX
8
OBJECT__17
10
98.000000
20
-16.649000
30
-31.721001
70
192
0
VERTEX
8
OBJECT__17
10
38.000000
20
-28.621000
30
-19.756001
70
192
0
VERTEX
8
OBJECT__17
10
38.000000
20
-16.162001
30
-30.794001
70
192
0
VERTEX
8
OBJECT__17
10
0
20
0
30
0
70
128
71
1
72
2
73
3
0
VERTEX
8
OBJECT__17
10
0
20
0
30
0
70
128
71
4
72
1
73
5
0
VERTEX
8
OBJECT__17
10
0
20
0
30
0
70
128
71
6
72
4
73
7
0
VERTEX
8
OBJECT__17
10
0
20
0
30
0
70
128
71
8
72
6
73
9
0
VERTEX
8
OBJECT__17
10
0
20
0
30
0
70
128
71
10
72
8
73
11
0
VERTEX
8
OBJECT__17
10
0
20
0
30
0
70
128
71
12
72
10
73
13
0
VERTEX
8
OBJECT__17
10
0
20
0
30
0
70
128
71
14
72
12
73
15
0
VERTEX
8
OBJECT__17
10
0
20
0
30
0
70
128
71
16
72
14
73
17
0
VERTEX
8
OBJECT__17
10
0
20
0
30
0
70
128
71
18
72
16
73
19
0
VERTEX
8
OBJECT__17
10
0
20
0
30
0
70
128
71
20
72
18
73
21
0
VERTEX
8
OBJECT__17
10
0
20
0
30
0
70
128
71
22
72
20
73
23
0
VERTEX
8
OBJECT__17
10
0
20
0
30
0
70
128
71
24
72
22
73
25
0
VERTEX
8
OBJECT__17
10
0
20
0
30
0
70
128
71
2
72
24
73
26
0
VERTEX
8
OBJECT__17
10
0
20
0
30
0
70
128
71
26
72
3
73
2
0
VERTEX
8
OBJECT__17
10
0
20
0
30
0
70
128
71
25
72
26
73
24
0
VERTEX
8
OBJECT__17
10
0
20
0
30
0
70
128
71
23
72
25
73
22
0
VERTEX
8
OBJECT__17
10
0
20
0
30
0
70
128
71
21
72
23
73
20
0
VERTEX
8
OBJECT__17
10
0
20
0
30
0
70
128
71
19
72
21
73
18
0
VERTEX
8
OBJECT__17
10
0
20
0
30
0
70
128
71
17
72
19
73
16
0
VERTEX
8
OBJECT__17
10
0
20
0
30
0
70
128
71
15
72
17
73
14
0
VERTEX
8
OBJECT__17
10
0
20
0
30
0
70
128
71
13
72
15
73
12
0
VERTEX
8
OBJECT__17
10
0
20
0
30
0
70
128
71
11
72
13
73
10
0
VERTEX
8
OBJECT__17
10
0
20
0
30
0
70
128
71
9
72
11
73
8
0
VERTEX
8
OBJECT__17
10
0
20
0
30
0
70
128
71
7
72
9
73
6
0
VERTEX
8
OBJECT__17
10
0
20
0
30
0
70
128
71
5
72
7
73
4
0
VERTEX
8
OBJECT__17
10
0
20
0
30
0
70
128
71
3
72
5
73
1
0
SEQEND
8
OBJECT__17
0
POLYLINE
8
OBJECT__18
66
1
70
64
71
26
72
26
62
253
0
VERTEX
8
OBJECT__18
10
38.000000
20
34.523998
30
-4.192000
70
192
0
VERTEX
8
OBJECT__18
10
38.000000
20
34.248001
30
-4.159000
70
192
0
VERTEX
8
OBJECT__18
10
38.000000
20
32.257999
30
12.234000
70
192
0
VERTEX
8
OBJECT__18
10
38.000000
20
28.621000
30
-19.756001
70
192
0
VERTEX
8
OBJECT__18
10
38.000000
20
28.393000
30
-19.598000
70
192
0
VERTEX
8
OBJECT__18
10
38.000000
20
16.162001
30
-30.794001
70
192
0
VERTEX
8
OBJECT__18
10
38.000000
20
16.033001
30
-30.548000
70
192
0
VERTEX
8
OBJECT__18
10
38.000000
20
0.000000
30
-34.778000
70
192
0
VERTEX
8
OBJECT__18
10
38.000000
20
0.000000
30
-34.500000
70
192
0
VERTEX
8
OBJECT__18
10
38.000000
20
23.062000
30
26.031000
70
192
0
VERTEX
8
OBJECT__18
10
38.000000
20
22.878000
30
25.823999
70
192
0
VERTEX
8
OBJECT__18
10
38.000000
20
8.256000
30
33.497002
70
192
0
VERTEX
8
OBJECT__18
10
38.000000
20
32.518002
30
12.332000
70
192
0
VERTEX
8
OBJECT__18
10
38.000000
20
-32.518002
30
12.332000
70
192
0
VERTEX
8
OBJECT__18
10
38.000000
20
-32.257999
30
12.234000
70
192
0
VERTEX
8
OBJECT__18
10
38.000000
20
-34.248001
30
-4.159000
70
192
0
VERTEX
8
OBJECT__18
10
38.000000
20
-23.062000
30
26.031000
70
192
0
VERTEX
8
OBJECT__18
10
38.000000
20
-22.878000
30
25.823999
70
192
0
VERTEX
8
OBJECT__18
10
38.000000
20
-8.323000
30
33.766998
70
192
0
VERTEX
8
OBJECT__18
10
38.000000
20
-8.256000
30
33.497002
70
192
0
VERTEX
8
OBJECT__18
10
38.000000
20
8.323000
30
33.766998
70
192
0
VERTEX
8
OBJECT__18
10
38.000000
20
-16.162001
30
-30.794001
70
192
0
VERTEX
8
OBJECT__18
10
38.000000
20
-16.033001
30
-30.548000
70
192
0
VERTEX
8
OBJECT__18
10
38.000000
20
-28.621000
30
-19.756001
70
192
0
VERTEX
8
OBJECT__18
10
38.000000
20
-28.393000
30
-19.598000
70
192
0
VERTEX
8
OBJECT__18
10
38.000000
20
-34.523998
30
-4.192000
70
192
0
VERTEX
8
OBJECT__18
10
0
20
0
30
0
70
128
71
1
72
2
73
3
0
VERTEX
8
OBJECT__18
10
0
20
0
30
0
70
128
71
4
72
5
73
2
0
VERTEX
8
OBJECT__18
10
0
20
0
30
0
70
128
71
6
72
7
73
5
0
VERTEX
8
OBJECT__18
10
0
20
0
30
0
70
128
71
8
72
9
73
7
0
VERTEX
8
OBJECT__18
10
0
20
0
30
0
70
128
71
10
72
11
73
12
0
VERTEX
8
OBJECT__18
10
0
20
0
30
0
70
128
71
13
72
3
73
11
0
VERTEX
8
OBJECT__18
10
0
20
0
30
0
70
128
71
2
72
1
73
4
0
VERTEX
8
OBJECT__18
10
0
20
0
30
0
70
128
71
7
72
6
73
8
0
VERTEX
8
OBJECT__18
10
0
20
0
30
0
70
128
71
11
72
10
73
13
0
VERTEX
8
OBJECT__18
10
0
20
0
30
0
70
128
71
5
72
4
73
6
0
VERTEX
8
OBJECT__18
10
0
20
0
30
0
70
128
71
14
72
15
73
16
0
VERTEX
8
OBJECT__18
10
0
20
0
30
0
70
128
71
17
72
18
73
15
0
VERTEX
8
OBJECT__18
10
0
20
0
30
0
70
128
71
19
72
20
73
18
0
VERTEX
8
OBJECT__18
10
0
20
0
30
0
70
128
71
21
72
12
73
20
0
VERTEX
8
OBJECT__18
10
0
20
0
30
0
70
128
71
3
72
13
73
1
0
VERTEX
8
OBJECT__18
10
0
20
0
30
0
70
128
71
22
72
23
73
9
0
VERTEX
8
OBJECT__18
10
0
20
0
30
0
70
128
71
22
72
24
73
25
0
VERTEX
8
OBJECT__18
10
0
20
0
30
0
70
128
71
26
72
16
73
25
0
VERTEX
8
OBJECT__18
10
0
20
0
30
0
70
128
71
15
72
14
73
17
0
VERTEX
8
OBJECT__18
10
0
20
0
30
0
70
128
71
20
72
19
73
21
0
VERTEX
8
OBJECT__18
10
0
20
0
30
0
70
128
71
9
72
8
73
22
0
VERTEX
8
OBJECT__18
10
0
20
0
30
0
70
128
71
25
72
24
73
26
0
VERTEX
8
OBJECT__18
10
0
20
0
30
0
70
128
71
18
72
17
73
19
0
VERTEX
8
OBJECT__18
10
0
20
0
30
0
70
128
71
25
72
23
73
22
0
VERTEX
8
OBJECT__18
10
0
20
0
30
0
70
128
71
12
72
21
73
10
0
VERTEX
8
OBJECT__18
10
0
20
0
30
0
70
128
71
16
72
26
73
14
0
SEQEND
8
OBJECT__18
0
POLYLINE
8
OBJECT__19
66
1
70
64
71
26
72
26
62
253
0
VERTEX
8
OBJECT__19
10
22.000000
20
16.033001
30
-30.548000
70
192
0
VERTEX
8
OBJECT__19
10
38.000000
20
16.033001
30
-30.548000
70
192
0
VERTEX
8
OBJECT__19
10
38.000000
20
0.000000
30
-34.500000
70
192
0
VERTEX
8
OBJECT__19
10
22.000000
20
28.393000
30
-19.598000
70
192
0
VERTEX
8
OBJECT__19
10
38.000000
20
28.393000
30
-19.598000
70
192
0
VERTEX
8
OBJECT__19
10
22.000000
20
34.248001
30
-4.159000
70
192
0
VERTEX
8
OBJECT__19
10
38.000000
20
34.248001
30
-4.159000
70
192
0
VERTEX
8
OBJECT__19
10
22.000000
20
32.257999
30
12.234000
70
192
0
VERTEX
8
OBJECT__19
10
38.000000
20
32.257999
30
12.234000
70
192
0
VERTEX
8
OBJECT__19
10
22.000000
20
22.878000
30
25.823999
70
192
0
VERTEX
8
OBJECT__19
10
38.000000
20
22.878000
30
25.823999
70
192
0
VERTEX
8
OBJECT__19
10
22.000000
20
8.256000
30
33.497002
70
192
0
VERTEX
8
OBJECT__19
10
38.000000
20
8.256000
30
33.497002
70
192
0
VERTEX
8
OBJECT__19
10
22.000000
20
-8.256000
30
33.497002
70
192
0
VERTEX
8
OBJECT__19
10
38.000000
20
-8.256000
30
33.497002
70
192
0
VERTEX
8
OBJECT__19
10
22.000000
20
-22.878000
30
25.823999
70
192
0
VERTEX
8
OBJECT__19
10
38.000000
20
-22.878000
30
25.823999
70
192
0
VERTEX
8
OBJECT__19
10
22.000000
20
-32.257999
30
12.234000
70
192
0
VERTEX
8
OBJECT__19
10
38.000000
20
-32.257999
30
12.234000
70
192
0
VERTEX
8
OBJECT__19
10
22.000000
20
-34.248001
30
-4.159000
70
192
0
VERTEX
8
OBJECT__19
10
38.000000
20
-34.248001
30
-4.159000
70
192
0
VERTEX
8
OBJECT__19
10
22.000000
20
-28.393000
30
-19.598000
70
192
0
VERTEX
8
OBJECT__19
10
38.000000
20
-28.393000
30
-19.598000
70
192
0
VERTEX
8
OBJECT__19
10
22.000000
20
-16.033001
30
-30.548000
70
192
0
VERTEX
8
OBJECT__19
10
38.000000
20
-16.033001
30
-30.548000
70
192
0
VERTEX
8
OBJECT__19
10
22.000000
20
0.000000
30
-34.500000
70
192
0
VERTEX
8
OBJECT__19
10
0
20
0
30
0
70
128
71
1
72
2
73
3
0
VERTEX
8
OBJECT__19
10
0
20
0
30
0
70
128
71
4
72
5
73
2
0
VERTEX
8
OBJECT__19
10
0
20
0
30
0
70
128
71
6
72
7
73
5
0
VERTEX
8
OBJECT__19
10
0
20
0
30
0
70
128
71
8
72
9
73
7
0
VERTEX
8
OBJECT__19
10
0
20
0
30
0
70
128
71
10
72
11
73
9
0
VERTEX
8
OBJECT__19
10
0
20
0
30
0
70
128
71
12
72
13
73
11
0
VERTEX
8
OBJECT__19
10
0
20
0
30
0
70
128
71
14
72
15
73
13
0
VERTEX
8
OBJECT__19
10
0
20
0
30
0
70
128
71
16
72
17
73
15
0
VERTEX
8
OBJECT__19
10
0
20
0
30
0
70
128
71
18
72
19
73
17
0
VERTEX
8
OBJECT__19
10
0
20
0
30
0
70
128
71
20
72
21
73
19
0
VERTEX
8
OBJECT__19
10
0
20
0
30
0
70
128
71
22
72
23
73
21
0
VERTEX
8
OBJECT__19
10
0
20
0
30
0
70
128
71
24
72
25
73
23
0
VERTEX
8
OBJECT__19
10
0
20
0
30
0
70
128
71
26
72
3
73
25
0
VERTEX
8
OBJECT__19
10
0
20
0
30
0
70
128
71
25
72
24
73
26
0
VERTEX
8
OBJECT__19
10
0
20
0
30
0
70
128
71
23
72
22
73
24
0
VERTEX
8
OBJECT__19
10
0
20
0
30
0
70
128
71
21
72
20
73
22
0
VERTEX
8
OBJECT__19
10
0
20
0
30
0
70
128
71
19
72
18
73
20
0
VERTEX
8
OBJECT__19
10
0
20
0
30
0
70
128
71
17
72
16
73
18
0
VERTEX
8
OBJECT__19
10
0
20
0
30
0
70
128
71
15
72
14
73
16
0
VERTEX
8
OBJECT__19
10
0
20
0
30
0
70
128
71
13
72
12
73
14
0
VERTEX
8
OBJECT__19
10
0
20
0
30
0
70
128
71
11
72
10
73
12
0
VERTEX
8
OBJECT__19
10
0
20
0
30
0
70
128
71
9
72
8
73
10
0
VERTEX
8
OBJECT__19
10
0
20
0
30
0
70
128
71
7
72
6
73
8
0
VERTEX
8
OBJECT__19
10
0
20
0
30
0
70
128
71
5
72
4
73
6
0
VERTEX
8
OBJECT__19
10
0
20
0
30
0
70
128
71
2
72
1
73
4
0
VERTEX
8
OBJECT__19
10
0
20
0
30
0
70
128
71
3
72
26
73
1
0
SEQEND
8
OBJECT__19
0
POLYLINE
8
OBJECT__20
66
1
70
64
71
13
72
11
62
253
0
VERTEX
8
OBJECT__20
10
22.000000
20
16.033001
30
-30.548000
70
192
0
VERTEX
8
OBJECT__20
10
22.000000
20
-28.393000
30
-19.598000
70
192
0
VERTEX
8
OBJECT__20
10
22.000000
20
-34.248001
30
-4.159000
70
192
0
VERTEX
8
OBJECT__20
10
22.000000
20
8.256000
30
33.497002
70
192
0
VERTEX
8
OBJECT__20
10
22.000000
20
34.248001
30
-4.159000
70
192
0
VERTEX
8
OBJECT__20
10
22.000000
20
28.393000
30
-19.598000
70
192
0
VERTEX
8
OBJECT__20
10
22.000000
20
22.878000
30
25.823999
70
192
0
VERTEX
8
OBJECT__20
10
22.000000
20
-32.257999
30
12.234000
70
192
0
VERTEX
8
OBJECT__20
10
22.000000
20
0.000000
30
-34.500000
70
192
0
VERTEX
8
OBJECT__20
10
22.000000
20
32.257999
30
12.234000
70
192
0
VERTEX
8
OBJECT__20
10
22.000000
20
-22.878000
30
25.823999
70
192
0
VERTEX
8
OBJECT__20
10
22.000000
20
-8.256000
30
33.497002
70
192
0
VERTEX
8
OBJECT__20
10
22.000000
20
-16.033001
30
-30.548000
70
192
0
VERTEX
8
OBJECT__20
10
0
20
0
30
0
70
128
71
1
72
2
73
3
0
VERTEX
8
OBJECT__20
10
0
20
0
30
0
70
128
71
4
72
5
73
6
0
VERTEX
8
OBJECT__20
10
0
20
0
30
0
70
128
71
5
72
4
73
7
0
VERTEX
8
OBJECT__20
10
0
20
0
30
0
70
128
71
3
72
8
73
1
0
VERTEX
8
OBJECT__20
10
0
20
0
30
0
70
128
71
2
72
1
73
9
0
VERTEX
8
OBJECT__20
10
0
20
0
30
0
70
128
71
7
72
10
73
5
0
VERTEX
8
OBJECT__20
10
0
20
0
30
0
70
128
71
1
72
11
73
12
0
VERTEX
8
OBJECT__20
10
0
20
0
30
0
70
128
71
9
72
13
73
2
0
VERTEX
8
OBJECT__20
10
0
20
0
30
0
70
128
71
12
72
4
73
1
0
VERTEX
8
OBJECT__20
10
0
20
0
30
0
70
128
71
6
72
1
73
4
0
VERTEX
8
OBJECT__20
10
0
20
0
30
0
70
128
71
8
72
11
73
1
0
SEQEND
8
OBJECT__20
0
POLYLINE
8
OBJECT__21
66
1
70
64
71
12
72
10
62
253
0
VERTEX
8
OBJECT__21
10
6.029000
20
-10.443000
30
-26.500000
70
192
0
VERTEX
8
OBJECT__21
10
-12.058000
20
0.000000
30
-26.500000
70
192
0
VERTEX
8
OBJECT__21
10
-10.443000
20
6.029000
30
-26.500000
70
192
0
VERTEX
8
OBJECT__21
10
0.000000
20
12.059000
30
-26.500000
70
192
0
VERTEX
8
OBJECT__21
10
6.029000
20
10.443000
30
-26.500000
70
192
0
VERTEX
8
OBJECT__21
10
-10.443000
20
-6.029000
30
-26.500000
70
192
0
VERTEX
8
OBJECT__21
10
0.000000
20
-12.058000
30
-26.500000
70
192
0
VERTEX
8
OBJECT__21
10
10.443000
20
6.029000
30
-26.500000
70
192
0
VERTEX
8
OBJECT__21
10
12.058000
20
0.000000
30
-26.500000
70
192
0
VERTEX
8
OBJECT__21
10
-6.029000
20
10.443000
30
-26.500000
70
192
0
VERTEX
8
OBJECT__21
10
-6.029000
20
-10.443000
30
-26.500000
70
192
0
VERTEX
8
OBJECT__21
10
10.443000
20
-6.029000
30
-26.500000
70
192
0
VERTEX
8
OBJECT__21
10
0
20
0
30
0
70
128
71
1
72
2
73
3
0
VERTEX
8
OBJECT__21
10
0
20
0
30
0
70
128
71
1
72
4
73
5
0
VERTEX
8
OBJECT__21
10
0
20
0
30
0
70
128
71
1
72
6
73
2
0
VERTEX
8
OBJECT__21
10
0
20
0
30
0
70
128
71
6
72
1
73
7
0
VERTEX
8
OBJECT__21
10
0
20
0
30
0
70
128
71
1
72
8
73
9
0
VERTEX
8
OBJECT__21
10
0
20
0
30
0
70
128
71
1
72
10
73
4
0
VERTEX
8
OBJECT__21
10
0
20
0
30
0
70
128
71
7
72
11
73
6
0
VERTEX
8
OBJECT__21
10
0
20
0
30
0
70
128
71
5
72
8
73
1
0
VERTEX
8
OBJECT__21
10
0
20
0
30
0
70
128
71
9
72
12
73
1
0
VERTEX
8
OBJECT__21
10
0
20
0
30
0
70
128
71
3
72
10
73
1
0
SEQEND
8
OBJECT__21
0
POLYLINE
8
OBJECT__22
66
1
70
64
71
24
72
24
62
253
0
VERTEX
8
OBJECT__22
10
6.029000
20
10.443000
30
-41.500000
70
192
0
VERTEX
8
OBJECT__22
10
6.029000
20
10.443000
30
-26.500000
70
192
0
VERTEX
8
OBJECT__22
10
0.000000
20
12.059000
30
-26.500000
70
192
0
VERTEX
8
OBJECT__22
10
10.443000
20
6.029000
30
-41.500000
70
192
0
VERTEX
8
OBJECT__22
10
10.443000
20
6.029000
30
-26.500000
70
192
0
VERTEX
8
OBJECT__22
10
12.058000
20
0.000000
30
-41.500000
70
192
0
VERTEX
8
OBJECT__22
10
12.058000
20
0.000000
30
-26.500000
70
192
0
VERTEX
8
OBJECT__22
10
10.443000
20
-6.029000
30
-41.500000
70
192
0
VERTEX
8
OBJECT__22
10
10.443000
20
-6.029000
30
-26.500000
70
192
0
VERTEX
8
OBJECT__22
10
6.029000
20
-10.443000
30
-41.500000
70
192
0
VERTEX
8
OBJECT__22
10
6.029000
20
-10.443000
30
-26.500000
70
192
0
VERTEX
8
OBJECT__22
10
0.000000
20
-12.058000
30
-41.500000
70
192
0
VERTEX
8
OBJECT__22
10
0.000000
20
-12.058000
30
-26.500000
70
192
0
VERTEX
8
OBJECT__22
10
-6.029000
20
-10.443000
30
-41.500000
70
192
0
VERTEX
8
OBJECT__22
10
-6.029000
20
-10.443000
30
-26.500000
70
192
0
VERTEX
8
OBJECT__22
10
-10.443000
20
-6.029000
30
-26.500000
70
192
0
VERTEX
8
OBJECT__22
10
-12.058000
20
0.000000
30
-26.500000
70
192
0
VERTEX
8
OBJECT__22
10
-10.443000
20
-6.029000
30
-41.500000
70
192
0
VERTEX
8
OBJECT__22
10
-10.443000
20
6.029000
30
-26.500000
70
192
0
VERTEX
8
OBJECT__22
10
-12.058000
20
0.000000
30
-41.500000
70
192
0
VERTEX
8
OBJECT__22
10
-6.029000
20
10.443000
30
-26.500000
70
192
0
VERTEX
8
OBJECT__22
10
-10.443000
20
6.029000
30
-41.500000
70
192
0
VERTEX
8
OBJECT__22
10
0.000000
20
12.059000
30
-41.500000
70
192
0
VERTEX
8
OBJECT__22
10
-6.029000
20
10.443000
30
-41.500000
70
192
0
VERTEX
8
OBJECT__22
10
0
20
0
30
0
70
128
71
1
72
2
73
3
0
VERTEX
8
OBJECT__22
10
0
20
0
30
0
70
128
71
4
72
5
73
2
0
VERTEX
8
OBJECT__22
10
0
20
0
30
0
70
128
71
6
72
7
73
5
0
VERTEX
8
OBJECT__22
10
0
20
0
30
0
70
128
71
8
72
9
73
7
0
VERTEX
8
OBJECT__22
10
0
20
0
30
0
70
128
71
10
72
11
73
9
0
VERTEX
8
OBJECT__22
10
0
20
0
30
0
70
128
71
12
72
13
73
11
0
VERTEX
8
OBJECT__22
10
0
20
0
30
0
70
128
71
14
72
15
73
13
0
VERTEX
8
OBJECT__22
10
0
20
0
30
0
70
128
71
16
72
15
73
14
0
VERTEX
8
OBJECT__22
10
0
20
0
30
0
70
128
71
17
72
16
73
18
0
VERTEX
8
OBJECT__22
10
0
20
0
30
0
70
128
71
19
72
17
73
20
0
VERTEX
8
OBJECT__22
10
0
20
0
30
0
70
128
71
21
72
19
73
22
0
VERTEX
8
OBJECT__22
10
0
20
0
30
0
70
128
71
23
72
3
73
21
0
VERTEX
8
OBJECT__22
10
0
20
0
30
0
70
128
71
21
72
24
73
23
0
VERTEX
8
OBJECT__22
10
0
20
0
30
0
70
128
71
22
72
24
73
21
0
VERTEX
8
OBJECT__22
10
0
20
0
30
0
70
128
71
20
72
22
73
19
0
VERTEX
8
OBJECT__22
10
0
20
0
30
0
70
128
71
18
72
20
73
17
0
VERTEX
8
OBJECT__22
10
0
20
0
30
0
70
128
71
14
72
18
73
16
0
VERTEX
8
OBJECT__22
10
0
20
0
30
0
70
128
71
13
72
12
73
14
0
VERTEX
8
OBJECT__22
10
0
20
0
30
0
70
128
71
11
72
10
73
12
0
VERTEX
8
OBJECT__22
10
0
20
0
30
0
70
128
71
9
72
8
73
10
0
VERTEX
8
OBJECT__22
10
0
20
0
30
0
70
128
71
7
72
6
73
8
0
VERTEX
8
OBJECT__22
10
0
20
0
30
0
70
128
71
5
72
4
73
6
0
VERTEX
8
OBJECT__22
10
0
20
0
30
0
70
128
71
2
72
1
73
4
0
VERTEX
8
OBJECT__22
10
0
20
0
30
0
70
128
71
3
72
23
73
1
0
SEQEND
8
OBJECT__22
0
POLYLINE
8
OBJECT__24
66
1
70
64
71
26
72
26
62
253
0
VERTEX
8
OBJECT__24
10
15.599000
20
3.560000
30
-41.500000
70
192
0
VERTEX
8
OBJECT__24
10
12.058000
20
0.000000
30
-41.500000
70
192
0
VERTEX
8
OBJECT__24
10
10.443000
20
6.029000
30
-41.500000
70
192
0
VERTEX
8
OBJECT__24
10
12.509000
20
9.976000
30
-41.500000
70
192
0
VERTEX
8
OBJECT__24
10
6.029000
20
10.443000
30
-41.500000
70
192
0
VERTEX
8
OBJECT__24
10
15.599000
20
-3.560000
30
-41.500000
70
192
0
VERTEX
8
OBJECT__24
10
12.509000
20
-9.976000
30
-41.500000
70
192
0
VERTEX
8
OBJECT__24
10
10.443000
20
-6.029000
30
-41.500000
70
192
0
VERTEX
8
OBJECT__24
10
6.942000
20
-14.416000
30
-41.500000
70
192
0
VERTEX
8
OBJECT__24
10
6.029000
20
-10.443000
30
-41.500000
70
192
0
VERTEX
8
OBJECT__24
10
0.000000
20
-16.000000
30
-41.500000
70
192
0
VERTEX
8
OBJECT__24
10
0.000000
20
-12.058000
30
-41.500000
70
192
0
VERTEX
8
OBJECT__24
10
-6.942000
20
-14.416000
30
-41.500000
70
192
0
VERTEX
8
OBJECT__24
10
-6.029000
20
-10.443000
30
-41.500000
70
192
0
VERTEX
8
OBJECT__24
10
-12.509000
20
-9.976000
30
-41.500000
70
192
0
VERTEX
8
OBJECT__24
10
-10.443000
20
-6.029000
30
-41.500000
70
192
0
VERTEX
8
OBJECT__24
10
-15.599000
20
-3.560000
30
-41.500000
70
192
0
VERTEX
8
OBJECT__24
10
-12.058000
20
0.000000
30
-41.500000
70
192
0
VERTEX
8
OBJECT__24
10
-15.599000
20
3.560000
30
-41.500000
70
192
0
VERTEX
8
OBJECT__24
10
-12.509000
20
9.976000
30
-41.500000
70
192
0
VERTEX
8
OBJECT__24
10
-10.443000
20
6.029000
30
-41.500000
70
192
0
VERTEX
8
OBJECT__24
10
-6.942000
20
14.416000
30
-41.500000
70
192
0
VERTEX
8
OBJECT__24
10
-6.029000
20
10.443000
30
-41.500000
70
192
0
VERTEX
8
OBJECT__24
10
0.000000
20
16.000000
30
-41.500000
70
192
0
VERTEX
8
OBJECT__24
10
0.000000
20
12.059000
30
-41.500000
70
192
0
VERTEX
8
OBJECT__24
10
6.942000
20
14.416000
30
-41.500000
70
192
0
VERTEX
8
OBJECT__24
10
0
20
0
30
0
70
128
71
1
72
2
73
3
0
VERTEX
8
OBJECT__24
10
0
20
0
30
0
70
128
71
4
72
3
73
5
0
VERTEX
8
OBJECT__24
10
0
20
0
30
0
70
128
71
3
72
4
73
1
0
VERTEX
8
OBJECT__24
10
0
20
0
30
0
70
128
71
1
72
6
73
2
0
VERTEX
8
OBJECT__24
10
0
20
0
30
0
70
128
71
6
72
7
73
8
0
VERTEX
8
OBJECT__24
10
0
20
0
30
0
70
128
71
7
72
9
73
10
0
VERTEX
8
OBJECT__24
10
0
20
0
30
0
70
128
71
9
72
11
73
12
0
VERTEX
8
OBJECT__24
10
0
20
0
30
0
70
128
71
8
72
2
73
6
0
VERTEX
8
OBJECT__24
10
0
20
0
30
0
70
128
71
12
72
10
73
9
0
VERTEX
8
OBJECT__24
10
0
20
0
30
0
70
128
71
10
72
8
73
7
0
VERTEX
8
OBJECT__24
10
0
20
0
30
0
70
128
71
13
72
14
73
12
0
VERTEX
8
OBJECT__24
10
0
20
0
30
0
70
128
71
12
72
11
73
13
0
VERTEX
8
OBJECT__24
10
0
20
0
30
0
70
128
71
15
72
16
73
14
0
VERTEX
8
OBJECT__24
10
0
20
0
30
0
70
128
71
17
72
18
73
16
0
VERTEX
8
OBJECT__24
10
0
20
0
30
0
70
128
71
14
72
13
73
15
0
VERTEX
8
OBJECT__24
10
0
20
0
30
0
70
128
71
16
72
15
73
17
0
VERTEX
8
OBJECT__24
10
0
20
0
30
0
70
128
71
17
72
19
73
18
0
VERTEX
8
OBJECT__24
10
0
20
0
30
0
70
128
71
19
72
20
73
21
0
VERTEX
8
OBJECT__24
10
0
20
0
30
0
70
128
71
21
72
18
73
19
0
VERTEX
8
OBJECT__24
10
0
20
0
30
0
70
128
71
20
72
22
73
23
0
VERTEX
8
OBJECT__24
10
0
20
0
30
0
70
128
71
23
72
21
73
20
0
VERTEX
8
OBJECT__24
10
0
20
0
30
0
70
128
71
22
72
24
73
25
0
VERTEX
8
OBJECT__24
10
0
20
0
30
0
70
128
71
25
72
23
73
22
0
VERTEX
8
OBJECT__24
10
0
20
0
30
0
70
128
71
5
72
26
73
4
0
VERTEX
8
OBJECT__24
10
0
20
0
30
0
70
128
71
5
72
25
73
26
0
VERTEX
8
OBJECT__24
10
0
20
0
30
0
70
128
71
25
72
24
73
26
0
SEQEND
8
OBJECT__24
0
POLYLINE
8
OBJECT__25
66
1
70
64
71
79
72
79
62
253
0
VERTEX
8
OBJECT__25
10
-12.509000
20
9.976000
30
-41.500000
70
192
0
VERTEX
8
OBJECT__25
10
-15.599000
20
3.560000
30
-41.500000
70
192
0
VERTEX
8
OBJECT__25
10
-14.521000
20
6.718000
30
-29.000000
70
192
0
VERTEX
8
OBJECT__25
10
-15.234000
20
3.480000
30
-29.000000
70
192
0
VERTEX
8
OBJECT__25
10
-15.599000
20
-3.560000
30
-41.500000
70
192
0
VERTEX
8
OBJECT__25
10
-15.234000
20
-3.480000
30
-29.000000
70
192
0
VERTEX
8
OBJECT__25
10
-16.000000
20
0.000000
30
-29.000000
70
192
0
VERTEX
8
OBJECT__25
10
-12.509000
20
-9.976000
30
-41.500000
70
192
0
VERTEX
8
OBJECT__25
10
-12.229000
20
-9.765000
30
-29.000000
70
192
0
VERTEX
8
OBJECT__25
10
-14.521000
20
-6.718000
30
-29.000000
70
192
0
VERTEX
8
OBJECT__25
10
15.599000
20
-3.560000
30
-41.500000
70
192
0
VERTEX
8
OBJECT__25
10
15.835000
20
2.294000
30
-32.678001
70
192
0
VERTEX
8
OBJECT__25
10
15.932000
20
1.471000
30
-32.096001
70
192
0
VERTEX
8
OBJECT__25
10
15.992000
20
0.499000
30
-31.819000
70
192
0
VERTEX
8
OBJECT__25
10
15.999000
20
0.163000
30
-31.802000
70
192
0
VERTEX
8
OBJECT__25
10
15.738000
20
2.886000
30
-33.137001
70
192
0
VERTEX
8
OBJECT__25
10
15.996000
20
-0.364000
30
-31.799999
70
192
0
VERTEX
8
OBJECT__25
10
15.709000
20
-3.039000
30
-31.664000
70
192
0
VERTEX
8
OBJECT__25
10
15.599000
20
3.560000
30
-41.500000
70
192
0
VERTEX
8
OBJECT__25
10
15.592000
20
3.559000
30
-33.391998
70
192
0
VERTEX
8
OBJECT__25
10
12.509000
20
-9.976000
30
-41.500000
70
192
0
VERTEX
8
OBJECT__25
10
14.015000
20
-7.719000
30
-30.905001
70
192
0
VERTEX
8
OBJECT__25
10
13.218000
20
-8.965000
30
-30.577000
70
192
0
VERTEX
8
OBJECT__25
10
12.879000
20
-9.494000
30
-30.438000
70
192
0
VERTEX
8
OBJECT__25
10
15.131000
20
-5.203000
30
-31.396999
70
192
0
VERTEX
8
OBJECT__25
10
15.571000
20
-3.553000
30
-31.601000
70
192
0
VERTEX
8
OBJECT__25
10
8.034000
20
-13.837000
30
-30.563999
70
192
0
VERTEX
8
OBJECT__25
10
6.922000
20
-14.373000
30
-30.975000
70
192
0
VERTEX
8
OBJECT__25
10
9.501000
20
-12.874000
30
-29.747999
70
192
0
VERTEX
8
OBJECT__25
10
8.687000
20
-13.408000
30
-30.201000
70
192
0
VERTEX
8
OBJECT__25
10
11.018000
20
-11.602000
30
-29.750000
70
192
0
VERTEX
8
OBJECT__25
10
9.978000
20
-12.508000
30
-29.410999
70
192
0
VERTEX
8
OBJECT__25
10
12.478000
20
-9.948000
30
-30.290001
70
192
0
VERTEX
8
OBJECT__25
10
6.942000
20
-14.416000
30
-41.500000
70
192
0
VERTEX
8
OBJECT__25
10
3.287000
20
-15.614000
30
-31.885000
70
192
0
VERTEX
8
OBJECT__25
10
1.551000
20
-15.925000
30
-32.098999
70
192
0
VERTEX
8
OBJECT__25
10
4.068000
20
-15.474000
30
-31.788000
70
192
0
VERTEX
8
OBJECT__25
10
0.000000
20
-16.000000
30
-41.500000
70
192
0
VERTEX
8
OBJECT__25
10
5.830000
20
-14.900000
30
-31.378000
70
192
0
VERTEX
8
OBJECT__25
10
-0.429000
20
-15.994000
30
-32.146000
70
192
0
VERTEX
8
OBJECT__25
10
-2.780000
20
-15.742000
30
-31.974001
70
192
0
VERTEX
8
OBJECT__25
10
-6.942000
20
-14.416000
30
-41.500000
70
192
0
VERTEX
8
OBJECT__25
10
-2.974000
20
-15.721000
30
-31.959999
70
192
0
VERTEX
8
OBJECT__25
10
-0.001000
20
-15.979000
30
-32.136002
70
192
0
VERTEX
8
OBJECT__25
10
-4.807000
20
-15.261000
30
-31.638000
70
192
0
VERTEX
8
OBJECT__25
10
-8.708000
20
-13.423000
30
-30.225000
70
192
0
VERTEX
8
OBJECT__25
10
-10.483000
20
-12.087000
30
-29.000000
70
192
0
VERTEX
8
OBJECT__25
10
-7.117000
20
-14.330000
30
-30.951000
70
192
0
VERTEX
8
OBJECT__25
10
-8.282000
20
-13.666000
30
-30.419001
70
192
0
VERTEX
8
OBJECT__25
10
-6.937000
20
-14.403000
30
-31.004999
70
192
0
VERTEX
8
OBJECT__25
10
-7.552000
20
14.069000
30
-30.742001
70
192
0
VERTEX
8
OBJECT__25
10
-6.922000
20
14.373000
30
-30.975000
70
192
0
VERTEX
8
OBJECT__25
10
-8.034000
20
13.837000
30
-30.563999
70
192
0
VERTEX
8
OBJECT__25
10
-12.229000
20
9.765000
30
-29.000000
70
192
0
VERTEX
8
OBJECT__25
10
-10.483000
20
12.087000
30
-29.000000
70
192
0
VERTEX
8
OBJECT__25
10
-9.501000
20
12.874000
30
-29.747999
70
192
0
VERTEX
8
OBJECT__25
10
0.000000
20
16.000000
30
-41.500000
70
192
0
VERTEX
8
OBJECT__25
10
-1.551000
20
15.925000
30
-32.098999
70
192
0
VERTEX
8
OBJECT__25
10
-1.455000
20
15.928000
30
-32.101002
70
192
0
VERTEX
8
OBJECT__25
10
-6.942000
20
14.416000
30
-41.500000
70
192
0
VERTEX
8
OBJECT__25
10
-4.068000
20
15.474000
30
-31.788000
70
192
0
VERTEX
8
OBJECT__25
10
-5.830000
20
14.900000
30
-31.378000
70
192
0
VERTEX
8
OBJECT__25
10
6.942000
20
14.416000
30
-41.500000
70
192
0
VERTEX
8
OBJECT__25
10
4.807000
20
15.261000
30
-31.638000
70
192
0
VERTEX
8
OBJECT__25
10
4.994000
20
15.185000
30
-31.582001
70
192
0
VERTEX
8
OBJECT__25
10
0.429000
20
15.994000
30
-32.146000
70
192
0
VERTEX
8
OBJECT__25
10
2.974000
20
15.721000
30
-31.959999
70
192
0
VERTEX
8
OBJECT__25
10
0.001000
20
15.979000
30
-32.136002
70
192
0
VERTEX
8
OBJECT__25
10
12.509000
20
9.976000
30
-41.500000
70
192
0
VERTEX
8
OBJECT__25
10
7.117000
20
14.330000
30
-30.951000
70
192
0
VERTEX
8
OBJECT__25
10
7.440000
20
14.165000
30
-30.823999
70
192
0
VERTEX
8
OBJECT__25
10
9.795000
20
12.651000
30
-31.444000
70
192
0
VERTEX
8
OBJECT__25
10
11.783000
20
10.824000
30
-32.098999
70
192
0
VERTEX
8
OBJECT__25
10
6.937000
20
14.403000
30
-31.004999
70
192
0
VERTEX
8
OBJECT__25
10
14.751000
20
6.199000
30
-33.298000
70
192
0
VERTEX
8
OBJECT__25
10
12.464000
20
9.941000
30
-32.360001
70
192
0
VERTEX
8
OBJECT__25
10
13.471000
20
8.633000
30
-32.747002
70
192
0
VERTEX
8
OBJECT__25
10
15.240000
20
4.873000
30
-33.523998
70
192
0
VERTEX
8
OBJECT__25
10
15.528000
20
3.856000
30
-33.504002
70
192
0
VERTEX
8
OBJECT__25
10
0
20
0
30
0
70
128
71
1
72
2
73
3
0
VERTEX
8
OBJECT__25
10
0
20
0
30
0
70
128
71
2
72
4
73
3
0
VERTEX
8
OBJECT__25
10
0
20
0
30
0
70
128
71
5
72
6
73
7
0
VERTEX
8
OBJECT__25
10
0
20
0
30
0
70
128
71
7
72
2
73
5
0
VERTEX
8
OBJECT__25
10
0
20
0
30
0
70
128
71
8
72
9
73
10
0
VERTEX
8
OBJECT__25
10
0
20
0
30
0
70
128
71
10
72
5
73
8
0
VERTEX
8
OBJECT__25
10
0
20
0
30
0
70
128
71
11
72
12
73
13
0
VERTEX
8
OBJECT__25
10
0
20
0
30
0
70
128
71
13
72
14
73
11
0
VERTEX
8
OBJECT__25
10
0
20
0
30
0
70
128
71
14
72
15
73
11
0
VERTEX
8
OBJECT__25
10
0
20
0
30
0
70
128
71
11
72
16
73
12
0
VERTEX
8
OBJECT__25
10
0
20
0
30
0
70
128
71
15
72
17
73
11
0
VERTEX
8
OBJECT__25
10
0
20
0
30
0
70
128
71
17
72
18
73
11
0
VERTEX
8
OBJECT__25
10
0
20
0
30
0
70
128
71
11
72
19
73
20
0
VERTEX
8
OBJECT__25
10
0
20
0
30
0
70
128
71
20
72
16
73
11
0
VERTEX
8
OBJECT__25
10
0
20
0
30
0
70
128
71
21
72
22
73
23
0
VERTEX
8
OBJECT__25
10
0
20
0
30
0
70
128
71
23
72
24
73
21
0
VERTEX
8
OBJECT__25
10
0
20
0
30
0
70
128
71
21
72
11
73
25
0
VERTEX
8
OBJECT__25
10
0
20
0
30
0
70
128
71
25
72
22
73
21
0
VERTEX
8
OBJECT__25
10
0
20
0
30
0
70
128
71
11
72
26
73
25
0
VERTEX
8
OBJECT__25
10
0
20
0
30
0
70
128
71
21
72
27
73
28
0
VERTEX
8
OBJECT__25
10
0
20
0
30
0
70
128
71
21
72
29
73
30
0
VERTEX
8
OBJECT__25
10
0
20
0
30
0
70
128
71
21
72
31
73
32
0
VERTEX
8
OBJECT__25
10
0
20
0
30
0
70
128
71
21
72
33
73
31
0
VERTEX
8
OBJECT__25
10
0
20
0
30
0
70
128
71
32
72
29
73
21
0
VERTEX
8
OBJECT__25
10
0
20
0
30
0
70
128
71
30
72
27
73
21
0
VERTEX
8
OBJECT__25
10
0
20
0
30
0
70
128
71
34
72
35
73
36
0
VERTEX
8
OBJECT__25
10
0
20
0
30
0
70
128
71
34
72
37
73
35
0
VERTEX
8
OBJECT__25
10
0
20
0
30
0
70
128
71
36
72
38
73
34
0
VERTEX
8
OBJECT__25
10
0
20
0
30
0
70
128
71
34
72
39
73
37
0
VERTEX
8
OBJECT__25
10
0
20
0
30
0
70
128
71
34
72
28
73
39
0
VERTEX
8
OBJECT__25
10
0
20
0
30
0
70
128
71
38
72
40
73
41
0
VERTEX
8
OBJECT__25
10
0
20
0
30
0
70
128
71
41
72
42
73
38
0
VERTEX
8
OBJECT__25
10
0
20
0
30
0
70
128
71
41
72
43
73
42
0
VERTEX
8
OBJECT__25
10
0
20
0
30
0
70
128
71
38
72
44
73
40
0
VERTEX
8
OBJECT__25
10
0
20
0
30
0
70
128
71
43
72
45
73
42
0
VERTEX
8
OBJECT__25
10
0
20
0
30
0
70
128
71
8
72
46
73
47
0
VERTEX
8
OBJECT__25
10
0
20
0
30
0
70
128
71
8
72
48
73
49
0
VERTEX
8
OBJECT__25
10
0
20
0
30
0
70
128
71
42
72
50
73
48
0
VERTEX
8
OBJECT__25
10
0
20
0
30
0
70
128
71
48
72
8
73
42
0
VERTEX
8
OBJECT__25
10
0
20
0
30
0
70
128
71
49
72
46
73
8
0
VERTEX
8
OBJECT__25
10
0
20
0
30
0
70
128
71
1
72
51
73
52
0
VERTEX
8
OBJECT__25
10
0
20
0
30
0
70
128
71
1
72
53
73
51
0
VERTEX
8
OBJECT__25
10
0
20
0
30
0
70
128
71
1
72
54
73
55
0
VERTEX
8
OBJECT__25
10
0
20
0
30
0
70
128
71
55
72
56
73
1
0
VERTEX
8
OBJECT__25
10
0
20
0
30
0
70
128
71
56
72
53
73
1
0
VERTEX
8
OBJECT__25
10
0
20
0
30
0
70
128
71
57
72
58
73
59
0
VERTEX
8
OBJECT__25
10
0
20
0
30
0
70
128
71
60
72
61
73
58
0
VERTEX
8
OBJECT__25
10
0
20
0
30
0
70
128
71
58
72
57
73
60
0
VERTEX
8
OBJECT__25
10
0
20
0
30
0
70
128
71
60
72
62
73
61
0
VERTEX
8
OBJECT__25
10
0
20
0
30
0
70
128
71
60
72
52
73
62
0
VERTEX
8
OBJECT__25
10
0
20
0
30
0
70
128
71
63
72
64
73
65
0
VERTEX
8
OBJECT__25
10
0
20
0
30
0
70
128
71
57
72
66
73
67
0
VERTEX
8
OBJECT__25
10
0
20
0
30
0
70
128
71
67
72
63
73
57
0
VERTEX
8
OBJECT__25
10
0
20
0
30
0
70
128
71
57
72
68
73
66
0
VERTEX
8
OBJECT__25
10
0
20
0
30
0
70
128
71
67
72
64
73
63
0
VERTEX
8
OBJECT__25
10
0
20
0
30
0
70
128
71
69
72
70
73
71
0
VERTEX
8
OBJECT__25
10
0
20
0
30
0
70
128
71
71
72
72
73
69
0
VERTEX
8
OBJECT__25
10
0
20
0
30
0
70
128
71
72
72
73
73
69
0
VERTEX
8
OBJECT__25
10
0
20
0
30
0
70
128
71
63
72
74
73
70
0
VERTEX
8
OBJECT__25
10
0
20
0
30
0
70
128
71
70
72
69
73
63
0
VERTEX
8
OBJECT__25
10
0
20
0
30
0
70
128
71
19
72
69
73
75
0
VERTEX
8
OBJECT__25
10
0
20
0
30
0
70
128
71
69
72
76
73
77
0
VERTEX
8
OBJECT__25
10
0
20
0
30
0
70
128
71
77
72
75
73
69
0
VERTEX
8
OBJECT__25
10
0
20
0
30
0
70
128
71
75
72
78
73
19
0
VERTEX
8
OBJECT__25
10
0
20
0
30
0
70
128
71
78
72
79
73
19
0
VERTEX
8
OBJECT__25
10
0
20
0
30
0
70
128
71
79
72
20
73
19
0
VERTEX
8
OBJECT__25
10
0
20
0
30
0
70
128
71
73
72
76
73
69
0
VERTEX
8
OBJECT__25
10
0
20
0
30
0
70
128
71
65
72
74
73
63
0
VERTEX
8
OBJECT__25
10
0
20
0
30
0
70
128
71
59
72
68
73
57
0
VERTEX
8
OBJECT__25
10
0
20
0
30
0
70
128
71
52
72
60
73
1
0
VERTEX
8
OBJECT__25
10
0
20
0
30
0
70
128
71
47
72
9
73
8
0
VERTEX
8
OBJECT__25
10
0
20
0
30
0
70
128
71
45
72
50
73
42
0
VERTEX
8
OBJECT__25
10
0
20
0
30
0
70
128
71
36
72
44
73
38
0
VERTEX
8
OBJECT__25
10
0
20
0
30
0
70
128
71
28
72
34
73
21
0
VERTEX
8
OBJECT__25
10
0
20
0
30
0
70
128
71
24
72
33
73
21
0
VERTEX
8
OBJECT__25
10
0
20
0
30
0
70
128
71
18
72
26
73
11
0
VERTEX
8
OBJECT__25
10
0
20
0
30
0
70
128
71
10
72
6
73
5
0
VERTEX
8
OBJECT__25
10
0
20
0
30
0
70
128
71
7
72
4
73
2
0
VERTEX
8
OBJECT__25
10
0
20
0
30
0
70
128
71
3
72
54
73
1
0
SEQEND
8
OBJECT__25
0
POLYLINE
8
OBJECT__26
66
1
70
64
71
12
72
10
62
253
0
VERTEX
8
OBJECT__26
10
21.000000
20
2.934000
30
-33.063000
70
192
0
VERTEX
8
OBJECT__26
10
21.000000
20
2.284000
30
-32.563999
70
192
0
VERTEX
8
OBJECT__26
10
18.861000
20
2.288000
30
-32.611000
70
192
0
VERTEX
8
OBJECT__26
10
18.115000
20
2.290000
30
-32.627998
70
192
0
VERTEX
8
OBJECT__26
10
18.125000
20
4.880000
30
-33.472000
70
192
0
VERTEX
8
OBJECT__26
10
21.000000
20
3.881000
30
-33.408001
70
192
0
VERTEX
8
OBJECT__26
10
21.000000
20
4.888000
30
-33.419998
70
192
0
VERTEX
8
OBJECT__26
10
15.738000
20
2.886000
30
-33.137001
70
192
0
VERTEX
8
OBJECT__26
10
15.592000
20
3.559000
30
-33.391998
70
192
0
VERTEX
8
OBJECT__26
10
15.835000
20
2.294000
30
-32.678001
70
192
0
VERTEX
8
OBJECT__26
10
15.528000
20
3.856000
30
-33.504002
70
192
0
VERTEX
8
OBJECT__26
10
15.240000
20
4.873000
30
-33.523998
70
192
0
VERTEX
8
OBJECT__26
10
0
20
0
30
0
70
128
71
1
72
2
73
3
0
VERTEX
8
OBJECT__26
10
0
20
0
30
0
70
128
71
4
72
5
73
6
0
VERTEX
8
OBJECT__26
10
0
20
0
30
0
70
128
71
6
72
1
73
4
0
VERTEX
8
OBJECT__26
10
0
20
0
30
0
70
128
71
5
72
7
73
6
0
VERTEX
8
OBJECT__26
10
0
20
0
30
0
70
128
71
5
72
4
73
8
0
VERTEX
8
OBJECT__26
10
0
20
0
30
0
70
128
71
8
72
9
73
5
0
VERTEX
8
OBJECT__26
10
0
20
0
30
0
70
128
71
4
72
10
73
8
0
VERTEX
8
OBJECT__26
10
0
20
0
30
0
70
128
71
9
72
11
73
5
0
VERTEX
8
OBJECT__26
10
0
20
0
30
0
70
128
71
11
72
12
73
5
0
VERTEX
8
OBJECT__26
10
0
20
0
30
0
70
128
71
3
72
4
73
1
0
SEQEND
8
OBJECT__26
0
POLYLINE
8
OBJECT__27
66
1
70
64
71
11
72
9
62
253
0
VERTEX
8
OBJECT__27
10
18.825001
20
0.148000
30
-31.728001
70
192
0
VERTEX
8
OBJECT__27
10
18.861000
20
2.288000
30
-32.611000
70
192
0
VERTEX
8
OBJECT__27
10
21.000000
20
2.142000
30
-32.429001
70
192
0
VERTEX
8
OBJECT__27
10
21.455000
20
1.550000
30
-32.007999
70
192
0
VERTEX
8
OBJECT__27
10
21.000000
20
2.284000
30
-32.563999
70
192
0
VERTEX
8
OBJECT__27
10
15.932000
20
1.471000
30
-32.096001
70
192
0
VERTEX
8
OBJECT__27
10
15.835000
20
2.294000
30
-32.678001
70
192
0
VERTEX
8
OBJECT__27
10
18.115000
20
2.290000
30
-32.627998
70
192
0
VERTEX
8
OBJECT__27
10
15.992000
20
0.499000
30
-31.819000
70
192
0
VERTEX
8
OBJECT__27
10
15.999000
20
0.163000
30
-31.802000
70
192
0
VERTEX
8
OBJECT__27
10
21.851000
20
0.131000
30
-31.649000
70
192
0
VERTEX
8
OBJECT__27
10
0
20
0
30
0
70
128
71
1
72
2
73
3
0
VERTEX
8
OBJECT__27
10
0
20
0
30
0
70
128
71
3
72
4
73
1
0
VERTEX
8
OBJECT__27
10
0
20
0
30
0
70
128
71
2
72
5
73
3
0
VERTEX
8
OBJECT__27
10
0
20
0
30
0
70
128
71
6
72
7
73
8
0
VERTEX
8
OBJECT__27
10
0
20
0
30
0
70
128
71
1
72
9
73
6
0
VERTEX
8
OBJECT__27
10
0
20
0
30
0
70
128
71
1
72
10
73
9
0
VERTEX
8
OBJECT__27
10
0
20
0
30
0
70
128
71
6
72
2
73
1
0
VERTEX
8
OBJECT__27
10
0
20
0
30
0
70
128
71
8
72
2
73
6
0
VERTEX
8
OBJECT__27
10
0
20
0
30
0
70
128
71
4
72
11
73
1
0
SEQEND
8
OBJECT__27
0
POLYLINE
8
OBJECT__28
66
1
70
64
71
58
72
58
62
253
0
VERTEX
8
OBJECT__28
10
21.000000
20
28.583000
30
-15.468000
70
192
0
VERTEX
8
OBJECT__28
10
21.000000
20
32.056999
30
-5.349000
70
192
0
VERTEX
8
OBJECT__28
10
23.500000
20
29.591000
30
-4.938000
70
192
0
VERTEX
8
OBJECT__28
10
23.500000
20
26.384001
30
-14.278000
70
192
0
VERTEX
8
OBJECT__28
10
23.500000
20
20.318001
30
-22.072001
70
192
0
VERTEX
8
OBJECT__28
10
21.000000
20
13.055000
30
-29.763000
70
192
0
VERTEX
8
OBJECT__28
10
21.000000
20
22.011999
30
-23.910999
70
192
0
VERTEX
8
OBJECT__28
10
21.000000
20
2.684000
30
-32.389000
70
192
0
VERTEX
8
OBJECT__28
10
23.500000
20
12.051000
30
-27.473000
70
192
0
VERTEX
8
OBJECT__28
10
23.500000
20
29.591000
30
4.938000
70
192
0
VERTEX
8
OBJECT__28
10
21.851000
20
31.649000
30
-0.131000
70
192
0
VERTEX
8
OBJECT__28
10
21.783001
20
31.709000
30
-0.733000
70
192
0
VERTEX
8
OBJECT__28
10
21.000000
20
32.429001
30
-2.142000
70
192
0
VERTEX
8
OBJECT__28
10
23.500000
20
26.384001
30
14.278000
70
192
0
VERTEX
8
OBJECT__28
10
21.851000
20
29.997999
30
8.762000
70
192
0
VERTEX
8
OBJECT__28
10
21.851000
20
31.216999
30
5.209000
70
192
0
VERTEX
8
OBJECT__28
10
23.500000
20
20.318001
30
22.072001
70
192
0
VERTEX
8
OBJECT__28
10
21.851000
20
25.761000
30
17.726999
70
192
0
VERTEX
8
OBJECT__28
10
21.851000
20
27.834999
30
15.063000
70
192
0
VERTEX
8
OBJECT__28
10
23.500000
20
12.051000
30
27.473000
70
192
0
VERTEX
8
OBJECT__28
10
21.851000
20
18.927999
30
24.923000
70
192
0
VERTEX
8
OBJECT__28
10
21.851000
20
21.434999
30
23.285000
70
192
0
VERTEX
8
OBJECT__28
10
23.500000
20
2.477000
30
29.898001
70
192
0
VERTEX
8
OBJECT__28
10
21.851000
20
10.178000
30
29.625000
70
192
0
VERTEX
8
OBJECT__28
10
21.851000
20
12.713000
30
28.983000
70
192
0
VERTEX
8
OBJECT__28
10
23.500000
20
-7.365000
30
29.082001
70
192
0
VERTEX
8
OBJECT__28
10
21.851000
20
0.386000
30
31.356001
70
192
0
VERTEX
8
OBJECT__28
10
21.851000
20
2.614000
30
31.541000
70
192
0
VERTEX
8
OBJECT__28
10
23.500000
20
-16.408001
30
25.115000
70
192
0
VERTEX
8
OBJECT__28
10
21.851000
20
-9.469000
30
29.934999
70
192
0
VERTEX
8
OBJECT__28
10
21.851000
20
-7.769000
30
30.681000
70
192
0
VERTEX
8
OBJECT__28
10
23.500000
20
-23.674000
30
18.426001
70
192
0
VERTEX
8
OBJECT__28
10
21.851000
20
-18.396999
30
25.495001
70
192
0
VERTEX
8
OBJECT__28
10
21.851000
20
-17.309999
30
26.496000
70
192
0
VERTEX
8
OBJECT__28
10
23.500000
20
-28.375000
30
9.741000
70
192
0
VERTEX
8
OBJECT__28
10
21.851000
20
-25.499001
30
18.473000
70
192
0
VERTEX
8
OBJECT__28
10
21.851000
20
-24.976000
30
19.438999
70
192
0
VERTEX
8
OBJECT__28
10
23.500000
20
-30.000000
30
0.000000
70
192
0
VERTEX
8
OBJECT__28
10
21.851000
20
-30.052999
30
9.565000
70
192
0
VERTEX
8
OBJECT__28
10
21.851000
20
-29.934000
30
10.276000
70
192
0
VERTEX
8
OBJECT__28
10
21.851000
20
-31.591999
30
-0.340000
70
192
0
VERTEX
8
OBJECT__28
10
21.851000
20
-29.940001
30
-10.245000
70
192
0
VERTEX
8
OBJECT__28
10
23.500000
20
-28.375000
30
-9.741000
70
192
0
VERTEX
8
OBJECT__28
10
21.851000
20
-31.649000
30
0.000000
70
192
0
VERTEX
8
OBJECT__28
10
21.851000
20
-25.170000
30
-19.080000
70
192
0
VERTEX
8
OBJECT__28
10
23.500000
20
-23.674000
30
-18.426001
70
192
0
VERTEX
8
OBJECT__28
10
21.851000
20
-29.934000
30
-10.276000
70
192
0
VERTEX
8
OBJECT__28
10
21.851000
20
-24.976000
30
-19.438999
70
192
0
VERTEX
8
OBJECT__28
10
21.851000
20
-17.888000
30
-25.962999
70
192
0
VERTEX
8
OBJECT__28
10
23.500000
20
-16.408001
30
-25.115000
70
192
0
VERTEX
8
OBJECT__28
10
21.851000
20
-17.309999
30
-26.496000
70
192
0
VERTEX
8
OBJECT__28
10
21.851000
20
-8.835000
30
-30.212999
70
192
0
VERTEX
8
OBJECT__28
10
23.500000
20
-7.365000
30
-29.082001
70
192
0
VERTEX
8
OBJECT__28
10
23.500000
20
2.477000
30
-29.898001
70
192
0
VERTEX
8
OBJECT__28
10
21.455000
20
1.550000
30
-32.007999
70
192
0
VERTEX
8
OBJECT__28
10
21.000000
20
2.142000
30
-32.429001
70
192
0
VERTEX
8
OBJECT__28
10
21.851000
20
-7.769000
30
-30.681000
70
192
0
VERTEX
8
OBJECT__28
10
21.851000
20
0.131000
30
-31.649000
70
192
0
VERTEX
8
OBJECT__28
10
0
20
0
30
0
70
128
71
1
72
2
73
3
0
VERTEX
8
OBJECT__28
10
0
20
0
30
0
70
128
71
1
72
4
73
5
0
VERTEX
8
OBJECT__28
10
0
20
0
30
0
70
128
71
6
72
7
73
5
0
VERTEX
8
OBJECT__28
10
0
20
0
30
0
70
128
71
8
72
6
73
9
0
VERTEX
8
OBJECT__28
10
0
20
0
30
0
70
128
71
10
72
3
73
11
0
VERTEX
8
OBJECT__28
10
0
20
0
30
0
70
128
71
3
72
12
73
11
0
VERTEX
8
OBJECT__28
10
0
20
0
30
0
70
128
71
3
72
2
73
13
0
VERTEX
8
OBJECT__28
10
0
20
0
30
0
70
128
71
13
72
12
73
3
0
VERTEX
8
OBJECT__28
10
0
20
0
30
0
70
128
71
14
72
10
73
15
0
VERTEX
8
OBJECT__28
10
0
20
0
30
0
70
128
71
10
72
16
73
15
0
VERTEX
8
OBJECT__28
10
0
20
0
30
0
70
128
71
17
72
14
73
18
0
VERTEX
8
OBJECT__28
10
0
20
0
30
0
70
128
71
14
72
19
73
18
0
VERTEX
8
OBJECT__28
10
0
20
0
30
0
70
128
71
20
72
17
73
21
0
VERTEX
8
OBJECT__28
10
0
20
0
30
0
70
128
71
17
72
22
73
21
0
VERTEX
8
OBJECT__28
10
0
20
0
30
0
70
128
71
23
72
20
73
24
0
VERTEX
8
OBJECT__28
10
0
20
0
30
0
70
128
71
20
72
25
73
24
0
VERTEX
8
OBJECT__28
10
0
20
0
30
0
70
128
71
26
72
23
73
27
0
VERTEX
8
OBJECT__28
10
0
20
0
30
0
70
128
71
23
72
28
73
27
0
VERTEX
8
OBJECT__28
10
0
20
0
30
0
70
128
71
29
72
26
73
30
0
VERTEX
8
OBJECT__28
10
0
20
0
30
0
70
128
71
26
72
31
73
30
0
VERTEX
8
OBJECT__28
10
0
20
0
30
0
70
128
71
32
72
29
73
33
0
VERTEX
8
OBJECT__28
10
0
20
0
30
0
70
128
71
29
72
34
73
33
0
VERTEX
8
OBJECT__28
10
0
20
0
30
0
70
128
71
35
72
32
73
36
0
VERTEX
8
OBJECT__28
10
0
20
0
30
0
70
128
71
32
72
37
73
36
0
VERTEX
8
OBJECT__28
10
0
20
0
30
0
70
128
71
38
72
35
73
39
0
VERTEX
8
OBJECT__28
10
0
20
0
30
0
70
128
71
35
72
40
73
39
0
VERTEX
8
OBJECT__28
10
0
20
0
30
0
70
128
71
41
72
42
73
43
0
VERTEX
8
OBJECT__28
10
0
20
0
30
0
70
128
71
38
72
44
73
41
0
VERTEX
8
OBJECT__28
10
0
20
0
30
0
70
128
71
43
72
38
73
41
0
VERTEX
8
OBJECT__28
10
0
20
0
30
0
70
128
71
45
72
46
73
43
0
VERTEX
8
OBJECT__28
10
0
20
0
30
0
70
128
71
43
72
47
73
45
0
VERTEX
8
OBJECT__28
10
0
20
0
30
0
70
128
71
46
72
48
73
49
0
VERTEX
8
OBJECT__28
10
0
20
0
30
0
70
128
71
49
72
50
73
46
0
VERTEX
8
OBJECT__28
10
0
20
0
30
0
70
128
71
50
72
51
73
52
0
VERTEX
8
OBJECT__28
10
0
20
0
30
0
70
128
71
52
72
53
73
50
0
VERTEX
8
OBJECT__28
10
0
20
0
30
0
70
128
71
54
72
55
73
56
0
VERTEX
8
OBJECT__28
10
0
20
0
30
0
70
128
71
53
72
57
73
58
0
VERTEX
8
OBJECT__28
10
0
20
0
30
0
70
128
71
58
72
54
73
53
0
VERTEX
8
OBJECT__28
10
0
20
0
30
0
70
128
71
58
72
55
73
54
0
VERTEX
8
OBJECT__28
10
0
20
0
30
0
70
128
71
56
72
8
73
54
0
VERTEX
8
OBJECT__28
10
0
20
0
30
0
70
128
71
52
72
57
73
53
0
VERTEX
8
OBJECT__28
10
0
20
0
30
0
70
128
71
49
72
51
73
50
0
VERTEX
8
OBJECT__28
10
0
20
0
30
0
70
128
71
45
72
48
73
46
0
VERTEX
8
OBJECT__28
10
0
20
0
30
0
70
128
71
42
72
47
73
43
0
VERTEX
8
OBJECT__28
10
0
20
0
30
0
70
128
71
39
72
44
73
38
0
VERTEX
8
OBJECT__28
10
0
20
0
30
0
70
128
71
36
72
40
73
35
0
VERTEX
8
OBJECT__28
10
0
20
0
30
0
70
128
71
33
72
37
73
32
0
VERTEX
8
OBJECT__28
10
0
20
0
30
0
70
128
71
30
72
34
73
29
0
VERTEX
8
OBJECT__28
10
0
20
0
30
0
70
128
71
27
72
31
73
26
0
VERTEX
8
OBJECT__28
10
0
20
0
30
0
70
128
71
24
72
28
73
23
0
VERTEX
8
OBJECT__28
10
0
20
0
30
0
70
128
71
21
72
25
73
20
0
VERTEX
8
OBJECT__28
10
0
20
0
30
0
70
128
71
18
72
22
73
17
0
VERTEX
8
OBJECT__28
10
0
20
0
30
0
70
128
71
15
72
19
73
14
0
VERTEX
8
OBJECT__28
10
0
20
0
30
0
70
128
71
11
72
16
73
10
0
VERTEX
8
OBJECT__28
10
0
20
0
30
0
70
128
71
9
72
54
73
8
0
VERTEX
8
OBJECT__28
10
0
20
0
30
0
70
128
71
5
72
9
73
6
0
VERTEX
8
OBJECT__28
10
0
20
0
30
0
70
128
71
5
72
7
73
1
0
VERTEX
8
OBJECT__28
10
0
20
0
30
0
70
128
71
3
72
4
73
1
0
SEQEND
8
OBJECT__28
0
POLYLINE
8
OBJECT__29
66
1
70
64
71
18
72
16
62
253
0
VERTEX
8
OBJECT__29
10
21.000000
20
4.888000
30
-33.419998
70
192
0
VERTEX
8
OBJECT__29
10
21.000000
20
14.976000
30
-30.167000
70
192
0
VERTEX
8
OBJECT__29
10
21.000000
20
13.055000
30
-29.763000
70
192
0
VERTEX
8
OBJECT__29
10
21.000000
20
2.684000
30
-32.389000
70
192
0
VERTEX
8
OBJECT__29
10
21.000000
20
2.934000
30
-33.063000
70
192
0
VERTEX
8
OBJECT__29
10
21.000000
20
3.881000
30
-33.408001
70
192
0
VERTEX
8
OBJECT__29
10
21.000000
20
32.056999
30
-5.349000
70
192
0
VERTEX
8
OBJECT__29
10
21.000000
20
33.419998
30
-4.888000
70
192
0
VERTEX
8
OBJECT__29
10
21.000000
20
33.408001
30
-3.881000
70
192
0
VERTEX
8
OBJECT__29
10
21.000000
20
2.142000
30
-32.429001
70
192
0
VERTEX
8
OBJECT__29
10
21.000000
20
2.284000
30
-32.563999
70
192
0
VERTEX
8
OBJECT__29
10
21.000000
20
23.796000
30
-23.785999
70
192
0
VERTEX
8
OBJECT__29
10
21.000000
20
22.011999
30
-23.910999
70
192
0
VERTEX
8
OBJECT__29
10
21.000000
20
30.173000
30
-14.963000
70
192
0
VERTEX
8
OBJECT__29
10
21.000000
20
28.583000
30
-15.468000
70
192
0
VERTEX
8
OBJECT__29
10
21.000000
20
33.063000
30
-2.934000
70
192
0
VERTEX
8
OBJECT__29
10
21.000000
20
32.563999
30
-2.284000
70
192
0
VERTEX
8
OBJECT__29
10
21.000000
20
32.429001
30
-2.142000
70
192
0
VERTEX
8
OBJECT__29
10
0
20
0
30
0
70
128
71
1
72
2
73
3
0
VERTEX
8
OBJECT__29
10
0
20
0
30
0
70
128
71
4
72
5
73
6
0
VERTEX
8
OBJECT__29
10
0
20
0
30
0
70
128
71
7
72
8
73
9
0
VERTEX
8
OBJECT__29
10
0
20
0
30
0
70
128
71
4
72
10
73
11
0
VERTEX
8
OBJECT__29
10
0
20
0
30
0
70
128
71
6
72
1
73
4
0
VERTEX
8
OBJECT__29
10
0
20
0
30
0
70
128
71
2
72
12
73
13
0
VERTEX
8
OBJECT__29
10
0
20
0
30
0
70
128
71
12
72
14
73
15
0
VERTEX
8
OBJECT__29
10
0
20
0
30
0
70
128
71
9
72
16
73
7
0
VERTEX
8
OBJECT__29
10
0
20
0
30
0
70
128
71
3
72
4
73
1
0
VERTEX
8
OBJECT__29
10
0
20
0
30
0
70
128
71
15
72
13
73
12
0
VERTEX
8
OBJECT__29
10
0
20
0
30
0
70
128
71
14
72
8
73
7
0
VERTEX
8
OBJECT__29
10
0
20
0
30
0
70
128
71
16
72
17
73
7
0
VERTEX
8
OBJECT__29
10
0
20
0
30
0
70
128
71
13
72
3
73
2
0
VERTEX
8
OBJECT__29
10
0
20
0
30
0
70
128
71
17
72
18
73
7
0
VERTEX
8
OBJECT__29
10
0
20
0
30
0
70
128
71
7
72
15
73
14
0
VERTEX
8
OBJECT__29
10
0
20
0
30
0
70
128
71
11
72
5
73
4
0
SEQEND
8
OBJECT__29
0
POLYLINE
8
OBJECT__30
66
1
70
64
71
35
72
33
62
253
0
VERTEX
8
OBJECT__30
10
21.000000
20
14.976000
30
-30.167000
70
192
0
VERTEX
8
OBJECT__30
10
9.795000
20
12.651000
30
-31.444000
70
192
0
VERTEX
8
OBJECT__30
10
7.440000
20
14.165000
30
-30.823999
70
192
0
VERTEX
8
OBJECT__30
10
13.471000
20
8.633000
30
-32.747002
70
192
0
VERTEX
8
OBJECT__30
10
12.464000
20
9.941000
30
-32.360001
70
192
0
VERTEX
8
OBJECT__30
10
18.125000
20
4.880000
30
-33.472000
70
192
0
VERTEX
8
OBJECT__30
10
15.240000
20
4.873000
30
-33.523998
70
192
0
VERTEX
8
OBJECT__30
10
14.751000
20
6.199000
30
-33.298000
70
192
0
VERTEX
8
OBJECT__30
10
21.000000
20
4.888000
30
-33.419998
70
192
0
VERTEX
8
OBJECT__30
10
11.783000
20
10.824000
30
-32.098999
70
192
0
VERTEX
8
OBJECT__30
10
21.000000
20
23.796000
30
-23.785999
70
192
0
VERTEX
8
OBJECT__30
10
1.502000
20
23.136999
30
-24.893999
70
192
0
VERTEX
8
OBJECT__30
10
1.240000
20
23.966999
30
-24.101999
70
192
0
VERTEX
8
OBJECT__30
10
2.559000
20
21.516001
30
-26.288000
70
192
0
VERTEX
8
OBJECT__30
10
2.850000
20
21.108999
30
-26.611000
70
192
0
VERTEX
8
OBJECT__30
10
4.997000
20
18.040001
30
-28.730000
70
192
0
VERTEX
8
OBJECT__30
10
5.180000
20
17.778999
30
-28.910000
70
192
0
VERTEX
8
OBJECT__30
10
6.877000
20
15.066000
30
-30.347000
70
192
0
VERTEX
8
OBJECT__30
10
5.548000
20
29.242001
30
-17.221001
70
192
0
VERTEX
8
OBJECT__30
10
6.882000
20
30.351000
30
-15.052000
70
192
0
VERTEX
8
OBJECT__30
10
1.258000
20
24.039000
30
-24.028000
70
192
0
VERTEX
8
OBJECT__30
10
1.442000
20
24.784000
30
-23.257000
70
192
0
VERTEX
8
OBJECT__30
10
2.423000
20
26.132999
30
-21.707001
70
192
0
VERTEX
8
OBJECT__30
10
3.329000
20
27.118999
30
-20.441000
70
192
0
VERTEX
8
OBJECT__30
10
4.989000
20
28.707001
30
-18.033001
70
192
0
VERTEX
8
OBJECT__30
10
21.000000
20
30.173000
30
-14.963000
70
192
0
VERTEX
8
OBJECT__30
10
12.063000
20
33.372002
30
-6.061000
70
192
0
VERTEX
8
OBJECT__30
10
12.593000
20
33.571999
30
-4.865000
70
192
0
VERTEX
8
OBJECT__30
10
16.801001
20
33.495998
30
-4.877000
70
192
0
VERTEX
8
OBJECT__30
10
10.697000
20
32.903999
30
-8.235000
70
192
0
VERTEX
8
OBJECT__30
10
11.936000
20
33.328999
30
-6.263000
70
192
0
VERTEX
8
OBJECT__30
10
9.513000
20
32.324001
30
-10.280000
70
192
0
VERTEX
8
OBJECT__30
10
10.166000
20
32.737999
30
-8.883000
70
192
0
VERTEX
8
OBJECT__30
10
7.630000
20
30.972000
30
-13.837000
70
192
0
VERTEX
8
OBJECT__30
10
21.000000
20
33.419998
30
-4.888000
70
192
0
VERTEX
8
OBJECT__30
10
0
20
0
30
0
70
128
71
1
72
2
73
3
0
VERTEX
8
OBJECT__30
10
0
20
0
30
0
70
128
71
1
72
4
73
5
0
VERTEX
8
OBJECT__30
10
0
20
0
30
0
70
128
71
6
72
7
73
8
0
VERTEX
8
OBJECT__30
10
0
20
0
30
0
70
128
71
1
72
9
73
6
0
VERTEX
8
OBJECT__30
10
0
20
0
30
0
70
128
71
8
72
1
73
6
0
VERTEX
8
OBJECT__30
10
0
20
0
30
0
70
128
71
8
72
4
73
1
0
VERTEX
8
OBJECT__30
10
0
20
0
30
0
70
128
71
5
72
10
73
1
0
VERTEX
8
OBJECT__30
10
0
20
0
30
0
70
128
71
10
72
2
73
1
0
VERTEX
8
OBJECT__30
10
0
20
0
30
0
70
128
71
11
72
12
73
13
0
VERTEX
8
OBJECT__30
10
0
20
0
30
0
70
128
71
11
72
14
73
12
0
VERTEX
8
OBJECT__30
10
0
20
0
30
0
70
128
71
11
72
15
73
14
0
VERTEX
8
OBJECT__30
10
0
20
0
30
0
70
128
71
11
72
16
73
15
0
VERTEX
8
OBJECT__30
10
0
20
0
30
0
70
128
71
11
72
17
73
16
0
VERTEX
8
OBJECT__30
10
0
20
0
30
0
70
128
71
11
72
1
73
18
0
VERTEX
8
OBJECT__30
10
0
20
0
30
0
70
128
71
18
72
17
73
11
0
VERTEX
8
OBJECT__30
10
0
20
0
30
0
70
128
71
11
72
19
73
20
0
VERTEX
8
OBJECT__30
10
0
20
0
30
0
70
128
71
11
72
21
73
22
0
VERTEX
8
OBJECT__30
10
0
20
0
30
0
70
128
71
22
72
23
73
11
0
VERTEX
8
OBJECT__30
10
0
20
0
30
0
70
128
71
23
72
24
73
11
0
VERTEX
8
OBJECT__30
10
0
20
0
30
0
70
128
71
24
72
25
73
11
0
VERTEX
8
OBJECT__30
10
0
20
0
30
0
70
128
71
25
72
19
73
11
0
VERTEX
8
OBJECT__30
10
0
20
0
30
0
70
128
71
26
72
27
73
28
0
VERTEX
8
OBJECT__30
10
0
20
0
30
0
70
128
71
28
72
29
73
26
0
VERTEX
8
OBJECT__30
10
0
20
0
30
0
70
128
71
26
72
30
73
31
0
VERTEX
8
OBJECT__30
10
0
20
0
30
0
70
128
71
26
72
32
73
33
0
VERTEX
8
OBJECT__30
10
0
20
0
30
0
70
128
71
26
72
34
73
32
0
VERTEX
8
OBJECT__30
10
0
20
0
30
0
70
128
71
26
72
20
73
34
0
VERTEX
8
OBJECT__30
10
0
20
0
30
0
70
128
71
33
72
30
73
26
0
VERTEX
8
OBJECT__30
10
0
20
0
30
0
70
128
71
31
72
27
73
26
0
VERTEX
8
OBJECT__30
10
0
20
0
30
0
70
128
71
29
72
35
73
26
0
VERTEX
8
OBJECT__30
10
0
20
0
30
0
70
128
71
20
72
26
73
11
0
VERTEX
8
OBJECT__30
10
0
20
0
30
0
70
128
71
13
72
21
73
11
0
VERTEX
8
OBJECT__30
10
0
20
0
30
0
70
128
71
3
72
18
73
1
0
SEQEND
8
OBJECT__30
0
POLYLINE
8
OBJECT__31
66
1
70
64
71
11
72
9
62
253
0
VERTEX
8
OBJECT__31
10
14.202000
20
31.849001
30
-0.173000
70
192
0
VERTEX
8
OBJECT__31
10
14.237000
20
32.713001
30
-2.297000
70
192
0
VERTEX
8
OBJECT__31
10
13.450000
20
32.027000
30
-1.156000
70
192
0
VERTEX
8
OBJECT__31
10
13.303000
20
32.734001
30
-2.299000
70
192
0
VERTEX
8
OBJECT__31
10
13.347000
20
32.493999
30
-2.025000
70
192
0
VERTEX
8
OBJECT__31
10
21.000000
20
32.429001
30
-2.142000
70
192
0
VERTEX
8
OBJECT__31
10
21.000000
20
32.563999
30
-2.284000
70
192
0
VERTEX
8
OBJECT__31
10
16.792000
20
32.657001
30
-2.292000
70
192
0
VERTEX
8
OBJECT__31
10
21.851000
20
31.649000
30
-0.131000
70
192
0
VERTEX
8
OBJECT__31
10
21.783001
20
31.709000
30
-0.733000
70
192
0
VERTEX
8
OBJECT__31
10
13.499000
20
31.867001
30
-0.177000
70
192
0
VERTEX
8
OBJECT__31
10
0
20
0
30
0
70
128
71
1
72
2
73
3
0
VERTEX
8
OBJECT__31
10
0
20
0
30
0
70
128
71
2
72
4
73
5
0
VERTEX
8
OBJECT__31
10
0
20
0
30
0
70
128
71
5
72
3
73
2
0
VERTEX
8
OBJECT__31
10
0
20
0
30
0
70
128
71
6
72
7
73
8
0
VERTEX
8
OBJECT__31
10
0
20
0
30
0
70
128
71
8
72
1
73
6
0
VERTEX
8
OBJECT__31
10
0
20
0
30
0
70
128
71
1
72
9
73
10
0
VERTEX
8
OBJECT__31
10
0
20
0
30
0
70
128
71
10
72
6
73
1
0
VERTEX
8
OBJECT__31
10
0
20
0
30
0
70
128
71
8
72
2
73
1
0
VERTEX
8
OBJECT__31
10
0
20
0
30
0
70
128
71
3
72
11
73
1
0
SEQEND
8
OBJECT__31
0
POLYLINE
8
OBJECT__32
66
1
70
64
71
11
72
9
62
253
0
VERTEX
8
OBJECT__32
10
13.160000
20
33.256001
30
-3.011000
70
192
0
VERTEX
8
OBJECT__32
10
13.303000
20
32.734001
30
-2.299000
70
192
0
VERTEX
8
OBJECT__32
10
14.237000
20
32.713001
30
-2.297000
70
192
0
VERTEX
8
OBJECT__32
10
16.801001
20
33.495998
30
-4.877000
70
192
0
VERTEX
8
OBJECT__32
10
12.914000
20
33.566002
30
-3.935000
70
192
0
VERTEX
8
OBJECT__32
10
12.593000
20
33.571999
30
-4.865000
70
192
0
VERTEX
8
OBJECT__32
10
16.792000
20
32.657001
30
-2.292000
70
192
0
VERTEX
8
OBJECT__32
10
21.000000
20
33.063000
30
-2.934000
70
192
0
VERTEX
8
OBJECT__32
10
21.000000
20
33.408001
30
-3.881000
70
192
0
VERTEX
8
OBJECT__32
10
21.000000
20
32.563999
30
-2.284000
70
192
0
VERTEX
8
OBJECT__32
10
21.000000
20
33.419998
30
-4.888000
70
192
0
VERTEX
8
OBJECT__32
10
0
20
0
30
0
70
128
71
1
72
2
73
3
0
VERTEX
8
OBJECT__32
10
0
20
0
30
0
70
128
71
3
72
4
73
1
0
VERTEX
8
OBJECT__32
10
0
20
0
30
0
70
128
71
4
72
5
73
1
0
VERTEX
8
OBJECT__32
10
0
20
0
30
0
70
128
71
4
72
6
73
5
0
VERTEX
8
OBJECT__32
10
0
20
0
30
0
70
128
71
7
72
8
73
9
0
VERTEX
8
OBJECT__32
10
0
20
0
30
0
70
128
71
7
72
10
73
8
0
VERTEX
8
OBJECT__32
10
0
20
0
30
0
70
128
71
9
72
4
73
7
0
VERTEX
8
OBJECT__32
10
0
20
0
30
0
70
128
71
9
72
11
73
4
0
VERTEX
8
OBJECT__32
10
0
20
0
30
0
70
128
71
3
72
7
73
4
0
SEQEND
8
OBJECT__32
0
POLYLINE
8
OBJECT__33
66
1
70
64
71
55
72
53
62
253
0
VERTEX
8
OBJECT__33
10
4.994000
20
15.185000
30
-31.582001
70
192
0
VERTEX
8
OBJECT__33
10
5.180000
20
17.778999
30
-28.910000
70
192
0
VERTEX
8
OBJECT__33
10
6.877000
20
15.066000
30
-30.347000
70
192
0
VERTEX
8
OBJECT__33
10
7.117000
20
14.330000
30
-30.951000
70
192
0
VERTEX
8
OBJECT__33
10
6.937000
20
14.403000
30
-31.004999
70
192
0
VERTEX
8
OBJECT__33
10
7.440000
20
14.165000
30
-30.823999
70
192
0
VERTEX
8
OBJECT__33
10
4.997000
20
18.040001
30
-28.730000
70
192
0
VERTEX
8
OBJECT__33
10
-12.385000
20
31.283001
30
-5.372000
70
192
0
VERTEX
8
OBJECT__33
10
-13.140000
20
7.984000
30
-25.455999
70
192
0
VERTEX
8
OBJECT__33
10
-13.346000
20
7.328000
30
-24.607000
70
192
0
VERTEX
8
OBJECT__33
10
-12.474000
20
9.427000
30
-26.931999
70
192
0
VERTEX
8
OBJECT__33
10
-11.784000
20
31.636999
30
-6.225000
70
192
0
VERTEX
8
OBJECT__33
10
-11.921000
20
10.315000
30
-27.683001
70
192
0
VERTEX
8
OBJECT__33
10
-13.500000
20
6.303000
30
-22.754999
70
192
0
VERTEX
8
OBJECT__33
10
-13.500000
20
29.058001
30
0.000000
70
192
0
VERTEX
8
OBJECT__33
10
-12.841000
20
30.372999
30
-3.175000
70
192
0
VERTEX
8
OBJECT__33
10
-9.224000
20
33.140999
30
-9.857000
70
192
0
VERTEX
8
OBJECT__33
10
-10.483000
20
12.087000
30
-29.000000
70
192
0
VERTEX
8
OBJECT__33
10
-11.862000
20
10.410000
30
-27.764000
70
192
0
VERTEX
8
OBJECT__33
10
-8.034000
20
13.837000
30
-30.563999
70
192
0
VERTEX
8
OBJECT__33
10
-9.501000
20
12.874000
30
-29.747999
70
192
0
VERTEX
8
OBJECT__33
10
-7.435000
20
33.592999
30
-10.948000
70
192
0
VERTEX
8
OBJECT__33
10
-7.552000
20
14.069000
30
-30.742001
70
192
0
VERTEX
8
OBJECT__33
10
-9.943000
20
32.719002
30
-8.837000
70
192
0
VERTEX
8
OBJECT__33
10
-4.540000
20
34.324001
30
-12.714000
70
192
0
VERTEX
8
OBJECT__33
10
-5.830000
20
14.900000
30
-31.378000
70
192
0
VERTEX
8
OBJECT__33
10
-6.922000
20
14.373000
30
-30.975000
70
192
0
VERTEX
8
OBJECT__33
10
-4.068000
20
15.474000
30
-31.788000
70
192
0
VERTEX
8
OBJECT__33
10
-1.551000
20
15.925000
30
-32.098999
70
192
0
VERTEX
8
OBJECT__33
10
-1.417000
20
34.504002
30
-13.148000
70
192
0
VERTEX
8
OBJECT__33
10
-1.455000
20
15.928000
30
-32.101002
70
192
0
VERTEX
8
OBJECT__33
10
-4.761000
20
34.269001
30
-12.579000
70
192
0
VERTEX
8
OBJECT__33
10
2.559000
20
21.516001
30
-26.288000
70
192
0
VERTEX
8
OBJECT__33
10
0.429000
20
15.994000
30
-32.146000
70
192
0
VERTEX
8
OBJECT__33
10
0.001000
20
15.979000
30
-32.136002
70
192
0
VERTEX
8
OBJECT__33
10
2.974000
20
15.721000
30
-31.959999
70
192
0
VERTEX
8
OBJECT__33
10
2.850000
20
21.108999
30
-26.611000
70
192
0
VERTEX
8
OBJECT__33
10
4.807000
20
15.261000
30
-31.638000
70
192
0
VERTEX
8
OBJECT__33
10
1.502000
20
23.136999
30
-24.893999
70
192
0
VERTEX
8
OBJECT__33
10
1.240000
20
23.966999
30
-24.101999
70
192
0
VERTEX
8
OBJECT__33
10
1.258000
20
24.039000
30
-24.028000
70
192
0
VERTEX
8
OBJECT__33
10
1.442000
20
24.784000
30
-23.257000
70
192
0
VERTEX
8
OBJECT__33
10
1.593000
20
34.556999
30
-13.276000
70
192
0
VERTEX
8
OBJECT__33
10
4.948000
20
34.171001
30
-12.344000
70
192
0
VERTEX
8
OBJECT__33
10
4.989000
20
28.707001
30
-18.033001
70
192
0
VERTEX
8
OBJECT__33
10
3.329000
20
27.118999
30
-20.441000
70
192
0
VERTEX
8
OBJECT__33
10
0.894000
20
34.638000
30
-13.470000
70
192
0
VERTEX
8
OBJECT__33
10
2.423000
20
26.132999
30
-21.707001
70
192
0
VERTEX
8
OBJECT__33
10
7.630000
20
30.972000
30
-13.837000
70
192
0
VERTEX
8
OBJECT__33
10
6.181000
20
34.028999
30
-12.002000
70
192
0
VERTEX
8
OBJECT__33
10
7.537000
20
33.590000
30
-10.941000
70
192
0
VERTEX
8
OBJECT__33
10
10.166000
20
32.737999
30
-8.883000
70
192
0
VERTEX
8
OBJECT__33
10
9.513000
20
32.324001
30
-10.280000
70
192
0
VERTEX
8
OBJECT__33
10
6.882000
20
30.351000
30
-15.052000
70
192
0
VERTEX
8
OBJECT__33
10
5.548000
20
29.242001
30
-17.221001
70
192
0
VERTEX
8
OBJECT__33
10
0
20
0
30
0
70
128
71
1
72
2
73
3
0
VERTEX
8
OBJECT__33
10
0
20
0
30
0
70
128
71
3
72
4
73
5
0
VERTEX
8
OBJECT__33
10
0
20
0
30
0
70
128
71
3
72
6
73
4
0
VERTEX
8
OBJECT__33
10
0
20
0
30
0
70
128
71
1
72
7
73
2
0
VERTEX
8
OBJECT__33
10
0
20
0
30
0
70
128
71
8
72
9
73
10
0
VERTEX
8
OBJECT__33
10
0
20
0
30
0
70
128
71
8
72
11
73
9
0
VERTEX
8
OBJECT__33
10
0
20
0
30
0
70
128
71
11
72
8
73
12
0
VERTEX
8
OBJECT__33
10
0
20
0
30
0
70
128
71
12
72
13
73
11
0
VERTEX
8
OBJECT__33
10
0
20
0
30
0
70
128
71
14
72
15
73
16
0
VERTEX
8
OBJECT__33
10
0
20
0
30
0
70
128
71
16
72
8
73
14
0
VERTEX
8
OBJECT__33
10
0
20
0
30
0
70
128
71
17
72
18
73
19
0
VERTEX
8
OBJECT__33
10
0
20
0
30
0
70
128
71
17
72
20
73
21
0
VERTEX
8
OBJECT__33
10
0
20
0
30
0
70
128
71
20
72
17
73
22
0
VERTEX
8
OBJECT__33
10
0
20
0
30
0
70
128
71
22
72
23
73
20
0
VERTEX
8
OBJECT__33
10
0
20
0
30
0
70
128
71
21
72
18
73
17
0
VERTEX
8
OBJECT__33
10
0
20
0
30
0
70
128
71
13
72
12
73
24
0
VERTEX
8
OBJECT__33
10
0
20
0
30
0
70
128
71
24
72
17
73
13
0
VERTEX
8
OBJECT__33
10
0
20
0
30
0
70
128
71
25
72
26
73
27
0
VERTEX
8
OBJECT__33
10
0
20
0
30
0
70
128
71
25
72
28
73
26
0
VERTEX
8
OBJECT__33
10
0
20
0
30
0
70
128
71
25
72
29
73
28
0
VERTEX
8
OBJECT__33
10
0
20
0
30
0
70
128
71
30
72
31
73
29
0
VERTEX
8
OBJECT__33
10
0
20
0
30
0
70
128
71
29
72
25
73
30
0
VERTEX
8
OBJECT__33
10
0
20
0
30
0
70
128
71
27
72
23
73
25
0
VERTEX
8
OBJECT__33
10
0
20
0
30
0
70
128
71
23
72
22
73
32
0
VERTEX
8
OBJECT__33
10
0
20
0
30
0
70
128
71
32
72
25
73
23
0
VERTEX
8
OBJECT__33
10
0
20
0
30
0
70
128
71
33
72
34
73
35
0
VERTEX
8
OBJECT__33
10
0
20
0
30
0
70
128
71
36
72
37
73
7
0
VERTEX
8
OBJECT__33
10
0
20
0
30
0
70
128
71
7
72
1
73
38
0
VERTEX
8
OBJECT__33
10
0
20
0
30
0
70
128
71
7
72
38
73
36
0
VERTEX
8
OBJECT__33
10
0
20
0
30
0
70
128
71
34
72
33
73
37
0
VERTEX
8
OBJECT__33
10
0
20
0
30
0
70
128
71
36
72
34
73
37
0
VERTEX
8
OBJECT__33
10
0
20
0
30
0
70
128
71
31
72
39
73
33
0
VERTEX
8
OBJECT__33
10
0
20
0
30
0
70
128
71
31
72
40
73
39
0
VERTEX
8
OBJECT__33
10
0
20
0
30
0
70
128
71
30
72
41
73
40
0
VERTEX
8
OBJECT__33
10
0
20
0
30
0
70
128
71
30
72
42
73
41
0
VERTEX
8
OBJECT__33
10
0
20
0
30
0
70
128
71
43
72
44
73
45
0
VERTEX
8
OBJECT__33
10
0
20
0
30
0
70
128
71
46
72
47
73
43
0
VERTEX
8
OBJECT__33
10
0
20
0
30
0
70
128
71
45
72
46
73
43
0
VERTEX
8
OBJECT__33
10
0
20
0
30
0
70
128
71
46
72
48
73
47
0
VERTEX
8
OBJECT__33
10
0
20
0
30
0
70
128
71
42
72
30
73
47
0
VERTEX
8
OBJECT__33
10
0
20
0
30
0
70
128
71
48
72
42
73
47
0
VERTEX
8
OBJECT__33
10
0
20
0
30
0
70
128
71
40
72
31
73
30
0
VERTEX
8
OBJECT__33
10
0
20
0
30
0
70
128
71
49
72
50
73
51
0
VERTEX
8
OBJECT__33
10
0
20
0
30
0
70
128
71
51
72
52
73
53
0
VERTEX
8
OBJECT__33
10
0
20
0
30
0
70
128
71
51
72
53
73
49
0
VERTEX
8
OBJECT__33
10
0
20
0
30
0
70
128
71
44
72
50
73
54
0
VERTEX
8
OBJECT__33
10
0
20
0
30
0
70
128
71
54
72
55
73
44
0
VERTEX
8
OBJECT__33
10
0
20
0
30
0
70
128
71
55
72
45
73
44
0
VERTEX
8
OBJECT__33
10
0
20
0
30
0
70
128
71
49
72
54
73
50
0
VERTEX
8
OBJECT__33
10
0
20
0
30
0
70
128
71
35
72
31
73
33
0
VERTEX
8
OBJECT__33
10
0
20
0
30
0
70
128
71
19
72
13
73
17
0
VERTEX
8
OBJECT__33
10
0
20
0
30
0
70
128
71
10
72
14
73
8
0
VERTEX
8
OBJECT__33
10
0
20
0
30
0
70
128
71
3
72
5
73
1
0
SEQEND
8
OBJECT__33
0
POLYLINE
8
OBJECT__34
66
1
70
64
71
28
72
26
62
253
0
VERTEX
8
OBJECT__34
10
-15.234000
20
-3.480000
30
-29.000000
70
192
0
VERTEX
8
OBJECT__34
10
-14.521000
20
-6.718000
30
-29.000000
70
192
0
VERTEX
8
OBJECT__34
10
-13.500000
20
-6.246000
30
-22.624001
70
192
0
VERTEX
8
OBJECT__34
10
-13.500000
20
-5.739000
30
-21.454000
70
192
0
VERTEX
8
OBJECT__34
10
-14.264000
20
0.000000
30
-19.153000
70
192
0
VERTEX
8
OBJECT__34
10
-16.000000
20
0.000000
30
-29.000000
70
192
0
VERTEX
8
OBJECT__34
10
-13.500000
20
-4.605000
30
-19.153000
70
192
0
VERTEX
8
OBJECT__34
10
-13.500000
20
4.605000
30
-19.153000
70
192
0
VERTEX
8
OBJECT__34
10
-15.234000
20
3.480000
30
-29.000000
70
192
0
VERTEX
8
OBJECT__34
10
-13.500000
20
6.248000
30
-22.638000
70
192
0
VERTEX
8
OBJECT__34
10
-14.521000
20
6.718000
30
-29.000000
70
192
0
VERTEX
8
OBJECT__34
10
-12.474000
20
9.427000
30
-26.931999
70
192
0
VERTEX
8
OBJECT__34
10
-11.921000
20
10.315000
30
-27.683001
70
192
0
VERTEX
8
OBJECT__34
10
-12.229000
20
9.765000
30
-29.000000
70
192
0
VERTEX
8
OBJECT__34
10
-11.862000
20
10.410000
30
-27.764000
70
192
0
VERTEX
8
OBJECT__34
10
-13.140000
20
7.984000
30
-25.455999
70
192
0
VERTEX
8
OBJECT__34
10
-13.346000
20
7.328000
30
-24.607000
70
192
0
VERTEX
8
OBJECT__34
10
-13.500000
20
6.303000
30
-22.754999
70
192
0
VERTEX
8
OBJECT__34
10
-13.500000
20
-6.325000
30
-22.808001
70
192
0
VERTEX
8
OBJECT__34
10
-13.500000
20
-6.303000
30
-22.754999
70
192
0
VERTEX
8
OBJECT__34
10
-13.354000
20
-7.297000
30
-24.562000
70
192
0
VERTEX
8
OBJECT__34
10
-12.229000
20
-9.765000
30
-29.000000
70
192
0
VERTEX
8
OBJECT__34
10
-12.117000
20
-10.005000
30
-27.424000
70
192
0
VERTEX
8
OBJECT__34
10
-11.939000
20
-10.297000
30
-27.673000
70
192
0
VERTEX
8
OBJECT__34
10
-10.483000
20
-12.087000
30
-29.000000
70
192
0
VERTEX
8
OBJECT__34
10
-12.494000
20
-9.391000
30
-26.899000
70
192
0
VERTEX
8
OBJECT__34
10
-13.176000
20
-7.881000
30
-25.333000
70
192
0
VERTEX
8
OBJECT__34
10
-10.483000
20
12.087000
30
-29.000000
70
192
0
VERTEX
8
OBJECT__34
10
0
20
0
30
0
70
128
71
1
72
2
73
3
0
VERTEX
8
OBJECT__34
10
0
20
0
30
0
70
128
71
3
72
4
73
1
0
VERTEX
8
OBJECT__34
10
0
20
0
30
0
70
128
71
5
72
6
73
1
0
VERTEX
8
OBJECT__34
10
0
20
0
30
0
70
128
71
1
72
7
73
5
0
VERTEX
8
OBJECT__34
10
0
20
0
30
0
70
128
71
5
72
8
73
9
0
VERTEX
8
OBJECT__34
10
0
20
0
30
0
70
128
71
9
72
8
73
10
0
VERTEX
8
OBJECT__34
10
0
20
0
30
0
70
128
71
10
72
11
73
9
0
VERTEX
8
OBJECT__34
10
0
20
0
30
0
70
128
71
12
72
13
73
14
0
VERTEX
8
OBJECT__34
10
0
20
0
30
0
70
128
71
14
72
11
73
12
0
VERTEX
8
OBJECT__34
10
0
20
0
30
0
70
128
71
13
72
15
73
14
0
VERTEX
8
OBJECT__34
10
0
20
0
30
0
70
128
71
11
72
16
73
12
0
VERTEX
8
OBJECT__34
10
0
20
0
30
0
70
128
71
11
72
17
73
16
0
VERTEX
8
OBJECT__34
10
0
20
0
30
0
70
128
71
11
72
10
73
18
0
VERTEX
8
OBJECT__34
10
0
20
0
30
0
70
128
71
18
72
17
73
11
0
VERTEX
8
OBJECT__34
10
0
20
0
30
0
70
128
71
2
72
19
73
20
0
VERTEX
8
OBJECT__34
10
0
20
0
30
0
70
128
71
2
72
21
73
19
0
VERTEX
8
OBJECT__34
10
0
20
0
30
0
70
128
71
2
72
22
73
23
0
VERTEX
8
OBJECT__34
10
0
20
0
30
0
70
128
71
22
72
24
73
23
0
VERTEX
8
OBJECT__34
10
0
20
0
30
0
70
128
71
22
72
25
73
24
0
VERTEX
8
OBJECT__34
10
0
20
0
30
0
70
128
71
23
72
26
73
2
0
VERTEX
8
OBJECT__34
10
0
20
0
30
0
70
128
71
26
72
27
73
2
0
VERTEX
8
OBJECT__34
10
0
20
0
30
0
70
128
71
27
72
21
73
2
0
VERTEX
8
OBJECT__34
10
0
20
0
30
0
70
128
71
20
72
3
73
2
0
VERTEX
8
OBJECT__34
10
0
20
0
30
0
70
128
71
15
72
28
73
14
0
VERTEX
8
OBJECT__34
10
0
20
0
30
0
70
128
71
9
72
6
73
5
0
VERTEX
8
OBJECT__34
10
0
20
0
30
0
70
128
71
4
72
7
73
1
0
SEQEND
8
OBJECT__34
0
POLYLINE
8
OBJECT__35
66
1
70
64
71
61
72
59
62
253
0
VERTEX
8
OBJECT__35
10
8.672000
20
-33.304001
30
-10.251000
70
192
0
VERTEX
8
OBJECT__35
10
9.176000
20
-28.445000
30
-14.616000
70
192
0
VERTEX
8
OBJECT__35
10
9.749000
20
-29.153999
30
-13.110000
70
192
0
VERTEX
8
OBJECT__35
10
8.699000
20
-27.702999
30
-15.925000
70
192
0
VERTEX
8
OBJECT__35
10
11.102000
20
-30.513000
30
-9.408000
70
192
0
VERTEX
8
OBJECT__35
10
12.263000
20
-31.396999
30
-5.646000
70
192
0
VERTEX
8
OBJECT__35
10
11.853000
20
-31.625999
30
-6.200000
70
192
0
VERTEX
8
OBJECT__35
10
9.003000
20
-33.224998
30
-10.059000
70
192
0
VERTEX
8
OBJECT__35
10
10.767000
20
-30.177000
30
-10.324000
70
192
0
VERTEX
8
OBJECT__35
10
-13.500000
20
-6.303000
30
-22.754999
70
192
0
VERTEX
8
OBJECT__35
10
-13.065000
20
-30.466000
30
-3.399000
70
192
0
VERTEX
8
OBJECT__35
10
-13.087000
20
-30.395000
30
-3.228000
70
192
0
VERTEX
8
OBJECT__35
10
-12.494000
20
-9.391000
30
-26.899000
70
192
0
VERTEX
8
OBJECT__35
10
-12.117000
20
-10.005000
30
-27.424000
70
192
0
VERTEX
8
OBJECT__35
10
-11.878000
20
-31.461000
30
-5.801000
70
192
0
VERTEX
8
OBJECT__35
10
-13.500000
20
-6.325000
30
-22.808001
70
192
0
VERTEX
8
OBJECT__35
10
-13.354000
20
-7.297000
30
-24.562000
70
192
0
VERTEX
8
OBJECT__35
10
-13.176000
20
-7.881000
30
-25.333000
70
192
0
VERTEX
8
OBJECT__35
10
-8.708000
20
-13.423000
30
-30.225000
70
192
0
VERTEX
8
OBJECT__35
10
-8.282000
20
-13.666000
30
-30.419001
70
192
0
VERTEX
8
OBJECT__35
10
-8.124000
20
-33.382999
30
-10.442000
70
192
0
VERTEX
8
OBJECT__35
10
-10.012000
20
-32.721001
30
-8.843000
70
192
0
VERTEX
8
OBJECT__35
10
-10.483000
20
-12.087000
30
-29.000000
70
192
0
VERTEX
8
OBJECT__35
10
-10.634000
20
-32.502998
30
-8.317000
70
192
0
VERTEX
8
OBJECT__35
10
-11.939000
20
-10.297000
30
-27.673000
70
192
0
VERTEX
8
OBJECT__35
10
-2.974000
20
-15.721000
30
-31.959999
70
192
0
VERTEX
8
OBJECT__35
10
-2.780000
20
-15.742000
30
-31.974001
70
192
0
VERTEX
8
OBJECT__35
10
-2.715000
20
-34.438000
30
-12.988000
70
192
0
VERTEX
8
OBJECT__35
10
-4.807000
20
-15.261000
30
-31.638000
70
192
0
VERTEX
8
OBJECT__35
10
-4.715000
20
-34.188000
30
-12.384000
70
192
0
VERTEX
8
OBJECT__35
10
-6.446000
20
-33.971001
30
-11.862000
70
192
0
VERTEX
8
OBJECT__35
10
-7.117000
20
-14.330000
30
-30.951000
70
192
0
VERTEX
8
OBJECT__35
10
-6.937000
20
-14.403000
30
-31.004999
70
192
0
VERTEX
8
OBJECT__35
10
3.287000
20
-15.614000
30
-31.885000
70
192
0
VERTEX
8
OBJECT__35
10
3.279000
20
-34.411999
30
-12.925000
70
192
0
VERTEX
8
OBJECT__35
10
1.595000
20
-34.493000
30
-13.122000
70
192
0
VERTEX
8
OBJECT__35
10
-1.193000
20
-34.627998
30
-13.447000
70
192
0
VERTEX
8
OBJECT__35
10
-0.429000
20
-15.994000
30
-32.146000
70
192
0
VERTEX
8
OBJECT__35
10
-0.001000
20
-15.979000
30
-32.136002
70
192
0
VERTEX
8
OBJECT__35
10
1.551000
20
-15.925000
30
-32.098999
70
192
0
VERTEX
8
OBJECT__35
10
7.095000
20
-22.327000
30
-22.973000
70
192
0
VERTEX
8
OBJECT__35
10
4.257000
20
-34.365002
30
-12.811000
70
192
0
VERTEX
8
OBJECT__35
10
8.171000
20
-26.881001
30
-17.375000
70
192
0
VERTEX
8
OBJECT__35
10
7.548000
20
-33.574001
30
-10.903000
70
192
0
VERTEX
8
OBJECT__35
10
7.442000
20
-25.117001
30
-19.870001
70
192
0
VERTEX
8
OBJECT__35
10
7.602000
20
-25.504999
30
-19.322001
70
192
0
VERTEX
8
OBJECT__35
10
7.242000
20
-24.296000
30
-20.874001
70
192
0
VERTEX
8
OBJECT__35
10
8.260000
20
-17.113001
30
-27.045000
70
192
0
VERTEX
8
OBJECT__35
10
7.954000
20
-18.152000
30
-26.316000
70
192
0
VERTEX
8
OBJECT__35
10
8.034000
20
-13.837000
30
-30.563999
70
192
0
VERTEX
8
OBJECT__35
10
8.687000
20
-13.408000
30
-30.201000
70
192
0
VERTEX
8
OBJECT__35
10
8.695000
20
-15.940000
30
-27.681000
70
192
0
VERTEX
8
OBJECT__35
10
6.922000
20
-14.373000
30
-30.975000
70
192
0
VERTEX
8
OBJECT__35
10
5.830000
20
-14.900000
30
-31.378000
70
192
0
VERTEX
8
OBJECT__35
10
4.068000
20
-15.474000
30
-31.788000
70
192
0
VERTEX
8
OBJECT__35
10
7.421000
20
-19.962999
30
-25.044001
70
192
0
VERTEX
8
OBJECT__35
10
9.485000
20
-13.805000
30
-28.839001
70
192
0
VERTEX
8
OBJECT__35
10
9.501000
20
-12.874000
30
-29.747999
70
192
0
VERTEX
8
OBJECT__35
10
9.978000
20
-12.508000
30
-29.410999
70
192
0
VERTEX
8
OBJECT__35
10
9.934000
20
-12.624000
30
-29.362000
70
192
0
VERTEX
8
OBJECT__35
10
-13.500000
20
-29.058001
30
0.000000
70
192
0
VERTEX
8
OBJECT__35
10
0
20
0
30
0
70
128
71
1
72
2
73
3
0
VERTEX
8
OBJECT__35
10
0
20
0
30
0
70
128
71
1
72
4
73
2
0
VERTEX
8
OBJECT__35
10
0
20
0
30
0
70
128
71
5
72
6
73
7
0
VERTEX
8
OBJECT__35
10
0
20
0
30
0
70
128
71
8
72
3
73
9
0
VERTEX
8
OBJECT__35
10
0
20
0
30
0
70
128
71
9
72
5
73
8
0
VERTEX
8
OBJECT__35
10
0
20
0
30
0
70
128
71
7
72
8
73
5
0
VERTEX
8
OBJECT__35
10
0
20
0
30
0
70
128
71
10
72
11
73
12
0
VERTEX
8
OBJECT__35
10
0
20
0
30
0
70
128
71
13
72
14
73
15
0
VERTEX
8
OBJECT__35
10
0
20
0
30
0
70
128
71
11
72
16
73
17
0
VERTEX
8
OBJECT__35
10
0
20
0
30
0
70
128
71
17
72
18
73
11
0
VERTEX
8
OBJECT__35
10
0
20
0
30
0
70
128
71
11
72
10
73
16
0
VERTEX
8
OBJECT__35
10
0
20
0
30
0
70
128
71
18
72
13
73
11
0
VERTEX
8
OBJECT__35
10
0
20
0
30
0
70
128
71
15
72
11
73
13
0
VERTEX
8
OBJECT__35
10
0
20
0
30
0
70
128
71
19
72
20
73
21
0
VERTEX
8
OBJECT__35
10
0
20
0
30
0
70
128
71
22
72
23
73
19
0
VERTEX
8
OBJECT__35
10
0
20
0
30
0
70
128
71
21
72
22
73
19
0
VERTEX
8
OBJECT__35
10
0
20
0
30
0
70
128
71
24
72
14
73
25
0
VERTEX
8
OBJECT__35
10
0
20
0
30
0
70
128
71
25
72
23
73
24
0
VERTEX
8
OBJECT__35
10
0
20
0
30
0
70
128
71
22
72
24
73
23
0
VERTEX
8
OBJECT__35
10
0
20
0
30
0
70
128
71
26
72
27
73
28
0
VERTEX
8
OBJECT__35
10
0
20
0
30
0
70
128
71
29
72
26
73
30
0
VERTEX
8
OBJECT__35
10
0
20
0
30
0
70
128
71
31
72
20
73
32
0
VERTEX
8
OBJECT__35
10
0
20
0
30
0
70
128
71
32
72
33
73
31
0
VERTEX
8
OBJECT__35
10
0
20
0
30
0
70
128
71
33
72
29
73
31
0
VERTEX
8
OBJECT__35
10
0
20
0
30
0
70
128
71
30
72
31
73
29
0
VERTEX
8
OBJECT__35
10
0
20
0
30
0
70
128
71
28
72
30
73
26
0
VERTEX
8
OBJECT__35
10
0
20
0
30
0
70
128
71
34
72
35
73
36
0
VERTEX
8
OBJECT__35
10
0
20
0
30
0
70
128
71
37
72
38
73
39
0
VERTEX
8
OBJECT__35
10
0
20
0
30
0
70
128
71
39
72
36
73
37
0
VERTEX
8
OBJECT__35
10
0
20
0
30
0
70
128
71
39
72
40
73
36
0
VERTEX
8
OBJECT__35
10
0
20
0
30
0
70
128
71
37
72
27
73
38
0
VERTEX
8
OBJECT__35
10
0
20
0
30
0
70
128
71
36
72
40
73
34
0
VERTEX
8
OBJECT__35
10
0
20
0
30
0
70
128
71
35
72
34
73
41
0
VERTEX
8
OBJECT__35
10
0
20
0
30
0
70
128
71
42
72
43
73
4
0
VERTEX
8
OBJECT__35
10
0
20
0
30
0
70
128
71
4
72
1
73
44
0
VERTEX
8
OBJECT__35
10
0
20
0
30
0
70
128
71
42
72
45
73
46
0
VERTEX
8
OBJECT__35
10
0
20
0
30
0
70
128
71
42
72
47
73
45
0
VERTEX
8
OBJECT__35
10
0
20
0
30
0
70
128
71
46
72
43
73
42
0
VERTEX
8
OBJECT__35
10
0
20
0
30
0
70
128
71
42
72
41
73
47
0
VERTEX
8
OBJECT__35
10
0
20
0
30
0
70
128
71
4
72
44
73
42
0
VERTEX
8
OBJECT__35
10
0
20
0
30
0
70
128
71
34
72
48
73
49
0
VERTEX
8
OBJECT__35
10
0
20
0
30
0
70
128
71
50
72
51
73
52
0
VERTEX
8
OBJECT__35
10
0
20
0
30
0
70
128
71
48
72
53
73
50
0
VERTEX
8
OBJECT__35
10
0
20
0
30
0
70
128
71
48
72
54
73
53
0
VERTEX
8
OBJECT__35
10
0
20
0
30
0
70
128
71
48
72
55
73
54
0
VERTEX
8
OBJECT__35
10
0
20
0
30
0
70
128
71
48
72
34
73
55
0
VERTEX
8
OBJECT__35
10
0
20
0
30
0
70
128
71
52
72
48
73
50
0
VERTEX
8
OBJECT__35
10
0
20
0
30
0
70
128
71
49
72
56
73
34
0
VERTEX
8
OBJECT__35
10
0
20
0
30
0
70
128
71
56
72
41
73
34
0
VERTEX
8
OBJECT__35
10
0
20
0
30
0
70
128
71
57
72
51
73
58
0
VERTEX
8
OBJECT__35
10
0
20
0
30
0
70
128
71
58
72
59
73
60
0
VERTEX
8
OBJECT__35
10
0
20
0
30
0
70
128
71
58
72
60
73
57
0
VERTEX
8
OBJECT__35
10
0
20
0
30
0
70
128
71
57
72
52
73
51
0
VERTEX
8
OBJECT__35
10
0
20
0
30
0
70
128
71
41
72
42
73
35
0
VERTEX
8
OBJECT__35
10
0
20
0
30
0
70
128
71
37
72
28
73
27
0
VERTEX
8
OBJECT__35
10
0
20
0
30
0
70
128
71
31
72
21
73
20
0
VERTEX
8
OBJECT__35
10
0
20
0
30
0
70
128
71
24
72
15
73
14
0
VERTEX
8
OBJECT__35
10
0
20
0
30
0
70
128
71
12
72
61
73
10
0
VERTEX
8
OBJECT__35
10
0
20
0
30
0
70
128
71
3
72
8
73
1
0
SEQEND
8
OBJECT__35
0
POLYLINE
8
OBJECT__36
66
1
70
64
71
6
72
4
62
253
0
VERTEX
8
OBJECT__36
10
-14.264000
20
0.000000
30
-19.153000
70
192
0
VERTEX
8
OBJECT__36
10
-14.264000
20
0.000000
30
0.000000
70
192
0
VERTEX
8
OBJECT__36
10
-13.500000
20
4.605000
30
0.000000
70
192
0
VERTEX
8
OBJECT__36
10
-13.500000
20
-4.605000
30
-19.153000
70
192
0
VERTEX
8
OBJECT__36
10
-13.500000
20
-4.605000
30
0.000000
70
192
0
VERTEX
8
OBJECT__36
10
-13.500000
20
4.605000
30
-19.153000
70
192
0
VERTEX
8
OBJECT__36
10
0
20
0
30
0
70
128
71
1
72
2
73
3
0
VERTEX
8
OBJECT__36
10
0
20
0
30
0
70
128
71
4
72
5
73
2
0
VERTEX
8
OBJECT__36
10
0
20
0
30
0
70
128
71
2
72
1
73
4
0
VERTEX
8
OBJECT__36
10
0
20
0
30
0
70
128
71
3
72
6
73
1
0
SEQEND
8
OBJECT__36
0
POLYLINE
8
OBJECT__37
66
1
70
64
71
3
72
1
62
253
0
VERTEX
8
OBJECT__37
10
-13.500000
20
-4.605000
30
0.000000
70
192
0
VERTEX
8
OBJECT__37
10
-13.500000
20
4.605000
30
0.000000
70
192
0
VERTEX
8
OBJECT__37
10
-14.264000
20
0.000000
30
0.000000
70
192
0
VERTEX
8
OBJECT__37
10
0
20
0
30
0
70
128
71
1
72
2
73
3
0
SEQEND
8
OBJECT__37
0
POLYLINE
8
OBJECT__38
66
1
70
64
71
64
72
64
62
253
0
VERTEX
8
OBJECT__38
10
11.954000
20
44.500000
30
6.274000
70
192
0
VERTEX
8
OBJECT__38
10
7.669000
20
44.500000
30
11.110000
70
192
0
VERTEX
8
OBJECT__38
10
11.201000
20
31.025999
30
7.535000
70
192
0
VERTEX
8
OBJECT__38
10
7.650000
20
30.038000
30
11.080000
70
192
0
VERTEX
8
OBJECT__38
10
8.039000
20
30.118000
30
10.845000
70
192
0
VERTEX
8
OBJECT__38
10
9.578000
20
30.521999
30
9.514000
70
192
0
VERTEX
8
OBJECT__38
10
10.020000
20
30.659000
30
8.975000
70
192
0
VERTEX
8
OBJECT__38
10
13.062000
20
31.695999
30
3.411000
70
192
0
VERTEX
8
OBJECT__38
10
13.437000
20
31.843000
30
1.304000
70
192
0
VERTEX
8
OBJECT__38
10
13.500000
20
44.500000
30
0.000000
70
192
0
VERTEX
8
OBJECT__38
10
11.927000
20
31.278999
30
6.258000
70
192
0
VERTEX
8
OBJECT__38
10
12.208000
20
31.377001
30
5.763000
70
192
0
VERTEX
8
OBJECT__38
10
11.954000
20
44.500000
30
-6.274000
70
192
0
VERTEX
8
OBJECT__38
10
12.593000
20
33.571999
30
-4.865000
70
192
0
VERTEX
8
OBJECT__38
10
12.063000
20
33.372002
30
-6.061000
70
192
0
VERTEX
8
OBJECT__38
10
12.914000
20
33.566002
30
-3.935000
70
192
0
VERTEX
8
OBJECT__38
10
13.160000
20
33.256001
30
-3.011000
70
192
0
VERTEX
8
OBJECT__38
10
13.499000
20
31.867001
30
-0.177000
70
192
0
VERTEX
8
OBJECT__38
10
13.450000
20
32.027000
30
-1.156000
70
192
0
VERTEX
8
OBJECT__38
10
13.347000
20
32.493999
30
-2.025000
70
192
0
VERTEX
8
OBJECT__38
10
13.491000
20
31.864000
30
0.000000
70
192
0
VERTEX
8
OBJECT__38
10
13.303000
20
32.734001
30
-2.299000
70
192
0
VERTEX
8
OBJECT__38
10
7.669000
20
44.500000
30
-11.110000
70
192
0
VERTEX
8
OBJECT__38
10
10.697000
20
32.903999
30
-8.235000
70
192
0
VERTEX
8
OBJECT__38
10
10.166000
20
32.737999
30
-8.883000
70
192
0
VERTEX
8
OBJECT__38
10
11.936000
20
33.328999
30
-6.263000
70
192
0
VERTEX
8
OBJECT__38
10
1.627000
20
44.500000
30
-13.402000
70
192
0
VERTEX
8
OBJECT__38
10
4.948000
20
34.171001
30
-12.344000
70
192
0
VERTEX
8
OBJECT__38
10
6.181000
20
34.028999
30
-12.002000
70
192
0
VERTEX
8
OBJECT__38
10
7.537000
20
33.590000
30
-10.941000
70
192
0
VERTEX
8
OBJECT__38
10
0.894000
20
34.638000
30
-13.470000
70
192
0
VERTEX
8
OBJECT__38
10
-1.417000
20
34.504002
30
-13.148000
70
192
0
VERTEX
8
OBJECT__38
10
-4.787000
20
44.500000
30
-12.623000
70
192
0
VERTEX
8
OBJECT__38
10
-4.540000
20
34.324001
30
-12.714000
70
192
0
VERTEX
8
OBJECT__38
10
1.593000
20
34.556999
30
-13.276000
70
192
0
VERTEX
8
OBJECT__38
10
-10.105000
20
44.500000
30
-8.952000
70
192
0
VERTEX
8
OBJECT__38
10
-4.761000
20
34.269001
30
-12.579000
70
192
0
VERTEX
8
OBJECT__38
10
-7.435000
20
33.592999
30
-10.948000
70
192
0
VERTEX
8
OBJECT__38
10
-9.224000
20
33.140999
30
-9.857000
70
192
0
VERTEX
8
OBJECT__38
10
-13.108000
20
44.500000
30
-3.231000
70
192
0
VERTEX
8
OBJECT__38
10
-9.943000
20
32.719002
30
-8.837000
70
192
0
VERTEX
8
OBJECT__38
10
-11.784000
20
31.636999
30
-6.225000
70
192
0
VERTEX
8
OBJECT__38
10
-12.385000
20
31.283001
30
-5.372000
70
192
0
VERTEX
8
OBJECT__38
10
-13.080000
20
20.718000
30
3.220000
70
192
0
VERTEX
8
OBJECT__38
10
-13.108000
20
44.500000
30
3.231000
70
192
0
VERTEX
8
OBJECT__38
10
-13.500000
20
29.058001
30
0.000000
70
192
0
VERTEX
8
OBJECT__38
10
-13.500000
20
17.497999
30
0.000000
70
192
0
VERTEX
8
OBJECT__38
10
-13.148000
20
20.559000
30
3.061000
70
192
0
VERTEX
8
OBJECT__38
10
-12.841000
20
30.372999
30
-3.175000
70
192
0
VERTEX
8
OBJECT__38
10
-11.243000
20
24.972000
30
7.473000
70
192
0
VERTEX
8
OBJECT__38
10
-9.957000
20
26.309000
30
8.811000
70
192
0
VERTEX
8
OBJECT__38
10
-11.976000
20
23.273001
30
5.775000
70
192
0
VERTEX
8
OBJECT__38
10
-10.105000
20
44.500000
30
8.952000
70
192
0
VERTEX
8
OBJECT__38
10
-7.912000
20
28.436001
30
10.938000
70
192
0
VERTEX
8
OBJECT__38
10
-4.716000
20
29.969999
30
12.472000
70
192
0
VERTEX
8
OBJECT__38
10
-8.347000
20
27.983999
30
10.486000
70
192
0
VERTEX
8
OBJECT__38
10
-4.787000
20
44.500000
30
12.623000
70
192
0
VERTEX
8
OBJECT__38
10
-2.996000
20
30.566999
30
13.069000
70
192
0
VERTEX
8
OBJECT__38
10
1.208000
20
30.944000
30
13.446000
70
192
0
VERTEX
8
OBJECT__38
10
-3.579000
20
30.514999
30
13.017000
70
192
0
VERTEX
8
OBJECT__38
10
1.627000
20
44.500000
30
13.402000
70
192
0
VERTEX
8
OBJECT__38
10
2.951000
20
30.464001
30
12.966000
70
192
0
VERTEX
8
OBJECT__38
10
5.841000
20
29.669001
30
12.171000
70
192
0
VERTEX
8
OBJECT__38
10
1.609000
20
30.834000
30
13.335000
70
192
0
VERTEX
8
OBJECT__38
10
0
20
0
30
0
70
128
71
1
72
2
73
3
0
VERTEX
8
OBJECT__38
10
0
20
0
30
0
70
128
71
2
72
4
73
5
0
VERTEX
8
OBJECT__38
10
0
20
0
30
0
70
128
71
5
72
6
73
2
0
VERTEX
8
OBJECT__38
10
0
20
0
30
0
70
128
71
6
72
7
73
2
0
VERTEX
8
OBJECT__38
10
0
20
0
30
0
70
128
71
7
72
3
73
2
0
VERTEX
8
OBJECT__38
10
0
20
0
30
0
70
128
71
1
72
8
73
9
0
VERTEX
8
OBJECT__38
10
0
20
0
30
0
70
128
71
9
72
10
73
1
0
VERTEX
8
OBJECT__38
10
0
20
0
30
0
70
128
71
1
72
11
73
12
0
VERTEX
8
OBJECT__38
10
0
20
0
30
0
70
128
71
12
72
8
73
1
0
VERTEX
8
OBJECT__38
10
0
20
0
30
0
70
128
71
13
72
14
73
15
0
VERTEX
8
OBJECT__38
10
0
20
0
30
0
70
128
71
13
72
10
73
16
0
VERTEX
8
OBJECT__38
10
0
20
0
30
0
70
128
71
16
72
14
73
13
0
VERTEX
8
OBJECT__38
10
0
20
0
30
0
70
128
71
10
72
17
73
16
0
VERTEX
8
OBJECT__38
10
0
20
0
30
0
70
128
71
10
72
18
73
19
0
VERTEX
8
OBJECT__38
10
0
20
0
30
0
70
128
71
19
72
20
73
10
0
VERTEX
8
OBJECT__38
10
0
20
0
30
0
70
128
71
10
72
21
73
18
0
VERTEX
8
OBJECT__38
10
0
20
0
30
0
70
128
71
20
72
22
73
10
0
VERTEX
8
OBJECT__38
10
0
20
0
30
0
70
128
71
22
72
17
73
10
0
VERTEX
8
OBJECT__38
10
0
20
0
30
0
70
128
71
23
72
24
73
25
0
VERTEX
8
OBJECT__38
10
0
20
0
30
0
70
128
71
23
72
13
73
26
0
VERTEX
8
OBJECT__38
10
0
20
0
30
0
70
128
71
26
72
24
73
23
0
VERTEX
8
OBJECT__38
10
0
20
0
30
0
70
128
71
27
72
23
73
28
0
VERTEX
8
OBJECT__38
10
0
20
0
30
0
70
128
71
23
72
29
73
28
0
VERTEX
8
OBJECT__38
10
0
20
0
30
0
70
128
71
23
72
30
73
29
0
VERTEX
8
OBJECT__38
10
0
20
0
30
0
70
128
71
27
72
31
73
32
0
VERTEX
8
OBJECT__38
10
0
20
0
30
0
70
128
71
32
72
33
73
27
0
VERTEX
8
OBJECT__38
10
0
20
0
30
0
70
128
71
32
72
34
73
33
0
VERTEX
8
OBJECT__38
10
0
20
0
30
0
70
128
71
27
72
35
73
31
0
VERTEX
8
OBJECT__38
10
0
20
0
30
0
70
128
71
36
72
33
73
37
0
VERTEX
8
OBJECT__38
10
0
20
0
30
0
70
128
71
37
72
38
73
36
0
VERTEX
8
OBJECT__38
10
0
20
0
30
0
70
128
71
38
72
39
73
36
0
VERTEX
8
OBJECT__38
10
0
20
0
30
0
70
128
71
40
72
36
73
41
0
VERTEX
8
OBJECT__38
10
0
20
0
30
0
70
128
71
41
72
42
73
40
0
VERTEX
8
OBJECT__38
10
0
20
0
30
0
70
128
71
42
72
43
73
40
0
VERTEX
8
OBJECT__38
10
0
20
0
30
0
70
128
71
44
72
45
73
46
0
VERTEX
8
OBJECT__38
10
0
20
0
30
0
70
128
71
46
72
47
73
48
0
VERTEX
8
OBJECT__38
10
0
20
0
30
0
70
128
71
45
72
40
73
49
0
VERTEX
8
OBJECT__38
10
0
20
0
30
0
70
128
71
49
72
46
73
45
0
VERTEX
8
OBJECT__38
10
0
20
0
30
0
70
128
71
45
72
50
73
51
0
VERTEX
8
OBJECT__38
10
0
20
0
30
0
70
128
71
45
72
44
73
52
0
VERTEX
8
OBJECT__38
10
0
20
0
30
0
70
128
71
52
72
50
73
45
0
VERTEX
8
OBJECT__38
10
0
20
0
30
0
70
128
71
53
72
54
73
55
0
VERTEX
8
OBJECT__38
10
0
20
0
30
0
70
128
71
53
72
51
73
56
0
VERTEX
8
OBJECT__38
10
0
20
0
30
0
70
128
71
56
72
54
73
53
0
VERTEX
8
OBJECT__38
10
0
20
0
30
0
70
128
71
57
72
58
73
59
0
VERTEX
8
OBJECT__38
10
0
20
0
30
0
70
128
71
57
72
60
73
58
0
VERTEX
8
OBJECT__38
10
0
20
0
30
0
70
128
71
57
72
55
73
60
0
VERTEX
8
OBJECT__38
10
0
20
0
30
0
70
128
71
59
72
61
73
57
0
VERTEX
8
OBJECT__38
10
0
20
0
30
0
70
128
71
2
72
62
73
63
0
VERTEX
8
OBJECT__38
10
0
20
0
30
0
70
128
71
2
72
61
73
64
0
VERTEX
8
OBJECT__38
10
0
20
0
30
0
70
128
71
64
72
62
73
2
0
VERTEX
8
OBJECT__38
10
0
20
0
30
0
70
128
71
63
72
4
73
2
0
VERTEX
8
OBJECT__38
10
0
20
0
30
0
70
128
71
59
72
64
73
61
0
VERTEX
8
OBJECT__38
10
0
20
0
30
0
70
128
71
55
72
57
73
53
0
VERTEX
8
OBJECT__38
10
0
20
0
30
0
70
128
71
51
72
53
73
45
0
VERTEX
8
OBJECT__38
10
0
20
0
30
0
70
128
71
46
72
48
73
44
0
VERTEX
8
OBJECT__38
10
0
20
0
30
0
70
128
71
43
72
49
73
40
0
VERTEX
8
OBJECT__38
10
0
20
0
30
0
70
128
71
39
72
41
73
36
0
VERTEX
8
OBJECT__38
10
0
20
0
30
0
70
128
71
34
72
37
73
33
0
VERTEX
8
OBJECT__38
10
0
20
0
30
0
70
128
71
28
72
35
73
27
0
VERTEX
8
OBJECT__38
10
0
20
0
30
0
70
128
71
25
72
30
73
23
0
VERTEX
8
OBJECT__38
10
0
20
0
30
0
70
128
71
15
72
26
73
13
0
VERTEX
8
OBJECT__38
10
0
20
0
30
0
70
128
71
9
72
21
73
10
0
VERTEX
8
OBJECT__38
10
0
20
0
30
0
70
128
71
3
72
11
73
1
0
SEQEND
8
OBJECT__38
0
POLYLINE
8
OBJECT__39
66
1
70
64
71
23
72
23
62
253
0
VERTEX
8
OBJECT__39
10
7.669000
20
44.500000
30
11.110000
70
192
0
VERTEX
8
OBJECT__39
10
11.954000
20
44.500000
30
6.274000
70
192
0
VERTEX
8
OBJECT__39
10
7.536000
20
44.500000
30
5.476000
70
192
0
VERTEX
8
OBJECT__39
10
13.500000
20
44.500000
30
0.000000
70
192
0
VERTEX
8
OBJECT__39
10
9.316000
20
44.500000
30
0.000000
70
192
0
VERTEX
8
OBJECT__39
10
11.954000
20
44.500000
30
-6.274000
70
192
0
VERTEX
8
OBJECT__39
10
7.536000
20
44.500000
30
-5.476000
70
192
0
VERTEX
8
OBJECT__39
10
7.669000
20
44.500000
30
-11.110000
70
192
0
VERTEX
8
OBJECT__39
10
2.879000
20
44.500000
30
-8.860000
70
192
0
VERTEX
8
OBJECT__39
10
-10.105000
20
44.500000
30
-8.952000
70
192
0
VERTEX
8
OBJECT__39
10
-7.536000
20
44.500000
30
-5.476000
70
192
0
VERTEX
8
OBJECT__39
10
-2.879000
20
44.500000
30
-8.860000
70
192
0
VERTEX
8
OBJECT__39
10
-13.108000
20
44.500000
30
-3.231000
70
192
0
VERTEX
8
OBJECT__39
10
-9.315000
20
44.500000
30
0.000000
70
192
0
VERTEX
8
OBJECT__39
10
-13.108000
20
44.500000
30
3.231000
70
192
0
VERTEX
8
OBJECT__39
10
-10.105000
20
44.500000
30
8.952000
70
192
0
VERTEX
8
OBJECT__39
10
-7.536000
20
44.500000
30
5.476000
70
192
0
VERTEX
8
OBJECT__39
10
2.879000
20
44.500000
30
8.860000
70
192
0
VERTEX
8
OBJECT__39
10
1.627000
20
44.500000
30
13.402000
70
192
0
VERTEX
8
OBJECT__39
10
1.627000
20
44.500000
30
-13.402000
70
192
0
VERTEX
8
OBJECT__39
10
-4.787000
20
44.500000
30
-12.623000
70
192
0
VERTEX
8
OBJECT__39
10
-4.787000
20
44.500000
30
12.623000
70
192
0
VERTEX
8
OBJECT__39
10
-2.879000
20
44.500000
30
8.860000
70
192
0
VERTEX
8
OBJECT__39
10
0
20
0
30
0
70
128
71
1
72
2
73
3
0
VERTEX
8
OBJECT__39
10
0
20
0
30
0
70
128
71
2
72
4
73
5
0
VERTEX
8
OBJECT__39
10
0
20
0
30
0
70
128
71
6
72
7
73
5
0
VERTEX
8
OBJECT__39
10
0
20
0
30
0
70
128
71
8
72
9
73
7
0
VERTEX
8
OBJECT__39
10
0
20
0
30
0
70
128
71
10
72
11
73
12
0
VERTEX
8
OBJECT__39
10
0
20
0
30
0
70
128
71
13
72
14
73
11
0
VERTEX
8
OBJECT__39
10
0
20
0
30
0
70
128
71
15
72
16
73
17
0
VERTEX
8
OBJECT__39
10
0
20
0
30
0
70
128
71
18
72
19
73
1
0
VERTEX
8
OBJECT__39
10
0
20
0
30
0
70
128
71
5
72
4
73
6
0
VERTEX
8
OBJECT__39
10
0
20
0
30
0
70
128
71
7
72
6
73
8
0
VERTEX
8
OBJECT__39
10
0
20
0
30
0
70
128
71
20
72
21
73
12
0
VERTEX
8
OBJECT__39
10
0
20
0
30
0
70
128
71
11
72
10
73
13
0
VERTEX
8
OBJECT__39
10
0
20
0
30
0
70
128
71
14
72
13
73
15
0
VERTEX
8
OBJECT__39
10
0
20
0
30
0
70
128
71
16
72
22
73
23
0
VERTEX
8
OBJECT__39
10
0
20
0
30
0
70
128
71
19
72
18
73
23
0
VERTEX
8
OBJECT__39
10
0
20
0
30
0
70
128
71
5
72
3
73
2
0
VERTEX
8
OBJECT__39
10
0
20
0
30
0
70
128
71
12
72
9
73
20
0
VERTEX
8
OBJECT__39
10
0
20
0
30
0
70
128
71
17
72
14
73
15
0
VERTEX
8
OBJECT__39
10
0
20
0
30
0
70
128
71
23
72
22
73
19
0
VERTEX
8
OBJECT__39
10
0
20
0
30
0
70
128
71
8
72
20
73
9
0
VERTEX
8
OBJECT__39
10
0
20
0
30
0
70
128
71
23
72
17
73
16
0
VERTEX
8
OBJECT__39
10
0
20
0
30
0
70
128
71
12
72
21
73
10
0
VERTEX
8
OBJECT__39
10
0
20
0
30
0
70
128
71
3
72
18
73
1
0
SEQEND
8
OBJECT__39
0
POLYLINE
8
OBJECT__40
66
1
70
64
71
30
72
30
62
253
0
VERTEX
8
OBJECT__40
10
-7.536000
20
44.500000
30
5.476000
70
192
0
VERTEX
8
OBJECT__40
10
-7.536000
20
23.000000
30
5.476000
70
192
0
VERTEX
8
OBJECT__40
10
-9.315000
20
23.000000
30
0.000000
70
192
0
VERTEX
8
OBJECT__40
10
-2.879000
20
44.500000
30
8.860000
70
192
0
VERTEX
8
OBJECT__40
10
-2.879000
20
23.000000
30
8.860000
70
192
0
VERTEX
8
OBJECT__40
10
2.879000
20
44.500000
30
8.860000
70
192
0
VERTEX
8
OBJECT__40
10
2.879000
20
23.000000
30
8.860000
70
192
0
VERTEX
8
OBJECT__40
10
7.536000
20
44.500000
30
5.476000
70
192
0
VERTEX
8
OBJECT__40
10
7.536000
20
23.000000
30
5.476000
70
192
0
VERTEX
8
OBJECT__40
10
9.316000
20
44.500000
30
0.000000
70
192
0
VERTEX
8
OBJECT__40
10
9.316000
20
23.000000
30
0.000000
70
192
0
VERTEX
8
OBJECT__40
10
-2.879000
20
44.500000
30
-8.860000
70
192
0
VERTEX
8
OBJECT__40
10
-2.879000
20
23.000000
30
-8.860000
70
192
0
VERTEX
8
OBJECT__40
10
2.879000
20
23.000000
30
-8.860000
70
192
0
VERTEX
8
OBJECT__40
10
-7.536000
20
44.500000
30
-5.476000
70
192
0
VERTEX
8
OBJECT__40
10
-7.344000
20
23.000000
30
-5.731000
70
192
0
VERTEX
8
OBJECT__40
10
-7.524000
20
23.000000
30
-5.467000
70
192
0
VERTEX
8
OBJECT__40
10
-9.315000
20
44.500000
30
0.000000
70
192
0
VERTEX
8
OBJECT__40
10
-8.026000
20
23.000000
30
-4.729000
70
192
0
VERTEX
8
OBJECT__40
10
7.536000
20
44.500000
30
-5.476000
70
192
0
VERTEX
8
OBJECT__40
10
2.879000
20
44.500000
30
-8.860000
70
192
0
VERTEX
8
OBJECT__40
10
6.461000
20
23.532000
30
-6.711000
70
192
0
VERTEX
8
OBJECT__40
10
5.000000
20
23.209999
30
-7.860000
70
192
0
VERTEX
8
OBJECT__40
10
5.698000
20
23.370001
30
-7.370000
70
192
0
VERTEX
8
OBJECT__40
10
6.116000
20
23.465000
30
-7.026000
70
192
0
VERTEX
8
OBJECT__40
10
5.000000
20
23.000000
30
-7.860000
70
192
0
VERTEX
8
OBJECT__40
10
8.480000
20
23.291000
30
-3.855000
70
192
0
VERTEX
8
OBJECT__40
10
8.751000
20
23.000000
30
-3.193000
70
192
0
VERTEX
8
OBJECT__40
10
7.638000
20
23.606001
30
-5.333000
70
192
0
VERTEX
8
OBJECT__40
10
7.525000
20
23.599001
30
-5.465000
70
192
0
VERTEX
8
OBJECT__40
10
0
20
0
30
0
70
128
71
1
72
2
73
3
0
VERTEX
8
OBJECT__40
10
0
20
0
30
0
70
128
71
4
72
5
73
2
0
VERTEX
8
OBJECT__40
10
0
20
0
30
0
70
128
71
6
72
7
73
5
0
VERTEX
8
OBJECT__40
10
0
20
0
30
0
70
128
71
8
72
9
73
7
0
VERTEX
8
OBJECT__40
10
0
20
0
30
0
70
128
71
10
72
11
73
9
0
VERTEX
8
OBJECT__40
10
0
20
0
30
0
70
128
71
12
72
13
73
14
0
VERTEX
8
OBJECT__40
10
0
20
0
30
0
70
128
71
12
72
15
73
16
0
VERTEX
8
OBJECT__40
10
0
20
0
30
0
70
128
71
15
72
17
73
16
0
VERTEX
8
OBJECT__40
10
0
20
0
30
0
70
128
71
18
72
3
73
19
0
VERTEX
8
OBJECT__40
10
0
20
0
30
0
70
128
71
19
72
15
73
18
0
VERTEX
8
OBJECT__40
10
0
20
0
30
0
70
128
71
20
72
21
73
22
0
VERTEX
8
OBJECT__40
10
0
20
0
30
0
70
128
71
21
72
23
73
24
0
VERTEX
8
OBJECT__40
10
0
20
0
30
0
70
128
71
24
72
25
73
21
0
VERTEX
8
OBJECT__40
10
0
20
0
30
0
70
128
71
25
72
22
73
21
0
VERTEX
8
OBJECT__40
10
0
20
0
30
0
70
128
71
14
72
26
73
23
0
VERTEX
8
OBJECT__40
10
0
20
0
30
0
70
128
71
23
72
21
73
14
0
VERTEX
8
OBJECT__40
10
0
20
0
30
0
70
128
71
10
72
27
73
28
0
VERTEX
8
OBJECT__40
10
0
20
0
30
0
70
128
71
10
72
20
73
29
0
VERTEX
8
OBJECT__40
10
0
20
0
30
0
70
128
71
29
72
27
73
10
0
VERTEX
8
OBJECT__40
10
0
20
0
30
0
70
128
71
20
72
30
73
29
0
VERTEX
8
OBJECT__40
10
0
20
0
30
0
70
128
71
28
72
11
73
10
0
VERTEX
8
OBJECT__40
10
0
20
0
30
0
70
128
71
22
72
30
73
20
0
VERTEX
8
OBJECT__40
10
0
20
0
30
0
70
128
71
19
72
17
73
15
0
VERTEX
8
OBJECT__40
10
0
20
0
30
0
70
128
71
16
72
13
73
12
0
VERTEX
8
OBJECT__40
10
0
20
0
30
0
70
128
71
14
72
21
73
12
0
VERTEX
8
OBJECT__40
10
0
20
0
30
0
70
128
71
9
72
8
73
10
0
VERTEX
8
OBJECT__40
10
0
20
0
30
0
70
128
71
7
72
6
73
8
0
VERTEX
8
OBJECT__40
10
0
20
0
30
0
70
128
71
5
72
4
73
6
0
VERTEX
8
OBJECT__40
10
0
20
0
30
0
70
128
71
2
72
1
73
4
0
VERTEX
8
OBJECT__40
10
0
20
0
30
0
70
128
71
3
72
18
73
1
0
SEQEND
8
OBJECT__40
0
POLYLINE
8
OBJECT__41
66
1
70
64
71
18
72
16
62
253
0
VERTEX
8
OBJECT__41
10
2.879000
20
23.000000
30
-8.860000
70
192
0
VERTEX
8
OBJECT__41
10
-9.315000
20
23.000000
30
0.000000
70
192
0
VERTEX
8
OBJECT__41
10
-7.536000
20
23.000000
30
5.476000
70
192
0
VERTEX
8
OBJECT__41
10
-2.879000
20
23.000000
30
-8.860000
70
192
0
VERTEX
8
OBJECT__41
10
-8.026000
20
23.000000
30
-4.729000
70
192
0
VERTEX
8
OBJECT__41
10
7.536000
20
23.000000
30
5.476000
70
192
0
VERTEX
8
OBJECT__41
10
9.316000
20
23.000000
30
0.000000
70
192
0
VERTEX
8
OBJECT__41
10
5.000000
20
23.000000
30
-7.860000
70
192
0
VERTEX
8
OBJECT__41
10
-2.879000
20
23.000000
30
8.860000
70
192
0
VERTEX
8
OBJECT__41
10
2.879000
20
23.000000
30
8.860000
70
192
0
VERTEX
8
OBJECT__41
10
8.751000
20
23.000000
30
-3.193000
70
192
0
VERTEX
8
OBJECT__41
10
9.956000
20
23.000000
30
-6.038000
70
192
0
VERTEX
8
OBJECT__41
10
-9.500000
20
23.000000
30
-5.731000
70
192
0
VERTEX
8
OBJECT__41
10
-9.500000
20
23.000000
30
-4.729000
70
192
0
VERTEX
8
OBJECT__41
10
8.007000
20
23.000000
30
-8.453000
70
192
0
VERTEX
8
OBJECT__41
10
5.000000
20
23.000000
30
-8.453000
70
192
0
VERTEX
8
OBJECT__41
10
-7.344000
20
23.000000
30
-5.731000
70
192
0
VERTEX
8
OBJECT__41
10
11.197000
20
23.000000
30
-3.193000
70
192
0
VERTEX
8
OBJECT__41
10
0
20
0
30
0
70
128
71
1
72
2
73
3
0
VERTEX
8
OBJECT__41
10
0
20
0
30
0
70
128
71
1
72
4
73
5
0
VERTEX
8
OBJECT__41
10
0
20
0
30
0
70
128
71
6
72
7
73
8
0
VERTEX
8
OBJECT__41
10
0
20
0
30
0
70
128
71
1
72
9
73
10
0
VERTEX
8
OBJECT__41
10
0
20
0
30
0
70
128
71
8
72
11
73
12
0
VERTEX
8
OBJECT__41
10
0
20
0
30
0
70
128
71
5
72
2
73
1
0
VERTEX
8
OBJECT__41
10
0
20
0
30
0
70
128
71
10
72
6
73
1
0
VERTEX
8
OBJECT__41
10
0
20
0
30
0
70
128
71
13
72
14
73
5
0
VERTEX
8
OBJECT__41
10
0
20
0
30
0
70
128
71
15
72
16
73
8
0
VERTEX
8
OBJECT__41
10
0
20
0
30
0
70
128
71
8
72
1
73
6
0
VERTEX
8
OBJECT__41
10
0
20
0
30
0
70
128
71
5
72
4
73
17
0
VERTEX
8
OBJECT__41
10
0
20
0
30
0
70
128
71
11
72
18
73
12
0
VERTEX
8
OBJECT__41
10
0
20
0
30
0
70
128
71
5
72
17
73
13
0
VERTEX
8
OBJECT__41
10
0
20
0
30
0
70
128
71
8
72
7
73
11
0
VERTEX
8
OBJECT__41
10
0
20
0
30
0
70
128
71
12
72
15
73
8
0
VERTEX
8
OBJECT__41
10
0
20
0
30
0
70
128
71
3
72
9
73
1
0
SEQEND
8
OBJECT__41
0
POLYLINE
8
OBJECT__42
66
1
70
64
71
116
72
114
62
253
0
VERTEX
8
OBJECT__42
10
21.851000
20
29.997999
30
8.762000
70
192
0
VERTEX
8
OBJECT__42
10
12.208000
20
31.377001
30
5.763000
70
192
0
VERTEX
8
OBJECT__42
10
11.927000
20
31.278999
30
6.258000
70
192
0
VERTEX
8
OBJECT__42
10
21.851000
20
31.216999
30
5.209000
70
192
0
VERTEX
8
OBJECT__42
10
13.062000
20
31.695999
30
3.411000
70
192
0
VERTEX
8
OBJECT__42
10
11.201000
20
31.025999
30
7.535000
70
192
0
VERTEX
8
OBJECT__42
10
21.851000
20
31.649000
30
-0.131000
70
192
0
VERTEX
8
OBJECT__42
10
13.437000
20
31.843000
30
1.304000
70
192
0
VERTEX
8
OBJECT__42
10
14.202000
20
31.849001
30
-0.173000
70
192
0
VERTEX
8
OBJECT__42
10
13.499000
20
31.867001
30
-0.177000
70
192
0
VERTEX
8
OBJECT__42
10
13.491000
20
31.864000
30
0.000000
70
192
0
VERTEX
8
OBJECT__42
10
8.039000
20
30.118000
30
10.845000
70
192
0
VERTEX
8
OBJECT__42
10
6.310000
20
29.433001
30
12.701000
70
192
0
VERTEX
8
OBJECT__42
10
8.414000
20
28.049000
30
15.399000
70
192
0
VERTEX
8
OBJECT__42
10
7.650000
20
30.038000
30
11.080000
70
192
0
VERTEX
8
OBJECT__42
10
5.841000
20
29.669001
30
12.171000
70
192
0
VERTEX
8
OBJECT__42
10
8.457000
20
28.021000
30
15.453000
70
192
0
VERTEX
8
OBJECT__42
10
21.851000
20
25.761000
30
17.726999
70
192
0
VERTEX
8
OBJECT__42
10
9.578000
20
30.521999
30
9.514000
70
192
0
VERTEX
8
OBJECT__42
10
21.851000
20
27.834999
30
15.063000
70
192
0
VERTEX
8
OBJECT__42
10
10.020000
20
30.659000
30
8.975000
70
192
0
VERTEX
8
OBJECT__42
10
10.223000
20
26.308001
30
18.129999
70
192
0
VERTEX
8
OBJECT__42
10
21.851000
20
21.434999
30
23.285000
70
192
0
VERTEX
8
OBJECT__42
10
13.281000
20
19.919001
30
24.882999
70
192
0
VERTEX
8
OBJECT__42
10
13.376000
20
19.325001
30
25.344000
70
192
0
VERTEX
8
OBJECT__42
10
21.851000
20
18.927999
30
24.923000
70
192
0
VERTEX
8
OBJECT__42
10
12.650000
20
22.214001
30
22.881001
70
192
0
VERTEX
8
OBJECT__42
10
11.654000
20
24.312000
30
20.677000
70
192
0
VERTEX
8
OBJECT__42
10
12.118000
20
23.334000
30
21.704000
70
192
0
VERTEX
8
OBJECT__42
10
10.260000
20
26.271999
30
18.186001
70
192
0
VERTEX
8
OBJECT__42
10
11.177000
20
25.070000
30
19.771999
70
192
0
VERTEX
8
OBJECT__42
10
13.500000
20
17.497999
30
26.634001
70
192
0
VERTEX
8
OBJECT__42
10
13.500000
20
10.329000
30
30.146999
70
192
0
VERTEX
8
OBJECT__42
10
21.851000
20
12.713000
30
28.983000
70
192
0
VERTEX
8
OBJECT__42
10
21.851000
20
10.178000
30
29.625000
70
192
0
VERTEX
8
OBJECT__42
10
13.381000
20
19.254000
30
25.393999
70
192
0
VERTEX
8
OBJECT__42
10
13.500000
20
0.364000
30
31.865999
70
192
0
VERTEX
8
OBJECT__42
10
21.851000
20
2.614000
30
31.541000
70
192
0
VERTEX
8
OBJECT__42
10
21.851000
20
0.386000
30
31.356001
70
192
0
VERTEX
8
OBJECT__42
10
13.500000
20
-9.637000
30
30.375999
70
192
0
VERTEX
8
OBJECT__42
10
21.851000
20
-7.769000
30
30.681000
70
192
0
VERTEX
8
OBJECT__42
10
21.851000
20
-9.469000
30
29.934999
70
192
0
VERTEX
8
OBJECT__42
10
21.851000
20
-18.396999
30
25.495001
70
192
0
VERTEX
8
OBJECT__42
10
21.851000
20
-17.309999
30
26.496000
70
192
0
VERTEX
8
OBJECT__42
10
13.500000
20
-17.502001
30
26.632000
70
192
0
VERTEX
8
OBJECT__42
10
12.153000
20
-23.354000
30
21.723000
70
192
0
VERTEX
8
OBJECT__42
10
21.851000
20
-25.499001
30
18.473000
70
192
0
VERTEX
8
OBJECT__42
10
21.851000
20
-24.976000
30
19.438999
70
192
0
VERTEX
8
OBJECT__42
10
12.219000
20
-23.240999
30
21.853001
70
192
0
VERTEX
8
OBJECT__42
10
10.958000
20
-25.386000
30
19.374001
70
192
0
VERTEX
8
OBJECT__42
10
13.285000
20
-19.899000
30
24.899000
70
192
0
VERTEX
8
OBJECT__42
10
13.071000
20
-20.877001
30
24.091999
70
192
0
VERTEX
8
OBJECT__42
10
13.397000
20
-18.650000
30
25.802000
70
192
0
VERTEX
8
OBJECT__42
10
21.851000
20
-29.934000
30
10.276000
70
192
0
VERTEX
8
OBJECT__42
10
9.009000
20
-30.364000
30
10.054000
70
192
0
VERTEX
8
OBJECT__42
10
9.374000
20
-30.469000
30
9.681000
70
192
0
VERTEX
8
OBJECT__42
10
21.851000
20
-30.052999
30
9.565000
70
192
0
VERTEX
8
OBJECT__42
10
10.584000
20
-25.881001
30
18.723000
70
192
0
VERTEX
8
OBJECT__42
10
7.637000
20
-30.039000
30
11.067000
70
192
0
VERTEX
8
OBJECT__42
10
6.955000
20
-29.877001
30
11.571000
70
192
0
VERTEX
8
OBJECT__42
10
6.761000
20
-29.187000
30
13.227000
70
192
0
VERTEX
8
OBJECT__42
10
6.429000
20
-29.372999
30
12.830000
70
192
0
VERTEX
8
OBJECT__42
10
8.805000
20
-27.736000
30
15.942000
70
192
0
VERTEX
8
OBJECT__42
10
8.395000
20
-28.025999
30
15.398000
70
192
0
VERTEX
8
OBJECT__42
10
10.573000
20
-25.896000
30
18.704000
70
192
0
VERTEX
8
OBJECT__42
10
5.847000
20
-29.670000
30
12.168000
70
192
0
VERTEX
8
OBJECT__42
10
13.445000
20
-31.846001
30
0.001000
70
192
0
VERTEX
8
OBJECT__42
10
21.851000
20
-31.591999
30
-0.340000
70
192
0
VERTEX
8
OBJECT__42
10
21.851000
20
-31.649000
30
0.000000
70
192
0
VERTEX
8
OBJECT__42
10
13.465000
20
-31.854000
30
0.968000
70
192
0
VERTEX
8
OBJECT__42
10
13.214000
20
-31.754999
30
2.764000
70
192
0
VERTEX
8
OBJECT__42
10
11.730000
20
-31.205999
30
6.683000
70
192
0
VERTEX
8
OBJECT__42
10
11.935000
20
-31.280001
30
6.265000
70
192
0
VERTEX
8
OBJECT__42
10
12.468000
20
-31.472000
30
5.177000
70
192
0
VERTEX
8
OBJECT__42
10
10.246000
20
-30.719999
30
8.790000
70
192
0
VERTEX
8
OBJECT__42
10
21.851000
20
-29.940001
30
-10.245000
70
192
0
VERTEX
8
OBJECT__42
10
13.094000
20
-31.709000
30
-3.286000
70
192
0
VERTEX
8
OBJECT__42
10
12.263000
20
-31.396999
30
-5.646000
70
192
0
VERTEX
8
OBJECT__42
10
11.102000
20
-30.513000
30
-9.408000
70
192
0
VERTEX
8
OBJECT__42
10
13.413000
20
-31.833000
30
-1.531000
70
192
0
VERTEX
8
OBJECT__42
10
13.438000
20
-31.843000
30
-0.351000
70
192
0
VERTEX
8
OBJECT__42
10
21.851000
20
-25.170000
30
-19.080000
70
192
0
VERTEX
8
OBJECT__42
10
8.699000
20
-27.702999
30
-15.925000
70
192
0
VERTEX
8
OBJECT__42
10
8.171000
20
-26.881001
30
-17.375000
70
192
0
VERTEX
8
OBJECT__42
10
9.749000
20
-29.153999
30
-13.110000
70
192
0
VERTEX
8
OBJECT__42
10
9.176000
20
-28.445000
30
-14.616000
70
192
0
VERTEX
8
OBJECT__42
10
21.851000
20
-29.934000
30
-10.276000
70
192
0
VERTEX
8
OBJECT__42
10
10.767000
20
-30.177000
30
-10.324000
70
192
0
VERTEX
8
OBJECT__42
10
7.602000
20
-25.504999
30
-19.322001
70
192
0
VERTEX
8
OBJECT__42
10
21.851000
20
-24.976000
30
-19.438999
70
192
0
VERTEX
8
OBJECT__42
10
7.421000
20
-19.962999
30
-25.044001
70
192
0
VERTEX
8
OBJECT__42
10
7.954000
20
-18.152000
30
-26.316000
70
192
0
VERTEX
8
OBJECT__42
10
7.242000
20
-24.296000
30
-20.874001
70
192
0
VERTEX
8
OBJECT__42
10
7.095000
20
-22.327000
30
-22.973000
70
192
0
VERTEX
8
OBJECT__42
10
7.442000
20
-25.117001
30
-19.870001
70
192
0
VERTEX
8
OBJECT__42
10
21.851000
20
-17.888000
30
-25.962999
70
192
0
VERTEX
8
OBJECT__42
10
21.851000
20
-17.309999
30
-26.496000
70
192
0
VERTEX
8
OBJECT__42
10
12.879000
20
-9.494000
30
-30.438000
70
192
0
VERTEX
8
OBJECT__42
10
13.218000
20
-8.965000
30
-30.577000
70
192
0
VERTEX
8
OBJECT__42
10
11.018000
20
-11.602000
30
-29.750000
70
192
0
VERTEX
8
OBJECT__42
10
12.478000
20
-9.948000
30
-30.290001
70
192
0
VERTEX
8
OBJECT__42
10
9.934000
20
-12.624000
30
-29.362000
70
192
0
VERTEX
8
OBJECT__42
10
9.978000
20
-12.508000
30
-29.410999
70
192
0
VERTEX
8
OBJECT__42
10
8.695000
20
-15.940000
30
-27.681000
70
192
0
VERTEX
8
OBJECT__42
10
9.485000
20
-13.805000
30
-28.839001
70
192
0
VERTEX
8
OBJECT__42
10
8.260000
20
-17.113001
30
-27.045000
70
192
0
VERTEX
8
OBJECT__42
10
15.996000
20
-0.364000
30
-31.799999
70
192
0
VERTEX
8
OBJECT__42
10
15.999000
20
0.163000
30
-31.802000
70
192
0
VERTEX
8
OBJECT__42
10
18.825001
20
0.148000
30
-31.728001
70
192
0
VERTEX
8
OBJECT__42
10
21.851000
20
0.131000
30
-31.649000
70
192
0
VERTEX
8
OBJECT__42
10
21.851000
20
-7.769000
30
-30.681000
70
192
0
VERTEX
8
OBJECT__42
10
15.709000
20
-3.039000
30
-31.664000
70
192
0
VERTEX
8
OBJECT__42
10
15.131000
20
-5.203000
30
-31.396999
70
192
0
VERTEX
8
OBJECT__42
10
15.571000
20
-3.553000
30
-31.601000
70
192
0
VERTEX
8
OBJECT__42
10
14.015000
20
-7.719000
30
-30.905001
70
192
0
VERTEX
8
OBJECT__42
10
21.851000
20
-8.835000
30
-30.212999
70
192
0
VERTEX
8
OBJECT__42
10
0
20
0
30
0
70
128
71
1
72
2
73
3
0
VERTEX
8
OBJECT__42
10
0
20
0
30
0
70
128
71
2
72
1
73
4
0
VERTEX
8
OBJECT__42
10
0
20
0
30
0
70
128
71
4
72
5
73
2
0
VERTEX
8
OBJECT__42
10
0
20
0
30
0
70
128
71
3
72
6
73
1
0
VERTEX
8
OBJECT__42
10
0
20
0
30
0
70
128
71
4
72
7
73
8
0
VERTEX
8
OBJECT__42
10
0
20
0
30
0
70
128
71
9
72
10
73
11
0
VERTEX
8
OBJECT__42
10
0
20
0
30
0
70
128
71
8
72
7
73
9
0
VERTEX
8
OBJECT__42
10
0
20
0
30
0
70
128
71
11
72
8
73
9
0
VERTEX
8
OBJECT__42
10
0
20
0
30
0
70
128
71
8
72
5
73
4
0
VERTEX
8
OBJECT__42
10
0
20
0
30
0
70
128
71
12
72
13
73
14
0
VERTEX
8
OBJECT__42
10
0
20
0
30
0
70
128
71
13
72
12
73
15
0
VERTEX
8
OBJECT__42
10
0
20
0
30
0
70
128
71
15
72
16
73
13
0
VERTEX
8
OBJECT__42
10
0
20
0
30
0
70
128
71
14
72
17
73
12
0
VERTEX
8
OBJECT__42
10
0
20
0
30
0
70
128
71
18
72
19
73
12
0
VERTEX
8
OBJECT__42
10
0
20
0
30
0
70
128
71
20
72
1
73
21
0
VERTEX
8
OBJECT__42
10
0
20
0
30
0
70
128
71
19
72
18
73
20
0
VERTEX
8
OBJECT__42
10
0
20
0
30
0
70
128
71
21
72
19
73
20
0
VERTEX
8
OBJECT__42
10
0
20
0
30
0
70
128
71
12
72
22
73
18
0
VERTEX
8
OBJECT__42
10
0
20
0
30
0
70
128
71
23
72
24
73
25
0
VERTEX
8
OBJECT__42
10
0
20
0
30
0
70
128
71
25
72
26
73
23
0
VERTEX
8
OBJECT__42
10
0
20
0
30
0
70
128
71
23
72
18
73
27
0
VERTEX
8
OBJECT__42
10
0
20
0
30
0
70
128
71
27
72
24
73
23
0
VERTEX
8
OBJECT__42
10
0
20
0
30
0
70
128
71
18
72
28
73
29
0
VERTEX
8
OBJECT__42
10
0
20
0
30
0
70
128
71
18
72
30
73
31
0
VERTEX
8
OBJECT__42
10
0
20
0
30
0
70
128
71
31
72
28
73
18
0
VERTEX
8
OBJECT__42
10
0
20
0
30
0
70
128
71
18
72
22
73
30
0
VERTEX
8
OBJECT__42
10
0
20
0
30
0
70
128
71
29
72
27
73
18
0
VERTEX
8
OBJECT__42
10
0
20
0
30
0
70
128
71
32
72
33
73
34
0
VERTEX
8
OBJECT__42
10
0
20
0
30
0
70
128
71
33
72
35
73
34
0
VERTEX
8
OBJECT__42
10
0
20
0
30
0
70
128
71
26
72
36
73
32
0
VERTEX
8
OBJECT__42
10
0
20
0
30
0
70
128
71
33
72
37
73
38
0
VERTEX
8
OBJECT__42
10
0
20
0
30
0
70
128
71
37
72
39
73
38
0
VERTEX
8
OBJECT__42
10
0
20
0
30
0
70
128
71
37
72
40
73
41
0
VERTEX
8
OBJECT__42
10
0
20
0
30
0
70
128
71
40
72
42
73
41
0
VERTEX
8
OBJECT__42
10
0
20
0
30
0
70
128
71
43
72
44
73
45
0
VERTEX
8
OBJECT__42
10
0
20
0
30
0
70
128
71
40
72
45
73
44
0
VERTEX
8
OBJECT__42
10
0
20
0
30
0
70
128
71
44
72
42
73
40
0
VERTEX
8
OBJECT__42
10
0
20
0
30
0
70
128
71
46
72
47
73
48
0
VERTEX
8
OBJECT__42
10
0
20
0
30
0
70
128
71
48
72
49
73
46
0
VERTEX
8
OBJECT__42
10
0
20
0
30
0
70
128
71
46
72
50
73
47
0
VERTEX
8
OBJECT__42
10
0
20
0
30
0
70
128
71
43
72
51
73
52
0
VERTEX
8
OBJECT__42
10
0
20
0
30
0
70
128
71
52
72
48
73
43
0
VERTEX
8
OBJECT__42
10
0
20
0
30
0
70
128
71
43
72
53
73
51
0
VERTEX
8
OBJECT__42
10
0
20
0
30
0
70
128
71
52
72
49
73
48
0
VERTEX
8
OBJECT__42
10
0
20
0
30
0
70
128
71
54
72
55
73
56
0
VERTEX
8
OBJECT__42
10
0
20
0
30
0
70
128
71
56
72
57
73
54
0
VERTEX
8
OBJECT__42
10
0
20
0
30
0
70
128
71
47
72
58
73
59
0
VERTEX
8
OBJECT__42
10
0
20
0
30
0
70
128
71
58
72
60
73
59
0
VERTEX
8
OBJECT__42
10
0
20
0
30
0
70
128
71
60
72
61
73
62
0
VERTEX
8
OBJECT__42
10
0
20
0
30
0
70
128
71
60
72
63
73
64
0
VERTEX
8
OBJECT__42
10
0
20
0
30
0
70
128
71
64
72
61
73
60
0
VERTEX
8
OBJECT__42
10
0
20
0
30
0
70
128
71
60
72
58
73
65
0
VERTEX
8
OBJECT__42
10
0
20
0
30
0
70
128
71
65
72
63
73
60
0
VERTEX
8
OBJECT__42
10
0
20
0
30
0
70
128
71
62
72
66
73
60
0
VERTEX
8
OBJECT__42
10
0
20
0
30
0
70
128
71
59
72
55
73
47
0
VERTEX
8
OBJECT__42
10
0
20
0
30
0
70
128
71
67
72
68
73
69
0
VERTEX
8
OBJECT__42
10
0
20
0
30
0
70
128
71
69
72
70
73
67
0
VERTEX
8
OBJECT__42
10
0
20
0
30
0
70
128
71
69
72
57
73
71
0
VERTEX
8
OBJECT__42
10
0
20
0
30
0
70
128
71
57
72
72
73
73
0
VERTEX
8
OBJECT__42
10
0
20
0
30
0
70
128
71
73
72
74
73
57
0
VERTEX
8
OBJECT__42
10
0
20
0
30
0
70
128
71
57
72
75
73
72
0
VERTEX
8
OBJECT__42
10
0
20
0
30
0
70
128
71
57
72
56
73
75
0
VERTEX
8
OBJECT__42
10
0
20
0
30
0
70
128
71
74
72
71
73
57
0
VERTEX
8
OBJECT__42
10
0
20
0
30
0
70
128
71
71
72
70
73
69
0
VERTEX
8
OBJECT__42
10
0
20
0
30
0
70
128
71
76
72
77
73
78
0
VERTEX
8
OBJECT__42
10
0
20
0
30
0
70
128
71
78
72
79
73
76
0
VERTEX
8
OBJECT__42
10
0
20
0
30
0
70
128
71
68
72
80
73
77
0
VERTEX
8
OBJECT__42
10
0
20
0
30
0
70
128
71
77
72
76
73
68
0
VERTEX
8
OBJECT__42
10
0
20
0
30
0
70
128
71
68
72
81
73
80
0
VERTEX
8
OBJECT__42
10
0
20
0
30
0
70
128
71
82
72
83
73
84
0
VERTEX
8
OBJECT__42
10
0
20
0
30
0
70
128
71
82
72
85
73
86
0
VERTEX
8
OBJECT__42
10
0
20
0
30
0
70
128
71
82
72
87
73
88
0
VERTEX
8
OBJECT__42
10
0
20
0
30
0
70
128
71
88
72
85
73
82
0
VERTEX
8
OBJECT__42
10
0
20
0
30
0
70
128
71
86
72
83
73
82
0
VERTEX
8
OBJECT__42
10
0
20
0
30
0
70
128
71
84
72
89
73
82
0
VERTEX
8
OBJECT__42
10
0
20
0
30
0
70
128
71
90
72
82
73
89
0
VERTEX
8
OBJECT__42
10
0
20
0
30
0
70
128
71
90
72
91
73
92
0
VERTEX
8
OBJECT__42
10
0
20
0
30
0
70
128
71
90
72
93
73
94
0
VERTEX
8
OBJECT__42
10
0
20
0
30
0
70
128
71
94
72
91
73
90
0
VERTEX
8
OBJECT__42
10
0
20
0
30
0
70
128
71
90
72
95
73
93
0
VERTEX
8
OBJECT__42
10
0
20
0
30
0
70
128
71
92
72
96
73
90
0
VERTEX
8
OBJECT__42
10
0
20
0
30
0
70
128
71
97
72
98
73
99
0
VERTEX
8
OBJECT__42
10
0
20
0
30
0
70
128
71
100
72
101
73
97
0
VERTEX
8
OBJECT__42
10
0
20
0
30
0
70
128
71
97
72
96
73
100
0
VERTEX
8
OBJECT__42
10
0
20
0
30
0
70
128
71
96
72
102
73
103
0
VERTEX
8
OBJECT__42
10
0
20
0
30
0
70
128
71
96
72
104
73
105
0
VERTEX
8
OBJECT__42
10
0
20
0
30
0
70
128
71
105
72
102
73
96
0
VERTEX
8
OBJECT__42
10
0
20
0
30
0
70
128
71
96
72
92
73
106
0
VERTEX
8
OBJECT__42
10
0
20
0
30
0
70
128
71
106
72
104
73
96
0
VERTEX
8
OBJECT__42
10
0
20
0
30
0
70
128
71
103
72
100
73
96
0
VERTEX
8
OBJECT__42
10
0
20
0
30
0
70
128
71
101
72
98
73
97
0
VERTEX
8
OBJECT__42
10
0
20
0
30
0
70
128
71
107
72
108
73
109
0
VERTEX
8
OBJECT__42
10
0
20
0
30
0
70
128
71
110
72
111
73
112
0
VERTEX
8
OBJECT__42
10
0
20
0
30
0
70
128
71
112
72
107
73
110
0
VERTEX
8
OBJECT__42
10
0
20
0
30
0
70
128
71
111
72
113
73
114
0
VERTEX
8
OBJECT__42
10
0
20
0
30
0
70
128
71
114
72
112
73
111
0
VERTEX
8
OBJECT__42
10
0
20
0
30
0
70
128
71
115
72
113
73
111
0
VERTEX
8
OBJECT__42
10
0
20
0
30
0
70
128
71
116
72
99
73
115
0
VERTEX
8
OBJECT__42
10
0
20
0
30
0
70
128
71
111
72
116
73
115
0
VERTEX
8
OBJECT__42
10
0
20
0
30
0
70
128
71
109
72
110
73
107
0
VERTEX
8
OBJECT__42
10
0
20
0
30
0
70
128
71
99
72
116
73
97
0
VERTEX
8
OBJECT__42
10
0
20
0
30
0
70
128
71
89
72
95
73
90
0
VERTEX
8
OBJECT__42
10
0
20
0
30
0
70
128
71
87
72
76
73
88
0
VERTEX
8
OBJECT__42
10
0
20
0
30
0
70
128
71
79
72
88
73
76
0
VERTEX
8
OBJECT__42
10
0
20
0
30
0
70
128
71
67
72
81
73
68
0
VERTEX
8
OBJECT__42
10
0
20
0
30
0
70
128
71
54
72
47
73
55
0
VERTEX
8
OBJECT__42
10
0
20
0
30
0
70
128
71
50
72
58
73
47
0
VERTEX
8
OBJECT__42
10
0
20
0
30
0
70
128
71
45
72
53
73
43
0
VERTEX
8
OBJECT__42
10
0
20
0
30
0
70
128
71
41
72
39
73
37
0
VERTEX
8
OBJECT__42
10
0
20
0
30
0
70
128
71
38
72
35
73
33
0
VERTEX
8
OBJECT__42
10
0
20
0
30
0
70
128
71
34
72
26
73
32
0
VERTEX
8
OBJECT__42
10
0
20
0
30
0
70
128
71
25
72
36
73
26
0
VERTEX
8
OBJECT__42
10
0
20
0
30
0
70
128
71
17
72
22
73
12
0
VERTEX
8
OBJECT__42
10
0
20
0
30
0
70
128
71
6
72
21
73
1
0
SEQEND
8
OBJECT__42
0
POLYLINE
8
OBJECT__43
66
1
70
64
71
15
72
13
62
253
0
VERTEX
8
OBJECT__43
10
-13.500000
20
-17.502001
30
0.000000
70
192
0
VERTEX
8
OBJECT__43
10
-13.500000
20
-17.502001
30
40.000000
70
192
0
VERTEX
8
OBJECT__43
10
-13.500000
20
-4.605000
30
0.000000
70
192
0
VERTEX
8
OBJECT__43
10
-13.500000
20
17.497999
30
40.000000
70
192
0
VERTEX
8
OBJECT__43
10
-13.500000
20
4.605000
30
0.000000
70
192
0
VERTEX
8
OBJECT__43
10
-13.500000
20
-29.058001
30
0.000000
70
192
0
VERTEX
8
OBJECT__43
10
-13.500000
20
-5.739000
30
-21.454000
70
192
0
VERTEX
8
OBJECT__43
10
-13.500000
20
-6.246000
30
-22.624001
70
192
0
VERTEX
8
OBJECT__43
10
-13.500000
20
29.058001
30
0.000000
70
192
0
VERTEX
8
OBJECT__43
10
-13.500000
20
6.303000
30
-22.754999
70
192
0
VERTEX
8
OBJECT__43
10
-13.500000
20
6.248000
30
-22.638000
70
192
0
VERTEX
8
OBJECT__43
10
-13.500000
20
-4.605000
30
-19.153000
70
192
0
VERTEX
8
OBJECT__43
10
-13.500000
20
17.497999
30
0.000000
70
192
0
VERTEX
8
OBJECT__43
10
-13.500000
20
4.605000
30
-19.153000
70
192
0
VERTEX
8
OBJECT__43
10
-13.500000
20
-6.303000
30
-22.754999
70
192
0
VERTEX
8
OBJECT__43
10
0
20
0
30
0
70
128
71
1
72
2
73
3
0
VERTEX
8
OBJECT__43
10
0
20
0
30
0
70
128
71
4
72
5
73
3
0
VERTEX
8
OBJECT__43
10
0
20
0
30
0
70
128
71
6
72
7
73
8
0
VERTEX
8
OBJECT__43
10
0
20
0
30
0
70
128
71
7
72
6
73
1
0
VERTEX
8
OBJECT__43
10
0
20
0
30
0
70
128
71
9
72
10
73
11
0
VERTEX
8
OBJECT__43
10
0
20
0
30
0
70
128
71
3
72
2
73
4
0
VERTEX
8
OBJECT__43
10
0
20
0
30
0
70
128
71
1
72
12
73
7
0
VERTEX
8
OBJECT__43
10
0
20
0
30
0
70
128
71
11
72
13
73
9
0
VERTEX
8
OBJECT__43
10
0
20
0
30
0
70
128
71
11
72
14
73
13
0
VERTEX
8
OBJECT__43
10
0
20
0
30
0
70
128
71
13
72
14
73
5
0
VERTEX
8
OBJECT__43
10
0
20
0
30
0
70
128
71
8
72
15
73
6
0
VERTEX
8
OBJECT__43
10
0
20
0
30
0
70
128
71
5
72
4
73
13
0
VERTEX
8
OBJECT__43
10
0
20
0
30
0
70
128
71
3
72
12
73
1
0
SEQEND
8
OBJECT__43
0
POLYLINE
8
OBJECT__44
66
1
70
64
71
36
72
34
62
253
0
VERTEX
8
OBJECT__44
10
12.163000
20
23.356001
30
40.000000
70
192
0
VERTEX
8
OBJECT__44
10
13.500000
20
17.497999
30
40.000000
70
192
0
VERTEX
8
OBJECT__44
10
13.500000
20
17.497999
30
26.634001
70
192
0
VERTEX
8
OBJECT__44
10
13.381000
20
19.254000
30
25.393999
70
192
0
VERTEX
8
OBJECT__44
10
13.376000
20
19.325001
30
25.344000
70
192
0
VERTEX
8
OBJECT__44
10
13.281000
20
19.919001
30
24.882999
70
192
0
VERTEX
8
OBJECT__44
10
12.650000
20
22.214001
30
22.881001
70
192
0
VERTEX
8
OBJECT__44
10
8.417000
20
28.052999
30
40.000000
70
192
0
VERTEX
8
OBJECT__44
10
10.260000
20
26.271999
30
18.186001
70
192
0
VERTEX
8
OBJECT__44
10
10.223000
20
26.308001
30
18.129999
70
192
0
VERTEX
8
OBJECT__44
10
8.457000
20
28.021000
30
15.453000
70
192
0
VERTEX
8
OBJECT__44
10
11.654000
20
24.312000
30
20.677000
70
192
0
VERTEX
8
OBJECT__44
10
11.177000
20
25.070000
30
19.771999
70
192
0
VERTEX
8
OBJECT__44
10
12.118000
20
23.334000
30
21.704000
70
192
0
VERTEX
8
OBJECT__44
10
2.951000
20
30.464001
30
12.966000
70
192
0
VERTEX
8
OBJECT__44
10
3.004000
20
30.660000
30
40.000000
70
192
0
VERTEX
8
OBJECT__44
10
6.310000
20
29.433001
30
12.701000
70
192
0
VERTEX
8
OBJECT__44
10
8.414000
20
28.049000
30
15.399000
70
192
0
VERTEX
8
OBJECT__44
10
-3.004000
20
30.660000
30
40.000000
70
192
0
VERTEX
8
OBJECT__44
10
1.208000
20
30.944000
30
13.446000
70
192
0
VERTEX
8
OBJECT__44
10
1.609000
20
30.834000
30
13.335000
70
192
0
VERTEX
8
OBJECT__44
10
-8.417000
20
28.052999
30
40.000000
70
192
0
VERTEX
8
OBJECT__44
10
-3.579000
20
30.514999
30
13.017000
70
192
0
VERTEX
8
OBJECT__44
10
-4.716000
20
29.969999
30
12.472000
70
192
0
VERTEX
8
OBJECT__44
10
-7.912000
20
28.436001
30
10.938000
70
192
0
VERTEX
8
OBJECT__44
10
-2.996000
20
30.566999
30
13.069000
70
192
0
VERTEX
8
OBJECT__44
10
-12.163000
20
23.356001
30
40.000000
70
192
0
VERTEX
8
OBJECT__44
10
-8.347000
20
27.983999
30
10.486000
70
192
0
VERTEX
8
OBJECT__44
10
-9.957000
20
26.309000
30
8.811000
70
192
0
VERTEX
8
OBJECT__44
10
-11.243000
20
24.972000
30
7.473000
70
192
0
VERTEX
8
OBJECT__44
10
-13.500000
20
17.497999
30
40.000000
70
192
0
VERTEX
8
OBJECT__44
10
-11.976000
20
23.273001
30
5.775000
70
192
0
VERTEX
8
OBJECT__44
10
-13.080000
20
20.718000
30
3.220000
70
192
0
VERTEX
8
OBJECT__44
10
-13.148000
20
20.559000
30
3.061000
70
192
0
VERTEX
8
OBJECT__44
10
-13.500000
20
17.497999
30
0.000000
70
192
0
VERTEX
8
OBJECT__44
10
5.841000
20
29.669001
30
12.171000
70
192
0
VERTEX
8
OBJECT__44
10
0
20
0
30
0
70
128
71
1
72
2
73
3
0
VERTEX
8
OBJECT__44
10
0
20
0
30
0
70
128
71
3
72
4
73
1
0
VERTEX
8
OBJECT__44
10
0
20
0
30
0
70
128
71
4
72
5
73
1
0
VERTEX
8
OBJECT__44
10
0
20
0
30
0
70
128
71
5
72
6
73
1
0
VERTEX
8
OBJECT__44
10
0
20
0
30
0
70
128
71
6
72
7
73
1
0
VERTEX
8
OBJECT__44
10
0
20
0
30
0
70
128
71
8
72
9
73
10
0
VERTEX
8
OBJECT__44
10
0
20
0
30
0
70
128
71
10
72
11
73
8
0
VERTEX
8
OBJECT__44
10
0
20
0
30
0
70
128
71
8
72
12
73
13
0
VERTEX
8
OBJECT__44
10
0
20
0
30
0
70
128
71
8
72
1
73
14
0
VERTEX
8
OBJECT__44
10
0
20
0
30
0
70
128
71
14
72
12
73
8
0
VERTEX
8
OBJECT__44
10
0
20
0
30
0
70
128
71
13
72
9
73
8
0
VERTEX
8
OBJECT__44
10
0
20
0
30
0
70
128
71
15
72
16
73
17
0
VERTEX
8
OBJECT__44
10
0
20
0
30
0
70
128
71
16
72
8
73
18
0
VERTEX
8
OBJECT__44
10
0
20
0
30
0
70
128
71
18
72
17
73
16
0
VERTEX
8
OBJECT__44
10
0
20
0
30
0
70
128
71
19
72
16
73
20
0
VERTEX
8
OBJECT__44
10
0
20
0
30
0
70
128
71
16
72
15
73
21
0
VERTEX
8
OBJECT__44
10
0
20
0
30
0
70
128
71
21
72
20
73
16
0
VERTEX
8
OBJECT__44
10
0
20
0
30
0
70
128
71
22
72
23
73
24
0
VERTEX
8
OBJECT__44
10
0
20
0
30
0
70
128
71
24
72
25
73
22
0
VERTEX
8
OBJECT__44
10
0
20
0
30
0
70
128
71
19
72
26
73
23
0
VERTEX
8
OBJECT__44
10
0
20
0
30
0
70
128
71
23
72
22
73
19
0
VERTEX
8
OBJECT__44
10
0
20
0
30
0
70
128
71
27
72
22
73
28
0
VERTEX
8
OBJECT__44
10
0
20
0
30
0
70
128
71
28
72
29
73
27
0
VERTEX
8
OBJECT__44
10
0
20
0
30
0
70
128
71
29
72
30
73
27
0
VERTEX
8
OBJECT__44
10
0
20
0
30
0
70
128
71
31
72
27
73
32
0
VERTEX
8
OBJECT__44
10
0
20
0
30
0
70
128
71
32
72
33
73
31
0
VERTEX
8
OBJECT__44
10
0
20
0
30
0
70
128
71
33
72
34
73
31
0
VERTEX
8
OBJECT__44
10
0
20
0
30
0
70
128
71
34
72
35
73
31
0
VERTEX
8
OBJECT__44
10
0
20
0
30
0
70
128
71
30
72
32
73
27
0
VERTEX
8
OBJECT__44
10
0
20
0
30
0
70
128
71
25
72
28
73
22
0
VERTEX
8
OBJECT__44
10
0
20
0
30
0
70
128
71
20
72
26
73
19
0
VERTEX
8
OBJECT__44
10
0
20
0
30
0
70
128
71
17
72
36
73
15
0
VERTEX
8
OBJECT__44
10
0
20
0
30
0
70
128
71
11
72
18
73
8
0
VERTEX
8
OBJECT__44
10
0
20
0
30
0
70
128
71
7
72
14
73
1
0
SEQEND
8
OBJECT__44
0
POLYLINE
8
OBJECT__45
66
1
70
64
71
36
72
34
62
253
0
VERTEX
8
OBJECT__45
10
8.417000
20
-28.056999
30
40.000000
70
192
0
VERTEX
8
OBJECT__45
10
10.958000
20
-25.386000
30
19.374001
70
192
0
VERTEX
8
OBJECT__45
10
12.153000
20
-23.354000
30
21.723000
70
192
0
VERTEX
8
OBJECT__45
10
10.573000
20
-25.896000
30
18.704000
70
192
0
VERTEX
8
OBJECT__45
10
10.584000
20
-25.881001
30
18.723000
70
192
0
VERTEX
8
OBJECT__45
10
8.395000
20
-28.025999
30
15.398000
70
192
0
VERTEX
8
OBJECT__45
10
8.805000
20
-27.736000
30
15.942000
70
192
0
VERTEX
8
OBJECT__45
10
12.163000
20
-23.358999
30
40.000000
70
192
0
VERTEX
8
OBJECT__45
10
13.397000
20
-18.650000
30
25.802000
70
192
0
VERTEX
8
OBJECT__45
10
13.500000
20
-17.502001
30
26.632000
70
192
0
VERTEX
8
OBJECT__45
10
13.285000
20
-19.899000
30
24.899000
70
192
0
VERTEX
8
OBJECT__45
10
13.071000
20
-20.877001
30
24.091999
70
192
0
VERTEX
8
OBJECT__45
10
12.219000
20
-23.240999
30
21.853001
70
192
0
VERTEX
8
OBJECT__45
10
-13.500000
20
-17.502001
30
40.000000
70
192
0
VERTEX
8
OBJECT__45
10
-12.645000
20
-22.231001
30
4.729000
70
192
0
VERTEX
8
OBJECT__45
10
-12.022000
20
-23.277000
30
5.776000
70
192
0
VERTEX
8
OBJECT__45
10
-13.500000
20
-17.502001
30
0.000000
70
192
0
VERTEX
8
OBJECT__45
10
-12.922000
20
-20.697001
30
3.195000
70
192
0
VERTEX
8
OBJECT__45
10
-12.163000
20
-23.358999
30
40.000000
70
192
0
VERTEX
8
OBJECT__45
10
-10.187000
20
-26.361000
30
8.859000
70
192
0
VERTEX
8
OBJECT__45
10
-10.091000
20
-26.437000
30
8.936000
70
192
0
VERTEX
8
OBJECT__45
10
-8.417000
20
-28.056999
30
40.000000
70
192
0
VERTEX
8
OBJECT__45
10
-8.282000
20
-27.888000
30
10.387000
70
192
0
VERTEX
8
OBJECT__45
10
-4.724000
20
-29.931999
30
12.431000
70
192
0
VERTEX
8
OBJECT__45
10
-2.956000
20
-30.514999
30
13.013000
70
192
0
VERTEX
8
OBJECT__45
10
-6.438000
20
-29.368000
30
11.866000
70
192
0
VERTEX
8
OBJECT__45
10
3.004000
20
-30.663000
30
40.000000
70
192
0
VERTEX
8
OBJECT__45
10
-3.004000
20
-30.663000
30
40.000000
70
192
0
VERTEX
8
OBJECT__45
10
-1.873000
20
-30.871000
30
13.369000
70
192
0
VERTEX
8
OBJECT__45
10
1.620000
20
-30.732000
30
13.230000
70
192
0
VERTEX
8
OBJECT__45
10
2.929000
20
-30.680000
30
13.178000
70
192
0
VERTEX
8
OBJECT__45
10
6.761000
20
-29.187000
30
13.227000
70
192
0
VERTEX
8
OBJECT__45
10
6.429000
20
-29.372999
30
12.830000
70
192
0
VERTEX
8
OBJECT__45
10
3.001000
20
-30.655001
30
13.153000
70
192
0
VERTEX
8
OBJECT__45
10
5.847000
20
-29.670000
30
12.168000
70
192
0
VERTEX
8
OBJECT__45
10
13.500000
20
-17.502001
30
40.000000
70
192
0
VERTEX
8
OBJECT__45
10
0
20
0
30
0
70
128
71
1
72
2
73
3
0
VERTEX
8
OBJECT__45
10
0
20
0
30
0
70
128
71
1
72
4
73
5
0
VERTEX
8
OBJECT__45
10
0
20
0
30
0
70
128
71
1
72
6
73
7
0
VERTEX
8
OBJECT__45
10
0
20
0
30
0
70
128
71
7
72
4
73
1
0
VERTEX
8
OBJECT__45
10
0
20
0
30
0
70
128
71
5
72
2
73
1
0
VERTEX
8
OBJECT__45
10
0
20
0
30
0
70
128
71
8
72
9
73
10
0
VERTEX
8
OBJECT__45
10
0
20
0
30
0
70
128
71
8
72
11
73
9
0
VERTEX
8
OBJECT__45
10
0
20
0
30
0
70
128
71
8
72
12
73
11
0
VERTEX
8
OBJECT__45
10
0
20
0
30
0
70
128
71
8
72
13
73
12
0
VERTEX
8
OBJECT__45
10
0
20
0
30
0
70
128
71
8
72
3
73
13
0
VERTEX
8
OBJECT__45
10
0
20
0
30
0
70
128
71
14
72
15
73
16
0
VERTEX
8
OBJECT__45
10
0
20
0
30
0
70
128
71
14
72
17
73
18
0
VERTEX
8
OBJECT__45
10
0
20
0
30
0
70
128
71
18
72
15
73
14
0
VERTEX
8
OBJECT__45
10
0
20
0
30
0
70
128
71
19
72
20
73
21
0
VERTEX
8
OBJECT__45
10
0
20
0
30
0
70
128
71
21
72
22
73
19
0
VERTEX
8
OBJECT__45
10
0
20
0
30
0
70
128
71
21
72
23
73
22
0
VERTEX
8
OBJECT__45
10
0
20
0
30
0
70
128
71
19
72
16
73
20
0
VERTEX
8
OBJECT__45
10
0
20
0
30
0
70
128
71
22
72
24
73
25
0
VERTEX
8
OBJECT__45
10
0
20
0
30
0
70
128
71
22
72
26
73
24
0
VERTEX
8
OBJECT__45
10
0
20
0
30
0
70
128
71
22
72
23
73
26
0
VERTEX
8
OBJECT__45
10
0
20
0
30
0
70
128
71
27
72
28
73
29
0
VERTEX
8
OBJECT__45
10
0
20
0
30
0
70
128
71
29
72
30
73
27
0
VERTEX
8
OBJECT__45
10
0
20
0
30
0
70
128
71
30
72
31
73
27
0
VERTEX
8
OBJECT__45
10
0
20
0
30
0
70
128
71
28
72
25
73
29
0
VERTEX
8
OBJECT__45
10
0
20
0
30
0
70
128
71
27
72
32
73
6
0
VERTEX
8
OBJECT__45
10
0
20
0
30
0
70
128
71
27
72
33
73
32
0
VERTEX
8
OBJECT__45
10
0
20
0
30
0
70
128
71
34
72
35
73
33
0
VERTEX
8
OBJECT__45
10
0
20
0
30
0
70
128
71
33
72
27
73
34
0
VERTEX
8
OBJECT__45
10
0
20
0
30
0
70
128
71
6
72
1
73
27
0
VERTEX
8
OBJECT__45
10
0
20
0
30
0
70
128
71
31
72
34
73
27
0
VERTEX
8
OBJECT__45
10
0
20
0
30
0
70
128
71
25
72
28
73
22
0
VERTEX
8
OBJECT__45
10
0
20
0
30
0
70
128
71
16
72
19
73
14
0
VERTEX
8
OBJECT__45
10
0
20
0
30
0
70
128
71
10
72
36
73
8
0
VERTEX
8
OBJECT__45
10
0
20
0
30
0
70
128
71
3
72
8
73
1
0
SEQEND
8
OBJECT__45
0
POLYLINE
8
OBJECT__46
66
1
70
64
71
7
72
5
62
253
0
VERTEX
8
OBJECT__46
10
13.500000
20
-17.502001
30
40.000000
70
192
0
VERTEX
8
OBJECT__46
10
13.500000
20
-9.637000
30
30.375999
70
192
0
VERTEX
8
OBJECT__46
10
13.500000
20
0.364000
30
31.865999
70
192
0
VERTEX
8
OBJECT__46
10
13.500000
20
17.497999
30
40.000000
70
192
0
VERTEX
8
OBJECT__46
10
13.500000
20
10.329000
30
30.146999
70
192
0
VERTEX
8
OBJECT__46
10
13.500000
20
-17.502001
30
26.632000
70
192
0
VERTEX
8
OBJECT__46
10
13.500000
20
17.497999
30
26.634001
70
192
0
VERTEX
8
OBJECT__46
10
0
20
0
30
0
70
128
71
1
72
2
73
3
0
VERTEX
8
OBJECT__46
10
0
20
0
30
0
70
128
71
4
72
3
73
5
0
VERTEX
8
OBJECT__46
10
0
20
0
30
0
70
128
71
1
72
6
73
2
0
VERTEX
8
OBJECT__46
10
0
20
0
30
0
70
128
71
3
72
4
73
1
0
VERTEX
8
OBJECT__46
10
0
20
0
30
0
70
128
71
5
72
7
73
4
0
SEQEND
8
OBJECT__46
0
POLYLINE
8
OBJECT__47
66
1
70
64
71
61
72
61
62
253
0
VERTEX
8
OBJECT__47
10
-10.105000
20
-38.500000
30
-8.952000
70
192
0
VERTEX
8
OBJECT__47
10
-13.108000
20
-38.500000
30
-3.231000
70
192
0
VERTEX
8
OBJECT__47
10
-10.634000
20
-32.502998
30
-8.317000
70
192
0
VERTEX
8
OBJECT__47
10
-13.065000
20
-30.466000
30
-3.399000
70
192
0
VERTEX
8
OBJECT__47
10
-11.878000
20
-31.461000
30
-5.801000
70
192
0
VERTEX
8
OBJECT__47
10
-13.087000
20
-30.395000
30
-3.228000
70
192
0
VERTEX
8
OBJECT__47
10
-8.124000
20
-33.382999
30
-10.442000
70
192
0
VERTEX
8
OBJECT__47
10
-6.446000
20
-33.971001
30
-11.862000
70
192
0
VERTEX
8
OBJECT__47
10
-10.012000
20
-32.721001
30
-8.843000
70
192
0
VERTEX
8
OBJECT__47
10
-4.787000
20
-38.500000
30
-12.623000
70
192
0
VERTEX
8
OBJECT__47
10
-2.715000
20
-34.438000
30
-12.988000
70
192
0
VERTEX
8
OBJECT__47
10
-1.193000
20
-34.627998
30
-13.447000
70
192
0
VERTEX
8
OBJECT__47
10
-4.715000
20
-34.188000
30
-12.384000
70
192
0
VERTEX
8
OBJECT__47
10
1.627000
20
-38.500000
30
-13.402000
70
192
0
VERTEX
8
OBJECT__47
10
3.279000
20
-34.411999
30
-12.925000
70
192
0
VERTEX
8
OBJECT__47
10
4.257000
20
-34.365002
30
-12.811000
70
192
0
VERTEX
8
OBJECT__47
10
1.595000
20
-34.493000
30
-13.122000
70
192
0
VERTEX
8
OBJECT__47
10
7.669000
20
-38.500000
30
-11.110000
70
192
0
VERTEX
8
OBJECT__47
10
8.672000
20
-33.304001
30
-10.251000
70
192
0
VERTEX
8
OBJECT__47
10
9.003000
20
-33.224998
30
-10.059000
70
192
0
VERTEX
8
OBJECT__47
10
7.548000
20
-33.574001
30
-10.903000
70
192
0
VERTEX
8
OBJECT__47
10
11.954000
20
-38.500000
30
-6.274000
70
192
0
VERTEX
8
OBJECT__47
10
13.500000
20
-38.500000
30
0.000000
70
192
0
VERTEX
8
OBJECT__47
10
13.413000
20
-31.833000
30
-1.531000
70
192
0
VERTEX
8
OBJECT__47
10
13.438000
20
-31.843000
30
-0.351000
70
192
0
VERTEX
8
OBJECT__47
10
13.094000
20
-31.709000
30
-3.286000
70
192
0
VERTEX
8
OBJECT__47
10
11.853000
20
-31.625999
30
-6.200000
70
192
0
VERTEX
8
OBJECT__47
10
12.263000
20
-31.396999
30
-5.646000
70
192
0
VERTEX
8
OBJECT__47
10
11.954000
20
-38.500000
30
6.274000
70
192
0
VERTEX
8
OBJECT__47
10
13.214000
20
-31.754999
30
2.764000
70
192
0
VERTEX
8
OBJECT__47
10
12.468000
20
-31.472000
30
5.177000
70
192
0
VERTEX
8
OBJECT__47
10
13.465000
20
-31.854000
30
0.968000
70
192
0
VERTEX
8
OBJECT__47
10
13.445000
20
-31.846001
30
0.001000
70
192
0
VERTEX
8
OBJECT__47
10
7.669000
20
-38.500000
30
11.110000
70
192
0
VERTEX
8
OBJECT__47
10
9.374000
20
-30.469000
30
9.681000
70
192
0
VERTEX
8
OBJECT__47
10
9.009000
20
-30.364000
30
10.054000
70
192
0
VERTEX
8
OBJECT__47
10
10.246000
20
-30.719999
30
8.790000
70
192
0
VERTEX
8
OBJECT__47
10
11.730000
20
-31.205999
30
6.683000
70
192
0
VERTEX
8
OBJECT__47
10
11.935000
20
-31.280001
30
6.265000
70
192
0
VERTEX
8
OBJECT__47
10
3.001000
20
-30.655001
30
13.153000
70
192
0
VERTEX
8
OBJECT__47
10
2.929000
20
-30.680000
30
13.178000
70
192
0
VERTEX
8
OBJECT__47
10
6.955000
20
-29.877001
30
11.571000
70
192
0
VERTEX
8
OBJECT__47
10
5.847000
20
-29.670000
30
12.168000
70
192
0
VERTEX
8
OBJECT__47
10
7.637000
20
-30.039000
30
11.067000
70
192
0
VERTEX
8
OBJECT__47
10
1.627000
20
-38.500000
30
13.402000
70
192
0
VERTEX
8
OBJECT__47
10
-4.787000
20
-38.500000
30
12.623000
70
192
0
VERTEX
8
OBJECT__47
10
-1.873000
20
-30.871000
30
13.369000
70
192
0
VERTEX
8
OBJECT__47
10
-2.956000
20
-30.514999
30
13.013000
70
192
0
VERTEX
8
OBJECT__47
10
1.620000
20
-30.732000
30
13.230000
70
192
0
VERTEX
8
OBJECT__47
10
-10.105000
20
-38.500000
30
8.952000
70
192
0
VERTEX
8
OBJECT__47
10
-6.438000
20
-29.368000
30
11.866000
70
192
0
VERTEX
8
OBJECT__47
10
-8.282000
20
-27.888000
30
10.387000
70
192
0
VERTEX
8
OBJECT__47
10
-4.724000
20
-29.931999
30
12.431000
70
192
0
VERTEX
8
OBJECT__47
10
-13.108000
20
-38.500000
30
3.231000
70
192
0
VERTEX
8
OBJECT__47
10
-10.187000
20
-26.361000
30
8.859000
70
192
0
VERTEX
8
OBJECT__47
10
-12.022000
20
-23.277000
30
5.776000
70
192
0
VERTEX
8
OBJECT__47
10
-12.645000
20
-22.231001
30
4.729000
70
192
0
VERTEX
8
OBJECT__47
10
-10.091000
20
-26.437000
30
8.936000
70
192
0
VERTEX
8
OBJECT__47
10
-13.500000
20
-29.058001
30
0.000000
70
192
0
VERTEX
8
OBJECT__47
10
-12.922000
20
-20.697001
30
3.195000
70
192
0
VERTEX
8
OBJECT__47
10
-13.500000
20
-17.502001
30
0.000000
70
192
0
VERTEX
8
OBJECT__47
10
0
20
0
30
0
70
128
71
1
72
2
73
3
0
VERTEX
8
OBJECT__47
10
0
20
0
30
0
70
128
71
2
72
4
73
5
0
VERTEX
8
OBJECT__47
10
0
20
0
30
0
70
128
71
2
72
6
73
4
0
VERTEX
8
OBJECT__47
10
0
20
0
30
0
70
128
71
5
72
3
73
2
0
VERTEX
8
OBJECT__47
10
0
20
0
30
0
70
128
71
1
72
7
73
8
0
VERTEX
8
OBJECT__47
10
0
20
0
30
0
70
128
71
1
72
9
73
7
0
VERTEX
8
OBJECT__47
10
0
20
0
30
0
70
128
71
8
72
10
73
1
0
VERTEX
8
OBJECT__47
10
0
20
0
30
0
70
128
71
10
72
11
73
12
0
VERTEX
8
OBJECT__47
10
0
20
0
30
0
70
128
71
10
72
13
73
11
0
VERTEX
8
OBJECT__47
10
0
20
0
30
0
70
128
71
12
72
14
73
10
0
VERTEX
8
OBJECT__47
10
0
20
0
30
0
70
128
71
14
72
15
73
16
0
VERTEX
8
OBJECT__47
10
0
20
0
30
0
70
128
71
14
72
17
73
15
0
VERTEX
8
OBJECT__47
10
0
20
0
30
0
70
128
71
16
72
18
73
14
0
VERTEX
8
OBJECT__47
10
0
20
0
30
0
70
128
71
18
72
19
73
20
0
VERTEX
8
OBJECT__47
10
0
20
0
30
0
70
128
71
18
72
21
73
19
0
VERTEX
8
OBJECT__47
10
0
20
0
30
0
70
128
71
20
72
22
73
18
0
VERTEX
8
OBJECT__47
10
0
20
0
30
0
70
128
71
23
72
24
73
25
0
VERTEX
8
OBJECT__47
10
0
20
0
30
0
70
128
71
23
72
22
73
26
0
VERTEX
8
OBJECT__47
10
0
20
0
30
0
70
128
71
22
72
27
73
28
0
VERTEX
8
OBJECT__47
10
0
20
0
30
0
70
128
71
28
72
26
73
22
0
VERTEX
8
OBJECT__47
10
0
20
0
30
0
70
128
71
26
72
24
73
23
0
VERTEX
8
OBJECT__47
10
0
20
0
30
0
70
128
71
29
72
30
73
31
0
VERTEX
8
OBJECT__47
10
0
20
0
30
0
70
128
71
23
72
32
73
30
0
VERTEX
8
OBJECT__47
10
0
20
0
30
0
70
128
71
30
72
29
73
23
0
VERTEX
8
OBJECT__47
10
0
20
0
30
0
70
128
71
23
72
33
73
32
0
VERTEX
8
OBJECT__47
10
0
20
0
30
0
70
128
71
34
72
35
73
36
0
VERTEX
8
OBJECT__47
10
0
20
0
30
0
70
128
71
34
72
37
73
35
0
VERTEX
8
OBJECT__47
10
0
20
0
30
0
70
128
71
34
72
29
73
38
0
VERTEX
8
OBJECT__47
10
0
20
0
30
0
70
128
71
38
72
37
73
34
0
VERTEX
8
OBJECT__47
10
0
20
0
30
0
70
128
71
29
72
39
73
38
0
VERTEX
8
OBJECT__47
10
0
20
0
30
0
70
128
71
34
72
40
73
41
0
VERTEX
8
OBJECT__47
10
0
20
0
30
0
70
128
71
34
72
42
73
43
0
VERTEX
8
OBJECT__47
10
0
20
0
30
0
70
128
71
34
72
44
73
42
0
VERTEX
8
OBJECT__47
10
0
20
0
30
0
70
128
71
43
72
40
73
34
0
VERTEX
8
OBJECT__47
10
0
20
0
30
0
70
128
71
41
72
45
73
34
0
VERTEX
8
OBJECT__47
10
0
20
0
30
0
70
128
71
46
72
47
73
48
0
VERTEX
8
OBJECT__47
10
0
20
0
30
0
70
128
71
45
72
49
73
47
0
VERTEX
8
OBJECT__47
10
0
20
0
30
0
70
128
71
47
72
46
73
45
0
VERTEX
8
OBJECT__47
10
0
20
0
30
0
70
128
71
50
72
51
73
52
0
VERTEX
8
OBJECT__47
10
0
20
0
30
0
70
128
71
50
72
46
73
53
0
VERTEX
8
OBJECT__47
10
0
20
0
30
0
70
128
71
53
72
51
73
50
0
VERTEX
8
OBJECT__47
10
0
20
0
30
0
70
128
71
54
72
55
73
56
0
VERTEX
8
OBJECT__47
10
0
20
0
30
0
70
128
71
56
72
57
73
54
0
VERTEX
8
OBJECT__47
10
0
20
0
30
0
70
128
71
54
72
50
73
58
0
VERTEX
8
OBJECT__47
10
0
20
0
30
0
70
128
71
58
72
55
73
54
0
VERTEX
8
OBJECT__47
10
0
20
0
30
0
70
128
71
54
72
59
73
6
0
VERTEX
8
OBJECT__47
10
0
20
0
30
0
70
128
71
60
72
61
73
59
0
VERTEX
8
OBJECT__47
10
0
20
0
30
0
70
128
71
59
72
54
73
60
0
VERTEX
8
OBJECT__47
10
0
20
0
30
0
70
128
71
6
72
2
73
54
0
VERTEX
8
OBJECT__47
10
0
20
0
30
0
70
128
71
57
72
60
73
54
0
VERTEX
8
OBJECT__47
10
0
20
0
30
0
70
128
71
52
72
58
73
50
0
VERTEX
8
OBJECT__47
10
0
20
0
30
0
70
128
71
48
72
53
73
46
0
VERTEX
8
OBJECT__47
10
0
20
0
30
0
70
128
71
41
72
49
73
45
0
VERTEX
8
OBJECT__47
10
0
20
0
30
0
70
128
71
36
72
44
73
34
0
VERTEX
8
OBJECT__47
10
0
20
0
30
0
70
128
71
31
72
39
73
29
0
VERTEX
8
OBJECT__47
10
0
20
0
30
0
70
128
71
25
72
33
73
23
0
VERTEX
8
OBJECT__47
10
0
20
0
30
0
70
128
71
20
72
27
73
22
0
VERTEX
8
OBJECT__47
10
0
20
0
30
0
70
128
71
16
72
21
73
18
0
VERTEX
8
OBJECT__47
10
0
20
0
30
0
70
128
71
12
72
17
73
14
0
VERTEX
8
OBJECT__47
10
0
20
0
30
0
70
128
71
8
72
13
73
10
0
VERTEX
8
OBJECT__47
10
0
20
0
30
0
70
128
71
3
72
9
73
1
0
SEQEND
8
OBJECT__47
0
POLYLINE
8
OBJECT__48
66
1
70
64
71
23
72
23
62
253
0
VERTEX
8
OBJECT__48
10
7.669000
20
-38.500000
30
11.110000
70
192
0
VERTEX
8
OBJECT__48
10
2.879000
20
-38.500000
30
8.860000
70
192
0
VERTEX
8
OBJECT__48
10
7.536000
20
-38.500000
30
5.476000
70
192
0
VERTEX
8
OBJECT__48
10
11.954000
20
-38.500000
30
6.274000
70
192
0
VERTEX
8
OBJECT__48
10
1.627000
20
-38.500000
30
13.402000
70
192
0
VERTEX
8
OBJECT__48
10
-4.787000
20
-38.500000
30
12.623000
70
192
0
VERTEX
8
OBJECT__48
10
-2.879000
20
-38.500000
30
8.860000
70
192
0
VERTEX
8
OBJECT__48
10
9.316000
20
-38.500000
30
0.000000
70
192
0
VERTEX
8
OBJECT__48
10
-10.105000
20
-38.500000
30
8.952000
70
192
0
VERTEX
8
OBJECT__48
10
-7.536000
20
-38.500000
30
5.476000
70
192
0
VERTEX
8
OBJECT__48
10
-13.108000
20
-38.500000
30
3.231000
70
192
0
VERTEX
8
OBJECT__48
10
-9.315000
20
-38.500000
30
0.000000
70
192
0
VERTEX
8
OBJECT__48
10
-13.108000
20
-38.500000
30
-3.231000
70
192
0
VERTEX
8
OBJECT__48
10
-10.105000
20
-38.500000
30
-8.952000
70
192
0
VERTEX
8
OBJECT__48
10
-7.536000
20
-38.500000
30
-5.476000
70
192
0
VERTEX
8
OBJECT__48
10
-4.787000
20
-38.500000
30
-12.623000
70
192
0
VERTEX
8
OBJECT__48
10
-2.879000
20
-38.500000
30
-8.860000
70
192
0
VERTEX
8
OBJECT__48
10
7.669000
20
-38.500000
30
-11.110000
70
192
0
VERTEX
8
OBJECT__48
10
11.954000
20
-38.500000
30
-6.274000
70
192
0
VERTEX
8
OBJECT__48
10
7.536000
20
-38.500000
30
-5.476000
70
192
0
VERTEX
8
OBJECT__48
10
2.879000
20
-38.500000
30
-8.860000
70
192
0
VERTEX
8
OBJECT__48
10
1.627000
20
-38.500000
30
-13.402000
70
192
0
VERTEX
8
OBJECT__48
10
13.500000
20
-38.500000
30
0.000000
70
192
0
VERTEX
8
OBJECT__48
10
0
20
0
30
0
70
128
71
1
72
2
73
3
0
VERTEX
8
OBJECT__48
10
0
20
0
30
0
70
128
71
3
72
4
73
1
0
VERTEX
8
OBJECT__48
10
0
20
0
30
0
70
128
71
5
72
6
73
7
0
VERTEX
8
OBJECT__48
10
0
20
0
30
0
70
128
71
4
72
3
73
8
0
VERTEX
8
OBJECT__48
10
0
20
0
30
0
70
128
71
7
72
2
73
5
0
VERTEX
8
OBJECT__48
10
0
20
0
30
0
70
128
71
1
72
5
73
2
0
VERTEX
8
OBJECT__48
10
0
20
0
30
0
70
128
71
9
72
10
73
7
0
VERTEX
8
OBJECT__48
10
0
20
0
30
0
70
128
71
11
72
12
73
10
0
VERTEX
8
OBJECT__48
10
0
20
0
30
0
70
128
71
7
72
6
73
9
0
VERTEX
8
OBJECT__48
10
0
20
0
30
0
70
128
71
10
72
9
73
11
0
VERTEX
8
OBJECT__48
10
0
20
0
30
0
70
128
71
13
72
14
73
15
0
VERTEX
8
OBJECT__48
10
0
20
0
30
0
70
128
71
14
72
16
73
17
0
VERTEX
8
OBJECT__48
10
0
20
0
30
0
70
128
71
18
72
19
73
20
0
VERTEX
8
OBJECT__48
10
0
20
0
30
0
70
128
71
11
72
13
73
12
0
VERTEX
8
OBJECT__48
10
0
20
0
30
0
70
128
71
17
72
15
73
14
0
VERTEX
8
OBJECT__48
10
0
20
0
30
0
70
128
71
21
72
22
73
18
0
VERTEX
8
OBJECT__48
10
0
20
0
30
0
70
128
71
19
72
23
73
8
0
VERTEX
8
OBJECT__48
10
0
20
0
30
0
70
128
71
15
72
12
73
13
0
VERTEX
8
OBJECT__48
10
0
20
0
30
0
70
128
71
22
72
21
73
17
0
VERTEX
8
OBJECT__48
10
0
20
0
30
0
70
128
71
8
72
20
73
19
0
VERTEX
8
OBJECT__48
10
0
20
0
30
0
70
128
71
17
72
16
73
22
0
VERTEX
8
OBJECT__48
10
0
20
0
30
0
70
128
71
8
72
23
73
4
0
VERTEX
8
OBJECT__48
10
0
20
0
30
0
70
128
71
20
72
21
73
18
0
SEQEND
8
OBJECT__48
0
POLYLINE
8
OBJECT__49
66
1
70
64
71
21
72
21
62
253
0
VERTEX
8
OBJECT__49
10
7.536000
20
-38.500000
30
5.476000
70
192
0
VERTEX
8
OBJECT__49
10
7.536000
20
-23.500000
30
5.476000
70
192
0
VERTEX
8
OBJECT__49
10
9.316000
20
-23.500000
30
0.000000
70
192
0
VERTEX
8
OBJECT__49
10
2.879000
20
-38.500000
30
8.860000
70
192
0
VERTEX
8
OBJECT__49
10
2.879000
20
-23.500000
30
8.860000
70
192
0
VERTEX
8
OBJECT__49
10
-2.879000
20
-38.500000
30
8.860000
70
192
0
VERTEX
8
OBJECT__49
10
-2.879000
20
-23.500000
30
8.860000
70
192
0
VERTEX
8
OBJECT__49
10
-7.536000
20
-38.500000
30
5.476000
70
192
0
VERTEX
8
OBJECT__49
10
-7.536000
20
-23.500000
30
5.476000
70
192
0
VERTEX
8
OBJECT__49
10
-9.315000
20
-38.500000
30
0.000000
70
192
0
VERTEX
8
OBJECT__49
10
-9.315000
20
-23.500000
30
0.000000
70
192
0
VERTEX
8
OBJECT__49
10
-7.536000
20
-38.500000
30
-5.476000
70
192
0
VERTEX
8
OBJECT__49
10
-7.536000
20
-23.500000
30
-5.476000
70
192
0
VERTEX
8
OBJECT__49
10
-2.879000
20
-38.500000
30
-8.860000
70
192
0
VERTEX
8
OBJECT__49
10
-2.879000
20
-23.500000
30
-8.860000
70
192
0
VERTEX
8
OBJECT__49
10
2.879000
20
-38.500000
30
-8.860000
70
192
0
VERTEX
8
OBJECT__49
10
0.000000
20
-23.500000
30
-9.316000
70
192
0
VERTEX
8
OBJECT__49
10
2.879000
20
-23.500000
30
-8.860000
70
192
0
VERTEX
8
OBJECT__49
10
7.536000
20
-38.500000
30
-5.476000
70
192
0
VERTEX
8
OBJECT__49
10
7.536000
20
-23.500000
30
-5.476000
70
192
0
VERTEX
8
OBJECT__49
10
9.316000
20
-38.500000
30
0.000000
70
192
0
VERTEX
8
OBJECT__49
10
0
20
0
30
0
70
128
71
1
72
2
73
3
0
VERTEX
8
OBJECT__49
10
0
20
0
30
0
70
128
71
4
72
5
73
2
0
VERTEX
8
OBJECT__49
10
0
20
0
30
0
70
128
71
6
72
7
73
5
0
VERTEX
8
OBJECT__49
10
0
20
0
30
0
70
128
71
8
72
9
73
7
0
VERTEX
8
OBJECT__49
10
0
20
0
30
0
70
128
71
10
72
11
73
9
0
VERTEX
8
OBJECT__49
10
0
20
0
30
0
70
128
71
12
72
13
73
11
0
VERTEX
8
OBJECT__49
10
0
20
0
30
0
70
128
71
14
72
15
73
13
0
VERTEX
8
OBJECT__49
10
0
20
0
30
0
70
128
71
14
72
16
73
17
0
VERTEX
8
OBJECT__49
10
0
20
0
30
0
70
128
71
16
72
18
73
17
0
VERTEX
8
OBJECT__49
10
0
20
0
30
0
70
128
71
19
72
20
73
18
0
VERTEX
8
OBJECT__49
10
0
20
0
30
0
70
128
71
21
72
3
73
20
0
VERTEX
8
OBJECT__49
10
0
20
0
30
0
70
128
71
20
72
19
73
21
0
VERTEX
8
OBJECT__49
10
0
20
0
30
0
70
128
71
18
72
16
73
19
0
VERTEX
8
OBJECT__49
10
0
20
0
30
0
70
128
71
17
72
15
73
14
0
VERTEX
8
OBJECT__49
10
0
20
0
30
0
70
128
71
13
72
12
73
14
0
VERTEX
8
OBJECT__49
10
0
20
0
30
0
70
128
71
11
72
10
73
12
0
VERTEX
8
OBJECT__49
10
0
20
0
30
0
70
128
71
9
72
8
73
10
0
VERTEX
8
OBJECT__49
10
0
20
0
30
0
70
128
71
7
72
6
73
8
0
VERTEX
8
OBJECT__49
10
0
20
0
30
0
70
128
71
5
72
4
73
6
0
VERTEX
8
OBJECT__49
10
0
20
0
30
0
70
128
71
2
72
1
73
4
0
VERTEX
8
OBJECT__49
10
0
20
0
30
0
70
128
71
3
72
21
73
1
0
SEQEND
8
OBJECT__49
0
POLYLINE
8
OBJECT__50
66
1
70
64
71
11
72
9
62
253
0
VERTEX
8
OBJECT__50
10
-2.879000
20
-23.500000
30
-8.860000
70
192
0
VERTEX
8
OBJECT__50
10
-7.536000
20
-23.500000
30
5.476000
70
192
0
VERTEX
8
OBJECT__50
10
-9.315000
20
-23.500000
30
0.000000
70
192
0
VERTEX
8
OBJECT__50
10
2.879000
20
-23.500000
30
8.860000
70
192
0
VERTEX
8
OBJECT__50
10
7.536000
20
-23.500000
30
-5.476000
70
192
0
VERTEX
8
OBJECT__50
10
9.316000
20
-23.500000
30
0.000000
70
192
0
VERTEX
8
OBJECT__50
10
-2.879000
20
-23.500000
30
8.860000
70
192
0
VERTEX
8
OBJECT__50
10
2.879000
20
-23.500000
30
-8.860000
70
192
0
VERTEX
8
OBJECT__50
10
0.000000
20
-23.500000
30
-9.316000
70
192
0
VERTEX
8
OBJECT__50
10
-7.536000
20
-23.500000
30
-5.476000
70
192
0
VERTEX
8
OBJECT__50
10
7.536000
20
-23.500000
30
5.476000
70
192
0
VERTEX
8
OBJECT__50
10
0
20
0
30
0
70
128
71
1
72
2
73
3
0
VERTEX
8
OBJECT__50
10
0
20
0
30
0
70
128
71
4
72
5
73
6
0
VERTEX
8
OBJECT__50
10
0
20
0
30
0
70
128
71
1
72
7
73
2
0
VERTEX
8
OBJECT__50
10
0
20
0
30
0
70
128
71
4
72
8
73
5
0
VERTEX
8
OBJECT__50
10
0
20
0
30
0
70
128
71
1
72
4
73
7
0
VERTEX
8
OBJECT__50
10
0
20
0
30
0
70
128
71
4
72
9
73
8
0
VERTEX
8
OBJECT__50
10
0
20
0
30
0
70
128
71
3
72
10
73
1
0
VERTEX
8
OBJECT__50
10
0
20
0
30
0
70
128
71
1
72
9
73
4
0
VERTEX
8
OBJECT__50
10
0
20
0
30
0
70
128
71
6
72
11
73
4
0
SEQEND
8
OBJECT__50
0
POLYLINE
8
OBJECT__51
66
1
70
64
71
36
72
38
62
253
0
VERTEX
8
OBJECT__51
10
-2.879000
20
8.640000
30
40.000000
70
192
0
VERTEX
8
OBJECT__51
10
-2.879000
20
-8.640000
30
40.000000
70
192
0
VERTEX
8
OBJECT__51
10
2.879000
20
-8.640000
30
40.000000
70
192
0
VERTEX
8
OBJECT__51
10
2.879000
20
8.640000
30
40.000000
70
192
0
VERTEX
8
OBJECT__51
10
8.417000
20
28.052999
30
40.000000
70
192
0
VERTEX
8
OBJECT__51
10
3.004000
20
30.660000
30
40.000000
70
192
0
VERTEX
8
OBJECT__51
10
2.879000
20
26.360001
30
40.000000
70
192
0
VERTEX
8
OBJECT__51
10
-7.536000
20
12.024000
30
40.000000
70
192
0
VERTEX
8
OBJECT__51
10
7.536000
20
22.976000
30
40.000000
70
192
0
VERTEX
8
OBJECT__51
10
12.163000
20
23.356001
30
40.000000
70
192
0
VERTEX
8
OBJECT__51
10
-3.004000
20
30.660000
30
40.000000
70
192
0
VERTEX
8
OBJECT__51
10
-2.879000
20
26.360001
30
40.000000
70
192
0
VERTEX
8
OBJECT__51
10
-8.417000
20
28.052999
30
40.000000
70
192
0
VERTEX
8
OBJECT__51
10
-7.536000
20
22.976000
30
40.000000
70
192
0
VERTEX
8
OBJECT__51
10
-7.536000
20
-12.024000
30
40.000000
70
192
0
VERTEX
8
OBJECT__51
10
-13.500000
20
-17.502001
30
40.000000
70
192
0
VERTEX
8
OBJECT__51
10
-9.315000
20
-17.500000
30
40.000000
70
192
0
VERTEX
8
OBJECT__51
10
-8.417000
20
-28.056999
30
40.000000
70
192
0
VERTEX
8
OBJECT__51
10
-3.004000
20
-30.663000
30
40.000000
70
192
0
VERTEX
8
OBJECT__51
10
-2.879000
20
-26.360001
30
40.000000
70
192
0
VERTEX
8
OBJECT__51
10
-12.163000
20
23.356001
30
40.000000
70
192
0
VERTEX
8
OBJECT__51
10
-13.500000
20
17.497999
30
40.000000
70
192
0
VERTEX
8
OBJECT__51
10
-9.315000
20
17.500000
30
40.000000
70
192
0
VERTEX
8
OBJECT__51
10
-12.163000
20
-23.358999
30
40.000000
70
192
0
VERTEX
8
OBJECT__51
10
-7.536000
20
-22.976000
30
40.000000
70
192
0
VERTEX
8
OBJECT__51
10
3.004000
20
-30.663000
30
40.000000
70
192
0
VERTEX
8
OBJECT__51
10
2.879000
20
-26.360001
30
40.000000
70
192
0
VERTEX
8
OBJECT__51
10
8.417000
20
-28.056999
30
40.000000
70
192
0
VERTEX
8
OBJECT__51
10
7.536000
20
-22.976000
30
40.000000
70
192
0
VERTEX
8
OBJECT__51
10
12.163000
20
-23.358999
30
40.000000
70
192
0
VERTEX
8
OBJECT__51
10
7.536000
20
-12.024000
30
40.000000
70
192
0
VERTEX
8
OBJECT__51
10
13.500000
20
17.497999
30
40.000000
70
192
0
VERTEX
8
OBJECT__51
10
9.316000
20
17.500000
30
40.000000
70
192
0
VERTEX
8
OBJECT__51
10
7.536000
20
12.024000
30
40.000000
70
192
0
VERTEX
8
OBJECT__51
10
9.316000
20
-17.500000
30
40.000000
70
192
0
VERTEX
8
OBJECT__51
10
13.500000
20
-17.502001
30
40.000000
70
192
0
VERTEX
8
OBJECT__51
10
0
20
0
30
0
70
128
71
1
72
2
73
3
0
VERTEX
8
OBJECT__51
10
0
20
0
30
0
70
128
71
3
72
4
73
1
0
VERTEX
8
OBJECT__51
10
0
20
0
30
0
70
128
71
5
72
6
73
7
0
VERTEX
8
OBJECT__51
10
0
20
0
30
0
70
128
71
1
72
8
73
2
0
VERTEX
8
OBJECT__51
10
0
20
0
30
0
70
128
71
9
72
10
73
5
0
VERTEX
8
OBJECT__51
10
0
20
0
30
0
70
128
71
6
72
11
73
12
0
VERTEX
8
OBJECT__51
10
0
20
0
30
0
70
128
71
13
72
14
73
12
0
VERTEX
8
OBJECT__51
10
0
20
0
30
0
70
128
71
8
72
15
73
2
0
VERTEX
8
OBJECT__51
10
0
20
0
30
0
70
128
71
16
72
17
73
15
0
VERTEX
8
OBJECT__51
10
0
20
0
30
0
70
128
71
18
72
19
73
20
0
VERTEX
8
OBJECT__51
10
0
20
0
30
0
70
128
71
12
72
7
73
6
0
VERTEX
8
OBJECT__51
10
0
20
0
30
0
70
128
71
12
72
11
73
13
0
VERTEX
8
OBJECT__51
10
0
20
0
30
0
70
128
71
21
72
22
73
23
0
VERTEX
8
OBJECT__51
10
0
20
0
30
0
70
128
71
22
72
16
73
8
0
VERTEX
8
OBJECT__51
10
0
20
0
30
0
70
128
71
15
72
8
73
16
0
VERTEX
8
OBJECT__51
10
0
20
0
30
0
70
128
71
24
72
25
73
17
0
VERTEX
8
OBJECT__51
10
0
20
0
30
0
70
128
71
25
72
24
73
18
0
VERTEX
8
OBJECT__51
10
0
20
0
30
0
70
128
71
26
72
27
73
20
0
VERTEX
8
OBJECT__51
10
0
20
0
30
0
70
128
71
28
72
29
73
27
0
VERTEX
8
OBJECT__51
10
0
20
0
30
0
70
128
71
30
72
4
73
31
0
VERTEX
8
OBJECT__51
10
0
20
0
30
0
70
128
71
13
72
21
73
14
0
VERTEX
8
OBJECT__51
10
0
20
0
30
0
70
128
71
8
72
23
73
22
0
VERTEX
8
OBJECT__51
10
0
20
0
30
0
70
128
71
17
72
16
73
24
0
VERTEX
8
OBJECT__51
10
0
20
0
30
0
70
128
71
20
72
19
73
26
0
VERTEX
8
OBJECT__51
10
0
20
0
30
0
70
128
71
32
72
33
73
34
0
VERTEX
8
OBJECT__51
10
0
20
0
30
0
70
128
71
10
72
9
73
33
0
VERTEX
8
OBJECT__51
10
0
20
0
30
0
70
128
71
27
72
26
73
28
0
VERTEX
8
OBJECT__51
10
0
20
0
30
0
70
128
71
31
72
35
73
30
0
VERTEX
8
OBJECT__51
10
0
20
0
30
0
70
128
71
23
72
14
73
21
0
VERTEX
8
OBJECT__51
10
0
20
0
30
0
70
128
71
20
72
25
73
18
0
VERTEX
8
OBJECT__51
10
0
20
0
30
0
70
128
71
4
72
30
73
36
0
VERTEX
8
OBJECT__51
10
0
20
0
30
0
70
128
71
33
72
32
73
10
0
VERTEX
8
OBJECT__51
10
0
20
0
30
0
70
128
71
35
72
29
73
30
0
VERTEX
8
OBJECT__51
10
0
20
0
30
0
70
128
71
3
72
31
73
4
0
VERTEX
8
OBJECT__51
10
0
20
0
30
0
70
128
71
34
72
36
73
32
0
VERTEX
8
OBJECT__51
10
0
20
0
30
0
70
128
71
7
72
9
73
5
0
VERTEX
8
OBJECT__51
10
0
20
0
30
0
70
128
71
28
72
30
73
29
0
VERTEX
8
OBJECT__51
10
0
20
0
30
0
70
128
71
36
72
34
73
4
0
SEQEND
8
OBJECT__51
0
POLYLINE
8
OBJECT__52
66
1
70
64
71
20
72
20
62
253
0
VERTEX
8
OBJECT__52
10
7.536000
20
-12.024000
30
40.000000
70
192
0
VERTEX
8
OBJECT__52
10
7.536000
20
-12.024000
30
25.000000
70
192
0
VERTEX
8
OBJECT__52
10
9.316000
20
-17.500000
30
25.000000
70
192
0
VERTEX
8
OBJECT__52
10
2.879000
20
-8.640000
30
40.000000
70
192
0
VERTEX
8
OBJECT__52
10
2.879000
20
-8.640000
30
25.000000
70
192
0
VERTEX
8
OBJECT__52
10
-2.879000
20
-8.640000
30
40.000000
70
192
0
VERTEX
8
OBJECT__52
10
-2.879000
20
-8.640000
30
25.000000
70
192
0
VERTEX
8
OBJECT__52
10
-7.536000
20
-12.024000
30
25.000000
70
192
0
VERTEX
8
OBJECT__52
10
-9.315000
20
-17.500000
30
25.000000
70
192
0
VERTEX
8
OBJECT__52
10
-7.536000
20
-12.024000
30
40.000000
70
192
0
VERTEX
8
OBJECT__52
10
-7.536000
20
-22.976000
30
25.000000
70
192
0
VERTEX
8
OBJECT__52
10
-9.315000
20
-17.500000
30
40.000000
70
192
0
VERTEX
8
OBJECT__52
10
-2.879000
20
-26.360001
30
25.000000
70
192
0
VERTEX
8
OBJECT__52
10
-7.536000
20
-22.976000
30
40.000000
70
192
0
VERTEX
8
OBJECT__52
10
2.879000
20
-26.360001
30
40.000000
70
192
0
VERTEX
8
OBJECT__52
10
2.879000
20
-26.360001
30
25.000000
70
192
0
VERTEX
8
OBJECT__52
10
7.536000
20
-22.976000
30
40.000000
70
192
0
VERTEX
8
OBJECT__52
10
7.536000
20
-22.976000
30
25.000000
70
192
0
VERTEX
8
OBJECT__52
10
9.316000
20
-17.500000
30
40.000000
70
192
0
VERTEX
8
OBJECT__52
10
-2.879000
20
-26.360001
30
40.000000
70
192
0
VERTEX
8
OBJECT__52
10
0
20
0
30
0
70
128
71
1
72
2
73
3
0
VERTEX
8
OBJECT__52
10
0
20
0
30
0
70
128
71
4
72
5
73
2
0
VERTEX
8
OBJECT__52
10
0
20
0
30
0
70
128
71
6
72
7
73
5
0
VERTEX
8
OBJECT__52
10
0
20
0
30
0
70
128
71
8
72
7
73
6
0
VERTEX
8
OBJECT__52
10
0
20
0
30
0
70
128
71
9
72
8
73
10
0
VERTEX
8
OBJECT__52
10
0
20
0
30
0
70
128
71
11
72
9
73
12
0
VERTEX
8
OBJECT__52
10
0
20
0
30
0
70
128
71
13
72
11
73
14
0
VERTEX
8
OBJECT__52
10
0
20
0
30
0
70
128
71
15
72
16
73
13
0
VERTEX
8
OBJECT__52
10
0
20
0
30
0
70
128
71
17
72
18
73
16
0
VERTEX
8
OBJECT__52
10
0
20
0
30
0
70
128
71
19
72
3
73
18
0
VERTEX
8
OBJECT__52
10
0
20
0
30
0
70
128
71
18
72
17
73
19
0
VERTEX
8
OBJECT__52
10
0
20
0
30
0
70
128
71
16
72
15
73
17
0
VERTEX
8
OBJECT__52
10
0
20
0
30
0
70
128
71
13
72
20
73
15
0
VERTEX
8
OBJECT__52
10
0
20
0
30
0
70
128
71
14
72
20
73
13
0
VERTEX
8
OBJECT__52
10
0
20
0
30
0
70
128
71
12
72
14
73
11
0
VERTEX
8
OBJECT__52
10
0
20
0
30
0
70
128
71
10
72
12
73
9
0
VERTEX
8
OBJECT__52
10
0
20
0
30
0
70
128
71
6
72
10
73
8
0
VERTEX
8
OBJECT__52
10
0
20
0
30
0
70
128
71
5
72
4
73
6
0
VERTEX
8
OBJECT__52
10
0
20
0
30
0
70
128
71
2
72
1
73
4
0
VERTEX
8
OBJECT__52
10
0
20
0
30
0
70
128
71
3
72
19
73
1
0
SEQEND
8
OBJECT__52
0
POLYLINE
8
OBJECT__53
66
1
70
64
71
10
72
8
62
253
0
VERTEX
8
OBJECT__53
10
9.316000
20
-17.500000
30
25.000000
70
192
0
VERTEX
8
OBJECT__53
10
-2.879000
20
-26.360001
30
25.000000
70
192
0
VERTEX
8
OBJECT__53
10
2.879000
20
-26.360001
30
25.000000
70
192
0
VERTEX
8
OBJECT__53
10
-9.315000
20
-17.500000
30
25.000000
70
192
0
VERTEX
8
OBJECT__53
10
-7.536000
20
-22.976000
30
25.000000
70
192
0
VERTEX
8
OBJECT__53
10
2.879000
20
-8.640000
30
25.000000
70
192
0
VERTEX
8
OBJECT__53
10
-2.879000
20
-8.640000
30
25.000000
70
192
0
VERTEX
8
OBJECT__53
10
7.536000
20
-12.024000
30
25.000000
70
192
0
VERTEX
8
OBJECT__53
10
-7.536000
20
-12.024000
30
25.000000
70
192
0
VERTEX
8
OBJECT__53
10
7.536000
20
-22.976000
30
25.000000
70
192
0
VERTEX
8
OBJECT__53
10
0
20
0
30
0
70
128
71
1
72
2
73
3
0
VERTEX
8
OBJECT__53
10
0
20
0
30
0
70
128
71
1
72
4
73
5
0
VERTEX
8
OBJECT__53
10
0
20
0
30
0
70
128
71
4
72
6
73
7
0
VERTEX
8
OBJECT__53
10
0
20
0
30
0
70
128
71
4
72
1
73
8
0
VERTEX
8
OBJECT__53
10
0
20
0
30
0
70
128
71
5
72
2
73
1
0
VERTEX
8
OBJECT__53
10
0
20
0
30
0
70
128
71
8
72
6
73
4
0
VERTEX
8
OBJECT__53
10
0
20
0
30
0
70
128
71
7
72
9
73
4
0
VERTEX
8
OBJECT__53
10
0
20
0
30
0
70
128
71
3
72
10
73
1
0
SEQEND
8
OBJECT__53
0
POLYLINE
8
OBJECT__54
66
1
70
64
71
20
72
20
62
253
0
VERTEX
8
OBJECT__54
10
7.536000
20
22.976000
30
40.000000
70
192
0
VERTEX
8
OBJECT__54
10
7.536000
20
22.976000
30
25.000000
70
192
0
VERTEX
8
OBJECT__54
10
9.316000
20
17.500000
30
25.000000
70
192
0
VERTEX
8
OBJECT__54
10
2.879000
20
26.360001
30
40.000000
70
192
0
VERTEX
8
OBJECT__54
10
2.879000
20
26.360001
30
25.000000
70
192
0
VERTEX
8
OBJECT__54
10
-2.879000
20
26.360001
30
40.000000
70
192
0
VERTEX
8
OBJECT__54
10
-2.879000
20
26.360001
30
25.000000
70
192
0
VERTEX
8
OBJECT__54
10
-7.536000
20
22.976000
30
25.000000
70
192
0
VERTEX
8
OBJECT__54
10
-9.315000
20
17.500000
30
25.000000
70
192
0
VERTEX
8
OBJECT__54
10
-7.536000
20
22.976000
30
40.000000
70
192
0
VERTEX
8
OBJECT__54
10
-7.536000
20
12.024000
30
25.000000
70
192
0
VERTEX
8
OBJECT__54
10
-9.315000
20
17.500000
30
40.000000
70
192
0
VERTEX
8
OBJECT__54
10
-2.879000
20
8.640000
30
25.000000
70
192
0
VERTEX
8
OBJECT__54
10
-7.536000
20
12.024000
30
40.000000
70
192
0
VERTEX
8
OBJECT__54
10
2.879000
20
8.640000
30
40.000000
70
192
0
VERTEX
8
OBJECT__54
10
2.879000
20
8.640000
30
25.000000
70
192
0
VERTEX
8
OBJECT__54
10
7.536000
20
12.024000
30
40.000000
70
192
0
VERTEX
8
OBJECT__54
10
7.536000
20
12.024000
30
25.000000
70
192
0
VERTEX
8
OBJECT__54
10
9.316000
20
17.500000
30
40.000000
70
192
0
VERTEX
8
OBJECT__54
10
-2.879000
20
8.640000
30
40.000000
70
192
0
VERTEX
8
OBJECT__54
10
0
20
0
30
0
70
128
71
1
72
2
73
3
0
VERTEX
8
OBJECT__54
10
0
20
0
30
0
70
128
71
4
72
5
73
2
0
VERTEX
8
OBJECT__54
10
0
20
0
30
0
70
128
71
6
72
7
73
5
0
VERTEX
8
OBJECT__54
10
0
20
0
30
0
70
128
71
8
72
7
73
6
0
VERTEX
8
OBJECT__54
10
0
20
0
30
0
70
128
71
9
72
8
73
10
0
VERTEX
8
OBJECT__54
10
0
20
0
30
0
70
128
71
11
72
9
73
12
0
VERTEX
8
OBJECT__54
10
0
20
0
30
0
70
128
71
13
72
11
73
14
0
VERTEX
8
OBJECT__54
10
0
20
0
30
0
70
128
71
15
72
16
73
13
0
VERTEX
8
OBJECT__54
10
0
20
0
30
0
70
128
71
17
72
18
73
16
0
VERTEX
8
OBJECT__54
10
0
20
0
30
0
70
128
71
19
72
3
73
18
0
VERTEX
8
OBJECT__54
10
0
20
0
30
0
70
128
71
18
72
17
73
19
0
VERTEX
8
OBJECT__54
10
0
20
0
30
0
70
128
71
16
72
15
73
17
0
VERTEX
8
OBJECT__54
10
0
20
0
30
0
70
128
71
13
72
20
73
15
0
VERTEX
8
OBJECT__54
10
0
20
0
30
0
70
128
71
14
72
20
73
13
0
VERTEX
8
OBJECT__54
10
0
20
0
30
0
70
128
71
12
72
14
73
11
0
VERTEX
8
OBJECT__54
10
0
20
0
30
0
70
128
71
10
72
12
73
9
0
VERTEX
8
OBJECT__54
10
0
20
0
30
0
70
128
71
6
72
10
73
8
0
VERTEX
8
OBJECT__54
10
0
20
0
30
0
70
128
71
5
72
4
73
6
0
VERTEX
8
OBJECT__54
10
0
20
0
30
0
70
128
71
2
72
1
73
4
0
VERTEX
8
OBJECT__54
10
0
20
0
30
0
70
128
71
3
72
19
73
1
0
SEQEND
8
OBJECT__54
0
POLYLINE
8
OBJECT__55
66
1
70
64
71
10
72
8
62
253
0
VERTEX
8
OBJECT__55
10
-2.879000
20
8.640000
30
25.000000
70
192
0
VERTEX
8
OBJECT__55
10
-7.536000
20
22.976000
30
25.000000
70
192
0
VERTEX
8
OBJECT__55
10
-9.315000
20
17.500000
30
25.000000
70
192
0
VERTEX
8
OBJECT__55
10
9.316000
20
17.500000
30
25.000000
70
192
0
VERTEX
8
OBJECT__55
10
7.536000
20
22.976000
30
25.000000
70
192
0
VERTEX
8
OBJECT__55
10
2.879000
20
8.640000
30
25.000000
70
192
0
VERTEX
8
OBJECT__55
10
-2.879000
20
26.360001
30
25.000000
70
192
0
VERTEX
8
OBJECT__55
10
7.536000
20
12.024000
30
25.000000
70
192
0
VERTEX
8
OBJECT__55
10
2.879000
20
26.360001
30
25.000000
70
192
0
VERTEX
8
OBJECT__55
10
-7.536000
20
12.024000
30
25.000000
70
192
0
VERTEX
8
OBJECT__55
10
0
20
0
30
0
70
128
71
1
72
2
73
3
0
VERTEX
8
OBJECT__55
10
0
20
0
30
0
70
128
71
1
72
4
73
5
0
VERTEX
8
OBJECT__55
10
0
20
0
30
0
70
128
71
4
72
1
73
6
0
VERTEX
8
OBJECT__55
10
0
20
0
30
0
70
128
71
1
72
7
73
2
0
VERTEX
8
OBJECT__55
10
0
20
0
30
0
70
128
71
6
72
8
73
4
0
VERTEX
8
OBJECT__55
10
0
20
0
30
0
70
128
71
1
72
9
73
7
0
VERTEX
8
OBJECT__55
10
0
20
0
30
0
70
128
71
3
72
10
73
1
0
VERTEX
8
OBJECT__55
10
0
20
0
30
0
70
128
71
5
72
9
73
1
0
SEQEND
8
OBJECT__55
0
ENDSEC
0
EOF
