  0
SECTION
  2
HEADER
  9
$ACADVER
  1
AC1015
  9
$ACADMAINTVER
 70
     6
  9
$DWGCODEPAGE
  3
ANSI_1252
  9
$INSBASE
 10
0.0
 20
0.0
 30
0.0
  9
$EXTMIN
 10
0.0
 20
0.0
 30
0.0
  9
$EXTMAX
 10
1682.0
 20
2378.0
 30
0.0
  9
$LIMMIN
 10
0.0
 20
0.0
  9
$LIMMAX
 10
1682.0
 20
2378.0
  9
$ORTHOMODE
 70
     0
  9
$REGENMODE
 70
     1
  9
$FILLMODE
 70
     1
  9
$QTEXTMODE
 70
     0
  9
$MIRRTEXT
 70
     1
  9
$LTSCALE
 40
1.0
  9
$ATTMODE
 70
     1
  9
$TEXTSIZE
 40
2.5
  9
$TRACEWID
 40
1.0
  9
$TEXTSTYLE
  7
Standard
  9
$CLAYER
  8
0
  9
$CELTYPE
  6
ByLayer
  9
$CECOLOR
 62
   256
  9
$CELTSCALE
 40
1.0
  9
$DISPSILH
 70
     0
  9
$DIMSCALE
 40
1.0
  9
$DIMASZ
 40
2.5
  9
$DIMEXO
 40
0.625
  9
$DIMDLI
 40
3.75
  9
$DIMRND
 40
0.0
  9
$DIMDLE
 40
0.0
  9
$DIMEXE
 40
1.25
  9
$DIMTP
 40
0.0
  9
$DIMTM
 40
0.0
  9
$DIMTXT
 40
2.5
  9
$DIMCEN
 40
2.5
  9
$DIMTSZ
 40
0.0
  9
$DIMTOL
 70
     0
  9
$DIMLIM
 70
     0
  9
$DIMTIH
 70
     0
  9
$DIMTOH
 70
     0
  9
$DIMSE1
 70
     0
  9
$DIMSE2
 70
     0
  9
$DIMTAD
 70
     1
  9
$DIMZIN
 70
     8
  9
$DIMBLK
  1

  9
$DIMASO
 70
     1
  9
$DIMSHO
 70
     1
  9
$DIMPOST
  1

  9
$DIMAPOST
  1

  9
$DIMALT
 70
     0
  9
$DIMALTD
 70
     3
  9
$DIMALTF
 40
0.0393700787
  9
$DIMLFAC
 40
1.0
  9
$DIMTOFL
 70
     1
  9
$DIMTVP
 40
0.0
  9
$DIMTIX
 70
     0
  9
$DIMSOXD
 70
     0
  9
$DIMSAH
 70
     0
  9
$DIMBLK1
  1

  9
$DIMBLK2
  1

  9
$DIMSTYLE
  2
ISO-25
  9
$DIMCLRD
 70
     0
  9
$DIMCLRE
 70
     0
  9
$DIMCLRT
 70
     0
  9
$DIMTFAC
 40
1.0
  9
$DIMGAP
 40
0.625
  9
$DIMJUST
 70
     0
  9
$DIMSD1
 70
     0
  9
$DIMSD2
 70
     0
  9
$DIMTOLJ
 70
     0
  9
$DIMTZIN
 70
     8
  9
$DIMALTZ
 70
     0
  9
$DIMALTTZ
 70
     0
  9
$DIMUPT
 70
     0
  9
$DIMDEC
 70
     2
  9
$DIMTDEC
 70
     2
  9
$DIMALTU
 70
     2
  9
$DIMALTTD
 70
     3
  9
$DIMTXSTY
  7
Standard
  9
$DIMAUNIT
 70
     0
  9
$DIMADEC
 70
     0
  9
$DIMALTRND
 40
0.0
  9
$DIMAZIN
 70
     0
  9
$DIMDSEP
 70
    44
  9
$DIMATFIT
 70
     3
  9
$DIMFRAC
 70
     0
  9
$DIMLDRBLK
  1

  9
$DIMLUNIT
 70
     2
  9
$DIMLWD
 70
    -2
  9
$DIMLWE
 70
    -2
  9
$DIMTMOVE
 70
     0
  9
$LUNITS
 70
     2
  9
$LUPREC
 70
     4
  9
$SKETCHINC
 40
1.0
  9
$FILLETRAD
 40
10.0
  9
$AUNITS
 70
     0
  9
$AUPREC
 70
     0
  9
$MENU
  1
.
  9
$ELEVATION
 40
0.0
  9
$PELEVATION
 40
0.0
  9
$THICKNESS
 40
0.0
  9
$LIMCHECK
 70
     0
  9
$CHAMFERA
 40
10.0
  9
$CHAMFERB
 40
10.0
  9
$CHAMFERC
 40
20.0
  9
$CHAMFERD
 40
0.0
  9
$SKPOLY
 70
     0
  9
$TDCREATE
 40
2455569.483564363
  9
$TDUCREATE
 40
2455569.441897697
  9
$TDUPDATE
 40
2455569.483564375
  9
$TDUUPDATE
 40
2455569.441897708
  9
$TDINDWG
 40
0.0000000116
  9
$TDUSRTIMER
 40
0.0000000116
  9
$USRTIMER
 70
     1
  9
$ANGBASE
 50
0.0
  9
$ANGDIR
 70
     0
  9
$PDMODE
 70
     0
  9
$PDSIZE
 40
0.0
  9
$PLINEWID
 40
0.0
  9
$SPLFRAME
 70
     0
  9
$SPLINETYPE
 70
     6
  9
$SPLINESEGS
 70
     8
  9
$HANDSEED
  5
162
  9
$SURFTAB1
 70
     6
  9
$SURFTAB2
 70
     6
  9
$SURFTYPE
 70
     6
  9
$SURFU
 70
     6
  9
$SURFV
 70
     6
  9
$UCSBASE
  2

  9
$UCSNAME
  2

  9
$UCSORG
 10
0.0
 20
0.0
 30
0.0
  9
$UCSXDIR
 10
1.0
 20
0.0
 30
0.0
  9
$UCSYDIR
 10
0.0
 20
1.0
 30
0.0
  9
$UCSORTHOREF
  2

  9
$UCSORTHOVIEW
 70
     0
  9
$UCSORGTOP
 10
0.0
 20
0.0
 30
0.0
  9
$UCSORGBOTTOM
 10
0.0
 20
0.0
 30
0.0
  9
$UCSORGLEFT
 10
0.0
 20
0.0
 30
0.0
  9
$UCSORGRIGHT
 10
0.0
 20
0.0
 30
0.0
  9
$UCSORGFRONT
 10
0.0
 20
0.0
 30
0.0
  9
$UCSORGBACK
 10
0.0
 20
0.0
 30
0.0
  9
$PUCSBASE
  2

  9
$PUCSNAME
  2

  9
$PUCSORG
 10
0.0
 20
0.0
 30
0.0
  9
$PUCSXDIR
 10
1.0
 20
0.0
 30
0.0
  9
$PUCSYDIR
 10
0.0
 20
1.0
 30
0.0
  9
$PUCSORTHOREF
  2

  9
$PUCSORTHOVIEW
 70
     0
  9
$PUCSORGTOP
 10
0.0
 20
0.0
 30
0.0
  9
$PUCSORGBOTTOM
 10
0.0
 20
0.0
 30
0.0
  9
$PUCSORGLEFT
 10
0.0
 20
0.0
 30
0.0
  9
$PUCSORGRIGHT
 10
0.0
 20
0.0
 30
0.0
  9
$PUCSORGFRONT
 10
0.0
 20
0.0
 30
0.0
  9
$PUCSORGBACK
 10
0.0
 20
0.0
 30
0.0
  9
$USERI1
 70
     0
  9
$USERI2
 70
     0
  9
$USERI3
 70
     0
  9
$USERI4
 70
     0
  9
$USERI5
 70
     0
  9
$USERR1
 40
0.0
  9
$USERR2
 40
0.0
  9
$USERR3
 40
0.0
  9
$USERR4
 40
0.0
  9
$USERR5
 40
0.0
  9
$WORLDVIEW
 70
     1
  9
$SHADEDGE
 70
     3
  9
$SHADEDIF
 70
    70
  9
$TILEMODE
 70
     1
  9
$MAXACTVP
 70
    64
  9
$PINSBASE
 10
0.0
 20
0.0
 30
0.0
  9
$PLIMCHECK
 70
     0
  9
$PEXTMIN
 10
0.0
 20
0.0
 30
0.0
  9
$PEXTMAX
 10
1682.0
 20
2378.0
 30
0.0
  9
$PLIMMIN
 10
0.0
 20
0.0
  9
$PLIMMAX
 10
1682.0
 20
2378.0
  9
$UNITMODE
 70
     0
  9
$VISRETAIN
 70
     1
  9
$PLINEGEN
 70
     0
  9
$PSLTSCALE
 70
     1
  9
$TREEDEPTH
 70
  3020
  9
$CMLSTYLE
  2
Standard
  9
$CMLJUST
 70
     0
  9
$CMLSCALE
 40
20.0
  9
$PROXYGRAPHICS
 70
     1
  9
$MEASUREMENT
 70
     1
  9
$CELWEIGHT
370
    -1
  9
$ENDCAPS
280
     0
  9
$JOINSTYLE
280
     0
  9
$LWDISPLAY
290
     0
  9
$INSUNITS
 70
     4
  9
$HYPERLINKBASE
  1

  9
$STYLESHEET
  1

  9
$XEDIT
290
     1
  9
$CEPSNTYPE
380
     0
  9
$PSTYLEMODE
290
     1
  9
$FINGERPRINTGUID
  2
{92E16E26-BE23-4BD1-AD8D-00328664B01A}
  9
$VERSIONGUID
  2
{FAEB1C32-E019-11D5-929B-00C0DF256EC4}
  9
$EXTNAMES
290
     1
  9
$PSVPSCALE
 40
0.0
  9
$OLESTARTUP
290
     0
  0
ENDSEC
  0
SECTION
  2
CLASSES
  0
CLASS
  1
ACDBDICTIONARYWDFLT
  2
AcDbDictionaryWithDefault
  3
ObjectDBX Classes
 90
        0
280
     0
281
     0
  0
CLASS
  1
VISUALSTYLE
  2
AcDbVisualStyle
  3
ObjectDBX Classes
 90
     4095
280
     0
281
     0
  0
CLASS
  1
SCALE
  2
AcDbScale
  3
ObjectDBX Classes
 90
     1153
280
     0
281
     0
  0
CLASS
  1
DICTIONARYVAR
  2
AcDbDictionaryVar
  3
ObjectDBX Classes
 90
        0
280
     0
281
     0
  0
CLASS
  1
ACDBPLACEHOLDER
  2
AcDbPlaceHolder
  3
ObjectDBX Classes
 90
        0
280
     0
281
     0
  0
CLASS
  1
LAYOUT
  2
AcDbLayout
  3
ObjectDBX Classes
 90
        0
280
     0
281
     0
  0
ENDSEC
  0
SECTION
  2
TABLES
  0
TABLE
  2
VPORT
  5
8
330
0
100
AcDbSymbolTable
 70
     1
  0
VPORT
  5
29
330
8
100
AcDbSymbolTableRecord
100
AcDbViewportTableRecord
  2
*Active
 70
     0
 10
0.0
 20
0.0
 11
1.0
 21
1.0
 12
344.1869158879
 22
148.5
 13
0.0
 23
0.0
 14
10.0
 24
10.0
 15
10.0
 25
10.0
 16
0.0
 26
0.0
 36
1.0
 17
0.0
 27
0.0
 37
0.0
 40
297.0
 41
1.9729729729
 42
50.0
 43
0.0
 44
0.0
 50
0.0
 51
0.0
 71
     0
 72
   100
 73
     1
 74
     3
 75
     0
 76
     0
 77
     0
 78
     0
281
     0
 65
     1
110
0.0
120
0.0
130
0.0
111
1.0
121
0.0
131
0.0
112
0.0
122
1.0
132
0.0
 79
     0
146
0.0
  0
ENDTAB
  0
TABLE
  2
LTYPE
  5
5
330
0
100
AcDbSymbolTable
 70
     2
  0
LTYPE
  5
14
330
5
100
AcDbSymbolTableRecord
100
AcDbLinetypeTableRecord
  2
ByBlock
 70
     0
  3

 72
    65
 73
     0
 40
0.0
  0
LTYPE
  5
15
330
5
100
AcDbSymbolTableRecord
100
AcDbLinetypeTableRecord
  2
ByLayer
 70
     0
  3

 72
    65
 73
     0
 40
0.0
  0
LTYPE
  5
16
330
5
100
AcDbSymbolTableRecord
100
AcDbLinetypeTableRecord
  2
Continuous
 70
     0
  3
Solid line
 72
    65
 73
     0
 40
0.0
  0
LTYPE
  5
60
330
5
100
AcDbSymbolTableRecord
100
AcDbLinetypeTableRecord
  2
CENTER2
 70
     0
  3
Center (.5x) ___ _ ___ _ ___ _ ___ _ ___ _ ___
 72
    65
 73
     4
 40
28.575
 49
19.05
 74
     4
 75
     0
340
0
 46
0.0
 50
0.0
 44
0.0
 45
0.0
 49
-3.175
 74
     4
 75
     0
340
0
 46
0.0
 50
0.0
 44
0.0
 45
0.0
 49
3.175
 74
     4
 75
     0
340
0
 46
0.0
 50
0.0
 44
0.0
 45
0.0
 49
-3.175
 74
     4
 75
     0
340
0
 46
0.0
 50
0.0
 44
0.0
 45
0.0
  0
ENDTAB
  0
TABLE
  2
LAYER
  5
2
330
0
100
AcDbSymbolTable
 70
     3
  0
LAYER
  5
10
330
2
100
AcDbSymbolTableRecord
100
AcDbLayerTableRecord
  2
0
 70
     0
 62
     7
  6
Continuous
370
    -3
390
F
  0
LAYER
  5
5D
330
2
100
AcDbSymbolTableRecord
100
AcDbLayerTableRecord
  2
Default
 70
     0
 62
     7
  6
Continuous
370
    -3
390
F
  0
LAYER
  5
86
330
2
100
AcDbSymbolTableRecord
100
AcDbLayerTableRecord
  2
40292000_HALTER_
 70
     0
 62
     7
  6
Continuous
370
    -3
390
F
  0
ENDTAB
  0
TABLE
  2
STYLE
  5
3
330
0
100
AcDbSymbolTable
 70
     2
  0
STYLE
  5
11
330
3
100
AcDbSymbolTableRecord
100
AcDbTextStyleTableRecord
  2
Standard
 70
     0
 40
0.0
 41
1.0
 50
0.0
 71
     0
 42
2.5
  3
txt
  4

  0
STYLE
  5
151
330
3
100
AcDbSymbolTableRecord
100
AcDbTextStyleTableRecord
  2
SEACAD_seiso_ttf
 70
     0
 40
0.0
 41
1.0
 50
0.0
 71
     0
 42
0.2
  3
seiso.ttf
  4

  0
ENDTAB
  0
TABLE
  2
VIEW
  5
6
330
0
100
AcDbSymbolTable
 70
     0
  0
ENDTAB
  0
TABLE
  2
UCS
  5
7
330
0
100
AcDbSymbolTable
 70
     0
  0
ENDTAB
  0
TABLE
  2
APPID
  5
9
330
0
100
AcDbSymbolTable
 70
     1
  0
APPID
  5
12
330
9
100
AcDbSymbolTableRecord
100
AcDbRegAppTableRecord
  2
ACAD
 70
     0
  0
ENDTAB
  0
TABLE
  2
DIMSTYLE
  5
A
330
0
100
AcDbSymbolTable
 70
     1
100
AcDbDimStyleTable
  0
DIMSTYLE
105
27
330
A
100
AcDbSymbolTableRecord
100
AcDbDimStyleTableRecord
  2
ISO-25
 70
     0
 41
2.5
 42
0.625
 43
3.75
 44
1.25
 73
     0
 74
     0
 77
     1
 78
     8
140
2.5
141
2.5
143
0.0393700787
147
0.625
171
     3
172
     1
271
     2
272
     2
274
     3
278
    44
283
     0
284
     8
340
11
  0
ENDTAB
  0
TABLE
  2
BLOCK_RECORD
  5
1
330
0
100
AcDbSymbolTable
 70
     9
  0
BLOCK_RECORD
  5
1F
330
1
100
AcDbSymbolTableRecord
100
AcDbBlockTableRecord
  2
*Model_Space
340
22
  0
BLOCK_RECORD
  5
1B
330
1
100
AcDbSymbolTableRecord
100
AcDbBlockTableRecord
  2
*Paper_Space
340
1E
  0
BLOCK_RECORD
  5
5E
330
1
100
AcDbSymbolTableRecord
100
AcDbBlockTableRecord
  2
SEANNOT_GROUP
340
0
102
{BLKREFS
331
5F
102
}
  0
BLOCK_RECORD
  5
69
330
1
100
AcDbSymbolTableRecord
100
AcDbBlockTableRecord
  2
SEANNOT_GROUP1
340
0
102
{BLKREFS
331
6A
102
}
  0
BLOCK_RECORD
  5
73
330
1
100
AcDbSymbolTableRecord
100
AcDbBlockTableRecord
  2
SEANNOT_GROUP2
340
0
102
{BLKREFS
331
74
102
}
  0
BLOCK_RECORD
  5
79
330
1
100
AcDbSymbolTableRecord
100
AcDbBlockTableRecord
  2
SEANNOT_GROUP3
340
0
102
{BLKREFS
331
7A
102
}
  0
BLOCK_RECORD
  5
7F
330
1
100
AcDbSymbolTableRecord
100
AcDbBlockTableRecord
  2
SEANNOT_GROUP4
340
0
102
{BLKREFS
331
80
102
}
  0
BLOCK_RECORD
  5
84
330
1
100
AcDbSymbolTableRecord
100
AcDbBlockTableRecord
  2
SE
340
0
102
{BLKREFS
331
85
102
}
  0
BLOCK_RECORD
  5
C5
330
1
100
AcDbSymbolTableRecord
100
AcDbBlockTableRecord
  2
SE1
340
0
102
{BLKREFS
331
C6
102
}
  0
BLOCK_RECORD
  5
EA
330
1
100
AcDbSymbolTableRecord
100
AcDbBlockTableRecord
  2
SE2
340
0
102
{BLKREFS
331
EB
102
}
  0
ENDTAB
  0
ENDSEC
  0
SECTION
  2
BLOCKS
  0
BLOCK
  5
20
330
1F
100
AcDbEntity
  8
0
100
AcDbBlockBegin
  2
*Model_Space
 70
     0
 10
0.0
 20
0.0
 30
0.0
  3
*Model_Space
  1

  0
ENDBLK
  5
21
330
1F
100
AcDbEntity
  8
0
100
AcDbBlockEnd
  0
BLOCK
  5
1C
330
1B
100
AcDbEntity
 67
     1
  8
0
100
AcDbBlockBegin
  2
*Paper_Space
 70
     0
 10
0.0
 20
0.0
 30
0.0
  3
*Paper_Space
  1

  0
ENDBLK
  5
1D
330
1B
100
AcDbEntity
 67
     1
  8
0
100
AcDbBlockEnd
  0
BLOCK
  5
67
330
5E
100
AcDbEntity
  8
0
100
AcDbBlockBegin
  2
SEANNOT_GROUP
 70
     0
 10
0.0
 20
0.0
 30
0.0
  3
SEANNOT_GROUP
  1

  0
LINE
  5
61
330
5E
100
AcDbEntity
  8
Default
  6
CENTER2
 62
     7
100
AcDbLine
 10
46.3670475746
 20
296.1992084216
 30
0.0
 11
6.3670484687
 21
296.1992084216
 31
0.0
  0
LINE
  5
62
330
5E
100
AcDbEntity
  8
Default
  6
CENTER2
 62
     7
100
AcDbLine
 10
26.3670480217
 20
316.1992079746
 30
0.0
 11
26.3670480217
 21
276.1992088687
 31
0.0
  0
LINE
  5
63
330
5E
100
AcDbEntity
  8
Default
  6
CENTER2
 62
     7
100
AcDbLine
 10
51.3670474629
 20
296.1992084216
 30
0.0
 11
49.8562492496
 21
296.1992084216
 31
0.0
  0
LINE
  5
64
330
5E
100
AcDbEntity
  8
Default
  6
CENTER2
 62
     7
100
AcDbLine
 10
26.3670480217
 20
321.1992078628
 30
0.0
 11
26.3670480217
 21
319.6884096496
 31
0.0
  0
LINE
  5
65
330
5E
100
AcDbEntity
  8
Default
  6
CENTER2
 62
     7
100
AcDbLine
 10
1.3670485805
 20
296.1992084216
 30
0.0
 11
2.8778467937
 21
296.1992084216
 31
0.0
  0
LINE
  5
66
330
5E
100
AcDbEntity
  8
Default
  6
CENTER2
 62
     7
100
AcDbLine
 10
26.3670480217
 20
271.1992089804
 30
0.0
 11
26.3670480217
 21
272.7100071936
 31
0.0
  0
ENDBLK
  5
68
330
5E
100
AcDbEntity
  8
0
100
AcDbBlockEnd
  0
BLOCK
  5
71
330
69
100
AcDbEntity
  8
0
100
AcDbBlockBegin
  2
SEANNOT_GROUP1
 70
     0
 10
0.0
 20
0.0
 30
0.0
  3
SEANNOT_GROUP1
  1

  0
LINE
  5
6B
330
69
100
AcDbEntity
  8
Default
  6
CENTER2
 62
     7
100
AcDbLine
 10
646.3670475746
 20
296.1992084216
 30
0.0
 11
606.3670484687
 21
296.1992084216
 31
0.0
  0
LINE
  5
6C
330
69
100
AcDbEntity
  8
Default
  6
CENTER2
 62
     7
100
AcDbLine
 10
626.3670480217
 20
316.1992079746
 30
0.0
 11
626.3670480217
 21
276.1992088687
 31
0.0
  0
LINE
  5
6D
330
69
100
AcDbEntity
  8
Default
  6
CENTER2
 62
     7
100
AcDbLine
 10
651.3670474629
 20
296.1992084216
 30
0.0
 11
649.8562492496
 21
296.1992084216
 31
0.0
  0
LINE
  5
6E
330
69
100
AcDbEntity
  8
Default
  6
CENTER2
 62
     7
100
AcDbLine
 10
626.3670480217
 20
321.1992078628
 30
0.0
 11
626.3670480217
 21
319.6884096496
 31
0.0
  0
LINE
  5
6F
330
69
100
AcDbEntity
  8
Default
  6
CENTER2
 62
     7
100
AcDbLine
 10
601.3670485805
 20
296.1992084216
 30
0.0
 11
602.8778467937
 21
296.1992084216
 31
0.0
  0
LINE
  5
70
330
69
100
AcDbEntity
  8
Default
  6
CENTER2
 62
     7
100
AcDbLine
 10
626.3670480217
 20
271.1992089804
 30
0.0
 11
626.3670480217
 21
272.7100071936
 31
0.0
  0
ENDBLK
  5
72
330
69
100
AcDbEntity
  8
0
100
AcDbBlockEnd
  0
BLOCK
  5
77
330
73
100
AcDbEntity
  8
0
100
AcDbBlockBegin
  2
SEANNOT_GROUP2
 70
     0
 10
0.0
 20
0.0
 30
0.0
  3
SEANNOT_GROUP2
  1

  0
LINE
  5
75
330
73
100
AcDbEntity
  8
Default
  6
CENTER2
 62
     7
100
AcDbLine
 10
46.3850170337
 20
201.9991887606
 30
0.0
 11
6.3850179277
 21
201.9991887606
 31
0.0
  0
LINE
  5
76
330
73
100
AcDbEntity
  8
Default
  6
CENTER2
 62
     7
100
AcDbLine
 10
26.3850174807
 20
221.9991883136
 30
0.0
 11
26.3850174807
 21
181.9991892076
 31
0.0
  0
ENDBLK
  5
78
330
73
100
AcDbEntity
  8
0
100
AcDbBlockEnd
  0
BLOCK
  5
7D
330
79
100
AcDbEntity
  8
0
100
AcDbBlockBegin
  2
SEANNOT_GROUP3
 70
     0
 10
0.0
 20
0.0
 30
0.0
  3
SEANNOT_GROUP3
  1

  0
LINE
  5
7B
330
79
100
AcDbEntity
  8
Default
  6
CENTER2
 62
     7
100
AcDbLine
 10
646.3850170337
 20
201.9991887606
 30
0.0
 11
606.3850179277
 21
201.9991887606
 31
0.0
  0
LINE
  5
7C
330
79
100
AcDbEntity
  8
Default
  6
CENTER2
 62
     7
100
AcDbLine
 10
626.3850174807
 20
221.9991883136
 30
0.0
 11
626.3850174807
 21
181.9991892076
 31
0.0
  0
ENDBLK
  5
7E
330
79
100
AcDbEntity
  8
0
100
AcDbBlockEnd
  0
BLOCK
  5
82
330
7F
100
AcDbEntity
  8
0
100
AcDbBlockBegin
  2
SEANNOT_GROUP4
 70
     0
 10
0.0
 20
0.0
 30
0.0
  3
SEANNOT_GROUP4
  1

  0
LINE
  5
81
330
7F
100
AcDbEntity
  8
Default
  6
CENTER2
 62
     7
100
AcDbLine
 10
722.2501137789
 20
296.2208241653
 30
0.0
 11
697.7572107797
 21
296.2208241653
 31
0.0
  0
ENDBLK
  5
83
330
7F
100
AcDbEntity
  8
0
100
AcDbBlockEnd
  0
BLOCK
  5
C3
330
84
100
AcDbEntity
  8
0
100
AcDbBlockBegin
  2
SE
 70
     0
 10
0.0
 20
0.0
 30
0.0
  3
SE
  1

  0
ARC
  5
87
330
84
100
AcDbEntity
  8
40292000_HALTER_
  6
Continuous
 62
     7
100
AcDbCircle
 10
626.3850206417
 20
296.2208241653
 30
0.0
 40
6.0
100
AcDbArc
 50
0.0
 51
90.0
  0
ARC
  5
88
330
84
100
AcDbEntity
  8
40292000_HALTER_
  6
Continuous
 62
     7
100
AcDbCircle
 10
626.3850206417
 20
296.2208241653
 30
0.0
 40
6.0
100
AcDbArc
 50
270.0
 51
0.0
  0
ARC
  5
89
330
84
100
AcDbEntity
  8
40292000_HALTER_
  6
Continuous
 62
     7
100
AcDbCircle
 10
26.3850206417
 20
296.2208241653
 30
0.0
 40
6.0
100
AcDbArc
 50
90.0
 51
270.0
  0
LINE
  5
8A
330
84
100
AcDbEntity
  8
40292000_HALTER_
  6
Continuous
 62
     7
100
AcDbLine
 10
626.3850206417
 20
302.2208241653
 30
0.0
 11
615.0668692686
 21
302.2208241653
 31
0.0
  0
LINE
  5
8B
330
84
100
AcDbEntity
  8
40292000_HALTER_
  6
Continuous
 62
     7
100
AcDbLine
 10
615.0668692686
 20
290.2208241653
 30
0.0
 11
626.3850206417
 21
290.2208241653
 31
0.0
  0
LINE
  5
8C
330
84
100
AcDbEntity
  8
40292000_HALTER_
  6
Continuous
 62
     7
100
AcDbLine
 10
615.0668692686
 20
302.2208241653
 30
0.0
 11
37.7031720148
 21
302.2208241653
 31
0.0
  0
LINE
  5
8D
330
84
100
AcDbEntity
  8
40292000_HALTER_
  6
Continuous
 62
     7
100
AcDbLine
 10
37.7031720148
 20
290.2208241653
 30
0.0
 11
615.0668692686
 21
290.2208241653
 31
0.0
  0
LINE
  5
8E
330
84
100
AcDbEntity
  8
40292000_HALTER_
  6
Continuous
 62
     7
100
AcDbLine
 10
37.7031720148
 20
302.2208241653
 30
0.0
 11
26.3850206417
 21
302.2208241653
 31
0.0
  0
LINE
  5
8F
330
84
100
AcDbEntity
  8
40292000_HALTER_
  6
Continuous
 62
     7
100
AcDbLine
 10
26.3850206417
 20
290.2208241653
 30
0.0
 11
37.7031720148
 21
290.2208241653
 31
0.0
  0
SPLINE
  5
90
330
84
100
AcDbEntity
  8
40292000_HALTER_
  6
Continuous
 62
     7
100
AcDbSpline
210
0.0
220
0.0
230
1.0
 70
    11
 71
     3
 72
    22
 73
    18
 74
     0
 42
0.0000000006937277
 43
0.0000000001
 40
0.0
 40
0.0
 40
0.0
 40
0.0
 40
0.125
 40
0.125
 40
0.25
 40
0.25
 40
0.375
 40
0.375
 40
0.5
 40
0.5
 40
0.625
 40
0.625
 40
0.75
 40
0.75
 40
0.875
 40
0.875
 40
1.0
 40
1.0
 40
1.0
 40
1.0
 10
29.88502064168891
 20
276.3254467051769
 30
0.0
 10
29.88502064168891
 20
276.2590576669423
 30
0.0
 10
29.50731552695379
 20
276.1051897155808
 30
0.0
 10
28.23067675608198
 20
275.8234885504239
 30
0.0
 10
27.32020917114581
 20
275.7106791086219
 30
0.0
 10
25.48758216833186
 20
275.721179772528
 30
0.0
 10
24.57669795047329
 20
275.8433451503456
 30
0.0
 10
23.27523197594256
 20
276.1393620376325
 30
0.0
 10
22.89483870063019
 20
276.2935453150227
 30
0.0
 10
22.87559034607195
 20
276.4184427028777
 30
0.0
 10
23.24682016116936
 20
276.3863871616724
 30
0.0
 10
24.53192649531283
 20
276.2683794966345
 30
0.0
 10
25.43819610462245
 20
276.2001014866421
 30
0.0
 10
27.29073435093349
 20
276.1956387862998
 30
0.0
 10
28.20245403448735
 20
276.2591748226216
 30
0.0
 10
29.50031113981228
 20
276.3653420808161
 30
0.0
 10
29.88502064168902
 20
276.3918357434114
 30
0.0
 10
29.88502064168891
 20
276.3254467051769
 30
0.0
  0
LINE
  5
91
330
84
100
AcDbEntity
  8
40292000_HALTER_
  6
Continuous
 62
     7
100
AcDbLine
 10
21.3752930943
 20
276.8518241653
 30
0.0
 11
21.3133565277
 21
276.8680041356
 31
0.0
  0
LINE
  5
92
330
84
100
AcDbEntity
  8
40292000_HALTER_
  6
Continuous
 62
     7
100
AcDbLine
 10
21.3752930943
 20
276.8518241653
 30
0.0
 11
21.326057741
 21
276.8518241653
 31
0.0
  0
LINE
  5
93
330
84
100
AcDbEntity
  8
40292000_HALTER_
  6
Continuous
 62
     7
100
AcDbLine
 10
21.3133565277
 20
276.8680041356
 30
0.0
 11
21.326057741
 21
276.8518241653
 31
0.0
  0
SPLINE
  5
94
330
84
100
AcDbEntity
  8
40292000_HALTER_
  6
Continuous
 62
     7
100
AcDbSpline
210
0.0
220
0.0
230
1.0
 70
    12
 71
     4
 72
    13
 73
     8
 74
     0
 42
0.0000000000750113
 43
0.0000000001
 40
0.2304369861553062
 40
0.2304369861553062
 40
0.2304369861553062
 40
0.2304369861553062
 40
0.2304369861553062
 40
0.5000008836345458
 40
0.5000008836345458
 40
0.5000008836345458
 40
0.7695648233290355
 40
0.7695648233290355
 40
0.7695648233290355
 40
0.7695648233290355
 40
0.7695648233290355
 10
46.38502064043243
 20
287.2205775903439
 30
0.0
 41
0.58578643761428
 10
46.38494138839216
 20
279.4424179557853
 30
0.0
 41
0.5857856411167134
 10
42.84932881528525
 20
269.1098460792415
 30
0.0
 41
0.5522852808439009
 10
33.45603241392164
 20
265.2208241653008
 30
0.0
 41
0.585786437626905
 10
19.31400776209519
 20
265.2208241653008
 30
0.0
 41
0.585786437626905
 10
9.920709347539415
 20
269.1098473712159
 30
0.0
 41
0.5522852703509532
 10
6.385098328890393
 20
279.442422532587
 30
0.0
 41
0.5857856568557631
 10
6.385020642896089
 20
287.2205824627545
 30
0.0
 41
0.585786437614774
  0
ARC
  5
95
330
84
100
AcDbEntity
  8
40292000_HALTER_
  6
Continuous
 62
     7
100
AcDbCircle
 10
26.3670480217
 20
296.1992084216
 30
0.0
 40
19.98920122798623
100
AcDbArc
 50
77.5260444032
 51
77.7054057429
  0
ARC
  5
96
330
84
100
AcDbEntity
  8
40292000_HALTER_
  6
Continuous
 62
     7
100
AcDbCircle
 10
26.3670480217
 20
296.1992084216
 30
0.0
 40
19.98920122798623
100
AcDbArc
 50
17.5152760124
 51
51.7937406117
  0
ARC
  5
97
330
84
100
AcDbEntity
  8
40292000_HALTER_
  6
Continuous
 62
     7
100
AcDbCircle
 10
26.3670480217
 20
296.1992084216
 30
0.0
 40
19.98920122798623
100
AcDbArc
 50
102.2091670621
 51
342.6136588639
  0
LINE
  5
98
330
84
100
AcDbEntity
  8
40292000_HALTER_
  6
Continuous
 62
     7
100
AcDbLine
 10
31.4528311574
 20
276.8518241653
 30
0.0
 11
31.4566847556
 21
276.8583205785
 31
0.0
  0
LINE
  5
99
330
84
100
AcDbEntity
  8
40292000_HALTER_
  6
Continuous
 62
     7
100
AcDbLine
 10
31.4528311574
 20
276.8518241653
 30
0.0
 11
31.4317315219
 21
276.8518241653
 31
0.0
  0
LINE
  5
9A
330
84
100
AcDbEntity
  8
40292000_HALTER_
  6
Continuous
 62
     7
100
AcDbLine
 10
31.4566847556
 20
276.8583205785
 30
0.0
 11
31.4317315219
 21
276.8518241653
 31
0.0
  0
ELLIPSE
  5
9B
330
84
100
AcDbEntity
  8
40292000_HALTER_
  6
Continuous
 62
     7
100
AcDbEllipse
 10
30.4111098187
 20
314.7538877148
 30
0.0
 11
-0.2126272767003501
 21
-0.977133379433337
 31
0.0
210
0.0
220
0.0
230
0.9999999999999999
 40
0.0000861628
 41
3.095239548093243
 42
4.469985403125308
  0
ELLIPSE
  5
9C
330
84
100
AcDbEntity
  8
40292000_HALTER_
  6
Continuous
 62
     7
100
AcDbEllipse
 10
22.350882802
 20
314.7595665317
 30
0.0
 11
0.2113352115210576
 21
-0.9774136424111207
 31
0.0
210
0.0
220
0.0
230
0.9999999999999998
 40
0.0003276772
 41
3.104084563723679
 42
4.469890960892005
  0
ELLIPSE
  5
9D
330
84
100
AcDbEntity
  8
40292000_HALTER_
  6
Continuous
 62
     7
100
AcDbEllipse
 10
22.350882802
 20
314.7595665317
 30
0.0
 11
0.9997979546554348
 21
-0.02010099170765903
 31
0.0
210
0.0
220
0.0
230
1.0
 40
0.9992570777
 41
0.1989886495157065
 42
1.803660269851095
  0
ELLIPSE
  5
9E
330
84
100
AcDbEntity
  8
40292000_HALTER_
  6
Continuous
 62
     7
100
AcDbEllipse
 10
22.350882802
 20
314.7595665317
 30
0.0
 11
-0.9837314517197047
 21
-0.1796452918891994
 31
0.0
210
0.0
220
0.0
230
0.9999999999999999
 40
0.2400004867
 41
3.133744792466278
 42
4.720465377757613
  0
ELLIPSE
  5
9F
330
84
100
AcDbEntity
  8
40292000_HALTER_
  6
Continuous
 62
     7
100
AcDbEllipse
 10
30.4111098187
 20
314.7538877148
 30
0.0
 11
0.9836680752078886
 21
-0.1799919937602694
 31
0.0
210
0.0
220
0.0
230
1.0
 40
0.2399139498
 41
1.56289178823593
 42
3.147340828601568
  0
ARC
  5
A0
330
84
100
AcDbEntity
  8
40292000_HALTER_
  6
Continuous
 62
     7
100
AcDbCircle
 10
26.3815321687
 20
315.5224805034
 30
0.0
 40
3.102290322017927
100
AcDbArc
 50
190.8717529255
 51
349.0373368653
  0
ELLIPSE
  5
A1
330
84
100
AcDbEntity
  8
40292000_HALTER_
  6
Continuous
 62
     7
100
AcDbEllipse
 10
30.4111098187
 20
314.7538877148
 30
0.0
 11
-0.9981742773584878
 21
0.06039960281863099
 31
0.0
210
0.0
220
0.0
230
1.0
 40
0.9989001058
 41
4.558724979503303
 42
6.163892493884149
  0
ARC
  5
A2
330
84
100
AcDbEntity
  8
40292000_HALTER_
  6
Continuous
 62
     7
100
AcDbCircle
 10
26.3850206417
 20
296.2208241653
 30
0.0
 40
6.25
100
AcDbArc
 50
73.7397952917
 51
286.2602047083
  0
LINE
  5
A3
330
84
100
AcDbEntity
  8
40292000_HALTER_
  6
Continuous
 62
     7
100
AcDbLine
 10
46.3850206404
 20
287.2205733626
 30
0.0
 11
46.3850206401
 21
290.2269999108
 31
0.0
  0
LINE
  5
A4
330
84
100
AcDbEntity
  8
40292000_HALTER_
  6
Continuous
 62
     7
100
AcDbLine
 10
6.3850206873
 20
296.2116426292
 30
0.0
 11
6.3850206429
 21
287.2205783118
 31
0.0
  0
ARC
  5
A5
330
84
100
AcDbEntity
  8
40292000_HALTER_
  6
Continuous
 62
     7
100
AcDbCircle
 10
26.3743067542
 20
296.1648135938
 30
0.0
 40
20.01871771045339
100
AcDbArc
 50
51.8718287525
 51
77.7468009102
  0
SPLINE
  5
A6
330
84
100
AcDbEntity
  8
40292000_HALTER_
  6
Continuous
 62
     7
100
AcDbSpline
210
0.0
220
0.0
230
1.0
 70
    11
 71
     3
 72
    22
 73
    18
 74
     0
 42
0.0000000006937277
 43
0.0000000001
 40
0.0
 40
0.0
 40
0.0
 40
0.0
 40
0.125
 40
0.125
 40
0.25
 40
0.25
 40
0.375
 40
0.375
 40
0.5
 40
0.5
 40
0.625
 40
0.625
 40
0.75
 40
0.75
 40
0.875
 40
0.875
 40
1.0
 40
1.0
 40
1.0
 40
1.0
 10
629.8850206416889
 20
276.3254467051769
 30
0.0
 10
629.8850206416889
 20
276.2590576669423
 30
0.0
 10
629.5073155269532
 20
276.1051897155808
 30
0.0
 10
628.2306767560815
 20
275.8234885504239
 30
0.0
 10
627.320209171146
 20
275.7106791086219
 30
0.0
 10
625.487582168332
 20
275.721179772528
 30
0.0
 10
624.5766979504727
 20
275.8433451503457
 30
0.0
 10
623.2752319759425
 20
276.1393620376325
 30
0.0
 10
622.8948387006303
 20
276.2935453150227
 30
0.0
 10
622.8755903460718
 20
276.4184427028777
 30
0.0
 10
623.2468201611694
 20
276.3863871616724
 30
0.0
 10
624.5319264953131
 20
276.2683794966346
 30
0.0
 10
625.4381961046223
 20
276.2001014866421
 30
0.0
 10
627.2907343509333
 20
276.1956387862998
 30
0.0
 10
628.2024540344872
 20
276.2591748226215
 30
0.0
 10
629.5003111398123
 20
276.3653420808161
 30
0.0
 10
629.8850206416889
 20
276.3918357434114
 30
0.0
 10
629.8850206416889
 20
276.3254467051769
 30
0.0
  0
LINE
  5
A7
330
84
100
AcDbEntity
  8
40292000_HALTER_
  6
Continuous
 62
     7
100
AcDbLine
 10
621.3752930943
 20
276.8518241653
 30
0.0
 11
621.3133565277
 21
276.8680041356
 31
0.0
  0
LINE
  5
A8
330
84
100
AcDbEntity
  8
40292000_HALTER_
  6
Continuous
 62
     7
100
AcDbLine
 10
621.3752930943
 20
276.8518241653
 30
0.0
 11
621.326057741
 21
276.8518241653
 31
0.0
  0
LINE
  5
A9
330
84
100
AcDbEntity
  8
40292000_HALTER_
  6
Continuous
 62
     7
100
AcDbLine
 10
621.3133565277
 20
276.8680041356
 30
0.0
 11
621.326057741
 21
276.8518241653
 31
0.0
  0
SPLINE
  5
AA
330
84
100
AcDbEntity
  8
40292000_HALTER_
  6
Continuous
 62
     7
100
AcDbSpline
210
0.0
220
0.0
230
1.0
 70
    12
 71
     4
 72
    13
 73
     8
 74
     0
 42
0.0000000000750113
 43
0.0000000001
 40
0.2304369861553121
 40
0.2304369861553121
 40
0.2304369861553121
 40
0.2304369861553121
 40
0.2304369861553121
 40
0.5000008836345458
 40
0.5000008836345458
 40
0.5000008836345458
 40
0.7695648233290358
 40
0.7695648233290358
 40
0.7695648233290358
 40
0.7695648233290358
 40
0.7695648233290358
 10
646.3850206404327
 20
287.2205775903432
 30
0.0
 41
0.58578643761428
 10
646.3849413883922
 20
279.4424179557846
 30
0.0
 41
0.585785641116711
 10
642.849328815285
 20
269.1098460792413
 30
0.0
 41
0.5522852808439025
 10
633.4560324139213
 20
265.2208241653008
 30
0.0
 41
0.585786437626905
 10
619.3140077620953
 20
265.2208241653008
 30
0.0
 41
0.585786437626905
 10
609.9207093475396
 20
269.1098473712159
 30
0.0
 41
0.5522852703509532
 10
606.3850983288902
 20
279.442422532587
 30
0.0
 41
0.5857856568557631
 10
606.385020642896
 20
287.2205824627545
 30
0.0
 41
0.585786437614774
  0
ARC
  5
AB
330
84
100
AcDbEntity
  8
40292000_HALTER_
  6
Continuous
 62
     7
100
AcDbCircle
 10
626.3670480217
 20
296.1992084216
 30
0.0
 40
19.98920122798631
100
AcDbArc
 50
77.5260444031
 51
77.7054057429
  0
ARC
  5
AC
330
84
100
AcDbEntity
  8
40292000_HALTER_
  6
Continuous
 62
     7
100
AcDbCircle
 10
626.3670480217
 20
296.1992084216
 30
0.0
 40
19.98920122798631
100
AcDbArc
 50
197.4256936193
 51
51.7937406116
  0
ARC
  5
AD
330
84
100
AcDbEntity
  8
40292000_HALTER_
  6
Continuous
 62
     7
100
AcDbCircle
 10
626.3670480217
 20
296.1992084216
 30
0.0
 40
19.98920122798631
100
AcDbArc
 50
102.2091670621
 51
162.4492707228
  0
LINE
  5
AE
330
84
100
AcDbEntity
  8
40292000_HALTER_
  6
Continuous
 62
     7
100
AcDbLine
 10
631.4528311574
 20
276.8518241653
 30
0.0
 11
631.4566847556
 21
276.8583205785
 31
0.0
  0
LINE
  5
AF
330
84
100
AcDbEntity
  8
40292000_HALTER_
  6
Continuous
 62
     7
100
AcDbLine
 10
631.4528311574
 20
276.8518241653
 30
0.0
 11
631.4317315219
 21
276.8518241653
 31
0.0
  0
LINE
  5
B0
330
84
100
AcDbEntity
  8
40292000_HALTER_
  6
Continuous
 62
     7
100
AcDbLine
 10
631.4566847556
 20
276.8583205785
 30
0.0
 11
631.4317315219
 21
276.8518241653
 31
0.0
  0
ELLIPSE
  5
B1
330
84
100
AcDbEntity
  8
40292000_HALTER_
  6
Continuous
 62
     7
100
AcDbEllipse
 10
630.4111098187
 20
314.7538877148
 30
0.0
 11
-0.2126272767005574
 21
-0.9771333794333404
 31
0.0
210
0.0
220
0.0
230
1.0
 40
0.0000861628
 41
3.095239549381582
 42
4.469985403419453
  0
ELLIPSE
  5
B2
330
84
100
AcDbEntity
  8
40292000_HALTER_
  6
Continuous
 62
     7
100
AcDbEllipse
 10
622.350882802
 20
314.7595665317
 30
0.0
 11
0.2113352115210966
 21
-0.9774136424111137
 31
0.0
210
0.0
220
0.0
230
1.0
 40
0.0003276772
 41
3.104084563745697
 42
4.469890960841172
  0
ELLIPSE
  5
B3
330
84
100
AcDbEntity
  8
40292000_HALTER_
  6
Continuous
 62
     7
100
AcDbEllipse
 10
622.350882802
 20
314.7595665317
 30
0.0
 11
0.9997979546550869
 21
-0.02010099170637533
 31
0.0
210
0.0
220
0.0
230
0.9999999999999999
 40
0.9992570777
 41
0.1989886495142513
 42
1.803660269850692
  0
ELLIPSE
  5
B4
330
84
100
AcDbEntity
  8
40292000_HALTER_
  6
Continuous
 62
     7
100
AcDbEllipse
 10
622.350882802
 20
314.7595665317
 30
0.0
 11
-0.9837314517194446
 21
-0.1796452918891994
 31
0.0
210
0.0
220
0.0
230
1.0
 40
0.2400004867
 41
3.133744792468994
 42
4.72046537775775
  0
ELLIPSE
  5
B5
330
84
100
AcDbEntity
  8
40292000_HALTER_
  6
Continuous
 62
     7
100
AcDbEllipse
 10
630.4111098187
 20
314.7538877148
 30
0.0
 11
0.9836680752073983
 21
-0.179991993760259
 31
0.0
210
0.0
220
0.0
230
1.0
 40
0.2399139498
 41
1.562891788236305
 42
3.147340828597338
  0
ARC
  5
B6
330
84
100
AcDbEntity
  8
40292000_HALTER_
  6
Continuous
 62
     7
100
AcDbCircle
 10
626.3815321687
 20
315.5224805034
 30
0.0
 40
3.102290322018049
100
AcDbArc
 50
190.8717529255
 51
349.0373368653
  0
ELLIPSE
  5
B7
330
84
100
AcDbEntity
  8
40292000_HALTER_
  6
Continuous
 62
     7
100
AcDbEllipse
 10
630.4111098187
 20
314.7538877148
 30
0.0
 11
-0.9981742773578893
 21
0.06039960282150716
 31
0.0
210
0.0
220
0.0
230
0.9999999999999998
 40
0.9989001058
 41
4.558724979505802
 42
6.163892493886834
  0
ARC
  5
B8
330
84
100
AcDbEntity
  8
40292000_HALTER_
  6
Continuous
 62
     7
100
AcDbCircle
 10
626.3850206417
 20
296.2208241653
 30
0.0
 40
6.25
100
AcDbArc
 50
0.0
 51
106.2602047083
  0
ARC
  5
B9
330
84
100
AcDbEntity
  8
40292000_HALTER_
  6
Continuous
 62
     7
100
AcDbCircle
 10
626.3850206417
 20
296.2208241653
 30
0.0
 40
6.25
100
AcDbArc
 50
253.7397952917
 51
0.0
  0
LINE
  5
BA
330
84
100
AcDbEntity
  8
40292000_HALTER_
  6
Continuous
 62
     7
100
AcDbLine
 10
646.3850206404
 20
287.2205733626
 30
0.0
 11
646.3850206396
 21
296.1793098546
 31
0.0
  0
LINE
  5
BB
330
84
100
AcDbEntity
  8
40292000_HALTER_
  6
Continuous
 62
     7
100
AcDbLine
 10
606.3850206578
 20
290.2323167419
 30
0.0
 11
606.3850206429
 21
287.2205783118
 31
0.0
  0
ARC
  5
BC
330
84
100
AcDbEntity
  8
40292000_HALTER_
  6
Continuous
 62
     7
100
AcDbCircle
 10
626.3743067542
 20
296.1648135938
 30
0.0
 40
20.01871771045807
100
AcDbArc
 50
51.8718287525
 51
77.7468009102
  0
CIRCLE
  5
BD
330
84
100
AcDbEntity
  8
40292000_HALTER_
  6
Continuous
 62
     7
100
AcDbCircle
 10
26.385044099
 20
315.5529119521
 30
0.0
 40
2.949882501993324
  0
LINE
  5
BE
330
84
100
AcDbEntity
  8
40292000_HALTER_
  6
Continuous
 62
     7
100
AcDbLine
 10
29.3350206417
 20
314.5901729885
 30
0.0
 11
29.3350206417
 21
315.5492178264
 31
0.0
  0
LINE
  5
BF
330
84
100
AcDbEntity
  8
40292000_HALTER_
  6
Continuous
 62
     7
100
AcDbLine
 10
23.4350206417
 20
315.5491470515
 30
0.0
 11
23.4350206417
 21
314.5877346995
 31
0.0
  0
CIRCLE
  5
C0
330
84
100
AcDbEntity
  8
40292000_HALTER_
  6
Continuous
 62
     7
100
AcDbCircle
 10
626.385044099
 20
315.5529119521
 30
0.0
 40
2.949882501993239
  0
LINE
  5
C1
330
84
100
AcDbEntity
  8
40292000_HALTER_
  6
Continuous
 62
     7
100
AcDbLine
 10
629.3350206417
 20
314.5901729885
 30
0.0
 11
629.3350206417
 21
315.5492178264
 31
0.0
  0
LINE
  5
C2
330
84
100
AcDbEntity
  8
40292000_HALTER_
  6
Continuous
 62
     7
100
AcDbLine
 10
623.4350206417
 20
315.5491470515
 30
0.0
 11
623.4350206417
 21
314.5877346995
 31
0.0
  0
ENDBLK
  5
C4
330
84
100
AcDbEntity
  8
0
100
AcDbBlockEnd
  0
BLOCK
  5
E8
330
C5
100
AcDbEntity
  8
0
100
AcDbBlockBegin
  2
SE1
 70
     0
 10
0.0
 20
0.0
 30
0.0
  3
SE1
  1

  0
ARC
  5
C7
330
C5
100
AcDbEntity
  8
40292000_HALTER_
  6
Continuous
 62
     7
100
AcDbCircle
 10
799.2768463885
 20
296.2208241653
 30
0.0
 40
6.0
100
AcDbArc
 50
270.0
 51
90.0
  0
LINE
  5
C8
330
C5
100
AcDbEntity
  8
40292000_HALTER_
  6
Continuous
 62
     7
100
AcDbLine
 10
799.2768463885
 20
302.2208241653
 30
0.0
 11
771.3683886108
 21
302.2208241653
 31
0.0
  0
LINE
  5
C9
330
C5
100
AcDbEntity
  8
40292000_HALTER_
  6
Continuous
 62
     7
100
AcDbLine
 10
771.3683886108
 20
290.2208241653
 30
0.0
 11
799.2768463885
 21
290.2208241653
 31
0.0
  0
LINE
  5
CA
330
C5
100
AcDbEntity
  8
40292000_HALTER_
  6
Continuous
 62
     7
100
AcDbLine
 10
771.3683886108
 20
302.2208241653
 30
0.0
 11
757.6276576279
 21
302.2208241653
 31
0.0
  0
LINE
  5
CB
330
C5
100
AcDbEntity
  8
40292000_HALTER_
  6
Continuous
 62
     7
100
AcDbLine
 10
757.6276576279
 20
290.2208241653
 30
0.0
 11
771.3683886108
 21
290.2208241653
 31
0.0
  0
LINE
  5
CC
330
C5
100
AcDbEntity
  8
40292000_HALTER_
  6
Continuous
 62
     7
100
AcDbLine
 10
757.6276576279
 20
302.2208241653
 30
0.0
 11
751.8406195166
 21
302.2208241653
 31
0.0
  0
LINE
  5
CD
330
C5
100
AcDbEntity
  8
40292000_HALTER_
  6
Continuous
 62
     7
100
AcDbLine
 10
751.8406195166
 20
290.2208241653
 30
0.0
 11
757.6276576279
 21
290.2208241653
 31
0.0
  0
ARC
  5
CE
330
C5
100
AcDbEntity
  8
40292000_HALTER_
  6
Continuous
 62
     7
100
AcDbCircle
 10
745.7228041975
 20
260.0470220636
 30
0.0
 40
16.328868647111
100
AcDbArc
 50
81.5308985451
 51
106.3444806568
  0
LINE
  5
CF
330
C5
100
AcDbEntity
  8
40292000_HALTER_
  6
Continuous
 62
     7
100
AcDbLine
 10
709.6276576279
 20
308.7208422345
 30
0.0
 11
709.6276576279
 21
265.2208241653
 31
0.0
  0
SPLINE
  5
D0
330
C5
100
AcDbEntity
  8
40292000_HALTER_
  6
Continuous
 62
     7
100
AcDbSpline
210
0.0
220
0.0
230
1.0
 70
     8
 71
     3
 72
    10
 73
     6
 74
     0
 42
0.0000000015603939
 43
0.0000000001
 40
0.503242408621072
 40
0.503242408621072
 40
0.503242408621072
 40
0.503242408621072
 40
0.75
 40
0.75
 40
0.9390413374459897
 40
0.9390413374459897
 40
0.9390413374459897
 40
0.9390413374459897
 10
750.6324789095597
 20
311.6163311493388
 30
0.0
 10
750.6301083684208
 20
311.6257511609147
 30
0.0
 10
750.5425356421816
 20
311.9770476721777
 30
0.0
 10
750.274874953929
 20
313.0476857345541
 30
0.0
 10
750.1232245593395
 20
313.6534487162202
 30
0.0
 10
749.9545335959924
 20
314.3256768411911
 30
0.0
  0
ELLIPSE
  5
D1
330
C5
100
AcDbEntity
  8
40292000_HALTER_
  6
Continuous
 62
     7
100
AcDbEllipse
 10
748.8159078783
 20
314.7595665317
 30
0.0
 11
0.9999987979624967
 21
-0.001550507530204831
 31
0.0
210
0.0
220
0.0
230
1.0
 40
0.9774135899
 41
0.2440135073413163
 42
1.609819904477917
  0
ELLIPSE
  5
D2
330
C5
100
AcDbEntity
  8
40292000_HALTER_
  6
Continuous
 62
     7
100
AcDbEllipse
 10
748.8159078783
 20
314.7595665317
 30
0.0
 11
0.03853171926069404
 21
-0.9992573775617214
 31
0.0
210
0.0
220
0.0
230
0.9999999999999999
 40
0.0007746821
 41
2.928816125662155
 42
3.33147869205788
  0
ELLIPSE
  5
D3
330
C5
100
AcDbEntity
  8
40292000_HALTER_
  6
Continuous
 62
     7
100
AcDbEllipse
 10
748.8159078783
 20
314.7595665317
 30
0.0
 11
-0.9698417341986105
 21
-0.243735534149865
 31
0.0
210
0.0
220
0.0
230
0.9999999999999998
 40
0.1743947572
 41
3.089716311823722
 42
3.197461292126925
  0
LINE
  5
D4
330
C5
100
AcDbEntity
  8
40292000_HALTER_
  6
Continuous
 62
     7
100
AcDbLine
 10
748.1201430145
 20
276.1957489736
 30
0.0
 11
748.8234492587
 21
276.2105205171
 31
0.0
  0
ARC
  5
D5
330
C5
100
AcDbEntity
  8
40292000_HALTER_
  6
Continuous
 62
     7
100
AcDbCircle
 10
750.1156674833
 20
196.2033404941
 30
0.0
 40
80.01682320174673
100
AcDbArc
 50
96.4444477759
 51
120.3973398032
  0
ARC
  5
D6
330
C5
100
AcDbEntity
  8
40292000_HALTER_
  6
Continuous
 62
     7
100
AcDbCircle
 10
672.1175001476
 20
296.2208241653
 30
0.0
 40
80.01015748031135
100
AcDbArc
 50
4.8699762708
 51
11.0998134397
  0
ARC
  5
D7
330
C5
100
AcDbEntity
  8
40292000_HALTER_
  6
Continuous
 62
     7
100
AcDbCircle
 10
672.1175001476
 20
296.2208241653
 30
0.0
 40
80.0101574803113
100
AcDbArc
 50
346.0880652452
 51
355.1300237292
  0
ARC
  5
D8
330
C5
100
AcDbEntity
  8
40292000_HALTER_
  6
Continuous
 62
     7
100
AcDbCircle
 10
748.8114281092
 20
277.2090814986
 30
0.0
 40
0.9947574188597145
100
AcDbArc
 50
270.7358680734
 51
346.9183707603
  0
ARC
  5
D9
330
C5
100
AcDbEntity
  8
40292000_HALTER_
  6
Continuous
 62
     7
100
AcDbCircle
 10
754.2530969708
 20
172.0812148808
 30
0.0
 40
143.7749846758244
100
AcDbArc
 50
92.1825732618
 51
108.0847850749
  0
SPLINE
  5
DA
330
C5
100
AcDbEntity
  8
40292000_HALTER_
  6
Continuous
 62
     7
100
AcDbSpline
210
0.0
220
0.0
230
1.0
 70
     8
 71
     3
 72
     8
 73
     4
 74
     0
 42
0.0000000147057303
 43
0.0000000001
 40
0.0
 40
0.0
 40
0.0
 40
0.0
 40
1.0
 40
1.0
 40
1.0
 40
1.0
 10
749.9510636639026
 20
314.3448701487974
 30
0.0
 10
749.8959532246243
 20
314.5644739665767
 30
0.0
 10
749.8407422250905
 20
314.784316147734
 30
0.0
 10
749.7854306653007
 20
315.0043966922693
 30
0.0
  0
ARC
  5
DB
330
C5
100
AcDbEntity
  8
40292000_HALTER_
  6
Continuous
 62
     7
100
AcDbCircle
 10
749.6589027948
 20
311.4291135257
 30
0.0
 40
0.9912322464621487
100
AcDbArc
 50
13.9522358466
 51
16.5714582141
  0
LINE
  5
DC
330
C5
100
AcDbEntity
  8
40292000_HALTER_
  6
Continuous
 62
     7
100
AcDbLine
 10
750.0008430342
 20
314.1476922703
 30
0.0
 11
749.836349916
 21
314.8030090139
 31
0.0
  0
ARC
  5
DD
330
C5
100
AcDbEntity
  8
40292000_HALTER_
  6
Continuous
 62
     7
100
AcDbCircle
 10
751.3406195166
 20
289.4708241653
 30
0.0
 40
0.5000000000000288
100
AcDbArc
 50
355.1300237292
 51
0.0
  0
ARC
  5
DE
330
C5
100
AcDbEntity
  8
40292000_HALTER_
  6
Continuous
 62
     7
100
AcDbCircle
 10
751.3406195166
 20
302.9708241653
 30
0.0
 40
0.5000000000000004
100
AcDbArc
 50
0.0
 51
4.8699762708
  0
LINE
  5
DF
330
C5
100
AcDbEntity
  8
40292000_HALTER_
  6
Continuous
 62
     7
100
AcDbLine
 10
751.8406195166
 20
289.4708241653
 30
0.0
 11
751.8406195166
 21
302.9708241653
 31
0.0
  0
SPLINE
  5
E0
330
C5
100
AcDbEntity
  8
40292000_HALTER_
  6
Continuous
 62
     7
100
AcDbSpline
210
0.0
220
0.0
230
1.0
 70
     8
 71
     3
 72
    10
 73
     6
 74
     0
 42
0.0000000008386369
 43
0.0000000001
 40
0.2585934130472607
 40
0.2585934130472607
 40
0.2585934130472607
 40
0.2585934130472607
 40
0.375
 40
0.375
 40
0.4985403828880747
 40
0.4985403828880747
 40
0.4985403828880747
 40
0.4985403828880747
 10
709.9795976416588
 20
311.765550125975
 30
0.0
 10
709.9796906489331
 20
311.7634730243926
 30
0.0
 10
709.9935286100266
 20
311.4734374207846
 30
0.0
 10
710.0437328237799
 20
310.4334322620977
 30
0.0
 10
710.0804813960175
 20
309.6781988471697
 30
0.0
 10
710.1185117153117
 20
308.907770391562
 30
0.0
  0
SPLINE
  5
E1
330
C5
100
AcDbEntity
  8
40292000_HALTER_
  6
Continuous
 62
     7
100
AcDbSpline
210
0.0
220
0.0
230
1.0
 70
     8
 71
     3
 72
    14
 73
    10
 74
     0
 42
0.000000000787105
 43
0.0000000001
 40
0.4597132673914537
 40
0.4597132673914537
 40
0.4597132673914537
 40
0.4597132673914537
 40
0.5
 40
0.5
 40
0.625
 40
0.625
 40
0.75
 40
0.75
 40
0.7510221749954431
 40
0.7510221749954431
 40
0.7510221749954431
 40
0.7510221749954431
 10
749.8361428829814
 20
314.8016969928141
 30
0.0
 10
749.8348590313002
 20
315.0415631314772
 30
0.0
 10
749.8335394808722
 20
315.2891002282213
 30
0.0
 10
749.8281406661331
 20
316.3072881331126
 30
0.0
 10
749.8241166385895
 20
317.0792013828933
 30
0.0
 10
749.8184672159132
 20
318.1735028551217
 30
0.0
 10
749.8168179404257
 20
318.4979625645071
 30
0.0
 10
749.816794059344
 20
318.5026423339836
 30
0.0
 10
749.8167939742823
 20
318.5026589155327
 30
0.0
 10
749.8167939976244
 20
318.5026541716269
 30
0.0
  0
LINE
  5
E2
330
C5
100
AcDbEntity
  8
40292000_HALTER_
  6
Continuous
 62
     7
100
AcDbLine
 10
709.6276576279
 20
311.2880105383
 30
0.0
 11
709.6276576279
 21
308.7575994337
 31
0.0
  0
SPLINE
  5
E3
330
C5
100
AcDbEntity
  8
40292000_HALTER_
  6
Continuous
 62
     7
100
AcDbSpline
210
0.0
220
0.0
230
1.0
 70
     8
 71
     3
 72
    16
 73
    12
 74
     0
 42
0.0000000002467333
 43
0.0000000001
 40
0.0
 40
0.0
 40
0.0
 40
0.0
 40
0.1106899673963817
 40
0.2279431545447227
 40
0.3451963416930633
 40
0.4624495288414044
 40
0.5797027159897455
 40
0.6948622617699884
 40
0.8100218075502295
 40
0.9251813533304697
 40
1.0
 40
1.0
 40
1.0
 40
1.0
 10
749.816921680164
 20
318.4987397225256
 30
0.0
 10
748.1735888245057
 20
318.4318449263439
 30
0.0
 10
745.3199900685664
 20
318.3095195854253
 30
0.0
 10
740.5776197415396
 20
317.927045454364
 30
0.0
 10
735.8801199331347
 20
317.4053666274563
 30
0.0
 10
731.1682220937276
 20
316.7321791804985
 30
0.0
 10
726.5188423604653
 20
315.9188971512419
 30
0.0
 10
721.9122939403368
 20
314.96590863777
 30
0.0
 10
717.4022590418009
 20
313.8848954575565
 30
0.0
 10
713.327913099431
 20
312.7883804361085
 30
0.0
 10
711.0432219231388
 20
312.0802092778237
 30
0.0
 10
709.9818734630729
 20
311.749436083793
 30
0.0
  0
ARC
  5
E4
330
C5
100
AcDbEntity
  8
40292000_HALTER_
  6
Continuous
 62
     7
100
AcDbCircle
 10
730.5691252417
 20
315.5675045794
 30
0.0
 40
19.9181996719519
100
AcDbArc
 50
352.7169759047
 51
7.1835859247
  0
ARC
  5
E5
330
C5
100
AcDbEntity
  8
40292000_HALTER_
  6
Continuous
 62
     7
100
AcDbCircle
 10
749.8339914649
 20
318.0029522336
 30
0.0
 40
0.4999999264691335
100
AcDbArc
 50
6.3572911801
 51
91.9666881039
  0
ARC
  5
E6
330
C5
100
AcDbEntity
  8
40292000_HALTER_
  6
Continuous
 62
     7
100
AcDbCircle
 10
749.8302776867
 20
313.102857726
 30
0.0
 40
0.4999999697294136
100
AcDbArc
 50
340.7655473229
 51
353.0737421841
  0
ARC
  5
E7
330
C5
100
AcDbEntity
  8
40292000_HALTER_
  6
Continuous
 62
     7
100
AcDbCircle
 10
710.1276576199
 20
311.2882033101
 30
0.0
 40
0.4999999854885575
100
AcDbArc
 50
107.4711053539
 51
180.0000175526
  0
ENDBLK
  5
E9
330
C5
100
AcDbEntity
  8
0
100
AcDbBlockEnd
  0
BLOCK
  5
14F
330
EA
100
AcDbEntity
  8
0
100
AcDbBlockBegin
  2
SE2
 70
     0
 10
0.0
 20
0.0
 30
0.0
  3
SE2
  1

  0
LINE
  5
EC
330
EA
100
AcDbEntity
  8
40292000_HALTER_
  6
Continuous
 62
     7
100
AcDbLine
 10
29.4243364737
 20
171.9491887606
 30
0.0
 11
29.3527962572
 21
171.9491887606
 31
0.0
  0
LINE
  5
ED
330
EA
100
AcDbEntity
  8
40292000_HALTER_
  6
Continuous
 62
     7
100
AcDbLine
 10
23.4304052906
 20
171.9491887606
 30
0.0
 11
23.3212981688
 21
171.9491887606
 31
0.0
  0
LINE
  5
EE
330
EA
100
AcDbEntity
  8
40292000_HALTER_
  6
Continuous
 62
     7
100
AcDbLine
 10
623.3171349194
 20
171.9991887606
 30
0.0
 11
623.4181492089
 21
171.9991887606
 31
0.0
  0
LINE
  5
EF
330
EA
100
AcDbEntity
  8
40292000_HALTER_
  6
Continuous
 62
     7
100
AcDbLine
 10
629.3511645206
 20
171.9991887606
 30
0.0
 11
629.4236494773
 21
171.9991887606
 31
0.0
  0
LINE
  5
F0
330
EA
100
AcDbEntity
  8
40292000_HALTER_
  6
Continuous
 62
     7
100
AcDbLine
 10
29.4236494773
 20
171.9991887606
 30
0.0
 11
29.3511645206
 21
171.9991887606
 31
0.0
  0
LINE
  5
F1
330
EA
100
AcDbEntity
  8
40292000_HALTER_
  6
Continuous
 62
     7
100
AcDbLine
 10
23.4181492089
 20
171.9991887606
 30
0.0
 11
23.3171349194
 21
171.9991887606
 31
0.0
  0
LINE
  5
F2
330
EA
100
AcDbEntity
  8
40292000_HALTER_
  6
Continuous
 62
     7
100
AcDbLine
 10
620.3850206417
 20
159.786226872
 30
0.0
 11
620.3850206417
 21
153.9991887606
 31
0.0
  0
LINE
  5
F3
330
EA
100
AcDbEntity
  8
40292000_HALTER_
  6
Continuous
 62
     7
100
AcDbLine
 10
632.3850206417
 20
153.9991887606
 30
0.0
 11
632.3850206417
 21
159.786226872
 31
0.0
  0
ARC
  5
F4
330
EA
100
AcDbEntity
  8
40292000_HALTER_
  6
Continuous
 62
     7
100
AcDbCircle
 10
612.3850206417
 20
153.9991887606
 30
0.0
 40
7.99999999999992
100
AcDbArc
 50
281.0438739999
 51
360.0
  0
ARC
  5
F5
330
EA
100
AcDbEntity
  8
40292000_HALTER_
  6
Continuous
 62
     7
100
AcDbCircle
 10
612.3850206417
 20
153.9991887606
 30
0.0
 40
19.99999999999996
100
AcDbArc
 50
281.0438739999
 51
360.0
  0
ARC
  5
F6
330
EA
100
AcDbEntity
  8
40292000_HALTER_
  6
Continuous
 62
     7
100
AcDbCircle
 10
326.3850206417
 20
1619.35
 30
0.0
 40
1501.0
100
AcDbArc
 50
258.9561260001
 51
281.0438739999
  0
ARC
  5
F7
330
EA
100
AcDbEntity
  8
40292000_HALTER_
  6
Continuous
 62
     7
100
AcDbCircle
 10
326.3850206417
 20
1619.35
 30
0.0
 40
1513.0
100
AcDbArc
 50
258.9561260001
 51
270.0
  0
ARC
  5
F8
330
EA
100
AcDbEntity
  8
40292000_HALTER_
  6
Continuous
 62
     7
100
AcDbCircle
 10
326.3850206417
 20
1619.35
 30
0.0
 40
1513.0
100
AcDbArc
 50
270.0
 51
281.0438739999
  0
ARC
  5
F9
330
EA
100
AcDbEntity
  8
40292000_HALTER_
  6
Continuous
 62
     7
100
AcDbCircle
 10
40.3850206417
 20
153.9991887606
 30
0.0
 40
7.999999999999821
100
AcDbArc
 50
180.0
 51
258.9561260001
  0
ARC
  5
FA
330
EA
100
AcDbEntity
  8
40292000_HALTER_
  6
Continuous
 62
     7
100
AcDbCircle
 10
40.3850206417
 20
153.9991887606
 30
0.0
 40
19.99999999999991
100
AcDbArc
 50
180.0
 51
258.9561260001
  0
LINE
  5
FB
330
EA
100
AcDbEntity
  8
40292000_HALTER_
  6
Continuous
 62
     7
100
AcDbLine
 10
32.3850206417
 20
153.9991887606
 30
0.0
 11
32.3850206417
 21
159.786226872
 31
0.0
  0
LINE
  5
FC
330
EA
100
AcDbEntity
  8
40292000_HALTER_
  6
Continuous
 62
     7
100
AcDbLine
 10
20.3850206417
 20
159.786226872
 30
0.0
 11
20.3850206417
 21
153.9991887606
 31
0.0
  0
LINE
  5
FD
330
EA
100
AcDbEntity
  8
40292000_HALTER_
  6
Continuous
 62
     7
100
AcDbLine
 10
46.3850206417
 20
201.9991887606
 30
0.0
 11
30.6244672418
 21
201.9991887606
 31
0.0
  0
LINE
  5
FE
330
EA
100
AcDbEntity
  8
40292000_HALTER_
  6
Continuous
 62
     7
100
AcDbLine
 10
22.1453786187
 20
201.9991887606
 30
0.0
 11
6.3850206417
 21
201.9991887606
 31
0.0
  0
SPLINE
  5
FF
330
EA
100
AcDbEntity
  8
40292000_HALTER_
  6
Continuous
 62
     7
100
AcDbSpline
210
0.0
220
0.0
230
1.0
 70
     8
 71
     3
 72
     8
 73
     4
 74
     0
 42
0.0000000094251687
 43
0.0000000001
 40
0.2313898775810934
 40
0.2313898775810934
 40
0.2313898775810934
 40
0.2313898775810934
 40
0.2323323944541187
 40
0.2323323944541187
 40
0.2323323944541187
 40
0.2323323944541187
 10
46.38511461107003
 20
162.8178438233963
 30
0.0
 10
46.38521555685304
 20
162.8177675117076
 30
0.0
 10
46.38521526143907
 20
162.8176912978281
 30
0.0
 10
46.38511361212433
 20
162.8176151832863
 30
0.0
  0
LINE
  5
100
330
EA
100
AcDbEntity
  8
40292000_HALTER_
  6
Continuous
 62
     7
100
AcDbLine
 10
29.4250578244
 20
201.9991887606
 30
0.0
 11
28.9345575609
 21
201.9991887606
 31
0.0
  0
LINE
  5
101
330
EA
100
AcDbEntity
  8
40292000_HALTER_
  6
Continuous
 62
     7
100
AcDbLine
 10
23.835321676
 20
201.9991887606
 30
0.0
 11
23.345502606
 21
201.9991887606
 31
0.0
  0
LINE
  5
102
330
EA
100
AcDbEntity
  8
40292000_HALTER_
  6
Continuous
 62
     7
100
AcDbLine
 10
29.4250578244
 20
201.9991887606
 30
0.0
 11
30.6244672418
 21
201.9991887606
 31
0.0
  0
LINE
  5
103
330
EA
100
AcDbEntity
  8
40292000_HALTER_
  6
Continuous
 62
     7
100
AcDbLine
 10
22.1453786187
 20
201.9991887606
 30
0.0
 11
23.345502606
 21
201.9991887606
 31
0.0
  0
SPLINE
  5
104
330
EA
100
AcDbEntity
  8
40292000_HALTER_
  6
Continuous
 62
     7
100
AcDbSpline
210
0.0
220
0.0
230
1.0
 70
     8
 71
     3
 72
     8
 73
     4
 74
     0
 42
0.00000000009186
 43
0.0000000001
 40
0.0
 40
0.0
 40
0.0
 40
0.0
 40
0.0175893911337836
 40
0.0175893911337836
 40
0.0175893911337836
 40
0.0175893911337836
 10
22.29982433095895
 20
161.840197403268
 30
0.0
 10
21.65679174832596
 20
161.8404129794746
 30
0.0
 10
21.0157736717001
 20
161.8406422025622
 30
0.0
 10
20.38502064171466
 20
161.8408791402016
 30
0.0
  0
SPLINE
  5
105
330
EA
100
AcDbEntity
  8
40292000_HALTER_
  6
Continuous
 62
     7
100
AcDbSpline
210
0.0
220
0.0
230
1.0
 70
     8
 71
     3
 72
    20
 73
    16
 74
     0
 42
0.000000000157686
 43
0.0000000001
 40
0.0175893911337836
 40
0.0175893911337836
 40
0.0175893911337836
 40
0.0175893911337836
 40
0.0312499999999997
 40
0.0312499999999997
 40
0.0624999999999994
 40
0.0624999999999994
 40
0.0937499999999992
 40
0.0937499999999992
 40
0.1249999999999989
 40
0.1249999999999989
 40
0.1562499999999986
 40
0.1562499999999986
 40
0.1874999999999983
 40
0.1874999999999983
 40
0.2262312473902076
 40
0.2262312473902076
 40
0.2262312473902076
 40
0.2262312473902076
 10
20.38502064171466
 20
161.8408791402016
 30
0.0
 10
19.89515317738483
 20
161.8410631552362
 30
0.0
 10
19.41147726367043
 20
161.8412518234439
 30
0.0
 10
17.85440627885343
 20
161.8418782505687
 30
0.0
 10
16.82291028051136
 20
161.8423231196334
 30
0.0
 10
14.86289654683176
 20
161.843200995521
 30
0.0
 10
13.92802757896233
 20
161.843637244346
 30
0.0
 10
12.23430972952549
 20
161.8444418997675
 30
0.0
 10
11.46702866971189
 20
161.844813956064
 30
0.0
 10
10.09264729406562
 20
161.845484502567
 30
0.0
 10
9.48694039447412
 20
161.8457823519545
 30
0.0
 10
8.487518409685368
 20
161.8462777778806
 30
0.0
 10
8.085846517211948
 20
161.8464792353827
 30
0.0
 10
7.410765261732011
 20
161.8468357525514
 30
0.0
 10
7.199599218750075
 20
161.8469622185882
 30
0.0
 10
7.153547528223225
 20
161.8470386308897
 30
0.0
  0
SPLINE
  5
106
330
EA
100
AcDbEntity
  8
40292000_HALTER_
  6
Continuous
 62
     7
100
AcDbSpline
210
0.0
220
0.0
230
1.0
 70
     8
 71
     3
 72
    20
 73
    16
 74
     0
 42
0.0000000001651892
 43
0.0000000001
 40
0.2262312473902076
 40
0.2262312473902076
 40
0.2262312473902076
 40
0.2262312473902076
 40
0.249999999999997
 40
0.249999999999997
 40
0.3124999999999958
 40
0.3124999999999958
 40
0.3437499999999952
 40
0.3437499999999952
 40
0.3749999999999946
 40
0.3749999999999946
 40
0.4062499999999939
 40
0.4062499999999939
 40
0.4374999999999933
 40
0.4374999999999933
 40
0.4457345506736861
 40
0.4457345506736861
 40
0.4457345506736861
 40
0.4457345506736861
 10
7.153547528223225
 20
161.8470386308897
 30
0.0
 10
7.125286335693925
 20
161.847085523908
 30
0.0
 10
7.159208568052689
 20
161.8471135662773
 30
0.0
 10
7.510251832974102
 20
161.8471643716877
 30
0.0
 10
8.18713001630561
 20
161.8471069714784
 30
0.0
 10
9.803199216209368
 20
161.8470653051716
 30
0.0
 10
10.43042138432287
 20
161.8470591766432
 30
0.0
 10
11.85649831317198
 20
161.8470873449066
 30
0.0
 10
12.66460914084971
 20
161.8471223089252
 30
0.0
 10
14.41520453412076
 20
161.8472504681383
 30
0.0
 10
15.35234626871013
 20
161.8473428145211
 30
0.0
 10
17.34845733487039
 20
161.8475913892847
 30
0.0
 10
18.41865905611034
 20
161.8477497509678
 30
0.0
 10
19.80199083165479
 20
161.8479825754289
 30
0.0
 10
20.09249915587474
 20
161.8480329332932
 30
0.0
 10
20.38502064193509
 20
161.8480849758145
 30
0.0
  0
SPLINE
  5
107
330
EA
100
AcDbEntity
  8
40292000_HALTER_
  6
Continuous
 62
     7
100
AcDbSpline
210
0.0
220
0.0
230
1.0
 70
     8
 71
     3
 72
    20
 73
    16
 74
     0
 42
0.0000000001526966
 43
0.0000000001
 40
0.7684654296214816
 40
0.7684654296214816
 40
0.7684654296214816
 40
0.7684654296214816
 40
0.7812499999999964
 40
0.7812499999999964
 40
0.8124999999999974
 40
0.8124999999999974
 40
0.8437499999999982
 40
0.8437499999999982
 40
0.8749999999999991
 40
0.8749999999999991
 40
0.9062499999999999
 40
0.9062499999999999
 40
0.9375000000000008
 40
0.9375000000000008
 40
1.0
 40
1.0
 40
1.0
 40
1.0
 10
45.62507662025717
 20
161.8470592366992
 30
0.0
 10
45.62422059835453
 20
161.8468271818333
 30
0.0
 10
45.60535906141938
 20
161.8465894820871
 30
0.0
 10
45.4779196632053
 20
161.8457596534332
 30
0.0
 10
45.28200889731743
 20
161.8451513299758
 30
0.0
 10
44.68056801697201
 20
161.8439256046026
 30
0.0
 10
44.26972342358776
 20
161.8433040887279
 30
0.0
 10
43.26570901607568
 20
161.8421323359306
 30
0.0
 10
42.67128326233588
 20
161.8415765319718
 30
0.0
 10
41.29582131830173
 20
161.8405559898772
 30
0.0
 10
40.51301337721408
 20
161.840093277181
 30
0.0
 10
38.82204954681428
 20
161.8393215942159
 30
0.0
 10
37.90710562405247
 20
161.8390068082219
 30
0.0
 10
34.94850041882719
 20
161.8383017574581
 30
0.0
 10
32.77591181879242
 20
161.8381753377791
 30
0.0
 10
30.46206642108401
 20
161.8383793708278
 30
0.0
  0
ELLIPSE
  5
108
330
EA
100
AcDbEntity
  8
40292000_HALTER_
  6
Continuous
 62
     7
100
AcDbEllipse
 10
30.4111098187
 20
162.8091432003
 30
0.0
 11
0.0
 21
0.9721002972339526
 31
0.0
210
0.0
220
0.0
230
1.0
 40
1.0
 41
3.194035768249088
 42
4.927177771840341
  0
ELLIPSE
  5
109
330
EA
100
AcDbEntity
  8
40292000_HALTER_
  6
Continuous
 62
     7
100
AcDbEllipse
 10
22.350882802
 20
162.8109385102
 30
0.0
 11
-0.0003352492723429634
 21
-0.9999999438039739
 31
0.0
210
0.0
220
0.0
230
0.9999999999999999
 40
0.2113352002
 41
4.674951740470427
 42
6.040758137607265
  0
ELLIPSE
  5
10A
330
EA
100
AcDbEntity
  8
40292000_HALTER_
  6
Continuous
 62
     7
100
AcDbEllipse
 10
22.350882802
 20
162.8109385102
 30
0.0
 11
0.9999996994879412
 21
0.0007752577815198225
 31
0.0
210
0.0
220
0.0
230
1.0
 40
0.0385317077
 41
0.1788713623747311
 42
1.78354298271024
  0
ARC
  5
10B
330
EA
100
AcDbEntity
  8
40292000_HALTER_
  6
Continuous
 62
     7
100
AcDbCircle
 10
22853.8925834208
 20
176.24373903
 30
0.0
 40
22830.56160834627
100
AcDbArc
 50
179.9353638817
 51
180.0336919578
  0
ELLIPSE
  5
10C
330
EA
100
AcDbEntity
  8
40292000_HALTER_
  6
Continuous
 62
     7
100
AcDbEllipse
 10
22.350882802
 20
162.8109385102
 30
0.0
 11
0.8089782079636622
 21
0.5878386335045686
 31
0.0
210
0.0
220
0.0
230
1.0
 40
0.954979704
 41
4.053872364116724
 42
5.640592949412397
  0
ELLIPSE
  5
10D
330
EA
100
AcDbEntity
  8
40292000_HALTER_
  6
Continuous
 62
     7
100
AcDbEllipse
 10
30.4111098187
 20
162.8091432003
 30
0.0
 11
-0.8083315332896301
 21
0.5887275535343406
 31
0.0
210
0.0
220
0.0
230
1.0
 40
0.9549392206
 41
0.6458263624219204
 42
2.230275402787344
  0
SPLINE
  5
10E
330
EA
100
AcDbEntity
  8
40292000_HALTER_
  6
Continuous
 62
     7
100
AcDbSpline
210
0.0
220
0.0
230
1.0
 70
     8
 71
     3
 72
     8
 73
     4
 74
     0
 42
0.0000000030152041
 43
0.0000000001
 40
0.0
 40
0.0
 40
0.0
 40
0.0
 40
0.0449108845803865
 40
0.0449108845803865
 40
0.0449108845803865
 40
0.0449108845803865
 10
23.334922317162
 20
162.8185569218573
 30
0.0
 10
23.35764176602956
 20
162.7789037582937
 30
0.0
 10
23.38802667210505
 20
162.7398418921996
 30
0.0
 10
23.42578858991817
 20
162.7015782589809
 30
0.0
  0
SPLINE
  5
10F
330
EA
100
AcDbEntity
  8
40292000_HALTER_
  6
Continuous
 62
     7
100
AcDbSpline
210
0.0
220
0.0
230
1.0
 70
     8
 71
     3
 72
     8
 73
     4
 74
     0
 42
0.0000000030145355
 43
0.0000000001
 40
0.9565219553198105
 40
0.9565219553198105
 40
0.9565219553198105
 40
0.9565219553198105
 40
1.0
 40
1.0
 40
1.0
 40
1.0
 10
29.3392889488624
 20
162.7013725934678
 30
0.0
 10
29.37575937264053
 20
162.7385160247645
 30
0.0
 10
29.40518381532303
 20
162.776372273176
 30
0.0
 10
29.42720977469587
 20
162.8147234642614
 30
0.0
  0
ELLIPSE
  5
110
330
EA
100
AcDbEntity
  8
40292000_HALTER_
  6
Continuous
 62
     7
100
AcDbEllipse
 10
30.4111098187
 20
162.8091432003
 30
0.0
 11
-0.9999959808574266
 21
-0.002835184260877033
 31
0.0
210
0.0
220
0.0
230
1.0
 40
0.046803398
 41
4.498222207542271
 42
6.103389721923469
  0
ARC
  5
111
330
EA
100
AcDbEntity
  8
40292000_HALTER_
  6
Continuous
 62
     7
100
AcDbCircle
 10
5553.3158256789
 20
182.7103195957
 30
0.0
 40
5523.924445144144
100
AcDbArc
 50
179.7999297326
 51
180.2063634587
  0
LINE
  5
112
330
EA
100
AcDbEntity
  8
40292000_HALTER_
  6
Continuous
 62
     7
100
AcDbLine
 10
6.3850805563
 20
201.9991887606
 30
0.0
 11
6.3850853193
 21
162.8176943875
 31
0.0
  0
LINE
  5
113
330
EA
100
AcDbEntity
  8
40292000_HALTER_
  6
Continuous
 62
     7
100
AcDbLine
 10
46.3849565261
 20
162.8176372049
 30
0.0
 11
46.3849550677
 21
201.9991887606
 31
0.0
  0
ARC
  5
114
330
EA
100
AcDbEntity
  8
40292000_HALTER_
  6
Continuous
 62
     7
100
AcDbCircle
 10
26.3850206417
 20
239.5093462409
 30
0.0
 40
80.0101574803113
100
AcDbArc
 50
256.0966243883
 51
265.1300237292
  0
ARC
  5
115
330
EA
100
AcDbEntity
  8
40292000_HALTER_
  6
Continuous
 62
     7
100
AcDbCircle
 10
26.3850206417
 20
239.5093462409
 30
0.0
 40
80.01015748031136
100
AcDbArc
 50
274.8699762708
 51
283.9103401587
  0
ARC
  5
116
330
EA
100
AcDbEntity
  8
40292000_HALTER_
  6
Continuous
 62
     7
100
AcDbCircle
 10
7.3834200492
 20
162.8083170508
 30
0.0
 40
0.9883812910878116
100
AcDbArc
 50
179.4316916668
 51
256.8945096836
  0
ARC
  5
117
330
EA
100
AcDbEntity
  8
40292000_HALTER_
  6
Continuous
 62
     7
100
AcDbCircle
 10
45.3944262594
 20
162.8016250531
 30
0.0
 40
0.9795833528708682
100
AcDbArc
 50
283.3554143917
 51
0.948608964
  0
ARC
  5
118
330
EA
100
AcDbEntity
  8
40292000_HALTER_
  6
Continuous
 62
     7
100
AcDbCircle
 10
19.6350206417
 20
160.286226872
 30
0.0
 40
0.5000000000000283
100
AcDbArc
 50
265.1300237292
 51
270.0
  0
ARC
  5
119
330
EA
100
AcDbEntity
  8
40292000_HALTER_
  6
Continuous
 62
     7
100
AcDbCircle
 10
33.1350206417
 20
160.286226872
 30
0.0
 40
0.5000000000000004
100
AcDbArc
 50
270.0
 51
274.8699762708
  0
LINE
  5
11A
330
EA
100
AcDbEntity
  8
40292000_HALTER_
  6
Continuous
 62
     7
100
AcDbLine
 10
19.6350206417
 20
159.786226872
 30
0.0
 11
33.1350206417
 21
159.786226872
 31
0.0
  0
LINE
  5
11B
330
EA
100
AcDbEntity
  8
40292000_HALTER_
  6
Continuous
 62
     7
100
AcDbLine
 10
646.3850206417
 20
201.9991887606
 30
0.0
 11
630.6244672418
 21
201.9991887606
 31
0.0
  0
LINE
  5
11C
330
EA
100
AcDbEntity
  8
40292000_HALTER_
  6
Continuous
 62
     7
100
AcDbLine
 10
622.1453786187
 20
201.9991887606
 30
0.0
 11
606.3850206417
 21
201.9991887606
 31
0.0
  0
SPLINE
  5
11D
330
EA
100
AcDbEntity
  8
40292000_HALTER_
  6
Continuous
 62
     7
100
AcDbSpline
210
0.0
220
0.0
230
1.0
 70
     8
 71
     3
 72
     8
 73
     4
 74
     0
 42
0.0000000094251687
 43
0.0000000001
 40
0.2313898775811016
 40
0.2313898775811016
 40
0.2313898775811016
 40
0.2313898775811016
 40
0.2323323944541221
 40
0.2323323944541221
 40
0.2323323944541221
 40
0.2323323944541221
 10
646.3851146110702
 20
162.8178438233964
 30
0.0
 10
646.3852155568533
 20
162.8177675117076
 30
0.0
 10
646.3852152614393
 20
162.8176912978281
 30
0.0
 10
646.3851136121244
 20
162.8176151832863
 30
0.0
  0
LINE
  5
11E
330
EA
100
AcDbEntity
  8
40292000_HALTER_
  6
Continuous
 62
     7
100
AcDbLine
 10
629.4250578244
 20
201.9991887606
 30
0.0
 11
628.9345575609
 21
201.9991887606
 31
0.0
  0
LINE
  5
11F
330
EA
100
AcDbEntity
  8
40292000_HALTER_
  6
Continuous
 62
     7
100
AcDbLine
 10
623.835321676
 20
201.9991887606
 30
0.0
 11
623.345502606
 21
201.9991887606
 31
0.0
  0
LINE
  5
120
330
EA
100
AcDbEntity
  8
40292000_HALTER_
  6
Continuous
 62
     7
100
AcDbLine
 10
629.4250578244
 20
201.9991887606
 30
0.0
 11
630.6244672418
 21
201.9991887606
 31
0.0
  0
LINE
  5
121
330
EA
100
AcDbEntity
  8
40292000_HALTER_
  6
Continuous
 62
     7
100
AcDbLine
 10
622.1453786187
 20
201.9991887606
 30
0.0
 11
623.345502606
 21
201.9991887606
 31
0.0
  0
SPLINE
  5
122
330
EA
100
AcDbEntity
  8
40292000_HALTER_
  6
Continuous
 62
     7
100
AcDbSpline
210
0.0
220
0.0
230
1.0
 70
     8
 71
     3
 72
    20
 73
    16
 74
     0
 42
0.0000000001493642
 43
0.0000000001
 40
0.0
 40
0.0
 40
0.0
 40
0.0
 40
0.03125
 40
0.03125
 40
0.0625
 40
0.0625
 40
0.09375
 40
0.09375
 40
0.125
 40
0.125
 40
0.15625
 40
0.15625
 40
0.1875
 40
0.1875
 40
0.2262312469608942
 40
0.2262312469608942
 40
0.2262312469608942
 40
0.2262312469608942
 10
622.2998243309592
 20
161.840197403268
 30
0.0
 10
621.1573875033033
 20
161.8405804043853
 30
0.0
 10
620.0213093560524
 20
161.8410064811519
 30
0.0
 10
617.854406278854
 20
161.8418782505687
 30
0.0
 10
616.8229102805116
 20
161.8423231196334
 30
0.0
 10
614.862896546832
 20
161.843200995521
 30
0.0
 10
613.9280275789627
 20
161.843637244346
 30
0.0
 10
612.2343097295256
 20
161.8444418997675
 30
0.0
 10
611.4670286697119
 20
161.8448139560641
 30
0.0
 10
610.0926472940657
 20
161.8454845025671
 30
0.0
 10
609.4869403944742
 20
161.8457823519545
 30
0.0
 10
608.4875184096857
 20
161.8462777778806
 30
0.0
 10
608.0858465172121
 20
161.8464792353827
 30
0.0
 10
607.4107652658737
 20
161.8468357525492
 30
0.0
 10
607.1995992234314
 20
161.8469622185854
 30
0.0
 10
607.1535475297545
 20
161.8470386308872
 30
0.0
  0
SPLINE
  5
123
330
EA
100
AcDbEntity
  8
40292000_HALTER_
  6
Continuous
 62
     7
100
AcDbSpline
210
0.0
220
0.0
230
1.0
 70
     8
 71
     3
 72
     8
 73
     4
 74
     0
 42
0.0000000055937601
 43
0.0000000001
 40
0.2262312469608942
 40
0.2262312469608942
 40
0.2262312469608942
 40
0.2262312469608942
 40
0.2316565710404483
 40
0.2316565710404483
 40
0.2316565710404483
 40
0.2316565710404483
 10
607.1535475297545
 20
161.8470386308872
 30
0.0
 10
607.1470967856599
 20
161.8470493344285
 30
0.0
 10
607.1438858044706
 20
161.847059055849
 30
0.0
 10
607.1439218846631
 20
161.8470678523042
 30
0.0
  0
SPLINE
  5
124
330
EA
100
AcDbEntity
  8
40292000_HALTER_
  6
Continuous
 62
     7
100
AcDbSpline
210
0.0
220
0.0
230
1.0
 70
     8
 71
     3
 72
     8
 73
     4
 74
     0
 42
0.0000000066412413
 43
0.0000000001
 40
0.2316565710404483
 40
0.2316565710404483
 40
0.2316565710404483
 40
0.2316565710404483
 40
0.2323206951713425
 40
0.2323206951713425
 40
0.2323206951713425
 40
0.2323206951713425
 10
607.1439218846631
 20
161.8470678523042
 30
0.0
 10
607.1439263013071
 20
161.8470689290948
 30
0.0
 10
607.1439793740909
 20
161.8470699920252
 30
0.0
 10
607.1440811164019
 20
161.8470710412001
 30
0.0
  0
SPLINE
  5
125
330
EA
100
AcDbEntity
  8
40292000_HALTER_
  6
Continuous
 62
     7
100
AcDbSpline
210
0.0
220
0.0
230
1.0
 70
     8
 71
     3
 72
    20
 73
    16
 74
     0
 42
0.0000000001526966
 43
0.0000000001
 40
0.7684654296214867
 40
0.7684654296214867
 40
0.7684654296214867
 40
0.7684654296214867
 40
0.78125
 40
0.78125
 40
0.8125
 40
0.8125
 40
0.84375
 40
0.84375
 40
0.875
 40
0.875
 40
0.90625
 40
0.90625
 40
0.9375
 40
0.9375
 40
1.0
 40
1.0
 40
1.0
 40
1.0
 10
645.6250766202576
 20
161.8470592366992
 30
0.0
 10
645.6242205983549
 20
161.8468271818334
 30
0.0
 10
645.6053590614198
 20
161.8465894820872
 30
0.0
 10
645.4779196632056
 20
161.8457596534333
 30
0.0
 10
645.2820088973177
 20
161.8451513299759
 30
0.0
 10
644.6805680169722
 20
161.8439256046027
 30
0.0
 10
644.2697234235882
 20
161.8433040887279
 30
0.0
 10
643.2657090160758
 20
161.8421323359306
 30
0.0
 10
642.671283262336
 20
161.8415765319718
 30
0.0
 10
641.2958213183017
 20
161.8405559898772
 30
0.0
 10
640.5130133772141
 20
161.840093277181
 30
0.0
 10
638.8220495468145
 20
161.8393215942159
 30
0.0
 10
637.9071056240523
 20
161.8390068082219
 30
0.0
 10
634.9485004188269
 20
161.8383017574581
 30
0.0
 10
632.7759118187918
 20
161.8381753377791
 30
0.0
 10
630.4620664210837
 20
161.8383793708278
 30
0.0
  0
ELLIPSE
  5
126
330
EA
100
AcDbEntity
  8
40292000_HALTER_
  6
Continuous
 62
     7
100
AcDbEllipse
 10
630.4111098187
 20
162.8091432003
 30
0.0
 11
0.0
 21
0.972100297234147
 31
0.0
210
0.0
220
0.0
230
1.0
 40
1.0
 41
3.194035768248993
 42
4.927177771840219
  0
ELLIPSE
  5
127
330
EA
100
AcDbEntity
  8
40292000_HALTER_
  6
Continuous
 62
     7
100
AcDbEllipse
 10
622.350882802
 20
162.8109385102
 30
0.0
 11
-0.0003352492724722003
 21
-0.9999999438039808
 31
0.0
210
0.0
220
0.0
230
0.9999999999999999
 40
0.2113352002
 41
4.674951740470483
 42
6.040758137607145
  0
ELLIPSE
  5
128
330
EA
100
AcDbEntity
  8
40292000_HALTER_
  6
Continuous
 62
     7
100
AcDbEllipse
 10
622.350882802
 20
162.8109385102
 30
0.0
 11
0.9999996994876515
 21
0.0007752577815267614
 31
0.0
210
0.0
220
0.0
230
0.9999999999999999
 40
0.0385317077
 41
0.1788713623743455
 42
1.783542982710978
  0
ARC
  5
129
330
EA
100
AcDbEntity
  8
40292000_HALTER_
  6
Continuous
 62
     7
100
AcDbCircle
 10
23453.8925822526
 20
176.2437390301
 30
0.0
 40
22830.56160717805
100
AcDbArc
 50
179.9353638817
 51
180.0336919578
  0
ELLIPSE
  5
12A
330
EA
100
AcDbEntity
  8
40292000_HALTER_
  6
Continuous
 62
     7
100
AcDbEllipse
 10
622.350882802
 20
162.8109385102
 30
0.0
 11
0.8089782079635468
 21
0.5878386335042008
 31
0.0
210
0.0
220
0.0
230
0.9999999999999996
 40
0.954979704
 41
4.053872364116792
 42
5.640592949412592
  0
ELLIPSE
  5
12B
330
EA
100
AcDbEntity
  8
40292000_HALTER_
  6
Continuous
 62
     7
100
AcDbEllipse
 10
630.4111098187
 20
162.8091432003
 30
0.0
 11
-0.8083315332887161
 21
0.5887275535348612
 31
0.0
210
0.0
220
0.0
230
1.0
 40
0.9549392206
 41
0.6458263624230111
 42
2.230275402787921
  0
SPLINE
  5
12C
330
EA
100
AcDbEntity
  8
40292000_HALTER_
  6
Continuous
 62
     7
100
AcDbSpline
210
0.0
220
0.0
230
1.0
 70
     8
 71
     3
 72
     8
 73
     4
 74
     0
 42
0.0000000030152041
 43
0.0000000001
 40
0.0
 40
0.0
 40
0.0
 40
0.0
 40
0.0449108845803883
 40
0.0449108845803883
 40
0.0449108845803883
 40
0.0449108845803883
 10
623.3349223171621
 20
162.8185569218573
 30
0.0
 10
623.3576417660296
 20
162.7789037582937
 30
0.0
 10
623.3880266721052
 20
162.7398418921996
 30
0.0
 10
623.4257885899183
 20
162.7015782589809
 30
0.0
  0
SPLINE
  5
12D
330
EA
100
AcDbEntity
  8
40292000_HALTER_
  6
Continuous
 62
     7
100
AcDbSpline
210
0.0
220
0.0
230
1.0
 70
     8
 71
     3
 72
     8
 73
     4
 74
     0
 42
0.0000000030145355
 43
0.0000000001
 40
0.9565219553198352
 40
0.9565219553198352
 40
0.9565219553198352
 40
0.9565219553198352
 40
1.0
 40
1.0
 40
1.0
 40
1.0
 10
629.3392889488628
 20
162.7013725934678
 30
0.0
 10
629.3757593726408
 20
162.7385160247646
 30
0.0
 10
629.4051838153233
 20
162.776372273176
 30
0.0
 10
629.4272097746963
 20
162.8147234642614
 30
0.0
  0
ELLIPSE
  5
12E
330
EA
100
AcDbEntity
  8
40292000_HALTER_
  6
Continuous
 62
     7
100
AcDbEllipse
 10
630.4111098187
 20
162.8091432003
 30
0.0
 11
-0.9999959808570371
 21
-0.002835184260883972
 31
0.0
210
0.0
220
0.0
230
1.0
 40
0.046803398
 41
4.498222207541916
 42
6.103389721923407
  0
ARC
  5
12F
330
EA
100
AcDbEntity
  8
40292000_HALTER_
  6
Continuous
 62
     7
100
AcDbCircle
 10
6153.3158257256
 20
182.7103195957
 30
0.0
 40
5523.924445190934
100
AcDbArc
 50
179.7999297326
 51
180.2063634587
  0
LINE
  5
130
330
EA
100
AcDbEntity
  8
40292000_HALTER_
  6
Continuous
 62
     7
100
AcDbLine
 10
606.3850805563
 20
201.9991887606
 30
0.0
 11
606.3850853193
 21
162.8176943875
 31
0.0
  0
LINE
  5
131
330
EA
100
AcDbEntity
  8
40292000_HALTER_
  6
Continuous
 62
     7
100
AcDbLine
 10
646.3849565261
 20
162.8176372049
 30
0.0
 11
646.3849550677
 21
201.9991887606
 31
0.0
  0
ARC
  5
132
330
EA
100
AcDbEntity
  8
40292000_HALTER_
  6
Continuous
 62
     7
100
AcDbCircle
 10
626.3850206417
 20
239.5093462409
 30
0.0
 40
80.0101574803113
100
AcDbArc
 50
256.0966243883
 51
265.1300237292
  0
ARC
  5
133
330
EA
100
AcDbEntity
  8
40292000_HALTER_
  6
Continuous
 62
     7
100
AcDbCircle
 10
626.3850206417
 20
239.5093462409
 30
0.0
 40
80.01015748031135
100
AcDbArc
 50
274.8699762708
 51
283.9103401587
  0
ARC
  5
134
330
EA
100
AcDbEntity
  8
40292000_HALTER_
  6
Continuous
 62
     7
100
AcDbCircle
 10
607.3834200463
 20
162.8083170472
 30
0.0
 40
0.9883812865610585
100
AcDbArc
 50
179.4316914703
 51
256.8945098013
  0
ARC
  5
135
330
EA
100
AcDbEntity
  8
40292000_HALTER_
  6
Continuous
 62
     7
100
AcDbCircle
 10
645.3944262594
 20
162.8016250531
 30
0.0
 40
0.9795833528621893
100
AcDbArc
 50
283.3554143914
 51
0.9486089645
  0
ARC
  5
136
330
EA
100
AcDbEntity
  8
40292000_HALTER_
  6
Continuous
 62
     7
100
AcDbCircle
 10
619.6350206417
 20
160.286226872
 30
0.0
 40
0.5000000000000285
100
AcDbArc
 50
265.1300237292
 51
270.0
  0
ARC
  5
137
330
EA
100
AcDbEntity
  8
40292000_HALTER_
  6
Continuous
 62
     7
100
AcDbCircle
 10
633.1350206417
 20
160.286226872
 30
0.0
 40
0.5000000000000004
100
AcDbArc
 50
270.0
 51
274.8699762708
  0
LINE
  5
138
330
EA
100
AcDbEntity
  8
40292000_HALTER_
  6
Continuous
 62
     7
100
AcDbLine
 10
619.6350206417
 20
159.786226872
 30
0.0
 11
633.1350206417
 21
159.786226872
 31
0.0
  0
SPLINE
  5
139
330
EA
100
AcDbEntity
  8
40292000_HALTER_
  6
Continuous
 62
     7
100
AcDbSpline
210
0.0
220
0.0
230
1.0
 70
     8
 71
     3
 72
    16
 73
    12
 74
     0
 42
0.0000000008397863
 43
0.0000000001
 40
0.0083325270132743
 40
0.0083325270132743
 40
0.0083325270132743
 40
0.0083325270132743
 40
0.125
 40
0.125
 40
0.25
 40
0.25
 40
0.375
 40
0.375
 40
0.5
 40
0.5
 40
0.5092650494682945
 40
0.5092650494682945
 40
0.5092650494682945
 40
0.5092650494682945
 10
29.33491703583513
 20
201.499148428206
 30
0.0
 10
29.3341997712741
 20
201.5355915251617
 30
0.0
 10
29.06912497633962
 20
201.5711004155615
 30
0.0
 10
28.08477378811464
 20
201.6266079942303
 30
0.0
 10
27.32621920840089
 20
201.6449451312984
 30
0.0
 10
25.76473217862568
 20
201.6491415228803
 30
0.0
 10
24.96915753834478
 20
201.6351157822185
 30
0.0
 10
23.81993145274713
 20
201.5828081683876
 30
0.0
 10
23.47820599662936
 20
201.5454951096111
 30
0.0
 10
23.43607830064165
 20
201.5041318820332
 30
0.0
 10
23.43485255271172
 20
201.5012688887393
 30
0.0
 10
23.43528145177942
 20
201.4984019737357
 30
0.0
  0
LINE
  5
13A
330
EA
100
AcDbEntity
  8
40292000_HALTER_
  6
Continuous
 62
     7
100
AcDbLine
 10
28.8349379396
 20
201.9991887606
 30
0.0
 11
23.9350970218
 21
201.9991887606
 31
0.0
  0
SPLINE
  5
13B
330
EA
100
AcDbEntity
  8
40292000_HALTER_
  6
Continuous
 62
     7
100
AcDbSpline
210
0.0
220
0.0
230
1.0
 70
     8
 71
     3
 72
    14
 73
    10
 74
     0
 42
0.0000000009640488
 43
0.0000000001
 40
0.0150784091373248
 40
0.0150784091373248
 40
0.0150784091373248
 40
0.0150784091373248
 40
0.125
 40
0.125
 40
0.25
 40
0.25
 40
0.375
 40
0.375
 40
0.4983746513576931
 40
0.4983746513576931
 40
0.4983746513576931
 40
0.4983746513576931
 10
28.88513860093267
 20
161.2985107177165
 30
0.0
 10
28.82550854028138
 20
161.2980725463276
 30
0.0
 10
28.5628905725458
 20
161.2976569249658
 30
0.0
 10
27.68703633940489
 20
161.2970029345623
 30
0.0
 10
27.02948758295726
 20
161.2968009452495
 30
0.0
 10
25.71834819286606
 20
161.2968053041636
 30
0.0
 10
25.06717073762082
 20
161.2970081878323
 30
0.0
 10
24.13915797478505
 20
161.2977144174294
 30
0.0
 10
23.87585128323943
 20
161.2982001014963
 30
0.0
 10
23.87197980788536
 20
161.2986908699656
 30
0.0
  0
LINE
  5
13C
330
EA
100
AcDbEntity
  8
40292000_HALTER_
  6
Continuous
 62
     7
100
AcDbLine
 10
23.4350206417
 20
201.4983023976
 30
0.0
 11
23.4350206417
 21
161.794666184
 31
0.0
  0
LINE
  5
13D
330
EA
100
AcDbEntity
  8
40292000_HALTER_
  6
Continuous
 62
     7
100
AcDbLine
 10
29.3350206417
 20
161.7946738416
 30
0.0
 11
29.3350206417
 21
201.6063162313
 31
0.0
  0
ARC
  5
13E
330
EA
100
AcDbEntity
  8
40292000_HALTER_
  6
Continuous
 62
     7
100
AcDbCircle
 10
26.3850206417
 20
181.0577211468
 30
0.0
 40
19.91819967195191
100
AcDbArc
 50
262.833613075
 51
270.0
  0
ARC
  5
13F
330
EA
100
AcDbEntity
  8
40292000_HALTER_
  6
Continuous
 62
     7
100
AcDbCircle
 10
26.3850206417
 20
181.0577211468
 30
0.0
 40
19.9181996719519
100
AcDbArc
 50
270.0
 51
277.2489511391
  0
SPLINE
  5
140
330
EA
100
AcDbEntity
  8
40292000_HALTER_
  6
Continuous
 62
     7
100
AcDbSpline
210
0.0
220
0.0
230
1.0
 70
     8
 71
     3
 72
    13
 73
     9
 74
     0
 42
0.00000001471594
 43
0.0000000001
 40
0.0
 40
0.0
 40
0.0
 40
0.0
 40
0.1319592185401766
 40
0.3784105504306197
 40
0.5785971871310928
 40
0.7481076627470385
 40
0.8896822956468414
 40
1.0
 40
1.0
 40
1.0
 40
1.0
 10
23.44305119622464
 20
161.7947061357229
 30
0.0
 10
23.44105888898335
 20
161.7622804205619
 30
0.0
 10
23.43722463855708
 20
161.6822971959614
 30
0.0
 10
23.48855761545093
 20
161.5550818938069
 30
0.0
 10
23.57102649179249
 20
161.4442521123166
 30
0.0
 10
23.66077179492238
 20
161.3722997685324
 30
0.0
 10
23.74715419944046
 20
161.3283119493247
 30
0.0
 10
23.79779820411737
 20
161.3142575062693
 30
0.0
 10
23.82401825755825
 20
161.3073191569024
 30
0.0
  0
ARC
  5
141
330
EA
100
AcDbEntity
  8
40292000_HALTER_
  6
Continuous
 62
     7
100
AcDbCircle
 10
28.8432474818
 20
161.7903298873
 30
0.0
 40
0.4909690501675388
100
AcDbArc
 50
282.7741034182
 51
0.3329016763
  0
ARC
  5
142
330
EA
100
AcDbEntity
  8
40292000_HALTER_
  6
Continuous
 62
     7
100
AcDbCircle
 10
23.9350213997
 20
201.4991887604
 30
0.0
 40
0.4999998590979801
100
AcDbArc
 50
89.993233793
 51
180.0310649534
  0
ARC
  5
143
330
EA
100
AcDbEntity
  8
40292000_HALTER_
  6
Continuous
 62
     7
100
AcDbCircle
 10
28.8350205946
 20
201.4991887605
 30
0.0
 40
0.4999999912390983
100
AcDbArc
 50
359.8450991266
 51
90.0261460243
  0
SPLINE
  5
144
330
EA
100
AcDbEntity
  8
40292000_HALTER_
  6
Continuous
 62
     7
100
AcDbSpline
210
0.0
220
0.0
230
1.0
 70
     8
 71
     3
 72
    16
 73
    12
 74
     0
 42
0.0000000008397863
 43
0.0000000001
 40
0.0083325270132593
 40
0.0083325270132593
 40
0.0083325270132593
 40
0.0083325270132593
 40
0.125
 40
0.125
 40
0.2499999999999999
 40
0.2499999999999999
 40
0.3749999999999999
 40
0.3749999999999999
 40
0.4999999999999999
 40
0.4999999999999999
 40
0.509265049468298
 40
0.509265049468298
 40
0.509265049468298
 40
0.509265049468298
 10
629.3349170358347
 20
201.4991484282059
 30
0.0
 10
629.3341997712738
 20
201.5355915251617
 30
0.0
 10
629.0691249763397
 20
201.5711004155614
 30
0.0
 10
628.0847737881146
 20
201.6266079942302
 30
0.0
 10
627.3262192084011
 20
201.6449451312986
 30
0.0
 10
625.7647321786258
 20
201.6491415228804
 30
0.0
 10
624.9691575383447
 20
201.6351157822184
 30
0.0
 10
623.8199314527471
 20
201.5828081683875
 30
0.0
 10
623.4782059966294
 20
201.545495109611
 30
0.0
 10
623.4360783006416
 20
201.5041318820331
 30
0.0
 10
623.4348525527118
 20
201.5012688887393
 30
0.0
 10
623.4352814517794
 20
201.4984019737356
 30
0.0
  0
LINE
  5
145
330
EA
100
AcDbEntity
  8
40292000_HALTER_
  6
Continuous
 62
     7
100
AcDbLine
 10
623.9350970218
 20
201.9991887606
 30
0.0
 11
628.8349379396
 21
201.9991887606
 31
0.0
  0
SPLINE
  5
146
330
EA
100
AcDbEntity
  8
40292000_HALTER_
  6
Continuous
 62
     7
100
AcDbSpline
210
0.0
220
0.0
230
1.0
 70
     8
 71
     3
 72
    14
 73
    10
 74
     0
 42
0.0000000009640488
 43
0.0000000001
 40
0.0150784091373279
 40
0.0150784091373279
 40
0.0150784091373279
 40
0.0150784091373279
 40
0.1250000000000001
 40
0.1250000000000001
 40
0.2500000000000002
 40
0.2500000000000002
 40
0.3750000000000002
 40
0.3750000000000002
 40
0.498374651360052
 40
0.498374651360052
 40
0.498374651360052
 40
0.498374651360052
 10
628.8851386009326
 20
161.2985107177165
 30
0.0
 10
628.8255085402814
 20
161.2980725463277
 30
0.0
 10
628.5628905725458
 20
161.2976569249658
 30
0.0
 10
627.6870363394048
 20
161.2970029345623
 30
0.0
 10
627.0294875829572
 20
161.2968009452495
 30
0.0
 10
625.7183481928662
 20
161.2968053041636
 30
0.0
 10
625.0671707376207
 20
161.2970081878323
 30
0.0
 10
624.1391579747761
 20
161.2977144174294
 30
0.0
 10
623.8758512832296
 20
161.2982001014963
 30
0.0
 10
623.8719798078853
 20
161.2986908699656
 30
0.0
  0
LINE
  5
147
330
EA
100
AcDbEntity
  8
40292000_HALTER_
  6
Continuous
 62
     7
100
AcDbLine
 10
623.4350206417
 20
201.4983023976
 30
0.0
 11
623.4350206417
 21
161.794666184
 31
0.0
  0
LINE
  5
148
330
EA
100
AcDbEntity
  8
40292000_HALTER_
  6
Continuous
 62
     7
100
AcDbLine
 10
629.3350206417
 20
161.7946738416
 30
0.0
 11
629.3350206417
 21
201.6063162313
 31
0.0
  0
ARC
  5
149
330
EA
100
AcDbEntity
  8
40292000_HALTER_
  6
Continuous
 62
     7
100
AcDbCircle
 10
626.3850206417
 20
181.0577211468
 30
0.0
 40
19.9181996719519
100
AcDbArc
 50
262.833613075
 51
270.0
  0
ARC
  5
14A
330
EA
100
AcDbEntity
  8
40292000_HALTER_
  6
Continuous
 62
     7
100
AcDbCircle
 10
626.3850206417
 20
181.0577211468
 30
0.0
 40
19.9181996719519
100
AcDbArc
 50
270.0
 51
277.2489511391
  0
SPLINE
  5
14B
330
EA
100
AcDbEntity
  8
40292000_HALTER_
  6
Continuous
 62
     7
100
AcDbSpline
210
0.0
220
0.0
230
1.0
 70
     8
 71
     3
 72
    13
 73
     9
 74
     0
 42
0.00000001471594
 43
0.0000000001
 40
0.0
 40
0.0
 40
0.0
 40
0.0
 40
0.131959204366144
 40
0.3784105390791588
 40
0.5785971774976469
 40
0.74810765442546
 40
0.8896822891812669
 40
1.0
 40
1.0
 40
1.0
 40
1.0
 10
623.4430511962066
 20
161.7947061357437
 30
0.0
 10
623.4410588886954
 20
161.7622804240876
 30
0.0
 10
623.4372246370681
 20
161.6822972019109
 30
0.0
 10
623.4885576116621
 20
161.5550819008003
 30
0.0
 10
623.5710264870697
 20
161.4442521170776
 30
0.0
 10
623.6607717902556
 20
161.3722997714454
 30
0.0
 10
623.7471541963406
 20
161.3283119504637
 30
0.0
 10
623.7977982025934
 20
161.3142575065939
 30
0.0
 10
623.8240182575372
 20
161.3073191566523
 30
0.0
  0
ARC
  5
14C
330
EA
100
AcDbEntity
  8
40292000_HALTER_
  6
Continuous
 62
     7
100
AcDbCircle
 10
628.8432474817
 20
161.7903298874
 30
0.0
 40
0.4909690502658921
100
AcDbArc
 50
282.7741034254
 51
0.3329016863
  0
ARC
  5
14D
330
EA
100
AcDbEntity
  8
40292000_HALTER_
  6
Continuous
 62
     7
100
AcDbCircle
 10
623.9350213997
 20
201.4991887604
 30
0.0
 40
0.4999998590979584
100
AcDbArc
 50
89.993233793
 51
180.0310649534
  0
ARC
  5
14E
330
EA
100
AcDbEntity
  8
40292000_HALTER_
  6
Continuous
 62
     7
100
AcDbCircle
 10
628.8350205946
 20
201.4991887605
 30
0.0
 40
0.499999991239077
100
AcDbArc
 50
359.8450991266
 51
90.0261460242
  0
ENDBLK
  5
150
330
EA
100
AcDbEntity
  8
0
100
AcDbBlockEnd
  0
ENDSEC
  0
SECTION
  2
ENTITIES
  0
INSERT
  5
5F
330
1F
100
AcDbEntity
  8
Default
100
AcDbBlockReference
  2
SEANNOT_GROUP
 10
0.0
 20
0.0
 30
0.0
  0
INSERT
  5
6A
330
1F
100
AcDbEntity
  8
Default
100
AcDbBlockReference
  2
SEANNOT_GROUP1
 10
0.0
 20
0.0
 30
0.0
  0
INSERT
  5
74
330
1F
100
AcDbEntity
  8
Default
100
AcDbBlockReference
  2
SEANNOT_GROUP2
 10
0.0
 20
0.0
 30
0.0
  0
INSERT
  5
7A
330
1F
100
AcDbEntity
  8
Default
100
AcDbBlockReference
  2
SEANNOT_GROUP3
 10
0.0
 20
0.0
 30
0.0
  0
INSERT
  5
80
330
1F
100
AcDbEntity
  8
Default
100
AcDbBlockReference
  2
SEANNOT_GROUP4
 10
0.0
 20
0.0
 30
0.0
  0
INSERT
  5
85
330
1F
100
AcDbEntity
  8
Default
100
AcDbBlockReference
  2
SE
 10
0.0
 20
0.0
 30
0.0
  0
INSERT
  5
C6
330
1F
100
AcDbEntity
  8
Default
100
AcDbBlockReference
  2
SE1
 10
0.0
 20
0.0
 30
0.0
  0
INSERT
  5
EB
330
1F
100
AcDbEntity
  8
Default
100
AcDbBlockReference
  2
SE2
 10
0.0
 20
0.0
 30
0.0
  0
TEXT
  5
152
330
1F
100
AcDbEntity
  8
Default
  6
Continuous
 62
     7
100
AcDbText
 10
5.9362635081
 20
53.4225120485
 30
0.0
 40
10.0
  1
Grohe AG^J
  7
SEACAD_seiso_ttf
 11
5.9362635081
 21
63.4225120485
 31
0.0
100
AcDbText
 73
     3
  0
TEXT
  5
153
330
1F
100
AcDbEntity
  8
Default
  6
Continuous
 62
     7
100
AcDbText
 10
5.9362635081
 20
37.0588756849
 30
0.0
 40
10.0
  1
 
  7
SEACAD_seiso_ttf
 11
5.9362635081
 21
47.0588756849
 31
0.0
100
AcDbText
 73
     3
  0
TEXT
  5
154
330
1F
100
AcDbEntity
  8
Default
  6
Continuous
 62
     7
100
AcDbText
 10
5.9362635081
 20
20.6952393213
 30
0.0
 40
10.0
  1
ecn: 
  7
SEACAD_seiso_ttf
 11
5.9362635081
 21
30.6952393213
 31
0.0
100
AcDbText
 73
     3
  0
TEXT
  5
155
330
1F
100
AcDbEntity
  8
Default
  6
Continuous
 62
     7
100
AcDbText
 10
5.9362635081
 20
4.3316029576
 30
0.0
 40
10.0
  1
unit: mm
  7
SEACAD_seiso_ttf
 11
5.9362635081
 21
14.3316029576
 31
0.0
100
AcDbText
 73
     3
  0
LINE
  5
156
330
1F
100
AcDbEntity
  8
Default
  6
Continuous
 62
     7
100
AcDbLine
 10
0.0
 20
0.0
 30
0.0
 11
100.0
 21
0.0
 31
0.0
  0
LINE
  5
157
330
1F
100
AcDbEntity
  8
Default
  6
Continuous
 62
     7
100
AcDbLine
 10
0.0
 20
0.0
 30
0.0
 11
0.0
 21
100.0
 31
0.0
  0
TEXT
  5
158
330
1F
100
AcDbEntity
  8
Default
  6
Continuous
 62
     7
100
AcDbText
 10
24.3923665681
 20
-18.2375342018
 30
0.0
 40
10.0
  1
100 mm
  7
SEACAD_seiso_ttf
 11
24.3923665681
 21
-8.2375342018
 31
0.0
100
AcDbText
 73
     3
  0
TEXT
  5
159
330
1F
100
AcDbEntity
  8
Default
  6
Continuous
 62
     7
100
AcDbText
 10
-7.6150308803
 20
24.6231930421
 30
0.0
 40
10.0
  1
100 mm
 50
90.0
  7
SEACAD_seiso_ttf
 11
-17.6150308803
 21
24.6231930421
 31
0.0
100
AcDbText
 73
     3
  0
TEXT
  5
15A
330
1F
100
AcDbEntity
  8
Default
  6
Continuous
 62
     7
100
AcDbText
 10
28.4878128572
 20
20.0907663715
 30
0.0
 40
10.0
  1
30281
  7
SEACAD_seiso_ttf
 11
28.4878128572
 21
30.0907663715
 31
0.0
100
AcDbText
 73
     3
  0
TEXT
  5
15B
330
1F
100
AcDbEntity
  8
Default
  6
Continuous
 62
     7
100
AcDbText
 10
5.9012241913
 20
36.7242780188
 30
0.0
 40
10.0
  1
40292000
  7
SEACAD_seiso_ttf
 11
5.9012241913
 21
46.7242780188
 31
0.0
100
AcDbText
 73
     3
  0
ENDSEC
  0
SECTION
  2
OBJECTS
  0
DICTIONARY
  5
C
330
0
100
AcDbDictionary
281
     1
  3
ACAD_GROUP
350
D
  3
ACAD_LAYOUT
350
1A
  3
ACAD_MLEADERSTYLE
350
15F
  3
ACAD_MLINESTYLE
350
17
  3
ACAD_PLOTSETTINGS
350
19
  3
ACAD_PLOTSTYLENAME
350
E
  3
ACAD_SCALELIST
350
3B
  3
ACAD_TABLESTYLE
350
15E
  3
ACAD_VISUALSTYLE
350
2A
  3
AcDbVariableDictionary
350
15C
  0
DICTIONARY
  5
D
102
{ACAD_REACTORS
330
C
102
}
330
C
100
AcDbDictionary
281
     1
  0
DICTIONARY
  5
1A
102
{ACAD_REACTORS
330
C
102
}
330
C
100
AcDbDictionary
281
     1
  3
Layout1
350
1E
  3
Model
350
22
  0
DICTIONARY
  5
15F
102
{ACAD_REACTORS
330
C
102
}
330
C
100
AcDbDictionary
281
     1
  0
DICTIONARY
  5
17
102
{ACAD_REACTORS
330
C
102
}
330
C
100
AcDbDictionary
281
     1
  3
Standard
350
18
  0
DICTIONARY
  5
19
102
{ACAD_REACTORS
330
C
102
}
330
C
100
AcDbDictionary
281
     1
  0
ACDBDICTIONARYWDFLT
  5
E
102
{ACAD_REACTORS
330
C
102
}
330
C
100
AcDbDictionary
281
     1
  3
Normal
350
F
100
AcDbDictionaryWithDefault
340
F
  0
DICTIONARY
  5
3B
102
{ACAD_REACTORS
330
C
102
}
330
C
100
AcDbDictionary
281
     1
  3
A0
350
3C
  3
A1
350
3D
  3
A2
350
3E
  3
A3
350
3F
  3
A4
350
40
  3
A5
350
41
  3
A6
350
42
  3
A7
350
43
  3
A8
350
44
  3
A9
350
45
  3
B0
350
46
  3
B1
350
47
  3
B2
350
48
  3
B3
350
49
  3
B4
350
4A
  3
B5
350
4B
  3
B6
350
4C
  3
B7
350
4D
  3
B8
350
4E
  3
B9
350
4F
  3
C0
350
50
  3
C1
350
51
  3
C2
350
52
  3
C3
350
53
  3
C4
350
54
  3
C5
350
55
  3
C6
350
56
  3
C7
350
57
  3
C8
350
58
  3
C9
350
59
  3
D0
350
5A
  3
D1
350
5B
  3
D2
350
5C
  0
DICTIONARY
  5
15E
102
{ACAD_REACTORS
330
C
102
}
330
C
100
AcDbDictionary
281
     1
  0
DICTIONARY
  5
2A
102
{ACAD_REACTORS
330
C
102
}
330
C
100
AcDbDictionary
281
     1
  3
2dWireframe
350
2F
  3
3D Hidden
350
31
  3
3dWireframe
350
30
  3
Basic
350
32
  3
Brighten
350
36
  3
ColorChange
350
3A
  3
Conceptual
350
34
  3
Dim
350
35
  3
Facepattern
350
39
  3
Flat
350
2B
  3
FlatWithEdges
350
2C
  3
Gouraud
350
2D
  3
GouraudWithEdges
350
2E
  3
Linepattern
350
38
  3
Realistic
350
33
  3
Thicken
350
37
  0
DICTIONARY
  5
15C
102
{ACAD_REACTORS
330
C
102
}
330
C
100
AcDbDictionary
281
     1
  3
CANNOSCALE
350
15D
  3
PSOLHEIGHT
350
161
  3
PSOLWIDTH
350
160
  0
LAYOUT
  5
1E
102
{ACAD_REACTORS
330
1A
102
}
330
1A
100
AcDbPlotSettings
  1

  2
none_device
  4

  6

 40
0.0
 41
0.0
 42
0.0
 43
0.0
 44
0.0
 45
0.0
 46
0.0
 47
0.0
 48
0.0
 49
0.0
140
0.0
141
0.0
142
1.0
143
1.0
 70
   688
 72
     0
 73
     0
 74
     5
  7

 75
    16
147
1.0
148
0.0
149
0.0
100
AcDbLayout
  1
Layout1
 70
     1
 71
     1
 10
0.0
 20
0.0
 11
1682.0
 21
2378.0
 12
0.0
 22
0.0
 32
0.0
 14
0.0
 24
0.0
 34
0.0
 15
1682.0
 25
2378.0
 35
0.0
146
0.0
 13
0.0
 23
0.0
 33
0.0
 16
1.0
 26
0.0
 36
0.0
 17
0.0
 27
1.0
 37
0.0
 76
     0
330
1B
  0
LAYOUT
  5
22
102
{ACAD_REACTORS
330
1A
102
}
330
1A
100
AcDbPlotSettings
  1

  2
none_device
  4

  6

 40
0.0
 41
0.0
 42
0.0
 43
0.0
 44
0.0
 45
0.0
 46
0.0
 47
0.0
 48
0.0
 49
0.0
140
0.0
141
0.0
142
1.0
143
1.0
 70
  1712
 72
     0
 73
     0
 74
     0
  7

 75
     0
147
1.0
148
0.0
149
0.0
100
AcDbLayout
  1
Model
 70
     1
 71
     0
 10
0.0
 20
0.0
 11
1682.0
 21
2378.0
 12
0.0
 22
0.0
 32
0.0
 14
0.0
 24
0.0
 34
0.0
 15
1682.0
 25
2378.0
 35
0.0
146
0.0
 13
0.0
 23
0.0
 33
0.0
 16
1.0
 26
0.0
 36
0.0
 17
0.0
 27
1.0
 37
0.0
 76
     0
330
1F
331
29
  0
MLINESTYLE
  5
18
102
{ACAD_REACTORS
330
17
102
}
330
17
100
AcDbMlineStyle
  2
Standard
 70
     0
  3

 62
   256
 51
90.0
 52
90.0
 71
     2
 49
0.5
 62
   256
  6
BYLAYER
 49
-0.5
 62
   256
  6
BYLAYER
  0
ACDBPLACEHOLDER
  5
F
102
{ACAD_REACTORS
330
E
102
}
330
E
  0
SCALE
  5
3C
102
{ACAD_REACTORS
330
3B
102
}
330
3B
100
AcDbScale
 70
     0
300
1:1
140
1.0
141
1.0
290
     1
  0
SCALE
  5
3D
102
{ACAD_REACTORS
330
3B
102
}
330
3B
100
AcDbScale
 70
     0
300
1:2
140
1.0
141
2.0
290
     0
  0
SCALE
  5
3E
102
{ACAD_REACTORS
330
3B
102
}
330
3B
100
AcDbScale
 70
     0
300
1:4
140
1.0
141
4.0
290
     0
  0
SCALE
  5
3F
102
{ACAD_REACTORS
330
3B
102
}
330
3B
100
AcDbScale
 70
     0
300
1:5
140
1.0
141
5.0
290
     0
  0
SCALE
  5
40
102
{ACAD_REACTORS
330
3B
102
}
330
3B
100
AcDbScale
 70
     0
300
1:8
140
1.0
141
8.0
290
     0
  0
SCALE
  5
41
102
{ACAD_REACTORS
330
3B
102
}
330
3B
100
AcDbScale
 70
     0
300
1:10
140
1.0
141
10.0
290
     0
  0
SCALE
  5
42
102
{ACAD_REACTORS
330
3B
102
}
330
3B
100
AcDbScale
 70
     0
300
1:16
140
1.0
141
16.0
290
     0
  0
SCALE
  5
43
102
{ACAD_REACTORS
330
3B
102
}
330
3B
100
AcDbScale
 70
     0
300
1:20
140
1.0
141
20.0
290
     0
  0
SCALE
  5
44
102
{ACAD_REACTORS
330
3B
102
}
330
3B
100
AcDbScale
 70
     0
300
1:30
140
1.0
141
30.0
290
     0
  0
SCALE
  5
45
102
{ACAD_REACTORS
330
3B
102
}
330
3B
100
AcDbScale
 70
     0
300
1:40
140
1.0
141
40.0
290
     0
  0
SCALE
  5
46
102
{ACAD_REACTORS
330
3B
102
}
330
3B
100
AcDbScale
 70
     0
300
1:50
140
1.0
141
50.0
290
     0
  0
SCALE
  5
47
102
{ACAD_REACTORS
330
3B
102
}
330
3B
100
AcDbScale
 70
     0
300
1:100
140
1.0
141
100.0
290
     0
  0
SCALE
  5
48
102
{ACAD_REACTORS
330
3B
102
}
330
3B
100
AcDbScale
 70
     0
300
2:1
140
2.0
141
1.0
290
     0
  0
SCALE
  5
49
102
{ACAD_REACTORS
330
3B
102
}
330
3B
100
AcDbScale
 70
     0
300
4:1
140
4.0
141
1.0
290
     0
  0
SCALE
  5
4A
102
{ACAD_REACTORS
330
3B
102
}
330
3B
100
AcDbScale
 70
     0
300
8:1
140
8.0
141
1.0
290
     0
  0
SCALE
  5
4B
102
{ACAD_REACTORS
330
3B
102
}
330
3B
100
AcDbScale
 70
     0
300
10:1
140
10.0
141
1.0
290
     0
  0
SCALE
  5
4C
102
{ACAD_REACTORS
330
3B
102
}
330
3B
100
AcDbScale
 70
     0
300
100:1
140
100.0
141
1.0
290
     0
  0
SCALE
  5
4D
102
{ACAD_REACTORS
330
3B
102
}
330
3B
100
AcDbScale
 70
     0
300
1/128" = 1'-0"
140
0.0078125
141
12.0
290
     0
  0
SCALE
  5
4E
102
{ACAD_REACTORS
330
3B
102
}
330
3B
100
AcDbScale
 70
     0
300
1/64" = 1'-0"
140
0.015625
141
12.0
290
     0
  0
SCALE
  5
4F
102
{ACAD_REACTORS
330
3B
102
}
330
3B
100
AcDbScale
 70
     0
300
1/32" = 1'-0"
140
0.03125
141
12.0
290
     0
  0
SCALE
  5
50
102
{ACAD_REACTORS
330
3B
102
}
330
3B
100
AcDbScale
 70
     0
300
1/16" = 1'-0"
140
0.0625
141
12.0
290
     0
  0
SCALE
  5
51
102
{ACAD_REACTORS
330
3B
102
}
330
3B
100
AcDbScale
 70
     0
300
3/32" = 1'-0"
140
0.09375
141
12.0
290
     0
  0
SCALE
  5
52
102
{ACAD_REACTORS
330
3B
102
}
330
3B
100
AcDbScale
 70
     0
300
1/8" = 1'-0"
140
0.125
141
12.0
290
     0
  0
SCALE
  5
53
102
{ACAD_REACTORS
330
3B
102
}
330
3B
100
AcDbScale
 70
     0
300
3/16" = 1'-0"
140
0.1875
141
12.0
290
     0
  0
SCALE
  5
54
102
{ACAD_REACTORS
330
3B
102
}
330
3B
100
AcDbScale
 70
     0
300
1/4" = 1'-0"
140
0.25
141
12.0
290
     0
  0
SCALE
  5
55
102
{ACAD_REACTORS
330
3B
102
}
330
3B
100
AcDbScale
 70
     0
300
3/8" = 1'-0"
140
0.375
141
12.0
290
     0
  0
SCALE
  5
56
102
{ACAD_REACTORS
330
3B
102
}
330
3B
100
AcDbScale
 70
     0
300
1/2" = 1'-0"
140
0.5
141
12.0
290
     0
  0
SCALE
  5
57
102
{ACAD_REACTORS
330
3B
102
}
330
3B
100
AcDbScale
 70
     0
300
3/4" = 1'-0"
140
0.75
141
12.0
290
     0
  0
SCALE
  5
58
102
{ACAD_REACTORS
330
3B
102
}
330
3B
100
AcDbScale
 70
     0
300
1" = 1'-0"
140
1.0
141
12.0
290
     0
  0
SCALE
  5
59
102
{ACAD_REACTORS
330
3B
102
}
330
3B
100
AcDbScale
 70
     0
300
1-1/2" = 1'-0"
140
1.5
141
12.0
290
     0
  0
SCALE
  5
5A
102
{ACAD_REACTORS
330
3B
102
}
330
3B
100
AcDbScale
 70
     0
300
3" = 1'-0"
140
3.0
141
12.0
290
     0
  0
SCALE
  5
5B
102
{ACAD_REACTORS
330
3B
102
}
330
3B
100
AcDbScale
 70
     0
300
6" = 1'-0"
140
6.0
141
12.0
290
     0
  0
SCALE
  5
5C
102
{ACAD_REACTORS
330
3B
102
}
330
3B
100
AcDbScale
 70
     0
300
1'-0" = 1'-0"
140
12.0
141
12.0
290
     0
  0
VISUALSTYLE
  5
2F
102
{ACAD_REACTORS
330
2A
102
}
330
2A
100
AcDbVisualStyle
  2
2dWireframe
 70
     4
 71
     0
 72
     2
 73
     0
 90
        0
 40
-0.6
 41
-30.0
 62
     5
 63
     7
 74
     1
 91
        4
 64
     7
 65
   257
 75
     1
175
     1
 42
1.0
 92
        0
 66
   257
 43
1.0
 76
     1
 77
     6
 78
     2
 67
     7
 79
     5
170
     0
171
     0
290
     0
174
     0
 93
        1
 44
0.0
173
     0
291
     0
 45
0.0
1001
ACAD
1000
AcDbSavedByObjectVersion
1070
     0
  0
VISUALSTYLE
  5
31
102
{ACAD_REACTORS
330
2A
102
}
330
2A
100
AcDbVisualStyle
  2
3D Hidden
 70
     6
 71
     1
 72
     2
 73
     2
 90
        0
 40
-0.6
 41
-30.0
 62
     5
 63
     7
 74
     2
 91
        2
 64
     7
 65
   257
 75
     2
175
     1
 42
40.0
 92
        0
 66
   257
 43
1.0
 76
     1
 77
     6
 78
     2
 67
     7
 79
     3
170
     0
171
     0
290
     0
174
     0
 93
        1
 44
0.0
173
     0
291
     0
 45
0.0
1001
ACAD
1000
AcDbSavedByObjectVersion
1070
     0
  0
VISUALSTYLE
  5
30
102
{ACAD_REACTORS
330
2A
102
}
330
2A
100
AcDbVisualStyle
  2
3dWireframe
 70
     5
 71
     0
 72
     2
 73
     0
 90
        0
 40
-0.6
 41
-30.0
 62
     5
 63
     7
 74
     1
 91
        4
 64
     7
 65
   257
 75
     1
175
     1
 42
1.0
 92
        0
 66
   257
 43
1.0
 76
     1
 77
     6
 78
     2
 67
     7
 79
     5
170
     0
171
     0
290
     0
174
     0
 93
        1
 44
0.0
173
     0
291
     0
 45
0.0
1001
ACAD
1000
AcDbSavedByObjectVersion
1070
     0
  0
VISUALSTYLE
  5
32
102
{ACAD_REACTORS
330
2A
102
}
330
2A
100
AcDbVisualStyle
  2
Basic
 70
     7
 71
     1
 72
     0
 73
     1
 90
        0
 40
-0.6
 41
-30.0
 62
     5
 63
     7
 74
     0
 91
        4
 64
     7
 65
   257
 75
     1
175
     1
 42
1.0
 92
        8
 66
     7
 43
1.0
 76
     1
 77
     6
 78
     2
 67
     7
 79
     5
170
     0
171
     0
290
     0
174
     0
 93
        1
 44
0.0
173
     0
291
     1
 45
0.0
1001
ACAD
1000
AcDbSavedByObjectVersion
1070
     0
  0
VISUALSTYLE
  5
36
102
{ACAD_REACTORS
330
2A
102
}
330
2A
100
AcDbVisualStyle
  2
Brighten
 70
    12
 71
     2
 72
     2
 73
     0
 90
        0
 40
-0.6
 41
-30.0
 62
     5
 63
     7
 74
     1
 91
        4
 64
     7
 65
   257
 75
     1
175
     1
 42
1.0
 92
        8
 66
     7
 43
1.0
 76
     1
 77
     6
 78
     2
 67
     7
 79
     5
170
     0
171
     0
290
     0
174
     0
 93
        1
 44
50.0
173
     0
291
     1
 45
0.0
1001
ACAD
1000
AcDbSavedByObjectVersion
1070
     0
  0
VISUALSTYLE
  5
3A
102
{ACAD_REACTORS
330
2A
102
}
330
2A
100
AcDbVisualStyle
  2
ColorChange
 70
    16
 71
     2
 72
     2
 73
     3
 90
        0
 40
-0.6
 41
-30.0
 62
     5
 63
     8
 74
     1
 91
        4
 64
     7
 65
   257
 75
     1
175
     1
 42
1.0
 92
        8
 66
     8
 43
1.0
 76
     1
 77
     6
 78
     2
 67
     7
 79
     5
170
     0
171
     0
290
     0
174
     0
 93
        1
 44
0.0
173
     0
291
     1
 45
0.0
1001
ACAD
1000
AcDbSavedByObjectVersion
1070
     0
  0
VISUALSTYLE
  5
34
102
{ACAD_REACTORS
330
2A
102
}
330
2A
100
AcDbVisualStyle
  2
Conceptual
 70
     9
 71
     3
 72
     2
 73
     0
 90
        0
 40
-0.6
 41
-30.0
 62
     5
 63
     7
 74
     2
 91
        2
 64
     7
 65
   257
 75
     1
175
     1
 42
40.0
 92
        8
 66
     7
 43
1.0
 76
     1
 77
     6
 78
     2
 67
     7
 79
     3
170
     0
171
     0
290
     0
174
     0
 93
        1
 44
0.0
173
     0
291
     0
 45
0.0
1001
ACAD
1000
AcDbSavedByObjectVersion
1070
     0
  0
VISUALSTYLE
  5
35
102
{ACAD_REACTORS
330
2A
102
}
330
2A
100
AcDbVisualStyle
  2
Dim
 70
    11
 71
     2
 72
     2
 73
     0
 90
        0
 40
-0.6
 41
-30.0
 62
     5
 63
     7
 74
     1
 91
        4
 64
     7
 65
   257
 75
     1
175
     1
 42
1.0
 92
        8
 66
     7
 43
1.0
 76
     1
 77
     6
 78
     2
 67
     7
 79
     5
170
     0
171
     0
290
     0
174
     0
 93
        1
 44
-50.0
173
     0
291
     1
 45
0.0
1001
ACAD
1000
AcDbSavedByObjectVersion
1070
     0
  0
VISUALSTYLE
  5
39
102
{ACAD_REACTORS
330
2A
102
}
330
2A
100
AcDbVisualStyle
  2
Facepattern
 70
    15
 71
     2
 72
     2
 73
     0
 90
        0
 40
-0.6
 41
-30.0
 62
     5
 63
     7
 74
     1
 91
        4
 64
     7
 65
   257
 75
     1
175
     1
 42
1.0
 92
        8
 66
     7
 43
1.0
 76
     1
 77
     6
 78
     2
 67
     7
 79
     5
170
     0
171
     0
290
     0
174
     0
 93
        1
 44
0.0
173
     0
291
     1
 45
0.0
1001
ACAD
1000
AcDbSavedByObjectVersion
1070
     0
  0
VISUALSTYLE
  5
2B
102
{ACAD_REACTORS
330
2A
102
}
330
2A
100
AcDbVisualStyle
  2
Flat
 70
     0
 71
     2
 72
     1
 73
     1
 90
        2
 40
-0.6
 41
30.0
 62
     5
 63
     7
 74
     0
 91
        4
 64
     7
 65
   257
 75
     1
175
     1
 42
1.0
 92
        8
 66
     7
 43
1.0
 76
     1
 77
     6
 78
     2
 67
     7
 79
     5
170
     0
171
     0
290
     0
174
     0
 93
       13
 44
0.0
173
     0
291
     1
 45
0.0
1001
ACAD
1000
AcDbSavedByObjectVersion
1070
     0
  0
VISUALSTYLE
  5
2C
102
{ACAD_REACTORS
330
2A
102
}
330
2A
100
AcDbVisualStyle
  2
FlatWithEdges
 70
     1
 71
     2
 72
     1
 73
     1
 90
        2
 40
-0.6
 41
30.0
 62
     5
 63
     7
 74
     1
 91
        4
 64
     7
 65
   257
 75
     1
175
     1
 42
1.0
 92
        0
 66
   257
 43
1.0
 76
     1
 77
     6
 78
     2
 67
     7
 79
     5
170
     0
171
     0
290
     0
174
     0
 93
       13
 44
0.0
173
     0
291
     1
 45
0.0
1001
ACAD
1000
AcDbSavedByObjectVersion
1070
     0
  0
VISUALSTYLE
  5
2D
102
{ACAD_REACTORS
330
2A
102
}
330
2A
100
AcDbVisualStyle
  2
Gouraud
 70
     2
 71
     2
 72
     2
 73
     1
 90
        2
 40
-0.6
 41
30.0
 62
     5
 63
     7
 74
     0
 91
        4
 64
     7
 65
   257
 75
     1
175
     1
 42
1.0
 92
        0
 66
     7
 43
1.0
 76
     1
 77
     6
 78
     2
 67
     7
 79
     5
170
     0
171
     0
290
     0
174
     0
 93
       13
 44
0.0
173
     0
291
     1
 45
0.0
1001
ACAD
1000
AcDbSavedByObjectVersion
1070
     0
  0
VISUALSTYLE
  5
2E
102
{ACAD_REACTORS
330
2A
102
}
330
2A
100
AcDbVisualStyle
  2
GouraudWithEdges
 70
     3
 71
     2
 72
     2
 73
     1
 90
        2
 40
-0.6
 41
30.0
 62
     5
 63
     7
 74
     1
 91
        4
 64
     7
 65
   257
 75
     1
175
     1
 42
1.0
 92
        0
 66
   257
 43
1.0
 76
     1
 77
     6
 78
     2
 67
     7
 79
     5
170
     0
171
     0
290
     0
174
     0
 93
       13
 44
0.0
173
     0
291
     1
 45
0.0
1001
ACAD
1000
AcDbSavedByObjectVersion
1070
     0
  0
VISUALSTYLE
  5
38
102
{ACAD_REACTORS
330
2A
102
}
330
2A
100
AcDbVisualStyle
  2
Linepattern
 70
    14
 71
     2
 72
     2
 73
     0
 90
        0
 40
-0.6
 41
-30.0
 62
     5
 63
     7
 74
     1
 91
        4
 64
     7
 65
   257
 75
     7
175
     7
 42
1.0
 92
        8
 66
     7
 43
1.0
 76
     1
 77
     6
 78
     2
 67
     7
 79
     5
170
     0
171
     0
290
     0
174
     0
 93
        1
 44
0.0
173
     0
291
     1
 45
0.0
1001
ACAD
1000
AcDbSavedByObjectVersion
1070
     0
  0
VISUALSTYLE
  5
33
102
{ACAD_REACTORS
330
2A
102
}
330
2A
100
AcDbVisualStyle
  2
Realistic
 70
     8
 71
     2
 72
     2
 73
     0
 90
        0
 40
-0.6
 41
-30.0
 62
     5
 63
     7
 74
     1
 91
        0
 64
     7
 65
   257
 75
     1
175
     1
 42
1.0
 92
        8
 66
     8
 43
1.0
 76
     1
 77
     6
 78
     2
 67
     7
 79
     5
170
     0
171
     0
290
     0
174
     0
 93
       13
 44
0.0
173
     0
291
     0
 45
0.0
1001
ACAD
1000
AcDbSavedByObjectVersion
1070
     0
  0
VISUALSTYLE
  5
37
102
{ACAD_REACTORS
330
2A
102
}
330
2A
100
AcDbVisualStyle
  2
Thicken
 70
    13
 71
     2
 72
     2
 73
     0
 90
        0
 40
-0.6
 41
-30.0
 62
     5
 63
     7
 74
     1
 91
        4
 64
     7
 65
   257
 75
     1
175
     1
 42
1.0
 92
       12
 66
     7
 43
1.0
 76
     1
 77
     6
 78
     2
 67
     7
 79
     5
170
     0
171
     0
290
     0
174
     0
 93
        1
 44
0.0
173
     0
291
     1
 45
0.0
1001
ACAD
1000
AcDbSavedByObjectVersion
1070
     0
  0
DICTIONARYVAR
  5
15D
102
{ACAD_REACTORS
330
15C
102
}
330
15C
100
DictionaryVariables
280
     0
  1
1:1
  0
DICTIONARYVAR
  5
161
102
{ACAD_REACTORS
330
15C
102
}
330
15C
100
DictionaryVariables
280
     0
  1
80.000000
  0
DICTIONARYVAR
  5
160
102
{ACAD_REACTORS
330
15C
102
}
330
15C
100
DictionaryVariables
280
     0
  1
5.000000
  0
ENDSEC
  0
EOF
