  0
SECTION
  2
HEADER
  9
$ACADVER
  1
AC1015
  9
$ACADMAINTVER
 70
     6
  9
$DWGCODEPAGE
  3
ANSI_1252
  9
$INSBASE
 10
0.0
 20
0.0
 30
0.0
  9
$EXTMIN
 10
0.0
 20
0.0
 30
0.0
  9
$EXTMAX
 10
3000.0
 20
4500.0
 30
0.0
  9
$LIMMIN
 10
0.0
 20
0.0
  9
$LIMMAX
 10
3000.0
 20
4500.0
  9
$ORTHOMODE
 70
     0
  9
$REGENMODE
 70
     1
  9
$FILLMODE
 70
     1
  9
$QTEXTMODE
 70
     0
  9
$MIRRTEXT
 70
     1
  9
$LTSCALE
 40
1.0
  9
$ATTMODE
 70
     1
  9
$TEXTSIZE
 40
2.5
  9
$TRACEWID
 40
1.0
  9
$TEXTSTYLE
  7
Standard
  9
$CLAYER
  8
0
  9
$CELTYPE
  6
ByLayer
  9
$CECOLOR
 62
   256
  9
$CELTSCALE
 40
1.0
  9
$DISPSILH
 70
     0
  9
$DIMSCALE
 40
1.0
  9
$DIMASZ
 40
2.5
  9
$DIMEXO
 40
0.625
  9
$DIMDLI
 40
3.75
  9
$DIMRND
 40
0.0
  9
$DIMDLE
 40
0.0
  9
$DIMEXE
 40
1.25
  9
$DIMTP
 40
0.0
  9
$DIMTM
 40
0.0
  9
$DIMTXT
 40
2.5
  9
$DIMCEN
 40
2.5
  9
$DIMTSZ
 40
0.0
  9
$DIMTOL
 70
     0
  9
$DIMLIM
 70
     0
  9
$DIMTIH
 70
     0
  9
$DIMTOH
 70
     0
  9
$DIMSE1
 70
     0
  9
$DIMSE2
 70
     0
  9
$DIMTAD
 70
     1
  9
$DIMZIN
 70
     8
  9
$DIMBLK
  1

  9
$DIMASO
 70
     1
  9
$DIMSHO
 70
     1
  9
$DIMPOST
  1

  9
$DIMAPOST
  1

  9
$DIMALT
 70
     0
  9
$DIMALTD
 70
     3
  9
$DIMALTF
 40
0.0393700787
  9
$DIMLFAC
 40
1.0
  9
$DIMTOFL
 70
     1
  9
$DIMTVP
 40
0.0
  9
$DIMTIX
 70
     0
  9
$DIMSOXD
 70
     0
  9
$DIMSAH
 70
     0
  9
$DIMBLK1
  1

  9
$DIMBLK2
  1

  9
$DIMSTYLE
  2
ISO-25
  9
$DIMCLRD
 70
     0
  9
$DIMCLRE
 70
     0
  9
$DIMCLRT
 70
     0
  9
$DIMTFAC
 40
1.0
  9
$DIMGAP
 40
0.625
  9
$DIMJUST
 70
     0
  9
$DIMSD1
 70
     0
  9
$DIMSD2
 70
     0
  9
$DIMTOLJ
 70
     0
  9
$DIMTZIN
 70
     8
  9
$DIMALTZ
 70
     0
  9
$DIMALTTZ
 70
     0
  9
$DIMUPT
 70
     0
  9
$DIMDEC
 70
     2
  9
$DIMTDEC
 70
     2
  9
$DIMALTU
 70
     2
  9
$DIMALTTD
 70
     3
  9
$DIMTXSTY
  7
Standard
  9
$DIMAUNIT
 70
     0
  9
$DIMADEC
 70
     0
  9
$DIMALTRND
 40
0.0
  9
$DIMAZIN
 70
     0
  9
$DIMDSEP
 70
    44
  9
$DIMATFIT
 70
     3
  9
$DIMFRAC
 70
     0
  9
$DIMLDRBLK
  1

  9
$DIMLUNIT
 70
     2
  9
$DIMLWD
 70
    -2
  9
$DIMLWE
 70
    -2
  9
$DIMTMOVE
 70
     0
  9
$LUNITS
 70
     2
  9
$LUPREC
 70
     4
  9
$SKETCHINC
 40
1.0
  9
$FILLETRAD
 40
10.0
  9
$AUNITS
 70
     0
  9
$AUPREC
 70
     0
  9
$MENU
  1
.
  9
$ELEVATION
 40
0.0
  9
$PELEVATION
 40
0.0
  9
$THICKNESS
 40
0.0
  9
$LIMCHECK
 70
     0
  9
$CHAMFERA
 40
10.0
  9
$CHAMFERB
 40
10.0
  9
$CHAMFERC
 40
20.0
  9
$CHAMFERD
 40
0.0
  9
$SKPOLY
 70
     0
  9
$TDCREATE
 40
2456594.651497211
  9
$TDUCREATE
 40
2456594.609830544
  9
$TDUPDATE
 40
2456594.651497222
  9
$TDUUPDATE
 40
2456594.609830556
  9
$TDINDWG
 40
0.0000000116
  9
$TDUSRTIMER
 40
0.0000000116
  9
$USRTIMER
 70
     1
  9
$ANGBASE
 50
0.0
  9
$ANGDIR
 70
     0
  9
$PDMODE
 70
     0
  9
$PDSIZE
 40
0.0
  9
$PLINEWID
 40
0.0
  9
$SPLFRAME
 70
     0
  9
$SPLINETYPE
 70
     6
  9
$SPLINESEGS
 70
     8
  9
$HANDSEED
  5
25D
  9
$SURFTAB1
 70
     6
  9
$SURFTAB2
 70
     6
  9
$SURFTYPE
 70
     6
  9
$SURFU
 70
     6
  9
$SURFV
 70
     6
  9
$UCSBASE
  2

  9
$UCSNAME
  2

  9
$UCSORG
 10
0.0
 20
0.0
 30
0.0
  9
$UCSXDIR
 10
1.0
 20
0.0
 30
0.0
  9
$UCSYDIR
 10
0.0
 20
1.0
 30
0.0
  9
$UCSORTHOREF
  2

  9
$UCSORTHOVIEW
 70
     0
  9
$UCSORGTOP
 10
0.0
 20
0.0
 30
0.0
  9
$UCSORGBOTTOM
 10
0.0
 20
0.0
 30
0.0
  9
$UCSORGLEFT
 10
0.0
 20
0.0
 30
0.0
  9
$UCSORGRIGHT
 10
0.0
 20
0.0
 30
0.0
  9
$UCSORGFRONT
 10
0.0
 20
0.0
 30
0.0
  9
$UCSORGBACK
 10
0.0
 20
0.0
 30
0.0
  9
$PUCSBASE
  2

  9
$PUCSNAME
  2

  9
$PUCSORG
 10
0.0
 20
0.0
 30
0.0
  9
$PUCSXDIR
 10
1.0
 20
0.0
 30
0.0
  9
$PUCSYDIR
 10
0.0
 20
1.0
 30
0.0
  9
$PUCSORTHOREF
  2

  9
$PUCSORTHOVIEW
 70
     0
  9
$PUCSORGTOP
 10
0.0
 20
0.0
 30
0.0
  9
$PUCSORGBOTTOM
 10
0.0
 20
0.0
 30
0.0
  9
$PUCSORGLEFT
 10
0.0
 20
0.0
 30
0.0
  9
$PUCSORGRIGHT
 10
0.0
 20
0.0
 30
0.0
  9
$PUCSORGFRONT
 10
0.0
 20
0.0
 30
0.0
  9
$PUCSORGBACK
 10
0.0
 20
0.0
 30
0.0
  9
$USERI1
 70
     0
  9
$USERI2
 70
     0
  9
$USERI3
 70
     0
  9
$USERI4
 70
     0
  9
$USERI5
 70
     0
  9
$USERR1
 40
0.0
  9
$USERR2
 40
0.0
  9
$USERR3
 40
0.0
  9
$USERR4
 40
0.0
  9
$USERR5
 40
0.0
  9
$WORLDVIEW
 70
     1
  9
$SHADEDGE
 70
     3
  9
$SHADEDIF
 70
    70
  9
$TILEMODE
 70
     1
  9
$MAXACTVP
 70
    64
  9
$PINSBASE
 10
0.0
 20
0.0
 30
0.0
  9
$PLIMCHECK
 70
     0
  9
$PEXTMIN
 10
0.0
 20
0.0
 30
0.0
  9
$PEXTMAX
 10
3000.0
 20
4500.0
 30
0.0
  9
$PLIMMIN
 10
0.0
 20
0.0
  9
$PLIMMAX
 10
3000.0
 20
4500.0
  9
$UNITMODE
 70
     0
  9
$VISRETAIN
 70
     1
  9
$PLINEGEN
 70
     0
  9
$PSLTSCALE
 70
     1
  9
$TREEDEPTH
 70
  3020
  9
$CMLSTYLE
  2
Standard
  9
$CMLJUST
 70
     0
  9
$CMLSCALE
 40
20.0
  9
$PROXYGRAPHICS
 70
     1
  9
$MEASUREMENT
 70
     1
  9
$CELWEIGHT
370
    -1
  9
$ENDCAPS
280
     0
  9
$JOINSTYLE
280
     0
  9
$LWDISPLAY
290
     0
  9
$INSUNITS
 70
     4
  9
$HYPERLINKBASE
  1

  9
$STYLESHEET
  1

  9
$XEDIT
290
     1
  9
$CEPSNTYPE
380
     0
  9
$PSTYLEMODE
290
     1
  9
$FINGERPRINTGUID
  2
{DC9FBC0A-590D-468F-923B-24AD0D801AD5}
  9
$VERSIONGUID
  2
{FAEB1C32-E019-11D5-929B-00C0DF256EC4}
  9
$EXTNAMES
290
     1
  9
$PSVPSCALE
 40
0.0
  9
$OLESTARTUP
290
     0
  0
ENDSEC
  0
SECTION
  2
CLASSES
  0
CLASS
  1
ACDBDICTIONARYWDFLT
  2
AcDbDictionaryWithDefault
  3
ObjectDBX Classes
 90
        0
280
     0
281
     0
  0
CLASS
  1
VISUALSTYLE
  2
AcDbVisualStyle
  3
ObjectDBX Classes
 90
     4095
280
     0
281
     0
  0
CLASS
  1
SCALE
  2
AcDbScale
  3
ObjectDBX Classes
 90
     1153
280
     0
281
     0
  0
CLASS
  1
DICTIONARYVAR
  2
AcDbDictionaryVar
  3
ObjectDBX Classes
 90
        0
280
     0
281
     0
  0
CLASS
  1
ACDBPLACEHOLDER
  2
AcDbPlaceHolder
  3
ObjectDBX Classes
 90
        0
280
     0
281
     0
  0
CLASS
  1
LAYOUT
  2
AcDbLayout
  3
ObjectDBX Classes
 90
        0
280
     0
281
     0
  0
ENDSEC
  0
SECTION
  2
TABLES
  0
TABLE
  2
VPORT
  5
8
330
0
100
AcDbSymbolTable
 70
     1
  0
VPORT
  5
29
330
8
100
AcDbSymbolTableRecord
100
AcDbViewportTableRecord
  2
*Active
 70
     0
 10
0.0
 20
0.0
 11
1.0
 21
1.0
 12
344.1869158879
 22
148.5
 13
0.0
 23
0.0
 14
10.0
 24
10.0
 15
10.0
 25
10.0
 16
0.0
 26
0.0
 36
1.0
 17
0.0
 27
0.0
 37
0.0
 40
297.0
 41
1.9729729729
 42
50.0
 43
0.0
 44
0.0
 50
0.0
 51
0.0
 71
     0
 72
   100
 73
     1
 74
     3
 75
     0
 76
     0
 77
     0
 78
     0
281
     0
 65
     1
110
0.0
120
0.0
130
0.0
111
1.0
121
0.0
131
0.0
112
0.0
122
1.0
132
0.0
 79
     0
146
0.0
  0
ENDTAB
  0
TABLE
  2
LTYPE
  5
5
330
0
100
AcDbSymbolTable
 70
     2
  0
LTYPE
  5
14
330
5
100
AcDbSymbolTableRecord
100
AcDbLinetypeTableRecord
  2
ByBlock
 70
     0
  3

 72
    65
 73
     0
 40
0.0
  0
LTYPE
  5
15
330
5
100
AcDbSymbolTableRecord
100
AcDbLinetypeTableRecord
  2
ByLayer
 70
     0
  3

 72
    65
 73
     0
 40
0.0
  0
LTYPE
  5
16
330
5
100
AcDbSymbolTableRecord
100
AcDbLinetypeTableRecord
  2
Continuous
 70
     0
  3
Solid line
 72
    65
 73
     0
 40
0.0
  0
LTYPE
  5
60
330
5
100
AcDbSymbolTableRecord
100
AcDbLinetypeTableRecord
  2
CENTER2
 70
     0
  3
Center (.5x) ___ _ ___ _ ___ _ ___ _ ___ _ ___
 72
    65
 73
     4
 40
28.575
 49
19.05
 74
     4
 75
     0
340
0
 46
0.0
 50
0.0
 44
0.0
 45
0.0
 49
-3.175
 74
     4
 75
     0
340
0
 46
0.0
 50
0.0
 44
0.0
 45
0.0
 49
3.175
 74
     4
 75
     0
340
0
 46
0.0
 50
0.0
 44
0.0
 45
0.0
 49
-3.175
 74
     4
 75
     0
340
0
 46
0.0
 50
0.0
 44
0.0
 45
0.0
  0
ENDTAB
  0
TABLE
  2
LAYER
  5
2
330
0
100
AcDbSymbolTable
 70
     5
  0
LAYER
  5
10
330
2
100
AcDbSymbolTableRecord
100
AcDbLayerTableRecord
  2
0
 70
     0
 62
     7
  6
Continuous
370
    -3
390
F
  0
LAYER
  5
5D
330
2
100
AcDbSymbolTableRecord
100
AcDbLayerTableRecord
  2
Default
 70
     0
 62
     7
  6
Continuous
370
    -3
390
F
  0
LAYER
  5
86
330
2
100
AcDbSymbolTableRecord
100
AcDbLayerTableRecord
  2
DV1_Default
 70
     0
 62
     7
  6
Continuous
370
    -3
390
F
  0
LAYER
  5
13F
330
2
100
AcDbSymbolTableRecord
100
AcDbLayerTableRecord
  2
DV2_Default
 70
     0
 62
     7
  6
Continuous
370
    -3
390
F
  0
LAYER
  5
1ED
330
2
100
AcDbSymbolTableRecord
100
AcDbLayerTableRecord
  2
DV3_Default
 70
     0
 62
     7
  6
Continuous
370
    -3
390
F
  0
ENDTAB
  0
TABLE
  2
STYLE
  5
3
330
0
100
AcDbSymbolTable
 70
     2
  0
STYLE
  5
11
330
3
100
AcDbSymbolTableRecord
100
AcDbTextStyleTableRecord
  2
Standard
 70
     0
 40
0.0
 41
1.0
 50
0.0
 71
     0
 42
2.5
  3
txt
  4

  0
STYLE
  5
24C
330
3
100
AcDbSymbolTableRecord
100
AcDbTextStyleTableRecord
  2
SEACAD_seiso_ttf
 70
     0
 40
0.0
 41
1.0
 50
0.0
 71
     0
 42
0.2
  3
seiso.ttf
  4

  0
ENDTAB
  0
TABLE
  2
VIEW
  5
6
330
0
100
AcDbSymbolTable
 70
     0
  0
ENDTAB
  0
TABLE
  2
UCS
  5
7
330
0
100
AcDbSymbolTable
 70
     0
  0
ENDTAB
  0
TABLE
  2
APPID
  5
9
330
0
100
AcDbSymbolTable
 70
     1
  0
APPID
  5
12
330
9
100
AcDbSymbolTableRecord
100
AcDbRegAppTableRecord
  2
ACAD
 70
     0
  0
ENDTAB
  0
TABLE
  2
DIMSTYLE
  5
A
330
0
100
AcDbSymbolTable
 70
     1
100
AcDbDimStyleTable
  0
DIMSTYLE
105
27
330
A
100
AcDbSymbolTableRecord
100
AcDbDimStyleTableRecord
  2
ISO-25
 70
     0
 41
2.5
 42
0.625
 43
3.75
 44
1.25
 73
     0
 74
     0
 77
     1
 78
     8
140
2.5
141
2.5
143
0.0393700787
147
0.625
171
     3
172
     1
271
     2
272
     2
274
     3
278
    44
283
     0
284
     8
340
11
  0
ENDTAB
  0
TABLE
  2
BLOCK_RECORD
  5
1
330
0
100
AcDbSymbolTable
 70
    10
  0
BLOCK_RECORD
  5
1F
330
1
100
AcDbSymbolTableRecord
100
AcDbBlockTableRecord
  2
*Model_Space
340
22
  0
BLOCK_RECORD
  5
1B
330
1
100
AcDbSymbolTableRecord
100
AcDbBlockTableRecord
  2
*Paper_Space
340
1E
  0
BLOCK_RECORD
  5
5E
330
1
100
AcDbSymbolTableRecord
100
AcDbBlockTableRecord
  2
SEANNOT_GROUP
340
0
102
{BLKREFS
331
5F
102
}
  0
BLOCK_RECORD
  5
65
330
1
100
AcDbSymbolTableRecord
100
AcDbBlockTableRecord
  2
SEANNOT_GROUP1
340
0
102
{BLKREFS
331
66
102
}
  0
BLOCK_RECORD
  5
6B
330
1
100
AcDbSymbolTableRecord
100
AcDbBlockTableRecord
  2
SEANNOT_GROUP2
340
0
102
{BLKREFS
331
6C
102
}
  0
BLOCK_RECORD
  5
71
330
1
100
AcDbSymbolTableRecord
100
AcDbBlockTableRecord
  2
SEANNOT_GROUP3
340
0
102
{BLKREFS
331
72
102
}
  0
BLOCK_RECORD
  5
77
330
1
100
AcDbSymbolTableRecord
100
AcDbBlockTableRecord
  2
SEANNOT_GROUP4
340
0
102
{BLKREFS
331
78
102
}
  0
BLOCK_RECORD
  5
7E
330
1
100
AcDbSymbolTableRecord
100
AcDbBlockTableRecord
  2
SEANNOT_GROUP5
340
0
102
{BLKREFS
331
7F
102
}
  0
BLOCK_RECORD
  5
84
330
1
100
AcDbSymbolTableRecord
100
AcDbBlockTableRecord
  2
SE
340
0
102
{BLKREFS
331
85
102
}
  0
BLOCK_RECORD
  5
13D
330
1
100
AcDbSymbolTableRecord
100
AcDbBlockTableRecord
  2
SE1
340
0
102
{BLKREFS
331
13E
102
}
  0
BLOCK_RECORD
  5
1EB
330
1
100
AcDbSymbolTableRecord
100
AcDbBlockTableRecord
  2
SE2
340
0
102
{BLKREFS
331
1EC
102
}
  0
ENDTAB
  0
ENDSEC
  0
SECTION
  2
BLOCKS
  0
BLOCK
  5
20
330
1F
100
AcDbEntity
  8
0
100
AcDbBlockBegin
  2
*Model_Space
 70
     0
 10
0.0
 20
0.0
 30
0.0
  3
*Model_Space
  1

  0
ENDBLK
  5
21
330
1F
100
AcDbEntity
  8
0
100
AcDbBlockEnd
  0
BLOCK
  5
1C
330
1B
100
AcDbEntity
 67
     1
  8
0
100
AcDbBlockBegin
  2
*Paper_Space
 70
     0
 10
0.0
 20
0.0
 30
0.0
  3
*Paper_Space
  1

  0
ENDBLK
  5
1D
330
1B
100
AcDbEntity
 67
     1
  8
0
100
AcDbBlockEnd
  0
BLOCK
  5
63
330
5E
100
AcDbEntity
  8
0
100
AcDbBlockBegin
  2
SEANNOT_GROUP
 70
     0
 10
0.0
 20
0.0
 30
0.0
  3
SEANNOT_GROUP
  1

  0
LINE
  5
61
330
5E
100
AcDbEntity
  8
Default
  6
CENTER2
 62
     7
100
AcDbLine
 10
294.7208051205
 20
587.6353374211
 30
0.0
 11
254.7208060146
 21
587.6353374211
 31
0.0
  0
LINE
  5
62
330
5E
100
AcDbEntity
  8
Default
  6
CENTER2
 62
     7
100
AcDbLine
 10
274.7208055675
 20
607.635336974
 30
0.0
 11
274.7208055675
 21
567.6353378681
 31
0.0
  0
ENDBLK
  5
64
330
5E
100
AcDbEntity
  8
0
100
AcDbBlockEnd
  0
BLOCK
  5
69
330
65
100
AcDbEntity
  8
0
100
AcDbBlockBegin
  2
SEANNOT_GROUP1
 70
     0
 10
0.0
 20
0.0
 30
0.0
  3
SEANNOT_GROUP1
  1

  0
LINE
  5
67
330
65
100
AcDbEntity
  8
Default
  6
CENTER2
 62
     7
100
AcDbLine
 10
425.2739388578
 20
653.322745135
 30
0.0
 11
385.2739397518
 21
653.322745135
 31
0.0
  0
LINE
  5
68
330
65
100
AcDbEntity
  8
Default
  6
CENTER2
 62
     7
100
AcDbLine
 10
405.2739393048
 20
673.322744688
 30
0.0
 11
405.2739393048
 21
633.322745582
 31
0.0
  0
ENDBLK
  5
6A
330
65
100
AcDbEntity
  8
0
100
AcDbBlockEnd
  0
BLOCK
  5
6F
330
6B
100
AcDbEntity
  8
0
100
AcDbBlockBegin
  2
SEANNOT_GROUP2
 70
     0
 10
0.0
 20
0.0
 30
0.0
  3
SEANNOT_GROUP2
  1

  0
LINE
  5
6D
330
6B
100
AcDbEntity
  8
Default
  6
CENTER2
 62
     7
100
AcDbLine
 10
108.349999553
 20
587.6353374211
 30
0.0
 11
68.350000447
 21
587.6353374211
 31
0.0
  0
LINE
  5
6E
330
6B
100
AcDbEntity
  8
Default
  6
CENTER2
 62
     7
100
AcDbLine
 10
88.35
 20
607.635336974
 30
0.0
 11
88.35
 21
567.6353378681
 31
0.0
  0
ENDBLK
  5
70
330
6B
100
AcDbEntity
  8
0
100
AcDbBlockEnd
  0
BLOCK
  5
75
330
71
100
AcDbEntity
  8
0
100
AcDbBlockBegin
  2
SEANNOT_GROUP3
 70
     0
 10
0.0
 20
0.0
 30
0.0
  3
SEANNOT_GROUP3
  1

  0
LINE
  5
73
330
71
100
AcDbEntity
  8
Default
  6
CENTER2
 62
     7
100
AcDbLine
 10
108.349999553
 20
653.8024285394
 30
0.0
 11
68.350000447
 21
653.8024285394
 31
0.0
  0
LINE
  5
74
330
71
100
AcDbEntity
  8
Default
  6
CENTER2
 62
     7
100
AcDbLine
 10
88.35
 20
673.8024280924
 30
0.0
 11
88.35
 21
633.8024289864
 31
0.0
  0
ENDBLK
  5
76
330
71
100
AcDbEntity
  8
0
100
AcDbBlockEnd
  0
BLOCK
  5
7B
330
77
100
AcDbEntity
  8
0
100
AcDbBlockBegin
  2
SEANNOT_GROUP4
 70
     0
 10
0.0
 20
0.0
 30
0.0
  3
SEANNOT_GROUP4
  1

  0
LINE
  5
79
330
77
100
AcDbEntity
  8
Default
  6
CENTER2
 62
     7
100
AcDbLine
 10
108.3500009635
 20
450.0088440111
 30
0.0
 11
68.3500018575
 21
450.0088440111
 31
0.0
  0
LINE
  5
7A
330
77
100
AcDbEntity
  8
Default
  6
CENTER2
 62
     7
100
AcDbLine
 10
88.3500014105
 20
470.0088435641
 30
0.0
 11
88.3500014105
 21
430.0088444581
 31
0.0
  0
ENDBLK
  5
7C
330
77
100
AcDbEntity
  8
0
100
AcDbBlockEnd
  0
BLOCK
  5
82
330
7E
100
AcDbEntity
  8
0
100
AcDbBlockBegin
  2
SEANNOT_GROUP5
 70
     0
 10
0.0
 20
0.0
 30
0.0
  3
SEANNOT_GROUP5
  1

  0
LINE
  5
80
330
7E
100
AcDbEntity
  8
Default
  6
CENTER2
 62
     7
100
AcDbLine
 10
108.3498363298
 20
319.4557102738
 30
0.0
 11
68.3498372239
 21
319.4557102738
 31
0.0
  0
LINE
  5
81
330
7E
100
AcDbEntity
  8
Default
  6
CENTER2
 62
     7
100
AcDbLine
 10
88.3498367769
 20
339.4557098268
 30
0.0
 11
88.3498367769
 21
299.4557107208
 31
0.0
  0
ENDBLK
  5
83
330
7E
100
AcDbEntity
  8
0
100
AcDbBlockEnd
  0
BLOCK
  5
13B
330
84
100
AcDbEntity
  8
0
100
AcDbBlockBegin
  2
SE
 70
     0
 10
0.0
 20
0.0
 30
0.0
  3
SE
  1

  0
ARC
  5
87
330
84
100
AcDbEntity
  8
DV1_Default
  6
Continuous
 62
     7
100
AcDbCircle
 10
70.9081703232
 20
608.1463610651
 30
0.0
 40
181.9348455275567
100
AcDbArc
 50
356.4572566987
 51
357.4343946444
  0
SPLINE
  5
88
330
84
100
AcDbEntity
  8
DV1_Default
  6
Continuous
 62
     7
100
AcDbSpline
210
0.0
220
0.0
230
1.0
 70
     8
 71
     3
 72
    31
 73
    27
 74
     0
 42
0.0000000001734949
 43
0.0000000001
 40
0.0
 40
0.0
 40
0.0
 40
0.0
 40
0.0206043717626587
 40
0.0421361260664821
 40
0.064615967947094
 40
0.0880423868144999
 40
0.1124204068996455
 40
0.1377554542639861
 40
0.1640472799214075
 40
0.1913234242841981
 40
0.219578482170067
 40
0.2489694911857645
 40
0.2872696751605101
 40
0.310624744972229
 40
0.3522104338179775
 40
0.4011354365087114
 40
0.4543681904630292
 40
0.4733530444675064
 40
0.4975053772578922
 40
0.538233006139666
 40
0.5878609437798027
 40
0.6472504758465246
 40
0.7210833104424297
 40
0.8035829761451931
 40
0.9007064453426012
 40
1.0
 40
1.0
 40
1.0
 40
1.0
 10
252.495334317587
 20
596.9040352556411
 30
0.0
 10
252.5069433925857
 20
596.9097819291455
 30
0.0
 10
252.5270109433453
 20
596.9217530820923
 30
0.0
 10
252.6869640191337
 20
596.9499687735395
 30
0.0
 10
252.9543892087763
 20
596.9918288592187
 30
0.0
 10
253.3487359373881
 20
597.0522976485437
 30
0.0
 10
253.8782965513975
 20
597.1385096971578
 30
0.0
 10
254.5532231786419
 20
597.2568612096562
 30
0.0
 10
255.3843674375934
 20
597.4178607179268
 30
0.0
 10
256.3802402065803
 20
597.6286954801375
 30
0.0
 10
257.553590381542
 20
597.906573464856
 30
0.0
 10
259.0301194896056
 20
598.2874005526938
 30
0.0
 10
260.596119533623
 20
598.733997794421
 30
0.0
 10
262.4761947874204
 20
599.4262911991399
 30
0.0
 10
264.6387790097163
 20
600.426887422309
 30
0.0
 10
267.3388071221136
 20
602.1733793636888
 30
0.0
 10
269.4746717937608
 20
603.9877581020932
 30
0.0
 10
271.0579722404369
 20
605.5697758954026
 30
0.0
 10
272.3379844379745
 20
607.0468202999535
 30
0.0
 10
273.9426354759114
 20
609.1822610883677
 30
0.0
 10
275.80772897981
 20
612.1340345471829
 30
0.0
 10
277.6457774452128
 20
615.9771696762555
 30
0.0
 10
279.3153732908931
 20
620.7140739836242
 30
0.0
 10
280.8993200273695
 20
626.397717498908
 30
0.0
 10
282.4901200963622
 20
632.6950169279239
 30
0.0
 10
283.6856101257985
 20
637.1104713036553
 30
0.0
 10
284.289945232777
 20
639.3425884107812
 30
0.0
  0
SPLINE
  5
89
330
84
100
AcDbEntity
  8
DV1_Default
  6
Continuous
 62
     7
100
AcDbSpline
210
0.0
220
0.0
230
1.0
 70
     8
 71
     3
 72
    22
 73
    18
 74
     0
 42
0.0000000001880162
 43
0.0000000001
 40
0.0
 40
0.0
 40
0.0
 40
0.0
 40
0.1282691091217139
 40
0.1282691091217139
 40
0.2565382182434278
 40
0.2565382182434278
 40
0.3848073273651417
 40
0.3848073273651417
 40
0.5130764364868555
 40
0.5130764364868555
 40
0.6413455456085694
 40
0.6413455456085694
 40
0.7696146547302833
 40
0.7696146547302833
 40
0.8978837638519972
 40
0.8978837638519972
 40
1.0
 40
1.0
 40
1.0
 40
1.0
 10
283.9917075814
 20
639.4580700154512
 30
0.0
 10
282.9148214824525
 20
636.946683303758
 30
0.0
 10
281.9131263063774
 20
634.404532773409
 30
0.0
 10
279.9643396799287
 20
629.3053542152619
 30
0.0
 10
279.0153022003451
 20
626.748672814485
 30
0.0
 10
276.9955048168779
 20
621.6898401174402
 30
0.0
 10
275.9263532430581
 20
619.1846964773349
 30
0.0
 10
273.4429084914414
 20
614.3493821493935
 30
0.0
 10
272.021329197292
 20
612.0151231993984
 30
0.0
 10
268.6649615493694
 20
607.7787013309659
 30
0.0
 10
266.7033019009365
 20
605.890027020602
 30
0.0
 10
262.5638409127692
 20
602.9762093368804
 30
0.0
 10
260.4228772175259
 20
601.9755645543407
 30
0.0
 10
256.8482112462981
 20
600.7891115142716
 30
0.0
 10
255.4127684353994
 20
600.5555725011143
 30
0.0
 10
253.6641880583537
 20
600.3321448703758
 30
0.0
 10
253.1738911954189
 20
600.3003425436344
 30
0.0
 10
253.0061428288091
 20
600.2914951200245
 30
0.0
  0
LINE
  5
8A
330
84
100
AcDbEntity
  8
DV1_Default
  6
Continuous
 62
     7
100
AcDbLine
 10
297.2210073323
 20
592.6563491434
 30
0.0
 11
297.2224827805
 21
592.6401118305
 31
0.0
  0
LINE
  5
8B
330
84
100
AcDbEntity
  8
DV1_Default
  6
Continuous
 62
     7
100
AcDbLine
 10
252.219513686
 20
592.6401118305
 30
0.0
 11
252.2206490168
 21
592.656339657
 31
0.0
  0
ARC
  5
8C
330
84
100
AcDbEntity
  8
DV1_Default
  6
Continuous
 62
     7
100
AcDbCircle
 10
275.8956813731
 20
33823.9455238394
 30
0.0
 40
33229.32145538332
100
AcDbArc
 50
270.0358836989
 51
270.0365739795
  0
ARC
  5
8D
330
84
100
AcDbEntity
  8
DV1_Default
  6
Continuous
 62
     7
100
AcDbCircle
 10
-402.3506105017
 20
636.6429474619
 30
0.0
 40
656.0506021563067
100
AcDbArc
 50
356.3285230381
 51
356.5273005068
  0
ARC
  5
8E
330
84
100
AcDbEntity
  8
DV1_Default
  6
Continuous
 62
     7
100
AcDbCircle
 10
274.7188399871
 20
10023.9958345569
 30
0.0
 40
9431.366329257664
100
AcDbArc
 50
269.8633228138
 51
270.1367013428
  0
ARC
  5
8F
330
84
100
AcDbEntity
  8
DV1_Default
  6
Continuous
 62
     7
100
AcDbCircle
 10
275.906217365
 20
34124.3771440456
 30
0.0
 40
33529.75300826543
100
AcDbArc
 50
269.9597530621
 51
270.0355428325
  0
SPLINE
  5
90
330
84
100
AcDbEntity
  8
DV1_Default
  6
Continuous
 62
     7
100
AcDbSpline
210
0.0
220
0.0
230
1.0
 70
     8
 71
     3
 72
    53
 73
    49
 74
     0
 42
0.0000000000626938
 43
0.0000000001
 40
0.0
 40
0.0
 40
0.0
 40
0.0
 40
0.0069144394662284
 40
0.0168893560280043
 40
0.0245734156500448
 40
0.0316155658887272
 40
0.0416090161246341
 40
0.0540411502536472
 40
0.0696089597335155
 40
0.0892418019552544
 40
0.1141581809483557
 40
0.1290848093537972
 40
0.1459484797731028
 40
0.1650888346448017
 40
0.1866674346578745
 40
0.2098930106444938
 40
0.2217174021041996
 40
0.2335870449355039
 40
0.2821488922745781
 40
0.3076715925547885
 40
0.3346555058573025
 40
0.3638303094056574
 40
0.3957070464293728
 40
0.4126993112516089
 40
0.4299423465470628
 40
0.4467865284056629
 40
0.4629575179906455
 40
0.4979317017489002
 40
0.5111290027896815
 40
0.5248595413417917
 40
0.5418939071540256
 40
0.5601282178367318
 40
0.579058880447244
 40
0.5981181534894369
 40
0.6167940122100601
 40
0.6346389149227704
 40
0.6672450802341441
 40
0.7216138504825675
 40
0.7655227554554699
 40
0.8006032668606925
 40
0.8538394483519764
 40
0.8792175826098264
 40
0.904531591479017
 40
0.9170437168322721
 40
0.9292949952273786
 40
0.9530906192360318
 40
0.9766189291921993
 40
1.0
 40
1.0
 40
1.0
 40
1.0
 10
402.930219354417
 20
660.7973267834712
 30
0.0
 10
402.8114882951184
 20
661.1452736257628
 30
0.0
 10
402.521473515331
 20
661.9951758511562
 30
0.0
 10
402.0895465462247
 20
663.2265905175232
 30
0.0
 10
401.6422627934481
 20
664.4581758855894
 30
0.0
 10
401.1811005483407
 20
665.6848025439958
 30
0.0
 10
400.6102954299313
 20
667.1383047073912
 30
0.0
 10
399.833448126313
 20
668.9954566484777
 30
0.0
 10
398.7851200987901
 20
671.2920538038111
 30
0.0
 10
397.3237291310264
 20
674.1258498455959
 30
0.0
 10
395.7019249871748
 20
676.8361594892093
 30
0.0
 10
393.9986169377718
 20
679.3194215880171
 30
0.0
 10
392.3504924489924
 20
681.4663064841893
 30
0.0
 10
390.328640607002
 20
683.7663705981519
 30
0.0
 10
387.8847913656022
 20
686.134487122425
 30
0.0
 10
385.5397014626243
 20
688.0311648191501
 30
0.0
 10
383.4864560982438
 20
689.4507603832737
 30
0.0
 10
380.2180962278911
 20
691.4730828318291
 30
0.0
 10
376.007383552481
 20
693.3562555529513
 30
0.0
 10
370.8192771688981
 20
694.7832691726586
 30
0.0
 10
366.5286536393619
 20
695.5049223381437
 30
0.0
 10
361.8526125967281
 20
695.8197926582005
 30
0.0
 10
357.699594562873
 20
695.7033332981017
 30
0.0
 10
354.2029368458007
 20
695.3548617856811
 30
0.0
 10
351.5155749802599
 20
694.9699679144969
 30
0.0
 10
348.8896997188212
 20
694.4816138616208
 30
0.0
 10
345.3678111145475
 20
693.6776467714747
 30
0.0
 10
342.0800919342594
 20
692.7298026920628
 30
0.0
 10
338.9692468660398
 20
691.6648057579046
 30
0.0
 10
336.7800274684503
 20
690.8518474169528
 30
0.0
 10
334.3689672644845
 20
689.8710963707555
 30
0.0
 10
331.7377594290448
 20
688.702585959451
 30
0.0
 10
329.0475541673198
 20
687.4054467251677
 30
0.0
 10
326.3823227047537
 20
686.0066466331808
 30
0.0
 10
323.8114256161762
 20
684.5553197488185
 30
0.0
 10
320.6705925351021
 20
682.6534531173827
 30
0.0
 10
316.0292467360844
 20
679.5750670069913
 30
0.0
 10
310.5194976208833
 20
675.3197138677946
 30
0.0
 10
305.2803596009126
 20
670.5430536235862
 30
0.0
 10
300.4167838667263
 20
665.4707306265024
 30
0.0
 10
296.5772587737698
 20
660.7948340598897
 30
0.0
 10
293.3777416429891
 20
656.2928294078911
 30
0.0
 10
291.5590630639095
 20
653.4680687341045
 30
0.0
 10
290.1927572691474
 20
651.184520265391
 30
0.0
 10
288.9145159143906
 20
648.942822138466
 30
0.0
 10
287.4301009358676
 20
646.1456976390488
 30
0.0
 10
285.7873319630462
 20
642.7651827389735
 30
0.0
 10
284.78801905564
 20
640.4810621819668
 30
0.0
 10
284.289945232777
 20
639.3425884107812
 30
0.0
  0
LINE
  5
91
330
84
100
AcDbEntity
  8
DV1_Default
  6
Continuous
 62
     7
100
AcDbLine
 10
259.8397766192
 20
592.6401118305
 30
0.0
 11
259.8397766192
 21
592.6353374211
 31
0.0
  0
LINE
  5
92
330
84
100
AcDbEntity
  8
DV1_Default
  6
Continuous
 62
     7
100
AcDbLine
 10
267.5086681981
 20
592.6353374211
 30
0.0
 11
267.5086681981
 21
592.6401118305
 31
0.0
  0
LINE
  5
93
330
84
100
AcDbEntity
  8
DV1_Default
  6
Continuous
 62
     7
100
AcDbLine
 10
264.2324677925
 20
604.1558411276
 30
0.0
 11
264.2324479053
 21
604.1639973035
 31
0.0
  0
LINE
  5
94
330
84
100
AcDbEntity
  8
DV1_Default
  6
Continuous
 62
     7
100
AcDbLine
 10
387.3339840108
 20
656.3031622963
 30
0.0
 11
403.0146477963
 21
660.5047834944
 31
0.0
  0
ARC
  5
95
330
84
100
AcDbEntity
  8
DV1_Default
  6
Continuous
 62
     7
100
AcDbCircle
 10
402.9370020161
 20
660.7945612244
 30
0.0
 40
0.2999999999999706
100
AcDbArc
 50
285.0000131812
 51
18.8074322201
  0
SPLINE
  5
96
330
84
100
AcDbEntity
  8
DV1_Default
  6
Continuous
 62
     7
100
AcDbSpline
210
0.0
220
0.0
230
1.0
 70
     8
 71
     3
 72
     8
 73
     4
 74
     0
 42
0.0000000508362459
 43
0.0000000001
 40
0.0
 40
0.0
 40
0.0
 40
0.0
 40
1.0
 40
1.0
 40
1.0
 40
1.0
 10
252.797739801122
 20
600.2305484077295
 30
0.0
 10
252.7378833067162
 20
600.2078228533974
 30
0.0
 10
252.7186432131465
 20
600.1581956164598
 30
0.0
 10
252.740019520413
 20
600.0816666969167
 30
0.0
  0
SPLINE
  5
97
330
84
100
AcDbEntity
  8
DV1_Default
  6
Continuous
 62
     7
100
AcDbSpline
210
0.0
220
0.0
230
1.0
 70
     8
 71
     3
 72
     8
 73
     4
 74
     0
 42
0.0000000669016854
 43
0.0000000001
 40
0.0
 40
0.0
 40
0.0
 40
0.0
 40
0.9999999999999999
 40
0.9999999999999999
 40
0.9999999999999999
 40
0.9999999999999999
 10
252.896444128806
 20
600.1874293596208
 30
0.0
 10
252.8805079368861
 20
600.2487899028753
 30
0.0
 10
252.8966910407605
 20
600.2825021613304
 30
0.0
 10
252.9449934404292
 20
600.2885661349864
 30
0.0
  0
ARC
  5
98
330
84
100
AcDbEntity
  8
DV1_Default
  6
Continuous
 62
     7
100
AcDbCircle
 10
252.9793243414
 20
599.9862269012
 30
0.0
 40
0.3029225379282833
100
AcDbArc
 50
140.5702860621
 51
188.2606475335
  0
ARC
  5
99
330
84
100
AcDbEntity
  8
DV1_Default
  6
Continuous
 62
     7
100
AcDbCircle
 10
252.4259660943
 20
593.6350351652
 30
0.0
 40
1.000000000000001
100
AcDbArc
 50
90.0
 51
258.1422310753
  0
ARC
  5
9A
330
84
100
AcDbEntity
  8
DV1_Default
  6
Continuous
 62
     7
100
AcDbCircle
 10
297.0156450407
 20
593.6350351652
 30
0.0
 40
0.9999999999999996
100
AcDbArc
 50
281.853122639
 51
90.0
  0
SPLINE
  5
9B
330
84
100
AcDbEntity
  8
DV1_Default
  6
Continuous
 62
     7
100
AcDbSpline
210
0.0
220
0.0
230
1.0
 70
     8
 71
     3
 72
    49
 73
    45
 74
     0
 42
0.0000000000616401
 43
0.0000000001
 40
0.0
 40
0.0
 40
0.0
 40
0.0
 40
0.0085327309241388
 40
0.0276991374977178
 40
0.0485513903494992
 40
0.0715138615499071
 40
0.0966708635501573
 40
0.1237935424233396
 40
0.158503278238776
 40
0.194869991624813
 40
0.2321832667366816
 40
0.2696618170479692
 40
0.3066368684056447
 40
0.3424514871069982
 40
0.3765764229233329
 40
0.4085897773992882
 40
0.4381572213663386
 40
0.4650928514116739
 40
0.4970847763159539
 40
0.5281422346842323
 40
0.5580562762486299
 40
0.586656554250031
 40
0.6138195891440094
 40
0.6394473048356022
 40
0.6634747768547684
 40
0.6859026376100172
 40
0.70675989913009
 40
0.7274479020031372
 40
0.7492143176571402
 40
0.7716860076789153
 40
0.7869161227723419
 40
0.8022950590270318
 40
0.8178460065798324
 40
0.8297568624882944
 40
0.841967654803844
 40
0.854491439943344
 40
0.8673219490083367
 40
0.8883422791099619
 40
0.9096327887813054
 40
0.9327161605996747
 40
0.9570839387640175
 40
0.9570839387640175
 40
0.9570839387640175
 40
1.0
 40
1.0
 40
1.0
 40
1.0
 10
296.7319347599846
 20
594.634137522122
 30
0.0
 10
296.7105273889042
 20
595.1510865855714
 30
0.0
 10
296.6498770302055
 20
596.5795562473149
 30
0.0
 10
296.701824523831
 20
599.3260233359362
 30
0.0
 10
296.6886744901718
 20
602.7721341134163
 30
0.0
 10
296.7621404974512
 20
606.5814756008918
 30
0.0
 10
296.969258386871
 20
610.7226393278039
 30
0.0
 10
297.4587755257084
 20
615.496048699103
 30
0.0
 10
298.3677432848073
 20
620.8374387534084
 30
0.0
 10
299.8340364796902
 20
626.6364476101212
 30
0.0
 10
301.8143314425919
 20
632.4418973792626
 30
0.0
 10
304.2490984267552
 20
638.107952709354
 30
0.0
 10
307.0654015843702
 20
643.500505580775
 30
0.0
 10
310.1479572937904
 20
648.5286346769519
 30
0.0
 10
313.3930625287853
 20
653.1215929425615
 30
0.0
 10
316.6943004960871
 20
657.2403367754724
 30
0.0
 10
319.9521772287271
 20
660.8756949581266
 30
0.0
 10
323.3916426219685
 20
664.3375006442935
 30
0.0
 10
327.0783308247584
 20
667.6604738910155
 30
0.0
 10
331.0854112140025
 20
670.8594361195672
 30
0.0
 10
335.1278608798541
 20
673.6998776226737
 30
0.0
 10
339.1602242033006
 20
676.1645940012111
 30
0.0
 10
343.135315328659
 20
678.251692928384
 30
0.0
 10
347.0127917888673
 20
679.9619197211915
 30
0.0
 10
350.7591833536265
 20
681.2967986480403
 30
0.0
 10
354.3432935115403
 20
682.2714594620279
 30
0.0
 10
357.813881895281
 20
682.9189936117874
 30
0.0
 10
361.2940278829174
 20
683.2464852008392
 30
0.0
 10
364.880710835462
 20
683.1953765828384
 30
0.0
 10
368.1370228035926
 20
682.7222714102772
 30
0.0
 10
370.9577973621272
 20
681.9221498763508
 30
0.0
 10
373.3123605188438
 20
680.9404541749525
 30
0.0
 10
375.3663727254024
 20
679.7610715978806
 30
0.0
 10
377.126804792975
 20
678.4573643069663
 30
0.0
 10
378.6191058250481
 20
677.0903246111044
 30
0.0
 10
379.9968224988955
 20
675.5397489072583
 30
0.0
 10
381.5021548143301
 20
673.4689671334858
 30
0.0
 10
382.9847341062556
 20
670.8048915704943
 30
0.0
 10
384.3365418497318
 20
667.45105814476
 30
0.0
 10
385.419024692438
 20
663.8385279672576
 30
0.0
 10
386.0546431759388
 20
661.2449113975125
 30
0.0
 10
386.3771866842283
 20
659.9805684864349
 30
0.0
 10
386.6788399848388
 20
658.7981133992041
 30
0.0
 10
386.9771099367329
 20
657.6747568029219
 30
0.0
 10
387.3339840167011
 20
656.3031622721949
 30
0.0
  0
LINE
  5
9C
330
84
100
AcDbEntity
  8
DV1_Default
  6
Continuous
 62
     7
100
AcDbLine
 10
257.4208055675
 20
592.6401118305
 30
0.0
 11
257.4208055675
 21
592.6353374211
 31
0.0
  0
LINE
  5
9D
330
84
100
AcDbEntity
  8
DV1_Default
  6
Continuous
 62
     7
100
AcDbLine
 10
292.0208055675
 20
592.6353374211
 30
0.0
 11
292.0208055675
 21
592.6401118305
 31
0.0
  0
ARC
  5
9E
330
84
100
AcDbEntity
  8
DV1_Default
  6
Continuous
 62
     7
100
AcDbCircle
 10
1868.5831526744
 20
707.2766802229
 30
0.0
 40
1616.000448805026
100
AcDbArc
 50
180.3291302046
 51
181.0842999529
  0
ARC
  5
9F
330
84
100
AcDbEntity
  8
DV1_Default
  6
Continuous
 62
     7
100
AcDbCircle
 10
-3309.9239728006
 20
617.4813316081
 30
0.0
 40
3563.288099561958
100
AcDbArc
 50
0.5573353386
 51
0.9521896509
  0
ARC
  5
A0
330
84
100
AcDbEntity
  8
DV1_Default
  6
Continuous
 62
     7
100
AcDbCircle
 10
-1686.7185647018
 20
634.8002385235
 30
0.0
 40
1939.991623836724
100
AcDbArc
 50
0.2892769131
 51
0.5121816043
  0
ARC
  5
A1
330
84
100
AcDbEntity
  8
DV1_Default
  6
Continuous
 62
     7
100
AcDbCircle
 10
144.4852234096
 20
638.5411336977
 30
0.0
 40
108.9314558803014
100
AcDbArc
 50
356.9478406906
 51
3.1857986917
  0
ARC
  5
A2
330
84
100
AcDbEntity
  8
DV1_Default
  6
Continuous
 62
     7
100
AcDbCircle
 10
-934.0096289926
 20
636.2684202879
 30
0.0
 40
1187.277026292932
100
AcDbArc
 50
359.6012608076
 51
359.8297765894
  0
ARC
  5
A3
330
84
100
AcDbEntity
  8
DV1_Default
  6
Continuous
 62
     7
100
AcDbCircle
 10
-794.8705816071
 20
635.0439580043
 30
0.0
 40
1048.13285823505
100
AcDbArc
 50
358.2958423513
 51
359.6152619703
  0
ARC
  5
A4
330
84
100
AcDbEntity
  8
DV1_Default
  6
Continuous
 62
     7
100
AcDbCircle
 10
-506.7472349769
 20
702.4407895928
 30
0.0
 40
803.5885293879833
100
AcDbArc
 50
359.3649939607
 51
359.6829088488
  0
ARC
  5
A5
330
84
100
AcDbEntity
  8
DV1_Default
  6
Continuous
 62
     7
100
AcDbCircle
 10
296.528991937
 20
697.9951275278
 30
0.0
 40
0.2999999997379382
100
AcDbArc
 50
359.6938734246
 51
61.1600701602
  0
LINE
  5
A6
330
84
100
AcDbEntity
  8
DV1_Default
  6
Continuous
 62
     7
100
AcDbLine
 10
296.4412973571
 20
698.2951275278
 30
0.0
 11
252.9954704914
 21
698.2951275278
 31
0.0
  0
ARC
  5
A7
330
84
100
AcDbEntity
  8
DV1_Default
  6
Continuous
 62
     7
100
AcDbCircle
 10
252.9093638839
 20
697.9951275278
 30
0.0
 40
0.299999999940646
100
AcDbArc
 50
118.8381126307
 51
180.2594550504
  0
LINE
  5
A8
330
84
100
AcDbEntity
  8
DV1_Default
  6
Continuous
 62
     7
100
AcDbLine
 10
253.2621974047
 20
632.7373863644
 30
0.0
 11
253.262051127
 21
632.7410245337
 31
0.0
  0
LINE
  5
A9
330
84
100
AcDbEntity
  8
DV1_Default
  6
Continuous
 62
     7
100
AcDbLine
 10
253.2482981435
 20
644.5948773258
 30
0.0
 11
253.2485174423
 21
644.5977310542
 31
0.0
  0
LINE
  5
AA
330
84
100
AcDbEntity
  8
DV1_Default
  6
Continuous
 62
     7
100
AcDbLine
 10
419.2154350628
 20
664.8219496232
 30
0.0
 11
403.5954828458
 21
660.636596044
 31
0.0
  0
ARC
  5
AB
330
84
100
AcDbEntity
  8
DV1_Default
  6
Continuous
 62
     7
100
AcDbCircle
 10
403.5179002071
 20
660.9266995633
 30
0.0
 40
0.3002983811693276
100
AcDbArc
 50
233.1109985326
 51
284.9722884918
  0
ARC
  5
AC
330
84
100
AcDbEntity
  8
DV1_Default
  6
Continuous
 62
     7
100
AcDbCircle
 10
403.5170151482
 20
660.9256807516
 30
0.0
 40
0.2989522797749545
100
AcDbArc
 50
198.7256944131
 51
233.1294570984
  0
SPLINE
  5
AD
330
84
100
AcDbEntity
  8
DV1_Default
  6
Continuous
 62
     7
100
AcDbSpline
210
0.0
220
0.0
230
1.0
 70
    12
 71
     3
 72
     8
 73
     4
 74
     0
 42
0.0000000171384245
 43
0.0000000001
 40
0.0
 40
0.0
 40
0.0
 40
0.0
 40
1.0
 40
1.0
 40
1.0
 40
1.0
 10
419.2819129293171
 20
664.8397623137892
 30
0.0
 41
1.205176813725017
 10
419.4697758178722
 20
664.890122138932
 30
0.0
 41
0.9315985033394224
 10
419.5558112854384
 20
665.0645529273123
 30
0.0
 41
0.9316077290696311
 10
419.4814598849171
 20
665.2442740903292
 30
0.0
 41
1.205204490915643
  0
SPLINE
  5
AE
330
84
100
AcDbEntity
  8
DV1_Default
  6
Continuous
 62
     7
100
AcDbSpline
210
0.0
220
0.0
230
1.0
 70
     8
 71
     3
 72
    17
 73
    13
 74
     0
 42
0.0000000000714784
 43
0.0000000001
 40
0.0
 40
0.0
 40
0.0
 40
0.0
 40
0.0495949406100543
 40
0.1064022213747187
 40
0.2200167829040479
 40
0.3336313444333771
 40
0.4472459059627062
 40
0.5608604674920353
 40
0.6744750290213645
 40
0.7880895905506936
 40
0.9017041520800227
 40
1.0
 40
1.0
 40
1.0
 40
1.0
 10
419.4814598849171
 20
665.2442740903292
 30
0.0
 10
419.1801095689008
 20
665.9718827575805
 30
0.0
 10
418.5210380909631
 20
667.5888822045306
 30
0.0
 10
416.9065065793339
 20
671.5199948832216
 30
0.0
 10
413.7917405320936
 20
678.1894053196409
 30
0.0
 10
406.939010146899
 20
688.0673904128747
 30
0.0
 10
396.0587025674909
 20
697.8534672227919
 30
0.0
 10
381.0047920076649
 20
705.3737783639125
 30
0.0
 10
362.4096832904735
 20
708.8408686942636
 30
0.0
 10
341.5523087966686
 20
707.2256655598293
 30
0.0
 10
321.0854899458734
 20
700.6961680616016
 30
0.0
 10
308.4767422099447
 20
693.82352864204
 30
0.0
 10
302.955325908897
 20
690.2160452884292
 30
0.0
  0
ARC
  5
AF
330
84
100
AcDbEntity
  8
DV1_Default
  6
Continuous
 62
     7
100
AcDbCircle
 10
274.6721457864
 20
733.0709547597
 30
0.0
 40
51.34667996699535
100
AcDbArc
 50
302.3079152268
 51
303.423823876
  0
SPLINE
  5
B0
330
84
100
AcDbEntity
  8
DV1_Default
  6
Continuous
 62
     7
100
AcDbSpline
210
0.0
220
0.0
230
1.0
 70
     8
 71
     3
 72
    14
 73
    10
 74
     0
 42
0.0000000010574854
 43
0.0000000001
 40
0.0
 40
0.0
 40
0.0
 40
0.0
 40
0.25
 40
0.25
 40
0.5
 40
0.5
 40
0.75
 40
0.75
 40
1.0
 40
1.0
 40
1.0
 40
1.0
 10
302.1153603599071
 20
689.6733566982291
 30
0.0
 10
301.2850050230253
 20
689.1525736271692
 30
0.0
 10
300.5102294273144
 20
688.767155557865
 30
0.0
 10
299.0954377778435
 20
688.505948964618
 30
0.0
 10
298.4630438819813
 20
688.6256602020113
 30
0.0
 10
297.4831127633956
 20
689.3586141216371
 30
0.0
 10
297.1422311110183
 20
689.9670260291371
 30
0.0
 10
296.788236313935
 20
691.5319829280658
 30
0.0
 10
296.7805030349556
 20
692.4844041419769
 30
0.0
 10
296.791941845507
 20
693.5348435154292
 30
0.0
  0
ARC
  5
B1
330
84
100
AcDbEntity
  8
DV1_Default
  6
Continuous
 62
     7
100
AcDbCircle
 10
-30.4723326725
 20
611.8979872143
 30
0.0
 40
283.3846533581038
100
AcDbArc
 50
357.6889272894
 51
358.3774163717
  0
ARC
  5
B2
330
84
100
AcDbEntity
  8
DV1_Default
  6
Continuous
 62
     7
100
AcDbCircle
 10
274.7208072379
 20
18996.6309328183
 30
0.0
 40
18298.34915096409
100
AcDbArc
 50
269.9308006604
 51
270.0688102859
  0
ARC
  5
B3
330
84
100
AcDbEntity
  8
DV1_Default
  6
Continuous
 62
     7
100
AcDbCircle
 10
296.711197176
 20
700.290959246
 30
0.0
 40
1.998836103912373
100
AcDbArc
 50
273.1418199809
 51
79.85826497
  0
ARC
  5
B4
330
84
100
AcDbEntity
  8
DV1_Default
  6
Continuous
 62
     7
100
AcDbCircle
 10
252.7301355812
 20
700.2907491149
 30
0.0
 40
1.998610866542951
100
AcDbArc
 50
100.1338158897
 51
266.8659139692
  0
ARC
  5
B5
330
84
100
AcDbEntity
  8
DV1_Default
  6
Continuous
 62
     7
100
AcDbCircle
 10
252.3221169315
 20
702.5528373146
 30
0.0
 40
0.2999997377731592
100
AcDbArc
 50
280.8297927304
 51
359.9771180714
  0
ARC
  5
B6
330
84
100
AcDbEntity
  8
DV1_Default
  6
Continuous
 62
     7
100
AcDbCircle
 10
297.1187305304
 20
702.5533720662
 30
0.0
 40
0.2999999327430276
100
AcDbArc
 50
180.0173702819
 51
259.3251274404
  0
ARC
  5
B7
330
84
100
AcDbEntity
  8
DV1_Default
  6
Continuous
 62
     7
100
AcDbCircle
 10
274.7912557517
 20
-4851.8862670254
 30
0.0
 40
5554.483225611732
100
AcDbArc
 50
89.7734252687
 51
90.2284916191
  0
LINE
  5
B8
330
84
100
AcDbEntity
  8
DV1_Default
  6
Continuous
 62
     7
100
AcDbLine
 10
296.7341300027
 20
709.6925870789
 30
0.0
 11
296.8182887981
 21
703.0734606612
 31
0.0
  0
ARC
  5
B9
330
84
100
AcDbEntity
  8
DV1_Default
  6
Continuous
 62
     7
100
AcDbCircle
 10
274.7207815609
 20
-9400.9359990665
 30
0.0
 40
10110.65254640303
100
AcDbArc
 50
89.8752539406
 51
89.8756629761
  0
LINE
  5
BA
330
84
100
AcDbEntity
  8
DV1_Default
  6
Continuous
 62
     7
100
AcDbLine
 10
252.6226166455
 20
703.0768521791
 30
0.0
 11
252.7074215769
 21
709.6925857051
 31
0.0
  0
ARC
  5
BB
330
84
100
AcDbEntity
  8
DV1_Default
  6
Continuous
 62
     7
100
AcDbCircle
 10
253.2193122105
 20
710.168759171
 30
0.0
 40
0.4999999998079067
100
AcDbArc
 50
111.1675375437
 51
178.5606356263
  0
LINE
  5
BC
330
84
100
AcDbEntity
  8
DV1_Default
  6
Continuous
 62
     7
100
AcDbLine
 10
273.8736194458
 20
710.6687591722
 30
0.0
 11
271.5244083702
 21
710.6687591721
 31
0.0
  0
LINE
  5
BD
330
84
100
AcDbEntity
  8
DV1_Default
  6
Continuous
 62
     7
100
AcDbLine
 10
266.148430427
 20
710.6687591717
 30
0.0
 11
257.0412174871
 21
710.668759171
 31
0.0
  0
LINE
  5
BE
330
84
100
AcDbEntity
  8
DV1_Default
  6
Continuous
 62
     7
100
AcDbLine
 10
253.3884785871
 20
710.6687591707
 30
0.0
 11
253.2193021469
 21
710.6687591707
 31
0.0
  0
LINE
  5
BF
330
84
100
AcDbEntity
  8
DV1_Default
  6
Continuous
 62
     7
100
AcDbLine
 10
296.811760235
 20
702.5533366597
 30
0.0
 11
296.8146628666
 21
702.9189123947
 31
0.0
  0
LINE
  5
C0
330
84
100
AcDbEntity
  8
DV1_Default
  6
Continuous
 62
     7
100
AcDbLine
 10
252.6337340759
 20
702.9222040676
 30
0.0
 11
252.6307998458
 21
702.552648623
 31
0.0
  0
LINE
  5
C1
330
84
100
AcDbEntity
  8
DV1_Default
  6
Continuous
 62
     7
100
AcDbLine
 10
254.0801683113
 20
710.6349751311
 30
0.0
 11
253.4081978184
 21
710.634970386
 31
0.0
  0
LINE
  5
C2
330
84
100
AcDbEntity
  8
DV1_Default
  6
Continuous
 62
     7
100
AcDbLine
 10
255.8636263275
 20
710.6349770832
 30
0.0
 11
254.0801683113
 21
710.6349751311
 31
0.0
  0
LINE
  5
C3
330
84
100
AcDbEntity
  8
DV1_Default
  6
Continuous
 62
     7
100
AcDbLine
 10
256.9222839183
 20
710.6346230033
 30
0.0
 11
253.4529822836
 21
710.6341835626
 31
0.0
  0
LINE
  5
C4
330
84
100
AcDbEntity
  8
DV1_Default
  6
Continuous
 62
     7
100
AcDbLine
 10
268.8376289044
 20
710.6349673125
 30
0.0
 11
266.1423433933
 21
710.6349717333
 31
0.0
  0
LINE
  5
C5
330
84
100
AcDbEntity
  8
DV1_Default
  6
Continuous
 62
     7
100
AcDbLine
 10
271.4961367828
 20
710.6349690043
 30
0.0
 11
268.8376289044
 21
710.6349673125
 31
0.0
  0
LINE
  5
C6
330
84
100
AcDbEntity
  8
DV1_Default
  6
Continuous
 62
     7
100
AcDbLine
 10
296.6609795543
 20
709.688407892
 30
0.0
 11
296.6523627204
 21
710.0451710069
 31
0.0
  0
SPLINE
  5
C7
330
84
100
AcDbEntity
  8
DV1_Default
  6
Continuous
 62
     7
100
AcDbSpline
210
0.0
220
0.0
230
1.0
 70
     8
 71
     3
 72
    17
 73
    13
 74
     0
 42
0.0000000005001738
 43
0.0000000001
 40
0.0
 40
0.0
 40
0.0
 40
0.0
 40
0.0262093579516294
 40
0.0631123851640762
 40
0.1269183886003212
 40
0.2544433718698282
 40
0.428537793763831
 40
0.509164877299144
 40
0.7193184635406383
 40
0.8713690480228922
 40
0.9649964768771947
 40
1.0
 40
1.0
 40
1.0
 40
1.0
 10
405.2739393048051
 20
653.322745135011
 30
0.0
 10
405.5382727930015
 20
653.3935622274328
 30
0.0
 10
406.1747889298521
 20
653.5640886518665
 30
0.0
 10
407.4521820683914
 20
653.9063037015017
 30
0.0
 10
409.7316703352265
 20
654.5169699122252
 30
0.0
 10
413.2762369673924
 20
655.4665065038337
 30
0.0
 10
416.6376918969219
 20
656.3669227758246
 30
0.0
 10
420.1170623475064
 20
657.2988486588785
 30
0.0
 10
422.7208025418566
 20
657.9961453401851
 30
0.0
 10
424.1776748527179
 20
658.3861425888517
 30
0.0
 10
424.555124645036
 20
658.4870660763061
 30
0.0
 10
424.579834846515
 20
658.4935952469557
 30
0.0
 10
424.5862228430822
 20
658.4955200912275
 30
0.0
  0
SPLINE
  5
C8
330
84
100
AcDbEntity
  8
DV1_Default
  6
Continuous
 62
     7
100
AcDbSpline
210
0.0
220
0.0
230
1.0
 70
    12
 71
     3
 72
     8
 73
     4
 74
     0
 42
0.0000000004997679
 43
0.0000000001
 40
0.0
 40
0.0
 40
0.0
 40
0.0
 40
1.0
 40
1.0
 40
1.0
 40
1.0
 10
385.9466943168137
 20
648.1434919559954
 30
0.0
 41
1.0
 10
385.9489236974402
 20
648.1448829506502
 30
0.0
 41
0.8046919971584388
 10
393.9549869101315
 20
650.2903221154924
 30
0.0
 41
0.8046919971584388
 10
405.2739393048051
 20
653.322745135011
 30
0.0
 41
1.0
  0
SPLINE
  5
C9
330
84
100
AcDbEntity
  8
DV1_Default
  6
Continuous
 62
     7
100
AcDbSpline
210
0.0
220
0.0
230
1.0
 70
     8
 71
     3
 72
    13
 73
     9
 74
     0
 42
0.0000000157012339
 43
0.0000000001
 40
0.0
 40
0.0
 40
0.0
 40
0.0
 40
0.2610797370766605
 40
0.4156422356831253
 40
0.5015147761445196
 40
0.5247511796178372
 40
0.7281743786208239
 40
1.0
 40
1.0
 40
1.0
 40
1.0
 10
385.9466943168137
 20
648.1434919559954
 30
0.0
 10
385.8940473948127
 20
648.1290639163993
 30
0.0
 10
385.8102261337068
 20
648.1060927303286
 30
0.0
 10
385.7027577726905
 20
648.1124663403292
 30
0.0
 10
385.6532075217466
 20
648.1393122366883
 30
0.0
 10
385.6056163948651
 20
648.1840111826178
 30
0.0
 10
385.5679064652488
 20
648.2882653626202
 30
0.0
 10
385.5690764731075
 20
648.3870005369049
 30
0.0
 10
385.5695350132373
 20
648.4434809154977
 30
0.0
  0
SPLINE
  5
CA
330
84
100
AcDbEntity
  8
DV1_Default
  6
Continuous
 62
     7
100
AcDbSpline
210
0.0
220
0.0
230
1.0
 70
     8
 71
     3
 72
    17
 73
    13
 74
     0
 42
0.0000000157430481
 43
0.0000000001
 40
0.0
 40
0.0
 40
0.0
 40
0.0
 40
0.2106387773987985
 40
0.3671780593276971
 40
0.48405860414638
 40
0.5830918949103927
 40
0.6776791018375917
 40
0.7676906060327143
 40
0.8488129568266365
 40
0.9164769599339675
 40
0.967470262176637
 40
1.0
 40
1.0
 40
1.0
 40
1.0
 10
424.761138169817
 20
658.9444545137927
 30
0.0
 10
424.784937779262
 20
658.9054842412701
 30
0.0
 10
424.8239265175962
 20
658.8392997017792
 30
0.0
 10
424.8562555058462
 20
658.7424458996479
 30
0.0
 10
424.8553960280462
 20
658.6621042528784
 30
0.0
 10
424.8224067950241
 20
658.6036748743633
 30
0.0
 10
424.7762782782569
 20
658.5653648474248
 30
0.0
 10
424.7268176665682
 20
658.5397005367474
 30
0.0
 10
424.6799968481804
 20
658.5223781522355
 30
0.0
 10
424.6401154134853
 20
658.5101175723831
 30
0.0
 10
424.609713460163
 20
658.5016035682535
 30
0.0
 10
424.5928737015616
 20
658.4970709631895
 30
0.0
 10
424.5862228430822
 20
658.4955200912275
 30
0.0
  0
LINE
  5
CB
330
84
100
AcDbEntity
  8
DV1_Default
  6
Continuous
 62
     7
100
AcDbLine
 10
386.4577339105
 20
650.3585032583
 30
0.0
 11
423.0333798434
 21
660.1588833364
 31
0.0
  0
SPLINE
  5
CC
330
84
100
AcDbEntity
  8
DV1_Default
  6
Continuous
 62
     7
100
AcDbSpline
210
0.0
220
0.0
230
1.0
 70
    12
 71
     3
 72
     8
 73
     4
 74
     0
 42
0.0000000005932546
 43
0.0000000001
 40
0.0
 40
0.0
 40
0.0
 40
0.0
 40
1.0
 40
1.0
 40
1.0
 40
1.0
 10
403.4586987941298
 20
660.0816507443803
 30
0.0
 41
1.0
 10
393.9232317566376
 20
657.5253770760661
 30
0.0
 41
0.8047212100006426
 10
387.1788697985743
 20
655.7185242903801
 30
0.0
 41
0.8047212100006426
 10
387.1771630202811
 20
655.719103014347
 30
0.0
 41
1.0
  0
SPLINE
  5
CD
330
84
100
AcDbEntity
  8
DV1_Default
  6
Continuous
 62
     7
100
AcDbSpline
210
0.0
220
0.0
230
1.0
 70
     8
 71
     3
 72
    10
 73
     6
 74
     0
 42
0.0000000126487485
 43
0.0000000001
 40
0.0
 40
0.0
 40
0.0
 40
0.0
 40
0.5
 40
0.5
 40
1.0
 40
1.0
 40
1.0
 40
1.0
 10
387.1771630202811
 20
655.719103014347
 30
0.0
 10
387.0290623872946
 20
655.679417616786
 30
0.0
 10
386.9004112570171
 20
655.634221324823
 30
0.0
 10
386.7814446648568
 20
655.4531405048093
 30
0.0
 10
386.7912143647285
 20
655.3171978700134
 30
0.0
 10
386.8104537479704
 20
655.1705041069166
 30
0.0
  0
SPLINE
  5
CE
330
84
100
AcDbEntity
  8
DV1_Default
  6
Continuous
 62
     7
100
AcDbSpline
210
0.0
220
0.0
230
1.0
 70
     8
 71
     3
 72
    15
 73
    11
 74
     0
 42
0.0000000129039376
 43
0.0000000001
 40
0.0
 40
0.0
 40
0.0
 40
0.0
 40
0.2210571234440686
 40
0.4105964929968029
 40
0.515395352768379
 40
0.6224662661100163
 40
0.708023264332189
 40
0.8008949809957877
 40
0.897612081179556
 40
1.0
 40
1.0
 40
1.0
 40
1.0
 10
420.3218885825937
 20
664.1498660080612
 30
0.0
 10
420.3015040658361
 20
664.2030609384217
 30
0.0
 10
420.2605301330235
 20
664.29972193778
 30
0.0
 10
420.1861490173134
 20
664.4119133084074
 30
0.0
 10
420.0994909586769
 20
664.4712396209205
 30
0.0
 10
420.0235771716742
 20
664.487491454061
 30
0.0
 10
419.9503463266194
 20
664.4875196091737
 30
0.0
 10
419.8802982964646
 20
664.4788010741836
 30
0.0
 10
419.8070073971756
 20
664.4638258609983
 30
0.0
 10
419.7577290362278
 20
664.4509747816473
 30
0.0
 10
419.732517864107
 20
664.4438815867242
 30
0.0
  0
SPLINE
  5
CF
330
84
100
AcDbEntity
  8
DV1_Default
  6
Continuous
 62
     7
100
AcDbSpline
210
0.0
220
0.0
230
1.0
 70
     8
 71
     3
 72
    17
 73
    13
 74
     0
 42
0.0000000005935302
 43
0.0000000001
 40
0.0
 40
0.0
 40
0.0
 40
0.0
 40
0.0482706400909794
 40
0.1224439997137965
 40
0.2224880644538809
 40
0.3483618465535893
 40
0.5000154035586672
 40
0.6385816233661453
 40
0.7578887046306377
 40
0.857909316052156
 40
0.9386197641921565
 40
1.0
 40
1.0
 40
1.0
 40
1.0
 10
419.732517864107
 20
664.4438815867242
 30
0.0
 10
419.7225108682453
 20
664.4416744153124
 30
0.0
 10
419.6974561558409
 20
664.4348463126937
 30
0.0
 10
419.4334991305132
 20
664.3638973922679
 30
0.0
 10
418.7510252150481
 20
664.1807160767025
 30
0.0
 10
417.3486094513253
 20
663.8045320439393
 30
0.0
 10
415.1397379380638
 20
663.2122178705189
 30
0.0
 10
412.4011677310537
 20
662.4780035969571
 30
0.0
 10
409.6762224980607
 20
661.7475277798159
 30
0.0
 10
407.2291438056916
 20
661.0915937421985
 30
0.0
 10
405.1903821298765
 20
660.5451395180553
 30
0.0
 10
403.9811991940217
 20
660.2210568035717
 30
0.0
 10
403.4586987941298
 20
660.0816507443803
 30
0.0
  0
ARC
  5
D0
330
84
100
AcDbEntity
  8
DV1_Default
  6
Continuous
 62
     7
100
AcDbCircle
 10
388.3787216274
 20
648.3046887993
 30
0.0
 40
2.812632285969482
100
AcDbArc
 50
132.7927475691
 51
177.4466715436
  0
ARC
  5
D1
330
84
100
AcDbEntity
  8
DV1_Default
  6
Continuous
 62
     7
100
AcDbCircle
 10
422.384956875
 20
657.4032000415
 30
0.0
 40
2.83136065545216
100
AcDbArc
 50
32.7088853118
 51
77.0516955755
  0
ARC
  5
D2
330
84
100
AcDbEntity
  8
DV1_Default
  6
Continuous
 62
     7
100
AcDbCircle
 10
373.9926438959
 20
653.6841694861
 30
0.0
 40
12.90250980717517
100
AcDbArc
 50
344.7671293197
 51
6.907818714
  0
ARC
  5
D3
330
84
100
AcDbEntity
  8
DV1_Default
  6
Continuous
 62
     7
100
AcDbCircle
 10
432.3463772514
 20
669.3942474308
 30
0.0
 40
13.11698144037571
100
AcDbArc
 50
203.2754185798
 51
225.0496333864
  0
ARC
  5
D4
330
84
100
AcDbEntity
  8
DV1_Default
  6
Continuous
 62
     7
100
AcDbCircle
 10
391.4950938644
 20
657.1872297847
 30
0.0
 40
0.2999999999999938
100
AcDbArc
 50
285.0
 51
15.0
  0
ARC
  5
D5
330
84
100
AcDbEntity
  8
DV1_Default
  6
Continuous
 62
     7
100
AcDbCircle
 10
415.2568691911
 20
663.5541782942
 30
0.0
 40
0.3000000000000072
100
AcDbArc
 50
195.0
 51
285.0
  0
LINE
  5
D6
330
84
100
AcDbEntity
  8
DV1_Default
  6
Continuous
 62
     7
100
AcDbLine
 10
391.7271469782
 20
657.4803067656
 30
0.0
 11
391.7848716123
 21
657.2648754982
 31
0.0
  0
LINE
  5
D7
330
84
100
AcDbEntity
  8
DV1_Default
  6
Continuous
 62
     7
100
AcDbLine
 10
414.9670914433
 20
663.4765325807
 30
0.0
 11
414.9153222434
 21
663.6697378647
 31
0.0
  0
LINE
  5
D8
330
84
100
AcDbEntity
  8
DV1_Default
  6
Continuous
 62
     7
100
AcDbLine
 10
274.0505003873
 20
710.6639157041
 30
0.0
 11
268.1295490616
 21
710.6639157041
 31
0.0
  0
LINE
  5
D9
330
84
100
AcDbEntity
  8
DV1_Default
  6
Continuous
 62
     7
100
AcDbLine
 10
266.0978658649
 20
710.6639157041
 30
0.0
 11
256.2708055675
 21
710.6639157041
 31
0.0
  0
ARC
  5
DA
330
84
100
AcDbEntity
  8
DV1_Default
  6
Continuous
 62
     7
100
AcDbCircle
 10
274.7208055675
 20
702.2639157041
 30
0.0
 40
19.99999999999984
100
AcDbArc
 50
153.5815227855
 51
155.1654125103
  0
LINE
  5
DB
330
84
100
AcDbEntity
  8
DV1_Default
  6
Continuous
 62
     7
100
AcDbLine
 10
253.6413932782
 20
642.5721051277
 30
0.0
 11
245.6293498421
 21
659.7539878581
 31
0.0
  0
LINE
  5
DC
330
84
100
AcDbEntity
  8
DV1_Default
  6
Continuous
 62
     7
100
AcDbLine
 10
242.0041186889
 20
658.063514822
 30
0.0
 11
253.6474087012
 21
633.0943986182
 31
0.0
  0
LINE
  5
DD
330
84
100
AcDbEntity
  8
DV1_Default
  6
Continuous
 62
     7
100
AcDbLine
 10
305.5960320538
 20
587.6353374211
 30
0.0
 11
308.0110032877
 21
587.6353374211
 31
0.0
  0
LINE
  5
DE
330
84
100
AcDbEntity
  8
DV1_Default
  6
Continuous
 62
     7
100
AcDbLine
 10
243.8455790813
 20
587.6353374211
 30
0.0
 11
305.5960320538
 21
587.6353374211
 31
0.0
  0
LINE
  5
DF
330
84
100
AcDbEntity
  8
DV1_Default
  6
Continuous
 62
     7
100
AcDbLine
 10
243.8455790813
 20
587.6353374211
 30
0.0
 11
241.4306078473
 21
587.6353374211
 31
0.0
  0
LINE
  5
E0
330
84
100
AcDbEntity
  8
DV1_Default
  6
Continuous
 62
     7
100
AcDbLine
 10
248.7333040086
 20
592.6353374211
 30
0.0
 11
246.3380851354
 21
592.6353374211
 31
0.0
  0
LINE
  5
E1
330
84
100
AcDbEntity
  8
DV1_Default
  6
Continuous
 62
     7
100
AcDbLine
 10
248.7333040086
 20
592.6353374211
 30
0.0
 11
300.7083071265
 21
592.6353374211
 31
0.0
  0
LINE
  5
E2
330
84
100
AcDbEntity
  8
DV1_Default
  6
Continuous
 62
     7
100
AcDbLine
 10
300.7083071265
 20
592.6353374211
 30
0.0
 11
303.1035259996
 21
592.6353374211
 31
0.0
  0
LINE
  5
E3
330
84
100
AcDbEntity
  8
DV1_Default
  6
Continuous
 62
     7
100
AcDbLine
 10
243.3069962221
 20
590.8853374211
 30
0.0
 11
241.4306078473
 21
587.6353374211
 31
0.0
  0
ARC
  5
E4
330
84
100
AcDbEntity
  8
DV1_Default
  6
Continuous
 62
     7
100
AcDbCircle
 10
246.3380851354
 20
589.1353374211
 30
0.0
 40
3.5
100
AcDbArc
 50
90.0
 51
149.9999999998
  0
LINE
  5
E5
330
84
100
AcDbEntity
  8
DV1_Default
  6
Continuous
 62
     7
100
AcDbLine
 10
308.0110032877
 20
587.6353374211
 30
0.0
 11
306.1346149129
 21
590.8853374211
 31
0.0
  0
ARC
  5
E6
330
84
100
AcDbEntity
  8
DV1_Default
  6
Continuous
 62
     7
100
AcDbCircle
 10
303.1035259996
 20
589.1353374211
 30
0.0
 40
3.499999999980314
100
AcDbArc
 50
30.0000000002
 51
90.0
  0
ELLIPSE
  5
E7
330
84
100
AcDbEntity
  8
DV1_Default
  6
Continuous
 62
     7
100
AcDbEllipse
 10
243.8179229518
 20
658.9062021941
 30
0.0
 11
-4.281045353844548
 21
-1.996284217822692
 31
0.0
210
0.0
220
0.0
230
1.0
 40
0.0007615735
 41
2.007996774044313
 42
6.283185307179586
  0
ARC
  5
E8
330
84
100
AcDbEntity
  8
DV1_Default
  6
Continuous
 62
     7
100
AcDbCircle
 10
241.4935232012
 20
663.8908935842
 30
0.0
 40
7.250000000000071
100
AcDbArc
 50
335.6572291201
 51
254.3427705373
  0
ARC
  5
E9
330
84
100
AcDbEntity
  8
DV1_Default
  6
Continuous
 62
     7
100
AcDbCircle
 10
235.3225280301
 20
737.5734195922
 30
0.0
 40
19.65821354008876
100
AcDbArc
 50
4.8467698942
 51
5.0220478099
  0
ARC
  5
EA
330
84
100
AcDbEntity
  8
DV1_Default
  6
Continuous
 62
     7
100
AcDbCircle
 10
235.3225348143
 20
737.5734190204
 30
0.0
 40
19.65820684387916
100
AcDbArc
 50
344.7735403592
 51
5.5917507336
  0
SPLINE
  5
EB
330
84
100
AcDbEntity
  8
DV1_Default
  6
Continuous
 62
     7
100
AcDbSpline
210
0.0
220
0.0
230
1.0
 70
     8
 71
     3
 72
    16
 73
    12
 74
     0
 42
0.0000000006144062
 43
0.0000000001
 40
0.0
 40
0.0
 40
0.0
 40
0.0
 40
0.1181689485527429
 40
0.2453390673747458
 40
0.3731368091372412
 40
0.4932505089220763
 40
0.5954529117461451
 40
0.6971928204127235
 40
0.7985145288037446
 40
0.8994440961638329
 40
1.0
 40
1.0
 40
1.0
 40
1.0
 10
292.1798435436253
 20
744.8799223780928
 30
0.0
 10
292.1793762409562
 20
744.8800207742403
 30
0.0
 10
291.9790259282694
 20
744.8863841907437
 30
0.0
 10
291.0637098832718
 20
744.9140565927108
 30
0.0
 10
289.5766577405359
 20
744.9525694252031
 30
0.0
 10
287.6991325124321
 20
745.0022067195612
 30
0.0
 10
285.6052651028928
 20
745.060697479251
 30
0.0
 10
283.388832819381
 20
745.1218089440841
 30
0.0
 10
280.993382307022
 20
745.1875161543622
 30
0.0
 10
278.4808965519653
 20
745.2558197521557
 30
0.0
 10
276.765954304566
 20
745.3020571949837
 30
0.0
 10
275.9101042621508
 20
745.3262593781176
 30
0.0
  0
LINE
  5
EC
330
84
100
AcDbEntity
  8
DV1_Default
  6
Continuous
 62
     7
100
AcDbLine
 10
275.9236064224
 20
745.818997627
 30
0.0
 11
291.7643197993
 21
745.3853149441
 31
0.0
  0
LINE
  5
ED
330
84
100
AcDbEntity
  8
DV1_Default
  6
Continuous
 62
     7
100
AcDbLine
 10
275.9236061684
 20
745.8189883496
 30
0.0
 11
260.0830565465
 21
746.252669085
 31
0.0
  0
SPLINE
  5
EE
330
84
100
AcDbEntity
  8
DV1_Default
  6
Continuous
 62
     7
100
AcDbSpline
210
0.0
220
0.0
230
1.0
 70
     8
 71
     3
 72
    18
 73
    14
 74
     0
 42
0.000000000614518
 43
0.0000000001
 40
0.0
 40
0.0
 40
0.0
 40
0.0
 40
0.0461571071694177
 40
0.09259249788925
 40
0.1393085380726969
 40
0.1863058437018128
 40
0.233583539334603
 40
0.281139524074329
 40
0.4218873762338443
 40
0.559533087214031
 40
0.8407895261921275
 40
0.976702750782641
 40
1.0
 40
1.0
 40
1.0
 40
1.0
 10
275.9101042621508
 20
745.3262593781176
 30
0.0
 10
275.5182212792986
 20
745.3359966021984
 30
0.0
 10
274.7321546312161
 20
745.3577938302321
 30
0.0
 10
273.5560627994328
 20
745.3906109772566
 30
0.0
 10
272.3857113822412
 20
745.4232766248958
 30
0.0
 10
271.2275620560453
 20
745.4555408782894
 30
0.0
 10
270.0878257515118
 20
745.4871127349944
 30
0.0
 10
268.2482318375549
 20
745.537786044461
 30
0.0
 10
265.862136354444
 20
745.6009805659738
 30
0.0
 10
262.4175801817968
 20
745.6939237447564
 30
0.0
 10
260.216128111831
 20
745.7584044938901
 30
0.0
 10
259.6685466479154
 20
745.7704578207938
 30
0.0
 10
259.6433018305645
 20
745.7711494702712
 30
0.0
 10
259.6433026436943
 20
745.7711667962974
 30
0.0
  0
SPLINE
  5
EF
330
84
100
AcDbEntity
  8
DV1_Default
  6
Continuous
 62
     7
100
AcDbSpline
210
0.0
220
0.0
230
1.0
 70
     8
 71
     3
 72
    14
 73
    10
 74
     0
 42
0.0000000006311802
 43
0.0000000001
 40
0.0
 40
0.0
 40
0.0
 40
0.0
 40
0.2499834206806477
 40
0.2499834206806477
 40
0.4999889471204316
 40
0.4999889471204316
 40
0.7499944735602158
 40
0.7499944735602158
 40
1.0
 40
1.0
 40
1.0
 40
1.0
 10
260.1156643483592
 20
747.3243125750031
 30
0.0
 10
260.1157308063364
 20
747.3244678911564
 30
0.0
 10
260.5278826280097
 20
747.3133012959858
 30
0.0
 10
262.1143476914315
 20
747.2699722141074
 30
0.0
 10
263.2881046518842
 20
747.2378247369534
 30
0.0
 10
266.2197586807258
 20
747.1573770722297
 30
0.0
 10
267.9765033049591
 20
747.1091083414092
 30
0.0
 10
271.8071565302256
 20
747.0037211494531
 30
0.0
 10
273.8795592891717
 20
746.9466439488328
 30
0.0
 10
275.9529248339009
 20
746.8894607828074
 30
0.0
  0
SPLINE
  5
F0
330
84
100
AcDbEntity
  8
DV1_Default
  6
Continuous
 62
     7
100
AcDbSpline
210
0.0
220
0.0
230
1.0
 70
     8
 71
     3
 72
    16
 73
    12
 74
     0
 42
0.0000000006310482
 43
0.0000000001
 40
0.0
 40
0.0
 40
0.0
 40
0.0
 40
0.0000032619088684
 40
0.0000032619088684
 40
0.2500024464316514
 40
0.2500024464316514
 40
0.5000016309544342
 40
0.5000016309544342
 40
0.7500008154772172
 40
0.7500008154772172
 40
1.0
 40
1.0
 40
1.0
 40
1.0
 10
291.793619391406
 20
746.4555215160476
 30
0.0
 10
291.7936193914144
 20
746.4555215163307
 30
0.0
 10
291.7936193913527
 20
746.4555215166156
 30
0.0
 10
291.7936092818844
 20
746.4555435003568
 30
0.0
 10
291.3813103531908
 20
746.4668529253961
 30
0.0
 10
289.7942792232749
 20
746.5103453005904
 30
0.0
 10
288.6201714502554
 20
746.5425111554559
 30
0.0
 10
285.6877404543549
 20
746.6228372299466
 30
0.0
 10
283.9305710160173
 20
746.6709658618231
 30
0.0
 10
280.0991759306264
 20
746.7759033353392
 30
0.0
 10
278.0264577713929
 20
746.8326709057147
 30
0.0
 10
275.9529248339009
 20
746.8894607828074
 30
0.0
  0
ARC
  5
F1
330
84
100
AcDbEntity
  8
DV1_Default
  6
Continuous
 62
     7
100
AcDbCircle
 10
251.1167884103
 20
-444.3176611097
 30
0.0
 40
1191.904194948629
100
AcDbArc
 50
88.0559933826
 51
88.805443825
  0
LINE
  5
F2
330
84
100
AcDbEntity
  8
DV1_Default
  6
Continuous
 62
     7
100
AcDbLine
 10
275.9649610421
 20
747.3288085516
 30
0.0
 11
275.6716686724
 21
747.3370232887
 31
0.0
  0
ARC
  5
F3
330
84
100
AcDbEntity
  8
DV1_Default
  6
Continuous
 62
     7
100
AcDbCircle
 10
227.0676204492
 20
-751.2113591133
 30
0.0
 40
1499.333745260582
100
AcDbArc
 50
88.1423140478
 51
88.7268448184
  0
SPLINE
  5
F4
330
84
100
AcDbEntity
  8
DV1_Default
  6
Continuous
 62
     7
100
AcDbSpline
210
0.0
220
0.0
230
1.0
 70
     8
 71
     3
 72
     8
 73
     4
 74
     0
 42
0.0000004286532288
 43
0.0000000001
 40
0.0
 40
0.0
 40
0.0
 40
0.0
 40
1.0
 40
1.0
 40
1.0
 40
1.0
 10
264.3695429434127
 20
749.200851196185
 30
0.0
 10
264.3694145231769
 20
749.2008085924778
 30
0.0
 10
264.3771568819332
 20
749.200476974232
 30
0.0
 10
264.3925897191135
 20
749.1998867250526
 30
0.0
  0
SPLINE
  5
F5
330
84
100
AcDbEntity
  8
DV1_Default
  6
Continuous
 62
     7
100
AcDbSpline
210
0.0
220
0.0
230
1.0
 70
     8
 71
     3
 72
    10
 73
     6
 74
     0
 42
0.0000000009106719
 43
0.0000000001
 40
0.0
 40
0.0
 40
0.0
 40
0.0
 40
0.4999929281344855
 40
0.4999929281344855
 40
0.9999999999999999
 40
0.9999999999999999
 40
0.9999999999999999
 40
0.9999999999999999
 10
265.0371190661688
 20
749.406958600628
 30
0.0
 10
265.0370158123528
 20
749.4070240627258
 30
0.0
 10
266.2168023073309
 20
749.3749639634447
 30
0.0
 10
270.2862790885131
 20
749.2638471859012
 30
0.0
 10
273.133014254467
 20
749.1901986802297
 30
0.0
 10
276.0136713939399
 20
749.106349928479
 30
0.0
  0
ARC
  5
F6
330
84
100
AcDbEntity
  8
DV1_Default
  6
Continuous
 62
     7
100
AcDbCircle
 10
315.0626292191
 20
1932.6897022197
 30
0.0
 40
1184.443455093451
100
AcDbArc
 50
268.6729973564
 51
268.6736186502
  0
SPLINE
  5
F7
330
84
100
AcDbEntity
  8
DV1_Default
  6
Continuous
 62
     7
100
AcDbSpline
210
0.0
220
0.0
230
1.0
 70
     8
 71
     3
 72
    12
 73
     8
 74
     0
 42
0.0000000009106504
 43
0.0000000001
 40
0.0
 40
0.0
 40
0.0
 40
0.0
 40
0.4999949895168209
 40
0.4999949895168209
 40
0.9999899790336416
 40
0.9999899790336416
 40
1.0
 40
1.0
 40
1.0
 40
1.0
 10
276.0136713939399
 20
749.106349928479
 30
0.0
 10
278.8944300402638
 20
749.0336589144802
 30
0.0
 10
281.7409189865885
 20
748.9507101589184
 30
0.0
 10
285.81058210481
 20
748.8385060410999
 30
0.0
 10
286.9904149446568
 20
748.8059764642686
 30
0.0
 10
286.9901574630654
 20
748.806127543018
 30
0.0
 10
286.9901574574311
 20
748.8061275460585
 30
0.0
 10
286.9901574513229
 20
748.8061275491114
 30
0.0
  0
SPLINE
  5
F8
330
84
100
AcDbEntity
  8
DV1_Default
  6
Continuous
 62
     7
100
AcDbSpline
210
0.0
220
0.0
230
1.0
 70
     8
 71
     3
 72
    12
 73
     8
 74
     0
 42
0.0000000004271309
 43
0.0000000001
 40
0.0
 40
0.0
 40
0.0
 40
0.0
 40
0.49996438000488
 40
0.49996438000488
 40
0.9999287600097599
 40
0.9999287600097599
 40
1.0
 40
1.0
 40
1.0
 40
1.0
 10
275.0693108787264
 20
714.6549131588753
 30
0.0
 10
281.1765287963582
 20
714.4912944736025
 30
0.0
 10
287.2923523836772
 20
714.3200960035343
 30
0.0
 10
295.9413418809416
 20
714.0844133569799
 30
0.0
 10
298.4716603466191
 20
714.0140475716473
 30
0.0
 10
298.4725050486174
 20
714.014369403119
 30
0.0
 10
298.4725051177496
 20
714.01436945035
 30
0.0
 10
298.4725051356715
 20
714.014369498961
 30
0.0
  0
SPLINE
  5
F9
330
84
100
AcDbEntity
  8
DV1_Default
  6
Continuous
 62
     7
100
AcDbSpline
210
0.0
220
0.0
230
1.0
 70
     8
 71
     3
 72
    10
 73
     6
 74
     0
 42
0.0000000004271417
 43
0.0000000001
 40
0.0
 40
0.0
 40
0.0
 40
0.0
 40
0.4999955903019982
 40
0.4999955903019982
 40
1.0
 40
1.0
 40
1.0
 40
1.0
 10
251.6678738623501
 20
715.2955968746577
 30
0.0
 10
251.667329447519
 20
715.295169775494
 30
0.0
 10
254.2020883363435
 20
715.2264051247416
 30
0.0
 10
262.8425730665542
 20
714.9900469258919
 30
0.0
 10
268.9622945714513
 20
714.8255595442481
 30
0.0
 10
275.0693108787264
 20
714.6549131588753
 30
0.0
  0
LINE
  5
FA
330
84
100
AcDbEntity
  8
DV1_Default
  6
Continuous
 62
     7
100
AcDbLine
 10
274.9605134961
 20
710.639039996
 30
0.0
 11
250.1121166556
 21
711.3193299035
 31
0.0
  0
LINE
  5
FB
330
84
100
AcDbEntity
  8
DV1_Default
  6
Continuous
 62
     7
100
AcDbLine
 10
274.9605136346
 20
710.6390450558
 30
0.0
 11
299.8082794786
 21
709.9587692258
 31
0.0
  0
SPLINE
  5
FC
330
84
100
AcDbEntity
  8
DV1_Default
  6
Continuous
 62
     7
100
AcDbSpline
210
0.0
220
0.0
230
1.0
 70
    12
 71
     3
 72
     8
 73
     4
 74
     0
 42
0.0000000025772646
 43
0.0000000001
 40
0.0
 40
0.0
 40
0.0
 40
0.0
 40
1.0
 40
1.0
 40
1.0
 40
1.0
 10
296.5558893508845
 20
739.6636118590561
 30
0.0
 41
1.33100655028128
 10
296.5800021091277
 20
738.3704762229451
 30
0.0
 41
0.889665959168028
 10
297.7100421526592
 20
737.7413550467456
 30
0.0
 41
0.889664483244409
 10
298.8219056128133
 20
738.4020683502315
 30
0.0
 41
1.331002122510423
  0
ARC
  5
FD
330
84
100
AcDbEntity
  8
DV1_Default
  6
Continuous
 62
     7
100
AcDbCircle
 10
300.5127761843
 20
721.1326856504
 30
0.0
 40
8.887762732094636
100
AcDbArc
 50
62.5261929281
 51
103.5624805277
  0
LINE
  5
FE
330
84
100
AcDbEntity
  8
DV1_Default
  6
Continuous
 62
     7
100
AcDbLine
 10
304.6126633323
 20
729.0191430098
 30
0.0
 11
304.6130603896
 21
729.0180543122
 31
0.0
  0
ARC
  5
FF
330
84
100
AcDbEntity
  8
DV1_Default
  6
Continuous
 62
     7
100
AcDbCircle
 10
-1329.337196223
 20
329.3416146095
 30
0.0
 40
1682.121986810772
100
AcDbArc
 50
13.7451225873
 51
14.1663735534
  0
ARC
  5
100
330
84
100
AcDbEntity
  8
DV1_Default
  6
Continuous
 62
     7
100
AcDbCircle
 10
293.905214494
 20
746.4880148639
 30
0.0
 40
9.46342340695797
100
AcDbArc
 50
301.3018550216
 51
324.7142971497
  0
ARC
  5
101
330
84
100
AcDbEntity
  8
DV1_Default
  6
Continuous
 62
     7
100
AcDbCircle
 10
302.0577830134
 20
740.7024540023
 30
0.0
 40
0.5335870604966015
100
AcDbArc
 50
103.6383144895
 51
143.2876952712
  0
ARC
  5
102
330
84
100
AcDbEntity
  8
DV1_Default
  6
Continuous
 62
     7
100
AcDbCircle
 10
302.0654260711
 20
740.697906703
 30
0.0
 40
0.5398457244831022
100
AcDbArc
 50
74.4002366583
 51
104.3128446196
  0
ARC
  5
103
330
84
100
AcDbEntity
  8
DV1_Default
  6
Continuous
 62
     7
100
AcDbCircle
 10
304.8439478781
 20
729.5115370622
 30
0.0
 40
0.543714718702837
100
AcDbArc
 50
284.0914956445
 51
313.3913707834
  0
ARC
  5
104
330
84
100
AcDbEntity
  8
DV1_Default
  6
Continuous
 62
     7
100
AcDbCircle
 10
304.8413106557
 20
729.5002452568
 30
0.0
 40
0.5334311925090592
100
AcDbArc
 50
244.6690172185
 51
284.661539077
  0
LINE
  5
105
330
84
100
AcDbEntity
  8
DV1_Default
  6
Continuous
 62
     7
100
AcDbLine
 10
305.2174177669
 20
729.1164840923
 30
0.0
 11
305.2173075159
 21
729.1176603377
 31
0.0
  0
ARC
  5
106
330
84
100
AcDbEntity
  8
DV1_Default
  6
Continuous
 62
     7
100
AcDbCircle
 10
2305.5726672698
 20
1232.6038877444
 30
0.0
 40
2062.745693948756
100
AcDbArc
 50
193.781471127
 51
194.1277951029
  0
ARC
  5
107
330
84
100
AcDbEntity
  8
DV1_Default
  6
Continuous
 62
     7
100
AcDbCircle
 10
91.501903418
 20
682.4268066633
 30
0.0
 40
220.0673159542384
100
AcDbArc
 50
12.6377484233
 51
15.27573215
  0
ARC
  5
108
330
84
100
AcDbEntity
  8
DV1_Default
  6
Continuous
 62
     7
100
AcDbCircle
 10
301.0984094178
 20
737.0956236275
 30
0.0
 40
4.269643105154848
100
AcDbArc
 50
50.8503163753
 51
74.900994601
  0
ARC
  5
109
330
84
100
AcDbEntity
  8
DV1_Default
  6
Continuous
 62
     7
100
AcDbCircle
 10
302.2952369996
 20
732.2469005238
 30
0.0
 40
4.282437436657165
100
AcDbArc
 50
313.0295636957
 51
337.012660027
  0
ARC
  5
10A
330
84
100
AcDbEntity
  8
DV1_Default
  6
Continuous
 62
     7
100
AcDbCircle
 10
304.1160831728
 20
740.8150559914
 30
0.0
 40
0.5200400432036257
100
AcDbArc
 50
231.7377534842
 51
283.9598297925
  0
ARC
  5
10B
330
84
100
AcDbEntity
  8
DV1_Default
  6
Continuous
 62
     7
100
AcDbCircle
 10
306.7131214921
 20
730.365276117
 30
0.0
 40
0.5195003316248422
100
AcDbArc
 50
103.9059849444
 51
156.2515883102
  0
SPLINE
  5
10C
330
84
100
AcDbEntity
  8
DV1_Default
  6
Continuous
 62
     7
100
AcDbSpline
210
0.0
220
0.0
230
1.0
 70
     8
 71
     3
 72
    20
 73
    16
 74
     0
 42
0.0000000001573047
 43
0.0000000001
 40
0.0
 40
0.0
 40
0.0
 40
0.0
 40
0.125
 40
0.125
 40
0.2500000000000001
 40
0.2500000000000001
 40
0.5
 40
0.5
 40
0.625
 40
0.625
 40
0.75
 40
0.75
 40
0.8750000000000001
 40
0.8750000000000001
 40
1.0
 40
1.0
 40
1.0
 40
1.0
 10
366.7354966546875
 20
756.833074979801
 30
0.0
 10
365.0480230197554
 20
757.5845874189592
 30
0.0
 10
363.1594863270924
 20
757.9860802691891
 30
0.0
 10
359.2450642958392
 20
758.2224389507428
 30
0.0
 10
357.2221140524599
 20
758.0572991150693
 30
0.0
 10
351.0413096684638
 20
756.9127449012977
 30
0.0
 10
346.8084262312331
 20
755.2871113242909
 30
0.0
 10
339.7323922608244
 20
752.3265753845174
 30
0.0
 10
337.2443687521497
 20
751.2523428237034
 30
0.0
 10
331.9136063754593
 20
749.0459918406174
 30
0.0
 10
329.0653524612413
 20
747.9144596317838
 30
0.0
 10
323.0069153278332
 20
745.7000747553074
 30
0.0
 10
319.7867296542568
 20
744.6180079990345
 30
0.0
 10
313.141180506019
 20
742.5951932829455
 30
0.0
 10
309.7010178369173
 20
741.6554290603416
 30
0.0
 10
306.356153142667
 20
740.8242378936197
 30
0.0
  0
LINE
  5
10D
330
84
100
AcDbEntity
  8
DV1_Default
  6
Continuous
 62
     7
100
AcDbLine
 10
306.3561595504
 20
740.8242121087
 30
0.0
 11
304.2416686235
 21
740.3098283774
 31
0.0
  0
LINE
  5
10E
330
84
100
AcDbEntity
  8
DV1_Default
  6
Continuous
 62
     7
100
AcDbLine
 10
306.5881451257
 20
730.8700338159
 30
0.0
 11
308.6977152218
 21
731.4052573498
 31
0.0
  0
SPLINE
  5
10F
330
84
100
AcDbEntity
  8
DV1_Default
  6
Continuous
 62
     7
100
AcDbSpline
210
0.0
220
0.0
230
1.0
 70
     8
 71
     3
 72
    20
 73
    16
 74
     0
 42
0.0000000001573071
 43
0.0000000001
 40
0.0
 40
0.0
 40
0.0
 40
0.0
 40
0.1250000000000002
 40
0.1250000000000002
 40
0.2500000000000004
 40
0.2500000000000004
 40
0.3750000000000006
 40
0.3750000000000006
 40
0.5000000000000004
 40
0.5000000000000004
 40
0.7500000000000002
 40
0.7500000000000002
 40
0.8750000000000001
 40
0.8750000000000001
 40
1.0
 40
1.0
 40
1.0
 40
1.0
 10
308.6977159598468
 20
731.4052543794392
 30
0.0
 10
312.0425972709504
 20
732.2363229834477
 30
0.0
 10
315.5224784333845
 20
733.0160669808647
 30
0.0
 10
322.341816885461
 20
734.3390433143923
 30
0.0
 10
325.6938926374876
 20
734.8900726023181
 30
0.0
 10
332.0840509257126
 20
735.7689619499262
 30
0.0
 10
335.1306060736227
 20
736.1021992067298
 30
0.0
 10
340.873971338853
 20
736.6476077198303
 30
0.0
 10
343.5753818369188
 20
736.8628791899819
 30
0.0
 10
351.2140124668783
 20
737.5587482507614
 30
0.0
 10
355.7154136282337
 20
738.1034874780771
 30
0.0
 10
361.7129755406898
 20
739.9851127591153
 30
0.0
 10
363.5779065426277
 20
740.7860633240493
 30
0.0
 10
366.9263615704668
 20
742.8271492751115
 30
0.0
 10
368.4072926551432
 20
744.065904828974
 30
0.0
 10
369.5466930142617
 20
745.519873494317
 30
0.0
  0
SPLINE
  5
110
330
84
100
AcDbEntity
  8
DV1_Default
  6
Continuous
 62
     7
100
AcDbSpline
210
0.0
220
0.0
230
1.0
 70
    12
 71
     3
 72
     8
 73
     4
 74
     0
 42
0.0000000026006787
 43
0.0000000001
 40
0.0
 40
0.0
 40
0.0
 40
0.0
 40
1.0
 40
1.0
 40
1.0
 40
1.0
 10
370.3576664570681
 20
755.7239527529426
 30
0.0
 41
1.0
 10
369.6993440055147
 20
755.6813007066494
 30
0.0
 41
1.0
 10
368.4919698853391
 20
756.0507949097663
 30
0.0
 41
1.0
 10
366.7354966546875
 20
756.833074979801
 30
0.0
 41
1.0
  0
SPLINE
  5
111
330
84
100
AcDbEntity
  8
DV1_Default
  6
Continuous
 62
     7
100
AcDbSpline
210
0.0
220
0.0
230
1.0
 70
    12
 71
     3
 72
     8
 73
     4
 74
     0
 42
0.0000000026007661
 43
0.0000000001
 40
0.0
 40
0.0
 40
0.0
 40
0.0
 40
1.0
 40
1.0
 40
1.0
 40
1.0
 10
369.5466930142617
 20
745.519873494317
 30
0.0
 41
1.0
 10
370.7326413293304
 20
747.0332430060826
 30
0.0
 41
1.0
 10
371.6266056078826
 20
747.9248756457059
 30
0.0
 41
1.0
 10
372.2283246329972
 20
748.1953553005112
 30
0.0
 41
1.0
  0
ARC
  5
112
330
84
100
AcDbEntity
  8
DV1_Default
  6
Continuous
 62
     7
100
AcDbCircle
 10
370.3922237524
 20
755.2033695142
 30
0.0
 40
0.5217289671292644
100
AcDbArc
 50
59.0334156139
 51
93.7978297858
  0
ARC
  5
113
330
84
100
AcDbEntity
  8
DV1_Default
  6
Continuous
 62
     7
100
AcDbCircle
 10
372.0177402012
 20
748.6688401646
 30
0.0
 40
0.5182023923423156
100
AcDbArc
 50
293.9773125435
 51
328.9961342262
  0
ARC
  5
114
330
84
100
AcDbEntity
  8
DV1_Default
  6
Continuous
 62
     7
100
AcDbCircle
 10
1221.2269133669
 20
963.1569407976
 30
0.0
 40
875.5122810882747
100
AcDbArc
 50
193.7102051183
 51
194.1990141286
  0
ARC
  5
115
330
84
100
AcDbEntity
  8
DV1_Default
  6
Continuous
 62
     7
100
AcDbCircle
 10
368.1018666002
 20
750.9603745594
 30
0.0
 40
5.342936801868303
100
AcDbArc
 50
16.1024935615
 51
61.3855104723
  0
ARC
  5
116
330
84
100
AcDbEntity
  8
DV1_Default
  6
Continuous
 62
     7
100
AcDbCircle
 10
368.0051785677
 20
751.3490573232
 30
0.0
 40
5.34304041300283
100
AcDbArc
 50
326.524179467
 51
11.8064047923
  0
ARC
  5
117
330
84
100
AcDbEntity
  8
DV1_Default
  6
Continuous
 62
     7
100
AcDbCircle
 10
-199.09272364
 20
774.1847445444
 30
0.0
 40
455.3038083928
100
AcDbArc
 50
352.6775102617
 51
354.7356864116
  0
ARC
  5
118
330
84
100
AcDbEntity
  8
DV1_Default
  6
Continuous
 62
     7
100
AcDbCircle
 10
-199.09272364
 20
774.1847445444
 30
0.0
 40
455.3038083928
100
AcDbArc
 50
355.6296047142
 51
356.2689907803
  0
ARC
  5
119
330
84
100
AcDbEntity
  8
DV1_Default
  6
Continuous
 62
     7
100
AcDbCircle
 10
751.780561133
 20
748.152200967
 30
0.0
 40
455.3038083928
100
AcDbArc
 50
180.5945309345
 51
181.0682586324
  0
ARC
  5
11A
330
84
100
AcDbEntity
  8
DV1_Default
  6
Continuous
 62
     7
100
AcDbCircle
 10
751.780561133
 20
748.152200967
 30
0.0
 40
455.3038083928001
100
AcDbArc
 50
182.5169318872
 51
184.1860386762
  0
ARC
  5
11B
330
84
100
AcDbEntity
  8
DV1_Default
  6
Continuous
 62
     7
100
AcDbCircle
 10
295.8209789201
 20
743.4350299446
 30
0.0
 40
0.6832785440110587
100
AcDbArc
 50
358.8903810944
 51
78.3199718247
  0
ARC
  5
11C
330
84
100
AcDbEntity
  8
DV1_Default
  6
Continuous
 62
     7
100
AcDbCircle
 10
273.0894177502
 20
642.2934944633
 30
0.0
 40
104.3475870335
100
AcDbArc
 50
97.3915446501
 51
99.5257812746
  0
ARC
  5
11D
330
84
100
AcDbEntity
  8
DV1_Default
  6
Continuous
 62
     7
100
AcDbCircle
 10
273.0894177502
 20
642.2934944633
 30
0.0
 40
104.3475870335
100
AcDbArc
 50
77.3380117204
 51
79.4631155743
  0
ARC
  5
11E
330
84
100
AcDbEntity
  8
DV1_Default
  6
Continuous
 62
     7
100
AcDbCircle
 10
292.2288823005
 20
745.3509483574
 30
0.0
 40
0.4611696742006616
100
AcDbArc
 50
175.5224208794
 51
243.9458380968
  0
SPLINE
  5
11F
330
84
100
AcDbEntity
  8
DV1_Default
  6
Continuous
 62
     7
100
AcDbSpline
210
0.0
220
0.0
230
1.0
 70
     8
 71
     3
 72
     8
 73
     4
 74
     0
 42
0.0000000127542722
 43
0.0000000001
 40
0.0
 40
0.0
 40
0.0
 40
0.0
 40
1.0
 40
1.0
 40
1.0
 40
1.0
 10
260.086686963513
 20
746.2654974150971
 30
0.0
 10
260.0388024395069
 20
745.9633553404676
 30
0.0
 10
259.8880644451581
 20
745.7988458307353
 30
0.0
 10
259.6344729804664
 20
745.7719688858997
 30
0.0
  0
ARC
  5
120
330
84
100
AcDbEntity
  8
DV1_Default
  6
Continuous
 62
     7
100
AcDbCircle
 10
255.9257384648
 20
744.5273010414
 30
0.0
 40
0.6832351650207515
100
AcDbArc
 50
98.5417775161
 51
177.9684791593
  0
LINE
  5
121
330
84
100
AcDbEntity
  8
DV1_Default
  6
Continuous
 62
     7
100
AcDbLine
 10
260.1138875292
 20
747.378811748
 30
0.0
 11
260.0816810537
 21
746.2024273858
 31
0.0
  0
LINE
  5
122
330
84
100
AcDbEntity
  8
DV1_Default
  6
Continuous
 62
     7
100
AcDbLine
 10
291.7629443072
 20
745.3350732605
 30
0.0
 11
291.7951507828
 21
746.5114576226
 31
0.0
  0
ARC
  5
123
330
84
100
AcDbEntity
  8
DV1_Default
  6
Continuous
 62
     7
100
AcDbCircle
 10
291.2799186467
 20
746.4670356082
 30
0.0
 40
0.5104193990173012
100
AcDbArc
 50
358.207742765
 51
61.0472567964
  0
SPLINE
  5
124
330
84
100
AcDbEntity
  8
DV1_Default
  6
Continuous
 62
     7
100
AcDbSpline
210
0.0
220
0.0
230
1.0
 70
     8
 71
     3
 72
    11
 73
     7
 74
     0
 42
0.0000000186109951
 43
0.0000000001
 40
0.0
 40
0.0
 40
0.0
 40
0.0
 40
0.2645937144189002
 40
0.6044501314280868
 40
0.9447931717517688
 40
1.0
 40
1.0
 40
1.0
 40
1.0
 10
260.3828455436727
 20
747.7521569979538
 30
0.0
 10
260.3392482124359
 20
747.725589020027
 30
0.0
 10
260.2543353443374
 20
747.671470473005
 30
0.0
 10
260.158235912912
 20
747.5315020582053
 30
0.0
 10
260.1104348026067
 20
747.4006947848242
 30
0.0
 10
260.1190859321487
 20
747.3354005432702
 30
0.0
 10
260.1205286575088
 20
747.3248448058596
 30
0.0
  0
ARC
  5
125
330
84
100
AcDbEntity
  8
DV1_Default
  6
Continuous
 62
     7
100
AcDbCircle
 10
271.8791680428
 20
724.7478574766
 30
0.0
 40
25.71825281258647
100
AcDbArc
 50
107.7664617036
 51
116.6076726765
  0
ARC
  5
126
330
84
100
AcDbEntity
  8
DV1_Default
  6
Continuous
 62
     7
100
AcDbCircle
 10
264.1087126144
 20
748.7291326376
 30
0.0
 40
0.5401328428919778
100
AcDbArc
 50
59.4482441928
 51
81.6478911219
  0
ARC
  5
127
330
84
100
AcDbEntity
  8
DV1_Default
  6
Continuous
 62
     7
100
AcDbCircle
 10
264.223898903
 20
748.6371371844
 30
0.0
 40
0.6274755596933882
100
AcDbArc
 50
93.3556739098
 51
111.5648460698
  0
ELLIPSE
  5
128
330
84
100
AcDbEntity
  8
DV1_Default
  6
Continuous
 62
     7
100
AcDbEllipse
 10
276.0119894154
 20
748.9507230656
 30
0.0
 11
11.82481930055345
 21
-0.3128138178575546
 31
0.0
210
0.0
220
0.0
230
1.0
 40
0.0000880156
 41
3.073438341513199
 42
3.14159265370862
  0
SPLINE
  5
129
330
84
100
AcDbEntity
  8
DV1_Default
  6
Continuous
 62
     7
100
AcDbSpline
210
0.0
220
0.0
230
1.0
 70
     8
 71
     3
 72
     8
 73
     4
 74
     0
 42
0.0000000254932636
 43
0.0000000001
 40
0.0
 40
0.0
 40
0.0
 40
0.0
 40
1.0
 40
1.0
 40
1.0
 40
1.0
 10
265.0440787422449
 20
749.4161591761056
 30
0.0
 10
264.9559578490257
 20
749.2923967714441
 30
0.0
 10
264.8580507843992
 20
749.212184932163
 30
0.0
 10
264.7503575483653
 20
749.1755236582625
 30
0.0
  0
SPLINE
  5
12A
330
84
100
AcDbEntity
  8
DV1_Default
  6
Continuous
 62
     7
100
AcDbSpline
210
0.0
220
0.0
230
1.0
 70
     8
 71
     3
 72
     8
 73
     4
 74
     0
 42
0.000000017214775
 43
0.0000000001
 40
0.0
 40
0.0
 40
0.0
 40
0.0
 40
1.0
 40
1.0
 40
1.0
 40
1.0
 10
287.4305184243391
 20
748.5276201563925
 30
0.0
 10
287.2145924098209
 20
748.5523019326256
 30
0.0
 10
287.0656571638712
 20
748.648329016657
 30
0.0
 10
286.98371268649
 20
748.8157014084867
 30
0.0
  0
SPLINE
  5
12B
330
84
100
AcDbEntity
  8
DV1_Default
  6
Continuous
 62
     7
100
AcDbSpline
210
0.0
220
0.0
230
1.0
 70
     8
 71
     3
 72
    10
 73
     6
 74
     0
 42
0.0000000253953473
 43
0.0000000001
 40
0.0
 40
0.0
 40
0.0
 40
0.0
 40
0.4690624916912957
 40
0.7148994772887057
 40
1.0
 40
1.0
 40
1.0
 40
1.0
 10
286.9910616090557
 20
748.8044725755501
 30
0.0
 10
286.9640967346375
 20
748.8649750281334
 30
0.0
 10
286.9255033401416
 20
748.9459645140113
 30
0.0
 10
286.8079932269561
 20
749.0122020449252
 30
0.0
 10
286.7486765905921
 20
749.0324124902079
 30
0.0
 10
286.7101937248174
 20
749.0442449925196
 30
0.0
  0
SPLINE
  5
12C
330
84
100
AcDbEntity
  8
DV1_Default
  6
Continuous
 62
     7
100
AcDbSpline
210
0.0
220
0.0
230
1.0
 70
     8
 71
     3
 72
    10
 73
     6
 74
     0
 42
0.0000000253405559
 43
0.0000000001
 40
0.0
 40
0.0
 40
0.0
 40
0.0
 40
0.2853232087658394
 40
0.5311320736409314
 40
1.0
 40
1.0
 40
1.0
 40
1.0
 10
265.3303903543172
 20
749.629747790208
 30
0.0
 10
265.2912027297783
 20
749.6200167586941
 30
0.0
 10
265.2307227193032
 20
749.6030463068751
 30
0.0
 10
265.1094509006105
 20
749.5433212950534
 30
0.0
 10
265.0664061010547
 20
749.4643985967062
 30
0.0
 10
265.0361269053675
 20
749.4053586569346
 30
0.0
  0
ARC
  5
12D
330
84
100
AcDbEntity
  8
DV1_Default
  6
Continuous
 62
     7
100
AcDbCircle
 10
274.8920252141
 20
713.9445861386
 30
0.0
 40
36.94355470996524
100
AcDbArc
 50
88.1852416614
 51
105.0985787875
  0
ARC
  5
12E
330
84
100
AcDbEntity
  8
DV1_Default
  6
Continuous
 62
     7
100
AcDbCircle
 10
275.1986003311
 20
713.8707308197
 30
0.0
 40
37.00895229252944
100
AcDbArc
 50
71.7800257746
 51
88.6632574222
  0
ARC
  5
12F
330
84
100
AcDbEntity
  8
DV1_Default
  6
Continuous
 62
     7
100
AcDbCircle
 10
287.7730132384
 20
748.0388584257
 30
0.0
 40
0.5802804712599869
100
AcDbArc
 50
67.3012792625
 51
84.255940558
  0
LINE
  5
130
330
84
100
AcDbEntity
  8
DV1_Default
  6
Continuous
 62
     7
100
AcDbLine
 10
287.8310905516
 20
748.6162252511
 30
0.0
 11
287.8243526555
 21
748.6164511047
 31
0.0
  0
ARC
  5
131
330
84
100
AcDbEntity
  8
DV1_Default
  6
Continuous
 62
     7
100
AcDbCircle
 10
278.7556751392
 20
724.4446321889
 30
0.0
 40
25.84334710550635
100
AcDbArc
 50
60.2775967599
 51
69.0765348371
  0
ARC
  5
132
330
84
100
AcDbEntity
  8
DV1_Default
  6
Continuous
 62
     7
100
AcDbCircle
 10
298.7113259345
 20
715.0070732304
 30
0.0
 40
1.02097160184717
100
AcDbArc
 50
184.5799802632
 51
256.9178893393
  0
ARC
  5
133
330
84
100
AcDbEntity
  8
DV1_Default
  6
Continuous
 62
     7
100
AcDbCircle
 10
251.4840502897
 20
716.3003630449
 30
0.0
 40
1.021391174503771
100
AcDbArc
 50
279.9238992073
 51
352.2425174131
  0
SPLINE
  5
134
330
84
100
AcDbEntity
  8
DV1_Default
  6
Continuous
 62
     7
100
AcDbSpline
210
0.0
220
0.0
230
1.0
 70
     8
 71
     3
 72
    14
 73
    10
 74
     0
 42
0.0000000018180313
 43
0.0000000001
 40
0.0
 40
0.0
 40
0.0
 40
0.0
 40
0.1940770461450727
 40
0.3659741434770306
 40
0.5224826848533618
 40
0.6347929628163522
 40
0.7475638979623074
 40
0.8668939000463006
 40
1.0
 40
1.0
 40
1.0
 40
1.0
 10
251.7322099377569
 20
715.3062035587133
 30
0.0
 10
251.3559671341865
 20
715.222254321705
 30
0.0
 10
250.7548500363863
 20
715.0696812072462
 30
0.0
 10
249.9461423800523
 20
714.5165679612717
 30
0.0
 10
249.469140539091
 20
713.8622691930276
 30
0.0
 10
249.2685926149561
 20
713.1908043849902
 30
0.0
 10
249.2812375355114
 20
712.5620218483948
 30
0.0
 10
249.5062488045977
 20
711.9162327235088
 30
0.0
 10
249.7729762721083
 20
711.5823230345411
 30
0.0
 10
249.9433161018699
 20
711.380121441448
 30
0.0
  0
ARC
  5
135
330
84
100
AcDbEntity
  8
DV1_Default
  6
Continuous
 62
     7
100
AcDbCircle
 10
250.1146429966
 20
711.5906219375
 30
0.0
 40
0.2713387073646013
100
AcDbArc
 50
218.1411805875
 51
269.782439587
  0
LINE
  5
136
330
84
100
AcDbEntity
  8
DV1_Default
  6
Continuous
 62
     7
100
AcDbLine
 10
299.9269811322
 20
709.9795450976
 30
0.0
 11
300.0247967172
 21
710.0503541167
 31
0.0
  0
ARC
  5
137
330
84
100
AcDbEntity
  8
DV1_Default
  6
Continuous
 62
     7
100
AcDbCircle
 10
299.8202231125
 20
710.2398098651
 30
0.0
 40
0.28130948074178
100
AcDbArc
 50
267.3595164744
 51
292.3029508742
  0
SPLINE
  5
138
330
84
100
AcDbEntity
  8
DV1_Default
  6
Continuous
 62
     7
100
AcDbSpline
210
0.0
220
0.0
230
1.0
 70
     8
 71
     3
 72
    14
 73
    10
 74
     0
 42
0.000000001817901
 43
0.0000000001
 40
0.0
 40
0.0
 40
0.0
 40
0.0
 40
0.1331081086224655
 40
0.2524381751589488
 40
0.3652081056553512
 40
0.4775170737587763
 40
0.6340242481218528
 40
0.8059211757162705
 40
1.0
 40
1.0
 40
1.0
 40
1.0
 10
299.98072673225
 20
710.0100964053142
 30
0.0
 10
300.1619014453872
 20
710.2026808805431
 30
0.0
 10
300.4465395881483
 20
710.5215056726221
 30
0.0
 10
300.7065952936633
 20
711.1540516464929
 30
0.0
 10
300.7536436297052
 20
711.7812405190875
 30
0.0
 10
300.5901285182485
 20
712.4627156772632
 30
0.0
 10
300.1496015587411
 20
713.1421717579042
 30
0.0
 10
299.3722928321333
 20
713.7387219895292
 30
0.0
 10
298.7803704440063
 20
713.9239419587713
 30
0.0
 10
298.4092498419267
 20
714.0283411373794
 30
0.0
  0
ARC
  5
139
330
84
100
AcDbEntity
  8
DV1_Default
  6
Continuous
 62
     7
100
AcDbCircle
 10
298.4145443534
 20
728.2235173811
 30
0.0
 40
1.499999492478078
100
AcDbArc
 50
103.5197966294
 51
182.9507316345
  0
LINE
  5
13A
330
84
100
AcDbEntity
  8
DV1_Default
  6
Continuous
 62
     7
100
AcDbLine
 10
298.0255211604
 20
729.6724654226
 30
0.0
 11
298.4285461817
 21
729.7726110945
 31
0.0
  0
ENDBLK
  5
13C
330
84
100
AcDbEntity
  8
0
100
AcDbBlockEnd
  0
BLOCK
  5
1E9
330
13D
100
AcDbEntity
  8
0
100
AcDbBlockBegin
  2
SE1
 70
     0
 10
0.0
 20
0.0
 30
0.0
  3
SE1
  1

  0
SPLINE
  5
140
330
13D
100
AcDbEntity
  8
DV2_Default
  6
Continuous
 62
     7
100
AcDbSpline
210
0.0
220
0.0
230
1.0
 70
     8
 71
     3
 72
    13
 73
     9
 74
     0
 42
0.0000000003510547
 43
0.0000000001
 40
0.0
 40
0.0
 40
0.0
 40
0.0
 40
0.0415796644788824
 40
0.1796887186700935
 40
0.3513853560983972
 40
0.543236519170352
 40
0.7690950165155329
 40
1.0
 40
1.0
 40
1.0
 40
1.0
 10
66.98915561447538
 20
610.8933394788653
 30
0.0
 10
67.00866177870515
 20
611.2487856796542
 30
0.0
 10
67.10263334125914
 20
612.8013094642403
 30
0.0
 10
67.34431048056744
 20
615.9771696762555
 30
0.0
 10
67.66581426847677
 20
620.7140739836242
 30
0.0
 10
67.94447822892036
 20
626.397717498908
 30
0.0
 10
68.14807971044496
 20
632.6950169279239
 30
0.0
 10
68.27538516611867
 20
637.1104713036553
 30
0.0
 10
68.33992748689482
 20
639.3425884107812
 30
0.0
  0
SPLINE
  5
141
330
13D
100
AcDbEntity
  8
DV2_Default
  6
Continuous
 62
     7
100
AcDbSpline
210
0.0
220
0.0
230
1.0
 70
     8
 71
     3
 72
    14
 73
    10
 74
     0
 42
0.0000000003703093
 43
0.0000000001
 40
0.0
 40
0.0
 40
0.0
 40
0.0
 40
0.1572728369679172
 40
0.3139237744921941
 40
0.4716875807296114
 40
0.6661576117072245
 40
0.8377916796387883
 40
0.9731946207015947
 40
1.0
 40
1.0
 40
1.0
 40
1.0
 10
108.4466658661448
 20
637.2867792494212
 30
0.0
 10
108.4889360004139
 20
635.8402953879911
 30
0.0
 10
108.5728283090787
 20
632.9530427427662
 30
0.0
 10
108.7038203858197
 20
628.6026273065233
 30
0.0
 10
108.8795680139638
 20
623.917160770717
 30
0.0
 10
109.1287653361627
 20
619.1268865906159
 30
0.0
 10
109.4460401156755
 20
614.6650651522472
 30
0.0
 10
109.65740439268
 20
611.8429067643883
 30
0.0
 10
109.7308897191481
 20
610.5323818959002
 30
0.0
 10
109.7420820294068
 20
610.3174273022829
 30
0.0
  0
LINE
  5
142
330
13D
100
AcDbEntity
  8
DV2_Default
  6
Continuous
 62
     7
100
AcDbLine
 10
88.3499760986
 20
592.6563491434
 30
0.0
 11
88.3499520923
 21
592.6401118305
 31
0.0
  0
ARC
  5
143
330
13D
100
AcDbEntity
  8
DV2_Default
  6
Continuous
 62
     7
100
AcDbCircle
 10
99.5955666747
 20
7338.2112370473
 30
0.0
 40
6745.564271262235
100
AcDbArc
 50
269.904481378
 51
270.0955953908
  0
SPLINE
  5
144
330
13D
100
AcDbEntity
  8
DV2_Default
  6
Continuous
 62
     7
100
AcDbSpline
210
0.0
220
0.0
230
1.0
 70
     8
 71
     3
 72
    22
 73
    18
 74
     0
 42
0.00000000044615
 43
0.0000000001
 40
0.0
 40
0.0
 40
0.0
 40
0.0
 40
0.0609743602038596
 40
0.1231496927658281
 40
0.2501307163821723
 40
0.31390157594989
 40
0.3770626869982642
 40
0.439124496071628
 40
0.5000245959322406
 40
0.5609519740727031
 40
0.6230301645017425
 40
0.6863859993382211
 40
0.750270906058342
 40
0.8772230865620487
 40
0.9393188485506663
 40
0.9717188925162089
 40
1.0
 40
1.0
 40
1.0
 40
1.0
 10
110.7639440535644
 20
594.6279162381389
 30
0.0
 10
110.7632512159683
 20
594.6280578039455
 30
0.0
 10
110.6892858674615
 20
594.6287522321236
 30
0.0
 10
110.2509731349288
 20
594.6307087337887
 30
0.0
 10
109.3779093650396
 20
594.6317598456565
 30
0.0
 10
108.104322131577
 20
594.6315996090349
 30
0.0
 10
106.9659882859803
 20
594.6310016547692
 30
0.0
 10
105.6673609052749
 20
594.6302219333974
 30
0.0
 10
104.2192099936385
 20
594.6299087695057
 30
0.0
 10
102.617371059614
 20
594.6306963980489
 30
0.0
 10
100.8570027835498
 20
594.6319056946777
 30
0.0
 10
98.94939912710588
 20
594.6326434048603
 30
0.0
 10
96.25278693400656
 20
594.6330672313434
 30
0.0
 10
93.39695214212091
 20
594.6324263668539
 30
0.0
 10
90.8277157703469
 20
594.6313518865338
 30
0.0
 10
89.39238168389089
 20
594.6309147187801
 30
0.0
 10
88.68136085812337
 20
594.6308627207344
 30
0.0
 10
88.3499819057392
 20
594.6308384866912
 30
0.0
  0
SPLINE
  5
145
330
13D
100
AcDbEntity
  8
DV2_Default
  6
Continuous
 62
     7
100
AcDbSpline
210
0.0
220
0.0
230
1.0
 70
     8
 71
     3
 72
    12
 73
     8
 74
     0
 42
0.0000000006831958
 43
0.0000000001
 40
0.0
 40
0.0
 40
0.0
 40
0.0
 40
0.1879643473873508
 40
0.360902958869308
 40
0.690670404735964
 40
0.8597240942998591
 40
1.0
 40
1.0
 40
1.0
 40
1.0
 10
108.4466658661448
 20
637.2867792494212
 30
0.0
 10
108.4067386835801
 20
638.2300709630022
 30
0.0
 10
108.33053819395
 20
640.0412529995633
 30
0.0
 10
108.1856415219976
 20
643.4680089266157
 30
0.0
 10
108.0418891780097
 20
646.7474346831701
 30
0.0
 10
107.9001358513211
 20
649.7989846411277
 30
0.0
 10
107.8299070049661
 20
651.254299000681
 30
0.0
 10
107.7977071997681
 20
651.9094384516881
 30
0.0
  0
SPLINE
  5
146
330
13D
100
AcDbEntity
  8
DV2_Default
  6
Continuous
 62
     7
100
AcDbSpline
210
0.0
220
0.0
230
1.0
 70
     8
 71
     3
 72
    23
 73
    19
 74
     0
 42
0.0000000002550395
 43
0.0000000001
 40
0.0
 40
0.0
 40
0.0
 40
0.0
 40
0.0396963983216388
 40
0.1578479598742099
 40
0.297646071288271
 40
0.3735934676592383
 40
0.4513358301726715
 40
0.5271167514707243
 40
0.5633093111470407
 40
0.5984267797382222
 40
0.6671119676615982
 40
0.738964469935271
 40
0.7904937023556929
 40
0.8171975034876835
 40
0.8576627183658172
 40
0.8978784011245882
 40
0.9751657967192805
 40
1.0
 40
1.0
 40
1.0
 40
1.0
 10
107.6008442061678
 20
655.7690231910311
 30
0.0
 10
107.5593018999521
 20
656.5537377841026
 30
0.0
 10
107.3920200412302
 20
659.6412932914341
 30
0.0
 10
107.0613131607601
 20
665.2022887141745
 30
0.0
 10
106.6684144219622
 20
670.9191588016059
 30
0.0
 10
106.3127352659498
 20
675.5237480725337
 30
0.0
 10
106.0292563743513
 20
678.8862564798399
 30
0.0
 10
105.7919521877018
 20
681.4599375059238
 30
0.0
 10
105.6070273949849
 20
683.3348021551899
 30
0.0
 10
105.4306390908661
 20
685.045181002383
 30
0.0
 10
105.2089394818878
 20
687.0534849690783
 30
0.0
 10
104.9673326064902
 20
689.0354304031027
 30
0.0
 10
104.7807280571904
 20
690.4200430047009
 30
0.0
 10
104.6347605629054
 20
691.4316085707517
 30
0.0
 10
104.5042102003329
 20
692.2790379745271
 30
0.0
 10
104.3157858924568
 20
693.3915863771721
 30
0.0
 10
104.1515245860686
 20
694.2169973472603
 30
0.0
 10
104.0389069492118
 20
694.6811805666431
 30
0.0
 10
104.0118645926889
 20
694.7861801720685
 30
0.0
  0
SPLINE
  5
147
330
13D
100
AcDbEntity
  8
DV2_Default
  6
Continuous
 62
     7
100
AcDbSpline
210
0.0
220
0.0
230
1.0
 70
     8
 71
     3
 72
    12
 73
     8
 74
     0
 42
0.0000000037396919
 43
0.0000000001
 40
0.0
 40
0.0
 40
0.0
 40
0.0
 40
0.1555271802380586
 40
0.5788365942666247
 40
0.7689584611179519
 40
0.9487360651769828
 40
1.0
 40
1.0
 40
1.0
 40
1.0
 10
104.0118645926889
 20
694.7861801720685
 30
0.0
 10
103.9611288394135
 20
694.9831760984537
 30
0.0
 10
103.7768124989604
 20
695.6130953078373
 30
0.0
 10
103.5584860475305
 20
695.9016075742431
 30
0.0
 10
103.3826025826574
 20
695.4502718563939
 30
0.0
 10
103.3082018313194
 20
694.9485893373421
 30
0.0
 10
103.2750601704922
 20
694.5767452700891
 30
0.0
 10
103.2681010946341
 20
694.4894527888059
 30
0.0
  0
SPLINE
  5
148
330
13D
100
AcDbEntity
  8
DV2_Default
  6
Continuous
 62
     7
100
AcDbSpline
210
0.0
220
0.0
230
1.0
 70
     8
 71
     3
 72
    22
 73
    18
 74
     0
 42
0.000000000296814
 43
0.0000000001
 40
0.0
 40
0.0
 40
0.0
 40
0.0
 40
0.0539124472771698
 40
0.1283634599135927
 40
0.2017294029970715
 40
0.2750267740966013
 40
0.3474341739127063
 40
0.4159493799719661
 40
0.5329785848713072
 40
0.6253623871438572
 40
0.6987910433838663
 40
0.7575226463145821
 40
0.8431312619410116
 40
0.9001590209800973
 40
0.9394697814190474
 40
0.9672867768190206
 40
1.0
 40
1.0
 40
1.0
 40
1.0
 10
103.2681010946341
 20
694.4894527888059
 30
0.0
 10
103.2516267154953
 20
694.2828033051729
 30
0.0
 10
103.217665283803
 20
693.7269036749802
 30
0.0
 10
103.185962073025
 20
692.610762358521
 30
0.0
 10
103.1813352188301
 20
691.0784362440978
 30
0.0
 10
103.2086234689239
 20
689.2610897855593
 30
0.0
 10
103.2689435851894
 20
687.2130807026645
 30
0.0
 10
103.3844247387042
 20
684.4665120630734
 30
0.0
 10
103.5701819562548
 20
681.1472370466886
 30
0.0
 10
103.8342169157585
 20
677.4541791757725
 30
0.0
 10
104.0882019117622
 20
674.3744941483776
 30
0.0
 10
104.36396501537
 20
671.2936241892835
 30
0.0
 10
104.6451184789356
 20
668.3601606530511
 30
0.0
 10
104.8999405630259
 20
665.6592656281183
 30
0.0
 10
105.0546517145918
 20
663.7974806882359
 30
0.0
 10
105.1570397954602
 20
662.2914853531967
 30
0.0
 10
105.1851994358215
 20
661.3735335985558
 30
0.0
 10
105.1999124034888
 20
660.8773583415597
 30
0.0
  0
ARC
  5
149
330
13D
100
AcDbEntity
  8
DV2_Default
  6
Continuous
 62
     7
100
AcDbCircle
 10
77.1014101796
 20
7023.5083848766
 30
0.0
 40
6430.861873476081
100
AcDbArc
 50
269.8997534521
 51
270.1002191765
  0
SPLINE
  5
14A
330
13D
100
AcDbEntity
  8
DV2_Default
  6
Continuous
 62
     7
100
AcDbSpline
210
0.0
220
0.0
230
1.0
 70
     8
 71
     3
 72
    22
 73
    18
 74
     0
 42
0.0000000004461488
 43
0.0000000001
 40
0.0
 40
0.0
 40
0.0
 40
0.0
 40
0.0282727197208496
 40
0.0606462886505234
 40
0.122702829407342
 40
0.2495798871960822
 40
0.3765783906791095
 40
0.4386443182486353
 40
0.4996404698277746
 40
0.5606138531689072
 40
0.6226532435664921
 40
0.6857717712832189
 40
0.7495115428971111
 40
0.87640303557707
 40
0.938569714345995
 40
0.9997769207337022
 40
1.0
 40
1.0
 40
1.0
 40
1.0
 10
88.3499819057392
 20
594.6308384866912
 30
0.0
 10
88.01852783435817
 20
594.6308627508508
 30
0.0
 10
87.30754355389847
 20
594.630914799041
 30
0.0
 10
85.87236248747776
 20
594.6313515822789
 30
0.0
 10
83.30309104935571
 20
594.6324286622186
 30
0.0
 10
79.73682475076454
 20
594.6332119584641
 30
0.0
 10
76.44532411820491
 20
594.632306834516
 30
0.0
 10
74.08260541144357
 20
594.6306979784263
 30
0.0
 10
72.47875675360666
 20
594.6299114932576
 30
0.0
 10
71.0292417085173
 20
594.6302226556899
 30
0.0
 10
69.73037145213127
 20
594.6310009744451
 30
0.0
 10
68.59262246281276
 20
594.6316024350353
 30
0.0
 10
67.31993060609325
 20
594.6317594526931
 30
0.0
 10
66.44758355407474
 20
594.6307032057565
 30
0.0
 10
66.00962897076721
 20
594.6287479707504
 30
0.0
 10
65.93609425345744
 20
594.6280528783644
 30
0.0
 10
65.93605098748648
 20
594.6279127574707
 30
0.0
 10
65.9360513117155
 20
594.6279122513356
 30
0.0
  0
SPLINE
  5
14B
330
13D
100
AcDbEntity
  8
DV2_Default
  6
Continuous
 62
     7
100
AcDbSpline
210
0.0
220
0.0
230
1.0
 70
     8
 71
     3
 72
    48
 73
    44
 74
     0
 42
0.0000000001326104
 43
0.0000000001
 40
0.0
 40
0.0
 40
0.0
 40
0.0
 40
0.0068775656695696
 40
0.0181832444379441
 40
0.0268924410698968
 40
0.0348740906349936
 40
0.0462007756709219
 40
0.0602914915177666
 40
0.0779362158637426
 40
0.1001882924695488
 40
0.1284287870363451
 40
0.1453467897887183
 40
0.1644602569977578
 40
0.1861541430921388
 40
0.2106115627114575
 40
0.2369356827869484
 40
0.2503375764917259
 40
0.263790758592547
 40
0.3188312837953635
 40
0.347758989494206
 40
0.3783428499027163
 40
0.4114098891110535
 40
0.4475393290659794
 40
0.4667985465679603
 40
0.4863419900478964
 40
0.5054333687105677
 40
0.5237617439388007
 40
0.563401863663926
 40
0.5783598279990226
 40
0.5939221695209354
 40
0.6132291047422374
 40
0.6338960705122964
 40
0.6553522891203871
 40
0.6769542761885788
 40
0.6981216973004525
 40
0.7183473038479703
 40
0.755303485746426
 40
0.8169256404435077
 40
0.8666924702330431
 40
0.9064531028680629
 40
0.9667915691667914
 40
0.9955554221657635
 40
0.9999999999999999
 40
0.9999999999999999
 40
0.9999999999999999
 40
0.9999999999999999
 10
71.50101052260139
 20
660.9251048861906
 30
0.0
 10
71.50891698168486
 20
661.2304508347972
 30
0.0
 10
71.5311020676377
 20
662.0375910755012
 30
0.0
 10
71.60462765599405
 20
663.2265905175232
 30
0.0
 10
71.69930128144775
 20
664.4581758855894
 30
0.0
 10
71.80529756974921
 20
665.6848025439958
 30
0.0
 10
71.93919539572973
 20
667.1383047073912
 30
0.0
 10
72.11619927620288
 20
668.9954566484777
 30
0.0
 10
72.33443387814172
 20
671.2920538038111
 30
0.0
 10
72.59123235089582
 20
674.1258498455959
 30
0.0
 10
72.81536943668175
 20
676.8361594892093
 30
0.0
 10
72.99980300526057
 20
679.3194215880171
 30
0.0
 10
73.14281917389066
 20
681.4663064841893
 30
0.0
 10
73.27609847244904
 20
683.7663705981519
 30
0.0
 10
73.38961551611416
 20
686.134487122425
 30
0.0
 10
73.45691010675
 20
688.0311648191501
 30
0.0
 10
73.49215719092737
 20
689.4507603832737
 30
0.0
 10
73.5264697298726
 20
691.4730828318291
 30
0.0
 10
73.50881059268278
 20
693.3562555529513
 30
0.0
 10
73.41769368357333
 20
694.7832691726586
 30
0.0
 10
73.30945048862326
 20
695.5049223381437
 30
0.0
 10
73.15955654937227
 20
695.8197926582005
 30
0.0
 10
73.00113516358947
 20
695.7033332981017
 30
0.0
 10
72.8534765503293
 20
695.3548617856811
 30
0.0
 10
72.73347535425529
 20
694.9699679144969
 30
0.0
 10
72.6103822596749
 20
694.4816138616208
 30
0.0
 10
72.4380932418457
 20
693.6776467714747
 30
0.0
 10
72.26815866881375
 20
692.7298026920628
 30
0.0
 10
72.10056547863324
 20
691.6648057579046
 30
0.0
 10
71.98016775104848
 20
690.8518474169528
 30
0.0
 10
71.84444169357889
 20
689.8710963707555
 30
0.0
 10
71.69298003774591
 20
688.702585959451
 30
0.0
 10
71.53495206483645
 20
687.4054467251677
 30
0.0
 10
71.37510167105432
 20
686.0066466331808
 30
0.0
 10
71.21830246106238
 20
684.5553197488185
 30
0.0
 10
71.0235089359579
 20
682.6534531173827
 30
0.0
 10
70.72927981188057
 20
679.5750670069913
 30
0.0
 10
70.36649451301518
 20
675.3197138677946
 30
0.0
 10
70.00709753705516
 20
670.5430536235862
 30
0.0
 10
69.66039273146885
 20
665.4707306265024
 30
0.0
 10
69.37393595321726
 20
660.7948340598897
 30
0.0
 10
69.17625235473018
 20
657.2195213721544
 30
0.0
 10
69.10750046054243
 20
655.9270409088668
 30
0.0
 10
69.09832444807469
 20
655.7536473653138
 30
0.0
  0
SPLINE
  5
14C
330
13D
100
AcDbEntity
  8
DV2_Default
  6
Continuous
 62
     7
100
AcDbSpline
210
0.0
220
0.0
230
1.0
 70
     8
 71
     3
 72
    12
 73
     8
 74
     0
 42
0.0000000007947855
 43
0.0000000001
 40
0.0
 40
0.0
 40
0.0
 40
0.0
 40
0.0612397582525174
 40
0.1998792033763077
 40
0.4691582126796766
 40
0.7354122093504688
 40
1.0
 40
1.0
 40
1.0
 40
1.0
 10
68.90242437919363
 20
651.9119868110128
 30
0.0
 10
68.89028503576975
 20
651.6650218282954
 30
0.0
 10
68.85082560762173
 20
650.8567301771354
 30
0.0
 10
68.75943134154691
 20
648.942822138466
 30
0.0
 10
68.63153381413639
 20
646.1456976390488
 30
0.0
 10
68.48436149193536
 20
642.7651827389735
 30
0.0
 10
68.38809720351905
 20
640.4810621819668
 30
0.0
 10
68.33992748689482
 20
639.3425884107812
 30
0.0
  0
ARC
  5
14D
330
13D
100
AcDbEntity
  8
DV2_Default
  6
Continuous
 62
     7
100
AcDbCircle
 10
-164.5943603601
 20
623.6966186532
 30
0.0
 40
231.9361842132451
100
AcDbArc
 50
356.8289288552
 51
358.219498539
  0
ARC
  5
14E
330
13D
100
AcDbEntity
  8
DV2_Default
  6
Continuous
 62
     7
100
AcDbCircle
 10
366.1266778684
 20
624.6470854703
 30
0.0
 40
256.7844474256742
100
AcDbArc
 50
181.8571040829
 51
183.1986898824
  0
SPLINE
  5
14F
330
13D
100
AcDbEntity
  8
DV2_Default
  6
Continuous
 62
     7
100
AcDbSpline
210
0.0
220
0.0
230
1.0
 70
     8
 71
     3
 72
    11
 73
     7
 74
     0
 42
0.0000000006212447
 43
0.0000000001
 40
0.0
 40
0.0
 40
0.0
 40
0.0
 40
0.1920072109217569
 40
0.4679078650384102
 40
0.7426837480614962
 40
1.0
 40
1.0
 40
1.0
 40
1.0
 10
110.7479584705594
 20
594.6270457171089
 30
0.0
 10
110.6879005427956
 20
595.7591356518084
 30
0.0
 10
110.5653296911237
 20
598.0985658708342
 30
0.0
 10
110.2539576257823
 20
602.1411747766148
 30
0.0
 10
109.9620746274348
 20
606.5298128091151
 30
0.0
 10
109.8082005888631
 20
609.1762834871536
 30
0.0
 10
109.7213684190469
 20
610.6903361191163
 30
0.0
  0
SPLINE
  5
150
330
13D
100
AcDbEntity
  8
DV2_Default
  6
Continuous
 62
     7
100
AcDbSpline
210
0.0
220
0.0
230
1.0
 70
     8
 71
     3
 72
     9
 73
     5
 74
     0
 42
0.0000000281693929
 43
0.0000000001
 40
0.0
 40
0.0
 40
0.0
 40
0.0
 40
0.9938859572245197
 40
1.0
 40
1.0
 40
1.0
 40
1.0
 10
103.1968421117977
 20
690.1512496002871
 30
0.0
 10
103.1948053930181
 20
690.2830432559166
 30
0.0
 10
103.1930988867566
 20
690.395035986082
 30
0.0
 10
103.1917437138544
 20
690.5055322065054
 30
0.0
 10
103.1917354413827
 20
690.5062077288111
 30
0.0
  0
ARC
  5
151
330
13D
100
AcDbEntity
  8
DV2_Default
  6
Continuous
 62
     7
100
AcDbCircle
 10
66.0551605268
 20
593.6350351652
 30
0.0
 40
1.0
100
AcDbArc
 50
96.7905059631
 51
258.1581812973
  0
ARC
  5
152
330
13D
100
AcDbEntity
  8
DV2_Default
  6
Continuous
 62
     7
100
AcDbCircle
 10
110.6448394732
 20
593.6350351652
 30
0.0
 40
0.9999999999999998
100
AcDbArc
 50
281.8480148802
 51
83.2401229874
  0
ARC
  5
153
330
13D
100
AcDbEntity
  8
DV2_Default
  6
Continuous
 62
     7
100
AcDbCircle
 10
-299.4422299959
 20
626.2806888844
 30
0.0
 40
366.7555069550396
100
AcDbArc
 50
355.0488704714
 51
357.5958609353
  0
SPLINE
  5
154
330
13D
100
AcDbEntity
  8
DV2_Default
  6
Continuous
 62
     7
100
AcDbSpline
210
0.0
220
0.0
230
1.0
 70
     8
 71
     3
 72
     8
 73
     4
 74
     0
 42
0.0000000357611678
 43
0.0000000001
 40
0.0
 40
0.0
 40
0.0
 40
0.0
 40
1.0
 40
1.0
 40
1.0
 40
1.0
 10
73.50103430001828
 20
690.0368831785476
 30
0.0
 10
73.49955071209169
 20
689.9472479195205
 30
0.0
 10
73.49796489110066
 20
689.8543358809133
 30
0.0
 10
73.49629839144878
 20
689.7572903695498
 30
0.0
  0
LINE
  5
155
330
13D
100
AcDbEntity
  8
DV2_Default
  6
Continuous
 62
     7
100
AcDbLine
 10
71.05
 20
592.6401118305
 30
0.0
 11
71.05
 21
592.6353374211
 31
0.0
  0
LINE
  5
156
330
13D
100
AcDbEntity
  8
DV2_Default
  6
Continuous
 62
     7
100
AcDbLine
 10
105.65
 20
592.6353374211
 30
0.0
 11
105.65
 21
592.6401118305
 31
0.0
  0
SPLINE
  5
157
330
13D
100
AcDbEntity
  8
DV2_Default
  6
Continuous
 62
     7
100
AcDbSpline
210
0.0
220
0.0
230
1.0
 70
     8
 71
     3
 72
     8
 73
     4
 74
     0
 42
0.0000000508143808
 43
0.0000000001
 40
0.0
 40
0.0
 40
0.0
 40
0.0
 40
1.0
 40
1.0
 40
1.0
 40
1.0
 10
67.42446764631337
 20
626.907223704881
 30
0.0
 10
67.42386257770086
 20
626.8416285102566
 30
0.0
 10
67.42326262425192
 20
626.7760312345355
 30
0.0
 10
67.42266799611383
 20
626.7104372504233
 30
0.0
  0
SPLINE
  5
158
330
13D
100
AcDbEntity
  8
DV2_Default
  6
Continuous
 62
     7
100
AcDbSpline
210
0.0
220
0.0
230
1.0
 70
     8
 71
     3
 72
    20
 73
    16
 74
     0
 42
0.000000000554073
 43
0.0000000001
 40
0.0
 40
0.0
 40
0.0
 40
0.0
 40
0.040141196451049
 40
0.0849898540516238
 40
0.134543667973133
 40
0.2035820605132501
 40
0.2725918989271119
 40
0.3528303109651812
 40
0.4850901455865257
 40
0.5728087246711813
 40
0.6604654612603358
 40
0.7480778243448608
 40
0.8356707395517683
 40
0.9232665022758018
 40
0.9999999999999999
 40
0.9999999999999999
 40
0.9999999999999999
 40
0.9999999999999999
 10
88.35023207533352
 20
665.2442740903292
 30
0.0
 10
88.00301473728308
 20
665.242503662034
 30
0.0
 10
87.26786099344349
 20
665.2387811902754
 30
0.0
 10
86.10900573631042
 20
665.2067245893652
 30
0.0
 10
84.7151290321808
 20
665.1424173021702
 30
0.0
 10
83.14530307716923
 20
665.0305505983777
 30
0.0
 10
81.37950538047373
 20
664.852125971843
 30
0.0
 10
79.21359656675293
 20
664.5583448472329
 30
0.0
 10
77.11322949136591
 20
664.1512513680487
 30
0.0
 10
75.28742729463207
 20
663.644607965274
 30
0.0
 10
73.97142752615366
 20
663.1596141249577
 30
0.0
 10
72.91275499418657
 20
662.6340389704038
 30
0.0
 10
72.13309211868769
 20
662.0771565093652
 30
0.0
 10
71.63942012263792
 20
661.5222405163543
 30
0.0
 10
71.5478476172005
 20
661.1527653069606
 30
0.0
 10
71.51129524313774
 20
660.980036427768
 30
0.0
  0
SPLINE
  5
159
330
13D
100
AcDbEntity
  8
DV2_Default
  6
Continuous
 62
     7
100
AcDbSpline
210
0.0
220
0.0
230
1.0
 70
     8
 71
     3
 72
     8
 73
     4
 74
     0
 42
0.0000000073911746
 43
0.0000000001
 40
0.0
 40
0.0
 40
0.0
 40
0.0
 40
1.0
 40
1.0
 40
1.0
 40
1.0
 10
67.26665073835926
 20
617.6240015524845
 30
0.0
 10
67.25094326252693
 20
617.170211471305
 30
0.0
 10
67.2370995613532
 20
616.7191665603051
 30
0.0
 10
67.22611533083735
 20
616.2716555734604
 30
0.0
  0
SPLINE
  5
15A
330
13D
100
AcDbEntity
  8
DV2_Default
  6
Continuous
 62
     7
100
AcDbSpline
210
0.0
220
0.0
230
1.0
 70
     8
 71
     3
 72
     8
 73
     4
 74
     0
 42
0.0000000147119022
 43
0.0000000001
 40
0.0
 40
0.0
 40
0.0
 40
0.0
 40
1.0
 40
1.0
 40
1.0
 40
1.0
 10
109.4556397113569
 20
616.9438465300867
 30
0.0
 10
109.4488143966703
 20
617.1695366866443
 30
0.0
 10
109.4413902045256
 20
617.3960223256854
 30
0.0
 10
109.43349083396
 20
617.6232061632647
 30
0.0
  0
SPLINE
  5
15B
330
13D
100
AcDbEntity
  8
DV2_Default
  6
Continuous
 62
     7
100
AcDbSpline
210
0.0
220
0.0
230
1.0
 70
     8
 71
     3
 72
     8
 73
     4
 74
     0
 42
0.0000000110471091
 43
0.0000000001
 40
0.0
 40
0.0
 40
0.0
 40
0.0
 40
1.0
 40
1.0
 40
1.0
 40
1.0
 10
108.0524239382116
 20
647.4837342328809
 30
0.0
 10
108.0681070143189
 20
647.181535960795
 30
0.0
 10
108.0832276847236
 20
646.8801191226864
 30
0.0
 10
108.0978218241504
 20
646.5796599689133
 30
0.0
  0
SPLINE
  5
15C
330
13D
100
AcDbEntity
  8
DV2_Default
  6
Continuous
 62
     7
100
AcDbSpline
210
0.0
220
0.0
230
1.0
 70
     8
 71
     3
 72
     9
 73
     5
 74
     0
 42
0.0000000018575511
 43
0.0000000001
 40
0.0
 40
0.0
 40
0.0
 40
0.0
 40
0.9838635611456845
 40
1.0
 40
1.0
 40
1.0
 40
1.0
 10
108.0978218241504
 20
646.5796599689133
 30
0.0
 10
108.1858667889324
 20
644.7670203305682
 30
0.0
 10
108.2558779329543
 20
642.9600788428471
 30
0.0
 10
108.3142293752914
 20
641.2291254194415
 30
0.0
 10
108.3152265934343
 20
641.2007215772852
 30
0.0
  0
SPLINE
  5
15D
330
13D
100
AcDbEntity
  8
DV2_Default
  6
Continuous
 62
     7
100
AcDbSpline
210
0.0
220
0.0
230
1.0
 70
     8
 71
     3
 72
    10
 73
     6
 74
     0
 42
0.0000000009298343
 43
0.0000000001
 40
0.0
 40
0.0
 40
0.0
 40
0.0
 40
0.8232304218254207
 40
0.8232304218254207
 40
0.9999999999999999
 40
0.9999999999999999
 40
0.9999999999999999
 40
0.9999999999999999
 10
108.3152448853548
 20
641.2002006920093
 30
0.0
 10
108.1841952015465
 20
644.2394521191028
 30
0.0
 10
108.0507305874734
 20
647.2115433118777
 30
0.0
 10
107.8804564905909
 20
650.7155606039981
 30
0.0
 10
107.850024635532
 20
651.3313833823943
 30
0.0
 10
107.8192747610912
 20
651.9433270497119
 30
0.0
  0
SPLINE
  5
15E
330
13D
100
AcDbEntity
  8
DV2_Default
  6
Continuous
 62
     7
100
AcDbSpline
210
0.0
220
0.0
230
1.0
 70
     8
 71
     3
 72
    10
 73
     6
 74
     0
 42
0.0000000005431884
 43
0.0000000001
 40
0.0
 40
0.0
 40
0.0
 40
0.0
 40
0.4965452852323409
 40
0.4965452852323409
 40
1.0
 40
1.0
 40
1.0
 40
1.0
 10
105.2007549975142
 20
660.9533476764582
 30
0.0
 10
105.0980802470194
 20
662.0760079819305
 30
0.0
 10
103.2686544178555
 20
663.1821745093338
 30
0.0
 10
97.08182087939609
 20
664.7734930960743
 30
0.0
 10
92.72641211700942
 20
665.2391692169577
 30
0.0
 10
88.35023207533352
 20
665.2442740903292
 30
0.0
  0
ARC
  5
15F
330
13D
100
AcDbEntity
  8
DV2_Default
  6
Continuous
 62
     7
100
AcDbCircle
 10
-1510.2633230204
 20
636.6742630103
 30
0.0
 40
1577.717546644321
100
AcDbArc
 50
359.6381645708
 51
2.2273749717
  0
SPLINE
  5
160
330
13D
100
AcDbEntity
  8
DV2_Default
  6
Continuous
 62
     7
100
AcDbSpline
210
0.0
220
0.0
230
1.0
 70
     8
 71
     3
 72
    10
 73
     6
 74
     0
 42
0.0000000414323685
 43
0.0000000001
 40
0.0
 40
0.0
 40
0.0
 40
0.0
 40
0.2637493445151409
 40
0.5218267759260481
 40
1.0
 40
1.0
 40
1.0
 40
1.0
 10
66.34623192453053
 20
698.2065134405299
 30
0.0
 10
66.33083832555909
 20
698.1892874232913
 30
0.0
 10
66.30565436704518
 20
698.1601325210273
 30
0.0
 10
66.26787185672622
 20
698.0860739470021
 30
0.0
 10
66.26242977805177
 20
698.031638846748
 30
0.0
 10
66.25915393880285
 20
697.9898837551866
 30
0.0
  0
SPLINE
  5
161
330
13D
100
AcDbEntity
  8
DV2_Default
  6
Continuous
 62
     7
100
AcDbSpline
210
0.0
220
0.0
230
1.0
 70
     8
 71
     3
 72
    10
 73
     6
 74
     0
 42
0.0000000414382547
 43
0.0000000001
 40
0.0
 40
0.0
 40
0.0
 40
0.0
 40
0.4781935706696427
 40
0.7362656118646075
 40
1.0
 40
1.0
 40
1.0
 40
1.0
 10
110.440848016744
 20
697.9899968532683
 30
0.0
 10
110.4375571460079
 20
698.0317466877196
 30
0.0
 10
110.4320959260011
 20
698.086173006477
 30
0.0
 10
110.3942949283817
 20
698.1602087612857
 30
0.0
 10
110.3691074008066
 20
698.1893514116939
 30
0.0
 10
110.3537120834742
 20
698.2065698122759
 30
0.0
  0
SPLINE
  5
162
330
13D
100
AcDbEntity
  8
DV2_Default
  6
Continuous
 62
     7
100
AcDbSpline
210
0.0
220
0.0
230
1.0
 70
     8
 71
     3
 72
    30
 73
    26
 74
     0
 42
0.0000000001402598
 43
0.0000000001
 40
0.0
 40
0.0
 40
0.0
 40
0.0
 40
0.0260876287326025
 40
0.0487300972554819
 40
0.0676320184575413
 40
0.0903047083263347
 40
0.1156049361113981
 40
0.1526443169038758
 40
0.1907197195928223
 40
0.2291588357656642
 40
0.2687691687643093
 40
0.3113645049918254
 40
0.3715442393430049
 40
0.4367347981099772
 40
0.5067691452147272
 40
0.5781863873478456
 40
0.6445223703505055
 40
0.7056504174960373
 40
0.7439155676315341
 40
0.7798654105818559
 40
0.8137796785894706
 40
0.8521815659166443
 40
0.8976656241752184
 40
0.9498718487785405
 40
1.0
 40
1.0
 40
1.0
 40
1.0
 10
109.2769299586326
 20
626.7095203292852
 30
0.0
 10
109.2711417871315
 20
627.3913677289563
 30
0.0
 10
109.2622119001116
 20
628.4622534965782
 30
0.0
 10
109.2532147201294
 20
630.0993612699189
 30
0.0
 10
109.2474870354384
 20
631.618608492725
 30
0.0
 10
109.244335677059
 20
633.2097293824829
 30
0.0
 10
109.2443400200376
 20
635.2291936195011
 30
0.0
 10
109.2502867697003
 20
637.6156634221444
 30
0.0
 10
109.2647332842956
 20
640.3140276707178
 30
0.0
 10
109.2871980026719
 20
643.0735996824118
 30
0.0
 10
109.3183471715325
 20
645.940530596589
 30
0.0
 10
109.3644736619247
 20
649.3240190534198
 30
0.0
 10
109.4315067687388
 20
653.3152269724822
 30
0.0
 10
109.5249294722895
 20
657.9582161017543
 30
0.0
 10
109.6383706432939
 20
662.8679610347107
 30
0.0
 10
109.7644206665929
 20
667.8046814247688
 30
0.0
 10
109.8911844049045
 20
672.5296540582592
 30
0.0
 10
109.9977766058975
 20
676.4670378349973
 30
0.0
 10
110.0831212674529
 20
679.6824681656079
 30
0.0
 10
110.1493055283453
 20
682.2516913552774
 30
0.0
 10
110.2125711189634
 20
684.8232421784281
 30
0.0
 10
110.277054315859
 20
687.6256908051245
 30
0.0
 10
110.3428801188441
 20
690.8429550649171
 30
0.0
 10
110.4044550790699
 20
694.4272482400667
 30
0.0
 10
110.4266007769532
 20
696.6821512965447
 30
0.0
 10
110.4391473556947
 20
697.9926054586316
 30
0.0
  0
SPLINE
  5
163
330
13D
100
AcDbEntity
  8
DV2_Default
  6
Continuous
 62
     7
100
AcDbSpline
210
0.0
220
0.0
230
1.0
 70
     8
 71
     3
 72
    48
 73
    44
 74
     0
 42
0.0000000002047021
 43
0.0000000001
 40
0.0
 40
0.0
 40
0.0
 40
0.0
 40
0.0228485937671035
 40
0.0458120347099391
 40
0.0668820419817105
 40
0.0947149051329095
 40
0.1179475453840448
 40
0.13666616674369
 40
0.1533606736832507
 40
0.1705550570602183
 40
0.1887119218705221
 40
0.2081624203215597
 40
0.2265881241396389
 40
0.2423878261491593
 40
0.2557946783082287
 40
0.2697530566382246
 40
0.2841316476667426
 40
0.3009753429984383
 40
0.3203568185399796
 40
0.3423493178350653
 40
0.3752272843569506
 40
0.4115682799227008
 40
0.4471555214283935
 40
0.5078507603445663
 40
0.5646583279615289
 40
0.6180239857454751
 40
0.650531979105963
 40
0.6831743836351578
 40
0.7159256920331947
 40
0.7487593843905214
 40
0.7800757045404071
 40
0.7951706346354515
 40
0.8083825743088515
 40
0.8197076368655211
 40
0.8291437367029911
 40
0.8366900095326012
 40
0.8444238180250909
 40
0.8554024707875465
 40
0.874996306016629
 40
0.9003176990799753
 40
0.931329114910301
 40
0.9679609796198814
 40
0.9999999999999999
 40
0.9999999999999999
 40
0.9999999999999999
 40
0.9999999999999999
 10
88.34853551163197
 20
708.0699855110047
 30
0.0
 10
87.68117090514069
 20
708.0546282673514
 30
0.0
 10
86.55169796366846
 20
708.0206586657138
 30
0.0
 10
84.75993975683966
 20
707.7235864542893
 30
0.0
 10
82.92054048037527
 20
707.2423869806805
 30
0.0
 10
81.1222597872271
 20
706.5588126726641
 30
0.0
 10
79.47885878558691
 20
705.7034360135299
 30
0.0
 10
78.17971412460199
 20
704.845340203911
 30
0.0
 10
77.10807065563101
 20
703.9773824872029
 30
0.0
 10
76.18729414318123
 20
703.0722668928879
 30
0.0
 10
75.37103552328576
 20
702.1000417944987
 30
0.0
 10
74.69320963652777
 20
701.1150163093114
 30
0.0
 10
74.15693558199155
 20
700.1625886037463
 30
0.0
 10
73.77171860783018
 20
699.3359748949789
 30
0.0
 10
73.49463193382533
 20
698.6332909275691
 30
0.0
 10
73.31818992628273
 20
698.1172192168345
 30
0.0
 10
73.19002182338673
 20
697.704653611306
 30
0.0
 10
73.06001099894843
 20
697.2473410349869
 30
0.0
 10
72.93199015481753
 20
696.7491162360607
 30
0.0
 10
72.78422355291444
 20
696.1154517458383
 30
0.0
 10
72.6202919414916
 20
695.3254959837935
 30
0.0
 10
72.4444544320458
 20
694.3695468826855
 30
0.0
 10
72.22512335902218
 20
693.0455329105191
 30
0.0
 10
71.9803331268194
 20
691.3714208624882
 30
0.0
 10
71.71671729795919
 20
689.3285468379553
 30
0.0
 10
71.5047133876181
 20
687.5167526788128
 30
0.0
 10
71.33030777217739
 20
685.9215917706598
 30
0.0
 10
71.18763957654248
 20
684.5522862346471
 30
0.0
 10
71.0458552638418
 20
683.1283939077535
 30
0.0
 10
70.90743728454277
 20
681.6768361702389
 30
0.0
 10
70.79539640355225
 20
680.453047062107
 30
0.0
 10
70.71142813338685
 20
679.5089132471204
 30
0.0
 10
70.65581691941628
 20
678.8725983380508
 30
0.0
 10
70.6083105939221
 20
678.3207796455662
 30
0.0
 10
70.56887225859114
 20
677.8568335007822
 30
0.0
 10
70.53456231706403
 20
677.4490234146004
 30
0.0
 10
70.49833355256717
 20
677.014392767085
 30
0.0
 10
70.44572635607851
 20
676.3760635475501
 30
0.0
 10
70.36938006368199
 20
675.4322901857824
 30
0.0
 10
70.26641969181246
 20
674.1247799840432
 30
0.0
 10
70.14148051323974
 20
672.4850268716782
 30
0.0
 10
70.00900034157475
 20
670.6778333069343
 30
0.0
 10
69.91883055914823
 20
669.3995952959542
 30
0.0
 10
69.8770098779707
 20
668.796107376423
 30
0.0
  0
ARC
  5
164
330
13D
100
AcDbEntity
  8
DV2_Default
  6
Continuous
 62
     7
100
AcDbCircle
 10
-234.7983061073
 20
627.4192121059
 30
0.0
 40
302.2237073121177
100
AcDbArc
 50
358.0549173821
 51
359.9149845611
  0
ARC
  5
165
330
13D
100
AcDbEntity
  8
DV2_Default
  6
Continuous
 62
     7
100
AcDbCircle
 10
368.2763501031
 20
626.6604482769
 30
0.0
 40
259.0016044633907
100
AcDbArc
 50
179.9313518748
 51
182.0987098297
  0
SPLINE
  5
166
330
13D
100
AcDbEntity
  8
DV2_Default
  6
Continuous
 62
     7
100
AcDbSpline
210
0.0
220
0.0
230
1.0
 70
     8
 71
     3
 72
     9
 73
     5
 74
     0
 42
0.0000000022340742
 43
0.0000000001
 40
0.0
 40
0.0
 40
0.0
 40
0.0
 40
0.748270606263245
 40
1.0
 40
1.0
 40
1.0
 40
1.0
 10
108.0504142988861
 20
647.4799505064107
 30
0.0
 10
107.9898608555564
 20
648.7265019202503
 30
0.0
 10
107.9212373170955
 20
650.133830866345
 30
0.0
 10
107.8471183782201
 20
651.5841285423287
 30
0.0
 10
107.8281990843605
 20
651.9505546744166
 30
0.0
  0
SPLINE
  5
167
330
13D
100
AcDbEntity
  8
DV2_Default
  6
Continuous
 62
     7
100
AcDbSpline
210
0.0
220
0.0
230
1.0
 70
     8
 71
     3
 72
    10
 73
     6
 74
     0
 42
0.0000000012672821
 43
0.0000000001
 40
0.0
 40
0.0
 40
0.0
 40
0.0
 40
0.4327722432086571
 40
0.8825366521891261
 40
1.0
 40
1.0
 40
1.0
 40
1.0
 10
107.6261321152878
 20
655.7432360130898
 30
0.0
 10
107.5611899257029
 20
656.9279294410719
 30
0.0
 10
107.4284973270094
 20
659.2852650652381
 30
0.0
 10
107.2729360748311
 20
661.8852043319785
 30
0.0
 10
107.1832395032968
 20
663.3241365970933
 30
0.0
 10
107.1646026261381
 20
663.6206005719356
 30
0.0
  0
SPLINE
  5
168
330
13D
100
AcDbEntity
  8
DV2_Default
  6
Continuous
 62
     7
100
AcDbSpline
210
0.0
220
0.0
230
1.0
 70
     8
 71
     3
 72
    47
 73
    43
 74
     0
 42
0.000000000225381
 43
0.0000000001
 40
0.0
 40
0.0
 40
0.0
 40
0.0
 40
0.001313175792724
 40
0.0187150888063479
 40
0.0313359003154536
 40
0.0403114354538007
 40
0.0460310833755045
 40
0.0528604997145627
 40
0.062011442662611
 40
0.0734850857561965
 40
0.0899899106829789
 40
0.1097193460605342
 40
0.1326663821444599
 40
0.1582904550226569
 40
0.2180009995621597
 40
0.2744218984362961
 40
0.3274977068367068
 40
0.3699533145420976
 40
0.4135699037582487
 40
0.4603257889329468
 40
0.5100858173113616
 40
0.5511845060272957
 40
0.5933797417936361
 40
0.6311224828302375
 40
0.66321818629244
 40
0.6790255978576941
 40
0.6931226550923245
 40
0.7055494136897013
 40
0.7178337727968623
 40
0.7323344550361318
 40
0.749444085409067
 40
0.769437091424754
 40
0.7910704792735439
 40
0.8112713998170437
 40
0.830300222779832
 40
0.848681292506853
 40
0.8689381236067725
 40
0.8941921515675691
 40
0.9245829842127983
 40
0.9476612059015316
 40
0.9728619655617368
 40
1.0
 40
1.0
 40
1.0
 40
1.0
 10
106.49825319951
 20
673.2615860047489
 30
0.0
 10
106.4966342849539
 20
673.2828817963089
 30
0.0
 10
106.4735575434056
 20
673.5862360041319
 30
0.0
 10
106.4348154151838
 20
674.0906125848581
 30
0.0
 10
106.3863807275078
 20
674.7113904628084
 30
0.0
 10
106.3523406354446
 20
675.1427600015852
 30
0.0
 10
106.325388924931
 20
675.4816506777128
 30
0.0
 10
106.2980511940209
 20
675.8230979616835
 30
0.0
 10
106.2633588523761
 20
676.2527310931297
 30
0.0
 10
106.2162758017622
 20
676.8294002274438
 30
0.0
 10
106.1555446731308
 20
677.5620465688665
 30
0.0
 10
106.0798733024357
 20
678.45693813963
 30
0.0
 10
105.992121768626
 20
679.470128818789
 30
0.0
 10
105.8523536219935
 20
681.0395440966281
 30
0.0
 10
105.6669776294207
 20
683.0167693650169
 30
0.0
 10
105.4423178496461
 20
685.2443489011099
 30
0.0
 10
105.2376866549883
 20
687.1328495750571
 30
0.0
 10
105.0486225403733
 20
688.7646970305003
 30
0.0
 10
104.8637602722259
 20
690.2588713132147
 30
0.0
 10
104.6630196703459
 20
691.7578654350708
 30
0.0
 10
104.4604223848515
 20
693.1298697991599
 30
0.0
 10
104.2586968208513
 20
694.3549410736043
 30
0.0
 10
104.0725837413886
 20
695.3644267584722
 30
0.0
 10
103.8861090536729
 20
696.2526910699005
 30
0.0
 10
103.7247527283102
 20
696.9225402388835
 30
0.0
 10
103.5909663823477
 20
697.418453437702
 30
0.0
 10
103.4864690125619
 20
697.7760183942562
 30
0.0
 10
103.3826532228996
 20
698.1068185954806
 30
0.0
 10
103.2358211430585
 20
698.5399960949189
 30
0.0
 10
102.9928836106598
 20
699.1757450547802
 30
0.0
 10
102.6286084564932
 20
699.9855972003123
 30
0.0
 10
102.1112826220238
 20
700.9377296505555
 30
0.0
 10
101.4517863478968
 20
701.9294791862801
 30
0.0
 10
100.6461549817031
 20
702.9194868733772
 30
0.0
 10
99.73223170929944
 20
703.8438862449638
 30
0.0
 10
98.66998043134562
 20
704.7279183684687
 30
0.0
 10
97.38051634066088
 20
705.6018604795464
 30
0.0
 10
95.74981553564244
 20
706.4741062679989
 30
0.0
 10
93.95542346301838
 20
707.1775751010388
 30
0.0
 10
92.11151330960551
 20
707.6799467582055
 30
0.0
 10
90.26075986759481
 20
708.0026317029964
 30
0.0
 10
89.07756579500352
 20
708.0481429848793
 30
0.0
 10
88.35002118949569
 20
708.0706201434897
 30
0.0
  0
SPLINE
  5
169
330
13D
100
AcDbEntity
  8
DV2_Default
  6
Continuous
 62
     7
100
AcDbSpline
210
0.0
220
0.0
230
1.0
 70
     8
 71
     3
 72
    13
 73
     9
 74
     0
 42
0.0000000013490015
 43
0.0000000001
 40
0.0
 40
0.0
 40
0.0
 40
0.0
 40
0.2210194889972086
 40
0.4601141670608628
 40
0.6850888169890661
 40
0.8006838850836138
 40
0.9192427454468323
 40
1.0
 40
1.0
 40
1.0
 40
1.0
 10
66.00872375886738
 20
698.2950615548784
 30
0.0
 10
65.98114015854722
 20
698.2947611291992
 30
0.0
 10
66.22004248147428
 20
698.2952436536015
 30
0.0
 10
67.35190746936138
 20
698.2951046185814
 30
0.0
 10
69.02738376429916
 20
698.2952152023123
 30
0.0
 10
70.73881797466369
 20
698.2950433047752
 30
0.0
 10
72.06622327707446
 20
698.2951219203584
 30
0.0
 10
72.9830372862925
 20
698.2951387368558
 30
0.0
 10
73.36644449489042
 20
698.2951420481957
 30
0.0
  0
LINE
  5
16A
330
13D
100
AcDbEntity
  8
DV2_Default
  6
Continuous
 62
     7
100
AcDbLine
 10
110.6925175559
 20
698.2951275278
 30
0.0
 11
103.3329458483
 21
698.2951275278
 31
0.0
  0
SPLINE
  5
16B
330
13D
100
AcDbEntity
  8
DV2_Default
  6
Continuous
 62
     7
100
AcDbSpline
210
0.0
220
0.0
230
1.0
 70
     8
 71
     3
 72
    13
 73
     9
 74
     0
 42
0.0000000010494818
 43
0.0000000001
 40
0.0
 40
0.0
 40
0.0
 40
0.0
 40
0.1865733240295401
 40
0.3899284594261692
 40
0.5932807961430453
 40
0.7966302300663476
 40
0.9999858323743787
 40
1.0
 40
1.0
 40
1.0
 40
1.0
 10
100.9238555221681
 20
702.5485895664659
 30
0.0
 10
102.0147165381192
 20
702.5482975370601
 30
0.0
 10
104.1549818507273
 20
702.5515839416996
 30
0.0
 10
106.8451380314301
 20
702.5588556214179
 30
0.0
 10
108.9012575045887
 20
702.5529591305498
 30
0.0
 10
110.1673643861749
 20
702.550367564207
 30
0.0
 10
110.4522325864622
 20
702.5522927137624
 30
0.0
 10
110.4523364284824
 20
702.552308025034
 30
0.0
 10
110.4523364350258
 20
702.5523080260961
 30
0.0
  0
SPLINE
  5
16C
330
13D
100
AcDbEntity
  8
DV2_Default
  6
Continuous
 62
     7
100
AcDbSpline
210
0.0
220
0.0
230
1.0
 70
     8
 71
     3
 72
    14
 73
    10
 74
     0
 42
0.0000000010523796
 43
0.0000000001
 40
0.0
 40
0.0
 40
0.0
 40
0.0
 40
0.0000069533477444
 40
0.0510106396715336
 40
0.2038888546924642
 40
0.4582673670608882
 40
0.6238567496361459
 40
0.8148559944463863
 40
1.0
 40
1.0
 40
1.0
 40
1.0
 10
66.25571407586735
 20
702.5529196125249
 30
0.0
 10
66.25571407641335
 20
702.5529196488411
 30
0.0
 10
66.2557193088406
 20
702.5531860305612
 30
0.0
 10
66.2912545589141
 20
702.5522943393244
 30
0.0
 10
66.68952648157257
 20
702.5507743307772
 30
0.0
 10
67.97843239692833
 20
702.5542216160392
 30
0.0
 10
70.14616533856102
 20
702.5584346434848
 30
0.0
 10
72.61335101285088
 20
702.5511151484972
 30
0.0
 10
74.67677634616997
 20
702.5487074507113
 30
0.0
 10
75.757692312823
 20
702.5487045854915
 30
0.0
  0
ARC
  5
16D
330
13D
100
AcDbEntity
  8
DV2_Default
  6
Continuous
 62
     7
100
AcDbCircle
 10
110.3173321734
 20
700.2845780419
 30
0.0
 40
2.009522864050763
100
AcDbArc
 50
280.1488566624
 51
80.6284553142
  0
ARC
  5
16E
330
13D
100
AcDbEntity
  8
DV2_Default
  6
Continuous
 62
     7
100
AcDbCircle
 10
110.7523269786
 20
702.5525871572
 30
0.0
 40
0.3000030443344968
100
AcDbArc
 50
179.613356025
 51
260.1778946126
  0
ARC
  5
16F
330
13D
100
AcDbEntity
  8
DV2_Default
  6
Continuous
 62
     7
100
AcDbCircle
 10
65.9557150866
 20
702.5528540713
 30
0.0
 40
0.3000002532337932
100
AcDbArc
 50
279.8604051866
 51
0.5637051462
  0
ARC
  5
170
330
13D
100
AcDbEntity
  8
DV2_Default
  6
Continuous
 62
     7
100
AcDbCircle
 10
66.3786738995
 20
700.2867627979
 30
0.0
 40
2.005600112372903
100
AcDbArc
 50
99.059207117
 51
259.9648563686
  0
LINE
  5
171
330
13D
100
AcDbEntity
  8
DV2_Default
  6
Continuous
 62
     7
100
AcDbLine
 10
110.4379979925
 20
702.5522697161
 30
0.0
 11
110.4365661368
 21
703.0887097206
 31
0.0
  0
ARC
  5
172
330
13D
100
AcDbEntity
  8
DV2_Default
  6
Continuous
 62
     7
100
AcDbCircle
 10
264.1773043024
 20
704.0127559279
 30
0.0
 40
197.9130896139907
100
AcDbArc
 50
178.3476761481
 51
180.4226153274
  0
ARC
  5
173
330
13D
100
AcDbEntity
  8
DV2_Default
  6
Continuous
 62
     7
100
AcDbCircle
 10
-73.0274037432
 20
704.2975647073
 30
0.0
 40
183.459858506171
100
AcDbArc
 50
359.6224655336
 51
1.8377633217
  0
ARC
  5
174
330
13D
100
AcDbEntity
  8
DV2_Default
  6
Continuous
 62
     7
100
AcDbCircle
 10
66.8480425099
 20
710.1687571438
 30
0.0
 40
0.4999998798413531
100
AcDbArc
 50
161.709119969
 51
179.0450288784
  0
LINE
  5
175
330
13D
100
AcDbEntity
  8
DV2_Default
  6
Continuous
 62
     7
100
AcDbLine
 10
66.3486378394
 20
710.1989146834
 30
0.0
 11
66.3362646464
 21
709.7020085708
 31
0.0
  0
ELLIPSE
  5
176
330
13D
100
AcDbEntity
  8
DV2_Default
  6
Continuous
 62
     7
100
AcDbEllipse
 10
88.35
 20
653.3194656263
 30
0.0
 11
10.55
 21
0.0
 31
0.0
210
0.0
220
0.0
230
1.0
 40
0.2588190451
 41
1.58612348952485
 42
2.230175949391317
  0
ELLIPSE
  5
177
330
13D
100
AcDbEntity
  8
DV2_Default
  6
Continuous
 62
     7
100
AcDbEllipse
 10
88.35
 20
653.3194656263
 30
0.0
 11
10.55
 21
0.0
 31
0.0
210
0.0
220
0.0
230
1.0
 40
0.2588190451
 41
0.7680722572708816
 42
1.570796326794897
  0
SPLINE
  5
178
330
13D
100
AcDbEntity
  8
DV2_Default
  6
Continuous
 62
     7
100
AcDbSpline
210
0.0
220
0.0
230
1.0
 70
     8
 71
     3
 72
    31
 73
    27
 74
     0
 42
0.0000000004674053
 43
0.0000000001
 40
0.0
 40
0.0
 40
0.0
 40
0.0
 40
0.0461342740307237
 40
0.0919280433562776
 40
0.1373813015313599
 40
0.1824940421868258
 40
0.2272662590295367
 40
0.2716979458421971
 40
0.3157890964832058
 40
0.3595397048864965
 40
0.402949765061391
 40
0.4460192710924564
 40
0.4887482171393582
 40
0.5311365974367168
 40
0.5731844062939775
 40
0.6148916380952677
 40
0.6562582872992695
 40
0.6972843484390917
 40
0.7379698161221384
 40
0.7783146850299889
 40
0.8183189499182811
 40
0.8579826056165875
 40
0.8973056470283053
 40
0.9362880691305442
 40
0.9749298669740177
 40
1.0
 40
1.0
 40
1.0
 40
1.0
 10
88.34999991993507
 20
658.9444545137927
 30
0.0
 10
87.8860931213025
 20
658.9424226021983
 30
0.0
 10
86.96170359446424
 20
658.9376509160267
 30
0.0
 10
85.58674354505656
 20
658.8995624629108
 30
0.0
 10
84.23469823109153
 20
658.8396437153979
 30
0.0
 10
82.91138929266052
 20
658.756484661814
 30
0.0
 10
81.62228200795889
 20
658.6515658973426
 30
0.0
 10
80.372472430289
 20
658.5257031505568
 30
0.0
 10
79.16667571675397
 20
658.3799777304873
 30
0.0
 10
78.00921797630721
 20
658.2154785493746
 30
0.0
 10
76.90403085392956
 20
658.0333591429421
 30
0.0
 10
75.85464887624373
 20
657.8348114759258
 30
0.0
 10
74.86420935670881
 20
657.6210620764791
 30
0.0
 10
73.93545470829156
 20
657.3933625983088
 30
0.0
 10
73.07073699034909
 20
657.1529822477069
 30
0.0
 10
72.27202451638098
 20
656.9012001474432
 30
0.0
 10
71.5409103458086
 20
656.6392981834788
 30
0.0
 10
70.87862248235695
 20
656.3685542194896
 30
0.0
 10
70.28603560211629
 20
656.0902357335584
 30
0.0
 10
69.76368413627576
 20
655.8055938811568
 30
0.0
 10
69.31177653660208
 20
655.5158579967313
 30
0.0
 10
68.93021055589308
 20
655.2222305392204
 30
0.0
 10
68.61858938073252
 20
654.9258824841762
 30
0.0
 10
68.37623845979584
 20
654.6279491616838
 30
0.0
 10
68.22208398311275
 20
654.3635867232435
 30
0.0
 10
68.156576161063
 20
654.1986265098944
 30
0.0
 10
68.13548074467154
 20
654.133614212926
 30
0.0
  0
SPLINE
  5
179
330
13D
100
AcDbEntity
  8
DV2_Default
  6
Continuous
 62
     7
100
AcDbSpline
210
0.0
220
0.0
230
1.0
 70
     8
 71
     3
 72
     8
 73
     4
 74
     0
 42
0.000000107007668
 43
0.0000000001
 40
0.0
 40
0.0
 40
0.0
 40
0.0
 40
1.0
 40
1.0
 40
1.0
 40
1.0
 10
68.13548074467154
 20
654.133614212926
 30
0.0
 10
68.12578553044251
 20
654.1037352982396
 30
0.0
 10
68.11707912657977
 20
654.073834885812
 30
0.0
 10
68.10936310143748
 20
654.043917357337
 30
0.0
  0
SPLINE
  5
17A
330
13D
100
AcDbEntity
  8
DV2_Default
  6
Continuous
 62
     7
100
AcDbSpline
210
0.0
220
0.0
230
1.0
 70
     8
 71
     3
 72
     8
 73
     4
 74
     0
 42
0.0000001664053989
 43
0.0000000001
 40
0.0
 40
0.0
 40
0.0
 40
0.0
 40
0.9999999999999999
 40
0.9999999999999999
 40
0.9999999999999999
 40
0.9999999999999999
 10
108.5817950048622
 20
654.0766467334752
 30
0.0
 10
108.576385078753
 20
654.0958204535258
 30
0.0
 10
108.5705683971336
 20
654.1149864897704
 30
0.0
 10
108.5643452367411
 20
654.1341436842831
 30
0.0
  0
SPLINE
  5
17B
330
13D
100
AcDbEntity
  8
DV2_Default
  6
Continuous
 62
     7
100
AcDbSpline
210
0.0
220
0.0
230
1.0
 70
     8
 71
     3
 72
    22
 73
    18
 74
     0
 42
0.0000000004672096
 43
0.0000000001
 40
0.0
 40
0.0
 40
0.0
 40
0.0
 40
0.017113217238017
 40
0.0812338402034851
 40
0.1462908864937197
 40
0.2122843132182733
 40
0.2792140766412906
 40
0.3470801321801273
 40
0.4158824344039265
 40
0.4856209370321198
 40
0.5562955929328722
 40
0.6279063541214722
 40
0.7004531717586564
 40
0.7739359961488769
 40
0.848354776738511
 40
0.9237094621140123
 40
1.0
 40
1.0
 40
1.0
 40
1.0
 10
108.5643452367411
 20
654.1341436842831
 30
0.0
 10
108.5499309605433
 20
654.1785161695584
 30
0.0
 10
108.4711569973836
 20
654.3889204425886
 30
0.0
 10
108.2409458973987
 20
654.7653206747552
 30
0.0
 10
107.7491760480151
 20
655.2575719229013
 30
0.0
 10
107.0650029286527
 20
655.7420024455516
 30
0.0
 10
106.1871930083389
 20
656.213213080798
 30
0.0
 10
105.1168304214483
 20
656.6655934087695
 30
0.0
 10
103.8575070520414
 20
657.0933847031309
 30
0.0
 10
102.4154900969825
 20
657.4907560259419
 30
0.0
 10
100.7998612171881
 20
657.8518740297459
 30
0.0
 10
99.02262128305966
 20
658.1710387843402
 30
0.0
 10
97.09875441615512
 20
658.4426075278815
 30
0.0
 10
95.0462460737256
 20
658.6617606903719
 30
0.0
 10
92.88604651367048
 20
658.8220933382374
 30
0.0
 10
90.64198527859261
 20
658.9253047577398
 30
0.0
 10
89.11713186304615
 20
658.9382864095488
 30
0.0
 10
88.34999991993507
 20
658.9444545137927
 30
0.0
  0
SPLINE
  5
17C
330
13D
100
AcDbEntity
  8
DV2_Default
  6
Continuous
 62
     7
100
AcDbSpline
210
0.0
220
0.0
230
1.0
 70
     8
 71
     3
 72
    14
 73
    10
 74
     0
 42
0.000000000587182
 43
0.0000000001
 40
0.0
 40
0.0
 40
0.0
 40
0.0
 40
0.1816882479595385
 40
0.1816882479595385
 40
0.3633764959190771
 40
0.3633764959190771
 40
0.7267529918381541
 40
0.7267529918381541
 40
1.0
 40
1.0
 40
1.0
 40
1.0
 10
88.35000000000478
 20
660.1588833363589
 30
0.0
 10
87.09930371718977
 20
660.1588834222235
 30
0.0
 10
85.86638985540432
 20
660.1271204309593
 30
0.0
 10
83.43517983166733
 20
660.0017600858458
 30
0.0
 10
82.2298856746038
 20
659.9068170241576
 30
0.0
 10
78.80711744627064
 20
659.5389431281089
 30
0.0
 10
76.69749027171055
 20
659.1732398774743
 30
0.0
 10
73.64432037841938
 20
658.3821256365105
 30
0.0
 10
72.52133154682409
 20
657.9886937823887
 30
0.0
 10
71.64339229753038
 20
657.5634000264778
 30
0.0
  0
SPLINE
  5
17D
330
13D
100
AcDbEntity
  8
DV2_Default
  6
Continuous
 62
     7
100
AcDbSpline
210
0.0
220
0.0
230
1.0
 70
     8
 71
     3
 72
    16
 73
    12
 74
     0
 42
0.0000000005870901
 43
0.0000000001
 40
0.0
 40
0.0
 40
0.0
 40
0.0
 40
0.0916625590802556
 40
0.0916625590802556
 40
0.2733300472642045
 40
0.2733300472642045
 40
0.6366650236321022
 40
0.6366650236321022
 40
0.818332511816051
 40
0.818332511816051
 40
1.0
 40
1.0
 40
1.0
 40
1.0
 10
105.0627487193083
 20
657.5612805438985
 30
0.0
 10
104.7703625709964
 20
657.7034424683319
 30
0.0
 10
104.4504500986203
 20
657.8420100458941
 30
0.0
 10
103.4138576538561
 20
658.2444158621859
 30
0.0
 10
102.6183119355145
 20
658.4953928139855
 30
0.0
 10
100.0041438007684
 20
659.172929532378
 30
0.0
 10
97.89242195837697
 20
659.5388803133644
 30
0.0
 10
94.47454775649545
 20
659.9063949952406
 30
0.0
 10
93.27311940503458
 20
660.0012426917812
 30
0.0
 10
90.83534024641986
 20
660.1271192863021
 30
0.0
 10
89.60069628281981
 20
660.1588832504945
 30
0.0
 10
88.35000000000478
 20
660.1588833363589
 30
0.0
  0
ELLIPSE
  5
17E
330
13D
100
AcDbEntity
  8
DV2_Default
  6
Continuous
 62
     7
100
AcDbEllipse
 10
88.35
 20
653.8024285394
 30
0.0
 11
10.05
 21
0.0
 31
0.0
210
0.0
220
0.0
230
1.0
 40
0.2588190451
 41
3.131283179370147
 42
3.141592653589793
  0
ELLIPSE
  5
17F
330
13D
100
AcDbEntity
  8
DV2_Default
  6
Continuous
 62
     7
100
AcDbEllipse
 10
88.35
 20
653.8024285394
 30
0.0
 11
10.05
 21
0.0
 31
0.0
210
0.0
220
0.0
230
1.0
 40
0.2588190451
 41
3.141592653589793
 42
6.278653899701722
  0
SPLINE
  5
180
330
13D
100
AcDbEntity
  8
DV2_Default
  6
Continuous
 62
     7
100
AcDbSpline
210
0.0
220
0.0
230
1.0
 70
     8
 71
     3
 72
    33
 73
    29
 74
     0
 42
0.0000000004419624
 43
0.0000000001
 40
0.0
 40
0.0
 40
0.0
 40
0.0
 40
0.0205914198586117
 40
0.0507034903628405
 40
0.0863703763817044
 40
0.124202776098747
 40
0.1638801460375046
 40
0.2055585004488417
 40
0.24799048672257
 40
0.2906130716051187
 40
0.3333356696410535
 40
0.3761277323038954
 40
0.4189686799248308
 40
0.4618393897701262
 40
0.5047216034247733
 40
0.5475961508401491
 40
0.5904408081286431
 40
0.6332271618246472
 40
0.6759153277828397
 40
0.7184439927863487
 40
0.7607094896581538
 40
0.8025160044926949
 40
0.8434359796982825
 40
0.8823086008607867
 40
0.9165459094866798
 40
0.9424335633133901
 40
0.9718638351849279
 40
1.0
 40
1.0
 40
1.0
 40
1.0
 10
68.13692357089315
 20
654.1381460977018
 30
0.0
 10
68.106457466058
 20
654.0319570687199
 30
0.0
 10
68.04449279300725
 20
653.8106762369209
 30
0.0
 10
68.01858647410936
 20
653.4883499171607
 30
0.0
 10
68.05774740523779
 20
653.1409122688832
 30
0.0
 10
68.18277412963904
 20
652.7835343037754
 30
0.0
 10
68.39882320801426
 20
652.422459346397
 30
0.0
 10
68.71363499139092
 20
652.0592248243835
 30
0.0
 10
69.13035029068809
 20
651.6977616196605
 30
0.0
 10
69.64410186338235
 20
651.3447207325964
 30
0.0
 10
70.25099039121116
 20
651.0028521796883
 30
0.0
 10
70.94803023142998
 20
650.6736988520305
 30
0.0
 10
71.7319257480869
 20
650.3586919427238
 30
0.0
 10
72.59883007250104
 20
650.0592878092721
 30
0.0
 10
73.54431689792057
 20
649.7769289349905
 30
0.0
 10
74.5633739854602
 20
649.5130153224169
 30
0.0
 10
75.65037488604881
 20
649.2688824180414
 30
0.0
 10
76.79900781530601
 20
649.0457859611676
 30
0.0
 10
78.00211939151488
 20
648.8448916619309
 30
0.0
 10
79.25134895470123
 20
648.6672719732285
 30
0.0
 10
80.53630994239754
 20
648.5139145432905
 30
0.0
 10
81.84218266064266
 20
648.3857731472873
 30
0.0
 10
83.14253832021147
 20
648.2839522070933
 30
0.0
 10
84.3826936246915
 20
648.209578249657
 30
0.0
 10
85.47437589655749
 20
648.1619564726859
 30
0.0
 10
86.46234368504884
 20
648.1318670608155
 30
0.0
 10
87.41049138544462
 20
648.114054329872
 30
0.0
 10
88.00624159381044
 20
648.1116862306204
 30
0.0
 10
88.35156689089007
 20
648.1106202356453
 30
0.0
  0
SPLINE
  5
181
330
13D
100
AcDbEntity
  8
DV2_Default
  6
Continuous
 62
     7
100
AcDbSpline
210
0.0
220
0.0
230
1.0
 70
     8
 71
     3
 72
    35
 73
    31
 74
     0
 42
0.000000000442014
 43
0.0000000001
 40
0.0
 40
0.0
 40
0.0
 40
0.0
 40
0.046292123902815
 40
0.0654045015135928
 40
0.0970306490639394
 40
0.1298233277812781
 40
0.1649226434504779
 40
0.2014343913178214
 40
0.2389911398327499
 40
0.2772987398006103
 40
0.3161469866118844
 40
0.3553788326975124
 40
0.3948742894286112
 40
0.434539374787376
 40
0.4742987133944008
 40
0.5140904847530137
 40
0.5538629397069745
 40
0.5935719838360449
 40
0.6331794912051898
 40
0.6726520897546716
 40
0.7119601557398543
 40
0.751076644440266
 40
0.7899690326366804
 40
0.8285816061545593
 40
0.8650584835569404
 40
0.8995931793468049
 40
0.9323433261369343
 40
0.9621115722320261
 40
0.9870272023507258
 40
1.0
 40
1.0
 40
1.0
 40
1.0
 10
88.34843253401253
 20
648.1106203050442
 30
0.0
 10
88.91654205172071
 20
648.1134815490017
 30
0.0
 10
89.5860062300021
 20
648.1174583715732
 30
0.0
 10
90.67620364191589
 20
648.1441135892662
 30
0.0
 10
91.5967116771009
 20
648.1763892752883
 30
0.0
 10
92.68944454026753
 20
648.2303094105383
 30
0.0
 10
93.82035797858664
 20
648.3033870306265
 30
0.0
 10
94.98393686291335
 20
648.3978719245418
 30
0.0
 10
96.15652166927397
 20
648.5139892762409
 30
0.0
 10
97.32267559367561
 20
648.651792772279
 30
0.0
 10
98.46926863006236
 20
648.8109411215979
 30
0.0
 10
99.58540917315536
 20
648.9908312341868
 30
0.0
 10
100.6618109802882
 20
649.190643473279
 30
0.0
 10
101.6904919212328
 20
649.4093852722833
 30
0.0
 10
102.6645589982698
 20
649.6459252787821
 30
0.0
 10
103.578074076695
 20
649.8990241349791
 30
0.0
 10
104.4259635525846
 20
650.1673640201308
 30
0.0
 10
105.2039557302355
 20
650.4495789152146
 30
0.0
 10
105.9085328719392
 20
650.7442884491021
 30
0.0
 10
106.5368843537806
 20
651.0501333722905
 30
0.0
 10
107.086861801274
 20
651.3658282612527
 30
0.0
 10
107.5568594074044
 20
651.690163698603
 30
0.0
 10
107.9457651201325
 20
652.0221234809471
 30
0.0
 10
108.2478242386647
 20
652.3552620329685
 30
0.0
 10
108.4646341579372
 20
652.6848274341711
 30
0.0
 10
108.6027423794251
 20
653.0076239431918
 30
0.0
 10
108.6703136554642
 20
653.3244162553125
 30
0.0
 10
108.6746686912481
 20
653.6295429899537
 30
0.0
 10
108.6341536590417
 20
653.8986529142837
 30
0.0
 10
108.58375985141
 20
654.0692511310284
 30
0.0
 10
108.5630848325725
 20
654.1381199729174
 30
0.0
  0
ARC
  5
182
330
13D
100
AcDbEntity
  8
DV2_Default
  6
Continuous
 62
     7
100
AcDbCircle
 10
73.8646875597
 20
651.7893111334
 30
0.0
 40
6.188796929587914
100
AcDbArc
 50
110.8826390385
 51
158.0286192631
  0
ARC
  5
183
330
13D
100
AcDbEntity
  8
DV2_Default
  6
Continuous
 62
     7
100
AcDbCircle
 10
102.8721094431
 20
651.826822901
 30
0.0
 40
6.140665625349463
100
AcDbArc
 50
21.775282754
 51
69.3134589444
  0
ARC
  5
184
330
13D
100
AcDbEntity
  8
DV2_Default
  6
Continuous
 62
     7
100
AcDbCircle
 10
60.5573722584
 20
661.4296000491
 30
0.0
 40
10.57892175778463
100
AcDbArc
 50
332.1301466866
 51
351.5303512248
  0
ARC
  5
185
330
13D
100
AcDbEntity
  8
DV2_Default
  6
Continuous
 62
     7
100
AcDbCircle
 10
116.1591415811
 20
661.4355786627
 30
0.0
 40
10.59614435901609
100
AcDbArc
 50
188.4884659952
 51
207.8264099866
  0
SPLINE
  5
186
330
13D
100
AcDbEntity
  8
DV2_Default
  6
Continuous
 62
     7
100
AcDbSpline
210
0.0
220
0.0
230
1.0
 70
     8
 71
     3
 72
    33
 73
    29
 74
     0
 42
0.0000000005325836
 43
0.0000000001
 40
0.0
 40
0.0
 40
0.0
 40
0.0
 40
0.0566690716137409
 40
0.0791598985722907
 40
0.116491291862489
 40
0.1550800845319227
 40
0.1963146288743616
 40
0.2391738920718981
 40
0.2832402620388479
 40
0.3281767322622386
 40
0.3737392306859424
 40
0.4197416401211184
 40
0.4660371489446539
 40
0.5125050751514008
 40
0.5590415065407756
 40
0.6055521750281674
 40
0.6519464997611796
 40
0.6981319258488007
 40
0.7440076452644637
 40
0.7894564203165079
 40
0.8341311299025393
 40
0.8748055375601359
 40
0.9134337425068885
 40
0.9491536229867283
 40
0.9785371619006491
 40
0.9939156376805294
 40
0.999526392636375
 40
1.0
 40
1.0
 40
1.0
 40
1.0
 10
88.35115781247731
 20
664.4870953058213
 30
0.0
 10
87.80268972284637
 20
664.4839313026915
 30
0.0
 10
87.16379158367714
 20
664.4796024195322
 30
0.0
 10
86.13301830933149
 20
664.4510185753354
 30
0.0
 10
85.27947422095602
 20
664.4173782663938
 30
0.0
 10
84.26908769927788
 20
664.3616132962957
 30
0.0
 10
83.2279900474228
 20
664.286551142686
 30
0.0
 10
82.16156255540398
 20
664.189983062278
 30
0.0
 10
81.09216519580701
 20
664.0717744064278
 30
0.0
 10
80.03478280915036
 20
663.9319724660814
 30
0.0
 10
79.00231767258188
 20
663.7710390787906
 30
0.0
 10
78.00561847430941
 20
663.5897214886921
 30
0.0
 10
77.05401365593873
 20
663.389009626666
 30
0.0
 10
76.15555163844364
 20
663.1700940748785
 30
0.0
 10
75.31716442086207
 20
662.9343330286481
 30
0.0
 10
74.54475624130394
 20
662.6832206002555
 30
0.0
 10
73.8432548129194
 20
662.4183591305018
 30
0.0
 10
73.2166127963317
 20
662.1414124741336
 30
0.0
 10
72.66785983914518
 20
661.8541082499938
 30
0.0
 10
72.19957000702902
 20
661.5584519672144
 30
0.0
 10
71.82214641898811
 20
661.2637166125938
 30
0.0
 10
71.52937120666269
 20
660.9729333642721
 30
0.0
 10
71.31318239789618
 20
660.6886016967633
 30
0.0
 10
71.16464016391784
 20
660.413047050354
 30
0.0
 10
71.07913498654975
 20
660.1647697665327
 30
0.0
 10
71.03803230448844
 20
659.9752276620195
 30
0.0
 10
71.01963362654121
 20
659.8532550306231
 30
0.0
 10
71.01399483721022
 20
659.8110498230972
 30
0.0
 10
71.01348585734611
 20
659.807235447782
 30
0.0
  0
SPLINE
  5
187
330
13D
100
AcDbEntity
  8
DV2_Default
  6
Continuous
 62
     7
100
AcDbSpline
210
0.0
220
0.0
230
1.0
 70
     8
 71
     3
 72
    31
 73
    27
 74
     0
 42
0.0000000005325431
 43
0.0000000001
 40
0.0
 40
0.0
 40
0.0
 40
0.0
 40
0.005532800238791
 40
0.0148786245362349
 40
0.0421282199801547
 40
0.0850242127245505
 40
0.1259982237482112
 40
0.1706809372721181
 40
0.2191107000462246
 40
0.2688515763526614
 40
0.3188122206648998
 40
0.3688989349021319
 40
0.4190489720921701
 40
0.4692163134660913
 40
0.5193615457798986
 40
0.5694440546701278
 40
0.6194136214385954
 40
0.6691977148686413
 40
0.718676920569496
 40
0.7676280987453614
 40
0.81556685673026
 40
0.8611872752994902
 40
0.9015902764305174
 40
0.9317991417220721
 40
0.9659618922994525
 40
1.0
 40
1.0
 40
1.0
 40
1.0
 10
105.6865119909966
 20
659.8072515680046
 30
0.0
 10
105.6810711316371
 20
659.8460183273515
 30
0.0
 10
105.6684465313487
 20
659.9350840747486
 30
0.0
 10
105.6342282312288
 20
660.1107384994735
 30
0.0
 10
105.5570419598961
 20
660.3669181863652
 30
0.0
 10
105.4045051272089
 20
660.6653510109815
 30
0.0
 10
105.1635270071775
 20
660.9831451771375
 30
0.0
 10
104.842310542689
 20
661.2965455606761
 30
0.0
 10
104.4181758090358
 20
661.6167100730863
 30
0.0
 10
103.8887846081237
 20
661.9358682038958
 30
0.0
 10
103.2646999561918
 20
662.2446092983377
 30
0.0
 10
102.5526947656494
 20
662.5393034744252
 30
0.0
 10
101.7570875351492
 20
662.8182617368665
 30
0.0
 10
100.8828341175726
 20
663.0798954575865
 30
0.0
 10
99.9355923669215
 20
663.3226852023104
 30
0.0
 10
98.92175886846712
 20
663.5452046816972
 30
0.0
 10
97.8486049464926
 20
663.7461273883567
 30
0.0
 10
96.72459382411746
 20
663.9242320322746
 30
0.0
 10
95.56010109060377
 20
664.0783961059444
 30
0.0
 10
94.36954583596294
 20
664.2075485102024
 30
0.0
 10
93.17769472428762
 20
664.310495683177
 30
0.0
 10
92.03438555018454
 20
664.3860453033958
 30
0.0
 10
91.02619484624536
 20
664.4344640481883
 30
0.0
 10
90.11572024865944
 20
664.4650212925899
 30
0.0
 10
89.2347087426838
 20
664.483442947515
 30
0.0
 10
88.67831958363219
 20
664.4859402650218
 30
0.0
 10
88.3488421675048
 20
664.4870953570263
 30
0.0
  0
SPLINE
  5
188
330
13D
100
AcDbEntity
  8
DV2_Default
  6
Continuous
 62
     7
100
AcDbSpline
210
0.0
220
0.0
230
1.0
 70
     8
 71
     3
 72
    16
 73
    12
 74
     0
 42
0.0000000024009982
 43
0.0000000001
 40
0.0
 40
0.0
 40
0.0
 40
0.0
 40
0.125716929878241
 40
0.2307026650324367
 40
0.3426667009739419
 40
0.4524190650419523
 40
0.5633020943907869
 40
0.6763649544423455
 40
0.7912977677236693
 40
0.9076104820047269
 40
1.0
 40
1.0
 40
1.0
 40
1.0
 10
78.30376108888882
 20
653.8131628354596
 30
0.0
 10
78.30474515499192
 20
653.8469824060098
 30
0.0
 10
78.31212719026419
 20
653.9015121841829
 30
0.0
 10
78.41736352584631
 20
654.0680534158097
 30
0.0
 10
78.6247677900822
 20
654.264701371601
 30
0.0
 10
78.95109331313189
 20
654.4835076670049
 30
0.0
 10
79.38519280061873
 20
654.7052618064557
 30
0.0
 10
79.92856563177504
 20
654.9247739461064
 30
0.0
 10
80.57233131286179
 20
655.1336640090574
 30
0.0
 10
81.27388530877248
 20
655.3209610440798
 30
0.0
 10
81.73861808339994
 20
655.4169680348865
 30
0.0
 10
81.98297419951308
 20
655.4668246344143
 30
0.0
  0
SPLINE
  5
189
330
13D
100
AcDbEntity
  8
DV2_Default
  6
Continuous
 62
     7
100
AcDbSpline
210
0.0
220
0.0
230
1.0
 70
     8
 71
     3
 72
    15
 73
    11
 74
     0
 42
0.0000000032661867
 43
0.0000000001
 40
0.0
 40
0.0
 40
0.0
 40
0.0
 40
0.1082960897683065
 40
0.2444006249883908
 40
0.3790578561163431
 40
0.511689000164692
 40
0.6417299332031117
 40
0.7693871465843806
 40
0.8971782146149193
 40
1.0
 40
1.0
 40
1.0
 40
1.0
 10
95.80407826192929
 20
655.2142847082124
 30
0.0
 10
96.0175827136781
 20
655.1561647194086
 30
0.0
 10
96.42242362292505
 20
655.0446503169534
 30
0.0
 10
97.00597675512745
 20
654.8358356324213
 30
0.0
 10
97.51495292152744
 20
654.6104474411305
 30
0.0
 10
97.91092224438532
 20
654.3834973335472
 30
0.0
 10
98.18617595391807
 20
654.1695588553059
 30
0.0
 10
98.34275185374756
 20
653.9862309149215
 30
0.0
 10
98.39663491575733
 20
653.8661298881341
 30
0.0
 10
98.3977196464376
 20
653.8220136335871
 30
0.0
 10
98.39633370028908
 20
653.7998812729767
 30
0.0
  0
LINE
  5
18A
330
13D
100
AcDbEntity
  8
DV2_Default
  6
Continuous
 62
     7
100
AcDbLine
 10
170.35
 20
587.6353374211
 30
0.0
 11
142.1285588752
 21
587.6353374211
 31
0.0
  0
LINE
  5
18B
330
13D
100
AcDbEntity
  8
DV2_Default
  6
Continuous
 62
     7
100
AcDbLine
 10
34.5714411248
 20
587.6353374211
 30
0.0
 11
142.1285588752
 21
587.6353374211
 31
0.0
  0
LINE
  5
18C
330
13D
100
AcDbEntity
  8
DV2_Default
  6
Continuous
 62
     7
100
AcDbLine
 10
34.5714411248
 20
587.6353374211
 30
0.0
 11
6.35
 21
587.6353374211
 31
0.0
  0
LINE
  5
18D
330
13D
100
AcDbEntity
  8
DV2_Default
  6
Continuous
 62
     7
100
AcDbLine
 10
11.2574772881
 20
592.6353374211
 30
0.0
 11
35.0113028852
 21
592.6353374211
 31
0.0
  0
LINE
  5
18E
330
13D
100
AcDbEntity
  8
DV2_Default
  6
Continuous
 62
     7
100
AcDbLine
 10
35.0113028852
 20
592.6353374211
 30
0.0
 11
141.6886971148
 21
592.6353374211
 31
0.0
  0
LINE
  5
18F
330
13D
100
AcDbEntity
  8
DV2_Default
  6
Continuous
 62
     7
100
AcDbLine
 10
165.4425227119
 20
592.6353374211
 30
0.0
 11
141.6886971148
 21
592.6353374211
 31
0.0
  0
LINE
  5
190
330
13D
100
AcDbEntity
  8
DV2_Default
  6
Continuous
 62
     7
100
AcDbLine
 10
141.9603764374
 20
590.8853374211
 30
0.0
 11
168.4736116251
 21
590.8853374211
 31
0.0
  0
LINE
  5
191
330
13D
100
AcDbEntity
  8
DV2_Default
  6
Continuous
 62
     7
100
AcDbLine
 10
34.7396235626
 20
590.8853374211
 30
0.0
 11
141.9603764374
 21
590.8853374211
 31
0.0
  0
LINE
  5
192
330
13D
100
AcDbEntity
  8
DV2_Default
  6
Continuous
 62
     7
100
AcDbLine
 10
34.7396235626
 20
590.8853374211
 30
0.0
 11
8.2263883749
 21
590.8853374211
 31
0.0
  0
ARC
  5
193
330
13D
100
AcDbEntity
  8
DV2_Default
  6
Continuous
 62
     7
100
AcDbCircle
 10
165.4425227119
 20
589.1353374211
 30
0.0
 40
3.499999999997609
100
AcDbArc
 50
30.0
 51
90.0
  0
LINE
  5
194
330
13D
100
AcDbEntity
  8
DV2_Default
  6
Continuous
 62
     7
100
AcDbLine
 10
170.35
 20
587.6353374211
 30
0.0
 11
168.4736116251
 21
590.8853374211
 31
0.0
  0
ARC
  5
195
330
13D
100
AcDbEntity
  8
DV2_Default
  6
Continuous
 62
     7
100
AcDbCircle
 10
11.2574772881
 20
589.1353374211
 30
0.0
 40
3.5
100
AcDbArc
 50
90.0
 51
150.0
  0
LINE
  5
196
330
13D
100
AcDbEntity
  8
DV2_Default
  6
Continuous
 62
     7
100
AcDbLine
 10
8.2263883749
 20
590.8853374211
 30
0.0
 11
6.35
 21
587.6353374211
 31
0.0
  0
ARC
  5
197
330
13D
100
AcDbEntity
  8
DV2_Default
  6
Continuous
 62
     7
100
AcDbCircle
 10
88.3501202469
 20
1117.975700883
 30
0.0
 40
403.0744173659991
100
AcDbArc
 50
266.7846153589
 51
266.7941222936
  0
SPLINE
  5
198
330
13D
100
AcDbEntity
  8
DV2_Default
  6
Continuous
 62
     7
100
AcDbSpline
210
0.0
220
0.0
230
1.0
 70
     8
 71
     3
 72
    19
 73
    15
 74
     0
 42
0.0000000009696714
 43
0.0000000001
 40
0.0
 40
0.0
 40
0.0
 40
0.0
 40
0.0303328747125768
 40
0.1280484390645705
 40
0.1761054608510757
 40
0.2236435230025001
 40
0.3171845475220528
 40
0.499325752551372
 40
0.6814544307650069
 40
0.7750189568850828
 40
0.8705487883933481
 40
0.9261712209322905
 40
0.982526233004618
 40
1.0
 40
1.0
 40
1.0
 40
1.0
 10
84.08786301487307
 20
730.5591055973342
 30
0.0
 10
84.14214449350052
 20
730.4716193685229
 30
0.0
 10
84.38197759005998
 20
730.1090691105597
 30
0.0
 10
84.77232318669935
 20
729.6534054759577
 30
0.0
 10
85.26684314342691
 20
729.2227920246975
 30
0.0
 10
85.7897861099534
 20
728.849602871173
 30
0.0
 10
86.77151164024332
 20
728.3423681445022
 30
0.0
 10
88.34969993529087
 20
728.0356370624479
 30
0.0
 10
89.92826374340822
 20
728.3423943536108
 30
0.0
 10
91.05539869445201
 20
728.9244037510509
 30
0.0
 10
91.71053651077357
 20
729.4421583093688
 30
0.0
 10
92.190384292641
 20
729.9568770834123
 30
0.0
 10
92.4528707225899
 20
730.3089656149152
 30
0.0
 10
92.58790682378861
 20
730.5198459391568
 30
0.0
 10
92.61903202319775
 20
730.5702919765457
 30
0.0
  0
ARC
  5
199
330
13D
100
AcDbEntity
  8
DV2_Default
  6
Continuous
 62
     7
100
AcDbCircle
 10
68.3933024642
 20
743.9826047729
 30
0.0
 40
0.6812316758236258
100
AcDbArc
 50
100.578993707
 51
179.1617738501
  0
ARC
  5
19A
330
13D
100
AcDbEntity
  8
DV2_Default
  6
Continuous
 62
     7
100
AcDbCircle
 10
108.3048826332
 20
743.983566246
 30
0.0
 40
0.6804882306528813
100
AcDbArc
 50
0.7460690812
 51
79.2457255653
  0
ARC
  5
19B
330
13D
100
AcDbEntity
  8
DV2_Default
  6
Continuous
 62
     7
100
AcDbCircle
 10
88.3514297428
 20
1103.6870492598
 30
0.0
 40
359.5960463098705
100
AcDbArc
 50
271.407663668
 51
273.2011550085
  0
ARC
  5
19C
330
13D
100
AcDbEntity
  8
DV2_Default
  6
Continuous
 62
     7
100
AcDbCircle
 10
88.3514297428
 20
1103.6870492598
 30
0.0
 40
359.5960463098705
100
AcDbArc
 50
266.7984037319
 51
268.5913592561
  0
ARC
  5
19D
330
13D
100
AcDbEntity
  8
DV2_Default
  6
Continuous
 62
     7
100
AcDbCircle
 10
88.3782467388
 20
1025.3054191107
 30
0.0
 40
280.4535625078405
100
AcDbArc
 50
271.8498929917
 51
273.3212460906
  0
ARC
  5
19E
330
13D
100
AcDbEntity
  8
DV2_Default
  6
Continuous
 62
     7
100
AcDbCircle
 10
88.3782467388
 20
1025.3054191107
 30
0.0
 40
280.4535625078405
100
AcDbArc
 50
266.6669486956
 51
268.139715666
  0
LINE
  5
19F
330
13D
100
AcDbEntity
  8
DV2_Default
  6
Continuous
 62
     7
100
AcDbLine
 10
104.4553188103
 20
745.3773979967
 30
0.0
 11
104.6251447307
 21
745.3196547338
 31
0.0
  0
LINE
  5
1A0
330
13D
100
AcDbEntity
  8
DV2_Default
  6
Continuous
 62
     7
100
AcDbLine
 10
104.4553186774
 20
745.3773977213
 30
0.0
 11
104.4205888043
 21
745.3986350395
 31
0.0
  0
ARC
  5
1A1
330
13D
100
AcDbEntity
  8
DV2_Default
  6
Continuous
 62
     7
100
AcDbCircle
 10
104.7040613689
 20
745.8197799767
 30
0.0
 40
0.507491457085668
100
AcDbArc
 50
212.7361622224
 51
236.0554631901
  0
ARC
  5
1A2
330
13D
100
AcDbEntity
  8
DV2_Default
  6
Continuous
 62
     7
100
AcDbCircle
 10
104.7055213488
 20
745.818205997
 30
0.0
 40
0.5078727824067658
100
AcDbArc
 50
179.912229787
 51
212.4977266528
  0
ARC
  5
1A3
330
13D
100
AcDbEntity
  8
DV2_Default
  6
Continuous
 62
     7
100
AcDbCircle
 10
71.9946233981
 20
745.826699406
 30
0.0
 40
0.5075225695560304
100
AcDbArc
 50
320.8078018481
 51
359.1304891728
  0
ARC
  5
1A4
330
13D
100
AcDbEntity
  8
DV2_Default
  6
Continuous
 62
     7
100
AcDbCircle
 10
71.9919642954
 20
745.8342653453
 30
0.0
 40
0.5143815648094228
100
AcDbArc
 50
279.0303583394
 51
320.3418080711
  0
ARC
  5
1A5
330
13D
100
AcDbEntity
  8
DV2_Default
  6
Continuous
 62
     7
100
AcDbCircle
 10
88.3152689731
 20
454.3443017917
 30
0.0
 40
291.4349338566731
100
AcDbArc
 50
93.1607672758
 51
93.1949261173
  0
ARC
  5
1A6
330
13D
100
AcDbEntity
  8
DV2_Default
  6
Continuous
 62
     7
100
AcDbCircle
 10
88.3152689731
 20
454.3443017917
 30
0.0
 40
291.4349338566731
100
AcDbArc
 50
86.7917323196
 51
86.8246278465
  0
ARC
  5
1A7
330
13D
100
AcDbEntity
  8
DV2_Default
  6
Continuous
 62
     7
100
AcDbCircle
 10
88.3486725874
 20
387.6760437836
 30
0.0
 40
357.5405446358194
100
AcDbArc
 50
93.1857858904
 51
93.2195790696
  0
ARC
  5
1A8
330
13D
100
AcDbEntity
  8
DV2_Default
  6
Continuous
 62
     7
100
AcDbCircle
 10
88.3486725874
 20
387.6760437836
 30
0.0
 40
357.5405446358194
100
AcDbArc
 50
86.7799796708
 51
86.8139777961
  0
ARC
  5
1A9
330
13D
100
AcDbEntity
  8
DV2_Default
  6
Continuous
 62
     7
100
AcDbCircle
 10
88.3548185569
 20
1029.0229271504
 30
0.0
 40
282.5785068610199
100
AcDbArc
 50
271.9062766143
 51
273.2141358685
  0
ARC
  5
1AA
330
13D
100
AcDbEntity
  8
DV2_Default
  6
Continuous
 62
     7
100
AcDbCircle
 10
88.3548185569
 20
1029.0229271504
 30
0.0
 40
282.5785068610199
100
AcDbArc
 50
266.7839347873
 51
268.0916007435
  0
LINE
  5
1AB
330
13D
100
AcDbEntity
  8
DV2_Default
  6
Continuous
 62
     7
100
AcDbLine
 10
104.1801333396
 20
747.0211495687
 30
0.0
 11
104.1986284566
 21
746.8889281694
 31
0.0
  0
ARC
  5
1AC
330
13D
100
AcDbEntity
  8
DV2_Default
  6
Continuous
 62
     7
100
AcDbCircle
 10
103.6968932725
 20
746.8832730451
 30
0.0
 40
0.502966085612863
100
AcDbArc
 50
15.9242407228
 51
52.3787922887
  0
LINE
  5
1AD
330
13D
100
AcDbEntity
  8
DV2_Default
  6
Continuous
 62
     7
100
AcDbLine
 10
103.9394056044
 20
747.3244433255
 30
0.0
 11
104.0042045501
 21
747.2820187439
 31
0.0
  0
ARC
  5
1AE
330
13D
100
AcDbEntity
  8
DV2_Default
  6
Continuous
 62
     7
100
AcDbCircle
 10
72.9923331427
 20
746.8961138348
 30
0.0
 40
0.4906254949667428
100
AcDbArc
 50
118.4480948917
 51
180.7769744703
  0
LINE
  5
1AF
330
13D
100
AcDbEntity
  8
DV2_Default
  6
Continuous
 62
     7
100
AcDbLine
 10
72.7578883516
 20
747.3288085516
 30
0.0
 11
72.7610414405
 21
747.3370232887
 31
0.0
  0
ARC
  5
1B0
330
13D
100
AcDbEntity
  8
DV2_Default
  6
Continuous
 62
     7
100
AcDbCircle
 10
88.2479024489
 20
447.2650264639
 30
0.0
 40
300.4698283562987
100
AcDbArc
 50
92.9497893059
 51
92.9542975861
  0
ARC
  5
1B1
330
13D
100
AcDbEntity
  8
DV2_Default
  6
Continuous
 62
     7
100
AcDbCircle
 10
91.8293090278
 20
724.7130404456
 30
0.0
 40
25.65059088185104
100
AcDbArc
 50
61.8276113301
 51
70.5627193128
  0
ARC
  5
1B2
330
13D
100
AcDbEntity
  8
DV2_Default
  6
Continuous
 62
     7
100
AcDbCircle
 10
85.0951827547
 20
724.1710280099
 30
0.0
 40
26.23762263387654
100
AcDbArc
 50
109.5105495567
 51
118.0463766376
  0
LINE
  5
1B3
330
13D
100
AcDbEntity
  8
DV2_Default
  6
Continuous
 62
     7
100
AcDbLine
 10
76.3333846648
 20
748.8991257923
 30
0.0
 11
76.3360921146
 21
748.9055228804
 31
0.0
  0
ARC
  5
1B4
330
13D
100
AcDbEntity
  8
DV2_Default
  6
Continuous
 62
     7
100
AcDbCircle
 10
88.2884492701
 20
527.2171674081
 30
0.0
 40
222.0132514977047
100
AcDbArc
 50
92.8335004958
 51
93.075868881
  0
SPLINE
  5
1B5
330
13D
100
AcDbEntity
  8
DV2_Default
  6
Continuous
 62
     7
100
AcDbSpline
210
0.0
220
0.0
230
1.0
 70
     8
 71
     3
 72
    10
 73
     6
 74
     0
 42
0.0000000250972537
 43
0.0000000001
 40
0.0
 40
0.0
 40
0.0
 40
0.0
 40
0.5
 40
0.5
 40
1.0
 40
1.0
 40
1.0
 40
1.0
 10
76.33233060723481
 20
748.9020866957208
 30
0.0
 10
76.41970855413777
 20
748.9364792527738
 30
0.0
 10
76.47950204110215
 20
748.9558606722946
 30
0.0
 10
76.5980085346641
 20
748.9463828026044
 30
0.0
 10
76.6538890952633
 20
748.9169620231507
 30
0.0
 10
76.70725488806481
 20
748.8903040264994
 30
0.0
  0
ARC
  5
1B6
330
13D
100
AcDbEntity
  8
DV2_Default
  6
Continuous
 62
     7
100
AcDbCircle
 10
88.3448817959
 20
571.2310927311
 30
0.0
 40
178.2135984812824
100
AcDbArc
 50
93.5305713659
 51
93.5311278364
  0
SPLINE
  5
1B7
330
13D
100
AcDbEntity
  8
DV2_Default
  6
Continuous
 62
     7
100
AcDbSpline
210
0.0
220
0.0
230
1.0
 70
    12
 71
     3
 72
     8
 73
     4
 74
     0
 42
0.000000021711507
 43
0.0000000001
 40
0.0
 40
0.0
 40
0.0
 40
0.0
 40
1.0
 40
1.0
 40
1.0
 40
1.0
 10
77.3685636231948
 20
749.106349928479
 30
0.0
 41
1.0
 10
77.28773420388974
 20
748.9668312043672
 30
0.0
 41
1.0
 10
77.15941633427362
 20
748.8782305200267
 30
0.0
 41
1.0
 10
77.01879352130378
 20
748.8500985665904
 30
0.0
 41
1.0
  0
ARC
  5
1B8
330
13D
100
AcDbEntity
  8
DV2_Default
  6
Continuous
 62
     7
100
AcDbCircle
 10
88.3527938704
 20
927.6214689773
 30
0.0
 40
178.8527356322532
100
AcDbArc
 50
266.478967263
 51
266.9604347054
  0
ARC
  5
1B9
330
13D
100
AcDbEntity
  8
DV2_Default
  6
Continuous
 62
     7
100
AcDbCircle
 10
88.3527938704
 20
927.6214689773
 30
0.0
 40
178.8527356322532
100
AcDbArc
 50
273.0367996343
 51
273.5062881351
  0
SPLINE
  5
1BA
330
13D
100
AcDbEntity
  8
DV2_Default
  6
Continuous
 62
     7
100
AcDbSpline
210
0.0
220
0.0
230
1.0
 70
    12
 71
     3
 72
     9
 73
     5
 74
     0
 42
0.0000000919206532
 43
0.0000000001
 40
0.0
 40
0.0
 40
0.0
 40
0.0
 40
0.8304696989826373
 40
1.0
 40
1.0
 40
1.0
 40
1.0
 10
99.3290978269848
 20
749.1058623917988
 30
0.0
 41
1.0
 10
99.3161293878948
 20
749.1282758377695
 30
0.0
 41
1.0
 10
99.29928982092372
 20
749.1638625168349
 30
0.0
 41
1.0
 10
99.2794720889789
 20
749.1954167730036
 30
0.0
 41
1.0
 10
99.27600720729313
 20
749.2006345004946
 30
0.0
 41
1.0
  0
SPLINE
  5
1BB
330
13D
100
AcDbEntity
  8
DV2_Default
  6
Continuous
 62
     7
100
AcDbSpline
210
0.0
220
0.0
230
1.0
 70
    12
 71
     3
 72
    10
 73
     6
 74
     0
 42
0.0000000363540276
 43
0.0000000001
 40
0.0
 40
0.0
 40
0.0
 40
0.0
 40
0.2846560396692167
 40
0.6423262002293981
 40
1.0
 40
1.0
 40
1.0
 40
1.0
 10
99.27600720729313
 20
749.2006345004946
 30
0.0
 41
1.0
 10
99.26249886826837
 20
749.2209765607092
 30
0.0
 41
1.0
 10
99.22841004879234
 20
749.2623622849277
 30
0.0
 41
1.0
 10
99.1534685998548
 20
749.3035151126691
 30
0.0
 41
1.0
 10
99.0825853884448
 20
749.3252522697431
 30
0.0
 41
1.0
 10
99.0468103565648
 20
749.336149900469
 30
0.0
 41
1.0
  0
SPLINE
  5
1BC
330
13D
100
AcDbEntity
  8
DV2_Default
  6
Continuous
 62
     7
100
AcDbSpline
210
0.0
220
0.0
230
1.0
 70
     8
 71
     3
 72
    11
 73
     7
 74
     0
 42
0.0000000259264022
 43
0.0000000001
 40
0.0
 40
0.0
 40
0.0
 40
0.0
 40
0.2497342112323854
 40
0.4999009272450723
 40
0.7500676432577591
 40
1.0
 40
1.0
 40
1.0
 40
1.0
 10
77.6525123348948
 20
749.3359455434447
 30
0.0
 10
77.61682505534056
 20
749.3250727794314
 30
0.0
 10
77.54473705928223
 20
749.3031758788378
 30
0.0
 10
77.46507746193663
 20
749.2584736158979
 30
0.0
 10
77.4070839237429
 20
749.189017162355
 30
0.0
 10
77.38043276419404
 20
749.1293639627635
 30
0.0
 10
77.3685636231948
 20
749.106349928479
 30
0.0
  0
ARC
  5
1BD
330
13D
100
AcDbEntity
  8
DV2_Default
  6
Continuous
 62
     7
100
AcDbCircle
 10
88.351317857
 20
575.9145723181
 30
0.0
 40
173.7510780714137
100
AcDbArc
 50
93.5136548265
 51
93.5302482042
  0
ARC
  5
1BE
330
13D
100
AcDbEntity
  8
DV2_Default
  6
Continuous
 62
     7
100
AcDbCircle
 10
64.7238099496
 20
715.6574974395
 30
0.0
 40
1.025273592143731
100
AcDbArc
 50
282.0762636201
 51
353.1676724758
  0
ARC
  5
1BF
330
13D
100
AcDbEntity
  8
DV2_Default
  6
Continuous
 62
     7
100
AcDbCircle
 10
88.3556435971
 20
1101.8651124723
 30
0.0
 40
387.9176586834511
100
AcDbArc
 50
266.5391352131
 51
273.459307793
  0
ARC
  5
1C0
330
13D
100
AcDbEntity
  8
DV2_Default
  6
Continuous
 62
     7
100
AcDbCircle
 10
111.9747922881
 20
715.6590796974
 30
0.0
 40
1.026993755475193
100
AcDbArc
 50
186.9027923552
 51
258.0676136262
  0
ARC
  5
1C1
330
13D
100
AcDbEntity
  8
DV2_Default
  6
Continuous
 62
     7
100
AcDbCircle
 10
88.3451339496
 20
328.3766038189
 30
0.0
 40
386.9868365039283
100
AcDbArc
 50
86.5308024743
 51
86.5658483217
  0
ARC
  5
1C2
330
13D
100
AcDbEntity
  8
DV2_Default
  6
Continuous
 62
     7
100
AcDbCircle
 10
88.3451339496
 20
328.3766038189
 30
0.0
 40
386.9868365039283
100
AcDbArc
 50
93.4322821613
 51
93.4676405318
  0
SPLINE
  5
1C3
330
13D
100
AcDbEntity
  8
DV2_Default
  6
Continuous
 62
     7
100
AcDbSpline
210
0.0
220
0.0
230
1.0
 70
     8
 71
     3
 72
     8
 73
     4
 74
     0
 42
0.0000000025776202
 43
0.0000000001
 40
0.0
 40
0.0
 40
0.0
 40
0.0
 40
1.0
 40
1.0
 40
1.0
 40
1.0
 10
62.61798677311034
 20
712.2758156136276
 30
0.0
 10
62.62040851825282
 20
713.3455813758869
 30
0.0
 10
63.49634493812368
 20
714.3558502757477
 30
0.0
 10
64.93831099636516
 20
714.6549131588753
 30
0.0
  0
SPLINE
  5
1C4
330
13D
100
AcDbEntity
  8
DV2_Default
  6
Continuous
 62
     7
100
AcDbSpline
210
0.0
220
0.0
230
1.0
 70
     8
 71
     3
 72
    28
 73
    24
 74
     0
 42
0.0000000027673274
 43
0.0000000001
 40
0.0
 40
0.0
 40
0.0
 40
0.0
 40
0.0557325460079575
 40
0.1092681330689561
 40
0.1607349833110258
 40
0.210251814196425
 40
0.2579286642771902
 40
0.3038676855142297
 40
0.3481638943494879
 40
0.3909058747500757
 40
0.4321764275896926
 40
0.4720531619476124
 40
0.5106090251486574
 40
0.5479127696087966
 40
0.5840293557687948
 40
0.619020291578587
 40
0.6529439101278905
 40
0.6858555880955748
 40
0.7178079087017969
 40
0.748850773779177
 40
0.8452926356152225
 40
0.9376766377665405
 40
1.0
 40
1.0
 40
1.0
 40
1.0
 10
111.7624538798152
 20
714.6542769435564
 30
0.0
 10
111.8279268834573
 20
714.6397066329114
 30
0.0
 10
111.9562919860453
 20
714.6111404646242
 30
0.0
 10
112.1420787042316
 20
714.5569497914386
 30
0.0
 10
112.3179181943854
 20
714.4963622806204
 30
0.0
 10
112.483815266771
 20
714.4292601851839
 30
0.0
 10
112.6400001839585
 20
714.3565283401521
 30
0.0
 10
112.7866581395464
 20
714.2787515168048
 30
0.0
 10
112.9239968316332
 20
714.1965452246342
 30
0.0
 10
113.0522285919299
 20
714.1104735989591
 30
0.0
 10
113.1715741574065
 20
714.0210717630611
 30
0.0
 10
113.2822609780057
 20
713.9288417025872
 30
0.0
 10
113.3845229327603
 20
713.8342548243355
 30
0.0
 10
113.4785996999989
 20
713.7377528274837
 30
0.0
 10
113.5647362653263
 20
713.6397488517418
 30
0.0
 10
113.6431823065016
 20
713.540628969817
 30
0.0
 10
113.7141920088378
 20
713.440751983224
 30
0.0
 10
113.7780224296295
 20
713.3404552448717
 30
0.0
 10
113.8349370919447
 20
713.2400388467421
 30
0.0
 10
113.9209285355298
 20
713.0685621769524
 30
0.0
 10
114.0144130675455
 20
712.8197262787874
 30
0.0
 10
114.0726070454798
 20
712.5219155302696
 30
0.0
 10
114.0822144155598
 20
712.3355534620118
 30
0.0
 10
114.0817864567914
 20
712.2605069640881
 30
0.0
  0
ARC
  5
1C5
330
13D
100
AcDbEntity
  8
DV2_Default
  6
Continuous
 62
     7
100
AcDbCircle
 10
88.3507269433
 20
1153.8021397357
 30
0.0
 40
443.8597122994007
100
AcDbArc
 50
266.7895285601
 51
273.2104553399
  0
ARC
  5
1C6
330
13D
100
AcDbEntity
  8
DV2_Default
  6
Continuous
 62
     7
100
AcDbCircle
 10
88.198408285
 20
735.4906088597
 30
0.0
 40
4.918456011403921
100
AcDbArc
 50
164.9807383985
 51
271.7663692677
  0
ARC
  5
1C7
330
13D
100
AcDbEntity
  8
DV2_Default
  6
Continuous
 62
     7
100
AcDbCircle
 10
88.5048466496
 20
735.4906096886
 30
0.0
 40
4.918557292423318
100
AcDbArc
 50
268.1960853964
 51
15.0417745268
  0
ARC
  5
1C8
330
13D
100
AcDbEntity
  8
DV2_Default
  6
Continuous
 62
     7
100
AcDbCircle
 10
88.2468836142
 20
735.5909809911
 30
0.0
 40
4.720520973471973
100
AcDbArc
 50
177.763387056
 51
179.4765077781
  0
ARC
  5
1C9
330
13D
100
AcDbEntity
  8
DV2_Default
  6
Continuous
 62
     7
100
AcDbCircle
 10
88.170771819
 20
751.1782760189
 30
0.0
 40
5.657638555862427
100
AcDbArc
 50
88.1846248036
 51
270.7045573628
  0
ARC
  5
1CA
330
13D
100
AcDbEntity
  8
DV2_Default
  6
Continuous
 62
     7
100
AcDbCircle
 10
88.2388278984
 20
752.026325741
 30
0.0
 40
3.626114055781077
100
AcDbArc
 50
88.2430906196
 51
271.7568655546
  0
ARC
  5
1CB
330
13D
100
AcDbEntity
  8
DV2_Default
  6
Continuous
 62
     7
100
AcDbCircle
 10
88.4610644568
 20
752.026325656
 30
0.0
 40
3.626110774418104
100
AcDbArc
 50
268.2447817901
 51
91.7551743841
  0
ARC
  5
1CC
330
13D
100
AcDbEntity
  8
DV2_Default
  6
Continuous
 62
     7
100
AcDbCircle
 10
88.5291150973
 20
751.1764742369
 30
0.0
 40
5.659435853725419
100
AcDbArc
 50
268.1863468535
 51
91.81365306
  0
ARC
  5
1CD
330
13D
100
AcDbEntity
  8
DV2_Default
  6
Continuous
 62
     7
100
AcDbCircle
 10
535.6571213849
 20
759.2146876908
 30
0.0
 40
426.9284548516094
100
AcDbArc
 50
182.043165408
 51
185.8717154077
  0
ARC
  5
1CE
330
13D
100
AcDbEntity
  8
DV2_Default
  6
Continuous
 62
     7
100
AcDbCircle
 10
-371.9786401369
 20
760.0696623738
 30
0.0
 40
439.9771703240511
100
AcDbArc
 50
354.1908952243
 51
357.9060128839
  0
ARC
  5
1CF
330
13D
100
AcDbEntity
  8
DV2_Default
  6
Continuous
 62
     7
100
AcDbCircle
 10
88.3499974803
 20
642.2934944633
 30
0.0
 40
104.3475870335
100
AcDbArc
 50
79.0253463504
 51
81.1676720674
  0
ARC
  5
1D0
330
13D
100
AcDbEntity
  8
DV2_Default
  6
Continuous
 62
     7
100
AcDbCircle
 10
88.3499974803
 20
642.2934944633
 30
0.0
 40
104.3475870335
100
AcDbArc
 50
98.8196341219
 51
100.9723497503
  0
SPLINE
  5
1D1
330
13D
100
AcDbEntity
  8
DV2_Default
  6
Continuous
 62
     7
100
AcDbSpline
210
0.0
220
0.0
230
1.0
 70
     8
 71
     3
 72
    13
 73
     9
 74
     0
 42
0.0000000174658696
 43
0.0000000001
 40
0.0
 40
0.0
 40
0.0
 40
0.0
 40
0.1935703622278365
 40
0.4250882342633966
 40
0.5980514924635391
 40
0.745771251442358
 40
0.9004484731034672
 40
1.0
 40
1.0
 40
1.0
 40
1.0
 10
104.4866568269208
 20
745.3764259144901
 30
0.0
 10
104.4874050156213
 20
745.3762027814214
 30
0.0
 10
104.4826032481396
 20
745.3776527172524
 30
0.0
 10
104.4483811534482
 20
745.3907150310916
 30
0.0
 10
104.3730386966442
 20
745.4371146801697
 30
0.0
 10
104.2783344383534
 20
745.532774485522
 30
0.0
 10
104.2071629273616
 20
745.6788454612102
 30
0.0
 10
104.2012790552126
 20
745.7771986337711
 30
0.0
 10
104.1987936171877
 20
745.8231400749223
 30
0.0
  0
SPLINE
  5
1D2
330
13D
100
AcDbEntity
  8
DV2_Default
  6
Continuous
 62
     7
100
AcDbSpline
210
0.0
220
0.0
230
1.0
 70
     8
 71
     3
 72
    13
 73
     9
 74
     0
 42
0.0000000174421045
 43
0.0000000001
 40
0.0
 40
0.0
 40
0.0
 40
0.0
 40
0.0961982067073874
 40
0.2786164463052878
 40
0.444120415318192
 40
0.634853463433149
 40
0.8898006590219385
 40
1.0
 40
1.0
 40
1.0
 40
1.0
 10
72.50066399602085
 20
745.8308701881109
 30
0.0
 10
72.49827035930413
 20
745.7864168928836
 30
0.0
 10
72.49215590118371
 20
745.6783529734521
 30
0.0
 10
72.40732692089156
 20
745.5190147101787
 30
0.0
 10
72.30374492026395
 20
745.4285951422996
 30
0.0
 10
72.23490892200849
 20
745.3915252635218
 30
0.0
 10
72.21419855327157
 20
745.384769984454
 30
0.0
 10
72.2119841669552
 20
745.3842042857256
 30
0.0
 10
72.21227785512282
 20
745.3843060779286
 30
0.0
  0
LINE
  5
1D3
330
13D
100
AcDbEntity
  8
DV2_Default
  6
Continuous
 62
     7
100
AcDbLine
 10
72.5034342207
 20
746.9451346853
 30
0.0
 11
72.5034342207
 21
745.7687503232
 31
0.0
  0
LINE
  5
1D4
330
13D
100
AcDbEntity
  8
DV2_Default
  6
Continuous
 62
     7
100
AcDbLine
 10
104.1965682488
 20
745.7687503232
 30
0.0
 11
104.1965682488
 21
746.9451346853
 31
0.0
  0
SPLINE
  5
1D5
330
13D
100
AcDbEntity
  8
DV2_Default
  6
Continuous
 62
     7
100
AcDbSpline
210
0.0
220
0.0
230
1.0
 70
     8
 71
     3
 72
    11
 73
     7
 74
     0
 42
0.0000000188397219
 43
0.0000000001
 40
0.0
 40
0.0
 40
0.0
 40
0.0
 40
0.3396743821237593
 40
0.6520696682686704
 40
0.9693122813131921
 40
0.9999999999999999
 40
0.9999999999999999
 40
0.9999999999999999
 40
0.9999999999999999
 10
72.79447694607208
 20
747.3571900003184
 30
0.0
 10
72.7615570761659
 20
747.3421664476476
 30
0.0
 10
72.70754822773789
 20
747.311706050412
 30
0.0
 10
72.5832842083321
 20
747.1903283921598
 30
0.0
 10
72.50572356013903
 20
747.036842327993
 30
0.0
 10
72.50672473579806
 20
746.9570651568405
 30
0.0
 10
72.50705788143624
 20
746.9499320753024
 30
0.0
  0
SPLINE
  5
1D6
330
13D
100
AcDbEntity
  8
DV2_Default
  6
Continuous
 62
     7
100
AcDbSpline
210
0.0
220
0.0
230
1.0
 70
     8
 71
     3
 72
    11
 73
     7
 74
     0
 42
0.0000000248830492
 43
0.0000000001
 40
0.0
 40
0.0
 40
0.0
 40
0.0
 40
0.0605544288449816
 40
0.3797085547112869
 40
0.7141342670317771
 40
1.0
 40
1.0
 40
1.0
 40
1.0
 10
104.1552439379565
 20
747.0884044081976
 30
0.0
 10
104.1511990399518
 20
747.0994864097108
 30
0.0
 10
104.1234329207616
 20
747.1669013393298
 30
0.0
 10
104.0364463930883
 20
747.2699277625319
 30
0.0
 10
103.9415452358821
 20
747.3358978682443
 30
0.0
 10
103.9017879618635
 20
747.3549150967003
 30
0.0
 10
103.8807867671737
 20
747.3634970386697
 30
0.0
  0
ARC
  5
1D7
330
13D
100
AcDbEntity
  8
DV2_Default
  6
Continuous
 62
     7
100
AcDbCircle
 10
97.9108656643
 20
735.914237092
 30
0.0
 40
13.23558691679738
100
AcDbArc
 50
79.4334393517
 51
83.6746449578
  0
SPLINE
  5
1D8
330
13D
100
AcDbEntity
  8
DV2_Default
  6
Continuous
 62
     7
100
AcDbSpline
210
0.0
220
0.0
230
1.0
 70
     8
 71
     3
 72
    12
 73
     8
 74
     0
 42
0.0000000273832669
 43
0.0000000001
 40
0.0
 40
0.0
 40
0.0
 40
0.0
 40
0.2477712434946386
 40
0.5189775658576357
 40
0.7217897992721418
 40
0.9010207482262931
 40
1.0
 40
1.0
 40
1.0
 40
1.0
 10
99.58907230829725
 20
748.8890154782799
 30
0.0
 10
99.58992061399069
 20
748.8887798848016
 30
0.0
 10
99.58488947129109
 20
748.8900875483562
 30
0.0
 10
99.54880166985541
 20
748.9025100762681
 30
0.0
 10
99.47128413673322
 20
748.9449733309101
 30
0.0
 10
99.38146645295079
 20
749.0256765527836
 30
0.0
 10
99.33972059116152
 20
749.0923057865023
 30
0.0
 10
99.3221105666556
 20
749.1204272729545
 30
0.0
  0
ARC
  5
1D9
330
13D
100
AcDbEntity
  8
DV2_Default
  6
Continuous
 62
     7
100
AcDbCircle
 10
88.207941292
 20
713.8413228018
 30
0.0
 40
37.04336007383722
100
AcDbArc
 50
104.4002247149
 51
106.5786457072
  0
ARC
  5
1DA
330
13D
100
AcDbEntity
  8
DV2_Default
  6
Continuous
 62
     7
100
AcDbCircle
 10
88.4944660822
 20
713.8580703577
 30
0.0
 40
37.02662194481334
100
AcDbArc
 50
73.4175257843
 51
75.589024592
  0
ARC
  5
1DB
330
13D
100
AcDbEntity
  8
DV2_Default
  6
Continuous
 62
     7
100
AcDbCircle
 10
86.170555315
 20
895.4773441063
 30
0.0
 40
146.8771902450723
100
AcDbArc
 50
266.2815394072
 51
267.155848812
  0
ARC
  5
1DC
330
13D
100
AcDbEntity
  8
DV2_Default
  6
Continuous
 62
     7
100
AcDbCircle
 10
90.5974616715
 20
893.8186789613
 30
0.0
 40
145.2197580066049
100
AcDbArc
 50
272.851979698
 51
273.7336576176
  0
LINE
  5
1DD
330
13D
100
AcDbEntity
  8
DV2_Default
  6
Continuous
 62
     7
100
AcDbLine
 10
111.0808609942
 20
715.1569167044
 30
0.0
 11
110.8688949026
 21
715.4910574684
 31
0.0
  0
LINE
  5
1DE
330
13D
100
AcDbEntity
  8
DV2_Default
  6
Continuous
 62
     7
100
AcDbLine
 10
65.8278239763
 20
715.4907732985
 30
0.0
 11
65.6038029827
 21
715.139544705
 31
0.0
  0
SPLINE
  5
1DF
330
13D
100
AcDbEntity
  8
DV2_Default
  6
Continuous
 62
     7
100
AcDbSpline
210
0.0
220
0.0
230
1.0
 70
     8
 71
     3
 72
     8
 73
     4
 74
     0
 42
0.0000002446437927
 43
0.0000000001
 40
0.0
 40
0.0
 40
0.0
 40
0.0
 40
1.0
 40
1.0
 40
1.0
 40
1.0
 10
65.82353900564662
 20
715.5029291540785
 30
0.0
 10
65.822143293507
 20
715.4891549306778
 30
0.0
 10
65.82064821540747
 20
715.4756253573098
 30
0.0
 10
65.81901181162343
 20
715.462306435664
 30
0.0
  0
SPLINE
  5
1E0
330
13D
100
AcDbEntity
  8
DV2_Default
  6
Continuous
 62
     7
100
AcDbSpline
210
0.0
220
0.0
230
1.0
 70
     8
 71
     3
 72
    17
 73
    13
 74
     0
 42
0.0000000026071486
 43
0.0000000001
 40
0.0
 40
0.0
 40
0.0
 40
0.0
 40
0.1255481294856804
 40
0.2475452665788169
 40
0.3489895420117824
 40
0.4428242281920634
 40
0.5372012641466375
 40
0.6361771815703378
 40
0.7398919258047892
 40
0.843829217876376
 40
0.9457305772368821
 40
1.0
 40
1.0
 40
1.0
 40
1.0
 10
65.13966473279685
 20
714.7368412085535
 30
0.0
 10
65.05762059590458
 20
714.7205677716495
 30
0.0
 10
64.90868514831314
 20
714.6884411067307
 30
0.0
 10
64.6212246887742
 20
714.6076365992635
 30
0.0
 10
64.3109795283228
 20
714.4946549699195
 30
0.0
 10
63.98435113102585
 20
714.3410038680258
 30
0.0
 10
63.64059326091829
 20
714.1289633182773
 30
0.0
 10
63.29469254921367
 20
713.8409340477665
 30
0.0
 10
62.98053654478869
 20
713.4691612980702
 30
0.0
 10
62.74835441405713
 20
713.0310879401021
 30
0.0
 10
62.62510891082837
 20
712.6100423103427
 30
0.0
 10
62.63030697390951
 20
712.372332769037
 30
0.0
 10
62.63332038619593
 20
712.2755433423285
 30
0.0
  0
SPLINE
  5
1E1
330
13D
100
AcDbEntity
  8
DV2_Default
  6
Continuous
 62
     7
100
AcDbSpline
210
0.0
220
0.0
230
1.0
 70
     8
 71
     3
 72
     9
 73
     5
 74
     0
 42
0.0000000661103064
 43
0.0000000001
 40
0.0
 40
0.0
 40
0.0
 40
0.0
 40
0.1531500685027063
 40
0.9999999999999999
 40
0.9999999999999999
 40
0.9999999999999999
 40
0.9999999999999999
 10
114.0790958189581
 20
712.2597940923288
 30
0.0
 10
114.0801327423614
 20
712.2684351880347
 30
0.0
 10
114.0859329068477
 20
712.3170850299256
 30
0.0
 10
114.0866930064941
 20
712.3673578232954
 30
0.0
 10
114.084495201493
 20
712.4105883325356
 30
0.0
  0
SPLINE
  5
1E2
330
13D
100
AcDbEntity
  8
DV2_Default
  6
Continuous
 62
     7
100
AcDbSpline
210
0.0
220
0.0
230
1.0
 70
     8
 71
     3
 72
    14
 73
    10
 74
     0
 42
0.0000000042046873
 43
0.0000000001
 40
0.0
 40
0.0
 40
0.0
 40
0.0
 40
0.0165287159968385
 40
0.1866201718453664
 40
0.3373935040057769
 40
0.4849913486547879
 40
0.6391806246673368
 40
0.8202921001259397
 40
1.0
 40
1.0
 40
1.0
 40
1.0
 10
113.5959044667266
 20
713.6075264167058
 30
0.0
 10
113.5845097007015
 20
713.6218376749304
 30
0.0
 10
113.4543133230958
 20
713.781739116137
 30
0.0
 10
113.1899231615423
 20
714.0352921444351
 30
0.0
 10
112.7958517797963
 20
714.2987070392444
 30
0.0
 10
112.4318657829258
 20
714.4777845647969
 30
0.0
 10
112.0962460677215
 20
714.6025214728155
 30
0.0
 10
111.7975095534678
 20
714.6870009351649
 30
0.0
 10
111.6455554981856
 20
714.719830389501
 30
0.0
 10
111.5632941073785
 20
714.7361348162866
 30
0.0
  0
ARC
  5
1E3
330
13D
100
AcDbEntity
  8
DV2_Default
  6
Continuous
 62
     7
100
AcDbCircle
 10
64.7964518514
 20
712.267757524
 30
0.0
 40
2.16314981195707
100
AcDbArc
 50
179.793540213
 51
227.363404493
  0
ARC
  5
1E4
330
13D
100
AcDbEntity
  8
DV2_Default
  6
Continuous
 62
     7
100
AcDbCircle
 10
111.8427996375
 20
712.31203463
 30
0.0
 40
2.236920234579208
100
AcDbArc
 50
313.0130763504
 51
358.6612677795
  0
ARC
  5
1E5
330
13D
100
AcDbEntity
  8
DV2_Default
  6
Continuous
 62
     7
100
AcDbCircle
 10
88.5253723542
 20
735.1022677411
 30
0.0
 40
6.137857755492163
100
AcDbArc
 50
268.3388098912
 51
33.3501079634
  0
ARC
  5
1E6
330
13D
100
AcDbEntity
  8
DV2_Default
  6
Continuous
 62
     7
100
AcDbCircle
 10
88.1748277954
 20
735.1023665089
 30
0.0
 40
6.137921558094159
100
AcDbArc
 50
146.7239834709
 51
271.669188083
  0
SPLINE
  5
1E7
330
13D
100
AcDbEntity
  8
DV2_Default
  6
Continuous
 62
     7
100
AcDbSpline
210
0.0
220
0.0
230
1.0
 70
     8
 71
     3
 72
    48
 73
    44
 74
     0
 42
0.0000000003461695
 43
0.0000000001
 40
0.0
 40
0.0
 40
0.0
 40
0.0
 40
0.0150409278153767
 40
0.0210330888012538
 40
0.0310306291382703
 40
0.0414671000867824
 40
0.0527511771483756
 40
0.0646540342572458
 40
0.0771027831052166
 40
0.0900436188218393
 40
0.1034444253812324
 40
0.1172860730039006
 40
0.1315581536315668
 40
0.1462563730977917
 40
0.161381030682326
 40
0.1769361119220671
 40
0.1929287059440148
 40
0.2093464003816992
 40
0.2260896531232506
 40
0.2431838721117661
 40
0.2606701412006353
 40
0.2785512009649881
 40
0.2968263135074578
 40
0.3154861723377306
 40
0.3345024224623376
 40
0.3535806792831905
 40
0.3727190202468911
 40
0.3920048503389842
 40
0.4115287020664255
 40
0.4315050931747295
 40
0.4523004982377511
 40
0.4750187535863241
 40
0.5006289277874745
 40
0.5298066375945948
 40
0.5648927989412519
 40
0.6111411362493648
 40
0.6726096704325456
 40
0.7296165709339723
 40
0.7900006772426245
 40
0.8542397896503959
 40
0.9185331550561304
 40
0.9841693042914346
 40
1.0
 40
1.0
 40
1.0
 40
1.0
 10
88.34996999912148
 20
758.1418622034521
 30
0.0
 10
87.96378838573187
 20
758.1305329087468
 30
0.0
 10
87.51281519224727
 20
758.1149441375482
 30
0.0
 10
86.7882570560088
 20
758.0111974681316
 30
0.0
 10
86.18688431913016
 20
757.8882168766222
 30
0.0
 10
85.47714432158963
 20
757.6834397025553
 30
0.0
 10
84.7485935538294
 20
757.4060725278383
 30
0.0
 10
84.00792170629174
 20
757.0471677859292
 30
0.0
 10
83.27391322222323
 20
756.6054143149124
 30
0.0
 10
82.56076286022225
 20
756.0805215250625
 30
0.0
 10
81.88150782626764
 20
755.4741702434889
 30
0.0
 10
81.24789774802836
 20
754.789647138516
 30
0.0
 10
80.67058747117588
 20
754.0317405825734
 30
0.0
 10
80.15913091718855
 20
753.2065998999378
 30
0.0
 10
79.72193469323338
 20
752.3215815949735
 30
0.0
 10
79.36620290156837
 20
751.3851186665752
 30
0.0
 10
79.09793859071354
 20
750.406884198528
 30
0.0
 10
78.92217144772404
 20
749.399916563946
 30
0.0
 10
78.84116024522712
 20
748.3801419818205
 30
0.0
 10
78.85370378324357
 20
747.3613812723765
 30
0.0
 10
78.956402549411
 20
746.3562155889961
 30
0.0
 10
79.14338325249072
 20
745.3778754838528
 30
0.0
 10
79.40574147405448
 20
744.4402998609613
 30
0.0
 10
79.73115749280134
 20
743.5572285385805
 30
0.0
 10
80.10259186432809
 20
742.7447056114258
 30
0.0
 10
80.49676752570285
 20
742.0196828097014
 30
0.0
 10
80.8910391273314
 20
741.389037824395
 30
0.0
 10
81.26630345225693
 20
740.8524219709731
 30
0.0
 10
81.6074294960608
 20
740.4052072936247
 30
0.0
 10
81.90400110014208
 20
740.0400777181258
 30
0.0
 10
82.15420514169269
 20
739.7437402242957
 30
0.0
 10
82.36591260672535
 20
739.4971757081241
 30
0.0
 10
82.53661444446094
 20
739.2969906918364
 30
0.0
 10
82.67035732417703
 20
739.1340762648723
 30
0.0
 10
82.7698986014457
 20
739.0039003894174
 30
0.0
 10
82.88090422638702
 20
738.84129228721
 30
0.0
 10
83.01195278779228
 20
738.6105827500356
 30
0.0
 10
83.14982519418683
 20
738.2983798165118
 30
0.0
 10
83.2986972696568
 20
737.8411396532041
 30
0.0
 10
83.4157023307054
 20
737.3012423002602
 30
0.0
 10
83.48864719996158
 20
736.6622373268938
 30
0.0
 10
83.502718349832
 20
736.1149851266867
 30
0.0
 10
83.49204504975704
 20
735.8402627742984
 30
0.0
 10
83.4894909636869
 20
735.777726557576
 30
0.0
  0
SPLINE
  5
1E8
330
13D
100
AcDbEntity
  8
DV2_Default
  6
Continuous
 62
     7
100
AcDbSpline
210
0.0
220
0.0
230
1.0
 70
     8
 71
     3
 72
    47
 73
    43
 74
     0
 42
0.0000000003461435
 43
0.0000000001
 40
0.0
 40
0.0
 40
0.0
 40
0.0
 40
0.0316574622889786
 40
0.1036351458831218
 40
0.169344071105638
 40
0.2365923118788642
 40
0.2917389968005976
 40
0.3474045394318988
 40
0.4121570039580034
 40
0.4548244261484048
 40
0.4860715358559295
 40
0.5140160125121549
 40
0.5384735005190037
 40
0.5605196626547885
 40
0.5802549874541197
 40
0.6009895819151976
 40
0.6209933430707074
 40
0.6406991265769019
 40
0.6603580893672768
 40
0.6800668053287154
 40
0.6998153054543244
 40
0.7196914688178268
 40
0.7392990782745671
 40
0.7585921201251161
 40
0.7755678112772525
 40
0.79221401053972
 40
0.8085997212443794
 40
0.82466417835945
 40
0.8403742106960012
 40
0.8557480386417493
 40
0.8708006147278753
 40
0.8855449346711176
 40
0.8999908740454634
 40
0.9141424692885171
 40
0.9279912186231846
 40
0.9414981782797031
 40
0.9545386318662623
 40
0.9666785708975197
 40
0.9764942571197914
 40
0.9847460295173762
 40
0.9949209480762954
 40
1.0
 40
1.0
 40
1.0
 40
1.0
 10
93.21131669336519
 20
735.7779040016771
 30
0.0
 10
93.2068343965598
 20
735.9035381360956
 30
0.0
 10
93.19550438112931
 20
736.2512257711157
 30
0.0
 10
93.22852623668072
 20
736.8812950995477
 30
0.0
 10
93.32234176604858
 20
737.5120457979175
 30
0.0
 10
93.457827691585
 20
738.0343393386705
 30
0.0
 10
93.60487665378061
 20
738.43122859564
 30
0.0
 10
93.73793577544986
 20
738.7052007324364
 30
0.0
 10
93.8701507717114
 20
738.919723851119
 30
0.0
 10
93.97557558680884
 20
739.0649596726907
 30
0.0
 10
94.09719929476292
 20
739.2175285550021
 30
0.0
 10
94.25200200987767
 20
739.4014571889084
 30
0.0
 10
94.45153618344015
 20
739.6337476462116
 30
0.0
 10
94.68881579203602
 20
739.9120795176933
 30
0.0
 10
94.97112772636504
 20
740.2534081500003
 30
0.0
 10
95.30285506385609
 20
740.6763166432246
 30
0.0
 10
95.68213490310961
 20
741.2010182340147
 30
0.0
 10
96.08440483998456
 20
741.8202792860661
 30
0.0
 10
96.49309674537858
 20
742.5401798380763
 30
0.0
 10
96.8875523664293
 20
743.3628227919166
 30
0.0
 10
97.24355788287787
 20
744.2820255519817
 30
0.0
 10
97.5369867032876
 20
745.285027090442
 30
0.0
 10
97.74642690081764
 20
746.3543030043211
 30
0.0
 10
97.85159117637271
 20
747.4275755250324
 30
0.0
 10
97.85493214254123
 20
748.480833899247
 30
0.0
 10
97.7650689866245
 20
749.4970476285201
 30
0.0
 10
97.58022743130313
 20
750.5030341527985
 30
0.0
 10
97.3013116127021
 20
751.4841682468042
 30
0.0
 10
96.93163323865926
 20
752.4278998908985
 30
0.0
 10
96.47568554540565
 20
753.3238014079087
 30
0.0
 10
95.93879725582332
 20
754.1629940240358
 30
0.0
 10
95.32741009849703
 20
754.9372060744565
 30
0.0
 10
94.64910420832922
 20
755.638893763021
 30
0.0
 10
93.91276683097821
 20
756.2612940282683
 30
0.0
 10
93.12910335488455
 20
756.7984035968211
 30
0.0
 10
92.31247372676933
 20
757.2447363987723
 30
0.0
 10
91.48724141638031
 20
757.5942670562257
 30
0.0
 10
90.71140217992269
 20
757.8385383010539
 30
0.0
 10
90.02321713377358
 20
757.9926573332943
 30
0.0
 10
89.37559992347823
 20
758.0911375137944
 30
0.0
 10
88.81347004772101
 20
758.1361339915089
 30
0.0
 10
88.48046186604321
 20
758.1406427031843
 30
0.0
 10
88.35000000001344
 20
758.1419329530846
 30
0.0
  0
ENDBLK
  5
1EA
330
13D
100
AcDbEntity
  8
0
100
AcDbBlockEnd
  0
BLOCK
  5
24A
330
1EB
100
AcDbEntity
  8
0
100
AcDbBlockBegin
  2
SE2
 70
     0
 10
0.0
 20
0.0
 30
0.0
  3
SE2
  1

  0
SPLINE
  5
1EE
330
1EB
100
AcDbEntity
  8
DV3_Default
  6
Continuous
 62
     7
100
AcDbSpline
210
0.0
220
0.0
230
1.0
 70
     8
 71
     3
 72
    34
 73
    30
 74
     0
 42
0.0000000000979373
 43
0.0000000001
 40
0.0
 40
0.0
 40
0.0
 40
0.0
 40
0.0395918702405355
 40
0.1086114700308876
 40
0.1902761520245518
 40
0.234641701102048
 40
0.2800558003904959
 40
0.3243241011307155
 40
0.3454664030302661
 40
0.3659806780509577
 40
0.4061039241570805
 40
0.4480773935357114
 40
0.4781787900168668
 40
0.4937781239807353
 40
0.5174163467821894
 40
0.5409088025130526
 40
0.5860571276192832
 40
0.6277820995211012
 40
0.7018626856560265
 40
0.7351346585124157
 40
0.7665963502236395
 40
0.7968058250506728
 40
0.826134839501121
 40
0.8550364048213142
 40
0.8839109570944454
 40
0.9124349166797446
 40
0.9394255968253681
 40
0.9855277399671801
 40
1.0
 40
1.0
 40
1.0
 40
1.0
 10
107.6882032695072
 20
434.0989815041596
 30
0.0
 10
107.618560261976
 20
433.2355992112282
 30
0.0
 10
107.4232180624647
 20
430.7674437727591
 30
0.0
 10
107.0613131607601
 20
425.9735771267316
 30
0.0
 10
106.6684144219622
 20
420.4549167288162
 30
0.0
 10
106.3127352659498
 20
415.2197860288335
 30
0.0
 10
106.0292563743513
 20
410.9286020776937
 30
0.0
 10
105.7919521877018
 20
407.2287120803869
 30
0.0
 10
105.6070273949849
 20
404.2818518318666
 30
0.0
 10
105.4306390908661
 20
401.4314196957752
 30
0.0
 10
105.2089394818878
 20
397.7741398080194
 30
0.0
 10
104.9673326064902
 20
393.6643616260005
 30
0.0
 10
104.7807280571904
 20
390.3795623655453
 30
0.0
 10
104.6347605629054
 20
387.7487667166582
 30
0.0
 10
104.5042102003329
 20
385.3431491347733
 30
0.0
 10
104.3157858924568
 20
381.7601660745405
 30
0.0
 10
104.0977550343925
 20
377.4037710496259
 30
0.0
 10
103.800348907597
 20
370.9475371224146
 30
0.0
 10
103.5584860475305
 20
364.8598246968295
 30
0.0
 10
103.3826025826574
 20
359.2246612071291
 30
0.0
 10
103.2867632463798
 20
355.4104896579685
 30
0.0
 10
103.2212443159999
 20
351.8260462552661
 30
0.0
 10
103.185962073025
 20
348.4421239625128
 30
0.0
 10
103.1813352188301
 20
345.2390240015963
 30
0.0
 10
103.2086234689239
 20
342.2268549585791
 30
0.0
 10
103.2689435851894
 20
339.4637513966187
 30
0.0
 10
103.3844247387042
 20
336.3678302500117
 30
0.0
 10
103.5329899642495
 20
333.9758551415244
 30
0.0
 10
103.665698707517
 20
332.4865382897172
 30
0.0
 10
103.6990739953271
 20
332.1397873053592
 30
0.0
  0
SPLINE
  5
1EF
330
1EB
100
AcDbEntity
  8
DV3_Default
  6
Continuous
 62
     7
100
AcDbSpline
210
0.0
220
0.0
230
1.0
 70
     8
 71
     3
 72
    15
 73
    11
 74
     0
 42
0.000000001094757
 43
0.0000000001
 40
0.0
 40
0.0
 40
0.0
 40
0.0
 40
0.1287981512445497
 40
0.2987550632973526
 40
0.4346943870593064
 40
0.6328428579972171
 40
0.7648384891836868
 40
0.8558266101267347
 40
0.9202114277558838
 40
1.0
 40
1.0
 40
1.0
 40
1.0
 10
103.6990739953271
 20
332.1397873053592
 30
0.0
 10
103.7496275735559
 20
331.6145632799262
 30
0.0
 10
103.8757712170966
 20
330.4445553997102
 30
0.0
 10
104.0882019117622
 20
328.8951329911912
 30
0.0
 10
104.36396501537
 20
327.2723204200361
 30
0.0
 10
104.6451184789356
 20
325.9470698395568
 30
0.0
 10
104.8999405630259
 20
324.873181042207
 30
0.0
 10
105.0546517145918
 20
324.1853892740963
 30
0.0
 10
105.1588435197334
 20
323.6422300568068
 30
0.0
 10
105.1868072944443
 20
323.3193015537535
 30
0.0
 10
105.2022826425748
 20
323.1405861507895
 30
0.0
  0
ARC
  5
1F0
330
1EB
100
AcDbEntity
  8
DV3_Default
  6
Continuous
 62
     7
100
AcDbCircle
 10
88.6232194077
 20
322.5116225077
 30
0.0
 40
16.59098951270991
100
AcDbArc
 50
2.6899058611
 51
3.943359908
  0
ARC
  5
1F1
330
1EB
100
AcDbEntity
  8
DV3_Default
  6
Continuous
 62
     7
100
AcDbCircle
 10
88.0996787091
 20
322.4874475929
 30
0.0
 40
16.61480043916574
100
AcDbArc
 50
176.4068985588
 51
177.7470851096
  0
SPLINE
  5
1F2
330
1EB
100
AcDbEntity
  8
DV3_Default
  6
Continuous
 62
     7
100
AcDbSpline
210
0.0
220
0.0
230
1.0
 70
     8
 71
     3
 72
    10
 73
     6
 74
     0
 42
0.000000302139399
 43
0.0000000001
 40
0.0
 40
0.0
 40
0.0
 40
0.0
 40
0.4004661207830392
 40
0.7817533349710127
 40
1.0
 40
1.0
 40
1.0
 40
1.0
 10
71.49772088551481
 20
323.1405862130896
 30
0.0
 10
71.49805337530006
 20
323.1366802795308
 30
0.0
 10
71.49871008497009
 20
323.1290557724068
 30
0.0
 10
71.50543405105081
 20
323.1205781059292
 30
0.0
 10
71.51136597492454
 20
323.1156679880751
 30
0.0
 10
71.5137860364623
 20
323.1138889885041
 30
0.0
  0
SPLINE
  5
1F3
330
1EB
100
AcDbEntity
  8
DV3_Default
  6
Continuous
 62
     7
100
AcDbSpline
210
0.0
220
0.0
230
1.0
 70
     8
 71
     3
 72
     9
 73
     5
 74
     0
 42
0.0000003093842328
 43
0.0000000001
 40
0.0
 40
0.0
 40
0.0
 40
0.0
 40
0.4526397933813766
 40
1.0
 40
1.0
 40
1.0
 40
1.0
 10
105.1862290603186
 20
323.1143015797506
 30
0.0
 10
105.1913598202109
 20
323.1185002044326
 30
0.0
 10
105.2001132231633
 20
323.1279877937143
 30
0.0
 10
105.2015154885301
 20
323.1361296380285
 30
0.0
 10
105.2022826425748
 20
323.1405861507895
 30
0.0
  0
ELLIPSE
  5
1F4
330
1EB
100
AcDbEntity
  8
DV3_Default
  6
Continuous
 62
     7
100
AcDbEllipse
 10
104.9023724584
 20
323.1338035502
 30
0.0
 11
0.2996304044226641
 21
0.01488693213927417
 31
0.0
210
0.0
220
0.0
230
1.0
 40
0.9464860394
 41
5.645416288056939
 42
6.254625774297064
  0
ARC
  5
1F5
330
1EB
100
AcDbEntity
  8
DV3_Default
  6
Continuous
 62
     7
100
AcDbCircle
 10
71.791458851
 20
323.1435090413
 30
0.0
 40
0.2937525068824273
100
AcDbArc
 50
200.0739338535
 51
248.6624512427
  0
ARC
  5
1F6
330
1EB
100
AcDbEntity
  8
DV3_Default
  6
Continuous
 62
     7
100
AcDbCircle
 10
71.791458851
 20
323.1435090413
 30
0.0
 40
0.2937525068824273
100
AcDbArc
 50
180.5701006082
 51
200.0739338535
  0
SPLINE
  5
1F7
330
1EB
100
AcDbEntity
  8
DV3_Default
  6
Continuous
 62
     7
100
AcDbSpline
210
0.0
220
0.0
230
1.0
 70
     8
 71
     3
 72
    23
 73
    19
 74
     0
 42
0.0000000006141056
 43
0.0000000001
 40
0.0
 40
0.0
 40
0.0
 40
0.0
 40
0.0350568085291085
 40
0.0824099231833441
 40
0.1227912854909762
 40
0.1577064875744748
 40
0.1925820025810795
 40
0.2294372539818578
 40
0.3218919504402371
 40
0.4151677815573535
 40
0.4927561261140292
 40
0.5592191172706006
 40
0.6294015865333846
 40
0.7050998315917396
 40
0.7879886890519674
 40
0.8784324049515768
 40
0.9467017723139829
 40
1.0
 40
1.0
 40
1.0
 40
1.0
 10
105.177995704414
 20
323.4587654071348
 30
0.0
 10
105.163478891371
 20
323.8201482595072
 30
0.0
 10
105.133393016885
 20
324.5366213473916
 30
0.0
 10
104.9840884271822
 20
325.6285879767574
 30
0.0
 10
104.8113903896304
 20
326.5904966743999
 30
0.0
 10
104.6637763998676
 20
327.2710726221405
 30
0.0
 10
104.537668634266
 20
327.8030844872542
 30
0.0
 10
104.3678785333421
 20
328.4803132110852
 30
0.0
 10
104.2179153614804
 20
329.061718147966
 30
0.0
 10
104.0656484796095
 20
329.7625704339765
 30
0.0
 10
103.9336800526254
 20
330.526196915762
 30
0.0
 10
103.824091278627
 20
331.2895138939276
 30
0.0
 10
103.7090515594965
 20
332.2476358700716
 30
0.0
 10
103.5923366407132
 20
333.4557750862307
 30
0.0
 10
103.4781663438002
 20
334.9684860228792
 30
0.0
 10
103.3842892666572
 20
336.6221495944436
 30
0.0
 10
103.3173117674843
 20
338.2025375019615
 30
0.0
 10
103.2859595547446
 20
339.1593249705841
 30
0.0
 10
103.2735745909768
 20
339.5885144241269
 30
0.0
  0
SPLINE
  5
1F8
330
1EB
100
AcDbEntity
  8
DV3_Default
  6
Continuous
 62
     7
100
AcDbSpline
210
0.0
220
0.0
230
1.0
 70
     8
 71
     3
 72
    24
 73
    20
 74
     0
 42
0.0000000006214748
 43
0.0000000001
 40
0.0
 40
0.0
 40
0.0
 40
0.0
 40
0.0712618835603823
 40
0.1431540739664276
 40
0.2466320600736853
 40
0.3481156360508219
 40
0.4178638004453644
 40
0.4880280193232489
 40
0.5521509602385285
 40
0.5954953229876657
 40
0.6388378702631768
 40
0.6891704227701818
 40
0.7452398805400302
 40
0.7848849467945999
 40
0.8258803783938112
 40
0.868821563211183
 40
0.9146425724089332
 40
0.9643015099148361
 40
1.0
 40
1.0
 40
1.0
 40
1.0
 10
73.41846072948192
 20
339.3198771523245
 30
0.0
 10
73.401302024405
 20
338.757224258081
 30
0.0
 10
73.3619919470374
 20
337.6601763657309
 30
0.0
 10
73.27843308538282
 20
335.9020298978002
 30
0.0
 10
73.16405829781709
 20
334.121403010239
 30
0.0
 10
73.03031832280975
 20
332.6141323924514
 30
0.0
 10
72.90430676527525
 20
331.5087119612626
 30
0.0
 10
72.79702759637513
 20
330.7286211452825
 30
0.0
 10
72.70277137560976
 20
330.1536646827853
 30
0.0
 10
72.62795247978293
 20
329.7542645261444
 30
0.0
 10
72.55537811762535
 20
329.4029294644506
 30
0.0
 10
72.44487264438952
 20
328.9155777484854
 30
0.0
 10
72.31835485783589
 20
328.4006624635811
 30
0.0
 10
72.19529839026923
 20
327.9159060643518
 30
0.0
 10
72.04961072589941
 20
327.3081555416418
 30
0.0
 10
71.8752048226591
 20
326.4980773241884
 30
0.0
 10
71.69971026688886
 20
325.4960095004684
 30
0.0
 10
71.55781214778165
 20
324.4159319388803
 30
0.0
 10
71.52993020469926
 20
323.7250169251583
 30
0.0
 10
71.51670334987885
 20
323.3823936628574
 30
0.0
  0
ARC
  5
1F9
330
1EB
100
AcDbEntity
  8
DV3_Default
  6
Continuous
 62
     7
100
AcDbCircle
 10
82.035243023
 20
323.2811724826
 30
0.0
 40
10.51918153520793
100
AcDbArc
 50
173.7208477913
 51
173.7942420918
  0
ARC
  5
1FA
330
1EB
100
AcDbEntity
  8
DV3_Default
  6
Continuous
 62
     7
100
AcDbCircle
 10
82.035243023
 20
323.2811724826
 30
0.0
 40
10.51918153520793
100
AcDbArc
 50
179.2667506248
 51
179.569782509
  0
ARC
  5
1FB
330
1EB
100
AcDbEntity
  8
DV3_Default
  6
Continuous
 62
     7
100
AcDbCircle
 10
94.6846252451
 20
323.2828049045
 30
0.0
 40
10.49925058531181
100
AcDbArc
 50
0.74543967
 51
5.1074717287
  0
ARC
  5
1FC
330
1EB
100
AcDbEntity
  8
DV3_Default
  6
Continuous
 62
     7
100
AcDbCircle
 10
104.9023724601
 20
323.1338035514
 30
0.0
 40
0.2999999999999947
100
AcDbArc
 50
326.6267132697
 51
1.1613390282
  0
ARC
  5
1FD
330
1EB
100
AcDbEntity
  8
DV3_Default
  6
Continuous
 62
     7
100
AcDbCircle
 10
102.0481944285
 20
323.1439315266
 30
0.0
 40
3.139448403408823
100
AcDbArc
 50
358.1554628108
 51
7.4433296647
  0
ARC
  5
1FE
330
1EB
100
AcDbEntity
  8
DV3_Default
  6
Continuous
 62
     7
100
AcDbCircle
 10
71.7976275399
 20
323.1338035514
 30
0.0
 40
0.2999999999999994
100
AcDbArc
 50
179.2325783044
 51
213.7572823553
  0
ARC
  5
1FF
330
1EB
100
AcDbEntity
  8
DV3_Default
  6
Continuous
 62
     7
100
AcDbCircle
 10
74.6151542475
 20
323.1475128704
 30
0.0
 40
3.102824756149788
100
AcDbArc
 50
172.6769823809
 51
181.9386670735
  0
SPLINE
  5
200
330
1EB
100
AcDbEntity
  8
DV3_Default
  6
Continuous
 62
     7
100
AcDbSpline
210
0.0
220
0.0
230
1.0
 70
     8
 71
     3
 72
    43
 73
    39
 74
     0
 42
0.0000000000894725
 43
0.0000000001
 40
0.0
 40
0.0
 40
0.0
 40
0.0
 40
0.0000028655497782
 40
0.0043959167135028
 40
0.0087889678772274
 40
0.0263611725321257
 40
0.0439333771870241
 40
0.0615055818419225
 40
0.0966499911517192
 40
0.1142221958066176
 40
0.1317944004622103
 40
0.1669388097720071
 40
0.2020832190818038
 40
0.219655423736702
 40
0.2372276283916005
 40
0.2723720377013971
 40
0.3075164470118882
 40
0.3250886516667867
 40
0.3426608563216852
 40
0.3778052656314816
 40
0.39537747028638
 40
0.4129496749412785
 40
0.4480940842517696
 40
0.4832384935615663
 40
0.518382902871363
 40
0.5359551075262614
 40
0.5535273121811598
 40
0.6238161308014477
 40
0.694104949421041
 40
0.7292493587308377
 40
0.746821563385736
 40
0.7643937680413287
 40
0.8346825866609223
 40
0.904971405280516
 40
0.9401158145910069
 40
0.9576880192459053
 40
0.9752602239008037
 40
1.0
 40
1.0
 40
1.0
 40
1.0
 10
71.49595046518452
 20
322.6486818040458
 30
0.0
 10
71.49594356681202
 20
322.6489189114168
 30
0.0
 10
71.49944861935224
 20
322.716967558749
 30
0.0
 10
71.5094539371205
 20
322.8532025462671
 30
0.0
 10
71.5579351985662
 20
323.2633664502481
 30
0.0
 10
71.68557053739765
 20
323.8924748221995
 30
0.0
 10
71.89478872353227
 20
324.7901741171564
 30
0.0
 10
72.18953668710334
 20
326.0841035943033
 30
0.0
 10
72.46851561559288
 20
327.5475997414765
 30
0.0
 10
72.71703231146945
 20
329.2201293449122
 30
0.0
 10
72.9397996896586
 20
331.0182192128266
 30
0.0
 10
73.1695504552998
 20
333.5168193315602
 30
0.0
 10
73.33611603890955
 20
336.3992392169738
 30
0.0
 10
73.43213591824772
 20
338.9538364993038
 30
0.0
 10
73.50231999879483
 20
341.6133095217021
 30
0.0
 10
73.54604386535009
 20
345.1548091429145
 30
0.0
 10
73.53613525488328
 20
348.9960484387307
 30
0.0
 10
73.4978163116591
 20
352.222706693763
 30
0.0
 10
73.44138206244088
 20
355.4763132909217
 30
0.0
 10
73.35983019727806
 20
358.7910837182595
 30
0.0
 10
73.25674882402701
 20
362.1622772153586
 30
0.0
 10
73.14092835699728
 20
365.5520016397741
 30
0.0
 10
72.97809265396123
 20
369.7386532667715
 30
0.0
 10
72.75912458324653
 20
374.7160614932109
 30
0.0
 10
72.56197720739347
 20
378.8208731616553
 30
0.0
 10
72.39666703776459
 20
382.089848621846
 30
0.0
 10
72.14420251928831
 20
386.9332499968336
 30
0.0
 10
71.75444567786089
 20
393.9346686184941
 30
0.0
 10
71.31296189804739
 20
401.32631334589
 30
0.0
 10
71.00263068276942
 20
406.3056880046875
 30
0.0
 10
70.82513592379784
 20
409.0947190303401
 30
0.0
 10
70.5612486605374
 20
413.1836663804102
 30
0.0
 10
70.17301534018989
 20
418.9890820035213
 30
0.0
 10
69.7558498103047
 20
424.8482764092478
 30
0.0
 10
69.47216130998564
 20
428.6235985284408
 30
0.0
 10
69.31299113860206
 20
430.6814927438317
 30
0.0
 10
69.18033112297833
 20
432.3626185565291
 30
0.0
 10
69.08901680246012
 20
433.4918780804985
 30
0.0
 10
69.03644801653306
 20
434.1324803617833
 30
0.0
  0
ARC
  5
201
330
1EB
100
AcDbEntity
  8
DV3_Default
  6
Continuous
 62
     7
100
AcDbCircle
 10
88.0493676057
 20
323.1475393062
 30
0.0
 40
16.56092677079701
100
AcDbArc
 50
181.7290658118
 51
271.0409570025
  0
ARC
  5
202
330
1EB
100
AcDbEntity
  8
DV3_Default
  6
Continuous
 62
     7
100
AcDbCircle
 10
88.0206217024
 20
442.7896722293
 30
0.0
 40
19.67694947258391
100
AcDbArc
 50
217.2194860237
 51
254.540183076
  0
ARC
  5
203
330
1EB
100
AcDbEntity
  8
DV3_Default
  6
Continuous
 62
     7
100
AcDbCircle
 10
88.6792813004
 20
442.7897924876
 30
0.0
 40
19.67706823418814
100
AcDbArc
 50
285.4679489228
 51
322.6926671882
  0
ARC
  5
204
330
1EB
100
AcDbEntity
  8
DV3_Default
  6
Continuous
 62
     7
100
AcDbCircle
 10
88.655917165
 20
323.1420188093
 30
0.0
 40
16.55549549287062
100
AcDbArc
 50
268.9420153049
 51
358.2896359934
  0
SPLINE
  5
205
330
1EB
100
AcDbEntity
  8
DV3_Default
  6
Continuous
 62
     7
100
AcDbSpline
210
0.0
220
0.0
230
1.0
 70
     8
 71
     3
 72
    10
 73
     6
 74
     0
 42
0.0000000048547773
 43
0.0000000001
 40
0.0
 40
0.0
 40
0.0
 40
0.0
 40
0.1359023868610665
 40
0.6167790201272096
 40
1.0
 40
1.0
 40
1.0
 40
1.0
 10
71.79366764699947
 20
332.2278123621696
 30
0.0
 10
71.84872324846927
 20
332.3029305437234
 30
0.0
 10
72.10107376241676
 20
332.6421463182691
 30
0.0
 10
72.52833147910694
 20
333.1793630707776
 30
0.0
 10
72.91862933810914
 20
333.6270841307638
 30
0.0
 10
73.09573731531678
 20
333.822246415202
 30
0.0
  0
SPLINE
  5
206
330
1EB
100
AcDbEntity
  8
DV3_Default
  6
Continuous
 62
     7
100
AcDbSpline
210
0.0
220
0.0
230
1.0
 70
     8
 71
     3
 72
    10
 73
     6
 74
     0
 42
0.0000001078616358
 43
0.0000000001
 40
0.0
 40
0.0
 40
0.0
 40
0.0
 40
0.5070710052836951
 40
0.8883689404457435
 40
1.0
 40
1.0
 40
1.0
 40
1.0
 10
88.35000016258459
 20
301.3088327129968
 30
0.0
 10
88.35000699692655
 20
301.285345115458
 30
0.0
 10
88.35001911863499
 20
301.246714471582
 30
0.0
 10
88.35000315871822
 20
301.2192953805692
 30
0.0
 10
88.34997714760489
 20
301.216128821791
 30
0.0
 10
88.34997005486306
 20
301.2161308026131
 30
0.0
  0
SPLINE
  5
207
330
1EB
100
AcDbEntity
  8
DV3_Default
  6
Continuous
 62
     7
100
AcDbSpline
210
0.0
220
0.0
230
1.0
 70
     8
 71
     3
 72
     9
 73
     5
 74
     0
 42
0.0000000053016163
 43
0.0000000001
 40
0.0
 40
0.0
 40
0.0
 40
0.0
 40
0.356729548064162
 40
1.0
 40
1.0
 40
1.0
 40
1.0
 10
103.6031940868308
 20
333.8234204935213
 30
0.0
 10
103.7541487906573
 20
333.6571052530356
 30
0.0
 10
104.1691425770146
 20
333.1839635658004
 30
0.0
 10
104.5605504223302
 20
332.6921694900672
 30
0.0
 10
104.8021087512535
 20
332.3686888656364
 30
0.0
  0
SPLINE
  5
208
330
1EB
100
AcDbEntity
  8
DV3_Default
  6
Continuous
 62
     7
100
AcDbSpline
210
0.0
220
0.0
230
1.0
 70
     8
 71
     3
 72
    24
 73
    20
 74
     0
 42
0.0000000002453224
 43
0.0000000001
 40
0.0
 40
0.0
 40
0.0
 40
0.0
 40
0.0896348644666823
 40
0.0896348644666823
 40
0.1792697289333646
 40
0.1792697289333646
 40
0.3585394578667291
 40
0.3585394578667291
 40
0.5378091868000937
 40
0.5378091868000937
 40
0.627444051266776
 40
0.627444051266776
 40
0.7170789157334586
 40
0.7170789157334586
 40
0.8067137802001408
 40
0.8067137802001408
 40
0.8963486446668232
 40
0.8963486446668232
 40
0.9999999999999999
 40
0.9999999999999999
 40
0.9999999999999999
 40
0.9999999999999999
 10
88.35000000000478
 20
303.0374257241085
 30
0.0
 10
87.09930371718977
 20
303.0374254931507
 30
0.0
 10
85.86638985540432
 20
303.1559670984374
 30
0.0
 10
83.43517983166733
 20
303.6238201067661
 30
0.0
 10
82.2298856746038
 20
303.9781537781157
 30
0.0
 10
78.80711744627064
 20
305.3510829568003
 30
0.0
 10
76.69749027170703
 20
306.7159110538653
 30
0.0
 10
73.21207017597413
 20
310.0863966844172
 30
0.0
 10
71.80090091384497
 20
312.1272238627949
 30
0.0
 10
70.38457992316044
 20
315.4320172012202
 30
0.0
 10
70.01913171923738
 20
316.5962297440166
 30
0.0
 10
69.53758844497995
 20
318.9428841511923
 30
0.0
 10
69.41704944969106
 20
320.1281232219653
 30
0.0
 10
69.41705705216877
 20
322.5224865540948
 30
0.0
 10
69.5411983695352
 20
323.7319067095411
 30
0.0
 10
70.02366182249939
 20
326.0695281874384
 30
0.0
 10
70.38113076962475
 20
327.2114384907878
 30
0.0
 10
71.41160520886616
 20
329.6137360206274
 30
0.0
 10
72.11093582860866
 20
330.8294505844403
 30
0.0
 10
72.94234915646736
 20
331.9537932548825
 30
0.0
  0
SPLINE
  5
209
330
1EB
100
AcDbEntity
  8
DV3_Default
  6
Continuous
 62
     7
100
AcDbSpline
210
0.0
220
0.0
230
1.0
 70
     8
 71
     3
 72
    26
 73
    22
 74
     0
 42
0.0000000002454071
 43
0.0000000001
 40
0.0
 40
0.0
 40
0.0
 40
0.0
 40
0.0138257186669659
 40
0.0138257186669659
 40
0.1034779260608781
 40
0.1034779260608781
 40
0.2827823408487025
 40
0.2827823408487025
 40
0.3724345482426147
 40
0.3724345482426147
 40
0.4620867556365268
 40
0.4620867556365268
 40
0.551738963030439
 40
0.551738963030439
 40
0.6413911704243512
 40
0.6413911704243512
 40
0.8206955852121757
 40
0.8206955852121757
 40
0.9103477926060878
 40
0.9103477926060878
 40
1.0
 40
1.0
 40
1.0
 40
1.0
 10
103.7647289478192
 20
331.9432916301948
 30
0.0
 10
103.8757455613728
 20
331.7930393073269
 30
0.0
 10
103.9842049991387
 20
331.6414146059229
 30
0.0
 10
104.7758537659388
 20
330.4975133719721
 30
0.0
 10
105.3594294676349
 20
329.4465630711902
 30
0.0
 10
106.7933924833661
 20
326.108280664764
 30
0.0
 10
107.2821445232128
 20
323.733286618783
 30
0.0
 10
107.2833352748135
 20
320.1299858608455
 30
0.0
 10
107.1624011198883
 20
318.9441941133134
 30
0.0
 10
106.6824492987928
 20
316.6026499361709
 30
0.0
 10
106.3173093760779
 20
315.4370030034477
 30
0.0
 10
105.3718963457727
 20
313.229890758087
 30
0.0
 10
104.7917899199618
 20
312.1786735651079
 30
0.0
 10
103.4138576538561
 20
310.1823398365844
 30
0.0
 10
102.6183119355145
 20
309.2456778402164
 30
0.0
 10
100.0041438007684
 20
306.7170676139099
 30
0.0
 10
97.89242195837697
 20
305.3513160197942
 30
0.0
 10
94.47454775649545
 20
303.9797279408827
 30
0.0
 10
93.27311940503458
 20
303.6257503505843
 30
0.0
 10
90.83534024641986
 20
303.1559710148159
 30
0.0
 10
89.60069628281981
 20
303.0374259550662
 30
0.0
 10
88.35000000000478
 20
303.0374257241085
 30
0.0
  0
ARC
  5
20A
330
1EB
100
AcDbEntity
  8
DV3_Default
  6
Continuous
 62
     7
100
AcDbCircle
 10
88.0700284112
 20
322.3209836304
 30
0.0
 40
16.57499886977032
100
AcDbArc
 50
177.6037227378
 51
178.9936056538
  0
ARC
  5
20B
330
1EB
100
AcDbEntity
  8
DV3_Default
  6
Continuous
 62
     7
100
AcDbCircle
 10
88.0707357929
 20
322.9118647666
 30
0.0
 40
16.57586004673379
100
AcDbArc
 50
181.0361938442
 51
184.7197007605
  0
ARC
  5
20C
330
1EB
100
AcDbEntity
  8
DV3_Default
  6
Continuous
 62
     7
100
AcDbCircle
 10
87.7153934282
 20
320.8009816429
 30
0.0
 40
19.59507036121508
100
AcDbArc
 50
144.4128893907
 51
271.8470363853
  0
ARC
  5
20D
330
1EB
100
AcDbEntity
  8
DV3_Default
  6
Continuous
 62
     7
100
AcDbCircle
 10
88.9903131414
 20
320.8018862097
 30
0.0
 40
19.5961592355174
100
AcDbArc
 50
268.1363676132
 51
36.106217455
  0
LINE
  5
20E
330
1EB
100
AcDbEntity
  8
DV3_Default
  6
Continuous
 62
     7
100
AcDbLine
 10
90.4182257945
 20
476.7005131581
 30
0.0
 11
90.4198557306
 21
477.6050096808
 31
0.0
  0
LINE
  5
20F
330
1EB
100
AcDbEntity
  8
DV3_Default
  6
Continuous
 62
     7
100
AcDbLine
 10
86.4198622252
 20
477.6122178167
 30
0.0
 11
86.4182442593
 21
476.7143638522
 31
0.0
  0
ARC
  5
210
330
1EB
100
AcDbEntity
  8
DV3_Default
  6
Continuous
 62
     7
100
AcDbCircle
 10
139.35
 20
451.35
 30
0.0
 40
30.99999999999484
100
AcDbArc
 50
275.1423752107
 51
84.8576247893
  0
ARC
  5
211
330
1EB
100
AcDbEntity
  8
DV3_Default
  6
Continuous
 62
     7
100
AcDbCircle
 10
88.35
 20
1018.0598022798
 30
0.0
 40
600.0000000000036
100
AcDbArc
 50
264.8576247893
 51
268.2615561934
  0
ARC
  5
212
330
1EB
100
AcDbEntity
  8
DV3_Default
  6
Continuous
 62
     7
100
AcDbCircle
 10
88.35
 20
1018.0598022798
 30
0.0
 40
600.0000000000036
100
AcDbArc
 50
271.7384130693
 51
275.1423752107
  0
ARC
  5
213
330
1EB
100
AcDbEntity
  8
DV3_Default
  6
Continuous
 62
     7
100
AcDbCircle
 10
37.35
 20
451.35
 30
0.0
 40
31.0000000000048
100
AcDbArc
 50
95.1423752107
 51
264.8576247893
  0
ARC
  5
214
330
1EB
100
AcDbEntity
  8
DV3_Default
  6
Continuous
 62
     7
100
AcDbCircle
 10
88.35
 20
-115.3598022798
 30
0.0
 40
600.0000000000135
100
AcDbArc
 50
84.8576247893
 51
89.2997905057
  0
ARC
  5
215
330
1EB
100
AcDbEntity
  8
DV3_Default
  6
Continuous
 62
     7
100
AcDbCircle
 10
88.35
 20
-115.3598022798
 30
0.0
 40
600.0000000000135
100
AcDbArc
 50
90.6844673989
 51
95.1423752107
  0
ARC
  5
216
330
1EB
100
AcDbEntity
  8
DV3_Default
  6
Continuous
 62
     7
100
AcDbCircle
 10
88.35
 20
-115.3598022798
 30
0.0
 40
595.0925227118997
100
AcDbArc
 50
84.8576247893
 51
89.4749143761
  0
ARC
  5
217
330
1EB
100
AcDbEntity
  8
DV3_Default
  6
Continuous
 62
     7
100
AcDbCircle
 10
88.35
 20
-115.3598022798
 30
0.0
 40
595.0925227118997
100
AcDbArc
 50
90.5093435286
 51
95.1423752107
  0
ARC
  5
218
330
1EB
100
AcDbEntity
  8
DV3_Default
  6
Continuous
 62
     7
100
AcDbCircle
 10
37.35
 20
451.35
 30
0.0
 40
26.0925227118909
100
AcDbArc
 50
95.1423752107
 51
264.8576247893
  0
ARC
  5
219
330
1EB
100
AcDbEntity
  8
DV3_Default
  6
Continuous
 62
     7
100
AcDbCircle
 10
88.35
 20
1018.0598022798
 30
0.0
 40
595.0925227118997
100
AcDbArc
 50
264.8576247893
 51
268.2140833056
  0
ARC
  5
21A
330
1EB
100
AcDbEntity
  8
DV3_Default
  6
Continuous
 62
     7
100
AcDbCircle
 10
88.35
 20
1018.0598022798
 30
0.0
 40
595.0925227118997
100
AcDbArc
 50
271.7858618968
 51
275.1423752107
  0
ARC
  5
21B
330
1EB
100
AcDbEntity
  8
DV3_Default
  6
Continuous
 62
     7
100
AcDbCircle
 10
139.35
 20
451.35
 30
0.0
 40
26.0925227118909
100
AcDbArc
 50
275.1423752107
 51
84.8576247893
  0
CIRCLE
  5
21C
330
1EB
100
AcDbEntity
  8
DV3_Default
  6
Continuous
 62
     7
100
AcDbCircle
 10
88.4324167759
 20
484.5772823663
 30
0.0
 40
7.25
  0
ARC
  5
21D
330
1EB
100
AcDbEntity
  8
DV3_Default
  6
Continuous
 62
     7
100
AcDbCircle
 10
88.34872809
 20
450.1883927509
 30
0.0
 40
20.63658648807696
100
AcDbArc
 50
0.0211335718
 51
179.9742282391
  0
ARC
  5
21E
330
1EB
100
AcDbEntity
  8
DV3_Default
  6
Continuous
 62
     7
100
AcDbCircle
 10
88.3487287968
 20
450.205854366
 30
0.0
 40
20.63658672813886
100
AcDbArc
 50
180.0227089739
 51
359.972652837
  0
ARC
  5
21F
330
1EB
100
AcDbEntity
  8
DV3_Default
  6
Continuous
 62
     7
100
AcDbCircle
 10
88.3491469822
 20
450.1751208359
 30
0.0
 40
16.27645288937786
100
AcDbArc
 50
180.0507591155
 51
359.9488938766
  0
ARC
  5
220
330
1EB
100
AcDbEntity
  8
DV3_Default
  6
Continuous
 62
     7
100
AcDbCircle
 10
88.3491469191
 20
450.1542761565
 30
0.0
 40
16.27644770719347
100
AcDbArc
 50
0.0222705759
 51
179.9773824161
  0
ARC
  5
221
330
1EB
100
AcDbEntity
  8
DV3_Default
  6
Continuous
 62
     7
100
AcDbCircle
 10
88.3493994191
 20
450.0600083388
 30
0.0
 40
11.64214492839396
100
AcDbArc
 50
0.0149166236
 51
179.9850310335
  0
ARC
  5
222
330
1EB
100
AcDbEntity
  8
DV3_Default
  6
Continuous
 62
     7
100
AcDbCircle
 10
88.3488307234
 20
450.0539767617
 30
0.0
 40
10.98026755420294
100
AcDbArc
 50
0.0164154464
 51
179.9835244108
  0
ARC
  5
223
330
1EB
100
AcDbEntity
  8
DV3_Default
  6
Continuous
 62
     7
100
AcDbCircle
 10
88.3493994215
 20
450.0651097807
 30
0.0
 40
11.64214471562689
100
AcDbArc
 50
180.0101373259
 51
359.9898103312
  0
ARC
  5
224
330
1EB
100
AcDbEntity
  8
DV3_Default
  6
Continuous
 62
     7
100
AcDbCircle
 10
88.3488307268
 20
450.060370795
 30
0.0
 40
10.98026758062148
100
AcDbArc
 50
180.0168889098
 51
359.9830509474
  0
ARC
  5
225
330
1EB
100
AcDbEntity
  8
DV3_Default
  6
Continuous
 62
     7
100
AcDbCircle
 10
88.3503827444
 20
451.006735075
 30
0.0
 40
23.41207233455277
100
AcDbArc
 50
180.0128246663
 51
260.1660580628
  0
ARC
  5
226
330
1EB
100
AcDbEntity
  8
DV3_Default
  6
Continuous
 62
     7
100
AcDbCircle
 10
88.3503827444
 20
451.006735075
 30
0.0
 40
23.41207233455277
100
AcDbArc
 50
279.8229261001
 51
359.9816617361
  0
ARC
  5
227
330
1EB
100
AcDbEntity
  8
DV3_Default
  6
Continuous
 62
     7
100
AcDbCircle
 10
88.350382139
 20
450.9941519245
 30
0.0
 40
23.41207229408824
100
AcDbArc
 50
0.0124561661
 51
179.9820302362
  0
ARC
  5
228
330
1EB
100
AcDbEntity
  8
DV3_Default
  6
Continuous
 62
     7
100
AcDbCircle
 10
93.7955002789
 20
428.5216111562
 30
0.0
 40
1.492331366649722
100
AcDbArc
 50
169.8801625838
 51
179.3622380292
  0
SPLINE
  5
229
330
1EB
100
AcDbEntity
  8
DV3_Default
  6
Continuous
 62
     7
100
AcDbSpline
210
0.0
220
0.0
230
1.0
 70
    12
 71
     3
 72
     8
 73
     4
 74
     0
 42
0.0000000571358941
 43
0.0000000001
 40
0.0
 40
0.0
 40
0.0
 40
0.0
 40
1.0
 40
1.0
 40
1.0
 40
1.0
 10
84.38445848333392
 20
428.7126130467817
 30
0.0
 41
1.250042386593511
 10
84.39202234459208
 20
428.6541630508764
 30
0.0
 41
1.27513676238579
 10
84.39604957019476
 20
428.5959551256841
 30
0.0
 41
1.302120001017438
 10
84.3967380910965
 20
428.5382223525229
 30
0.0
 41
1.330992102488453
  0
SPLINE
  5
22A
330
1EB
100
AcDbEntity
  8
DV3_Default
  6
Continuous
 62
     7
100
AcDbSpline
210
0.0
220
0.0
230
1.0
 70
     8
 71
     3
 72
    17
 73
    13
 74
     0
 42
0.000000001596292
 43
0.0000000001
 40
0.0
 40
0.0
 40
0.0
 40
0.0
 40
0.0920658427697538
 40
0.180676297306912
 40
0.265835746512428
 40
0.347548107448543
 40
0.4258168237597021
 40
0.5006448616817641
 40
0.5720347018198465
 40
0.7151544017757114
 40
0.85892146595504
 40
1.0
 40
1.0
 40
1.0
 40
1.0
 10
88.34999724968507
 20
424.4407711702916
 30
0.0
 10
88.09205897642265
 20
424.4386803985899
 30
0.0
 10
87.58586323174512
 20
424.4347886369396
 30
0.0
 10
86.85267500858549
 20
424.4008233852855
 30
0.0
 10
86.1686448689332
 20
424.3496712755456
 30
0.0
 10
85.53984436298163
 20
424.282361446695
 30
0.0
 10
84.96999714513348
 20
424.2022989816215
 30
0.0
 10
84.46092027424258
 20
424.1123355959933
 30
0.0
 10
83.85486471712531
 20
423.9802742578718
 30
0.0
 10
83.20849576045102
 20
423.794628334085
 30
0.0
 10
82.63116642263968
 20
423.5413888321027
 30
0.0
 10
82.38821437846185
 20
423.3545415374497
 30
0.0
 10
82.30487179210857
 20
423.2601143995309
 30
0.0
  0
SPLINE
  5
22B
330
1EB
100
AcDbEntity
  8
DV3_Default
  6
Continuous
 62
     7
100
AcDbSpline
210
0.0
220
0.0
230
1.0
 70
     8
 71
     3
 72
    16
 73
    12
 74
     0
 42
0.0000000015956
 43
0.0000000001
 40
0.0
 40
0.0
 40
0.0
 40
0.0
 40
0.0879567295217164
 40
0.1653736044153498
 40
0.232251355085155
 40
0.2885901753176622
 40
0.4313569795678641
 40
0.5741425733049347
 40
0.7174780807120297
 40
0.8618395205727614
 40
1.0
 40
1.0
 40
1.0
 40
1.0
 10
88.34999724968507
 20
424.4407711702916
 30
0.0
 10
88.59648031435825
 20
424.4391171978417
 30
0.0
 10
89.05990520774772
 20
424.4357734716602
 30
0.0
 10
89.70179167522765
 20
424.4083870109268
 30
0.0
 10
90.24396576720844
 20
424.3727433799976
 30
0.0
 10
90.94310190656645
 20
424.3106164315649
 30
0.0
 10
91.79405839120153
 20
424.2013208575951
 30
0.0
 10
92.73229473763429
 20
424.0149840330839
 30
0.0
 10
93.50589546848548
 20
423.7908528621532
 30
0.0
 10
94.07637780016799
 20
423.5384072589302
 30
0.0
 10
94.3154659351897
 20
423.3529528368692
 30
0.0
 10
94.39690398374921
 20
423.2604334151377
 30
0.0
  0
SPLINE
  5
22C
330
1EB
100
AcDbEntity
  8
DV3_Default
  6
Continuous
 62
     7
100
AcDbSpline
210
0.0
220
0.0
230
1.0
 70
     8
 71
     3
 72
    18
 73
    14
 74
     0
 42
0.0000000014358031
 43
0.0000000001
 40
0.0
 40
0.0
 40
0.0
 40
0.0
 40
0.0789476069928316
 40
0.1414044068264899
 40
0.1873593918788559
 40
0.2168055134926134
 40
0.2297382154212478
 40
0.3429943559852551
 40
0.4562624559014732
 40
0.5697385768582715
 40
0.68428707255739
 40
0.9123259740574977
 40
1.0
 40
1.0
 40
1.0
 40
1.0
 10
88.34999605390882
 20
423.8602062674117
 30
0.0
 10
88.63062293064752
 20
423.8573018335806
 30
0.0
 10
89.1332304919619
 20
423.8520996456966
 30
0.0
 10
89.78799854082497
 20
423.8201332641517
 30
0.0
 10
90.25876190023381
 20
423.7870219302578
 30
0.0
 10
90.55398871527198
 20
423.761028444049
 30
0.0
 10
91.06678359555757
 20
423.7109102796589
 30
0.0
 10
91.82261312515587
 20
423.6140247564529
 30
0.0
 10
92.76562026734148
 20
423.4332607953945
 30
0.0
 10
93.5438772542698
 20
423.2044329219175
 30
0.0
 10
94.320454824201
 20
422.8565174090849
 30
0.0
 10
94.64216039454044
 20
422.4905085432963
 30
0.0
 10
94.56416619434437
 20
422.2179696230497
 30
0.0
 10
94.51942865654287
 20
422.1430398832337
 30
0.0
  0
SPLINE
  5
22D
330
1EB
100
AcDbEntity
  8
DV3_Default
  6
Continuous
 62
     7
100
AcDbSpline
210
0.0
220
0.0
230
1.0
 70
     8
 71
     3
 72
    18
 73
    14
 74
     0
 42
0.0000000014431529
 43
0.0000000001
 40
0.0
 40
0.0
 40
0.0
 40
0.0
 40
0.0842338457709718
 40
0.198022882404065
 40
0.3123085106703036
 40
0.5395037487848525
 40
0.65306203636772
 40
0.7685117443815059
 40
0.7822411916531872
 40
0.8122604352568439
 40
0.858564965087784
 40
0.9211479035556093
 40
1.0
 40
1.0
 40
1.0
 40
1.0
 10
82.18254448782547
 20
422.1422419158246
 30
0.0
 10
82.13888513292284
 20
422.2146743830386
 30
0.0
 10
82.08664457529977
 20
422.386298119574
 30
0.0
 10
82.19915053471571
 20
422.6515583790716
 30
0.0
 10
82.66954781766738
 20
423.024061007138
 30
0.0
 10
83.5899792409798
 20
423.3639408337111
 30
0.0
 10
84.84631423991863
 20
423.6111828193058
 30
0.0
 10
85.61142361447294
 20
423.7085065805919
 30
0.0
 10
86.13550119514117
 20
423.7600788612969
 30
0.0
 10
86.43638581388204
 20
423.7866470720037
 30
0.0
 10
86.91073163364733
 20
423.8200491928931
 30
0.0
 10
87.56690741242753
 20
423.8520639234423
 30
0.0
 10
88.06967833463102
 20
423.8572575181928
 30
0.0
 10
88.3499804740508
 20
423.8602064286603
 30
0.0
  0
SPLINE
  5
22E
330
1EB
100
AcDbEntity
  8
DV3_Default
  6
Continuous
 62
     7
100
AcDbSpline
210
0.0
220
0.0
230
1.0
 70
     8
 71
     3
 72
    16
 73
    12
 74
     0
 42
0.0000000017096434
 43
0.0000000001
 40
0.0
 40
0.0
 40
0.0
 40
0.0
 40
0.1422107797593652
 40
0.248767958200496
 40
0.3556349398915696
 40
0.4623018567902922
 40
0.5685037972630508
 40
0.6746854242015624
 40
0.7830420150363862
 40
0.8743632984959679
 40
1.0
 40
1.0
 40
1.0
 40
1.0
 10
83.47206928620217
 20
420.7269221760051
 30
0.0
 10
83.35319566186388
 20
420.8305640909518
 30
0.0
 10
83.24092296738236
 20
421.0195940950488
 30
0.0
 10
83.3440197296248
 20
421.2841841689581
 30
0.0
 10
83.62885994315553
 20
421.5131568243985
 30
0.0
 10
84.09028517915974
 20
421.7280977000386
 30
0.0
 10
84.71368093089356
 20
421.917199226108
 30
0.0
 10
85.4830124352134
 20
422.0703672698664
 30
0.0
 10
86.3226714150249
 20
422.177418969826
 30
0.0
 10
87.28508914709235
 20
422.2574348715956
 30
0.0
 10
87.95946746729577
 20
422.269667926403
 30
0.0
 10
88.34998855245232
 20
422.2767633229172
 30
0.0
  0
SPLINE
  5
22F
330
1EB
100
AcDbEntity
  8
DV3_Default
  6
Continuous
 62
     7
100
AcDbSpline
210
0.0
220
0.0
230
1.0
 70
     8
 71
     3
 72
    18
 73
    14
 74
     0
 42
0.0000000017130428
 43
0.0000000001
 40
0.0
 40
0.0
 40
0.0
 40
0.0
 40
0.0793661371298955
 40
0.1466256136545766
 40
0.2017837890694101
 40
0.2448432654653162
 40
0.3652796444533596
 40
0.4847545008842664
 40
0.6659041013710699
 40
0.7572863963539104
 40
0.848560717718968
 40
0.9550435349303321
 40
1.0
 40
1.0
 40
1.0
 40
1.0
 10
88.34998855245232
 20
422.2767633229172
 30
0.0
 10
88.59645419707904
 20
422.2736804327994
 30
0.0
 10
89.05178915098416
 20
422.2680060597308
 30
0.0
 10
89.66566601549256
 20
422.2344428900363
 30
0.0
 10
90.15365922936155
 20
422.1950015154332
 30
0.0
 10
90.77597553580279
 20
422.1294166857997
 30
0.0
 10
91.52836137505788
 20
422.0193855774232
 30
0.0
 10
92.46159469691108
 20
421.7948604768953
 30
0.0
 10
93.0655394263454
 20
421.5300333144815
 30
0.0
 10
93.35936610209562
 20
421.2687157255745
 30
0.0
 10
93.44378333971281
 20
421.0534041434879
 30
0.0
 10
93.3738936245812
 20
420.8702690235555
 30
0.0
 10
93.26543208342659
 20
420.7588832934173
 30
0.0
 10
93.22772072109616
 20
420.7262249077093
 30
0.0
  0
SPLINE
  5
230
330
1EB
100
AcDbEntity
  8
DV3_Default
  6
Continuous
 62
     7
100
AcDbSpline
210
0.0
220
0.0
230
1.0
 70
     8
 71
     3
 72
    17
 73
    13
 74
     0
 42
0.000000001520364
 43
0.0000000001
 40
0.0
 40
0.0
 40
0.0
 40
0.0
 40
0.0014502494415236
 40
0.1116303401698721
 40
0.2375733685962665
 40
0.3641209727867504
 40
0.490257322026959
 40
0.6159908499837338
 40
0.7478743836544415
 40
0.8078932853161105
 40
0.8801553428995479
 40
1.0
 40
1.0
 40
1.0
 40
1.0
 10
82.63369087156866
 20
357.6550946922512
 30
0.0
 10
82.63271652794336
 20
357.6562811664211
 30
0.0
 10
82.55820075225891
 20
357.7476303818023
 30
0.0
 10
82.47874533738486
 20
357.9456558343788
 30
0.0
 10
82.6220610667817
 20
358.2429122926709
 30
0.0
 10
83.05428492688313
 20
358.538612191619
 30
0.0
 10
83.74483828181584
 20
358.8101359614893
 30
0.0
 10
84.67831337949615
 20
359.0364321308617
 30
0.0
 10
85.60918984007267
 20
359.1755929593126
 30
0.0
 10
86.44676967936884
 20
359.2573644212185
 30
0.0
 10
87.27939282941811
 20
359.3179188579277
 30
0.0
 10
87.9386969544284
 20
359.3286373984843
 30
0.0
 10
88.34999999994442
 20
359.3353089128191
 30
0.0
  0
SPLINE
  5
231
330
1EB
100
AcDbEntity
  8
DV3_Default
  6
Continuous
 62
     7
100
AcDbSpline
210
0.0
220
0.0
230
1.0
 70
     8
 71
     3
 72
    15
 73
    11
 74
     0
 42
0.0000000023270004
 43
0.0000000001
 40
0.0
 40
0.0
 40
0.0
 40
0.0
 40
0.1358782290094242
 40
0.2440585170457988
 40
0.3517632895175129
 40
0.5639828752733745
 40
0.6709301138527589
 40
0.7806800429339987
 40
0.8827632808962229
 40
1.0
 40
1.0
 40
1.0
 40
1.0
 10
84.74055309447992
 20
354.279400933809
 30
0.0
 10
84.66119357461355
 20
354.3521438813641
 30
0.0
 10
84.58522273932371
 20
354.4873815118883
 30
0.0
 10
84.65946005996747
 20
354.6785483548883
 30
0.0
 10
84.93659329319364
 20
354.9021818489839
 30
0.0
 10
85.47970690715513
 20
355.1079208453981
 30
0.0
 10
86.2306186795339
 20
355.2569578497447
 30
0.0
 10
86.86993118026916
 20
355.3392014225769
 30
0.0
 10
87.58504016032084
 20
355.3968655220872
 30
0.0
 10
88.08353894602382
 20
355.4054431138046
 30
0.0
 10
88.35000110394769
 20
355.4101323958479
 30
0.0
  0
SPLINE
  5
232
330
1EB
100
AcDbEntity
  8
DV3_Default
  6
Continuous
 62
     7
100
AcDbSpline
210
0.0
220
0.0
230
1.0
 70
     8
 71
     3
 72
    16
 73
    12
 74
     0
 42
0.0000000023180249
 43
0.0000000001
 40
0.0
 40
0.0
 40
0.0
 40
0.0
 40
0.0940596214243424
 40
0.1765288268933358
 40
0.2474159574946678
 40
0.3690672098590431
 40
0.4885427469289029
 40
0.6713058603390791
 40
0.8540705993550651
 40
0.9622286084643774
 40
1.0
 40
1.0
 40
1.0
 40
1.0
 10
88.35000110394769
 20
355.4101323958479
 30
0.0
 10
88.56367123084505
 20
355.4069548750539
 30
0.0
 10
88.96468206635757
 20
355.401187654936
 30
0.0
 10
89.5109584171437
 20
355.365993165145
 30
0.0
 10
90.08997591048013
 20
355.3090016747104
 30
0.0
 10
90.69558868197319
 20
355.2201404237005
 30
0.0
 10
91.38199283735617
 20
355.0546274939421
 30
0.0
 10
91.92961827870936
 20
354.8166076180385
 30
0.0
 10
92.12468055887399
 20
354.5598464411645
 30
0.0
 10
92.05529766521335
 20
354.3780261816054
 30
0.0
 10
91.98143782864486
 20
354.299391913304
 30
0.0
 10
91.95946972252534
 20
354.2792369716971
 30
0.0
  0
SPLINE
  5
233
330
1EB
100
AcDbEntity
  8
DV3_Default
  6
Continuous
 62
     7
100
AcDbSpline
210
0.0
220
0.0
230
1.0
 70
     8
 71
     3
 72
    20
 73
    16
 74
     0
 42
0.000000001522648
 43
0.0000000001
 40
0.0
 40
0.0
 40
0.0
 40
0.0
 40
0.0709873862602158
 40
0.1313835767606559
 40
0.1811886533288093
 40
0.2204022362633332
 40
0.2490234906622892
 40
0.3168035690730698
 40
0.3845944990587631
 40
0.503496038940691
 40
0.6885069559608615
 40
0.7925774296352427
 40
0.8850314408094675
 40
0.9958854050710262
 40
1.0
 40
1.0
 40
1.0
 40
1.0
 10
88.34999999994442
 20
359.3353089128191
 30
0.0
 10
88.59330307886036
 20
359.3326994011579
 30
0.0
 10
89.04360883638863
 20
359.3278790806474
 30
0.0
 10
89.65536302082221
 20
359.2991382435299
 30
0.0
 10
90.14830425790551
 20
359.2649650232247
 30
0.0
 10
90.52644121160932
 20
359.230786469634
 30
0.0
 10
90.95184360490585
 20
359.1857852872421
 30
0.0
 10
91.44720269517404
 20
359.1215160234385
 30
0.0
 10
92.15983949676273
 20
359.0020020458979
 30
0.0
 10
93.06874582076591
 20
358.7836196332377
 30
0.0
 10
93.77199959183811
 20
358.480245113072
 30
0.0
 10
94.11473503226848
 20
358.1779118650617
 30
0.0
 10
94.21039520075773
 20
357.9255514351731
 30
0.0
 10
94.1449191186428
 20
357.7526045646236
 30
0.0
 10
94.06908172362601
 20
357.658466712612
 30
0.0
 10
94.06631707875964
 20
357.6550999614365
 30
0.0
  0
ARC
  5
234
330
1EB
100
AcDbEntity
  8
DV3_Default
  6
Continuous
 62
     7
100
AcDbCircle
 10
88.3542521893
 20
451.0635815248
 30
0.0
 40
25.72489570672114
100
AcDbArc
 50
0.0021898307
 51
90.0095464081
  0
ARC
  5
235
330
1EB
100
AcDbEntity
  8
DV3_Default
  6
Continuous
 62
     7
100
AcDbCircle
 10
88.3449900008
 20
451.0641299342
 30
0.0
 40
25.72434742144922
100
AcDbArc
 50
89.9889169604
 51
179.9945283781
  0
ARC
  5
236
330
1EB
100
AcDbEntity
  8
DV3_Default
  6
Continuous
 62
     7
100
AcDbCircle
 10
88.3550442279
 20
451.0667348106
 30
0.0
 40
25.72410374080854
100
AcDbArc
 50
280.0921458535
 51
359.9951665254
  0
ARC
  5
237
330
1EB
100
AcDbEntity
  8
DV3_Default
  6
Continuous
 62
     7
100
AcDbCircle
 10
88.3457325586
 20
451.067721085
 30
0.0
 40
25.72508988700946
100
AcDbArc
 50
180.0025268671
 51
259.9053521392
  0
ARC
  5
238
330
1EB
100
AcDbEntity
  8
DV3_Default
  6
Continuous
 62
     7
100
AcDbCircle
 10
93.9265134464
 20
428.4056971767
 30
0.0
 40
1.663908504082385
100
AcDbArc
 50
127.8846983378
 51
179.7855177211
  0
ARC
  5
239
330
1EB
100
AcDbEntity
  8
DV3_Default
  6
Continuous
 62
     7
100
AcDbCircle
 10
82.7736019035
 20
428.4058498583
 30
0.0
 40
1.663721001479526
100
AcDbArc
 50
0.2112947032
 51
52.1111110568
  0
ARC
  5
23A
330
1EB
100
AcDbEntity
  8
DV3_Default
  6
Continuous
 62
     7
100
AcDbCircle
 10
76.4911605679
 20
428.6086289365
 30
0.0
 40
7.897963745147894
100
AcDbArc
 50
317.110022522
 51
359.9187769748
  0
ARC
  5
23B
330
1EB
100
AcDbEntity
  8
DV3_Default
  6
Continuous
 62
     7
100
AcDbCircle
 10
100.2053897888
 20
428.6072710872
 30
0.0
 40
7.89451229628858
100
AcDbArc
 50
180.0714037025
 51
222.8997968007
  0
ARC
  5
23C
330
1EB
100
AcDbEntity
  8
DV3_Default
  6
Continuous
 62
     7
100
AcDbCircle
 10
93.7201540929
 20
422.6205897018
 30
0.0
 40
0.9310641072900401
100
AcDbArc
 50
328.7636066492
 51
43.7432260287
  0
ARC
  5
23D
330
1EB
100
AcDbEntity
  8
DV3_Default
  6
Continuous
 62
     7
100
AcDbCircle
 10
82.9782443526
 20
422.6209364368
 30
0.0
 40
0.929590971724849
100
AcDbArc
 50
136.185377212
 51
211.2996102812
  0
ARC
  5
23E
330
1EB
100
AcDbEntity
  8
DV3_Default
  6
Continuous
 62
     7
100
AcDbCircle
 10
86.1764026378
 20
424.4770758777
 30
0.0
 40
4.629502750080866
100
AcDbArc
 50
210.1215498677
 51
234.2765194215
  0
ARC
  5
23F
330
1EB
100
AcDbEntity
  8
DV3_Default
  6
Continuous
 62
     7
100
AcDbCircle
 10
90.5266215897
 20
424.4742433772
 30
0.0
 40
4.625466666601481
100
AcDbArc
 50
305.7395551963
 51
329.891285625
  0
SPLINE
  5
240
330
1EB
100
AcDbEntity
  8
DV3_Default
  6
Continuous
 62
     7
100
AcDbSpline
210
0.0
220
0.0
230
1.0
 70
     8
 71
     3
 72
     9
 73
     5
 74
     0
 42
0.0000001069183436
 43
0.0000000001
 40
0.0
 40
0.0
 40
0.0
 40
0.0
 40
0.3770326553282144
 40
1.0
 40
1.0
 40
1.0
 40
1.0
 10
93.21272477877834
 20
420.6526411442343
 30
0.0
 10
93.2149672103217
 20
420.6737339510207
 30
0.0
 10
93.21841546439317
 20
420.7190292027501
 30
0.0
 10
93.23270403768093
 20
420.7412081055597
 30
0.0
 10
93.23299955664363
 20
420.7416216097699
 30
0.0
  0
SPLINE
  5
241
330
1EB
100
AcDbEntity
  8
DV3_Default
  6
Continuous
 62
     7
100
AcDbSpline
210
0.0
220
0.0
230
1.0
 70
     8
 71
     3
 72
    10
 73
     6
 74
     0
 42
0.0000001053969517
 43
0.0000000001
 40
0.0
 40
0.0
 40
0.0
 40
0.0
 40
0.0125376875110417
 40
0.5439916442079881
 40
0.9999999999999999
 40
0.9999999999999999
 40
0.9999999999999999
 40
0.9999999999999999
 10
83.466865085048
 20
420.7417894348396
 30
0.0
 10
83.46687378790068
 20
420.7417853814453
 30
0.0
 10
83.4674034907029
 20
420.7413679016875
 30
0.0
 10
83.48035857172711
 20
420.7210654962407
 30
0.0
 10
83.48431116289413
 20
420.6767766439881
 30
0.0
 10
83.48728439836985
 20
420.6513027302582
 30
0.0
  0
SPLINE
  5
242
330
1EB
100
AcDbEntity
  8
DV3_Default
  6
Continuous
 62
     7
100
AcDbSpline
210
0.0
220
0.0
230
1.0
 70
     8
 71
     3
 72
    30
 73
    26
 74
     0
 42
0.0000000001559754
 43
0.0000000001
 40
0.0
 40
0.0
 40
0.0
 40
0.0
 40
0.0335895786830659
 40
0.1129679279667549
 40
0.1811093746447571
 40
0.251853816301796
 40
0.3213213905429996
 40
0.388637095088878
 40
0.4561780984079712
 40
0.5280627088758959
 40
0.6106517178219052
 40
0.6599430925374663
 40
0.7028228482756876
 40
0.7397810105457514
 40
0.7725156496160012
 40
0.8021766024357198
 40
0.82962153405684
 40
0.8552765448295928
 40
0.8819525503280057
 40
0.9069661225592921
 40
0.9305913838616359
 40
0.9529233428970639
 40
0.9739873339906753
 40
0.9939038539629744
 40
1.0
 40
1.0
 40
1.0
 40
1.0
 10
83.48395531446384
 20
420.6527259487785
 30
0.0
 10
83.49098272715686
 20
419.8676813353937
 30
0.0
 10
83.50872614385236
 20
417.6198961342467
 30
0.0
 10
83.45766107072822
 20
413.6660899923193
 30
0.0
 10
83.28837634522685
 20
409.0633714139158
 30
0.0
 10
83.01275662519298
 20
404.638376054641
 30
0.0
 10
82.62748994556559
 20
400.2508983141272
 30
0.0
 10
82.13490114259658
 20
395.9412101800639
 30
0.0
 10
81.53759713310745
 20
391.5939973229985
 30
0.0
 10
80.80405537643807
 20
386.9381261928467
 30
0.0
 10
80.08964210879228
 20
382.6652904809765
 30
0.0
 10
79.52602604934955
 20
378.9815959014318
 30
0.0
 10
79.17560604450377
 20
376.2419605346888
 30
0.0
 10
78.95332744180203
 20
373.837038275279
 30
0.0
 10
78.84721660110002
 20
371.7022195862315
 30
0.0
 10
78.84552719552154
 20
369.7645428154381
 30
0.0
 10
78.9416040170681
 20
367.9783261982908
 30
0.0
 10
79.13631883291013
 20
366.2622805822164
 30
0.0
 10
79.43606698781933
 20
364.6120564938453
 30
0.0
 10
79.84900171315189
 20
363.0293799979424
 30
0.0
 10
80.35564971130658
 20
361.5735487053
 30
0.0
 10
80.95049773501246
 20
360.2388317871681
 30
0.0
 10
81.61759565872936
 20
359.0455092891566
 30
0.0
 10
82.21230800685555
 20
358.173316125279
 30
0.0
 10
82.55014289087491
 20
357.7627944922527
 30
0.0
 10
82.64312042032856
 20
357.6504337276311
 30
0.0
  0
SPLINE
  5
243
330
1EB
100
AcDbEntity
  8
DV3_Default
  6
Continuous
 62
     7
100
AcDbSpline
210
0.0
220
0.0
230
1.0
 70
     8
 71
     3
 72
    13
 73
     9
 74
     0
 42
0.0000000028463237
 43
0.0000000001
 40
0.0
 40
0.0
 40
0.0
 40
0.0
 40
0.2608729979003265
 40
0.559595106013679
 40
0.7576467756748425
 40
0.8908023380105152
 40
0.9895880077065511
 40
1.0
 40
1.0
 40
1.0
 40
1.0
 10
82.61144660046413
 20
357.6822083943032
 30
0.0
 10
82.831998819401
 20
357.4108227214717
 30
0.0
 10
83.22753240746486
 20
356.9176457408619
 30
0.0
 10
83.77776330809428
 20
356.1591863564136
 30
0.0
 10
84.16703077987782
 20
355.5207939837297
 30
0.0
 10
84.3782977012831
 20
355.0815356956242
 30
0.0
 10
84.45530382573115
 20
354.8348247765161
 30
0.0
 10
84.47259062874345
 20
354.7457363142993
 30
0.0
 10
84.47448281290976
 20
354.7358720372744
 30
0.0
  0
ARC
  5
244
330
1EB
100
AcDbEntity
  8
DV3_Default
  6
Continuous
 62
     7
100
AcDbCircle
 10
85.286632212
 20
354.8987501165
 30
0.0
 40
0.8259414924760279
100
AcDbArc
 50
191.1182119108
 51
229.1634512083
  0
ARC
  5
245
330
1EB
100
AcDbEntity
  8
DV3_Default
  6
Continuous
 62
     7
100
AcDbCircle
 10
88.5186221512
 20
358.0227850338
 30
0.0
 40
5.320746521836632
100
AcDbArc
 50
224.3840332481
 51
268.1839098125
  0
ARC
  5
246
330
1EB
100
AcDbEntity
  8
DV3_Default
  6
Continuous
 62
     7
100
AcDbCircle
 10
88.1820718494
 20
358.0212052693
 30
0.0
 40
5.319145595912242
100
AcDbArc
 50
271.8091577178
 51
315.622899893
  0
ARC
  5
247
330
1EB
100
AcDbEntity
  8
DV3_Default
  6
Continuous
 62
     7
100
AcDbCircle
 10
91.4143281864
 20
354.8981906539
 30
0.0
 40
0.8248916984085976
100
AcDbArc
 50
310.8073310818
 51
348.9070443064
  0
SPLINE
  5
248
330
1EB
100
AcDbEntity
  8
DV3_Default
  6
Continuous
 62
     7
100
AcDbSpline
210
0.0
220
0.0
230
1.0
 70
     8
 71
     3
 72
    13
 73
     9
 74
     0
 42
0.0000000028387371
 43
0.0000000001
 40
0.0
 40
0.0
 40
0.0
 40
0.0
 40
0.0675274190210678
 40
0.1776893517400447
 40
0.3292653949468756
 40
0.5525393467294727
 40
0.8802205847354238
 40
1.0
 40
1.0
 40
1.0
 40
1.0
 10
92.22380897983885
 20
354.7264340630354
 30
0.0
 10
92.23851934792862
 20
354.7931671213967
 30
0.0
 10
92.27271632841573
 20
354.9432139229616
 30
0.0
 10
92.41586517240778
 20
355.2914165958273
 30
0.0
 10
92.68713465489081
 20
355.7867114641387
 30
0.0
 10
93.15272423995164
 20
356.4904181542554
 30
0.0
 10
93.66324118280531
 20
357.1591479086666
 30
0.0
 10
93.98660554699077
 20
357.5574029455698
 30
0.0
 10
94.08855517560814
 20
357.682210557153
 30
0.0
  0
SPLINE
  5
249
330
1EB
100
AcDbEntity
  8
DV3_Default
  6
Continuous
 62
     7
100
AcDbSpline
210
0.0
220
0.0
230
1.0
 70
     8
 71
     3
 72
    31
 73
    27
 74
     0
 42
0.000000000155978
 43
0.0000000001
 40
0.0
 40
0.0
 40
0.0
 40
0.0
 40
0.0058093001020511
 40
0.0243188840688775
 40
0.0435485980494167
 40
0.0638174551160309
 40
0.0852036908822102
 40
0.1077644365924103
 40
0.1315874639111675
 40
0.1567730609149395
 40
0.1835572486957307
 40
0.2122164736728571
 40
0.2431579204710988
 40
0.2772252118658117
 40
0.3155589901190174
 40
0.3600514631395441
 40
0.41487298992488
 40
0.4913495835757305
 40
0.562865776693187
 40
0.6319271871338225
 40
0.6982474613608983
 40
0.7713142014622124
 40
0.8440744993431714
 40
0.9164061939312032
 40
0.9887573134435823
 40
1.0
 40
1.0
 40
1.0
 40
1.0
 10
94.05699678807292
 20
357.6502515509857
 30
0.0
 10
94.14564755424085
 20
357.7572861927003
 30
0.0
 10
94.46163032437455
 20
358.1408028452043
 30
0.0
 10
95.015671640634
 20
358.9445873684062
 30
0.0
 10
95.63973210219027
 20
360.0306400126537
 30
0.0
 10
96.20202766858571
 20
361.233073539913
 30
0.0
 10
96.69175709107758
 20
362.5391797459703
 30
0.0
 10
97.104386319391
 20
363.9522601708941
 30
0.0
 10
97.43248161619128
 20
365.4699332148196
 30
0.0
 10
97.67145791001236
 20
367.0946690538365
 30
0.0
 10
97.81747810876742
 20
368.832795019821
 30
0.0
 10
97.86625073115081
 20
370.6975003536014
 30
0.0
 10
97.8143508885602
 20
372.7146151322411
 30
0.0
 10
97.65682405530649
 20
374.9293711232567
 30
0.0
 10
97.38358996395765
 20
377.4188609798301
 30
0.0
 10
96.97549073509026
 20
380.3306014746691
 30
0.0
 10
96.38361168294873
 20
384.0274980179775
 30
0.0
 10
95.6774192365344
 20
388.2789451164528
 30
0.0
 10
94.98185049031511
 20
392.8333696193822
 30
0.0
 10
94.41146948741876
 20
397.1877888190054
 30
0.0
 10
93.94231197104152
 20
401.5883765460821
 30
0.0
 10
93.58385146494355
 20
406.0766319327366
 30
0.0
 10
93.33598886916066
 20
410.7146780291452
 30
0.0
 10
93.21128138662452
 20
415.2929023115726
 30
0.0
 10
93.19458079375826
 20
418.7132678727633
 30
0.0
 10
93.21161060966318
 20
420.3900076153819
 30
0.0
 10
93.21438346836814
 20
420.6527621240194
 30
0.0
  0
ENDBLK
  5
24B
330
1EB
100
AcDbEntity
  8
0
100
AcDbBlockEnd
  0
ENDSEC
  0
SECTION
  2
ENTITIES
  0
INSERT
  5
5F
330
1F
100
AcDbEntity
  8
Default
100
AcDbBlockReference
  2
SEANNOT_GROUP
 10
0.0
 20
0.0
 30
0.0
  0
INSERT
  5
66
330
1F
100
AcDbEntity
  8
Default
100
AcDbBlockReference
  2
SEANNOT_GROUP1
 10
0.0
 20
0.0
 30
0.0
  0
INSERT
  5
6C
330
1F
100
AcDbEntity
  8
Default
100
AcDbBlockReference
  2
SEANNOT_GROUP2
 10
0.0
 20
0.0
 30
0.0
  0
INSERT
  5
72
330
1F
100
AcDbEntity
  8
Default
100
AcDbBlockReference
  2
SEANNOT_GROUP3
 10
0.0
 20
0.0
 30
0.0
  0
INSERT
  5
78
330
1F
100
AcDbEntity
  8
Default
100
AcDbBlockReference
  2
SEANNOT_GROUP4
 10
0.0
 20
0.0
 30
0.0
  0
POINT
  5
7D
330
1F
100
AcDbEntity
  8
Default
  6
Continuous
 62
     7
100
AcDbPoint
 10
88.3498367769
 20
319.4557102738
 30
0.0
  0
INSERT
  5
7F
330
1F
100
AcDbEntity
  8
Default
100
AcDbBlockReference
  2
SEANNOT_GROUP5
 10
0.0
 20
0.0
 30
0.0
  0
INSERT
  5
85
330
1F
100
AcDbEntity
  8
Default
100
AcDbBlockReference
  2
SE
 10
0.0
 20
0.0
 30
0.0
  0
INSERT
  5
13E
330
1F
100
AcDbEntity
  8
Default
100
AcDbBlockReference
  2
SE1
 10
0.0
 20
0.0
 30
0.0
  0
INSERT
  5
1EC
330
1F
100
AcDbEntity
  8
Default
100
AcDbBlockReference
  2
SE2
 10
0.0
 20
0.0
 30
0.0
  0
TEXT
  5
24D
330
1F
100
AcDbEntity
  8
Default
  6
Continuous
 62
     7
100
AcDbText
 10
5.9362635081
 20
53.4225120485
 30
0.0
 40
10.0
  1
Grohe AG^J
  7
SEACAD_seiso_ttf
 11
5.9362635081
 21
63.4225120485
 31
0.0
100
AcDbText
 73
     3
  0
TEXT
  5
24E
330
1F
100
AcDbEntity
  8
Default
  6
Continuous
 62
     7
100
AcDbText
 10
5.9362635081
 20
37.0588756849
 30
0.0
 40
10.0
  1
 
  7
SEACAD_seiso_ttf
 11
5.9362635081
 21
47.0588756849
 31
0.0
100
AcDbText
 73
     3
  0
TEXT
  5
24F
330
1F
100
AcDbEntity
  8
Default
  6
Continuous
 62
     7
100
AcDbText
 10
5.9362635081
 20
20.6952393213
 30
0.0
 40
10.0
  1
ecn:
  7
SEACAD_seiso_ttf
 11
5.9362635081
 21
30.6952393213
 31
0.0
100
AcDbText
 73
     3
  0
TEXT
  5
250
330
1F
100
AcDbEntity
  8
Default
  6
Continuous
 62
     7
100
AcDbText
 10
5.9362635081
 20
4.3316029576
 30
0.0
 40
10.0
  1
unit: mm
  7
SEACAD_seiso_ttf
 11
5.9362635081
 21
14.3316029576
 31
0.0
100
AcDbText
 73
     3
  0
LINE
  5
251
330
1F
100
AcDbEntity
  8
Default
  6
Continuous
 62
     7
100
AcDbLine
 10
0.0
 20
0.0
 30
0.0
 11
100.0
 21
0.0
 31
0.0
  0
LINE
  5
252
330
1F
100
AcDbEntity
  8
Default
  6
Continuous
 62
     7
100
AcDbLine
 10
0.0
 20
0.0
 30
0.0
 11
0.0
 21
100.0
 31
0.0
  0
TEXT
  5
253
330
1F
100
AcDbEntity
  8
Default
  6
Continuous
 62
     7
100
AcDbText
 10
24.3923665681
 20
-18.2375342018
 30
0.0
 40
10.0
  1
100 mm
  7
SEACAD_seiso_ttf
 11
24.3923665681
 21
-8.2375342018
 31
0.0
100
AcDbText
 73
     3
  0
TEXT
  5
254
330
1F
100
AcDbEntity
  8
Default
  6
Continuous
 62
     7
100
AcDbText
 10
-7.6150308803
 20
24.6231930421
 30
0.0
 40
10.0
  1
100 mm
 50
90.0
  7
SEACAD_seiso_ttf
 11
-17.6150308803
 21
24.6231930421
 31
0.0
100
AcDbText
 73
     3
  0
TEXT
  5
255
330
1F
100
AcDbEntity
  8
Default
  6
Continuous
 62
     7
100
AcDbText
 10
28.4878128572
 20
20.0907663715
 30
0.0
 40
10.0
  1
228793
  7
SEACAD_seiso_ttf
 11
28.4878128572
 21
30.0907663715
 31
0.0
100
AcDbText
 73
     3
  0
TEXT
  5
256
330
1F
100
AcDbEntity
  8
Default
  6
Continuous
 62
     7
100
AcDbText
 10
5.9012241913
 20
36.7242780188
 30
0.0
 40
10.0
  1
23400000
  7
SEACAD_seiso_ttf
 11
5.9012241913
 21
46.7242780188
 31
0.0
100
AcDbText
 73
     3
  0
ENDSEC
  0
SECTION
  2
OBJECTS
  0
DICTIONARY
  5
C
330
0
100
AcDbDictionary
281
     1
  3
ACAD_GROUP
350
D
  3
ACAD_LAYOUT
350
1A
  3
ACAD_MLEADERSTYLE
350
25A
  3
ACAD_MLINESTYLE
350
17
  3
ACAD_PLOTSETTINGS
350
19
  3
ACAD_PLOTSTYLENAME
350
E
  3
ACAD_SCALELIST
350
3B
  3
ACAD_TABLESTYLE
350
259
  3
ACAD_VISUALSTYLE
350
2A
  3
AcDbVariableDictionary
350
257
  0
DICTIONARY
  5
D
102
{ACAD_REACTORS
330
C
102
}
330
C
100
AcDbDictionary
281
     1
  0
DICTIONARY
  5
1A
102
{ACAD_REACTORS
330
C
102
}
330
C
100
AcDbDictionary
281
     1
  3
Layout1
350
1E
  3
Model
350
22
  0
DICTIONARY
  5
25A
102
{ACAD_REACTORS
330
C
102
}
330
C
100
AcDbDictionary
281
     1
  0
DICTIONARY
  5
17
102
{ACAD_REACTORS
330
C
102
}
330
C
100
AcDbDictionary
281
     1
  3
Standard
350
18
  0
DICTIONARY
  5
19
102
{ACAD_REACTORS
330
C
102
}
330
C
100
AcDbDictionary
281
     1
  0
ACDBDICTIONARYWDFLT
  5
E
102
{ACAD_REACTORS
330
C
102
}
330
C
100
AcDbDictionary
281
     1
  3
Normal
350
F
100
AcDbDictionaryWithDefault
340
F
  0
DICTIONARY
  5
3B
102
{ACAD_REACTORS
330
C
102
}
330
C
100
AcDbDictionary
281
     1
  3
A0
350
3C
  3
A1
350
3D
  3
A2
350
3E
  3
A3
350
3F
  3
A4
350
40
  3
A5
350
41
  3
A6
350
42
  3
A7
350
43
  3
A8
350
44
  3
A9
350
45
  3
B0
350
46
  3
B1
350
47
  3
B2
350
48
  3
B3
350
49
  3
B4
350
4A
  3
B5
350
4B
  3
B6
350
4C
  3
B7
350
4D
  3
B8
350
4E
  3
B9
350
4F
  3
C0
350
50
  3
C1
350
51
  3
C2
350
52
  3
C3
350
53
  3
C4
350
54
  3
C5
350
55
  3
C6
350
56
  3
C7
350
57
  3
C8
350
58
  3
C9
350
59
  3
D0
350
5A
  3
D1
350
5B
  3
D2
350
5C
  0
DICTIONARY
  5
259
102
{ACAD_REACTORS
330
C
102
}
330
C
100
AcDbDictionary
281
     1
  0
DICTIONARY
  5
2A
102
{ACAD_REACTORS
330
C
102
}
330
C
100
AcDbDictionary
281
     1
  3
2dWireframe
350
2F
  3
3D Hidden
350
31
  3
3dWireframe
350
30
  3
Basic
350
32
  3
Brighten
350
36
  3
ColorChange
350
3A
  3
Conceptual
350
34
  3
Dim
350
35
  3
Facepattern
350
39
  3
Flat
350
2B
  3
FlatWithEdges
350
2C
  3
Gouraud
350
2D
  3
GouraudWithEdges
350
2E
  3
Linepattern
350
38
  3
Realistic
350
33
  3
Thicken
350
37
  0
DICTIONARY
  5
257
102
{ACAD_REACTORS
330
C
102
}
330
C
100
AcDbDictionary
281
     1
  3
CANNOSCALE
350
258
  3
PSOLHEIGHT
350
25C
  3
PSOLWIDTH
350
25B
  0
LAYOUT
  5
1E
102
{ACAD_REACTORS
330
1A
102
}
330
1A
100
AcDbPlotSettings
  1

  2
none_device
  4

  6

 40
0.0
 41
0.0
 42
0.0
 43
0.0
 44
0.0
 45
0.0
 46
0.0
 47
0.0
 48
0.0
 49
0.0
140
0.0
141
0.0
142
1.0
143
1.0
 70
   688
 72
     0
 73
     0
 74
     5
  7

 75
    16
147
1.0
148
0.0
149
0.0
100
AcDbLayout
  1
Layout1
 70
     1
 71
     1
 10
0.0
 20
0.0
 11
3000.0
 21
4500.0
 12
0.0
 22
0.0
 32
0.0
 14
0.0
 24
0.0
 34
0.0
 15
3000.0
 25
4500.0
 35
0.0
146
0.0
 13
0.0
 23
0.0
 33
0.0
 16
1.0
 26
0.0
 36
0.0
 17
0.0
 27
1.0
 37
0.0
 76
     0
330
1B
  0
LAYOUT
  5
22
102
{ACAD_REACTORS
330
1A
102
}
330
1A
100
AcDbPlotSettings
  1

  2
none_device
  4

  6

 40
0.0
 41
0.0
 42
0.0
 43
0.0
 44
0.0
 45
0.0
 46
0.0
 47
0.0
 48
0.0
 49
0.0
140
0.0
141
0.0
142
1.0
143
1.0
 70
  1712
 72
     0
 73
     0
 74
     0
  7

 75
     0
147
1.0
148
0.0
149
0.0
100
AcDbLayout
  1
Model
 70
     1
 71
     0
 10
0.0
 20
0.0
 11
3000.0
 21
4500.0
 12
0.0
 22
0.0
 32
0.0
 14
0.0
 24
0.0
 34
0.0
 15
3000.0
 25
4500.0
 35
0.0
146
0.0
 13
0.0
 23
0.0
 33
0.0
 16
1.0
 26
0.0
 36
0.0
 17
0.0
 27
1.0
 37
0.0
 76
     0
330
1F
331
29
  0
MLINESTYLE
  5
18
102
{ACAD_REACTORS
330
17
102
}
330
17
100
AcDbMlineStyle
  2
Standard
 70
     0
  3

 62
   256
 51
90.0
 52
90.0
 71
     2
 49
0.5
 62
   256
  6
BYLAYER
 49
-0.5
 62
   256
  6
BYLAYER
  0
ACDBPLACEHOLDER
  5
F
102
{ACAD_REACTORS
330
E
102
}
330
E
  0
SCALE
  5
3C
102
{ACAD_REACTORS
330
3B
102
}
330
3B
100
AcDbScale
 70
     0
300
1:1
140
1.0
141
1.0
290
     1
  0
SCALE
  5
3D
102
{ACAD_REACTORS
330
3B
102
}
330
3B
100
AcDbScale
 70
     0
300
1:2
140
1.0
141
2.0
290
     0
  0
SCALE
  5
3E
102
{ACAD_REACTORS
330
3B
102
}
330
3B
100
AcDbScale
 70
     0
300
1:4
140
1.0
141
4.0
290
     0
  0
SCALE
  5
3F
102
{ACAD_REACTORS
330
3B
102
}
330
3B
100
AcDbScale
 70
     0
300
1:5
140
1.0
141
5.0
290
     0
  0
SCALE
  5
40
102
{ACAD_REACTORS
330
3B
102
}
330
3B
100
AcDbScale
 70
     0
300
1:8
140
1.0
141
8.0
290
     0
  0
SCALE
  5
41
102
{ACAD_REACTORS
330
3B
102
}
330
3B
100
AcDbScale
 70
     0
300
1:10
140
1.0
141
10.0
290
     0
  0
SCALE
  5
42
102
{ACAD_REACTORS
330
3B
102
}
330
3B
100
AcDbScale
 70
     0
300
1:16
140
1.0
141
16.0
290
     0
  0
SCALE
  5
43
102
{ACAD_REACTORS
330
3B
102
}
330
3B
100
AcDbScale
 70
     0
300
1:20
140
1.0
141
20.0
290
     0
  0
SCALE
  5
44
102
{ACAD_REACTORS
330
3B
102
}
330
3B
100
AcDbScale
 70
     0
300
1:30
140
1.0
141
30.0
290
     0
  0
SCALE
  5
45
102
{ACAD_REACTORS
330
3B
102
}
330
3B
100
AcDbScale
 70
     0
300
1:40
140
1.0
141
40.0
290
     0
  0
SCALE
  5
46
102
{ACAD_REACTORS
330
3B
102
}
330
3B
100
AcDbScale
 70
     0
300
1:50
140
1.0
141
50.0
290
     0
  0
SCALE
  5
47
102
{ACAD_REACTORS
330
3B
102
}
330
3B
100
AcDbScale
 70
     0
300
1:100
140
1.0
141
100.0
290
     0
  0
SCALE
  5
48
102
{ACAD_REACTORS
330
3B
102
}
330
3B
100
AcDbScale
 70
     0
300
2:1
140
2.0
141
1.0
290
     0
  0
SCALE
  5
49
102
{ACAD_REACTORS
330
3B
102
}
330
3B
100
AcDbScale
 70
     0
300
4:1
140
4.0
141
1.0
290
     0
  0
SCALE
  5
4A
102
{ACAD_REACTORS
330
3B
102
}
330
3B
100
AcDbScale
 70
     0
300
8:1
140
8.0
141
1.0
290
     0
  0
SCALE
  5
4B
102
{ACAD_REACTORS
330
3B
102
}
330
3B
100
AcDbScale
 70
     0
300
10:1
140
10.0
141
1.0
290
     0
  0
SCALE
  5
4C
102
{ACAD_REACTORS
330
3B
102
}
330
3B
100
AcDbScale
 70
     0
300
100:1
140
100.0
141
1.0
290
     0
  0
SCALE
  5
4D
102
{ACAD_REACTORS
330
3B
102
}
330
3B
100
AcDbScale
 70
     0
300
1/128" = 1'-0"
140
0.0078125
141
12.0
290
     0
  0
SCALE
  5
4E
102
{ACAD_REACTORS
330
3B
102
}
330
3B
100
AcDbScale
 70
     0
300
1/64" = 1'-0"
140
0.015625
141
12.0
290
     0
  0
SCALE
  5
4F
102
{ACAD_REACTORS
330
3B
102
}
330
3B
100
AcDbScale
 70
     0
300
1/32" = 1'-0"
140
0.03125
141
12.0
290
     0
  0
SCALE
  5
50
102
{ACAD_REACTORS
330
3B
102
}
330
3B
100
AcDbScale
 70
     0
300
1/16" = 1'-0"
140
0.0625
141
12.0
290
     0
  0
SCALE
  5
51
102
{ACAD_REACTORS
330
3B
102
}
330
3B
100
AcDbScale
 70
     0
300
3/32" = 1'-0"
140
0.09375
141
12.0
290
     0
  0
SCALE
  5
52
102
{ACAD_REACTORS
330
3B
102
}
330
3B
100
AcDbScale
 70
     0
300
1/8" = 1'-0"
140
0.125
141
12.0
290
     0
  0
SCALE
  5
53
102
{ACAD_REACTORS
330
3B
102
}
330
3B
100
AcDbScale
 70
     0
300
3/16" = 1'-0"
140
0.1875
141
12.0
290
     0
  0
SCALE
  5
54
102
{ACAD_REACTORS
330
3B
102
}
330
3B
100
AcDbScale
 70
     0
300
1/4" = 1'-0"
140
0.25
141
12.0
290
     0
  0
SCALE
  5
55
102
{ACAD_REACTORS
330
3B
102
}
330
3B
100
AcDbScale
 70
     0
300
3/8" = 1'-0"
140
0.375
141
12.0
290
     0
  0
SCALE
  5
56
102
{ACAD_REACTORS
330
3B
102
}
330
3B
100
AcDbScale
 70
     0
300
1/2" = 1'-0"
140
0.5
141
12.0
290
     0
  0
SCALE
  5
57
102
{ACAD_REACTORS
330
3B
102
}
330
3B
100
AcDbScale
 70
     0
300
3/4" = 1'-0"
140
0.75
141
12.0
290
     0
  0
SCALE
  5
58
102
{ACAD_REACTORS
330
3B
102
}
330
3B
100
AcDbScale
 70
     0
300
1" = 1'-0"
140
1.0
141
12.0
290
     0
  0
SCALE
  5
59
102
{ACAD_REACTORS
330
3B
102
}
330
3B
100
AcDbScale
 70
     0
300
1-1/2" = 1'-0"
140
1.5
141
12.0
290
     0
  0
SCALE
  5
5A
102
{ACAD_REACTORS
330
3B
102
}
330
3B
100
AcDbScale
 70
     0
300
3" = 1'-0"
140
3.0
141
12.0
290
     0
  0
SCALE
  5
5B
102
{ACAD_REACTORS
330
3B
102
}
330
3B
100
AcDbScale
 70
     0
300
6" = 1'-0"
140
6.0
141
12.0
290
     0
  0
SCALE
  5
5C
102
{ACAD_REACTORS
330
3B
102
}
330
3B
100
AcDbScale
 70
     0
300
1'-0" = 1'-0"
140
12.0
141
12.0
290
     0
  0
VISUALSTYLE
  5
2F
102
{ACAD_REACTORS
330
2A
102
}
330
2A
100
AcDbVisualStyle
  2
2dWireframe
 70
     4
 71
     0
 72
     2
 73
     0
 90
        0
 40
-0.6
 41
-30.0
 62
     5
 63
     7
 74
     1
 91
        4
 64
     7
 65
   257
 75
     1
175
     1
 42
1.0
 92
        0
 66
   257
 43
1.0
 76
     1
 77
     6
 78
     2
 67
     7
 79
     5
170
     0
171
     0
290
     0
174
     0
 93
        1
 44
0.0
173
     0
291
     0
 45
0.0
1001
ACAD
1000
AcDbSavedByObjectVersion
1070
     0
  0
VISUALSTYLE
  5
31
102
{ACAD_REACTORS
330
2A
102
}
330
2A
100
AcDbVisualStyle
  2
3D Hidden
 70
     6
 71
     1
 72
     2
 73
     2
 90
        0
 40
-0.6
 41
-30.0
 62
     5
 63
     7
 74
     2
 91
        2
 64
     7
 65
   257
 75
     2
175
     1
 42
40.0
 92
        0
 66
   257
 43
1.0
 76
     1
 77
     6
 78
     2
 67
     7
 79
     3
170
     0
171
     0
290
     0
174
     0
 93
        1
 44
0.0
173
     0
291
     0
 45
0.0
1001
ACAD
1000
AcDbSavedByObjectVersion
1070
     0
  0
VISUALSTYLE
  5
30
102
{ACAD_REACTORS
330
2A
102
}
330
2A
100
AcDbVisualStyle
  2
3dWireframe
 70
     5
 71
     0
 72
     2
 73
     0
 90
        0
 40
-0.6
 41
-30.0
 62
     5
 63
     7
 74
     1
 91
        4
 64
     7
 65
   257
 75
     1
175
     1
 42
1.0
 92
        0
 66
   257
 43
1.0
 76
     1
 77
     6
 78
     2
 67
     7
 79
     5
170
     0
171
     0
290
     0
174
     0
 93
        1
 44
0.0
173
     0
291
     0
 45
0.0
1001
ACAD
1000
AcDbSavedByObjectVersion
1070
     0
  0
VISUALSTYLE
  5
32
102
{ACAD_REACTORS
330
2A
102
}
330
2A
100
AcDbVisualStyle
  2
Basic
 70
     7
 71
     1
 72
     0
 73
     1
 90
        0
 40
-0.6
 41
-30.0
 62
     5
 63
     7
 74
     0
 91
        4
 64
     7
 65
   257
 75
     1
175
     1
 42
1.0
 92
        8
 66
     7
 43
1.0
 76
     1
 77
     6
 78
     2
 67
     7
 79
     5
170
     0
171
     0
290
     0
174
     0
 93
        1
 44
0.0
173
     0
291
     1
 45
0.0
1001
ACAD
1000
AcDbSavedByObjectVersion
1070
     0
  0
VISUALSTYLE
  5
36
102
{ACAD_REACTORS
330
2A
102
}
330
2A
100
AcDbVisualStyle
  2
Brighten
 70
    12
 71
     2
 72
     2
 73
     0
 90
        0
 40
-0.6
 41
-30.0
 62
     5
 63
     7
 74
     1
 91
        4
 64
     7
 65
   257
 75
     1
175
     1
 42
1.0
 92
        8
 66
     7
 43
1.0
 76
     1
 77
     6
 78
     2
 67
     7
 79
     5
170
     0
171
     0
290
     0
174
     0
 93
        1
 44
50.0
173
     0
291
     1
 45
0.0
1001
ACAD
1000
AcDbSavedByObjectVersion
1070
     0
  0
VISUALSTYLE
  5
3A
102
{ACAD_REACTORS
330
2A
102
}
330
2A
100
AcDbVisualStyle
  2
ColorChange
 70
    16
 71
     2
 72
     2
 73
     3
 90
        0
 40
-0.6
 41
-30.0
 62
     5
 63
     8
 74
     1
 91
        4
 64
     7
 65
   257
 75
     1
175
     1
 42
1.0
 92
        8
 66
     8
 43
1.0
 76
     1
 77
     6
 78
     2
 67
     7
 79
     5
170
     0
171
     0
290
     0
174
     0
 93
        1
 44
0.0
173
     0
291
     1
 45
0.0
1001
ACAD
1000
AcDbSavedByObjectVersion
1070
     0
  0
VISUALSTYLE
  5
34
102
{ACAD_REACTORS
330
2A
102
}
330
2A
100
AcDbVisualStyle
  2
Conceptual
 70
     9
 71
     3
 72
     2
 73
     0
 90
        0
 40
-0.6
 41
-30.0
 62
     5
 63
     7
 74
     2
 91
        2
 64
     7
 65
   257
 75
     1
175
     1
 42
40.0
 92
        8
 66
     7
 43
1.0
 76
     1
 77
     6
 78
     2
 67
     7
 79
     3
170
     0
171
     0
290
     0
174
     0
 93
        1
 44
0.0
173
     0
291
     0
 45
0.0
1001
ACAD
1000
AcDbSavedByObjectVersion
1070
     0
  0
VISUALSTYLE
  5
35
102
{ACAD_REACTORS
330
2A
102
}
330
2A
100
AcDbVisualStyle
  2
Dim
 70
    11
 71
     2
 72
     2
 73
     0
 90
        0
 40
-0.6
 41
-30.0
 62
     5
 63
     7
 74
     1
 91
        4
 64
     7
 65
   257
 75
     1
175
     1
 42
1.0
 92
        8
 66
     7
 43
1.0
 76
     1
 77
     6
 78
     2
 67
     7
 79
     5
170
     0
171
     0
290
     0
174
     0
 93
        1
 44
-50.0
173
     0
291
     1
 45
0.0
1001
ACAD
1000
AcDbSavedByObjectVersion
1070
     0
  0
VISUALSTYLE
  5
39
102
{ACAD_REACTORS
330
2A
102
}
330
2A
100
AcDbVisualStyle
  2
Facepattern
 70
    15
 71
     2
 72
     2
 73
     0
 90
        0
 40
-0.6
 41
-30.0
 62
     5
 63
     7
 74
     1
 91
        4
 64
     7
 65
   257
 75
     1
175
     1
 42
1.0
 92
        8
 66
     7
 43
1.0
 76
     1
 77
     6
 78
     2
 67
     7
 79
     5
170
     0
171
     0
290
     0
174
     0
 93
        1
 44
0.0
173
     0
291
     1
 45
0.0
1001
ACAD
1000
AcDbSavedByObjectVersion
1070
     0
  0
VISUALSTYLE
  5
2B
102
{ACAD_REACTORS
330
2A
102
}
330
2A
100
AcDbVisualStyle
  2
Flat
 70
     0
 71
     2
 72
     1
 73
     1
 90
        2
 40
-0.6
 41
30.0
 62
     5
 63
     7
 74
     0
 91
        4
 64
     7
 65
   257
 75
     1
175
     1
 42
1.0
 92
        8
 66
     7
 43
1.0
 76
     1
 77
     6
 78
     2
 67
     7
 79
     5
170
     0
171
     0
290
     0
174
     0
 93
       13
 44
0.0
173
     0
291
     1
 45
0.0
1001
ACAD
1000
AcDbSavedByObjectVersion
1070
     0
  0
VISUALSTYLE
  5
2C
102
{ACAD_REACTORS
330
2A
102
}
330
2A
100
AcDbVisualStyle
  2
FlatWithEdges
 70
     1
 71
     2
 72
     1
 73
     1
 90
        2
 40
-0.6
 41
30.0
 62
     5
 63
     7
 74
     1
 91
        4
 64
     7
 65
   257
 75
     1
175
     1
 42
1.0
 92
        0
 66
   257
 43
1.0
 76
     1
 77
     6
 78
     2
 67
     7
 79
     5
170
     0
171
     0
290
     0
174
     0
 93
       13
 44
0.0
173
     0
291
     1
 45
0.0
1001
ACAD
1000
AcDbSavedByObjectVersion
1070
     0
  0
VISUALSTYLE
  5
2D
102
{ACAD_REACTORS
330
2A
102
}
330
2A
100
AcDbVisualStyle
  2
Gouraud
 70
     2
 71
     2
 72
     2
 73
     1
 90
        2
 40
-0.6
 41
30.0
 62
     5
 63
     7
 74
     0
 91
        4
 64
     7
 65
   257
 75
     1
175
     1
 42
1.0
 92
        0
 66
     7
 43
1.0
 76
     1
 77
     6
 78
     2
 67
     7
 79
     5
170
     0
171
     0
290
     0
174
     0
 93
       13
 44
0.0
173
     0
291
     1
 45
0.0
1001
ACAD
1000
AcDbSavedByObjectVersion
1070
     0
  0
VISUALSTYLE
  5
2E
102
{ACAD_REACTORS
330
2A
102
}
330
2A
100
AcDbVisualStyle
  2
GouraudWithEdges
 70
     3
 71
     2
 72
     2
 73
     1
 90
        2
 40
-0.6
 41
30.0
 62
     5
 63
     7
 74
     1
 91
        4
 64
     7
 65
   257
 75
     1
175
     1
 42
1.0
 92
        0
 66
   257
 43
1.0
 76
     1
 77
     6
 78
     2
 67
     7
 79
     5
170
     0
171
     0
290
     0
174
     0
 93
       13
 44
0.0
173
     0
291
     1
 45
0.0
1001
ACAD
1000
AcDbSavedByObjectVersion
1070
     0
  0
VISUALSTYLE
  5
38
102
{ACAD_REACTORS
330
2A
102
}
330
2A
100
AcDbVisualStyle
  2
Linepattern
 70
    14
 71
     2
 72
     2
 73
     0
 90
        0
 40
-0.6
 41
-30.0
 62
     5
 63
     7
 74
     1
 91
        4
 64
     7
 65
   257
 75
     7
175
     7
 42
1.0
 92
        8
 66
     7
 43
1.0
 76
     1
 77
     6
 78
     2
 67
     7
 79
     5
170
     0
171
     0
290
     0
174
     0
 93
        1
 44
0.0
173
     0
291
     1
 45
0.0
1001
ACAD
1000
AcDbSavedByObjectVersion
1070
     0
  0
VISUALSTYLE
  5
33
102
{ACAD_REACTORS
330
2A
102
}
330
2A
100
AcDbVisualStyle
  2
Realistic
 70
     8
 71
     2
 72
     2
 73
     0
 90
        0
 40
-0.6
 41
-30.0
 62
     5
 63
     7
 74
     1
 91
        0
 64
     7
 65
   257
 75
     1
175
     1
 42
1.0
 92
        8
 66
     8
 43
1.0
 76
     1
 77
     6
 78
     2
 67
     7
 79
     5
170
     0
171
     0
290
     0
174
     0
 93
       13
 44
0.0
173
     0
291
     0
 45
0.0
1001
ACAD
1000
AcDbSavedByObjectVersion
1070
     0
  0
VISUALSTYLE
  5
37
102
{ACAD_REACTORS
330
2A
102
}
330
2A
100
AcDbVisualStyle
  2
Thicken
 70
    13
 71
     2
 72
     2
 73
     0
 90
        0
 40
-0.6
 41
-30.0
 62
     5
 63
     7
 74
     1
 91
        4
 64
     7
 65
   257
 75
     1
175
     1
 42
1.0
 92
       12
 66
     7
 43
1.0
 76
     1
 77
     6
 78
     2
 67
     7
 79
     5
170
     0
171
     0
290
     0
174
     0
 93
        1
 44
0.0
173
     0
291
     1
 45
0.0
1001
ACAD
1000
AcDbSavedByObjectVersion
1070
     0
  0
DICTIONARYVAR
  5
258
102
{ACAD_REACTORS
330
257
102
}
330
257
100
DictionaryVariables
280
     0
  1
1:1
  0
DICTIONARYVAR
  5
25C
102
{ACAD_REACTORS
330
257
102
}
330
257
100
DictionaryVariables
280
     0
  1
80.000000
  0
DICTIONARYVAR
  5
25B
102
{ACAD_REACTORS
330
257
102
}
330
257
100
DictionaryVariables
280
     0
  1
5.000000
  0
ENDSEC
  0
EOF
