  0
SECTION
  2
HEADER
  9
$ACADVER
  1
AC1015
  9
$ACADMAINTVER
 70
     6
  9
$DWGCODEPAGE
  3
ANSI_1252
  9
$INSBASE
 10
0.0
 20
0.0
 30
0.0
  9
$EXTMIN
 10
0.0
 20
0.0
 30
0.0
  9
$EXTMAX
 10
1682.0
 20
2378.0
 30
0.0
  9
$LIMMIN
 10
0.0
 20
0.0
  9
$LIMMAX
 10
1682.0
 20
2378.0
  9
$ORTHOMODE
 70
     0
  9
$REGENMODE
 70
     1
  9
$FILLMODE
 70
     1
  9
$QTEXTMODE
 70
     0
  9
$MIRRTEXT
 70
     1
  9
$LTSCALE
 40
1.0
  9
$ATTMODE
 70
     1
  9
$TEXTSIZE
 40
2.5
  9
$TRACEWID
 40
1.0
  9
$TEXTSTYLE
  7
Standard
  9
$CLAYER
  8
0
  9
$CELTYPE
  6
ByLayer
  9
$CECOLOR
 62
   256
  9
$CELTSCALE
 40
1.0
  9
$DISPSILH
 70
     0
  9
$DIMSCALE
 40
1.0
  9
$DIMASZ
 40
2.5
  9
$DIMEXO
 40
0.625
  9
$DIMDLI
 40
3.75
  9
$DIMRND
 40
0.0
  9
$DIMDLE
 40
0.0
  9
$DIMEXE
 40
1.25
  9
$DIMTP
 40
0.0
  9
$DIMTM
 40
0.0
  9
$DIMTXT
 40
2.5
  9
$DIMCEN
 40
2.5
  9
$DIMTSZ
 40
0.0
  9
$DIMTOL
 70
     0
  9
$DIMLIM
 70
     0
  9
$DIMTIH
 70
     0
  9
$DIMTOH
 70
     0
  9
$DIMSE1
 70
     0
  9
$DIMSE2
 70
     0
  9
$DIMTAD
 70
     1
  9
$DIMZIN
 70
     8
  9
$DIMBLK
  1

  9
$DIMASO
 70
     1
  9
$DIMSHO
 70
     1
  9
$DIMPOST
  1

  9
$DIMAPOST
  1

  9
$DIMALT
 70
     0
  9
$DIMALTD
 70
     3
  9
$DIMALTF
 40
0.0393700787
  9
$DIMLFAC
 40
1.0
  9
$DIMTOFL
 70
     1
  9
$DIMTVP
 40
0.0
  9
$DIMTIX
 70
     0
  9
$DIMSOXD
 70
     0
  9
$DIMSAH
 70
     0
  9
$DIMBLK1
  1

  9
$DIMBLK2
  1

  9
$DIMSTYLE
  2
ISO-25
  9
$DIMCLRD
 70
     0
  9
$DIMCLRE
 70
     0
  9
$DIMCLRT
 70
     0
  9
$DIMTFAC
 40
1.0
  9
$DIMGAP
 40
0.625
  9
$DIMJUST
 70
     0
  9
$DIMSD1
 70
     0
  9
$DIMSD2
 70
     0
  9
$DIMTOLJ
 70
     0
  9
$DIMTZIN
 70
     8
  9
$DIMALTZ
 70
     0
  9
$DIMALTTZ
 70
     0
  9
$DIMUPT
 70
     0
  9
$DIMDEC
 70
     2
  9
$DIMTDEC
 70
     2
  9
$DIMALTU
 70
     2
  9
$DIMALTTD
 70
     3
  9
$DIMTXSTY
  7
Standard
  9
$DIMAUNIT
 70
     0
  9
$DIMADEC
 70
     0
  9
$DIMALTRND
 40
0.0
  9
$DIMAZIN
 70
     0
  9
$DIMDSEP
 70
    44
  9
$DIMATFIT
 70
     3
  9
$DIMFRAC
 70
     0
  9
$DIMLDRBLK
  1

  9
$DIMLUNIT
 70
     2
  9
$DIMLWD
 70
    -2
  9
$DIMLWE
 70
    -2
  9
$DIMTMOVE
 70
     0
  9
$LUNITS
 70
     2
  9
$LUPREC
 70
     4
  9
$SKETCHINC
 40
1.0
  9
$FILLETRAD
 40
10.0
  9
$AUNITS
 70
     0
  9
$AUPREC
 70
     0
  9
$MENU
  1
.
  9
$ELEVATION
 40
0.0
  9
$PELEVATION
 40
0.0
  9
$THICKNESS
 40
0.0
  9
$LIMCHECK
 70
     0
  9
$CHAMFERA
 40
10.0
  9
$CHAMFERB
 40
10.0
  9
$CHAMFERC
 40
20.0
  9
$CHAMFERD
 40
0.0
  9
$SKPOLY
 70
     0
  9
$TDCREATE
 40
2455464.638367234
  9
$TDUCREATE
 40
2455464.5550339
  9
$TDUPDATE
 40
2455464.638367245
  9
$TDUUPDATE
 40
2455464.555033912
  9
$TDINDWG
 40
0.0000000116
  9
$TDUSRTIMER
 40
0.0000000116
  9
$USRTIMER
 70
     1
  9
$ANGBASE
 50
0.0
  9
$ANGDIR
 70
     0
  9
$PDMODE
 70
     0
  9
$PDSIZE
 40
0.0
  9
$PLINEWID
 40
0.0
  9
$SPLFRAME
 70
     0
  9
$SPLINETYPE
 70
     6
  9
$SPLINESEGS
 70
     8
  9
$HANDSEED
  5
EC
  9
$SURFTAB1
 70
     6
  9
$SURFTAB2
 70
     6
  9
$SURFTYPE
 70
     6
  9
$SURFU
 70
     6
  9
$SURFV
 70
     6
  9
$UCSBASE
  2

  9
$UCSNAME
  2

  9
$UCSORG
 10
0.0
 20
0.0
 30
0.0
  9
$UCSXDIR
 10
1.0
 20
0.0
 30
0.0
  9
$UCSYDIR
 10
0.0
 20
1.0
 30
0.0
  9
$UCSORTHOREF
  2

  9
$UCSORTHOVIEW
 70
     0
  9
$UCSORGTOP
 10
0.0
 20
0.0
 30
0.0
  9
$UCSORGBOTTOM
 10
0.0
 20
0.0
 30
0.0
  9
$UCSORGLEFT
 10
0.0
 20
0.0
 30
0.0
  9
$UCSORGRIGHT
 10
0.0
 20
0.0
 30
0.0
  9
$UCSORGFRONT
 10
0.0
 20
0.0
 30
0.0
  9
$UCSORGBACK
 10
0.0
 20
0.0
 30
0.0
  9
$PUCSBASE
  2

  9
$PUCSNAME
  2

  9
$PUCSORG
 10
0.0
 20
0.0
 30
0.0
  9
$PUCSXDIR
 10
1.0
 20
0.0
 30
0.0
  9
$PUCSYDIR
 10
0.0
 20
1.0
 30
0.0
  9
$PUCSORTHOREF
  2

  9
$PUCSORTHOVIEW
 70
     0
  9
$PUCSORGTOP
 10
0.0
 20
0.0
 30
0.0
  9
$PUCSORGBOTTOM
 10
0.0
 20
0.0
 30
0.0
  9
$PUCSORGLEFT
 10
0.0
 20
0.0
 30
0.0
  9
$PUCSORGRIGHT
 10
0.0
 20
0.0
 30
0.0
  9
$PUCSORGFRONT
 10
0.0
 20
0.0
 30
0.0
  9
$PUCSORGBACK
 10
0.0
 20
0.0
 30
0.0
  9
$USERI1
 70
     0
  9
$USERI2
 70
     0
  9
$USERI3
 70
     0
  9
$USERI4
 70
     0
  9
$USERI5
 70
     0
  9
$USERR1
 40
0.0
  9
$USERR2
 40
0.0
  9
$USERR3
 40
0.0
  9
$USERR4
 40
0.0
  9
$USERR5
 40
0.0
  9
$WORLDVIEW
 70
     1
  9
$SHADEDGE
 70
     3
  9
$SHADEDIF
 70
    70
  9
$TILEMODE
 70
     1
  9
$MAXACTVP
 70
    64
  9
$PINSBASE
 10
0.0
 20
0.0
 30
0.0
  9
$PLIMCHECK
 70
     0
  9
$PEXTMIN
 10
0.0
 20
0.0
 30
0.0
  9
$PEXTMAX
 10
1682.0
 20
2378.0
 30
0.0
  9
$PLIMMIN
 10
0.0
 20
0.0
  9
$PLIMMAX
 10
1682.0
 20
2378.0
  9
$UNITMODE
 70
     0
  9
$VISRETAIN
 70
     1
  9
$PLINEGEN
 70
     0
  9
$PSLTSCALE
 70
     1
  9
$TREEDEPTH
 70
  3020
  9
$CMLSTYLE
  2
Standard
  9
$CMLJUST
 70
     0
  9
$CMLSCALE
 40
20.0
  9
$PROXYGRAPHICS
 70
     1
  9
$MEASUREMENT
 70
     1
  9
$CELWEIGHT
370
    -1
  9
$ENDCAPS
280
     0
  9
$JOINSTYLE
280
     0
  9
$LWDISPLAY
290
     0
  9
$INSUNITS
 70
     4
  9
$HYPERLINKBASE
  1

  9
$STYLESHEET
  1

  9
$XEDIT
290
     1
  9
$CEPSNTYPE
380
     0
  9
$PSTYLEMODE
290
     1
  9
$FINGERPRINTGUID
  2
{DB05DFB5-BB2D-44E4-8CCB-22925BE4B59F}
  9
$VERSIONGUID
  2
{FAEB1C32-E019-11D5-929B-00C0DF256EC4}
  9
$EXTNAMES
290
     1
  9
$PSVPSCALE
 40
0.0
  9
$OLESTARTUP
290
     0
  0
ENDSEC
  0
SECTION
  2
CLASSES
  0
CLASS
  1
ACDBDICTIONARYWDFLT
  2
AcDbDictionaryWithDefault
  3
ObjectDBX Classes
 90
        0
280
     0
281
     0
  0
CLASS
  1
VISUALSTYLE
  2
AcDbVisualStyle
  3
ObjectDBX Classes
 90
     4095
280
     0
281
     0
  0
CLASS
  1
SCALE
  2
AcDbScale
  3
ObjectDBX Classes
 90
     1153
280
     0
281
     0
  0
CLASS
  1
DICTIONARYVAR
  2
AcDbDictionaryVar
  3
ObjectDBX Classes
 90
        0
280
     0
281
     0
  0
CLASS
  1
ACDBPLACEHOLDER
  2
AcDbPlaceHolder
  3
ObjectDBX Classes
 90
        0
280
     0
281
     0
  0
CLASS
  1
LAYOUT
  2
AcDbLayout
  3
ObjectDBX Classes
 90
        0
280
     0
281
     0
  0
ENDSEC
  0
SECTION
  2
TABLES
  0
TABLE
  2
VPORT
  5
8
330
0
100
AcDbSymbolTable
 70
     1
  0
VPORT
  5
29
330
8
100
AcDbSymbolTableRecord
100
AcDbViewportTableRecord
  2
*Active
 70
     0
 10
0.0
 20
0.0
 11
1.0
 21
1.0
 12
344.1869158879
 22
148.5
 13
0.0
 23
0.0
 14
10.0
 24
10.0
 15
10.0
 25
10.0
 16
0.0
 26
0.0
 36
1.0
 17
0.0
 27
0.0
 37
0.0
 40
297.0
 41
1.9729729729
 42
50.0
 43
0.0
 44
0.0
 50
0.0
 51
0.0
 71
     0
 72
   100
 73
     1
 74
     3
 75
     0
 76
     0
 77
     0
 78
     0
281
     0
 65
     1
110
0.0
120
0.0
130
0.0
111
1.0
121
0.0
131
0.0
112
0.0
122
1.0
132
0.0
 79
     0
146
0.0
  0
ENDTAB
  0
TABLE
  2
LTYPE
  5
5
330
0
100
AcDbSymbolTable
 70
     2
  0
LTYPE
  5
14
330
5
100
AcDbSymbolTableRecord
100
AcDbLinetypeTableRecord
  2
ByBlock
 70
     0
  3

 72
    65
 73
     0
 40
0.0
  0
LTYPE
  5
15
330
5
100
AcDbSymbolTableRecord
100
AcDbLinetypeTableRecord
  2
ByLayer
 70
     0
  3

 72
    65
 73
     0
 40
0.0
  0
LTYPE
  5
16
330
5
100
AcDbSymbolTableRecord
100
AcDbLinetypeTableRecord
  2
Continuous
 70
     0
  3
Solid line
 72
    65
 73
     0
 40
0.0
  0
LTYPE
  5
60
330
5
100
AcDbSymbolTableRecord
100
AcDbLinetypeTableRecord
  2
CENTER2
 70
     0
  3
Center (.5x) ___ _ ___ _ ___ _ ___ _ ___ _ ___
 72
    65
 73
     4
 40
28.575
 49
19.05
 74
     4
 75
     0
340
0
 46
0.0
 50
0.0
 44
0.0
 45
0.0
 49
-3.175
 74
     4
 75
     0
340
0
 46
0.0
 50
0.0
 44
0.0
 45
0.0
 49
3.175
 74
     4
 75
     0
340
0
 46
0.0
 50
0.0
 44
0.0
 45
0.0
 49
-3.175
 74
     4
 75
     0
340
0
 46
0.0
 50
0.0
 44
0.0
 45
0.0
  0
ENDTAB
  0
TABLE
  2
LAYER
  5
2
330
0
100
AcDbSymbolTable
 70
     7
  0
LAYER
  5
10
330
2
100
AcDbSymbolTableRecord
100
AcDbLayerTableRecord
  2
0
 70
     0
 62
     7
  6
Continuous
370
    -3
390
F
  0
LAYER
  5
5D
330
2
100
AcDbSymbolTableRecord
100
AcDbLayerTableRecord
  2
Default
 70
     0
 62
     7
  6
Continuous
370
    -3
390
F
  0
LAYER
  5
77
330
2
100
AcDbSymbolTableRecord
100
AcDbLayerTableRecord
  2
$DDT_AUDIT_GENERATED_(77)
 70
     0
 62
     7
  6
Continuous
370
    -3
390
F
  0
LAYER
  5
7A
330
2
100
AcDbSymbolTableRecord
100
AcDbLayerTableRecord
  2
$DDT_AUDIT_GENERATED_(7A)
 70
     0
 62
     7
  6
Continuous
370
    -3
390
F
  0
LAYER
  5
7D
330
2
100
AcDbSymbolTableRecord
100
AcDbLayerTableRecord
  2
$DDT_AUDIT_GENERATED_(7D)
 70
     0
 62
     7
  6
Continuous
370
    -3
390
F
  0
LAYER
  5
81
330
2
100
AcDbSymbolTableRecord
100
AcDbLayerTableRecord
  2
$DDT_AUDIT_GENERATED_(81)
 70
     0
 62
     7
  6
Continuous
370
    -3
390
F
  0
LAYER
  5
84
330
2
100
AcDbSymbolTableRecord
100
AcDbLayerTableRecord
  2
$DDT_AUDIT_GENERATED_(84)
 70
     0
 62
     7
  6
Continuous
370
    -3
390
F
  0
ENDTAB
  0
TABLE
  2
STYLE
  5
3
330
0
100
AcDbSymbolTable
 70
     2
  0
STYLE
  5
11
330
3
100
AcDbSymbolTableRecord
100
AcDbTextStyleTableRecord
  2
Standard
 70
     0
 40
0.0
 41
1.0
 50
0.0
 71
     0
 42
2.5
  3
txt
  4

  0
STYLE
  5
DB
330
3
100
AcDbSymbolTableRecord
100
AcDbTextStyleTableRecord
  2
SEACAD_seiso_ttf
 70
     0
 40
0.0
 41
1.0
 50
0.0
 71
     0
 42
0.2
  3
seiso.ttf
  4

  0
ENDTAB
  0
TABLE
  2
VIEW
  5
6
330
0
100
AcDbSymbolTable
 70
     0
  0
ENDTAB
  0
TABLE
  2
UCS
  5
7
330
0
100
AcDbSymbolTable
 70
     0
  0
ENDTAB
  0
TABLE
  2
APPID
  5
9
330
0
100
AcDbSymbolTable
 70
     1
  0
APPID
  5
12
330
9
100
AcDbSymbolTableRecord
100
AcDbRegAppTableRecord
  2
ACAD
 70
     0
  0
ENDTAB
  0
TABLE
  2
DIMSTYLE
  5
A
330
0
100
AcDbSymbolTable
 70
     1
100
AcDbDimStyleTable
  0
DIMSTYLE
105
27
330
A
100
AcDbSymbolTableRecord
100
AcDbDimStyleTableRecord
  2
ISO-25
 70
     0
 41
2.5
 42
0.625
 43
3.75
 44
1.25
 73
     0
 74
     0
 77
     1
 78
     8
140
2.5
141
2.5
143
0.0393700787
147
0.625
171
     3
172
     1
271
     2
272
     2
274
     3
278
    44
283
     0
284
     8
340
11
  0
ENDTAB
  0
TABLE
  2
BLOCK_RECORD
  5
1
330
0
100
AcDbSymbolTable
 70
     7
  0
BLOCK_RECORD
  5
1F
330
1
100
AcDbSymbolTableRecord
100
AcDbBlockTableRecord
  2
*Model_Space
340
22
  0
BLOCK_RECORD
  5
1B
330
1
100
AcDbSymbolTableRecord
100
AcDbBlockTableRecord
  2
*Paper_Space
340
1E
  0
BLOCK_RECORD
  5
5E
330
1
100
AcDbSymbolTableRecord
100
AcDbBlockTableRecord
  2
SEANNOT_GROUP
340
0
102
{BLKREFS
331
5F
102
}
  0
BLOCK_RECORD
  5
69
330
1
100
AcDbSymbolTableRecord
100
AcDbBlockTableRecord
  2
SEANNOT_GROUP1
340
0
102
{BLKREFS
331
6A
102
}
  0
BLOCK_RECORD
  5
6F
330
1
100
AcDbSymbolTableRecord
100
AcDbBlockTableRecord
  2
SEANNOT_GROUP2
340
0
102
{BLKREFS
331
70
102
}
  0
BLOCK_RECORD
  5
75
330
1
100
AcDbSymbolTableRecord
100
AcDbBlockTableRecord
  2
SE
340
0
102
{BLKREFS
331
76
102
}
  0
BLOCK_RECORD
  5
8F
330
1
100
AcDbSymbolTableRecord
100
AcDbBlockTableRecord
  2
SE1
340
0
102
{BLKREFS
331
90
102
}
  0
BLOCK_RECORD
  5
B4
330
1
100
AcDbSymbolTableRecord
100
AcDbBlockTableRecord
  2
SE2
340
0
102
{BLKREFS
331
B5
102
}
  0
ENDTAB
  0
ENDSEC
  0
SECTION
  2
BLOCKS
  0
BLOCK
  5
20
330
1F
100
AcDbEntity
  8
0
100
AcDbBlockBegin
  2
*Model_Space
 70
     0
 10
0.0
 20
0.0
 30
0.0
  3
*Model_Space
  1

  0
ENDBLK
  5
21
330
1F
100
AcDbEntity
  8
0
100
AcDbBlockEnd
  0
BLOCK
  5
1C
330
1B
100
AcDbEntity
 67
     1
  8
0
100
AcDbBlockBegin
  2
*Paper_Space
 70
     0
 10
0.0
 20
0.0
 30
0.0
  3
*Paper_Space
  1

  0
ENDBLK
  5
1D
330
1B
100
AcDbEntity
 67
     1
  8
0
100
AcDbBlockEnd
  0
BLOCK
  5
67
330
5E
100
AcDbEntity
  8
0
100
AcDbBlockBegin
  2
SEANNOT_GROUP
 70
     0
 10
0.0
 20
0.0
 30
0.0
  3
SEANNOT_GROUP
  1

  0
LINE
  5
61
330
5E
100
AcDbEntity
  8
Default
  6
CENTER2
 62
     7
100
AcDbLine
 10
103.1044165871
 20
298.9956422208
 30
0.0
 11
63.1044174812
 21
298.9956422208
 31
0.0
  0
LINE
  5
62
330
5E
100
AcDbEntity
  8
Default
  6
CENTER2
 62
     7
100
AcDbLine
 10
83.1044170341
 20
318.9956417738
 30
0.0
 11
83.1044170341
 21
278.9956426678
 31
0.0
  0
LINE
  5
63
330
5E
100
AcDbEntity
  8
Default
  6
CENTER2
 62
     7
100
AcDbLine
 10
108.1044164753
 20
298.9956422208
 30
0.0
 11
110.5544170341
 21
298.9956422208
 31
0.0
  0
LINE
  5
64
330
5E
100
AcDbEntity
  8
Default
  6
CENTER2
 62
     7
100
AcDbLine
 10
83.1044170341
 20
323.995641662
 30
0.0
 11
83.1044170341
 21
326.4456422208
 31
0.0
  0
LINE
  5
65
330
5E
100
AcDbEntity
  8
Default
  6
CENTER2
 62
     7
100
AcDbLine
 10
58.1044175929
 20
298.9956422208
 30
0.0
 11
55.6544170341
 21
298.9956422208
 31
0.0
  0
LINE
  5
66
330
5E
100
AcDbEntity
  8
Default
  6
CENTER2
 62
     7
100
AcDbLine
 10
83.1044170341
 20
273.9956427796
 30
0.0
 11
83.1044170341
 21
271.5456422208
 31
0.0
  0
ENDBLK
  5
68
330
5E
100
AcDbEntity
  8
0
100
AcDbBlockEnd
  0
BLOCK
  5
6D
330
69
100
AcDbEntity
  8
0
100
AcDbBlockBegin
  2
SEANNOT_GROUP1
 70
     0
 10
0.0
 20
0.0
 30
0.0
  3
SEANNOT_GROUP1
  1

  0
LINE
  5
6B
330
69
100
AcDbEntity
  8
Default
  6
CENTER2
 62
     7
100
AcDbLine
 10
103.1044165871
 20
186.8165834786
 30
0.0
 11
63.1044174812
 21
186.8165834786
 31
0.0
  0
LINE
  5
6C
330
69
100
AcDbEntity
  8
Default
  6
CENTER2
 62
     7
100
AcDbLine
 10
83.1044170341
 20
206.8165830315
 30
0.0
 11
83.1044170341
 21
166.8165839256
 31
0.0
  0
ENDBLK
  5
6E
330
69
100
AcDbEntity
  8
0
100
AcDbBlockEnd
  0
BLOCK
  5
73
330
6F
100
AcDbEntity
  8
0
100
AcDbBlockBegin
  2
SEANNOT_GROUP2
 70
     0
 10
0.0
 20
0.0
 30
0.0
  3
SEANNOT_GROUP2
  1

  0
LINE
  5
71
330
6F
100
AcDbEntity
  8
Default
  6
CENTER2
 62
     7
100
AcDbLine
 10
237.7628943642
 20
298.9956422208
 30
0.0
 11
197.7628952582
 21
298.9956422208
 31
0.0
  0
LINE
  5
72
330
6F
100
AcDbEntity
  8
Default
  6
CENTER2
 62
     7
100
AcDbLine
 10
217.7628948112
 20
318.9956417738
 30
0.0
 11
217.7628948112
 21
278.9956426678
 31
0.0
  0
ENDBLK
  5
74
330
6F
100
AcDbEntity
  8
0
100
AcDbBlockEnd
  0
BLOCK
  5
8D
330
75
100
AcDbEntity
  8
0
100
AcDbBlockBegin
  2
SE
 70
     0
 10
0.0
 20
0.0
 30
0.0
  3
SE
  1

  0
ARC
  5
78
330
75
100
AcDbEntity
  8
$DDT_AUDIT_GENERATED_(77)
  6
Continuous
 62
     7
100
AcDbCircle
 10
83.1044170341
 20
298.9956422208
 30
0.0
 40
23.95
100
AcDbArc
 50
0.0
 51
168.4794052732
  0
ARC
  5
79
330
75
100
AcDbEntity
  8
$DDT_AUDIT_GENERATED_(77)
  6
Continuous
 62
     7
100
AcDbCircle
 10
83.1044170341
 20
298.9956422208
 30
0.0
 40
23.95
100
AcDbArc
 50
191.4417219434
 51
0.0
  0
ARC
  5
7B
330
75
100
AcDbEntity
  8
$DDT_AUDIT_GENERATED_(7A)
  6
Continuous
 62
     7
100
AcDbCircle
 10
83.1044170341
 20
298.9956422208
 30
0.0
 40
17.97068137907467
100
AcDbArc
 50
0.0
 51
164.5609630961
  0
ARC
  5
7C
330
75
100
AcDbEntity
  8
$DDT_AUDIT_GENERATED_(7A)
  6
Continuous
 62
     7
100
AcDbCircle
 10
83.1044170341
 20
298.9956422208
 30
0.0
 40
17.97068137907467
100
AcDbArc
 50
195.3449510969
 51
0.0
  0
SPLINE
  5
7E
330
75
100
AcDbEntity
  8
$DDT_AUDIT_GENERATED_(7D)
  6
Continuous
 62
     7
100
AcDbSpline
210
0.0
220
0.0
230
1.0
 70
     8
 71
     3
 72
    16
 73
    12
 74
     0
 42
0.0000000005290531
 43
0.0000000001
 40
0.3751209141207443
 40
0.3751209141207443
 40
0.3751209141207443
 40
0.3751209141207443
 40
0.5
 40
0.5
 40
0.625
 40
0.625
 40
0.75
 40
0.75
 40
0.875
 40
0.875
 40
0.876566643723668
 40
0.876566643723668
 40
0.876566643723668
 40
0.876566643723668
 10
71.53672572306796
 20
303.7306421669135
 30
0.0
 10
71.54123663055641
 20
303.7305640966724
 30
0.0
 10
71.54565944812217
 20
303.2183650776147
 30
0.0
 10
71.5519801463265
 20
301.4722164290023
 30
0.0
 10
71.55383520444916
 20
300.2361068718297
 30
0.0
 10
71.5538458268236
 20
297.7664386872204
 30
0.0
 10
71.55202910379569
 20
296.5357999460326
 30
0.0
 10
71.54565127631498
 20
294.7674767806523
 30
0.0
 10
71.54120910233685
 20
294.2619027615157
 30
0.0
 10
71.53668655789822
 20
294.2606289038858
 30
0.0
 10
71.53663058145602
 20
294.2606923105904
 30
0.0
 10
71.53657461110483
 20
294.26083465118
 30
0.0
  0
ARC
  5
7F
330
75
100
AcDbEntity
  8
$DDT_AUDIT_GENERATED_(7D)
  6
Continuous
 62
     7
100
AcDbCircle
 10
83.1044170341
 20
298.9956422208
 30
0.0
 40
12.49933865876634
100
AcDbArc
 50
202.1961538414
 51
90.0
  0
ARC
  5
80
330
75
100
AcDbEntity
  8
$DDT_AUDIT_GENERATED_(7D)
  6
Continuous
 62
     7
100
AcDbCircle
 10
83.1044170341
 20
298.9956422208
 30
0.0
 40
12.49933865876634
100
AcDbArc
 50
90.0
 51
157.761945207
  0
SPLINE
  5
82
330
75
100
AcDbEntity
  8
$DDT_AUDIT_GENERATED_(81)
  6
Continuous
 62
     7
100
AcDbSpline
210
0.0
220
0.0
230
1.0
 70
     8
 71
     3
 72
    77
 73
    73
 74
     0
 42
0.000000000036745
 43
0.0000000001
 40
0.0666336501764941
 40
0.0666336501764941
 40
0.0666336501764941
 40
0.0666336501764941
 40
0.0845006664388754
 40
0.1091091852120025
 40
0.1308386284561149
 40
0.1507275441839898
 40
0.1690784743895386
 40
0.1844998667067553
 40
0.1967956328626278
 40
0.2079662758369187
 40
0.2175254325844415
 40
0.2261840563835259
 40
0.233941561704873
 40
0.2419162247885362
 40
0.2484091151957162
 40
0.2530809822166231
 40
0.2551075477022459
 40
0.2571489280028396
 40
0.2606649937159333
 40
0.2678108983388783
 40
0.2778836382774839
 40
0.2891874870112712
 40
0.3014906464332381
 40
0.3130934539308605
 40
0.3233741173838475
 40
0.3337862562316438
 40
0.3419412592830353
 40
0.3479314550346275
 40
0.3532766411859933
 40
0.3587563213712318
 40
0.3645985007839955
 40
0.3719727559887981
 40
0.3864372744947351
 40
0.4031223076065522
 40
0.4310700229401466
 40
0.4583017820721917
 40
0.4679736038228658
 40
0.4784178781157864
 40
0.4893106254978244
 40
0.502067596515869
 40
0.5138383479764019
 40
0.5248580482629948
 40
0.5356679463625853
 40
0.5440063900781715
 40
0.5517561015449226
 40
0.557093003533369
 40
0.5610495653449098
 40
0.565891885941406
 40
0.5717067614222666
 40
0.579655168235642
 40
0.5877360597581673
 40
0.594961174008696
 40
0.6010308389036716
 40
0.6067125199840727
 40
0.613986612151224
 40
0.6208184785528734
 40
0.6289085649801893
 40
0.6397521519076548
 40
0.6528163970308689
 40
0.6681024389497369
 40
0.6854065145632795
 40
0.7039372690392968
 40
0.7242356924244171
 40
0.7467176832467755
 40
0.7719178061582973
 40
0.7999862161135727
 40
0.8301598107311394
 40
0.8625555498433185
 40
0.8962199499514847
 40
0.9307343266376393
 40
0.9673281676689754
 40
1.0
 40
1.0
 40
1.0
 40
1.0
 10
71.5934811085131
 20
303.7713413069116
 30
0.0
 10
69.95234668509568
 20
303.771377572295
 30
0.0
 10
66.08926224150275
 20
303.7714328187774
 30
0.0
 10
60.08365295766726
 20
303.7709726345204
 30
0.0
 10
54.00875820771636
 20
303.7711442019578
 30
0.0
 10
48.44384661721168
 20
303.7694052306552
 30
0.0
 10
43.49874936139858
 20
303.7718154238403
 30
0.0
 10
39.23567149619736
 20
303.767988670467
 30
0.0
 10
35.64556812565704
 20
303.7773426702603
 30
0.0
 10
32.5930861011052
 20
303.7588485285166
 30
0.0
 10
29.87723561486522
 20
303.7957771762248
 30
0.0
 10
27.48111044028303
 20
303.6084031174079
 30
0.0
 10
25.26614526939492
 20
303.2046615214936
 30
0.0
 10
23.29370670666326
 20
302.6690751682016
 30
0.0
 10
21.64932239735511
 20
302.0613160449944
 30
0.0
 10
20.54946126892857
 20
301.5740954609987
 30
0.0
 10
19.83499519241019
 20
301.2231648091492
 30
0.0
 10
19.22102312915485
 20
300.9042544109697
 30
0.0
 10
18.21102410791044
 20
300.3381608558437
 30
0.0
 10
16.6245369714822
 20
299.3176310811306
 30
0.0
 10
14.59931843560491
 20
297.7120300202825
 30
0.0
 10
12.48778488916771
 20
295.5341214571896
 30
0.0
 10
10.6730624653415
 20
292.9675496609553
 30
0.0
 10
9.318031465701647
 20
290.2636179767707
 30
0.0
 10
8.41140632979409
 20
287.5756853245026
 30
0.0
 10
7.936887021907923
 20
285.0928728447101
 30
0.0
 10
7.812449084782597
 20
282.9734111793976
 30
0.0
 10
7.835058201204892
 20
281.2942275221865
 30
0.0
 10
7.824170443645278
 20
279.8657470673072
 30
0.0
 10
7.830559944427051
 20
278.45520841821
 30
0.0
 10
7.826176039078009
 20
276.8725299442831
 30
0.0
 10
7.83207881419215
 20
274.5318335373773
 30
0.0
 10
7.822100870772425
 20
271.2772568306406
 30
0.0
 10
7.837637887847721
 20
266.2897646841619
 30
0.0
 10
7.80988237110472
 20
260.1873362185387
 30
0.0
 10
7.858706851964298
 20
254.6435215913948
 30
0.0
 10
7.819811319436515
 20
250.5743132617786
 30
0.0
 10
8.08853936038334
 20
247.9207094473005
 30
0.0
 10
8.858830425161058
 20
245.0637633790653
 30
0.0
 10
10.0816607771155
 20
242.2191194977439
 30
0.0
 10
11.75890332999388
 20
239.54987205106
 30
0.0
 10
13.70499939009317
 20
237.2498253690532
 30
0.0
 10
15.73000464747357
 20
235.4267338110873
 30
0.0
 10
17.71634598045107
 20
234.0070899385301
 30
0.0
 10
19.40863299523523
 20
233.0274228735163
 30
0.0
 10
20.81483508280567
 20
232.3538508607388
 30
0.0
 10
22.01137921802525
 20
231.8608549336427
 30
0.0
 10
23.27548250913413
 20
231.4168096779587
 30
0.0
 10
24.9218236832623
 20
230.949184218917
 30
0.0
 10
26.89749202639199
 20
230.5574140247537
 30
0.0
 10
29.03486165183505
 20
230.3131563033828
 30
0.0
 10
31.01131924225346
 20
230.2886245118467
 30
0.0
 10
32.76409145669732
 20
230.301548572445
 30
0.0
 10
34.52216229267714
 20
230.2968030742484
 30
0.0
 10
36.35034824849232
 20
230.2976318601544
 30
0.0
 10
38.40122693837073
 20
230.2975857945771
 30
0.0
 10
40.78190068034629
 20
230.2984323241216
 30
0.0
 10
43.73831958174409
 20
230.2982172214539
 30
0.0
 10
47.35989339998309
 20
230.297943470184
 30
0.0
 10
51.57785106194287
 20
230.2975647023688
 30
0.0
 10
56.30192611369658
 20
230.2974119298232
 30
0.0
 10
61.48721320529195
 20
230.2973434487346
 30
0.0
 10
67.15448643626752
 20
230.2974342033495
 30
0.0
 10
73.43128703950984
 20
230.2976171438563
 30
0.0
 10
80.4387737494576
 20
230.2978615630777
 30
0.0
 10
88.13272094864614
 20
230.2980342693012
 30
0.0
 10
96.53684401584225
 20
230.2981271551466
 30
0.0
 10
105.3738387911861
 20
230.2981436539711
 30
0.0
 10
114.7677055575642
 20
230.2980931282834
 30
0.0
 10
124.2570346455466
 20
230.2980117369112
 30
0.0
 10
134.2215201466971
 20
230.2979117073215
 30
0.0
 10
140.0697825436334
 20
230.2978872802768
 30
0.0
 10
143.3904321252577
 20
230.297872820585
 30
0.0
  0
SPLINE
  5
83
330
75
100
AcDbEntity
  8
$DDT_AUDIT_GENERATED_(81)
  6
Continuous
 62
     7
100
AcDbSpline
210
0.0
220
0.0
230
1.0
 70
     8
 71
     3
 72
    98
 73
    94
 74
     0
 42
0.0000000000412986
 43
0.0000000001
 40
0.0
 40
0.0
 40
0.0
 40
0.0
 40
0.0252413634786506
 40
0.055634848117099
 40
0.0848396601173806
 40
0.1128557882032394
 40
0.1396832233617157
 40
0.1648745479583043
 40
0.1889192422672425
 40
0.2118173028966791
 40
0.23356872778077
 40
0.25458208274107
 40
0.2744015332934496
 40
0.2930271185381886
 40
0.3104588691742575
 40
0.3266968024073508
 40
0.3417409242455837
 40
0.355591231635684
 40
0.3669250216175636
 40
0.377311239659862
 40
0.3867507429503096
 40
0.3957840323404551
 40
0.4048703381551786
 40
0.4410970850248833
 40
0.4480640908970996
 40
0.4545420481985327
 40
0.4601022953827473
 40
0.4653832354180691
 40
0.4701040027580883
 40
0.474136699209016
 40
0.4758821791227347
 40
0.4774433864051568
 40
0.478905983709996
 40
0.4810690265476441
 40
0.4841161652925087
 40
0.488031466329376
 40
0.4915273171933611
 40
0.495358198984297
 40
0.4990434305667314
 40
0.5025465216475781
 40
0.509024597993216
 40
0.5148442951234214
 40
0.5200401357267203
 40
0.5246247849197262
 40
0.5287421430429835
 40
0.5329356698215938
 40
0.5378736030067598
 40
0.5437592093406961
 40
0.5502310115149878
 40
0.5568407625275636
 40
0.5635425138640907
 40
0.5703514753587373
 40
0.5813370504656342
 40
0.5929466047766825
 40
0.6052136594485076
 40
0.619951815314838
 40
0.6355392620534533
 40
0.6519738829165668
 40
0.6692494736474115
 40
0.6747476683676179
 40
0.6792295331680789
 40
0.6831613781307116
 40
0.6869501935845704
 40
0.6906049740766097
 40
0.6940735946879188
 40
0.7005267884110805
 40
0.7064389445656919
 40
0.7117723853422269
 40
0.7164607085620976
 40
0.7207063854402256
 40
0.7246847103555694
 40
0.7302124020975608
 40
0.735352632179469
 40
0.7377909726971285
 40
0.7404962377388247
 40
0.7437778236567475
 40
0.7476383631711787
 40
0.7505308466189516
 40
0.7536732687646412
 40
0.7571215871809015
 40
0.761069976169284
 40
0.765890977375276
 40
0.7713288615808086
 40
0.7826852223054279
 40
0.795243854161718
 40
0.8090082578552147
 40
0.8239805861406245
 40
0.8401608299848209
 40
0.8575488173729353
 40
0.8761442570105615
 40
0.8942506147479372
 40
0.9133714127593013
 40
0.9253844628536888
 40
0.9253844628536888
 40
0.9253844628536888
 40
0.9253844628536888
 10
143.3904324140232
 20
239.8228711336185
 30
0.0
 10
141.0884425622311
 20
239.8228790633243
 30
0.0
 10
136.803138111623
 20
239.822893988151
 30
0.0
 10
129.618571348714
 20
239.8229529546466
 30
0.0
 10
122.3954759855659
 20
239.8230171108369
 30
0.0
 10
115.4168796191637
 20
239.8230737672285
 30
0.0
 10
108.7838993911945
 20
239.8231102119057
 30
0.0
 10
102.4769754505658
 20
239.8231193239442
 30
0.0
 10
96.49662015560398
 20
239.823096508023
 30
0.0
 10
90.80126454920665
 20
239.8230388227801
 30
0.0
 10
85.35728099196733
 20
239.8229448847025
 30
0.0
 10
80.16852749224984
 20
239.8228135582309
 30
0.0
 10
75.2389350479701
 20
239.8226491189932
 30
0.0
 10
70.60628651107282
 20
239.8224964609302
 30
0.0
 10
66.27057561440347
 20
239.8223834726956
 30
0.0
 10
62.23179766879297
 20
239.8223277335597
 30
0.0
 10
58.48995107388752
 20
239.8223374852327
 30
0.0
 10
55.15469860917791
 20
239.8224108950225
 30
0.0
 10
52.205625021263
 20
239.8225362203667
 30
0.0
 10
49.62224364404327
 20
239.8226966374427
 30
0.0
 10
47.2295930723684
 20
239.8228970441481
 30
0.0
 10
44.94471562172794
 20
239.8231237139426
 30
0.0
 10
40.43896849647693
 20
239.8235075986414
 30
0.0
 10
36.10448559153355
 20
239.8217725585811
 30
0.0
 10
31.98646020606285
 20
239.8245894294412
 30
0.0
 10
30.41063892791062
 20
239.8079848330351
 30
0.0
 10
28.97546258339618
 20
239.8847022210491
 30
0.0
 10
27.70159975790827
 20
240.0806739339949
 30
0.0
 10
26.57785778128516
 20
240.3539879682012
 30
0.0
 10
25.75855078093096
 20
240.6164238710454
 30
0.0
 10
25.19844847061504
 20
240.825502696468
 30
0.0
 10
24.83968163457525
 20
240.9707371491346
 30
0.0
 10
24.45532521768705
 20
241.1378247421688
 30
0.0
 10
23.97349392901619
 20
241.3652743773042
 30
0.0
 10
23.33408090444761
 20
241.7028570847237
 30
0.0
 10
22.63264492650787
 20
242.1291006943693
 30
0.0
 10
21.91724060907767
 20
242.630378694564
 30
0.0
 10
21.25645549514863
 20
243.1613470074234
 30
0.0
 10
20.63899545603319
 20
243.7320657083386
 30
0.0
 10
19.92923109218708
 20
244.4836068514066
 30
0.0
 10
19.2041376717958
 20
245.4195153414689
 30
0.0
 10
18.54510498105869
 20
246.5319034737523
 30
0.0
 10
18.07707858422767
 20
247.5733805256226
 30
0.0
 10
17.75634661053452
 20
248.5317004839328
 30
0.0
 10
17.53873957337926
 20
249.439956310728
 30
0.0
 10
17.38828347082446
 20
250.3931406280493
 30
0.0
 10
17.32912533066779
 20
251.4902396747337
 30
0.0
 10
17.35037712038657
 20
252.7701892784515
 30
0.0
 10
17.34919189532164
 20
254.180806554701
 30
0.0
 10
17.35089502109399
 20
255.6578928689339
 30
0.0
 10
17.3518135039484
 20
257.1657545144317
 30
0.0
 10
17.35235939912053
 20
259.0080315549699
 30
0.0
 10
17.35249241152254
 20
261.2291854137765
 30
0.0
 10
17.35279935775901
 20
263.8532462373876
 30
0.0
 10
17.35274021730586
 20
266.7544195055201
 30
0.0
 10
17.35156161675206
 20
269.9471444515336
 30
0.0
 10
17.34863760327039
 20
273.4449032378816
 30
0.0
 10
17.34010590488942
 20
277.1249235003597
 30
0.0
 10
17.33340843402557
 20
280.0467658344288
 30
0.0
 10
17.31852917071105
 20
282.0748119632306
 30
0.0
 10
17.32407421714269
 20
283.1045966540585
 30
0.0
 10
17.42233637826016
 20
284.0000691719076
 30
0.0
 10
17.58115276617615
 20
284.8251722103685
 30
0.0
 10
17.79082775063327
 20
285.6046796512668
 30
0.0
 10
18.12146484823398
 20
286.5543638467406
 30
0.0
 10
18.62174410447178
 20
287.6226972975006
 30
0.0
 10
19.32751480417352
 20
288.7445924405063
 30
0.0
 10
20.06730264065969
 20
289.6889868010292
 30
0.0
 10
20.80351041506028
 20
290.4709385062075
 30
0.0
 10
21.53295057140254
 20
291.1276502615881
 30
0.0
 10
22.3751947462798
 20
291.7766038748575
 30
0.0
 10
23.34838563388252
 20
292.397790759137
 30
0.0
 10
24.28765432507176
 20
292.8749533128647
 30
0.0
 10
25.05663091416911
 20
293.2021374507282
 30
0.0
 10
25.70170860062029
 20
293.4430098020086
 30
0.0
 10
26.47196672088789
 20
293.6866601116436
 30
0.0
 10
27.27337829299297
 20
293.8891268625759
 30
0.0
 10
28.07528104709578
 20
294.0454377092316
 30
0.0
 10
28.8517461509309
 20
294.157475349054
 30
0.0
 10
29.7219217887016
 20
294.2346404985985
 30
0.0
 10
30.73521944550644
 20
294.251401574517
 30
0.0
 10
31.91297183872265
 20
294.2456345383873
 30
0.0
 10
33.70508068158484
 20
294.2490184544243
 30
0.0
 10
36.13862584448336
 20
294.2476193093796
 30
0.0
 10
39.26254832548002
 20
294.2471404965364
 30
0.0
 10
42.68625498063328
 20
294.246057240541
 30
0.0
 10
46.41023185586333
 20
294.2457317329652
 30
0.0
 10
50.43462683066375
 20
294.2457093482424
 30
0.0
 10
54.75944423277284
 20
294.2459830802397
 30
0.0
 10
59.24381722091013
 20
294.2462533179907
 30
0.0
 10
63.87237873156079
 20
294.2463745801743
 30
0.0
 10
67.95338564690682
 20
294.2463938787056
 30
0.0
 10
70.53716209728182
 20
294.246370398825
 30
0.0
 10
71.53321795225004
 20
294.2463576607305
 30
0.0
  0
LINE
  5
85
330
75
100
AcDbEntity
  8
$DDT_AUDIT_GENERATED_(84)
  6
Continuous
 62
     7
100
AcDbLine
 10
143.3904322467
 20
243.5603714079
 30
0.0
 11
143.3904322467
 21
226.5603544306
 31
0.0
  0
LINE
  5
86
330
75
100
AcDbEntity
  8
$DDT_AUDIT_GENERATED_(84)
  6
Continuous
 62
     7
100
AcDbLine
 10
151.3904322467
 20
226.5603544306
 30
0.0
 11
151.3904322467
 21
243.5603714079
 31
0.0
  0
LINE
  5
87
330
75
100
AcDbEntity
  8
$DDT_AUDIT_GENERATED_(84)
  6
Continuous
 62
     7
100
AcDbLine
 10
150.8904322467
 20
244.0603714079
 30
0.0
 11
143.8904322467
 21
244.0603714079
 31
0.0
  0
LINE
  5
88
330
75
100
AcDbEntity
  8
$DDT_AUDIT_GENERATED_(84)
  6
Continuous
 62
     7
100
AcDbLine
 10
143.8904322467
 20
226.0603544306
 30
0.0
 11
150.8904322467
 21
226.0603544306
 31
0.0
  0
ARC
  5
89
330
75
100
AcDbEntity
  8
$DDT_AUDIT_GENERATED_(84)
  6
Continuous
 62
     7
100
AcDbCircle
 10
143.8904322467
 20
243.5603714079
 30
0.0
 40
0.5000000000000073
100
AcDbArc
 50
90.0
 51
180.0
  0
ARC
  5
8A
330
75
100
AcDbEntity
  8
$DDT_AUDIT_GENERATED_(84)
  6
Continuous
 62
     7
100
AcDbCircle
 10
143.8904322467
 20
226.5603544306
 30
0.0
 40
0.5000000000000004
100
AcDbArc
 50
180.0
 51
270.0
  0
ARC
  5
8B
330
75
100
AcDbEntity
  8
$DDT_AUDIT_GENERATED_(84)
  6
Continuous
 62
     7
100
AcDbCircle
 10
150.8904322467
 20
243.5603714079
 30
0.0
 40
0.5000000000000004
100
AcDbArc
 50
0.0
 51
90.0
  0
ARC
  5
8C
330
75
100
AcDbEntity
  8
$DDT_AUDIT_GENERATED_(84)
  6
Continuous
 62
     7
100
AcDbCircle
 10
150.8904322467
 20
226.5603544306
 30
0.0
 40
0.5000000000000143
100
AcDbArc
 50
270.0
 51
0.0
  0
ENDBLK
  5
8E
330
75
100
AcDbEntity
  8
0
100
AcDbBlockEnd
  0
BLOCK
  5
B2
330
8F
100
AcDbEntity
  8
0
100
AcDbBlockBegin
  2
SE1
 70
     0
 10
0.0
 20
0.0
 30
0.0
  3
SE1
  1

  0
LINE
  5
91
330
8F
100
AcDbEntity
  8
$DDT_AUDIT_GENERATED_(77)
  6
Continuous
 62
     7
100
AcDbLine
 10
217.7628948112
 20
321.9456422208
 30
0.0
 11
217.7628948112
 21
276.0456422208
 31
0.0
  0
LINE
  5
92
330
8F
100
AcDbEntity
  8
$DDT_AUDIT_GENERATED_(77)
  6
Continuous
 62
     7
100
AcDbLine
 10
226.7628948112
 20
316.4456422208
 30
0.0
 11
226.7628948112
 21
281.5456422208
 31
0.0
  0
ARC
  5
93
330
8F
100
AcDbEntity
  8
$DDT_AUDIT_GENERATED_(77)
  6
Continuous
 62
     7
100
AcDbCircle
 10
220.6828948112
 20
318.1824422208
 30
0.0
 40
4.763200000000009
100
AcDbArc
 50
90.0
 51
127.8091516852
  0
ARC
  5
94
330
8F
100
AcDbEntity
  8
$DDT_AUDIT_GENERATED_(77)
  6
Continuous
 62
     7
100
AcDbCircle
 10
220.6828948112
 20
279.8088422208
 30
0.0
 40
4.763200000000007
100
AcDbArc
 50
232.1908483148
 51
270.0
  0
ARC
  5
95
330
8F
100
AcDbEntity
  8
$DDT_AUDIT_GENERATED_(77)
  6
Continuous
 62
     7
100
AcDbCircle
 10
220.6828948112
 20
321.7456422208
 30
0.0
 40
1.199999999999998
100
AcDbArc
 50
23.1645816892
 51
90.0
  0
ARC
  5
96
330
8F
100
AcDbEntity
  8
$DDT_AUDIT_GENERATED_(77)
  6
Continuous
 62
     7
100
AcDbCircle
 10
220.6828948112
 20
276.2456422208
 30
0.0
 40
1.2
100
AcDbArc
 50
270.0
 51
336.8354183108
  0
ARC
  5
97
330
8F
100
AcDbEntity
  8
$DDT_AUDIT_GENERATED_(77)
  6
Continuous
 62
     7
100
AcDbCircle
 10
233.3703206666
 20
327.1741986738
 30
0.0
 40
12.6
100
AcDbArc
 50
203.1645816892
 51
238.3722152126
  0
ARC
  5
98
330
8F
100
AcDbEntity
  8
$DDT_AUDIT_GENERATED_(77)
  6
Continuous
 62
     7
100
AcDbCircle
 10
233.3703206666
 20
270.8170857678
 30
0.0
 40
12.6
100
AcDbArc
 50
121.6277847874
 51
156.8354183108
  0
LINE
  5
99
330
8F
100
AcDbEntity
  8
$DDT_AUDIT_GENERATED_(7A)
  6
Continuous
 62
     7
100
AcDbLine
 10
265.1911618394
 20
289.501327453
 30
0.0
 11
265.1911618394
 21
308.4899569886
 31
0.0
  0
ARC
  5
9A
330
8F
100
AcDbEntity
  8
$DDT_AUDIT_GENERATED_(7A)
  6
Continuous
 62
     7
100
AcDbCircle
 10
247.2058083006
 20
279.51410028
 30
0.0
 40
9.373414083728331
100
AcDbArc
 50
79.8178925982
 51
121.8246073842
  0
ARC
  5
9B
330
8F
100
AcDbEntity
  8
$DDT_AUDIT_GENERATED_(7A)
  6
Continuous
 62
     7
100
AcDbCircle
 10
227.4628948112
 20
316.2663235999
 30
0.0
 40
0.7000000000000963
100
AcDbArc
 50
57.1981961259
 51
180.0
  0
ARC
  5
9C
330
8F
100
AcDbEntity
  8
$DDT_AUDIT_GENERATED_(7A)
  6
Continuous
 62
     7
100
AcDbCircle
 10
227.4628948112
 20
281.7249608417
 30
0.0
 40
0.7000000000000027
100
AcDbArc
 50
180.0
 51
302.8018038741
  0
ARC
  5
9D
330
8F
100
AcDbEntity
  8
$DDT_AUDIT_GENERATED_(7A)
  6
Continuous
 62
     7
100
AcDbCircle
 10
254.9288427844
 20
358.8821856929
 30
0.0
 40
50.0
100
AcDbArc
 50
237.1981961259
 51
280.2506043348
  0
ARC
  5
9E
330
8F
100
AcDbEntity
  8
$DDT_AUDIT_GENERATED_(7A)
  6
Continuous
 62
     7
100
AcDbCircle
 10
254.9288427844
 20
239.1090987487
 30
0.0
 40
50.0
100
AcDbArc
 50
79.7493956652
 51
96.9765517914
  0
ARC
  5
9F
330
8F
100
AcDbEntity
  8
$DDT_AUDIT_GENERATED_(7A)
  6
Continuous
 62
     7
100
AcDbCircle
 10
254.9288427844
 20
239.1090987487
 30
0.0
 40
50.0
100
AcDbArc
 50
104.6619396968
 51
122.8018038741
  0
ARC
  5
A0
330
8F
100
AcDbEntity
  8
$DDT_AUDIT_GENERATED_(7A)
  6
Continuous
 62
     7
100
AcDbCircle
 10
263.915342952
 20
309.1881939872
 30
0.0
 40
0.4999999999999834
100
AcDbArc
 50
48.012783067
 51
100.2304552548
  0
ARC
  5
A1
330
8F
100
AcDbEntity
  8
$DDT_AUDIT_GENERATED_(7A)
  6
Continuous
 62
     7
100
AcDbCircle
 10
263.915342952
 20
288.8030904544
 30
0.0
 40
0.4999999999999992
100
AcDbArc
 50
259.7695447452
 51
311.987216933
  0
LINE
  5
A2
330
8F
100
AcDbEntity
  8
$DDT_AUDIT_GENERATED_(7A)
  6
Continuous
 62
     7
100
AcDbLine
 10
264.2498253466
 20
288.4314434072
 30
0.0
 11
265.0256442052
 21
289.1296803799
 31
0.0
  0
LINE
  5
A3
330
8F
100
AcDbEntity
  8
$DDT_AUDIT_GENERATED_(7A)
  6
Continuous
 62
     7
100
AcDbLine
 10
265.0256442052
 20
308.8616040618
 30
0.0
 11
264.2498253466
 21
309.5598410344
 31
0.0
  0
ARC
  5
A4
330
8F
100
AcDbEntity
  8
$DDT_AUDIT_GENERATED_(7A)
  6
Continuous
 62
     7
100
AcDbCircle
 10
264.6911618394
 20
308.4899569886
 30
0.0
 40
0.5000000000000004
100
AcDbArc
 50
0.0
 51
48.0127875041
  0
ARC
  5
A5
330
8F
100
AcDbEntity
  8
$DDT_AUDIT_GENERATED_(7A)
  6
Continuous
 62
     7
100
AcDbCircle
 10
264.6911618394
 20
289.501327453
 30
0.0
 40
0.5000000000000043
100
AcDbArc
 50
311.9872124959
 51
0.0
  0
ARC
  5
A6
330
8F
100
AcDbEntity
  8
$DDT_AUDIT_GENERATED_(7D)
  6
Continuous
 62
     7
100
AcDbCircle
 10
273.095106872
 20
298.9956422208
 30
0.0
 40
4.735
100
AcDbArc
 50
4.7034669906
 51
84.6851217109
  0
ARC
  5
A7
330
8F
100
AcDbEntity
  8
$DDT_AUDIT_GENERATED_(7D)
  6
Continuous
 62
     7
100
AcDbCircle
 10
273.0533212111
 20
298.9956590707
 30
0.0
 40
12.49935550868592
100
AcDbArc
 50
232.1536372182
 51
270.2571692661
  0
ARC
  5
A8
330
8F
100
AcDbEntity
  8
$DDT_AUDIT_GENERATED_(7D)
  6
Continuous
 62
     7
100
AcDbCircle
 10
273.0533212111
 20
298.9956590707
 30
0.0
 40
12.49935550868592
100
AcDbArc
 50
315.1080778075
 51
359.9999227617
  0
ARC
  5
A9
330
8F
100
AcDbEntity
  8
$DDT_AUDIT_GENERATED_(7D)
  6
Continuous
 62
     7
100
AcDbCircle
 10
273.0533212111
 20
298.9956253709
 30
0.0
 40
12.49935550868592
100
AcDbArc
 50
0.0000772383
 51
127.8463627818
  0
ARC
  5
AA
330
8F
100
AcDbEntity
  8
$DDT_AUDIT_GENERATED_(7D)
  6
Continuous
 62
     7
100
AcDbCircle
 10
265.6911618394
 20
308.4710220385
 30
0.0
 40
0.4999999999999986
100
AcDbArc
 50
127.8463627818
 51
180.0
  0
ARC
  5
AB
330
8F
100
AcDbEntity
  8
$DDT_AUDIT_GENERATED_(7D)
  6
Continuous
 62
     7
100
AcDbCircle
 10
265.6911618394
 20
289.5202624031
 30
0.0
 40
0.5000000000000004
100
AcDbArc
 50
180.0
 51
232.1536372182
  0
SPLINE
  5
AC
330
8F
100
AcDbEntity
  8
$DDT_AUDIT_GENERATED_(81)
  6
Continuous
 62
     7
100
AcDbSpline
210
0.0
220
0.0
230
1.0
 70
     8
 71
     3
 72
    16
 73
    12
 74
     0
 42
0.0000000003259955
 43
0.0000000001
 40
0.2500690980192966
 40
0.2500690980192966
 40
0.2500690980192966
 40
0.2500690980192966
 40
0.375
 40
0.375
 40
0.5
 40
0.5
 40
0.625
 40
0.625
 40
0.75
 40
0.75
 40
0.750171587760364
 40
0.750171587760364
 40
0.750171587760364
 40
0.750171587760364
 10
296.8769411268108
 20
233.1237138512812
 30
0.0
 10
297.3818802542697
 20
231.9893553223015
 30
0.0
 10
298.3459776943557
 20
231.0659958204501
 30
0.0
 10
300.6924361480347
 20
230.1638926341425
 30
0.0
 10
302.0275392737714
 20
230.203671100243
 30
0.0
 10
304.2993349851158
 20
231.214177645716
 30
0.0
 10
305.226191400564
 20
232.1902510769536
 30
0.0
 10
306.1186291745137
 20
234.5084043136343
 30
0.0
 10
306.0903573247198
 20
235.8449848640761
 30
0.0
 10
305.5799276946428
 20
236.9945856234839
 30
0.0
 10
305.5792271162474
 20
236.9961610852668
 30
0.0
 10
305.5785256674908
 20
236.9977361120899
 30
0.0
  0
LINE
  5
AD
330
8F
100
AcDbEntity
  8
$DDT_AUDIT_GENERATED_(81)
  6
Continuous
 62
     7
100
AcDbLine
 10
305.5806554059
 20
236.992952931
 30
0.0
 11
277.1045175726
 21
300.9514056834
 31
0.0
  0
LINE
  5
AE
330
8F
100
AcDbEntity
  8
$DDT_AUDIT_GENERATED_(81)
  6
Continuous
 62
     7
100
AcDbLine
 10
268.4034403577
 20
297.0762435594
 30
0.0
 11
296.8791576619
 21
233.1187353307
 31
0.0
  0
ARC
  5
AF
330
8F
100
AcDbEntity
  8
$DDT_AUDIT_GENERATED_(81)
  6
Continuous
 62
     7
100
AcDbCircle
 10
272.7560577898
 20
299.0091555047
 30
0.0
 40
4.762500052168668
100
AcDbArc
 50
23.9915194309
 51
204.0084805691
  0
ARC
  5
B0
330
8F
100
AcDbEntity
  8
$DDT_AUDIT_GENERATED_(84)
  6
Continuous
 62
     7
100
AcDbCircle
 10
301.2278946397
 20
235.0603629193
 30
0.0
 40
9.000008488668652
100
AcDbArc
 50
146.0623046854
 51
0.0
  0
ARC
  5
B1
330
8F
100
AcDbEntity
  8
$DDT_AUDIT_GENERATED_(84)
  6
Continuous
 62
     7
100
AcDbCircle
 10
301.2278946397
 20
235.0603629193
 30
0.0
 40
9.000008488668652
100
AcDbArc
 50
0.0
 51
81.9114613418
  0
ENDBLK
  5
B3
330
8F
100
AcDbEntity
  8
0
100
AcDbBlockEnd
  0
BLOCK
  5
D9
330
B4
100
AcDbEntity
  8
0
100
AcDbBlockBegin
  2
SE2
 70
     0
 10
0.0
 20
0.0
 30
0.0
  3
SE2
  1

  0
LINE
  5
B6
330
B4
100
AcDbEntity
  8
$DDT_AUDIT_GENERATED_(77)
  6
Continuous
 62
     7
100
AcDbLine
 10
60.1544170341
 20
186.8165834786
 30
0.0
 11
106.0544170341
 21
186.8165834786
 31
0.0
  0
LINE
  5
B7
330
B4
100
AcDbEntity
  8
$DDT_AUDIT_GENERATED_(77)
  6
Continuous
 62
     7
100
AcDbLine
 10
65.6544170341
 20
177.8165834786
 30
0.0
 11
100.5544170341
 21
177.8165834786
 31
0.0
  0
ARC
  5
B8
330
B4
100
AcDbEntity
  8
$DDT_AUDIT_GENERATED_(77)
  6
Continuous
 62
     7
100
AcDbCircle
 10
102.2912170341
 20
183.8965834786
 30
0.0
 40
4.763200000000009
100
AcDbArc
 50
0.0
 51
37.8091516852
  0
ARC
  5
B9
330
B4
100
AcDbEntity
  8
$DDT_AUDIT_GENERATED_(77)
  6
Continuous
 62
     7
100
AcDbCircle
 10
63.9176170341
 20
183.8965834786
 30
0.0
 40
4.763200000000008
100
AcDbArc
 50
142.1908483148
 51
180.0
  0
ARC
  5
BA
330
B4
100
AcDbEntity
  8
$DDT_AUDIT_GENERATED_(77)
  6
Continuous
 62
     7
100
AcDbCircle
 10
105.8544170341
 20
183.8965834786
 30
0.0
 40
1.199999999999998
100
AcDbArc
 50
293.1645816892
 51
0.0
  0
ARC
  5
BB
330
B4
100
AcDbEntity
  8
$DDT_AUDIT_GENERATED_(77)
  6
Continuous
 62
     7
100
AcDbCircle
 10
60.3544170341
 20
183.8965834786
 30
0.0
 40
1.2
100
AcDbArc
 50
180.0
 51
246.8354183108
  0
ARC
  5
BC
330
B4
100
AcDbEntity
  8
$DDT_AUDIT_GENERATED_(77)
  6
Continuous
 62
     7
100
AcDbCircle
 10
111.2829734871
 20
171.2091576231
 30
0.0
 40
12.6
100
AcDbArc
 50
113.1645816892
 51
148.3722152126
  0
ARC
  5
BD
330
B4
100
AcDbEntity
  8
$DDT_AUDIT_GENERATED_(77)
  6
Continuous
 62
     7
100
AcDbCircle
 10
54.9258605811
 20
171.2091576231
 30
0.0
 40
12.6
100
AcDbArc
 50
31.6277847874
 51
66.8354183108
  0
LINE
  5
BE
330
B4
100
AcDbEntity
  8
$DDT_AUDIT_GENERATED_(7A)
  6
Continuous
 62
     7
100
AcDbLine
 10
73.6101022663
 20
139.3883164504
 30
0.0
 11
92.5987318019
 21
139.3883164504
 31
0.0
  0
ARC
  5
BF
330
B4
100
AcDbEntity
  8
$DDT_AUDIT_GENERATED_(7A)
  6
Continuous
 62
     7
100
AcDbCircle
 10
100.3750984132
 20
177.1165834786
 30
0.0
 40
0.7000000000000963
100
AcDbArc
 50
327.1981961259
 51
90.0
  0
ARC
  5
C0
330
B4
100
AcDbEntity
  8
$DDT_AUDIT_GENERATED_(7A)
  6
Continuous
 62
     7
100
AcDbCircle
 10
65.833735655
 20
177.1165834786
 30
0.0
 40
0.7000000000000027
100
AcDbArc
 50
90.0
 51
212.8018038741
  0
ARC
  5
C1
330
B4
100
AcDbEntity
  8
$DDT_AUDIT_GENERATED_(7A)
  6
Continuous
 62
     7
100
AcDbCircle
 10
142.9909605062
 20
149.6506355053
 30
0.0
 40
50.00000000000001
100
AcDbArc
 50
147.1981961259
 51
190.2506043348
  0
ARC
  5
C2
330
B4
100
AcDbEntity
  8
$DDT_AUDIT_GENERATED_(7A)
  6
Continuous
 62
     7
100
AcDbCircle
 10
23.217873562
 20
149.6506355053
 30
0.0
 40
50.0
100
AcDbArc
 50
349.7493956652
 51
32.8018038741
  0
ARC
  5
C3
330
B4
100
AcDbEntity
  8
$DDT_AUDIT_GENERATED_(7A)
  6
Continuous
 62
     7
100
AcDbCircle
 10
93.2969688005
 20
140.6641353377
 30
0.0
 40
0.4999999999999834
100
AcDbArc
 50
318.012783067
 51
10.2304552548
  0
ARC
  5
C4
330
B4
100
AcDbEntity
  8
$DDT_AUDIT_GENERATED_(7A)
  6
Continuous
 62
     7
100
AcDbCircle
 10
72.9118652677
 20
140.6641353377
 30
0.0
 40
0.4999999999999992
100
AcDbArc
 50
169.7695447452
 51
221.987216933
  0
LINE
  5
C5
330
B4
100
AcDbEntity
  8
$DDT_AUDIT_GENERATED_(7A)
  6
Continuous
 62
     7
100
AcDbLine
 10
72.5402182205
 20
140.3296529431
 30
0.0
 11
73.2384551932
 21
139.5538340846
 31
0.0
  0
LINE
  5
C6
330
B4
100
AcDbEntity
  8
$DDT_AUDIT_GENERATED_(7A)
  6
Continuous
 62
     7
100
AcDbLine
 10
92.9703788751
 20
139.5538340846
 30
0.0
 11
93.6686158478
 21
140.3296529431
 31
0.0
  0
ARC
  5
C7
330
B4
100
AcDbEntity
  8
$DDT_AUDIT_GENERATED_(7A)
  6
Continuous
 62
     7
100
AcDbCircle
 10
92.5987318019
 20
139.8883164504
 30
0.0
 40
0.5000000000000004
100
AcDbArc
 50
270.0
 51
318.0127875041
  0
ARC
  5
C8
330
B4
100
AcDbEntity
  8
$DDT_AUDIT_GENERATED_(7A)
  6
Continuous
 62
     7
100
AcDbCircle
 10
73.6101022663
 20
139.8883164504
 30
0.0
 40
0.5000000000000043
100
AcDbArc
 50
221.9872124959
 51
270.0
  0
LINE
  5
C9
330
B4
100
AcDbEntity
  8
$DDT_AUDIT_GENERATED_(7D)
  6
Continuous
 62
     7
100
AcDbLine
 10
71.5538405156
 20
126.7493747655
 30
0.0
 11
71.5196323192
 21
136.2193713784
 31
0.0
  0
ARC
  5
CA
330
B4
100
AcDbEntity
  8
$DDT_AUDIT_GENERATED_(7D)
  6
Continuous
 62
     7
100
AcDbCircle
 10
83.104433884
 20
131.5261570787
 30
0.0
 40
12.49935550868592
100
AcDbArc
 50
202.4071573335
 51
269.9999227617
  0
ARC
  5
CB
330
B4
100
AcDbEntity
  8
$DDT_AUDIT_GENERATED_(7D)
  6
Continuous
 62
     7
100
AcDbCircle
 10
83.104433884
 20
131.5261570787
 30
0.0
 40
12.49935550868592
100
AcDbArc
 50
142.1536372182
 51
156.0508794911
  0
ARC
  5
CC
330
B4
100
AcDbEntity
  8
$DDT_AUDIT_GENERATED_(7D)
  6
Continuous
 62
     7
100
AcDbCircle
 10
83.1044001842
 20
131.5261570787
 30
0.0
 40
12.49935550868592
100
AcDbArc
 50
270.0000772383
 51
37.8463627818
  0
ARC
  5
CD
330
B4
100
AcDbEntity
  8
$DDT_AUDIT_GENERATED_(7D)
  6
Continuous
 62
     7
100
AcDbCircle
 10
92.5797968518
 20
138.8883164504
 30
0.0
 40
0.4999999999999986
100
AcDbArc
 50
37.8463627818
 51
90.0
  0
ARC
  5
CE
330
B4
100
AcDbEntity
  8
$DDT_AUDIT_GENERATED_(7D)
  6
Continuous
 62
     7
100
AcDbCircle
 10
73.6290372164
 20
138.8883164504
 30
0.0
 40
0.5000000000000004
100
AcDbArc
 50
90.0
 51
142.1536372182
  0
SPLINE
  5
CF
330
B4
100
AcDbEntity
  8
$DDT_AUDIT_GENERATED_(81)
  6
Continuous
 62
     7
100
AcDbSpline
210
0.0
220
0.0
230
1.0
 70
     8
 71
     3
 72
    84
 73
    80
 74
     0
 42
0.0000000000430031
 43
0.0000000001
 40
0.0354397050163805
 40
0.0354397050163805
 40
0.0354397050163805
 40
0.0354397050163805
 40
0.0500786148592723
 40
0.0773899600842382
 40
0.1019419018614537
 40
0.1238856522241805
 40
0.1438874945606949
 40
0.1620263571089638
 40
0.1753319442322673
 40
0.1875269233653111
 40
0.1993336946998079
 40
0.2106150015618148
 40
0.2211905041362586
 40
0.23202611794063
 40
0.2416168908885802
 40
0.2498275679042046
 40
0.2576424111164691
 40
0.2626179322061968
 40
0.2677886244101498
 40
0.2735804150125762
 40
0.2799923516979906
 40
0.2856911172011297
 40
0.2906203304918422
 40
0.2967849452395335
 40
0.3034606411804735
 40
0.3089358463007439
 40
0.3138998220920812
 40
0.3213207146339994
 40
0.3297068304114649
 40
0.3398630908686685
 40
0.351090160229825
 40
0.3638573142891932
 40
0.3780621486282497
 40
0.3904670165555777
 40
0.4025748771268738
 40
0.4136110005225561
 40
0.4242834944363802
 40
0.4333209519359564
 40
0.4405962281657859
 40
0.4466007873391279
 40
0.450322194017035
 40
0.4540704416728119
 40
0.4589699816745639
 40
0.4649377824355695
 40
0.4716181798640824
 40
0.4771833709143937
 40
0.4812331257051062
 40
0.4862933601157723
 40
0.4915269164591775
 40
0.496039830481419
 40
0.5001208561173639
 40
0.5047742711612314
 40
0.5123676145558059
 40
0.5189501710689901
 40
0.5264033729352149
 40
0.5362788141112067
 40
0.547014996743433
 40
0.5573421719976169
 40
0.5677906032005702
 40
0.5776491696340893
 40
0.5869221489922899
 40
0.5960636342881463
 40
0.6188101504457814
 40
0.6413550674922086
 40
0.6540150653807045
 40
0.6685878921053129
 40
0.6848874481279583
 40
0.7028402885227368
 40
0.7215908315819635
 40
0.7418564638327199
 40
0.7638564518935498
 40
0.7882897788749877
 40
0.8151514090963345
 40
0.8436948632492678
 40
0.8740995389886066
 40
0.9053768358852881
 40
0.9372916755194387
 40
0.9709009921531742
 40
1.0
 40
1.0
 40
1.0
 40
1.0
 10
71.71406711777806
 20
136.5857349254079
 30
0.0
 10
70.40818550594669
 20
136.5857260026258
 30
0.0
 10
66.63173536624264
 20
136.5856912563879
 30
0.0
 10
60.87844904069435
 20
136.585680874779
 30
0.0
 10
54.30642006529567
 20
136.5850699011735
 30
0.0
 10
48.48230182493552
 20
136.5849751166173
 30
0.0
 10
43.16794933826776
 20
136.5838305833644
 30
0.0
 10
38.64538181167227
 20
136.5850691630079
 30
0.0
 10
34.79363789173856
 20
136.5822091541732
 30
0.0
 10
31.51087503677142
 20
136.5852421193755
 30
0.0
 10
28.39466228871409
 20
136.5728384216177
 30
0.0
 10
25.46283133654068
 20
136.3315850804228
 30
0.0
 10
22.71183144139308
 20
135.9520839541034
 30
0.0
 10
20.23878306168094
 20
135.4304927140174
 30
0.0
 10
18.09882607017107
 20
134.8317837115299
 30
0.0
 10
16.31580686004519
 20
134.2007982130397
 30
0.0
 10
14.94306295732808
 20
133.6075523267311
 30
0.0
 10
13.8345334640316
 20
133.039784100502
 30
0.0
 10
12.90376906102719
 20
132.4944190067941
 30
0.0
 10
11.94671543713821
 20
131.8429291267266
 30
0.0
 10
11.03437867095908
 20
131.1005856971102
 30
0.0
 10
10.26354300799071
 20
130.3431728164771
 30
0.0
 10
9.560945475340283
 20
129.5179909171225
 30
0.0
 10
8.906132901774638
 20
128.5463715486897
 30
0.0
 10
8.38604313057964
 20
127.4831073248858
 30
0.0
 10
8.039166171234346
 20
126.3895121688135
 30
0.0
 10
7.841814551185128
 20
125.2953219098726
 30
0.0
 10
7.834934098083224
 20
124.2931010925139
 30
0.0
 10
7.829338164515809
 20
123.3131579578786
 30
0.0
 10
7.829674149417959
 20
122.1800688696666
 30
0.0
 10
7.828177603837028
 20
120.9187678023712
 30
0.0
 10
7.828039025526867
 20
119.5196921129987
 30
0.0
 10
7.82770720535006
 20
118.0943467757374
 30
0.0
 10
7.827701540461835
 20
116.705286253656
 30
0.0
 10
7.827918465256934
 20
115.4270940531859
 30
0.0
 10
7.827656641057057
 20
114.1944798750303
 30
0.0
 10
7.828835335444595
 20
113.0519939399225
 30
0.0
 10
7.828540612749929
 20
112.0346143704152
 30
0.0
 10
7.836141160413868
 20
111.1471831427662
 30
0.0
 10
7.830910793304308
 20
110.4737546740305
 30
0.0
 10
7.865152717137724
 20
109.8152643340387
 30
0.0
 10
7.991627748173053
 20
109.0009869770381
 30
0.0
 10
8.25847793381415
 20
108.0504921427549
 30
0.0
 10
8.722495937415282
 20
106.9842770626229
 30
0.0
 10
9.34173520876455
 20
105.9784016272214
 30
0.0
 10
10.00770269296036
 20
105.1453012066055
 30
0.0
 10
10.64687880007228
 20
104.4726264334458
 30
0.0
 10
11.32244892100026
 20
103.8564868487444
 30
0.0
 10
12.08957621707613
 20
103.2569689260093
 30
0.0
 10
12.85180215290341
 20
102.7383139824959
 30
0.0
 10
13.6168681277555
 20
102.2752784868782
 30
0.0
 10
14.60425024420833
 20
101.7433468862429
 30
0.0
 10
15.82053301649286
 20
101.1850159000628
 30
0.0
 10
17.30270655688413
 20
100.6162800127373
 30
0.0
 10
19.02528286599612
 20
100.0641122612881
 30
0.0
 10
21.17904856965585
 20
99.51971238989266
 30
0.0
 10
23.70372967794214
 20
99.06198035503012
 30
0.0
 10
26.39018883623945
 20
98.75127205118802
 30
0.0
 10
29.07461324836228
 20
98.58812435512621
 30
0.0
 10
31.68474060448367
 20
98.58914306837748
 30
0.0
 10
34.1745315895869
 20
98.59067057851202
 30
0.0
 10
37.80239089297583
 20
98.58814612227572
 30
0.0
 10
42.59849941948994
 20
98.58987293793489
 30
0.0
 10
47.70558022044389
 20
98.58894351804966
 30
0.0
 10
52.09197112394566
 20
98.58900764325476
 30
0.0
 10
55.92832085058622
 20
98.58885654588188
 30
0.0
 10
60.23059471856575
 20
98.58887847053681
 30
0.0
 10
64.90191662167186
 20
98.58887054760184
 30
0.0
 10
69.92108126031914
 20
98.58893784994041
 30
0.0
 10
75.29996901866598
 20
98.58900996831684
 30
0.0
 10
81.17384520113839
 20
98.58909983853054
 30
0.0
 10
87.64001144077086
 20
98.58916159879978
 30
0.0
 10
94.66182674530329
 20
98.58920204866607
 30
0.0
 10
102.2491581862398
 20
98.58921450157247
 30
0.0
 10
110.1525212580656
 20
98.58920493584145
 30
0.0
 10
118.4882400498308
 20
98.58917624301668
 30
0.0
 10
126.8525382468528
 20
98.58914065774525
 30
0.0
 10
135.5149358404913
 20
98.58910389827112
 30
0.0
 10
140.5697337243052
 20
98.5890929380822
 30
0.0
 10
143.3904321897821
 20
98.58908842326863
 30
0.0
  0
SPLINE
  5
D0
330
B4
100
AcDbEntity
  8
$DDT_AUDIT_GENERATED_(81)
  6
Continuous
 62
     7
100
AcDbSpline
210
0.0
220
0.0
230
1.0
 70
     8
 71
     3
 72
    84
 73
    80
 74
     0
 42
0.0000000000489538
 43
0.0000000001
 40
0.0
 40
0.0
 40
0.0
 40
0.0
 40
0.0370786033481543
 40
0.0783467131968676
 40
0.1170475203662109
 40
0.1530715643488401
 40
0.1864372211562405
 40
0.2173846936763904
 40
0.2465116969336897
 40
0.2731309887136677
 40
0.2975454280666601
 40
0.3192447091766801
 40
0.3384192421307082
 40
0.3552047861325546
 40
0.3687258445576127
 40
0.3794533523244784
 40
0.3899088015727779
 40
0.4007346480204341
 40
0.4165943410473253
 40
0.4450613317783366
 40
0.4557304359251276
 40
0.4636600060012548
 40
0.4713090118978145
 40
0.4806945970588109
 40
0.4896163975206981
 40
0.4961648846504708
 40
0.5032921319268832
 40
0.5105099734823456
 40
0.5159236280169378
 40
0.5213779172318755
 40
0.5258726586507237
 40
0.5297868623926942
 40
0.532506278990854
 40
0.5356343568649317
 40
0.5397943066254975
 40
0.5436276255252306
 40
0.5469087031043829
 40
0.5506028277361277
 40
0.5544806501237242
 40
0.558530605586684
 40
0.5643716322912445
 40
0.5719721095250021
 40
0.5809375583089997
 40
0.5914725302824697
 40
0.6033997502944852
 40
0.6165817264646073
 40
0.6294503571438805
 40
0.6435182403246587
 40
0.6565935789650612
 40
0.6680614594999945
 40
0.6776408426116372
 40
0.6862230660368793
 40
0.6919111828558517
 40
0.6967003922050905
 40
0.7014106946154155
 40
0.7071183623494954
 40
0.7142548884116414
 40
0.721977759848498
 40
0.7300201308991446
 40
0.7385406916980382
 40
0.7448708743735383
 40
0.7500604449805383
 40
0.7545469275876857
 40
0.7586672967077335
 40
0.7625073719929679
 40
0.766650373593001
 40
0.7716027912646144
 40
0.7778228896824125
 40
0.7840313149708916
 40
0.7909619983351035
 40
0.7990913142210645
 40
0.8111261133551986
 40
0.828894461003695
 40
0.8493871155078607
 40
0.8722040006989051
 40
0.8975929624138119
 40
0.9242730012760991
 40
0.9518515600470202
 40
0.9615179383641047
 40
0.9615179383641047
 40
0.9615179383641047
 40
0.9615179383641047
 10
143.3904323718333
 20
108.1140867164407
 30
0.0
 10
140.0372359773798
 20
108.1140925784733
 30
0.0
 10
134.1563733183567
 20
108.1141021135946
 30
0.0
 10
124.147437900351
 20
108.1141440678526
 30
0.0
 10
114.8103348763857
 20
108.1141744503236
 30
0.0
 10
105.8192450582659
 20
108.1141931407063
 30
0.0
 10
97.62549955159639
 20
108.1141804803122
 30
0.0
 10
89.91390744108689
 20
108.1141492966897
 30
0.0
 10
82.80237403032434
 20
108.1140727481373
 30
0.0
 10
76.20358388772044
 20
108.1139982156585
 30
0.0
 10
70.22852378329684
 20
108.1138646246805
 30
0.0
 10
64.85850554985434
 20
108.113878784913
 30
0.0
 10
60.11945376809065
 20
108.113722554988
 30
0.0
 10
56.05071391482601
 20
108.1140064127291
 30
0.0
 10
52.67755028507351
 20
108.1135896769756
 30
0.0
 10
49.82417876368508
 20
108.1145402173222
 30
0.0
 10
47.19283318838661
 20
108.1129278726302
 30
0.0
 10
44.13905997125396
 20
108.116468591225
 30
0.0
 10
39.605523357342
 20
108.1072456388299
 30
0.0
 10
35.08299794616902
 20
108.1221753904406
 30
0.0
 10
31.21486785968249
 20
108.1071760369371
 30
0.0
 10
29.05529410289785
 20
108.122657498135
 30
0.0
 10
27.02809765222177
 20
108.2571483978722
 30
0.0
 10
24.99095448103566
 20
108.498814778996
 30
0.0
 10
23.15509459711632
 20
108.8393434251519
 30
0.0
 10
21.6090348397535
 20
109.223244535803
 30
0.0
 10
20.33333649867423
 20
109.6228211459684
 30
0.0
 10
19.28563931861244
 20
110.0353154611067
 30
0.0
 10
18.49699095417025
 20
110.4158568992483
 30
0.0
 10
17.96616894409425
 20
110.7251751297453
 30
0.0
 10
17.63734732545711
 20
110.9520953832549
 30
0.0
 10
17.43676923290479
 20
111.1103976160111
 30
0.0
 10
17.2968477149019
 20
111.2389913864329
 30
0.0
 10
17.23807295806564
 20
111.3004612750406
 30
0.0
 10
17.20515056743394
 20
111.3331350272732
 30
0.0
 10
17.22104694078704
 20
111.3103612919878
 30
0.0
 10
17.25995577004303
 20
111.2105245653941
 30
0.0
 10
17.31310115520472
 20
111.0741435458939
 30
0.0
 10
17.33919781127944
 20
110.8466151664276
 30
0.0
 10
17.33792784636368
 20
111.112338369908
 30
0.0
 10
17.35186436333522
 20
111.6338693120563
 30
0.0
 10
17.35022556208905
 20
112.2939137132996
 30
0.0
 10
17.35303089353168
 20
113.147344513672
 30
0.0
 10
17.35258454799022
 20
114.1543800540848
 30
0.0
 10
17.35294979910231
 20
115.3254673007825
 30
0.0
 10
17.35267278774944
 20
116.5933187362033
 30
0.0
 10
17.35275960600487
 20
117.9360753376513
 30
0.0
 10
17.3528766056775
 20
119.2731588476596
 30
0.0
 10
17.35308463823613
 20
120.5651022988554
 30
0.0
 10
17.35347801951083
 20
121.7045184120342
 30
0.0
 10
17.35284419878142
 20
122.6977577554751
 30
0.0
 10
17.35315416376195
 20
123.4858368036484
 30
0.0
 10
17.35041054703653
 20
123.9524367395644
 30
0.0
 10
17.34199286056567
 20
124.3345092067476
 30
0.0
 10
17.31659823650478
 20
124.121773953268
 30
0.0
 10
17.2181349011609
 20
123.8294591057417
 30
0.0
 10
17.17737987026461
 20
123.785639195409
 30
0.0
 10
17.30329785931414
 20
123.9316552784263
 30
0.0
 10
17.81758263829506
 20
124.3496229768349
 30
0.0
 10
18.62709028380168
 20
124.819858931135
 30
0.0
 10
19.55057475833003
 20
125.2433715814191
 30
0.0
 10
20.39727789189507
 20
125.5628191166246
 30
0.0
 10
21.22460701292117
 20
125.8317701187412
 30
0.0
 10
22.02373630047837
 20
126.0552746562882
 30
0.0
 10
22.84846828337666
 20
126.2568204724939
 30
0.0
 10
23.77854616653014
 20
126.4525732961716
 30
0.0
 10
24.930334458307
 20
126.6538730212198
 30
0.0
 10
26.28360761947285
 20
126.835586533526
 30
0.0
 10
27.83397434278415
 20
126.9781497020795
 30
0.0
 10
29.57104442582689
 20
127.0678525676144
 30
0.0
 10
31.8016138239818
 20
127.0617430767079
 30
0.0
 10
34.91688180074003
 20
127.0641069748597
 30
0.0
 10
39.05699085365026
 20
127.0619375667321
 30
0.0
 10
44.06980363040822
 20
127.0616355799962
 30
0.0
 10
49.73283548570686
 20
127.06096917672
 30
0.0
 10
55.86181555273681
 20
127.0611134714056
 30
0.0
 10
62.46036399294049
 20
127.060995238411
 30
0.0
 10
67.64243955492492
 20
127.0609596945792
 30
0.0
 10
70.74787316884692
 20
127.0609060194224
 30
0.0
 10
71.55271359080105
 20
127.0608911819002
 30
0.0
  0
LINE
  5
D1
330
B4
100
AcDbEntity
  8
$DDT_AUDIT_GENERATED_(84)
  6
Continuous
 62
     7
100
AcDbLine
 10
143.3904322467
 20
94.8515751614
 30
0.0
 11
143.3904322467
 21
111.8515921387
 31
0.0
  0
LINE
  5
D2
330
B4
100
AcDbEntity
  8
$DDT_AUDIT_GENERATED_(84)
  6
Continuous
 62
     7
100
AcDbLine
 10
151.3904322467
 20
111.8515921387
 30
0.0
 11
151.3904322467
 21
94.8515751614
 31
0.0
  0
LINE
  5
D3
330
B4
100
AcDbEntity
  8
$DDT_AUDIT_GENERATED_(84)
  6
Continuous
 62
     7
100
AcDbLine
 10
150.8904322467
 20
112.3515921387
 30
0.0
 11
143.8904322467
 21
112.3515921387
 31
0.0
  0
LINE
  5
D4
330
B4
100
AcDbEntity
  8
$DDT_AUDIT_GENERATED_(84)
  6
Continuous
 62
     7
100
AcDbLine
 10
143.8904322467
 20
94.3515751614
 30
0.0
 11
150.8904322467
 21
94.3515751614
 31
0.0
  0
ARC
  5
D5
330
B4
100
AcDbEntity
  8
$DDT_AUDIT_GENERATED_(84)
  6
Continuous
 62
     7
100
AcDbCircle
 10
143.8904322467
 20
111.8515921387
 30
0.0
 40
0.5000000000000143
100
AcDbArc
 50
90.0
 51
180.0
  0
ARC
  5
D6
330
B4
100
AcDbEntity
  8
$DDT_AUDIT_GENERATED_(84)
  6
Continuous
 62
     7
100
AcDbCircle
 10
143.8904322467
 20
94.8515751614
 30
0.0
 40
0.5000000000000004
100
AcDbArc
 50
180.0
 51
270.0
  0
ARC
  5
D7
330
B4
100
AcDbEntity
  8
$DDT_AUDIT_GENERATED_(84)
  6
Continuous
 62
     7
100
AcDbCircle
 10
150.8904322467
 20
111.8515921387
 30
0.0
 40
0.5000000000000004
100
AcDbArc
 50
0.0
 51
90.0
  0
ARC
  5
D8
330
B4
100
AcDbEntity
  8
$DDT_AUDIT_GENERATED_(84)
  6
Continuous
 62
     7
100
AcDbCircle
 10
150.8904322467
 20
94.8515751614
 30
0.0
 40
0.5000000000000004
100
AcDbArc
 50
270.0
 51
0.0
  0
ENDBLK
  5
DA
330
B4
100
AcDbEntity
  8
0
100
AcDbBlockEnd
  0
ENDSEC
  0
SECTION
  2
ENTITIES
  0
INSERT
  5
5F
330
1F
100
AcDbEntity
  8
Default
100
AcDbBlockReference
  2
SEANNOT_GROUP
 10
0.0
 20
0.0
 30
0.0
  0
INSERT
  5
6A
330
1F
100
AcDbEntity
  8
Default
100
AcDbBlockReference
  2
SEANNOT_GROUP1
 10
0.0
 20
0.0
 30
0.0
  0
INSERT
  5
70
330
1F
100
AcDbEntity
  8
Default
100
AcDbBlockReference
  2
SEANNOT_GROUP2
 10
0.0
 20
0.0
 30
0.0
  0
INSERT
  5
76
330
1F
100
AcDbEntity
  8
Default
100
AcDbBlockReference
  2
SE
 10
0.0
 20
0.0
 30
0.0
  0
INSERT
  5
90
330
1F
100
AcDbEntity
  8
Default
100
AcDbBlockReference
  2
SE1
 10
0.0
 20
0.0
 30
0.0
  0
INSERT
  5
B5
330
1F
100
AcDbEntity
  8
Default
100
AcDbBlockReference
  2
SE2
 10
0.0
 20
0.0
 30
0.0
  0
TEXT
  5
DC
330
1F
100
AcDbEntity
  8
Default
  6
Continuous
 62
     7
100
AcDbText
 10
5.9362635081
 20
53.4225120485
 30
0.0
 40
10.0
  1
Grohe AG^J
  7
SEACAD_seiso_ttf
 11
5.9362635081
 21
63.4225120485
 31
0.0
100
AcDbText
 73
     3
  0
TEXT
  5
DD
330
1F
100
AcDbEntity
  8
Default
  6
Continuous
 62
     7
100
AcDbText
 10
5.9362635081
 20
37.0588756849
 30
0.0
 40
10.0
  1
 
  7
SEACAD_seiso_ttf
 11
5.9362635081
 21
47.0588756849
 31
0.0
100
AcDbText
 73
     3
  0
TEXT
  5
DE
330
1F
100
AcDbEntity
  8
Default
  6
Continuous
 62
     7
100
AcDbText
 10
5.9362635081
 20
20.6952393213
 30
0.0
 40
10.0
  1
ecn: 
  7
SEACAD_seiso_ttf
 11
5.9362635081
 21
30.6952393213
 31
0.0
100
AcDbText
 73
     3
  0
TEXT
  5
DF
330
1F
100
AcDbEntity
  8
Default
  6
Continuous
 62
     7
100
AcDbText
 10
5.9362635081
 20
4.3316029576
 30
0.0
 40
10.0
  1
unit: mm
  7
SEACAD_seiso_ttf
 11
5.9362635081
 21
14.3316029576
 31
0.0
100
AcDbText
 73
     3
  0
LINE
  5
E0
330
1F
100
AcDbEntity
  8
Default
  6
Continuous
 62
     7
100
AcDbLine
 10
0.0
 20
0.0
 30
0.0
 11
100.0
 21
0.0
 31
0.0
  0
LINE
  5
E1
330
1F
100
AcDbEntity
  8
Default
  6
Continuous
 62
     7
100
AcDbLine
 10
0.0
 20
0.0
 30
0.0
 11
0.0
 21
100.0
 31
0.0
  0
TEXT
  5
E2
330
1F
100
AcDbEntity
  8
Default
  6
Continuous
 62
     7
100
AcDbText
 10
24.3923665681
 20
-18.2375342018
 30
0.0
 40
10.0
  1
100 mm
  7
SEACAD_seiso_ttf
 11
24.3923665681
 21
-8.2375342018
 31
0.0
100
AcDbText
 73
     3
  0
TEXT
  5
E3
330
1F
100
AcDbEntity
  8
Default
  6
Continuous
 62
     7
100
AcDbText
 10
-7.6150308803
 20
24.6231930421
 30
0.0
 40
10.0
  1
100 mm
 50
90.0
  7
SEACAD_seiso_ttf
 11
-17.6150308803
 21
24.6231930421
 31
0.0
100
AcDbText
 73
     3
  0
TEXT
  5
E4
330
1F
100
AcDbEntity
  8
Default
  6
Continuous
 62
     7
100
AcDbText
 10
28.4878128572
 20
20.0907663715
 30
0.0
 40
10.0
  1
200447
  7
SEACAD_seiso_ttf
 11
28.4878128572
 21
30.0907663715
 31
0.0
100
AcDbText
 73
     3
  0
TEXT
  5
E5
330
1F
100
AcDbEntity
  8
Default
  6
Continuous
 62
     7
100
AcDbText
 10
5.9012241913
 20
36.7242780188
 30
0.0
 40
10.0
  1
40160000
  7
SEACAD_seiso_ttf
 11
5.9012241913
 21
46.7242780188
 31
0.0
100
AcDbText
 73
     3
  0
ENDSEC
  0
SECTION
  2
OBJECTS
  0
DICTIONARY
  5
C
330
0
100
AcDbDictionary
281
     1
  3
ACAD_GROUP
350
D
  3
ACAD_LAYOUT
350
1A
  3
ACAD_MLEADERSTYLE
350
E9
  3
ACAD_MLINESTYLE
350
17
  3
ACAD_PLOTSETTINGS
350
19
  3
ACAD_PLOTSTYLENAME
350
E
  3
ACAD_SCALELIST
350
3B
  3
ACAD_TABLESTYLE
350
E8
  3
ACAD_VISUALSTYLE
350
2A
  3
AcDbVariableDictionary
350
E6
  0
DICTIONARY
  5
D
102
{ACAD_REACTORS
330
C
102
}
330
C
100
AcDbDictionary
281
     1
  0
DICTIONARY
  5
1A
102
{ACAD_REACTORS
330
C
102
}
330
C
100
AcDbDictionary
281
     1
  3
Layout1
350
1E
  3
Model
350
22
  0
DICTIONARY
  5
E9
102
{ACAD_REACTORS
330
C
102
}
330
C
100
AcDbDictionary
281
     1
  0
DICTIONARY
  5
17
102
{ACAD_REACTORS
330
C
102
}
330
C
100
AcDbDictionary
281
     1
  3
Standard
350
18
  0
DICTIONARY
  5
19
102
{ACAD_REACTORS
330
C
102
}
330
C
100
AcDbDictionary
281
     1
  0
ACDBDICTIONARYWDFLT
  5
E
102
{ACAD_REACTORS
330
C
102
}
330
C
100
AcDbDictionary
281
     1
  3
Normal
350
F
100
AcDbDictionaryWithDefault
340
F
  0
DICTIONARY
  5
3B
102
{ACAD_REACTORS
330
C
102
}
330
C
100
AcDbDictionary
281
     1
  3
A0
350
3C
  3
A1
350
3D
  3
A2
350
3E
  3
A3
350
3F
  3
A4
350
40
  3
A5
350
41
  3
A6
350
42
  3
A7
350
43
  3
A8
350
44
  3
A9
350
45
  3
B0
350
46
  3
B1
350
47
  3
B2
350
48
  3
B3
350
49
  3
B4
350
4A
  3
B5
350
4B
  3
B6
350
4C
  3
B7
350
4D
  3
B8
350
4E
  3
B9
350
4F
  3
C0
350
50
  3
C1
350
51
  3
C2
350
52
  3
C3
350
53
  3
C4
350
54
  3
C5
350
55
  3
C6
350
56
  3
C7
350
57
  3
C8
350
58
  3
C9
350
59
  3
D0
350
5A
  3
D1
350
5B
  3
D2
350
5C
  0
DICTIONARY
  5
E8
102
{ACAD_REACTORS
330
C
102
}
330
C
100
AcDbDictionary
281
     1
  0
DICTIONARY
  5
2A
102
{ACAD_REACTORS
330
C
102
}
330
C
100
AcDbDictionary
281
     1
  3
2dWireframe
350
2F
  3
3D Hidden
350
31
  3
3dWireframe
350
30
  3
Basic
350
32
  3
Brighten
350
36
  3
ColorChange
350
3A
  3
Conceptual
350
34
  3
Dim
350
35
  3
Facepattern
350
39
  3
Flat
350
2B
  3
FlatWithEdges
350
2C
  3
Gouraud
350
2D
  3
GouraudWithEdges
350
2E
  3
Linepattern
350
38
  3
Realistic
350
33
  3
Thicken
350
37
  0
DICTIONARY
  5
E6
102
{ACAD_REACTORS
330
C
102
}
330
C
100
AcDbDictionary
281
     1
  3
CANNOSCALE
350
E7
  3
PSOLHEIGHT
350
EB
  3
PSOLWIDTH
350
EA
  0
LAYOUT
  5
1E
102
{ACAD_REACTORS
330
1A
102
}
330
1A
100
AcDbPlotSettings
  1

  2
none_device
  4

  6

 40
0.0
 41
0.0
 42
0.0
 43
0.0
 44
0.0
 45
0.0
 46
0.0
 47
0.0
 48
0.0
 49
0.0
140
0.0
141
0.0
142
1.0
143
1.0
 70
   688
 72
     0
 73
     0
 74
     5
  7

 75
    16
147
1.0
148
0.0
149
0.0
100
AcDbLayout
  1
Layout1
 70
     1
 71
     1
 10
0.0
 20
0.0
 11
1682.0
 21
2378.0
 12
0.0
 22
0.0
 32
0.0
 14
0.0
 24
0.0
 34
0.0
 15
1682.0
 25
2378.0
 35
0.0
146
0.0
 13
0.0
 23
0.0
 33
0.0
 16
1.0
 26
0.0
 36
0.0
 17
0.0
 27
1.0
 37
0.0
 76
     0
330
1B
  0
LAYOUT
  5
22
102
{ACAD_REACTORS
330
1A
102
}
330
1A
100
AcDbPlotSettings
  1

  2
none_device
  4

  6

 40
0.0
 41
0.0
 42
0.0
 43
0.0
 44
0.0
 45
0.0
 46
0.0
 47
0.0
 48
0.0
 49
0.0
140
0.0
141
0.0
142
1.0
143
1.0
 70
  1712
 72
     0
 73
     0
 74
     0
  7

 75
     0
147
1.0
148
0.0
149
0.0
100
AcDbLayout
  1
Model
 70
     1
 71
     0
 10
0.0
 20
0.0
 11
1682.0
 21
2378.0
 12
0.0
 22
0.0
 32
0.0
 14
0.0
 24
0.0
 34
0.0
 15
1682.0
 25
2378.0
 35
0.0
146
0.0
 13
0.0
 23
0.0
 33
0.0
 16
1.0
 26
0.0
 36
0.0
 17
0.0
 27
1.0
 37
0.0
 76
     0
330
1F
331
29
  0
MLINESTYLE
  5
18
102
{ACAD_REACTORS
330
17
102
}
330
17
100
AcDbMlineStyle
  2
Standard
 70
     0
  3

 62
   256
 51
90.0
 52
90.0
 71
     2
 49
0.5
 62
   256
  6
BYLAYER
 49
-0.5
 62
   256
  6
BYLAYER
  0
ACDBPLACEHOLDER
  5
F
102
{ACAD_REACTORS
330
E
102
}
330
E
  0
SCALE
  5
3C
102
{ACAD_REACTORS
330
3B
102
}
330
3B
100
AcDbScale
 70
     0
300
1:1
140
1.0
141
1.0
290
     1
  0
SCALE
  5
3D
102
{ACAD_REACTORS
330
3B
102
}
330
3B
100
AcDbScale
 70
     0
300
1:2
140
1.0
141
2.0
290
     0
  0
SCALE
  5
3E
102
{ACAD_REACTORS
330
3B
102
}
330
3B
100
AcDbScale
 70
     0
300
1:4
140
1.0
141
4.0
290
     0
  0
SCALE
  5
3F
102
{ACAD_REACTORS
330
3B
102
}
330
3B
100
AcDbScale
 70
     0
300
1:5
140
1.0
141
5.0
290
     0
  0
SCALE
  5
40
102
{ACAD_REACTORS
330
3B
102
}
330
3B
100
AcDbScale
 70
     0
300
1:8
140
1.0
141
8.0
290
     0
  0
SCALE
  5
41
102
{ACAD_REACTORS
330
3B
102
}
330
3B
100
AcDbScale
 70
     0
300
1:10
140
1.0
141
10.0
290
     0
  0
SCALE
  5
42
102
{ACAD_REACTORS
330
3B
102
}
330
3B
100
AcDbScale
 70
     0
300
1:16
140
1.0
141
16.0
290
     0
  0
SCALE
  5
43
102
{ACAD_REACTORS
330
3B
102
}
330
3B
100
AcDbScale
 70
     0
300
1:20
140
1.0
141
20.0
290
     0
  0
SCALE
  5
44
102
{ACAD_REACTORS
330
3B
102
}
330
3B
100
AcDbScale
 70
     0
300
1:30
140
1.0
141
30.0
290
     0
  0
SCALE
  5
45
102
{ACAD_REACTORS
330
3B
102
}
330
3B
100
AcDbScale
 70
     0
300
1:40
140
1.0
141
40.0
290
     0
  0
SCALE
  5
46
102
{ACAD_REACTORS
330
3B
102
}
330
3B
100
AcDbScale
 70
     0
300
1:50
140
1.0
141
50.0
290
     0
  0
SCALE
  5
47
102
{ACAD_REACTORS
330
3B
102
}
330
3B
100
AcDbScale
 70
     0
300
1:100
140
1.0
141
100.0
290
     0
  0
SCALE
  5
48
102
{ACAD_REACTORS
330
3B
102
}
330
3B
100
AcDbScale
 70
     0
300
2:1
140
2.0
141
1.0
290
     0
  0
SCALE
  5
49
102
{ACAD_REACTORS
330
3B
102
}
330
3B
100
AcDbScale
 70
     0
300
4:1
140
4.0
141
1.0
290
     0
  0
SCALE
  5
4A
102
{ACAD_REACTORS
330
3B
102
}
330
3B
100
AcDbScale
 70
     0
300
8:1
140
8.0
141
1.0
290
     0
  0
SCALE
  5
4B
102
{ACAD_REACTORS
330
3B
102
}
330
3B
100
AcDbScale
 70
     0
300
10:1
140
10.0
141
1.0
290
     0
  0
SCALE
  5
4C
102
{ACAD_REACTORS
330
3B
102
}
330
3B
100
AcDbScale
 70
     0
300
100:1
140
100.0
141
1.0
290
     0
  0
SCALE
  5
4D
102
{ACAD_REACTORS
330
3B
102
}
330
3B
100
AcDbScale
 70
     0
300
1/128" = 1'-0"
140
0.0078125
141
12.0
290
     0
  0
SCALE
  5
4E
102
{ACAD_REACTORS
330
3B
102
}
330
3B
100
AcDbScale
 70
     0
300
1/64" = 1'-0"
140
0.015625
141
12.0
290
     0
  0
SCALE
  5
4F
102
{ACAD_REACTORS
330
3B
102
}
330
3B
100
AcDbScale
 70
     0
300
1/32" = 1'-0"
140
0.03125
141
12.0
290
     0
  0
SCALE
  5
50
102
{ACAD_REACTORS
330
3B
102
}
330
3B
100
AcDbScale
 70
     0
300
1/16" = 1'-0"
140
0.0625
141
12.0
290
     0
  0
SCALE
  5
51
102
{ACAD_REACTORS
330
3B
102
}
330
3B
100
AcDbScale
 70
     0
300
3/32" = 1'-0"
140
0.09375
141
12.0
290
     0
  0
SCALE
  5
52
102
{ACAD_REACTORS
330
3B
102
}
330
3B
100
AcDbScale
 70
     0
300
1/8" = 1'-0"
140
0.125
141
12.0
290
     0
  0
SCALE
  5
53
102
{ACAD_REACTORS
330
3B
102
}
330
3B
100
AcDbScale
 70
     0
300
3/16" = 1'-0"
140
0.1875
141
12.0
290
     0
  0
SCALE
  5
54
102
{ACAD_REACTORS
330
3B
102
}
330
3B
100
AcDbScale
 70
     0
300
1/4" = 1'-0"
140
0.25
141
12.0
290
     0
  0
SCALE
  5
55
102
{ACAD_REACTORS
330
3B
102
}
330
3B
100
AcDbScale
 70
     0
300
3/8" = 1'-0"
140
0.375
141
12.0
290
     0
  0
SCALE
  5
56
102
{ACAD_REACTORS
330
3B
102
}
330
3B
100
AcDbScale
 70
     0
300
1/2" = 1'-0"
140
0.5
141
12.0
290
     0
  0
SCALE
  5
57
102
{ACAD_REACTORS
330
3B
102
}
330
3B
100
AcDbScale
 70
     0
300
3/4" = 1'-0"
140
0.75
141
12.0
290
     0
  0
SCALE
  5
58
102
{ACAD_REACTORS
330
3B
102
}
330
3B
100
AcDbScale
 70
     0
300
1" = 1'-0"
140
1.0
141
12.0
290
     0
  0
SCALE
  5
59
102
{ACAD_REACTORS
330
3B
102
}
330
3B
100
AcDbScale
 70
     0
300
1-1/2" = 1'-0"
140
1.5
141
12.0
290
     0
  0
SCALE
  5
5A
102
{ACAD_REACTORS
330
3B
102
}
330
3B
100
AcDbScale
 70
     0
300
3" = 1'-0"
140
3.0
141
12.0
290
     0
  0
SCALE
  5
5B
102
{ACAD_REACTORS
330
3B
102
}
330
3B
100
AcDbScale
 70
     0
300
6" = 1'-0"
140
6.0
141
12.0
290
     0
  0
SCALE
  5
5C
102
{ACAD_REACTORS
330
3B
102
}
330
3B
100
AcDbScale
 70
     0
300
1'-0" = 1'-0"
140
12.0
141
12.0
290
     0
  0
VISUALSTYLE
  5
2F
102
{ACAD_REACTORS
330
2A
102
}
330
2A
100
AcDbVisualStyle
  2
2dWireframe
 70
     4
 71
     0
 72
     2
 73
     0
 90
        0
 40
-0.6
 41
-30.0
 62
     5
 63
     7
 74
     1
 91
        4
 64
     7
 65
   257
 75
     1
175
     1
 42
1.0
 92
        0
 66
   257
 43
1.0
 76
     1
 77
     6
 78
     2
 67
     7
 79
     5
170
     0
171
     0
290
     0
174
     0
 93
        1
 44
0.0
173
     0
291
     0
 45
0.0
1001
ACAD
1000
AcDbSavedByObjectVersion
1070
     0
  0
VISUALSTYLE
  5
31
102
{ACAD_REACTORS
330
2A
102
}
330
2A
100
AcDbVisualStyle
  2
3D Hidden
 70
     6
 71
     1
 72
     2
 73
     2
 90
        0
 40
-0.6
 41
-30.0
 62
     5
 63
     7
 74
     2
 91
        2
 64
     7
 65
   257
 75
     2
175
     1
 42
40.0
 92
        0
 66
   257
 43
1.0
 76
     1
 77
     6
 78
     2
 67
     7
 79
     3
170
     0
171
     0
290
     0
174
     0
 93
        1
 44
0.0
173
     0
291
     0
 45
0.0
1001
ACAD
1000
AcDbSavedByObjectVersion
1070
     0
  0
VISUALSTYLE
  5
30
102
{ACAD_REACTORS
330
2A
102
}
330
2A
100
AcDbVisualStyle
  2
3dWireframe
 70
     5
 71
     0
 72
     2
 73
     0
 90
        0
 40
-0.6
 41
-30.0
 62
     5
 63
     7
 74
     1
 91
        4
 64
     7
 65
   257
 75
     1
175
     1
 42
1.0
 92
        0
 66
   257
 43
1.0
 76
     1
 77
     6
 78
     2
 67
     7
 79
     5
170
     0
171
     0
290
     0
174
     0
 93
        1
 44
0.0
173
     0
291
     0
 45
0.0
1001
ACAD
1000
AcDbSavedByObjectVersion
1070
     0
  0
VISUALSTYLE
  5
32
102
{ACAD_REACTORS
330
2A
102
}
330
2A
100
AcDbVisualStyle
  2
Basic
 70
     7
 71
     1
 72
     0
 73
     1
 90
        0
 40
-0.6
 41
-30.0
 62
     5
 63
     7
 74
     0
 91
        4
 64
     7
 65
   257
 75
     1
175
     1
 42
1.0
 92
        8
 66
     7
 43
1.0
 76
     1
 77
     6
 78
     2
 67
     7
 79
     5
170
     0
171
     0
290
     0
174
     0
 93
        1
 44
0.0
173
     0
291
     1
 45
0.0
1001
ACAD
1000
AcDbSavedByObjectVersion
1070
     0
  0
VISUALSTYLE
  5
36
102
{ACAD_REACTORS
330
2A
102
}
330
2A
100
AcDbVisualStyle
  2
Brighten
 70
    12
 71
     2
 72
     2
 73
     0
 90
        0
 40
-0.6
 41
-30.0
 62
     5
 63
     7
 74
     1
 91
        4
 64
     7
 65
   257
 75
     1
175
     1
 42
1.0
 92
        8
 66
     7
 43
1.0
 76
     1
 77
     6
 78
     2
 67
     7
 79
     5
170
     0
171
     0
290
     0
174
     0
 93
        1
 44
50.0
173
     0
291
     1
 45
0.0
1001
ACAD
1000
AcDbSavedByObjectVersion
1070
     0
  0
VISUALSTYLE
  5
3A
102
{ACAD_REACTORS
330
2A
102
}
330
2A
100
AcDbVisualStyle
  2
ColorChange
 70
    16
 71
     2
 72
     2
 73
     3
 90
        0
 40
-0.6
 41
-30.0
 62
     5
 63
     8
 74
     1
 91
        4
 64
     7
 65
   257
 75
     1
175
     1
 42
1.0
 92
        8
 66
     8
 43
1.0
 76
     1
 77
     6
 78
     2
 67
     7
 79
     5
170
     0
171
     0
290
     0
174
     0
 93
        1
 44
0.0
173
     0
291
     1
 45
0.0
1001
ACAD
1000
AcDbSavedByObjectVersion
1070
     0
  0
VISUALSTYLE
  5
34
102
{ACAD_REACTORS
330
2A
102
}
330
2A
100
AcDbVisualStyle
  2
Conceptual
 70
     9
 71
     3
 72
     2
 73
     0
 90
        0
 40
-0.6
 41
-30.0
 62
     5
 63
     7
 74
     2
 91
        2
 64
     7
 65
   257
 75
     1
175
     1
 42
40.0
 92
        8
 66
     7
 43
1.0
 76
     1
 77
     6
 78
     2
 67
     7
 79
     3
170
     0
171
     0
290
     0
174
     0
 93
        1
 44
0.0
173
     0
291
     0
 45
0.0
1001
ACAD
1000
AcDbSavedByObjectVersion
1070
     0
  0
VISUALSTYLE
  5
35
102
{ACAD_REACTORS
330
2A
102
}
330
2A
100
AcDbVisualStyle
  2
Dim
 70
    11
 71
     2
 72
     2
 73
     0
 90
        0
 40
-0.6
 41
-30.0
 62
     5
 63
     7
 74
     1
 91
        4
 64
     7
 65
   257
 75
     1
175
     1
 42
1.0
 92
        8
 66
     7
 43
1.0
 76
     1
 77
     6
 78
     2
 67
     7
 79
     5
170
     0
171
     0
290
     0
174
     0
 93
        1
 44
-50.0
173
     0
291
     1
 45
0.0
1001
ACAD
1000
AcDbSavedByObjectVersion
1070
     0
  0
VISUALSTYLE
  5
39
102
{ACAD_REACTORS
330
2A
102
}
330
2A
100
AcDbVisualStyle
  2
Facepattern
 70
    15
 71
     2
 72
     2
 73
     0
 90
        0
 40
-0.6
 41
-30.0
 62
     5
 63
     7
 74
     1
 91
        4
 64
     7
 65
   257
 75
     1
175
     1
 42
1.0
 92
        8
 66
     7
 43
1.0
 76
     1
 77
     6
 78
     2
 67
     7
 79
     5
170
     0
171
     0
290
     0
174
     0
 93
        1
 44
0.0
173
     0
291
     1
 45
0.0
1001
ACAD
1000
AcDbSavedByObjectVersion
1070
     0
  0
VISUALSTYLE
  5
2B
102
{ACAD_REACTORS
330
2A
102
}
330
2A
100
AcDbVisualStyle
  2
Flat
 70
     0
 71
     2
 72
     1
 73
     1
 90
        2
 40
-0.6
 41
30.0
 62
     5
 63
     7
 74
     0
 91
        4
 64
     7
 65
   257
 75
     1
175
     1
 42
1.0
 92
        8
 66
     7
 43
1.0
 76
     1
 77
     6
 78
     2
 67
     7
 79
     5
170
     0
171
     0
290
     0
174
     0
 93
       13
 44
0.0
173
     0
291
     1
 45
0.0
1001
ACAD
1000
AcDbSavedByObjectVersion
1070
     0
  0
VISUALSTYLE
  5
2C
102
{ACAD_REACTORS
330
2A
102
}
330
2A
100
AcDbVisualStyle
  2
FlatWithEdges
 70
     1
 71
     2
 72
     1
 73
     1
 90
        2
 40
-0.6
 41
30.0
 62
     5
 63
     7
 74
     1
 91
        4
 64
     7
 65
   257
 75
     1
175
     1
 42
1.0
 92
        0
 66
   257
 43
1.0
 76
     1
 77
     6
 78
     2
 67
     7
 79
     5
170
     0
171
     0
290
     0
174
     0
 93
       13
 44
0.0
173
     0
291
     1
 45
0.0
1001
ACAD
1000
AcDbSavedByObjectVersion
1070
     0
  0
VISUALSTYLE
  5
2D
102
{ACAD_REACTORS
330
2A
102
}
330
2A
100
AcDbVisualStyle
  2
Gouraud
 70
     2
 71
     2
 72
     2
 73
     1
 90
        2
 40
-0.6
 41
30.0
 62
     5
 63
     7
 74
     0
 91
        4
 64
     7
 65
   257
 75
     1
175
     1
 42
1.0
 92
        0
 66
     7
 43
1.0
 76
     1
 77
     6
 78
     2
 67
     7
 79
     5
170
     0
171
     0
290
     0
174
     0
 93
       13
 44
0.0
173
     0
291
     1
 45
0.0
1001
ACAD
1000
AcDbSavedByObjectVersion
1070
     0
  0
VISUALSTYLE
  5
2E
102
{ACAD_REACTORS
330
2A
102
}
330
2A
100
AcDbVisualStyle
  2
GouraudWithEdges
 70
     3
 71
     2
 72
     2
 73
     1
 90
        2
 40
-0.6
 41
30.0
 62
     5
 63
     7
 74
     1
 91
        4
 64
     7
 65
   257
 75
     1
175
     1
 42
1.0
 92
        0
 66
   257
 43
1.0
 76
     1
 77
     6
 78
     2
 67
     7
 79
     5
170
     0
171
     0
290
     0
174
     0
 93
       13
 44
0.0
173
     0
291
     1
 45
0.0
1001
ACAD
1000
AcDbSavedByObjectVersion
1070
     0
  0
VISUALSTYLE
  5
38
102
{ACAD_REACTORS
330
2A
102
}
330
2A
100
AcDbVisualStyle
  2
Linepattern
 70
    14
 71
     2
 72
     2
 73
     0
 90
        0
 40
-0.6
 41
-30.0
 62
     5
 63
     7
 74
     1
 91
        4
 64
     7
 65
   257
 75
     7
175
     7
 42
1.0
 92
        8
 66
     7
 43
1.0
 76
     1
 77
     6
 78
     2
 67
     7
 79
     5
170
     0
171
     0
290
     0
174
     0
 93
        1
 44
0.0
173
     0
291
     1
 45
0.0
1001
ACAD
1000
AcDbSavedByObjectVersion
1070
     0
  0
VISUALSTYLE
  5
33
102
{ACAD_REACTORS
330
2A
102
}
330
2A
100
AcDbVisualStyle
  2
Realistic
 70
     8
 71
     2
 72
     2
 73
     0
 90
        0
 40
-0.6
 41
-30.0
 62
     5
 63
     7
 74
     1
 91
        0
 64
     7
 65
   257
 75
     1
175
     1
 42
1.0
 92
        8
 66
     8
 43
1.0
 76
     1
 77
     6
 78
     2
 67
     7
 79
     5
170
     0
171
     0
290
     0
174
     0
 93
       13
 44
0.0
173
     0
291
     0
 45
0.0
1001
ACAD
1000
AcDbSavedByObjectVersion
1070
     0
  0
VISUALSTYLE
  5
37
102
{ACAD_REACTORS
330
2A
102
}
330
2A
100
AcDbVisualStyle
  2
Thicken
 70
    13
 71
     2
 72
     2
 73
     0
 90
        0
 40
-0.6
 41
-30.0
 62
     5
 63
     7
 74
     1
 91
        4
 64
     7
 65
   257
 75
     1
175
     1
 42
1.0
 92
       12
 66
     7
 43
1.0
 76
     1
 77
     6
 78
     2
 67
     7
 79
     5
170
     0
171
     0
290
     0
174
     0
 93
        1
 44
0.0
173
     0
291
     1
 45
0.0
1001
ACAD
1000
AcDbSavedByObjectVersion
1070
     0
  0
DICTIONARYVAR
  5
E7
102
{ACAD_REACTORS
330
E6
102
}
330
E6
100
DictionaryVariables
280
     0
  1
1:1
  0
DICTIONARYVAR
  5
EB
102
{ACAD_REACTORS
330
E6
102
}
330
E6
100
DictionaryVariables
280
     0
  1
80.000000
  0
DICTIONARYVAR
  5
EA
102
{ACAD_REACTORS
330
E6
102
}
330
E6
100
DictionaryVariables
280
     0
  1
5.000000
  0
ENDSEC
  0
EOF
