  0
SECTION
  2
HEADER
  9
$ACADVER
  1
AC1009
  9
$DWGCODEPAGE
  3
ansi_1252
  9
$INSBASE
 10
0.0
 20
0.0
 30
0.0
  9
$EXTMIN
 10
1.000000000000000E+20
 20
1.000000000000000E+20
 30
1.000000000000000E+20
  9
$EXTMAX
 10
-1.000000000000000E+20
 20
-1.000000000000000E+20
 30
-1.000000000000000E+20
  9
$LIMMIN
 10
0.0
 20
0.0
  9
$LIMMAX
 10
12.0
 20
9.0
  9
$ORTHOMODE
 70
     0
  9
$REGENMODE
 70
     1
  9
$FILLMODE
 70
     1
  9
$QTEXTMODE
 70
     0
  9
$MIRRTEXT
 70
     1
  9
$DRAGMODE
 70
     2
  9
$LTSCALE
 40
1.0
  9
$OSMODE
 70
    37
  9
$ATTMODE
 70
     1
  9
$TEXTSIZE
 40
0.2
  9
$TRACEWID
 40
0.05
  9
$TEXTSTYLE
  7
STANDARD
  9
$CLAYER
  8
0
  9
$CELTYPE
  6
BYLAYER
  9
$CECOLOR
 62
   256
  9
$DIMSCALE
 40
1.0
  9
$DIMASZ
 40
0.18
  9
$DIMEXO
 40
0.0625
  9
$DIMDLI
 40
0.38
  9
$DIMRND
 40
0.0
  9
$DIMDLE
 40
0.0
  9
$DIMEXE
 40
0.18
  9
$DIMTP
 40
0.0
  9
$DIMTM
 40
0.0
  9
$DIMTXT
 40
0.18
  9
$DIMCEN
 40
0.09
  9
$DIMTSZ
 40
0.0
  9
$DIMTOL
 70
     0
  9
$DIMLIM
 70
     0
  9
$DIMTIH
 70
     1
  9
$DIMTOH
 70
     1
  9
$DIMSE1
 70
     0
  9
$DIMSE2
 70
     0
  9
$DIMTAD
 70
     0
  9
$DIMZIN
 70
     0
  9
$DIMBLK
  1

  9
$DIMASO
 70
     1
  9
$DIMSHO
 70
     1
  9
$DIMPOST
  1

  9
$DIMAPOST
  1

  9
$DIMALT
 70
     0
  9
$DIMALTD
 70
     2
  9
$DIMALTF
 40
25.4
  9
$DIMLFAC
 40
1.0
  9
$DIMTOFL
 70
     0
  9
$DIMTVP
 40
0.0
  9
$DIMTIX
 70
     0
  9
$DIMSOXD
 70
     0
  9
$DIMSAH
 70
     0
  9
$DIMBLK1
  1

  9
$DIMBLK2
  1

  9
$DIMSTYLE
  2
STANDARD
  9
$DIMCLRD
 70
     0
  9
$DIMCLRE
 70
     0
  9
$DIMCLRT
 70
     0
  9
$DIMTFAC
 40
1.0
  9
$DIMGAP
 40
0.09
  9
$LUNITS
 70
     2
  9
$LUPREC
 70
     4
  9
$SKETCHINC
 40
0.1
  9
$FILLETRAD
 40
0.5
  9
$AUNITS
 70
     0
  9
$AUPREC
 70
     0
  9
$MENU
  1
.
  9
$ELEVATION
 40
0.0
  9
$PELEVATION
 40
0.0
  9
$THICKNESS
 40
0.0
  9
$LIMCHECK
 70
     0
  9
$CHAMFERA
 40
0.5
  9
$CHAMFERB
 40
0.5
  9
$SKPOLY
 70
     0
  9
$TDCREATE
 40
2455359.744582789
  9
$TDUPDATE
 40
2455359.744582789
  9
$TDINDWG
 40
0.0000000116
  9
$TDUSRTIMER
 40
0.0000000116
  9
$USRTIMER
 70
     1
  9
$ANGBASE
 50
0.0
  9
$ANGDIR
 70
     0
  9
$PDMODE
 70
     0
  9
$PDSIZE
 40
0.0
  9
$PLINEWID
 40
0.0
  9
$COORDS
 70
     1
  9
$SPLFRAME
 70
     0
  9
$SPLINETYPE
 70
     6
  9
$SPLINESEGS
 70
     8
  9
$ATTDIA
 70
     0
  9
$ATTREQ
 70
     1
  9
$HANDLING
 70
     1
  9
$HANDSEED
  5
387
  9
$SURFTAB1
 70
     6
  9
$SURFTAB2
 70
     6
  9
$SURFTYPE
 70
     6
  9
$SURFU
 70
     6
  9
$SURFV
 70
     6
  9
$UCSNAME
  2

  9
$UCSORG
 10
0.0
 20
0.0
 30
0.0
  9
$UCSXDIR
 10
1.0
 20
0.0
 30
0.0
  9
$UCSYDIR
 10
0.0
 20
1.0
 30
0.0
  9
$PUCSNAME
  2

  9
$PUCSORG
 10
0.0
 20
0.0
 30
0.0
  9
$PUCSXDIR
 10
1.0
 20
0.0
 30
0.0
  9
$PUCSYDIR
 10
0.0
 20
1.0
 30
0.0
  9
$USERI1
 70
     0
  9
$USERI2
 70
     0
  9
$USERI3
 70
     0
  9
$USERI4
 70
     0
  9
$USERI5
 70
     0
  9
$USERR1
 40
0.0
  9
$USERR2
 40
0.0
  9
$USERR3
 40
0.0
  9
$USERR4
 40
0.0
  9
$USERR5
 40
0.0
  9
$WORLDVIEW
 70
     1
  9
$SHADEDGE
 70
     3
  9
$SHADEDIF
 70
    70
  9
$TILEMODE
 70
     1
  9
$MAXACTVP
 70
    64
  9
$PLIMCHECK
 70
     0
  9
$PEXTMIN
 10
1.000000000000000E+20
 20
1.000000000000000E+20
 30
1.000000000000000E+20
  9
$PEXTMAX
 10
-1.000000000000000E+20
 20
-1.000000000000000E+20
 30
-1.000000000000000E+20
  9
$PLIMMIN
 10
0.0
 20
0.0
  9
$PLIMMAX
 10
12.0
 20
9.0
  9
$UNITMODE
 70
     0
  9
$VISRETAIN
 70
     1
  9
$PLINEGEN
 70
     0
  9
$PSLTSCALE
 70
     1
  0
ENDSEC
  0
SECTION
  2
TABLES
  0
TABLE
  2
VPORT
 70
     1
  0
VPORT
  2
*ACTIVE
 70
     0
 10
0.0
 20
0.0
 11
1.0
 21
1.0
 12
0.0
 22
0.0
 13
0.0
 23
0.0
 14
0.5
 24
0.5
 15
0.5
 25
0.5
 16
351.2298889160156
 26
200.6855010986328
 36
351.2298889160156
 17
148.3374938964844
 27
-55.0
 37
-26.59649658203125
 40
201.6833053087164
 41
1.972972972850329
 42
50.0
 43
0.0
 44
0.0
 50
0.0
 51
0.0
 71
     0
 72
   100
 73
     1
 74
     3
 75
     0
 76
     0
 77
     0
 78
     0
  0
ENDTAB
  0
TABLE
  2
LTYPE
 70
     1
  0
LTYPE
  2
CONTINUOUS
 70
     0
  3
Solid line
 72
    65
 73
     0
 40
0.0
  0
ENDTAB
  0
TABLE
  2
LAYER
 70
     2
  0
LAYER
  2
0
 70
     0
 62
     7
  6
CONTINUOUS
  0
LAYER
  2
LAYER_1
 70
     0
 62
     7
  6
CONTINUOUS
  0
ENDTAB
  0
TABLE
  2
STYLE
 70
     1
  0
STYLE
  2
STANDARD
 70
     0
 40
0.0
 41
1.0
 50
0.0
 71
     0
 42
0.2
  3
txt
  4

  0
ENDTAB
  0
TABLE
  2
VIEW
 70
     0
  0
ENDTAB
  0
TABLE
  2
UCS
 70
     0
  0
ENDTAB
  0
TABLE
  2
APPID
 70
     1
  0
APPID
  2
ACAD
 70
     0
  0
ENDTAB
  0
TABLE
  2
DIMSTYLE
 70
     1
  0
DIMSTYLE
  2
STANDARD
 70
     0
  3

  4

  5

  6

  7

 40
1.0
 41
0.18
 42
0.0625
 43
0.38
 44
0.18
 45
0.0
 46
0.0
 47
0.0
 48
0.0
140
0.18
141
0.09
142
0.0
143
25.4
144
1.0
145
0.0
146
1.0
147
0.09
 71
     0
 72
     0
 73
     1
 74
     1
 75
     0
 76
     0
 77
     0
 78
     0
170
     0
171
     2
172
     0
173
     0
174
     0
175
     0
176
     0
177
     0
178
     0
  0
ENDTAB
  0
ENDSEC
  0
SECTION
  2
BLOCKS
  0
BLOCK
  8
0
  2
$MODEL_SPACE
 70
     0
 10
0.0
 20
0.0
 30
0.0
  3
$MODEL_SPACE
  1

  0
ENDBLK
  5
21
  8
0
  0
BLOCK
 67
     1
  8
0
  2
$PAPER_SPACE
 70
     0
 10
0.0
 20
0.0
 30
0.0
  3
$PAPER_SPACE
  1

  0
ENDBLK
  5
1D
 67
     1
  8
0
  0
BLOCK
  8
0
  2
E3_NODE
 70
     0
 10
0.0
 20
0.0
 30
0.0
  3
E3_NODE
  1

  0
POLYLINE
  5
3C
  8
0
 62
     9
 66
     1
 10
0.0
 20
0.0
 30
0.0
 70
    64
 71
     4
 72
     2
  0
VERTEX
  5
3D
  8
0
 10
59.0
 20
35.0
 30
-35.0
 70
   192
  0
VERTEX
  5
3E
  8
0
 10
59.0
 20
35.0
 30
35.0
 70
   192
  0
VERTEX
  5
3F
  8
0
 10
74.0
 20
35.0
 30
35.0
 70
   192
  0
VERTEX
  5
40
  8
0
 10
74.0
 20
35.0
 30
-35.0
 70
   192
  0
VERTEX
  5
41
  8
0
 62
     9
 10
0.0
 20
0.0
 30
0.0
 70
   128
 71
     3
 72
     2
 73
     1
  0
VERTEX
  5
42
  8
0
 62
     9
 10
0.0
 20
0.0
 30
0.0
 70
   128
 71
     1
 72
     4
 73
     3
  0
SEQEND
  5
43
  8
0
 62
     9
  0
ENDBLK
  5
47
  8
0
  0
BLOCK
  8
0
  2
E3_NODE_1_
 70
     0
 10
0.0
 20
0.0
 30
0.0
  3
E3_NODE_1_
  1

  0
POLYLINE
  5
49
  8
0
 62
     9
 66
     1
 10
0.0
 20
0.0
 30
0.0
 70
    64
 71
     4
 72
     2
  0
VERTEX
  5
4A
  8
0
 10
74.0
 20
-145.0
 30
-35.0
 70
   192
  0
VERTEX
  5
4B
  8
0
 10
74.0
 20
35.0
 30
-35.0
 70
   192
  0
VERTEX
  5
4C
  8
0
 10
74.0
 20
35.0
 30
35.0
 70
   192
  0
VERTEX
  5
4D
  8
0
 10
74.0
 20
-145.0
 30
35.0
 70
   192
  0
VERTEX
  5
4E
  8
0
 62
     9
 10
0.0
 20
0.0
 30
0.0
 70
   128
 71
     3
 72
     2
 73
     1
  0
VERTEX
  5
4F
  8
0
 62
     9
 10
0.0
 20
0.0
 30
0.0
 70
   128
 71
     1
 72
     4
 73
     3
  0
SEQEND
  5
50
  8
0
 62
     9
  0
ENDBLK
  5
53
  8
0
  0
BLOCK
  8
0
  2
E3_NODE_2_
 70
     0
 10
0.0
 20
0.0
 30
0.0
  3
E3_NODE_2_
  1

  0
POLYLINE
  5
55
  8
0
 62
     9
 66
     1
 10
0.0
 20
0.0
 30
0.0
 70
    64
 71
     4
 72
     2
  0
VERTEX
  5
56
  8
0
 10
59.0
 20
-145.0
 30
35.0
 70
   192
  0
VERTEX
  5
57
  8
0
 10
59.0
 20
-145.0
 30
-35.0
 70
   192
  0
VERTEX
  5
58
  8
0
 10
74.0
 20
-145.0
 30
-35.0
 70
   192
  0
VERTEX
  5
59
  8
0
 10
74.0
 20
-145.0
 30
35.0
 70
   192
  0
VERTEX
  5
5A
  8
0
 62
     9
 10
0.0
 20
0.0
 30
0.0
 70
   128
 71
     3
 72
     2
 73
     1
  0
VERTEX
  5
5B
  8
0
 62
     9
 10
0.0
 20
0.0
 30
0.0
 70
   128
 71
     1
 72
     4
 73
     3
  0
SEQEND
  5
5C
  8
0
 62
     9
  0
ENDBLK
  5
5F
  8
0
  0
BLOCK
  8
0
  2
E3_NODE_3_
 70
     0
 10
0.0
 20
0.0
 30
0.0
  3
E3_NODE_3_
  1

  0
POLYLINE
  5
61
  8
0
 62
     9
 66
     1
 10
0.0
 20
0.0
 30
0.0
 70
    64
 71
     4
 72
     2
  0
VERTEX
  5
62
  8
0
 10
59.0
 20
35.0
 30
-35.0
 70
   192
  0
VERTEX
  5
63
  8
0
 10
59.0
 20
-145.0
 30
-35.0
 70
   192
  0
VERTEX
  5
64
  8
0
 10
59.0
 20
-145.0
 30
35.0
 70
   192
  0
VERTEX
  5
65
  8
0
 10
59.0
 20
35.0
 30
35.0
 70
   192
  0
VERTEX
  5
66
  8
0
 62
     9
 10
0.0
 20
0.0
 30
0.0
 70
   128
 71
     3
 72
     2
 73
     1
  0
VERTEX
  5
67
  8
0
 62
     9
 10
0.0
 20
0.0
 30
0.0
 70
   128
 71
     1
 72
     4
 73
     3
  0
SEQEND
  5
68
  8
0
 62
     9
  0
ENDBLK
  5
6B
  8
0
  0
BLOCK
  8
0
  2
E3_NODE_4_
 70
     0
 10
0.0
 20
0.0
 30
0.0
  3
E3_NODE_4_
  1

  0
POLYLINE
  5
6D
  8
0
 62
     9
 66
     1
 10
0.0
 20
0.0
 30
0.0
 70
    64
 71
     4
 72
     2
  0
VERTEX
  5
6E
  8
0
 10
74.0
 20
35.0
 30
35.0
 70
   192
  0
VERTEX
  5
6F
  8
0
 10
59.0
 20
35.0
 30
35.0
 70
   192
  0
VERTEX
  5
70
  8
0
 10
59.0
 20
-145.0
 30
35.0
 70
   192
  0
VERTEX
  5
71
  8
0
 10
74.0
 20
-145.0
 30
35.0
 70
   192
  0
VERTEX
  5
72
  8
0
 62
     9
 10
0.0
 20
0.0
 30
0.0
 70
   128
 71
     3
 72
     2
 73
     1
  0
VERTEX
  5
73
  8
0
 62
     9
 10
0.0
 20
0.0
 30
0.0
 70
   128
 71
     1
 72
     4
 73
     3
  0
SEQEND
  5
74
  8
0
 62
     9
  0
ENDBLK
  5
77
  8
0
  0
BLOCK
  8
0
  2
E3_NODE_5_
 70
     0
 10
0.0
 20
0.0
 30
0.0
  3
E3_NODE_5_
  1

  0
POLYLINE
  5
79
  8
0
 62
     9
 66
     1
 10
0.0
 20
0.0
 30
0.0
 70
    64
 71
     4
 72
     2
  0
VERTEX
  5
7A
  8
0
 10
74.0
 20
35.0
 30
-35.0
 70
   192
  0
VERTEX
  5
7B
  8
0
 10
74.0
 20
-145.0
 30
-35.0
 70
   192
  0
VERTEX
  5
7C
  8
0
 10
59.0
 20
-145.0
 30
-35.0
 70
   192
  0
VERTEX
  5
7D
  8
0
 10
59.0
 20
35.0
 30
-35.0
 70
   192
  0
VERTEX
  5
7E
  8
0
 62
     9
 10
0.0
 20
0.0
 30
0.0
 70
   128
 71
     3
 72
     2
 73
     1
  0
VERTEX
  5
7F
  8
0
 62
     9
 10
0.0
 20
0.0
 30
0.0
 70
   128
 71
     1
 72
     4
 73
     3
  0
SEQEND
  5
80
  8
0
 62
     9
  0
ENDBLK
  5
83
  8
0
  0
BLOCK
  8
0
  2
E3_NODE_6_
 70
     0
 10
0.0
 20
0.0
 30
0.0
  3
E3_NODE_6_
  1

  0
POLYLINE
  5
85
  8
0
 62
     9
 66
     1
 10
0.0
 20
0.0
 30
0.0
 70
    64
 71
     4
 72
     2
  0
VERTEX
  5
86
  8
0
 10
74.4000015258789
 20
-95.5
 30
-6.5
 70
   192
  0
VERTEX
  5
87
  8
0
 10
198.8150024414062
 20
-95.5
 30
-6.5
 70
   192
  0
VERTEX
  5
88
  8
0
 10
198.8150024414062
 20
-124.5
 30
-6.5
 70
   192
  0
VERTEX
  5
89
  8
0
 10
74.4000015258789
 20
-124.5
 30
-6.5
 70
   192
  0
VERTEX
  5
8A
  8
0
 62
     9
 10
0.0
 20
0.0
 30
0.0
 70
   128
 71
     3
 72
     2
 73
     1
  0
VERTEX
  5
8B
  8
0
 62
     9
 10
0.0
 20
0.0
 30
0.0
 70
   128
 71
     1
 72
     4
 73
     3
  0
SEQEND
  5
8C
  8
0
 62
     9
  0
ENDBLK
  5
8F
  8
0
  0
BLOCK
  8
0
  2
E3_NODE_7_
 70
     0
 10
0.0
 20
0.0
 30
0.0
  3
E3_NODE_7_
  1

  0
POLYLINE
  5
91
  8
0
 62
     9
 66
     1
 10
0.0
 20
0.0
 30
0.0
 70
    64
 71
     8
 72
     6
  0
VERTEX
  5
92
  8
0
 10
219.2169952392578
 20
-124.5
 30
-18.23399925231934
 70
   192
  0
VERTEX
  5
93
  8
0
 10
219.2169952392578
 20
-95.5
 30
-18.23399925231934
 70
   192
  0
VERTEX
  5
94
  8
0
 10
223.3009948730469
 20
-95.5
 30
-29.62400054931641
 70
   192
  0
VERTEX
  5
95
  8
0
 10
210.4199981689453
 20
-124.5
 30
-9.925999641418457
 70
   192
  0
VERTEX
  5
96
  8
0
 10
210.4199981689453
 20
-95.5
 30
-9.925999641418457
 70
   192
  0
VERTEX
  5
97
  8
0
 10
198.8150024414062
 20
-124.5
 30
-6.5
 70
   192
  0
VERTEX
  5
98
  8
0
 10
198.8150024414062
 20
-95.5
 30
-6.5
 70
   192
  0
VERTEX
  5
99
  8
0
 10
223.3009948730469
 20
-124.5
 30
-29.62400054931641
 70
   192
  0
VERTEX
  5
9A
  8
0
 62
     9
 10
0.0
 20
0.0
 30
0.0
 70
   128
 71
     3
 72
     2
 73
     1
  0
VERTEX
  5
9B
  8
0
 62
     9
 10
0.0
 20
0.0
 30
0.0
 70
   128
 71
     2
 72
     5
 73
     4
  0
VERTEX
  5
9C
  8
0
 62
     9
 10
0.0
 20
0.0
 30
0.0
 70
   128
 71
     5
 72
     7
 73
     6
  0
VERTEX
  5
9D
  8
0
 62
     9
 10
0.0
 20
0.0
 30
0.0
 70
   128
 71
     6
 72
     4
 73
     5
  0
VERTEX
  5
9E
  8
0
 62
     9
 10
0.0
 20
0.0
 30
0.0
 70
   128
 71
     4
 72
     1
 73
     2
  0
VERTEX
  5
9F
  8
0
 62
     9
 10
0.0
 20
0.0
 30
0.0
 70
   128
 71
     1
 72
     8
 73
     3
  0
SEQEND
  5
A0
  8
0
 62
     9
  0
ENDBLK
  5
A3
  8
0
  0
BLOCK
  8
0
  2
E3_NODE_8_
 70
     0
 10
0.0
 20
0.0
 30
0.0
  3
E3_NODE_8_
  1

  0
POLYLINE
  5
A5
  8
0
 62
     9
 66
     1
 10
0.0
 20
0.0
 30
0.0
 70
    64
 71
     4
 72
     2
  0
VERTEX
  5
A6
  8
0
 10
223.8280029296875
 20
-124.5
 30
-35.64500045776367
 70
   192
  0
VERTEX
  5
A7
  8
0
 10
223.3009948730469
 20
-124.5
 30
-29.62400054931641
 70
   192
  0
VERTEX
  5
A8
  8
0
 10
223.3009948730469
 20
-95.5
 30
-29.62400054931641
 70
   192
  0
VERTEX
  5
A9
  8
0
 10
223.8280029296875
 20
-95.5
 30
-35.64500045776367
 70
   192
  0
VERTEX
  5
AA
  8
0
 62
     9
 10
0.0
 20
0.0
 30
0.0
 70
   128
 71
     3
 72
     2
 73
     1
  0
VERTEX
  5
AB
  8
0
 62
     9
 10
0.0
 20
0.0
 30
0.0
 70
   128
 71
     1
 72
     4
 73
     3
  0
SEQEND
  5
AC
  8
0
 62
     9
  0
ENDBLK
  5
AF
  8
0
  0
BLOCK
  8
0
  2
E3_NODE_9_
 70
     0
 10
0.0
 20
0.0
 30
0.0
  3
E3_NODE_9_
  1

  0
POLYLINE
  5
B1
  8
0
 62
     9
 66
     1
 10
0.0
 20
0.0
 30
0.0
 70
    64
 71
     4
 72
     2
  0
VERTEX
  5
B2
  8
0
 10
237.6750030517578
 20
-95.5
 30
-34.43299865722656
 70
   192
  0
VERTEX
  5
B3
  8
0
 10
237.6750030517578
 20
-124.5
 30
-34.43299865722656
 70
   192
  0
VERTEX
  5
B4
  8
0
 10
223.8280029296875
 20
-124.5
 30
-35.64500045776367
 70
   192
  0
VERTEX
  5
B5
  8
0
 10
223.8280029296875
 20
-95.5
 30
-35.64500045776367
 70
   192
  0
VERTEX
  5
B6
  8
0
 62
     9
 10
0.0
 20
0.0
 30
0.0
 70
   128
 71
     3
 72
     2
 73
     1
  0
VERTEX
  5
B7
  8
0
 62
     9
 10
0.0
 20
0.0
 30
0.0
 70
   128
 71
     1
 72
     4
 73
     3
  0
SEQEND
  5
B8
  8
0
 62
     9
  0
ENDBLK
  5
BB
  8
0
  0
BLOCK
  8
0
  2
E3_NODE_10_
 70
     0
 10
0.0
 20
0.0
 30
0.0
  3
E3_NODE_10_
  1

  0
POLYLINE
  5
BD
  8
0
 62
     9
 66
     1
 10
0.0
 20
0.0
 30
0.0
 70
    64
 71
     4
 72
     2
  0
VERTEX
  5
BE
  8
0
 10
237.6750030517578
 20
-95.5
 30
-34.43299865722656
 70
   192
  0
VERTEX
  5
BF
  8
0
 10
237.1690063476562
 20
-95.5
 30
-28.64500045776367
 70
   192
  0
VERTEX
  5
C0
  8
0
 10
237.1690063476562
 20
-124.5
 30
-28.64500045776367
 70
   192
  0
VERTEX
  5
C1
  8
0
 10
237.6750030517578
 20
-124.5
 30
-34.43299865722656
 70
   192
  0
VERTEX
  5
C2
  8
0
 62
     9
 10
0.0
 20
0.0
 30
0.0
 70
   128
 71
     3
 72
     2
 73
     1
  0
VERTEX
  5
C3
  8
0
 62
     9
 10
0.0
 20
0.0
 30
0.0
 70
   128
 71
     1
 72
     4
 73
     3
  0
SEQEND
  5
C4
  8
0
 62
     9
  0
ENDBLK
  5
C7
  8
0
  0
BLOCK
  8
0
  2
E3_NODE_11_
 70
     0
 10
0.0
 20
0.0
 30
0.0
  3
E3_NODE_11_
  1

  0
POLYLINE
  5
C9
  8
0
 62
     9
 66
     1
 10
0.0
 20
0.0
 30
0.0
 70
    64
 71
    13
 72
    11
  0
VERTEX
  5
CA
  8
0
 10
223.8280029296875
 20
-124.5
 30
-35.64500045776367
 70
   192
  0
VERTEX
  5
CB
  8
0
 10
237.6750030517578
 20
-124.5
 30
-34.43299865722656
 70
   192
  0
VERTEX
  5
CC
  8
0
 10
237.1690063476562
 20
-124.5
 30
-28.64500045776367
 70
   192
  0
VERTEX
  5
CD
  8
0
 10
233.3450012207031
 20
-124.5
 30
-14.97200012207031
 70
   192
  0
VERTEX
  5
CE
  8
0
 10
219.2169952392578
 20
-124.5
 30
-18.23399925231934
 70
   192
  0
VERTEX
  5
CF
  8
0
 10
223.3009948730469
 20
-124.5
 30
-29.62400054931641
 70
   192
  0
VERTEX
  5
D0
  8
0
 10
224.8260040283203
 20
-124.5
 30
-3.615000009536743
 70
   192
  0
VERTEX
  5
D1
  8
0
 10
212.7689971923828
 20
-124.5
 30
3.881999969482422
 70
   192
  0
VERTEX
  5
D2
  8
0
 10
210.4199981689453
 20
-124.5
 30
-9.925999641418457
 70
   192
  0
VERTEX
  5
D3
  8
0
 10
198.8150024414062
 20
-124.5
 30
6.5
 70
   192
  0
VERTEX
  5
D4
  8
0
 10
198.8150024414062
 20
-124.5
 30
-6.5
 70
   192
  0
VERTEX
  5
D5
  8
0
 10
74.4000015258789
 20
-124.5
 30
-6.5
 70
   192
  0
VERTEX
  5
D6
  8
0
 10
74.4000015258789
 20
-124.5
 30
6.5
 70
   192
  0
VERTEX
  5
D7
  8
0
 62
     9
 10
0.0
 20
0.0
 30
0.0
 70
   128
 71
     3
 72
     2
 73
     1
  0
VERTEX
  5
D8
  8
0
 62
     9
 10
0.0
 20
0.0
 30
0.0
 70
   128
 71
     6
 72
     5
 73
     4
  0
VERTEX
  5
D9
  8
0
 62
     9
 10
0.0
 20
0.0
 30
0.0
 70
   128
 71
     9
 72
     8
 73
     7
  0
VERTEX
  5
DA
  8
0
 62
     9
 10
0.0
 20
0.0
 30
0.0
 70
   128
 71
     4
 72
     3
 73
     6
  0
VERTEX
  5
DB
  8
0
 62
     9
 10
0.0
 20
0.0
 30
0.0
 70
   128
 71
     7
 72
     4
 73
     5
  0
VERTEX
  5
DC
  8
0
 62
     9
 10
0.0
 20
0.0
 30
0.0
 70
   128
 71
    11
 72
    10
 73
     8
  0
VERTEX
  5
DD
  8
0
 62
     9
 10
0.0
 20
0.0
 30
0.0
 70
   128
 71
    10
 72
    11
 73
    12
  0
VERTEX
  5
DE
  8
0
 62
     9
 10
0.0
 20
0.0
 30
0.0
 70
   128
 71
     7
 72
     5
 73
     9
  0
VERTEX
  5
DF
  8
0
 62
     9
 10
0.0
 20
0.0
 30
0.0
 70
   128
 71
    12
 72
    13
 73
    10
  0
VERTEX
  5
E0
  8
0
 62
     9
 10
0.0
 20
0.0
 30
0.0
 70
   128
 71
     8
 72
     9
 73
    11
  0
VERTEX
  5
E1
  8
0
 62
     9
 10
0.0
 20
0.0
 30
0.0
 70
   128
 71
     1
 72
     6
 73
     3
  0
SEQEND
  5
E2
  8
0
 62
     9
  0
ENDBLK
  5
E5
  8
0
  0
BLOCK
  8
0
  2
E3_NODE_12_
 70
     0
 10
0.0
 20
0.0
 30
0.0
  3
E3_NODE_12_
  1

  0
POLYLINE
  5
E7
  8
0
 62
     9
 66
     1
 10
0.0
 20
0.0
 30
0.0
 70
    64
 71
    13
 72
    11
  0
VERTEX
  5
E8
  8
0
 10
224.8260040283203
 20
-95.5
 30
-3.615000009536743
 70
   192
  0
VERTEX
  5
E9
  8
0
 10
219.2169952392578
 20
-95.5
 30
-18.23399925231934
 70
   192
  0
VERTEX
  5
EA
  8
0
 10
210.4199981689453
 20
-95.5
 30
-9.925999641418457
 70
   192
  0
VERTEX
  5
EB
  8
0
 10
233.3450012207031
 20
-95.5
 30
-14.97200012207031
 70
   192
  0
VERTEX
  5
EC
  8
0
 10
237.1690063476562
 20
-95.5
 30
-28.64500045776367
 70
   192
  0
VERTEX
  5
ED
  8
0
 10
223.3009948730469
 20
-95.5
 30
-29.62400054931641
 70
   192
  0
VERTEX
  5
EE
  8
0
 10
223.8280029296875
 20
-95.5
 30
-35.64500045776367
 70
   192
  0
VERTEX
  5
EF
  8
0
 10
74.4000015258789
 20
-95.5
 30
6.5
 70
   192
  0
VERTEX
  5
F0
  8
0
 10
198.8150024414062
 20
-95.5
 30
6.5
 70
   192
  0
VERTEX
  5
F1
  8
0
 10
198.8150024414062
 20
-95.5
 30
-6.5
 70
   192
  0
VERTEX
  5
F2
  8
0
 10
212.7689971923828
 20
-95.5
 30
3.881999969482422
 70
   192
  0
VERTEX
  5
F3
  8
0
 10
237.6750030517578
 20
-95.5
 30
-34.43299865722656
 70
   192
  0
VERTEX
  5
F4
  8
0
 10
74.4000015258789
 20
-95.5
 30
-6.5
 70
   192
  0
VERTEX
  5
F5
  8
0
 62
     9
 10
0.0
 20
0.0
 30
0.0
 70
   128
 71
     3
 72
     2
 73
     1
  0
VERTEX
  5
F6
  8
0
 62
     9
 10
0.0
 20
0.0
 30
0.0
 70
   128
 71
     6
 72
     5
 73
     4
  0
VERTEX
  5
F7
  8
0
 62
     9
 10
0.0
 20
0.0
 30
0.0
 70
   128
 71
     5
 72
     6
 73
     7
  0
VERTEX
  5
F8
  8
0
 62
     9
 10
0.0
 20
0.0
 30
0.0
 70
   128
 71
    10
 72
     9
 73
     8
  0
VERTEX
  5
F9
  8
0
 62
     9
 10
0.0
 20
0.0
 30
0.0
 70
   128
 71
    10
 72
     3
 73
    11
  0
VERTEX
  5
FA
  8
0
 62
     9
 10
0.0
 20
0.0
 30
0.0
 70
   128
 71
     1
 72
    11
 73
     3
  0
VERTEX
  5
FB
  8
0
 62
     9
 10
0.0
 20
0.0
 30
0.0
 70
   128
 71
     7
 72
    12
 73
     5
  0
VERTEX
  5
FC
  8
0
 62
     9
 10
0.0
 20
0.0
 30
0.0
 70
   128
 71
    11
 72
     9
 73
    10
  0
VERTEX
  5
FD
  8
0
 62
     9
 10
0.0
 20
0.0
 30
0.0
 70
   128
 71
     4
 72
     2
 73
     6
  0
VERTEX
  5
FE
  8
0
 62
     9
 10
0.0
 20
0.0
 30
0.0
 70
   128
 71
     2
 72
     4
 73
     1
  0
VERTEX
  5
FF
  8
0
 62
     9
 10
0.0
 20
0.0
 30
0.0
 70
   128
 71
     8
 72
    13
 73
    10
  0
SEQEND
  5
100
  8
0
 62
     9
  0
ENDBLK
  5
103
  8
0
  0
BLOCK
  8
0
  2
E3_NODE_13_
 70
     0
 10
0.0
 20
0.0
 30
0.0
  3
E3_NODE_13_
  1

  0
POLYLINE
  5
105
  8
0
 62
     9
 66
     1
 10
0.0
 20
0.0
 30
0.0
 70
    64
 71
    10
 72
     8
  0
VERTEX
  5
106
  8
0
 10
212.7689971923828
 20
-124.5
 30
3.881999969482422
 70
   192
  0
VERTEX
  5
107
  8
0
 10
212.7689971923828
 20
-95.5
 30
3.881999969482422
 70
   192
  0
VERTEX
  5
108
  8
0
 10
198.8150024414062
 20
-95.5
 30
6.5
 70
   192
  0
VERTEX
  5
109
  8
0
 10
224.8260040283203
 20
-124.5
 30
-3.615000009536743
 70
   192
  0
VERTEX
  5
10A
  8
0
 10
224.8260040283203
 20
-95.5
 30
-3.615000009536743
 70
   192
  0
VERTEX
  5
10B
  8
0
 10
233.3450012207031
 20
-124.5
 30
-14.97200012207031
 70
   192
  0
VERTEX
  5
10C
  8
0
 10
233.3450012207031
 20
-95.5
 30
-14.97200012207031
 70
   192
  0
VERTEX
  5
10D
  8
0
 10
237.1690063476562
 20
-124.5
 30
-28.64500045776367
 70
   192
  0
VERTEX
  5
10E
  8
0
 10
237.1690063476562
 20
-95.5
 30
-28.64500045776367
 70
   192
  0
VERTEX
  5
10F
  8
0
 10
198.8150024414062
 20
-124.5
 30
6.5
 70
   192
  0
VERTEX
  5
110
  8
0
 62
     9
 10
0.0
 20
0.0
 30
0.0
 70
   128
 71
     3
 72
     2
 73
     1
  0
VERTEX
  5
111
  8
0
 62
     9
 10
0.0
 20
0.0
 30
0.0
 70
   128
 71
     2
 72
     5
 73
     4
  0
VERTEX
  5
112
  8
0
 62
     9
 10
0.0
 20
0.0
 30
0.0
 70
   128
 71
     5
 72
     7
 73
     6
  0
VERTEX
  5
113
  8
0
 62
     9
 10
0.0
 20
0.0
 30
0.0
 70
   128
 71
     7
 72
     9
 73
     8
  0
VERTEX
  5
114
  8
0
 62
     9
 10
0.0
 20
0.0
 30
0.0
 70
   128
 71
     8
 72
     6
 73
     7
  0
VERTEX
  5
115
  8
0
 62
     9
 10
0.0
 20
0.0
 30
0.0
 70
   128
 71
     6
 72
     4
 73
     5
  0
VERTEX
  5
116
  8
0
 62
     9
 10
0.0
 20
0.0
 30
0.0
 70
   128
 71
     4
 72
     1
 73
     2
  0
VERTEX
  5
117
  8
0
 62
     9
 10
0.0
 20
0.0
 30
0.0
 70
   128
 71
     1
 72
    10
 73
     3
  0
SEQEND
  5
118
  8
0
 62
     9
  0
ENDBLK
  5
11B
  8
0
  0
BLOCK
  8
0
  2
E3_NODE_14_
 70
     0
 10
0.0
 20
0.0
 30
0.0
  3
E3_NODE_14_
  1

  0
POLYLINE
  5
11D
  8
0
 62
     9
 66
     1
 10
0.0
 20
0.0
 30
0.0
 70
    64
 71
     4
 72
     2
  0
VERTEX
  5
11E
  8
0
 10
198.8150024414062
 20
-124.5
 30
6.5
 70
   192
  0
VERTEX
  5
11F
  8
0
 10
198.8150024414062
 20
-95.5
 30
6.5
 70
   192
  0
VERTEX
  5
120
  8
0
 10
74.4000015258789
 20
-95.5
 30
6.5
 70
   192
  0
VERTEX
  5
121
  8
0
 10
74.4000015258789
 20
-124.5
 30
6.5
 70
   192
  0
VERTEX
  5
122
  8
0
 62
     9
 10
0.0
 20
0.0
 30
0.0
 70
   128
 71
     3
 72
     2
 73
     1
  0
VERTEX
  5
123
  8
0
 62
     9
 10
0.0
 20
0.0
 30
0.0
 70
   128
 71
     1
 72
     4
 73
     3
  0
SEQEND
  5
124
  8
0
 62
     9
  0
ENDBLK
  5
127
  8
0
  0
BLOCK
  8
0
  2
E3_NODE_15_
 70
     0
 10
0.0
 20
0.0
 30
0.0
  3
E3_NODE_15_
  1

  0
POLYLINE
  5
129
  8
0
 62
     9
 66
     1
 10
0.0
 20
0.0
 30
0.0
 70
    64
 71
    26
 72
    26
  0
VERTEX
  5
12A
  8
0
 10
71.5
 20
-83.80000305175781
 30
0.0
 70
   192
  0
VERTEX
  5
12B
  8
0
 10
74.4000015258789
 20
-83.80000305175781
 30
0.0
 70
   192
  0
VERTEX
  5
12C
  8
0
 10
74.4000015258789
 20
-86.8010025024414
 30
-12.17599964141846
 70
   192
  0
VERTEX
  5
12D
  8
0
 10
74.4000015258789
 20
-95.11699676513672
 30
-21.5620002746582
 70
   192
  0
VERTEX
  5
12E
  8
0
 10
71.5
 20
-95.11699676513672
 30
-21.5620002746582
 70
   192
  0
VERTEX
  5
12F
  8
0
 10
71.5
 20
-86.8010025024414
 30
-12.17599964141846
 70
   192
  0
VERTEX
  5
130
  8
0
 10
71.5
 20
-106.8420028686523
 30
-26.00900077819824
 70
   192
  0
VERTEX
  5
131
  8
0
 10
74.4000015258789
 20
-119.2910003662109
 30
-24.49699974060059
 70
   192
  0
VERTEX
  5
132
  8
0
 10
71.5
 20
-119.2910003662109
 30
-24.49699974060059
 70
   192
  0
VERTEX
  5
133
  8
0
 10
74.4000015258789
 20
-129.6109924316406
 30
-17.37400054931641
 70
   192
  0
VERTEX
  5
134
  8
0
 10
71.5
 20
-129.6109924316406
 30
-17.37400054931641
 70
   192
  0
VERTEX
  5
135
  8
0
 10
74.4000015258789
 20
-135.4389953613281
 30
-6.269999980926514
 70
   192
  0
VERTEX
  5
136
  8
0
 10
71.5
 20
-135.4389953613281
 30
-6.269999980926514
 70
   192
  0
VERTEX
  5
137
  8
0
 10
71.5
 20
-135.4389953613281
 30
6.269999980926514
 70
   192
  0
VERTEX
  5
138
  8
0
 10
71.5
 20
-129.6109924316406
 30
17.37400054931641
 70
   192
  0
VERTEX
  5
139
  8
0
 10
74.4000015258789
 20
-135.4389953613281
 30
6.269999980926514
 70
   192
  0
VERTEX
  5
13A
  8
0
 10
74.4000015258789
 20
-119.2910003662109
 30
24.49699974060059
 70
   192
  0
VERTEX
  5
13B
  8
0
 10
71.5
 20
-119.2910003662109
 30
24.49699974060059
 70
   192
  0
VERTEX
  5
13C
  8
0
 10
74.4000015258789
 20
-106.8420028686523
 30
26.00900077819824
 70
   192
  0
VERTEX
  5
13D
  8
0
 10
71.5
 20
-106.8420028686523
 30
26.00900077819824
 70
   192
  0
VERTEX
  5
13E
  8
0
 10
71.5
 20
-95.11699676513672
 30
21.5620002746582
 70
   192
  0
VERTEX
  5
13F
  8
0
 10
74.4000015258789
 20
-95.11699676513672
 30
21.5620002746582
 70
   192
  0
VERTEX
  5
140
  8
0
 10
74.4000015258789
 20
-86.8010025024414
 30
12.17599964141846
 70
   192
  0
VERTEX
  5
141
  8
0
 10
71.5
 20
-86.8010025024414
 30
12.17599964141846
 70
   192
  0
VERTEX
  5
142
  8
0
 10
74.4000015258789
 20
-129.6109924316406
 30
17.37400054931641
 70
   192
  0
VERTEX
  5
143
  8
0
 10
74.4000015258789
 20
-106.8420028686523
 30
-26.00900077819824
 70
   192
  0
VERTEX
  5
144
  8
0
 62
     9
 10
0.0
 20
0.0
 30
0.0
 70
   128
 71
     3
 72
     2
 73
     1
  0
VERTEX
  5
145
  8
0
 62
     9
 10
0.0
 20
0.0
 30
0.0
 70
   128
 71
     6
 72
     5
 73
     4
  0
VERTEX
  5
146
  8
0
 62
     9
 10
0.0
 20
0.0
 30
0.0
 70
   128
 71
     4
 72
     5
 73
     7
  0
VERTEX
  5
147
  8
0
 62
     9
 10
0.0
 20
0.0
 30
0.0
 70
   128
 71
     7
 72
     9
 73
     8
  0
VERTEX
  5
148
  8
0
 62
     9
 10
0.0
 20
0.0
 30
0.0
 70
   128
 71
     9
 72
    11
 73
    10
  0
VERTEX
  5
149
  8
0
 62
     9
 10
0.0
 20
0.0
 30
0.0
 70
   128
 71
    13
 72
    12
 73
    10
  0
VERTEX
  5
14A
  8
0
 62
     9
 10
0.0
 20
0.0
 30
0.0
 70
   128
 71
    12
 72
    13
 73
    14
  0
VERTEX
  5
14B
  8
0
 62
     9
 10
0.0
 20
0.0
 30
0.0
 70
   128
 71
    16
 72
    14
 73
    15
  0
VERTEX
  5
14C
  8
0
 62
     9
 10
0.0
 20
0.0
 30
0.0
 70
   128
 71
    15
 72
    18
 73
    17
  0
VERTEX
  5
14D
  8
0
 62
     9
 10
0.0
 20
0.0
 30
0.0
 70
   128
 71
    18
 72
    20
 73
    19
  0
VERTEX
  5
14E
  8
0
 62
     9
 10
0.0
 20
0.0
 30
0.0
 70
   128
 71
    19
 72
    20
 73
    21
  0
VERTEX
  5
14F
  8
0
 62
     9
 10
0.0
 20
0.0
 30
0.0
 70
   128
 71
    23
 72
    22
 73
    21
  0
VERTEX
  5
150
  8
0
 62
     9
 10
0.0
 20
0.0
 30
0.0
 70
   128
 71
    24
 72
     1
 73
     2
  0
VERTEX
  5
151
  8
0
 62
     9
 10
0.0
 20
0.0
 30
0.0
 70
   128
 71
     2
 72
    23
 73
    24
  0
VERTEX
  5
152
  8
0
 62
     9
 10
0.0
 20
0.0
 30
0.0
 70
   128
 71
    21
 72
    24
 73
    23
  0
VERTEX
  5
153
  8
0
 62
     9
 10
0.0
 20
0.0
 30
0.0
 70
   128
 71
    21
 72
    22
 73
    19
  0
VERTEX
  5
154
  8
0
 62
     9
 10
0.0
 20
0.0
 30
0.0
 70
   128
 71
    19
 72
    17
 73
    18
  0
VERTEX
  5
155
  8
0
 62
     9
 10
0.0
 20
0.0
 30
0.0
 70
   128
 71
    17
 72
    25
 73
    15
  0
VERTEX
  5
156
  8
0
 62
     9
 10
0.0
 20
0.0
 30
0.0
 70
   128
 71
    15
 72
    25
 73
    16
  0
VERTEX
  5
157
  8
0
 62
     9
 10
0.0
 20
0.0
 30
0.0
 70
   128
 71
    14
 72
    16
 73
    12
  0
VERTEX
  5
158
  8
0
 62
     9
 10
0.0
 20
0.0
 30
0.0
 70
   128
 71
    10
 72
    11
 73
    13
  0
VERTEX
  5
159
  8
0
 62
     9
 10
0.0
 20
0.0
 30
0.0
 70
   128
 71
    10
 72
     8
 73
     9
  0
VERTEX
  5
15A
  8
0
 62
     9
 10
0.0
 20
0.0
 30
0.0
 70
   128
 71
     8
 72
    26
 73
     7
  0
VERTEX
  5
15B
  8
0
 62
     9
 10
0.0
 20
0.0
 30
0.0
 70
   128
 71
     7
 72
    26
 73
     4
  0
VERTEX
  5
15C
  8
0
 62
     9
 10
0.0
 20
0.0
 30
0.0
 70
   128
 71
     4
 72
     3
 73
     6
  0
VERTEX
  5
15D
  8
0
 62
     9
 10
0.0
 20
0.0
 30
0.0
 70
   128
 71
     1
 72
     6
 73
     3
  0
SEQEND
  5
15E
  8
0
 62
     9
  0
ENDBLK
  5
161
  8
0
  0
BLOCK
  8
0
  2
E3_NODE_16_
 70
     0
 10
0.0
 20
0.0
 30
0.0
  3
E3_NODE_16_
  1

  0
POLYLINE
  5
163
  8
0
 62
     9
 66
     1
 10
0.0
 20
0.0
 30
0.0
 70
    64
 71
    13
 72
    11
  0
VERTEX
  5
164
  8
0
 10
74.4000015258789
 20
-106.8420028686523
 30
-26.00900077819824
 70
   192
  0
VERTEX
  5
165
  8
0
 10
74.4000015258789
 20
-135.4389953613281
 30
-6.269999980926514
 70
   192
  0
VERTEX
  5
166
  8
0
 10
74.4000015258789
 20
-129.6109924316406
 30
-17.37400054931641
 70
   192
  0
VERTEX
  5
167
  8
0
 10
74.4000015258789
 20
-135.4389953613281
 30
6.269999980926514
 70
   192
  0
VERTEX
  5
168
  8
0
 10
74.4000015258789
 20
-86.8010025024414
 30
12.17599964141846
 70
   192
  0
VERTEX
  5
169
  8
0
 10
74.4000015258789
 20
-106.8420028686523
 30
26.00900077819824
 70
   192
  0
VERTEX
  5
16A
  8
0
 10
74.4000015258789
 20
-119.2910003662109
 30
24.49699974060059
 70
   192
  0
VERTEX
  5
16B
  8
0
 10
74.4000015258789
 20
-129.6109924316406
 30
17.37400054931641
 70
   192
  0
VERTEX
  5
16C
  8
0
 10
74.4000015258789
 20
-95.11699676513672
 30
-21.5620002746582
 70
   192
  0
VERTEX
  5
16D
  8
0
 10
74.4000015258789
 20
-95.11699676513672
 30
21.5620002746582
 70
   192
  0
VERTEX
  5
16E
  8
0
 10
74.4000015258789
 20
-86.8010025024414
 30
-12.17599964141846
 70
   192
  0
VERTEX
  5
16F
  8
0
 10
74.4000015258789
 20
-83.80000305175781
 30
0.0
 70
   192
  0
VERTEX
  5
170
  8
0
 10
74.4000015258789
 20
-119.2910003662109
 30
-24.49699974060059
 70
   192
  0
VERTEX
  5
171
  8
0
 62
     9
 10
0.0
 20
0.0
 30
0.0
 70
   128
 71
     3
 72
     2
 73
     1
  0
VERTEX
  5
172
  8
0
 62
     9
 10
0.0
 20
0.0
 30
0.0
 70
   128
 71
     2
 72
     4
 73
     1
  0
VERTEX
  5
173
  8
0
 62
     9
 10
0.0
 20
0.0
 30
0.0
 70
   128
 71
     7
 72
     6
 73
     5
  0
VERTEX
  5
174
  8
0
 62
     9
 10
0.0
 20
0.0
 30
0.0
 70
   128
 71
     9
 72
     1
 73
     8
  0
VERTEX
  5
175
  8
0
 62
     9
 10
0.0
 20
0.0
 30
0.0
 70
   128
 71
     4
 72
     8
 73
     1
  0
VERTEX
  5
176
  8
0
 62
     9
 10
0.0
 20
0.0
 30
0.0
 70
   128
 71
     6
 72
    10
 73
     5
  0
VERTEX
  5
177
  8
0
 62
     9
 10
0.0
 20
0.0
 30
0.0
 70
   128
 71
    12
 72
    11
 73
     8
  0
VERTEX
  5
178
  8
0
 62
     9
 10
0.0
 20
0.0
 30
0.0
 70
   128
 71
     1
 72
    13
 73
     3
  0
VERTEX
  5
179
  8
0
 62
     9
 10
0.0
 20
0.0
 30
0.0
 70
   128
 71
     8
 72
     5
 73
    12
  0
VERTEX
  5
17A
  8
0
 62
     9
 10
0.0
 20
0.0
 30
0.0
 70
   128
 71
     5
 72
     8
 73
     7
  0
VERTEX
  5
17B
  8
0
 62
     9
 10
0.0
 20
0.0
 30
0.0
 70
   128
 71
     8
 72
    11
 73
     9
  0
SEQEND
  5
17C
  8
0
 62
     9
  0
ENDBLK
  5
17F
  8
0
  0
BLOCK
  8
0
  2
E3_NODE_17_
 70
     0
 10
0.0
 20
0.0
 30
0.0
  3
E3_NODE_17_
  1

  0
POLYLINE
  5
181
  8
0
 62
     9
 66
     1
 10
0.0
 20
0.0
 30
0.0
 70
    64
 71
    26
 72
    26
  0
VERTEX
  5
182
  8
0
 10
67.3949966430664
 20
-23.14299964904785
 30
12.14700031280518
 70
   192
  0
VERTEX
  5
183
  8
0
 10
67.3949966430664
 20
-26.13699913024902
 30
0.0
 70
   192
  0
VERTEX
  5
184
  8
0
 10
90.00299835205078
 20
-25.94000053405762
 30
0.0
 70
   192
  0
VERTEX
  5
185
  8
0
 10
90.00299835205078
 20
-22.9689998626709
 30
12.05500030517578
 70
   192
  0
VERTEX
  5
186
  8
0
 10
90.00299835205078
 20
-14.73499965667725
 30
21.34799957275391
 70
   192
  0
VERTEX
  5
187
  8
0
 10
67.3949966430664
 20
-14.84799957275391
 30
21.51000022888184
 70
   192
  0
VERTEX
  5
188
  8
0
 10
90.00299835205078
 20
-3.127000093460083
 30
25.75099945068359
 70
   192
  0
VERTEX
  5
189
  8
0
 10
67.3949966430664
 20
-3.150000095367432
 30
25.94700050354004
 70
   192
  0
VERTEX
  5
18A
  8
0
 10
90.00299835205078
 20
9.197999954223633
 30
24.25399971008301
 70
   192
  0
VERTEX
  5
18B
  8
0
 10
67.3949966430664
 20
9.267999649047852
 30
24.43899917602539
 70
   192
  0
VERTEX
  5
18C
  8
0
 10
90.00299835205078
 20
19.41600036621094
 30
17.20100021362305
 70
   192
  0
VERTEX
  5
18D
  8
0
 10
67.3949966430664
 20
19.56399917602539
 30
17.33200073242188
 70
   192
  0
VERTEX
  5
18E
  8
0
 10
90.00299835205078
 20
25.18600082397461
 30
6.208000183105469
 70
   192
  0
VERTEX
  5
18F
  8
0
 10
67.3949966430664
 20
25.37800025939941
 30
-6.255000114440918
 70
   192
  0
VERTEX
  5
190
  8
0
 10
67.3949966430664
 20
25.37800025939941
 30
6.255000114440918
 70
   192
  0
VERTEX
  5
191
  8
0
 10
67.3949966430664
 20
19.56399917602539
 30
-17.33200073242188
 70
   192
  0
VERTEX
  5
192
  8
0
 10
90.00299835205078
 20
25.18600082397461
 30
-6.208000183105469
 70
   192
  0
VERTEX
  5
193
  8
0
 10
67.3949966430664
 20
9.267999649047852
 30
-24.43899917602539
 70
   192
  0
VERTEX
  5
194
  8
0
 10
90.00299835205078
 20
19.41600036621094
 30
-17.20100021362305
 70
   192
  0
VERTEX
  5
195
  8
0
 10
67.3949966430664
 20
-3.150000095367432
 30
-25.94700050354004
 70
   192
  0
VERTEX
  5
196
  8
0
 10
90.00299835205078
 20
9.197999954223633
 30
-24.25399971008301
 70
   192
  0
VERTEX
  5
197
  8
0
 10
67.3949966430664
 20
-14.84799957275391
 30
-21.51000022888184
 70
   192
  0
VERTEX
  5
198
  8
0
 10
90.00299835205078
 20
-3.127000093460083
 30
-25.75099945068359
 70
   192
  0
VERTEX
  5
199
  8
0
 10
67.3949966430664
 20
-23.14299964904785
 30
-12.14700031280518
 70
   192
  0
VERTEX
  5
19A
  8
0
 10
90.00299835205078
 20
-14.73499965667725
 30
-21.34799957275391
 70
   192
  0
VERTEX
  5
19B
  8
0
 10
90.00299835205078
 20
-22.9689998626709
 30
-12.05500030517578
 70
   192
  0
VERTEX
  5
19C
  8
0
 62
     9
 10
0.0
 20
0.0
 30
0.0
 70
   128
 71
     3
 72
     2
 73
     1
  0
VERTEX
  5
19D
  8
0
 62
     9
 10
0.0
 20
0.0
 30
0.0
 70
   128
 71
     5
 72
     4
 73
     1
  0
VERTEX
  5
19E
  8
0
 62
     9
 10
0.0
 20
0.0
 30
0.0
 70
   128
 71
     7
 72
     5
 73
     6
  0
VERTEX
  5
19F
  8
0
 62
     9
 10
0.0
 20
0.0
 30
0.0
 70
   128
 71
     9
 72
     7
 73
     8
  0
VERTEX
  5
1A0
  8
0
 62
     9
 10
0.0
 20
0.0
 30
0.0
 70
   128
 71
    11
 72
     9
 73
    10
  0
VERTEX
  5
1A1
  8
0
 62
     9
 10
0.0
 20
0.0
 30
0.0
 70
   128
 71
    13
 72
    11
 73
    12
  0
VERTEX
  5
1A2
  8
0
 62
     9
 10
0.0
 20
0.0
 30
0.0
 70
   128
 71
    13
 72
    15
 73
    14
  0
VERTEX
  5
1A3
  8
0
 62
     9
 10
0.0
 20
0.0
 30
0.0
 70
   128
 71
    17
 72
    14
 73
    16
  0
VERTEX
  5
1A4
  8
0
 62
     9
 10
0.0
 20
0.0
 30
0.0
 70
   128
 71
    19
 72
    16
 73
    18
  0
VERTEX
  5
1A5
  8
0
 62
     9
 10
0.0
 20
0.0
 30
0.0
 70
   128
 71
    21
 72
    18
 73
    20
  0
VERTEX
  5
1A6
  8
0
 62
     9
 10
0.0
 20
0.0
 30
0.0
 70
   128
 71
    23
 72
    20
 73
    22
  0
VERTEX
  5
1A7
  8
0
 62
     9
 10
0.0
 20
0.0
 30
0.0
 70
   128
 71
    25
 72
    22
 73
    24
  0
VERTEX
  5
1A8
  8
0
 62
     9
 10
0.0
 20
0.0
 30
0.0
 70
   128
 71
    26
 72
    24
 73
     2
  0
VERTEX
  5
1A9
  8
0
 62
     9
 10
0.0
 20
0.0
 30
0.0
 70
   128
 71
     2
 72
     3
 73
    26
  0
VERTEX
  5
1AA
  8
0
 62
     9
 10
0.0
 20
0.0
 30
0.0
 70
   128
 71
    24
 72
    26
 73
    25
  0
VERTEX
  5
1AB
  8
0
 62
     9
 10
0.0
 20
0.0
 30
0.0
 70
   128
 71
    22
 72
    25
 73
    23
  0
VERTEX
  5
1AC
  8
0
 62
     9
 10
0.0
 20
0.0
 30
0.0
 70
   128
 71
    20
 72
    23
 73
    21
  0
VERTEX
  5
1AD
  8
0
 62
     9
 10
0.0
 20
0.0
 30
0.0
 70
   128
 71
    18
 72
    21
 73
    19
  0
VERTEX
  5
1AE
  8
0
 62
     9
 10
0.0
 20
0.0
 30
0.0
 70
   128
 71
    16
 72
    19
 73
    17
  0
VERTEX
  5
1AF
  8
0
 62
     9
 10
0.0
 20
0.0
 30
0.0
 70
   128
 71
    14
 72
    17
 73
    13
  0
VERTEX
  5
1B0
  8
0
 62
     9
 10
0.0
 20
0.0
 30
0.0
 70
   128
 71
    12
 72
    15
 73
    13
  0
VERTEX
  5
1B1
  8
0
 62
     9
 10
0.0
 20
0.0
 30
0.0
 70
   128
 71
    10
 72
    12
 73
    11
  0
VERTEX
  5
1B2
  8
0
 62
     9
 10
0.0
 20
0.0
 30
0.0
 70
   128
 71
     8
 72
    10
 73
     9
  0
VERTEX
  5
1B3
  8
0
 62
     9
 10
0.0
 20
0.0
 30
0.0
 70
   128
 71
     6
 72
     8
 73
     7
  0
VERTEX
  5
1B4
  8
0
 62
     9
 10
0.0
 20
0.0
 30
0.0
 70
   128
 71
     1
 72
     6
 73
     5
  0
VERTEX
  5
1B5
  8
0
 62
     9
 10
0.0
 20
0.0
 30
0.0
 70
   128
 71
     1
 72
     4
 73
     3
  0
SEQEND
  5
1B6
  8
0
 62
     9
  0
ENDBLK
  5
1B9
  8
0
  0
BLOCK
  8
0
  2
E3_NODE_18_
 70
     0
 10
0.0
 20
0.0
 30
0.0
  3
E3_NODE_18_
  1

  0
POLYLINE
  5
1BB
  8
0
 62
     9
 66
     1
 10
0.0
 20
0.0
 30
0.0
 70
    64
 71
    31
 72
    31
  0
VERTEX
  5
1BC
  8
0
 10
90.00299835205078
 20
19.41600036621094
 30
17.20100021362305
 70
   192
  0
VERTEX
  5
1BD
  8
0
 10
90.00299835205078
 20
9.197999954223633
 30
24.25399971008301
 70
   192
  0
VERTEX
  5
1BE
  8
0
 10
90.00299835205078
 20
12.13500022888184
 30
21.01799964904785
 70
   192
  0
VERTEX
  5
1BF
  8
0
 10
90.00299835205078
 20
-3.127000093460083
 30
25.75099945068359
 70
   192
  0
VERTEX
  5
1C0
  8
0
 10
90.00299835205078
 20
-4.214000225067139
 30
23.90099906921387
 70
   192
  0
VERTEX
  5
1C1
  8
0
 10
90.00299835205078
 20
4.214000225067139
 30
23.90099906921387
 70
   192
  0
VERTEX
  5
1C2
  8
0
 10
90.00299835205078
 20
-14.73499965667725
 30
21.34799957275391
 70
   192
  0
VERTEX
  5
1C3
  8
0
 10
90.00299835205078
 20
-12.13500022888184
 30
21.01799964904785
 70
   192
  0
VERTEX
  5
1C4
  8
0
 10
90.00299835205078
 20
-14.73499965667725
 30
-21.34799957275391
 70
   192
  0
VERTEX
  5
1C5
  8
0
 10
90.00299835205078
 20
-12.13500022888184
 30
-21.01799964904785
 70
   192
  0
VERTEX
  5
1C6
  8
0
 10
90.00299835205078
 20
-18.59099960327148
 30
-15.60000038146973
 70
   192
  0
VERTEX
  5
1C7
  8
0
 10
90.00299835205078
 20
-3.127000093460083
 30
-25.75099945068359
 70
   192
  0
VERTEX
  5
1C8
  8
0
 10
90.00299835205078
 20
9.197999954223633
 30
-24.25399971008301
 70
   192
  0
VERTEX
  5
1C9
  8
0
 10
90.00299835205078
 20
4.214000225067139
 30
-23.90099906921387
 70
   192
  0
VERTEX
  5
1CA
  8
0
 10
90.00299835205078
 20
-22.9689998626709
 30
12.05500030517578
 70
   192
  0
VERTEX
  5
1CB
  8
0
 10
90.00299835205078
 20
-18.59099960327148
 30
15.60000038146973
 70
   192
  0
VERTEX
  5
1CC
  8
0
 10
90.00299835205078
 20
-22.9689998626709
 30
-12.05500030517578
 70
   192
  0
VERTEX
  5
1CD
  8
0
 10
90.00299835205078
 20
-4.214000225067139
 30
-23.90099906921387
 70
   192
  0
VERTEX
  5
1CE
  8
0
 10
90.00299835205078
 20
12.13500022888184
 30
-21.01799964904785
 70
   192
  0
VERTEX
  5
1CF
  8
0
 10
90.00299835205078
 20
19.41600036621094
 30
-17.20100021362305
 70
   192
  0
VERTEX
  5
1D0
  8
0
 10
90.00299835205078
 20
18.59099960327148
 30
-15.60000038146973
 70
   192
  0
VERTEX
  5
1D1
  8
0
 10
90.00299835205078
 20
-22.80599975585938
 30
8.300999641418457
 70
   192
  0
VERTEX
  5
1D2
  8
0
 10
90.00299835205078
 20
-25.94000053405762
 30
0.0
 70
   192
  0
VERTEX
  5
1D3
  8
0
 10
90.00299835205078
 20
-24.26899909973145
 30
0.0
 70
   192
  0
VERTEX
  5
1D4
  8
0
 10
90.00299835205078
 20
25.18600082397461
 30
-6.208000183105469
 70
   192
  0
VERTEX
  5
1D5
  8
0
 10
90.00299835205078
 20
22.80599975585938
 30
-8.300999641418457
 70
   192
  0
VERTEX
  5
1D6
  8
0
 10
90.00299835205078
 20
-22.80599975585938
 30
-8.300999641418457
 70
   192
  0
VERTEX
  5
1D7
  8
0
 10
90.00299835205078
 20
25.18600082397461
 30
6.208000183105469
 70
   192
  0
VERTEX
  5
1D8
  8
0
 10
90.00299835205078
 20
22.80599975585938
 30
8.300999641418457
 70
   192
  0
VERTEX
  5
1D9
  8
0
 10
90.00299835205078
 20
24.26899909973145
 30
0.0
 70
   192
  0
VERTEX
  5
1DA
  8
0
 10
90.00299835205078
 20
18.59099960327148
 30
15.60000038146973
 70
   192
  0
VERTEX
  5
1DB
  8
0
 62
     9
 10
0.0
 20
0.0
 30
0.0
 70
   128
 71
     3
 72
     2
 73
     1
  0
VERTEX
  5
1DC
  8
0
 62
     9
 10
0.0
 20
0.0
 30
0.0
 70
   128
 71
     6
 72
     5
 73
     4
  0
VERTEX
  5
1DD
  8
0
 62
     9
 10
0.0
 20
0.0
 30
0.0
 70
   128
 71
     8
 72
     7
 73
     4
  0
VERTEX
  5
1DE
  8
0
 62
     9
 10
0.0
 20
0.0
 30
0.0
 70
   128
 71
    11
 72
    10
 73
     9
  0
VERTEX
  5
1DF
  8
0
 62
     9
 10
0.0
 20
0.0
 30
0.0
 70
   128
 71
    14
 72
    13
 73
    12
  0
VERTEX
  5
1E0
  8
0
 62
     9
 10
0.0
 20
0.0
 30
0.0
 70
   128
 71
     3
 72
     6
 73
     2
  0
VERTEX
  5
1E1
  8
0
 62
     9
 10
0.0
 20
0.0
 30
0.0
 70
   128
 71
     4
 72
     5
 73
     8
  0
VERTEX
  5
1E2
  8
0
 62
     9
 10
0.0
 20
0.0
 30
0.0
 70
   128
 71
    16
 72
    15
 73
     7
  0
VERTEX
  5
1E3
  8
0
 62
     9
 10
0.0
 20
0.0
 30
0.0
 70
   128
 71
     9
 72
    17
 73
    11
  0
VERTEX
  5
1E4
  8
0
 62
     9
 10
0.0
 20
0.0
 30
0.0
 70
   128
 71
    10
 72
    18
 73
    12
  0
VERTEX
  5
1E5
  8
0
 62
     9
 10
0.0
 20
0.0
 30
0.0
 70
   128
 71
    14
 72
    19
 73
    13
  0
VERTEX
  5
1E6
  8
0
 62
     9
 10
0.0
 20
0.0
 30
0.0
 70
   128
 71
    19
 72
    21
 73
    20
  0
VERTEX
  5
1E7
  8
0
 62
     9
 10
0.0
 20
0.0
 30
0.0
 70
   128
 71
     4
 72
     2
 73
     6
  0
VERTEX
  5
1E8
  8
0
 62
     9
 10
0.0
 20
0.0
 30
0.0
 70
   128
 71
    16
 72
    22
 73
    15
  0
VERTEX
  5
1E9
  8
0
 62
     9
 10
0.0
 20
0.0
 30
0.0
 70
   128
 71
    12
 72
     9
 73
    10
  0
VERTEX
  5
1EA
  8
0
 62
     9
 10
0.0
 20
0.0
 30
0.0
 70
   128
 71
    20
 72
    13
 73
    19
  0
VERTEX
  5
1EB
  8
0
 62
     9
 10
0.0
 20
0.0
 30
0.0
 70
   128
 71
     7
 72
     8
 73
    16
  0
VERTEX
  5
1EC
  8
0
 62
     9
 10
0.0
 20
0.0
 30
0.0
 70
   128
 71
    22
 72
    24
 73
    23
  0
VERTEX
  5
1ED
  8
0
 62
     9
 10
0.0
 20
0.0
 30
0.0
 70
   128
 71
    12
 72
    18
 73
    14
  0
VERTEX
  5
1EE
  8
0
 62
     9
 10
0.0
 20
0.0
 30
0.0
 70
   128
 71
    26
 72
    25
 73
    20
  0
VERTEX
  5
1EF
  8
0
 62
     9
 10
0.0
 20
0.0
 30
0.0
 70
   128
 71
    23
 72
    15
 73
    22
  0
VERTEX
  5
1F0
  8
0
 62
     9
 10
0.0
 20
0.0
 30
0.0
 70
   128
 71
    27
 72
    17
 73
    23
  0
VERTEX
  5
1F1
  8
0
 62
     9
 10
0.0
 20
0.0
 30
0.0
 70
   128
 71
    20
 72
    21
 73
    26
  0
VERTEX
  5
1F2
  8
0
 62
     9
 10
0.0
 20
0.0
 30
0.0
 70
   128
 71
    30
 72
    29
 73
    28
  0
VERTEX
  5
1F3
  8
0
 62
     9
 10
0.0
 20
0.0
 30
0.0
 70
   128
 71
    29
 72
    31
 73
     1
  0
VERTEX
  5
1F4
  8
0
 62
     9
 10
0.0
 20
0.0
 30
0.0
 70
   128
 71
    23
 72
    24
 73
    27
  0
VERTEX
  5
1F5
  8
0
 62
     9
 10
0.0
 20
0.0
 30
0.0
 70
   128
 71
    26
 72
    30
 73
    25
  0
VERTEX
  5
1F6
  8
0
 62
     9
 10
0.0
 20
0.0
 30
0.0
 70
   128
 71
     1
 72
    28
 73
    29
  0
VERTEX
  5
1F7
  8
0
 62
     9
 10
0.0
 20
0.0
 30
0.0
 70
   128
 71
    17
 72
    27
 73
    11
  0
VERTEX
  5
1F8
  8
0
 62
     9
 10
0.0
 20
0.0
 30
0.0
 70
   128
 71
     1
 72
    31
 73
     3
  0
VERTEX
  5
1F9
  8
0
 62
     9
 10
0.0
 20
0.0
 30
0.0
 70
   128
 71
    28
 72
    25
 73
    30
  0
SEQEND
  5
1FA
  8
0
 62
     9
  0
ENDBLK
  5
1FD
  8
0
  0
BLOCK
  8
0
  2
E3_NODE_19_
 70
     0
 10
0.0
 20
0.0
 30
0.0
  3
E3_NODE_19_
  1

  0
POLYLINE
  5
1FF
  8
0
 62
     9
 66
     1
 10
0.0
 20
0.0
 30
0.0
 70
    64
 71
    54
 72
    72
  0
VERTEX
  5
200
  8
0
 10
97.80500030517578
 20
-20.84499931335449
 30
0.0
 70
   192
  0
VERTEX
  5
201
  8
0
 10
104.0029983520508
 20
-15.0
 30
0.0
 70
   192
  0
VERTEX
  5
202
  8
0
 10
104.0029983520508
 20
-14.09500026702881
 30
5.130000114440918
 70
   192
  0
VERTEX
  5
203
  8
0
 10
97.80500030517578
 20
-19.58799934387207
 30
7.129000186920166
 70
   192
  0
VERTEX
  5
204
  8
0
 10
104.0029983520508
 20
-11.49100017547607
 30
9.642000198364258
 70
   192
  0
VERTEX
  5
205
  8
0
 10
97.80500030517578
 20
-15.9680004119873
 30
13.39900016784668
 70
   192
  0
VERTEX
  5
206
  8
0
 10
104.0029983520508
 20
-7.5
 30
12.98999977111816
 70
   192
  0
VERTEX
  5
207
  8
0
 10
97.80500030517578
 20
-10.42300033569336
 30
18.05200004577637
 70
   192
  0
VERTEX
  5
208
  8
0
 10
104.0029983520508
 20
-2.605000019073486
 30
14.77200031280518
 70
   192
  0
VERTEX
  5
209
  8
0
 10
97.80500030517578
 20
-3.619999885559082
 30
20.52799987792969
 70
   192
  0
VERTEX
  5
20A
  8
0
 10
104.0029983520508
 20
2.605000019073486
 30
14.77200031280518
 70
   192
  0
VERTEX
  5
20B
  8
0
 10
97.80500030517578
 20
3.619999885559082
 30
20.52799987792969
 70
   192
  0
VERTEX
  5
20C
  8
0
 10
104.0029983520508
 20
7.5
 30
12.98999977111816
 70
   192
  0
VERTEX
  5
20D
  8
0
 10
97.80500030517578
 20
15.9680004119873
 30
13.39900016784668
 70
   192
  0
VERTEX
  5
20E
  8
0
 10
97.80500030517578
 20
10.42300033569336
 30
18.05200004577637
 70
   192
  0
VERTEX
  5
20F
  8
0
 10
104.0029983520508
 20
11.49100017547607
 30
9.642000198364258
 70
   192
  0
VERTEX
  5
210
  8
0
 10
104.0029983520508
 20
14.09500026702881
 30
5.130000114440918
 70
   192
  0
VERTEX
  5
211
  8
0
 10
97.80500030517578
 20
20.84499931335449
 30
0.0
 70
   192
  0
VERTEX
  5
212
  8
0
 10
97.80500030517578
 20
19.58799934387207
 30
7.129000186920166
 70
   192
  0
VERTEX
  5
213
  8
0
 10
104.0029983520508
 20
15.0
 30
0.0
 70
   192
  0
VERTEX
  5
214
  8
0
 10
104.0029983520508
 20
14.09500026702881
 30
-5.130000114440918
 70
   192
  0
VERTEX
  5
215
  8
0
 10
97.80500030517578
 20
19.58799934387207
 30
-7.129000186920166
 70
   192
  0
VERTEX
  5
216
  8
0
 10
104.0029983520508
 20
11.49100017547607
 30
-9.642000198364258
 70
   192
  0
VERTEX
  5
217
  8
0
 10
97.80500030517578
 20
15.9680004119873
 30
-13.39900016784668
 70
   192
  0
VERTEX
  5
218
  8
0
 10
104.0029983520508
 20
7.5
 30
-12.98999977111816
 70
   192
  0
VERTEX
  5
219
  8
0
 10
97.80500030517578
 20
3.619999885559082
 30
-20.52799987792969
 70
   192
  0
VERTEX
  5
21A
  8
0
 10
97.80500030517578
 20
10.42300033569336
 30
-18.05200004577637
 70
   192
  0
VERTEX
  5
21B
  8
0
 10
104.0029983520508
 20
2.605000019073486
 30
-14.77200031280518
 70
   192
  0
VERTEX
  5
21C
  8
0
 10
104.0029983520508
 20
-2.605000019073486
 30
-14.77200031280518
 70
   192
  0
VERTEX
  5
21D
  8
0
 10
97.80500030517578
 20
-10.42300033569336
 30
-18.05200004577637
 70
   192
  0
VERTEX
  5
21E
  8
0
 10
97.80500030517578
 20
-3.619999885559082
 30
-20.52799987792969
 70
   192
  0
VERTEX
  5
21F
  8
0
 10
104.0029983520508
 20
-7.5
 30
-12.98999977111816
 70
   192
  0
VERTEX
  5
220
  8
0
 10
104.0029983520508
 20
-11.49100017547607
 30
-9.642000198364258
 70
   192
  0
VERTEX
  5
221
  8
0
 10
97.80500030517578
 20
-15.9680004119873
 30
-13.39900016784668
 70
   192
  0
VERTEX
  5
222
  8
0
 10
104.0029983520508
 20
-14.09500026702881
 30
-5.130000114440918
 70
   192
  0
VERTEX
  5
223
  8
0
 10
97.80500030517578
 20
-19.58799934387207
 30
-7.129000186920166
 70
   192
  0
VERTEX
  5
224
  8
0
 10
90.00299835205078
 20
-24.26899909973145
 30
0.0
 70
   192
  0
VERTEX
  5
225
  8
0
 10
90.00299835205078
 20
-22.80599975585938
 30
8.300999641418457
 70
   192
  0
VERTEX
  5
226
  8
0
 10
90.00299835205078
 20
-12.13500022888184
 30
21.01799964904785
 70
   192
  0
VERTEX
  5
227
  8
0
 10
90.00299835205078
 20
-18.59099960327148
 30
15.60000038146973
 70
   192
  0
VERTEX
  5
228
  8
0
 10
90.00299835205078
 20
-4.214000225067139
 30
23.90099906921387
 70
   192
  0
VERTEX
  5
229
  8
0
 10
90.00299835205078
 20
12.13500022888184
 30
21.01799964904785
 70
   192
  0
VERTEX
  5
22A
  8
0
 10
90.00299835205078
 20
4.214000225067139
 30
23.90099906921387
 70
   192
  0
VERTEX
  5
22B
  8
0
 10
90.00299835205078
 20
18.59099960327148
 30
15.60000038146973
 70
   192
  0
VERTEX
  5
22C
  8
0
 10
90.00299835205078
 20
24.26899909973145
 30
0.0
 70
   192
  0
VERTEX
  5
22D
  8
0
 10
90.00299835205078
 20
22.80599975585938
 30
8.300999641418457
 70
   192
  0
VERTEX
  5
22E
  8
0
 10
90.00299835205078
 20
22.80599975585938
 30
-8.300999641418457
 70
   192
  0
VERTEX
  5
22F
  8
0
 10
90.00299835205078
 20
18.59099960327148
 30
-15.60000038146973
 70
   192
  0
VERTEX
  5
230
  8
0
 10
90.00299835205078
 20
12.13500022888184
 30
-21.01799964904785
 70
   192
  0
VERTEX
  5
231
  8
0
 10
90.00299835205078
 20
4.214000225067139
 30
-23.90099906921387
 70
   192
  0
VERTEX
  5
232
  8
0
 10
90.00299835205078
 20
-4.214000225067139
 30
-23.90099906921387
 70
   192
  0
VERTEX
  5
233
  8
0
 10
90.00299835205078
 20
-12.13500022888184
 30
-21.01799964904785
 70
   192
  0
VERTEX
  5
234
  8
0
 10
90.00299835205078
 20
-18.59099960327148
 30
-15.60000038146973
 70
   192
  0
VERTEX
  5
235
  8
0
 10
90.00299835205078
 20
-22.80599975585938
 30
-8.300999641418457
 70
   192
  0
VERTEX
  5
236
  8
0
 62
     9
 10
0.0
 20
0.0
 30
0.0
 70
   128
 71
     3
 72
     2
 73
     1
  0
VERTEX
  5
237
  8
0
 62
     9
 10
0.0
 20
0.0
 30
0.0
 70
   128
 71
     5
 72
     3
 73
     4
  0
VERTEX
  5
238
  8
0
 62
     9
 10
0.0
 20
0.0
 30
0.0
 70
   128
 71
     7
 72
     5
 73
     6
  0
VERTEX
  5
239
  8
0
 62
     9
 10
0.0
 20
0.0
 30
0.0
 70
   128
 71
     9
 72
     7
 73
     8
  0
VERTEX
  5
23A
  8
0
 62
     9
 10
0.0
 20
0.0
 30
0.0
 70
   128
 71
    11
 72
     9
 73
    10
  0
VERTEX
  5
23B
  8
0
 62
     9
 10
0.0
 20
0.0
 30
0.0
 70
   128
 71
    13
 72
    11
 73
    12
  0
VERTEX
  5
23C
  8
0
 62
     9
 10
0.0
 20
0.0
 30
0.0
 70
   128
 71
    13
 72
    15
 73
    14
  0
VERTEX
  5
23D
  8
0
 62
     9
 10
0.0
 20
0.0
 30
0.0
 70
   128
 71
    17
 72
    16
 73
    14
  0
VERTEX
  5
23E
  8
0
 62
     9
 10
0.0
 20
0.0
 30
0.0
 70
   128
 71
    17
 72
    19
 73
    18
  0
VERTEX
  5
23F
  8
0
 62
     9
 10
0.0
 20
0.0
 30
0.0
 70
   128
 71
    21
 72
    20
 73
    18
  0
VERTEX
  5
240
  8
0
 62
     9
 10
0.0
 20
0.0
 30
0.0
 70
   128
 71
    23
 72
    21
 73
    22
  0
VERTEX
  5
241
  8
0
 62
     9
 10
0.0
 20
0.0
 30
0.0
 70
   128
 71
    25
 72
    23
 73
    24
  0
VERTEX
  5
242
  8
0
 62
     9
 10
0.0
 20
0.0
 30
0.0
 70
   128
 71
    25
 72
    27
 73
    26
  0
VERTEX
  5
243
  8
0
 62
     9
 10
0.0
 20
0.0
 30
0.0
 70
   128
 71
    29
 72
    28
 73
    26
  0
VERTEX
  5
244
  8
0
 62
     9
 10
0.0
 20
0.0
 30
0.0
 70
   128
 71
    29
 72
    31
 73
    30
  0
VERTEX
  5
245
  8
0
 62
     9
 10
0.0
 20
0.0
 30
0.0
 70
   128
 71
    33
 72
    32
 73
    30
  0
VERTEX
  5
246
  8
0
 62
     9
 10
0.0
 20
0.0
 30
0.0
 70
   128
 71
    35
 72
    33
 73
    34
  0
VERTEX
  5
247
  8
0
 62
     9
 10
0.0
 20
0.0
 30
0.0
 70
   128
 71
    35
 72
    36
 73
     1
  0
VERTEX
  5
248
  8
0
 62
     9
 10
0.0
 20
0.0
 30
0.0
 70
   128
 71
     4
 72
     1
 73
    37
  0
VERTEX
  5
249
  8
0
 62
     9
 10
0.0
 20
0.0
 30
0.0
 70
   128
 71
     6
 72
     4
 73
    38
  0
VERTEX
  5
24A
  8
0
 62
     9
 10
0.0
 20
0.0
 30
0.0
 70
   128
 71
     6
 72
    40
 73
    39
  0
VERTEX
  5
24B
  8
0
 62
     9
 10
0.0
 20
0.0
 30
0.0
 70
   128
 71
     8
 72
    39
 73
    41
  0
VERTEX
  5
24C
  8
0
 62
     9
 10
0.0
 20
0.0
 30
0.0
 70
   128
 71
    12
 72
    10
 73
    41
  0
VERTEX
  5
24D
  8
0
 62
     9
 10
0.0
 20
0.0
 30
0.0
 70
   128
 71
    12
 72
    43
 73
    42
  0
VERTEX
  5
24E
  8
0
 62
     9
 10
0.0
 20
0.0
 30
0.0
 70
   128
 71
    15
 72
    42
 73
    44
  0
VERTEX
  5
24F
  8
0
 62
     9
 10
0.0
 20
0.0
 30
0.0
 70
   128
 71
    19
 72
    14
 73
    44
  0
VERTEX
  5
250
  8
0
 62
     9
 10
0.0
 20
0.0
 30
0.0
 70
   128
 71
    19
 72
    46
 73
    45
  0
VERTEX
  5
251
  8
0
 62
     9
 10
0.0
 20
0.0
 30
0.0
 70
   128
 71
    18
 72
    45
 73
    47
  0
VERTEX
  5
252
  8
0
 62
     9
 10
0.0
 20
0.0
 30
0.0
 70
   128
 71
    22
 72
    47
 73
    48
  0
VERTEX
  5
253
  8
0
 62
     9
 10
0.0
 20
0.0
 30
0.0
 70
   128
 71
    24
 72
    48
 73
    49
  0
VERTEX
  5
254
  8
0
 62
     9
 10
0.0
 20
0.0
 30
0.0
 70
   128
 71
    27
 72
    49
 73
    50
  0
VERTEX
  5
255
  8
0
 62
     9
 10
0.0
 20
0.0
 30
0.0
 70
   128
 71
    26
 72
    50
 73
    51
  0
VERTEX
  5
256
  8
0
 62
     9
 10
0.0
 20
0.0
 30
0.0
 70
   128
 71
    31
 72
    51
 73
    52
  0
VERTEX
  5
257
  8
0
 62
     9
 10
0.0
 20
0.0
 30
0.0
 70
   128
 71
    30
 72
    52
 73
    53
  0
VERTEX
  5
258
  8
0
 62
     9
 10
0.0
 20
0.0
 30
0.0
 70
   128
 71
    34
 72
    53
 73
    54
  0
VERTEX
  5
259
  8
0
 62
     9
 10
0.0
 20
0.0
 30
0.0
 70
   128
 71
    36
 72
    54
 73
    37
  0
VERTEX
  5
25A
  8
0
 62
     9
 10
0.0
 20
0.0
 30
0.0
 70
   128
 71
    37
 72
     1
 73
    36
  0
VERTEX
  5
25B
  8
0
 62
     9
 10
0.0
 20
0.0
 30
0.0
 70
   128
 71
    54
 72
    36
 73
    34
  0
VERTEX
  5
25C
  8
0
 62
     9
 10
0.0
 20
0.0
 30
0.0
 70
   128
 71
    53
 72
    34
 73
    30
  0
VERTEX
  5
25D
  8
0
 62
     9
 10
0.0
 20
0.0
 30
0.0
 70
   128
 71
    52
 72
    30
 73
    31
  0
VERTEX
  5
25E
  8
0
 62
     9
 10
0.0
 20
0.0
 30
0.0
 70
   128
 71
    51
 72
    31
 73
    26
  0
VERTEX
  5
25F
  8
0
 62
     9
 10
0.0
 20
0.0
 30
0.0
 70
   128
 71
    50
 72
    26
 73
    27
  0
VERTEX
  5
260
  8
0
 62
     9
 10
0.0
 20
0.0
 30
0.0
 70
   128
 71
    49
 72
    27
 73
    24
  0
VERTEX
  5
261
  8
0
 62
     9
 10
0.0
 20
0.0
 30
0.0
 70
   128
 71
    48
 72
    24
 73
    22
  0
VERTEX
  5
262
  8
0
 62
     9
 10
0.0
 20
0.0
 30
0.0
 70
   128
 71
    47
 72
    22
 73
    18
  0
VERTEX
  5
263
  8
0
 62
     9
 10
0.0
 20
0.0
 30
0.0
 70
   128
 71
    45
 72
    18
 73
    19
  0
VERTEX
  5
264
  8
0
 62
     9
 10
0.0
 20
0.0
 30
0.0
 70
   128
 71
    44
 72
    46
 73
    19
  0
VERTEX
  5
265
  8
0
 62
     9
 10
0.0
 20
0.0
 30
0.0
 70
   128
 71
    44
 72
    14
 73
    15
  0
VERTEX
  5
266
  8
0
 62
     9
 10
0.0
 20
0.0
 30
0.0
 70
   128
 71
    42
 72
    15
 73
    12
  0
VERTEX
  5
267
  8
0
 62
     9
 10
0.0
 20
0.0
 30
0.0
 70
   128
 71
    41
 72
    43
 73
    12
  0
VERTEX
  5
268
  8
0
 62
     9
 10
0.0
 20
0.0
 30
0.0
 70
   128
 71
    41
 72
    10
 73
     8
  0
VERTEX
  5
269
  8
0
 62
     9
 10
0.0
 20
0.0
 30
0.0
 70
   128
 71
    39
 72
     8
 73
     6
  0
VERTEX
  5
26A
  8
0
 62
     9
 10
0.0
 20
0.0
 30
0.0
 70
   128
 71
    38
 72
    40
 73
     6
  0
VERTEX
  5
26B
  8
0
 62
     9
 10
0.0
 20
0.0
 30
0.0
 70
   128
 71
    37
 72
    38
 73
     4
  0
VERTEX
  5
26C
  8
0
 62
     9
 10
0.0
 20
0.0
 30
0.0
 70
   128
 71
     1
 72
     2
 73
    35
  0
VERTEX
  5
26D
  8
0
 62
     9
 10
0.0
 20
0.0
 30
0.0
 70
   128
 71
    34
 72
    36
 73
    35
  0
VERTEX
  5
26E
  8
0
 62
     9
 10
0.0
 20
0.0
 30
0.0
 70
   128
 71
    30
 72
    34
 73
    33
  0
VERTEX
  5
26F
  8
0
 62
     9
 10
0.0
 20
0.0
 30
0.0
 70
   128
 71
    30
 72
    32
 73
    29
  0
VERTEX
  5
270
  8
0
 62
     9
 10
0.0
 20
0.0
 30
0.0
 70
   128
 71
    26
 72
    31
 73
    29
  0
VERTEX
  5
271
  8
0
 62
     9
 10
0.0
 20
0.0
 30
0.0
 70
   128
 71
    26
 72
    28
 73
    25
  0
VERTEX
  5
272
  8
0
 62
     9
 10
0.0
 20
0.0
 30
0.0
 70
   128
 71
    24
 72
    27
 73
    25
  0
VERTEX
  5
273
  8
0
 62
     9
 10
0.0
 20
0.0
 30
0.0
 70
   128
 71
    22
 72
    24
 73
    23
  0
VERTEX
  5
274
  8
0
 62
     9
 10
0.0
 20
0.0
 30
0.0
 70
   128
 71
    18
 72
    22
 73
    21
  0
VERTEX
  5
275
  8
0
 62
     9
 10
0.0
 20
0.0
 30
0.0
 70
   128
 71
    18
 72
    20
 73
    17
  0
VERTEX
  5
276
  8
0
 62
     9
 10
0.0
 20
0.0
 30
0.0
 70
   128
 71
    14
 72
    19
 73
    17
  0
VERTEX
  5
277
  8
0
 62
     9
 10
0.0
 20
0.0
 30
0.0
 70
   128
 71
    14
 72
    16
 73
    13
  0
VERTEX
  5
278
  8
0
 62
     9
 10
0.0
 20
0.0
 30
0.0
 70
   128
 71
    12
 72
    15
 73
    13
  0
VERTEX
  5
279
  8
0
 62
     9
 10
0.0
 20
0.0
 30
0.0
 70
   128
 71
    10
 72
    12
 73
    11
  0
VERTEX
  5
27A
  8
0
 62
     9
 10
0.0
 20
0.0
 30
0.0
 70
   128
 71
     8
 72
    10
 73
     9
  0
VERTEX
  5
27B
  8
0
 62
     9
 10
0.0
 20
0.0
 30
0.0
 70
   128
 71
     6
 72
     8
 73
     7
  0
VERTEX
  5
27C
  8
0
 62
     9
 10
0.0
 20
0.0
 30
0.0
 70
   128
 71
     4
 72
     6
 73
     5
  0
VERTEX
  5
27D
  8
0
 62
     9
 10
0.0
 20
0.0
 30
0.0
 70
   128
 71
     1
 72
     4
 73
     3
  0
SEQEND
  5
27E
  8
0
 62
     9
  0
ENDBLK
  5
281
  8
0
  0
BLOCK
  8
0
  2
E3_NODE_20_
 70
     0
 10
0.0
 20
0.0
 30
0.0
  3
E3_NODE_20_
  1

  0
POLYLINE
  5
283
  8
0
 62
     9
 66
     1
 10
0.0
 20
0.0
 30
0.0
 70
    64
 71
    14
 72
    12
  0
VERTEX
  5
284
  8
0
 10
128.2389984130859
 20
6.222000122070312
 30
-24.13299942016602
 70
   192
  0
VERTEX
  5
285
  8
0
 10
127.1920013427734
 20
21.39800071716309
 30
15.86800003051758
 70
   192
  0
VERTEX
  5
286
  8
0
 10
126.9759979248047
 20
12.08300018310547
 30
24.11700057983398
 70
   192
  0
VERTEX
  5
287
  8
0
 10
126.8980026245117
 20
0.0
 30
27.0939998626709
 70
   192
  0
VERTEX
  5
288
  8
0
 10
127.1920013427734
 20
-21.39800071716309
 30
15.86800003051758
 70
   192
  0
VERTEX
  5
289
  8
0
 10
127.4960021972656
 20
-25.80999946594238
 30
4.236000061035156
 70
   192
  0
VERTEX
  5
28A
  8
0
 10
127.4960021972656
 20
25.80999946594238
 30
4.236000061035156
 70
   192
  0
VERTEX
  5
28B
  8
0
 10
128.0879974365234
 20
17.24099922180176
 30
-18.35099983215332
 70
   192
  0
VERTEX
  5
28C
  8
0
 10
127.8199996948242
 20
-24.30999946594238
 30
-8.11299991607666
 70
   192
  0
VERTEX
  5
28D
  8
0
 10
128.0879974365234
 20
-17.24099922180176
 30
-18.35099983215332
 70
   192
  0
VERTEX
  5
28E
  8
0
 10
126.9759979248047
 20
-12.08300018310547
 30
24.11700057983398
 70
   192
  0
VERTEX
  5
28F
  8
0
 10
127.8199996948242
 20
24.30999946594238
 30
-8.11299991607666
 70
   192
  0
VERTEX
  5
290
  8
0
 10
128.2590026855469
 20
0.0
 30
-24.88800048828125
 70
   192
  0
VERTEX
  5
291
  8
0
 10
128.2389984130859
 20
-6.222000122070312
 30
-24.13299942016602
 70
   192
  0
VERTEX
  5
292
  8
0
 62
     9
 10
0.0
 20
0.0
 30
0.0
 70
   128
 71
     3
 72
     2
 73
     1
  0
VERTEX
  5
293
  8
0
 62
     9
 10
0.0
 20
0.0
 30
0.0
 70
   128
 71
     6
 72
     5
 73
     4
  0
VERTEX
  5
294
  8
0
 62
     9
 10
0.0
 20
0.0
 30
0.0
 70
   128
 71
     2
 72
     7
 73
     1
  0
VERTEX
  5
295
  8
0
 62
     9
 10
0.0
 20
0.0
 30
0.0
 70
   128
 71
     8
 72
     1
 73
     7
  0
VERTEX
  5
296
  8
0
 62
     9
 10
0.0
 20
0.0
 30
0.0
 70
   128
 71
    10
 72
     9
 73
     4
  0
VERTEX
  5
297
  8
0
 62
     9
 10
0.0
 20
0.0
 30
0.0
 70
   128
 71
     5
 72
    11
 73
     4
  0
VERTEX
  5
298
  8
0
 62
     9
 10
0.0
 20
0.0
 30
0.0
 70
   128
 71
     7
 72
    12
 73
     8
  0
VERTEX
  5
299
  8
0
 62
     9
 10
0.0
 20
0.0
 30
0.0
 70
   128
 71
     4
 72
     9
 73
     6
  0
VERTEX
  5
29A
  8
0
 62
     9
 10
0.0
 20
0.0
 30
0.0
 70
   128
 71
     1
 72
    13
 73
     4
  0
VERTEX
  5
29B
  8
0
 62
     9
 10
0.0
 20
0.0
 30
0.0
 70
   128
 71
     4
 72
    14
 73
    10
  0
VERTEX
  5
29C
  8
0
 62
     9
 10
0.0
 20
0.0
 30
0.0
 70
   128
 71
     4
 72
    13
 73
    14
  0
VERTEX
  5
29D
  8
0
 62
     9
 10
0.0
 20
0.0
 30
0.0
 70
   128
 71
     1
 72
     4
 73
     3
  0
SEQEND
  5
29E
  8
0
 62
     9
  0
ENDBLK
  5
2A1
  8
0
  0
BLOCK
  8
0
  2
E3_NODE_21_
 70
     0
 10
0.0
 20
0.0
 30
0.0
  3
E3_NODE_21_
  1

  0
POLYLINE
  5
2A3
  8
0
 62
     9
 66
     1
 10
0.0
 20
0.0
 30
0.0
 70
    64
 71
    45
 72
    47
  0
VERTEX
  5
2A4
  8
0
 10
128.0879974365234
 20
17.24099922180176
 30
-18.35099983215332
 70
   192
  0
VERTEX
  5
2A5
  8
0
 10
93.0999984741211
 20
17.24099922180176
 30
-19.26799964904785
 70
   192
  0
VERTEX
  5
2A6
  8
0
 10
92.83200073242188
 20
24.30999946594238
 30
-9.029999732971191
 70
   192
  0
VERTEX
  5
2A7
  8
0
 10
127.8199996948242
 20
-24.30999946594238
 30
-8.11299991607666
 70
   192
  0
VERTEX
  5
2A8
  8
0
 10
92.83200073242188
 20
-24.30999946594238
 30
-9.029999732971191
 70
   192
  0
VERTEX
  5
2A9
  8
0
 10
93.0999984741211
 20
-17.24099922180176
 30
-19.26799964904785
 70
   192
  0
VERTEX
  5
2AA
  8
0
 10
123.2409973144531
 20
-6.222000122070312
 30
-24.26300048828125
 70
   192
  0
VERTEX
  5
2AB
  8
0
 10
123.2409973144531
 20
6.222000122070312
 30
-24.26300048828125
 70
   192
  0
VERTEX
  5
2AC
  8
0
 10
128.2590026855469
 20
0.0
 30
-24.88800048828125
 70
   192
  0
VERTEX
  5
2AD
  8
0
 10
128.2389984130859
 20
6.222000122070312
 30
-24.13299942016602
 70
   192
  0
VERTEX
  5
2AE
  8
0
 10
93.2509994506836
 20
6.222000122070312
 30
-25.04899978637695
 70
   192
  0
VERTEX
  5
2AF
  8
0
 10
115.7129974365234
 20
9.800000190734863
 30
-23.29800033569336
 70
   192
  0
VERTEX
  5
2B0
  8
0
 10
123.2099990844727
 20
9.800000190734863
 30
-23.10199928283691
 70
   192
  0
VERTEX
  5
2B1
  8
0
 10
115.7429962158203
 20
6.222000122070312
 30
-24.45999908447266
 70
   192
  0
VERTEX
  5
2B2
  8
0
 10
115.7429962158203
 20
-6.222000122070312
 30
-24.45999908447266
 70
   192
  0
VERTEX
  5
2B3
  8
0
 10
128.2389984130859
 20
-6.222000122070312
 30
-24.13299942016602
 70
   192
  0
VERTEX
  5
2B4
  8
0
 10
128.0879974365234
 20
-17.24099922180176
 30
-18.35099983215332
 70
   192
  0
VERTEX
  5
2B5
  8
0
 10
123.2099990844727
 20
-9.800000190734863
 30
-23.10199928283691
 70
   192
  0
VERTEX
  5
2B6
  8
0
 10
115.7129974365234
 20
-9.800000190734863
 30
-23.29800033569336
 70
   192
  0
VERTEX
  5
2B7
  8
0
 10
93.2509994506836
 20
-6.222000122070312
 30
-25.04899978637695
 70
   192
  0
VERTEX
  5
2B8
  8
0
 10
127.8199996948242
 20
24.30999946594238
 30
-8.11299991607666
 70
   192
  0
VERTEX
  5
2B9
  8
0
 10
92.58999633789062
 20
26.0
 30
0.1870000064373016
 70
   192
  0
VERTEX
  5
2BA
  8
0
 10
94.4229965209961
 20
25.41699981689453
 30
3.29800009727478
 70
   192
  0
VERTEX
  5
2BB
  8
0
 10
127.4960021972656
 20
25.80999946594238
 30
4.236000061035156
 70
   192
  0
VERTEX
  5
2BC
  8
0
 10
98.31199645996094
 20
24.17799949645996
 30
9.901000022888184
 70
   192
  0
VERTEX
  5
2BD
  8
0
 10
101.2880020141602
 20
21.02700042724609
 30
14.95300006866455
 70
   192
  0
VERTEX
  5
2BE
  8
0
 10
127.1920013427734
 20
21.39800071716309
 30
15.86800003051758
 70
   192
  0
VERTEX
  5
2BF
  8
0
 10
103.2320022583008
 20
18.9689998626709
 30
18.25399971008301
 70
   192
  0
VERTEX
  5
2C0
  8
0
 10
106.2799987792969
 20
11.97599983215332
 30
23.42700004577637
 70
   192
  0
VERTEX
  5
2C1
  8
0
 10
126.9759979248047
 20
12.08300018310547
 30
24.11700057983398
 70
   192
  0
VERTEX
  5
2C2
  8
0
 10
106.661003112793
 20
11.10099983215332
 30
24.07500076293945
 70
   192
  0
VERTEX
  5
2C3
  8
0
 10
108.1179962158203
 20
1.677000045776367
 30
26.54800033569336
 70
   192
  0
VERTEX
  5
2C4
  8
0
 10
126.8980026245117
 20
0.0
 30
27.0939998626709
 70
   192
  0
VERTEX
  5
2C5
  8
0
 10
107.9960021972656
 20
0.0320000015199184
 30
26.34099960327148
 70
   192
  0
VERTEX
  5
2C6
  8
0
 10
107.4000015258789
 20
-7.980999946594238
 30
25.32799911499023
 70
   192
  0
VERTEX
  5
2C7
  8
0
 10
126.9759979248047
 20
-12.08300018310547
 30
24.11700057983398
 70
   192
  0
VERTEX
  5
2C8
  8
0
 10
127.1920013427734
 20
-21.39800071716309
 30
15.86800003051758
 70
   192
  0
VERTEX
  5
2C9
  8
0
 10
106.1289978027344
 20
-11.86400032043457
 30
23.17099952697754
 70
   192
  0
VERTEX
  5
2CA
  8
0
 10
104.6060028076172
 20
-16.52099990844727
 30
20.58499908447266
 70
   192
  0
VERTEX
  5
2CB
  8
0
 10
127.4960021972656
 20
-25.80999946594238
 30
4.236000061035156
 70
   192
  0
VERTEX
  5
2CC
  8
0
 10
100.1279983520508
 20
-22.74600028991699
 30
12.98299980163574
 70
   192
  0
VERTEX
  5
2CD
  8
0
 10
94.59400177001953
 20
-25.78400039672852
 30
3.588000059127808
 70
   192
  0
VERTEX
  5
2CE
  8
0
 10
101.2949981689453
 20
-21.12400054931641
 30
14.96399974822998
 70
   192
  0
VERTEX
  5
2CF
  8
0
 10
94.46499633789062
 20
-25.79700088500977
 30
3.369999885559082
 70
   192
  0
VERTEX
  5
2D0
  8
0
 10
92.58999633789062
 20
-26.0
 30
0.1870000064373016
 70
   192
  0
VERTEX
  5
2D1
  8
0
 62
     9
 10
0.0
 20
0.0
 30
0.0
 70
   128
 71
     3
 72
     2
 73
     1
  0
VERTEX
  5
2D2
  8
0
 62
     9
 10
0.0
 20
0.0
 30
0.0
 70
   128
 71
     6
 72
     5
 73
     4
  0
VERTEX
  5
2D3
  8
0
 62
     9
 10
0.0
 20
0.0
 30
0.0
 70
   128
 71
     9
 72
     8
 73
     7
  0
VERTEX
  5
2D4
  8
0
 62
     9
 10
0.0
 20
0.0
 30
0.0
 70
   128
 71
     9
 72
    10
 73
     8
  0
VERTEX
  5
2D5
  8
0
 62
     9
 10
0.0
 20
0.0
 30
0.0
 70
   128
 71
    12
 72
     2
 73
    11
  0
VERTEX
  5
2D6
  8
0
 62
     9
 10
0.0
 20
0.0
 30
0.0
 70
   128
 71
    12
 72
    13
 73
     1
  0
VERTEX
  5
2D7
  8
0
 62
     9
 10
0.0
 20
0.0
 30
0.0
 70
   128
 71
     1
 72
     2
 73
    12
  0
VERTEX
  5
2D8
  8
0
 62
     9
 10
0.0
 20
0.0
 30
0.0
 70
   128
 71
    13
 72
     8
 73
    10
  0
VERTEX
  5
2D9
  8
0
 62
     9
 10
0.0
 20
0.0
 30
0.0
 70
   128
 71
    10
 72
     1
 73
    13
  0
VERTEX
  5
2DA
  8
0
 62
     9
 10
0.0
 20
0.0
 30
0.0
 70
   128
 71
    15
 72
    14
 73
    11
  0
VERTEX
  5
2DB
  8
0
 62
     9
 10
0.0
 20
0.0
 30
0.0
 70
   128
 71
    18
 72
    17
 73
    16
  0
VERTEX
  5
2DC
  8
0
 62
     9
 10
0.0
 20
0.0
 30
0.0
 70
   128
 71
    19
 72
     6
 73
    17
  0
VERTEX
  5
2DD
  8
0
 62
     9
 10
0.0
 20
0.0
 30
0.0
 70
   128
 71
    19
 72
    15
 73
    20
  0
VERTEX
  5
2DE
  8
0
 62
     9
 10
0.0
 20
0.0
 30
0.0
 70
   128
 71
    20
 72
     6
 73
    19
  0
VERTEX
  5
2DF
  8
0
 62
     9
 10
0.0
 20
0.0
 30
0.0
 70
   128
 71
    17
 72
    18
 73
    19
  0
VERTEX
  5
2E0
  8
0
 62
     9
 10
0.0
 20
0.0
 30
0.0
 70
   128
 71
    23
 72
    22
 73
    21
  0
VERTEX
  5
2E1
  8
0
 62
     9
 10
0.0
 20
0.0
 30
0.0
 70
   128
 71
    22
 72
     3
 73
    21
  0
VERTEX
  5
2E2
  8
0
 62
     9
 10
0.0
 20
0.0
 30
0.0
 70
   128
 71
    26
 72
    25
 73
    24
  0
VERTEX
  5
2E3
  8
0
 62
     9
 10
0.0
 20
0.0
 30
0.0
 70
   128
 71
    25
 72
    23
 73
    24
  0
VERTEX
  5
2E4
  8
0
 62
     9
 10
0.0
 20
0.0
 30
0.0
 70
   128
 71
    29
 72
    28
 73
    27
  0
VERTEX
  5
2E5
  8
0
 62
     9
 10
0.0
 20
0.0
 30
0.0
 70
   128
 71
    28
 72
    26
 73
    27
  0
VERTEX
  5
2E6
  8
0
 62
     9
 10
0.0
 20
0.0
 30
0.0
 70
   128
 71
    32
 72
    31
 73
    30
  0
VERTEX
  5
2E7
  8
0
 62
     9
 10
0.0
 20
0.0
 30
0.0
 70
   128
 71
    31
 72
    29
 73
    30
  0
VERTEX
  5
2E8
  8
0
 62
     9
 10
0.0
 20
0.0
 30
0.0
 70
   128
 71
    30
 72
    33
 73
    32
  0
VERTEX
  5
2E9
  8
0
 62
     9
 10
0.0
 20
0.0
 30
0.0
 70
   128
 71
    35
 72
    34
 73
    33
  0
VERTEX
  5
2EA
  8
0
 62
     9
 10
0.0
 20
0.0
 30
0.0
 70
   128
 71
    33
 72
    36
 73
    35
  0
VERTEX
  5
2EB
  8
0
 62
     9
 10
0.0
 20
0.0
 30
0.0
 70
   128
 71
    38
 72
    36
 73
    37
  0
VERTEX
  5
2EC
  8
0
 62
     9
 10
0.0
 20
0.0
 30
0.0
 70
   128
 71
    37
 72
    39
 73
    38
  0
VERTEX
  5
2ED
  8
0
 62
     9
 10
0.0
 20
0.0
 30
0.0
 70
   128
 71
    42
 72
    41
 73
    40
  0
VERTEX
  5
2EE
  8
0
 62
     9
 10
0.0
 20
0.0
 30
0.0
 70
   128
 71
    43
 72
    37
 73
    40
  0
VERTEX
  5
2EF
  8
0
 62
     9
 10
0.0
 20
0.0
 30
0.0
 70
   128
 71
    40
 72
    41
 73
    43
  0
VERTEX
  5
2F0
  8
0
 62
     9
 10
0.0
 20
0.0
 30
0.0
 70
   128
 71
    44
 72
    40
 73
     4
  0
VERTEX
  5
2F1
  8
0
 62
     9
 10
0.0
 20
0.0
 30
0.0
 70
   128
 71
     4
 72
    45
 73
    44
  0
VERTEX
  5
2F2
  8
0
 62
     9
 10
0.0
 20
0.0
 30
0.0
 70
   128
 71
     4
 72
     5
 73
    45
  0
VERTEX
  5
2F3
  8
0
 62
     9
 10
0.0
 20
0.0
 30
0.0
 70
   128
 71
    40
 72
    44
 73
    42
  0
VERTEX
  5
2F4
  8
0
 62
     9
 10
0.0
 20
0.0
 30
0.0
 70
   128
 71
    37
 72
    43
 73
    39
  0
VERTEX
  5
2F5
  8
0
 62
     9
 10
0.0
 20
0.0
 30
0.0
 70
   128
 71
    36
 72
    38
 73
    35
  0
VERTEX
  5
2F6
  8
0
 62
     9
 10
0.0
 20
0.0
 30
0.0
 70
   128
 71
    33
 72
    34
 73
    32
  0
VERTEX
  5
2F7
  8
0
 62
     9
 10
0.0
 20
0.0
 30
0.0
 70
   128
 71
    27
 72
    30
 73
    29
  0
VERTEX
  5
2F8
  8
0
 62
     9
 10
0.0
 20
0.0
 30
0.0
 70
   128
 71
    24
 72
    27
 73
    26
  0
VERTEX
  5
2F9
  8
0
 62
     9
 10
0.0
 20
0.0
 30
0.0
 70
   128
 71
    21
 72
    24
 73
    23
  0
VERTEX
  5
2FA
  8
0
 62
     9
 10
0.0
 20
0.0
 30
0.0
 70
   128
 71
    16
 72
     7
 73
    18
  0
VERTEX
  5
2FB
  8
0
 62
     9
 10
0.0
 20
0.0
 30
0.0
 70
   128
 71
    11
 72
    20
 73
    15
  0
VERTEX
  5
2FC
  8
0
 62
     9
 10
0.0
 20
0.0
 30
0.0
 70
   128
 71
    11
 72
    14
 73
    12
  0
VERTEX
  5
2FD
  8
0
 62
     9
 10
0.0
 20
0.0
 30
0.0
 70
   128
 71
     7
 72
    16
 73
     9
  0
VERTEX
  5
2FE
  8
0
 62
     9
 10
0.0
 20
0.0
 30
0.0
 70
   128
 71
     4
 72
    17
 73
     6
  0
VERTEX
  5
2FF
  8
0
 62
     9
 10
0.0
 20
0.0
 30
0.0
 70
   128
 71
     1
 72
    21
 73
     3
  0
SEQEND
  5
300
  8
0
 62
     9
  0
ENDBLK
  5
303
  8
0
  0
BLOCK
  8
0
  2
E3_NODE_22_
 70
     0
 10
0.0
 20
0.0
 30
0.0
  3
E3_NODE_22_
  1

  0
POLYLINE
  5
305
  8
0
 62
     9
 66
     1
 10
0.0
 20
0.0
 30
0.0
 70
    64
 71
     8
 72
     6
  0
VERTEX
  5
306
  8
0
 10
92.83200073242188
 20
-24.30999946594238
 30
-9.029999732971191
 70
   192
  0
VERTEX
  5
307
  8
0
 10
93.2509994506836
 20
6.222000122070312
 30
-25.04899978637695
 70
   192
  0
VERTEX
  5
308
  8
0
 10
93.2509994506836
 20
-6.222000122070312
 30
-25.04899978637695
 70
   192
  0
VERTEX
  5
309
  8
0
 10
92.83200073242188
 20
24.30999946594238
 30
-9.029999732971191
 70
   192
  0
VERTEX
  5
30A
  8
0
 10
93.0999984741211
 20
17.24099922180176
 30
-19.26799964904785
 70
   192
  0
VERTEX
  5
30B
  8
0
 10
93.0999984741211
 20
-17.24099922180176
 30
-19.26799964904785
 70
   192
  0
VERTEX
  5
30C
  8
0
 10
92.58999633789062
 20
-26.0
 30
0.1870000064373016
 70
   192
  0
VERTEX
  5
30D
  8
0
 10
92.58999633789062
 20
26.0
 30
0.1870000064373016
 70
   192
  0
VERTEX
  5
30E
  8
0
 62
     9
 10
0.0
 20
0.0
 30
0.0
 70
   128
 71
     3
 72
     2
 73
     1
  0
VERTEX
  5
30F
  8
0
 62
     9
 10
0.0
 20
0.0
 30
0.0
 70
   128
 71
     5
 72
     4
 73
     1
  0
VERTEX
  5
310
  8
0
 62
     9
 10
0.0
 20
0.0
 30
0.0
 70
   128
 71
     1
 72
     2
 73
     5
  0
VERTEX
  5
311
  8
0
 62
     9
 10
0.0
 20
0.0
 30
0.0
 70
   128
 71
     1
 72
     6
 73
     3
  0
VERTEX
  5
312
  8
0
 62
     9
 10
0.0
 20
0.0
 30
0.0
 70
   128
 71
     4
 72
     8
 73
     7
  0
VERTEX
  5
313
  8
0
 62
     9
 10
0.0
 20
0.0
 30
0.0
 70
   128
 71
     4
 72
     7
 73
     1
  0
SEQEND
  5
314
  8
0
 62
     9
  0
ENDBLK
  5
317
  8
0
  0
BLOCK
  8
0
  2
E3_NODE_23_
 70
     0
 10
0.0
 20
0.0
 30
0.0
  3
E3_NODE_23_
  1

  0
POLYLINE
  5
319
  8
0
 62
     9
 66
     1
 10
0.0
 20
0.0
 30
0.0
 70
    64
 71
    17
 72
    15
  0
VERTEX
  5
31A
  8
0
 10
101.2949981689453
 20
-21.12400054931641
 30
14.96399974822998
 70
   192
  0
VERTEX
  5
31B
  8
0
 10
94.46499633789062
 20
-25.79700088500977
 30
3.369999885559082
 70
   192
  0
VERTEX
  5
31C
  8
0
 10
94.59400177001953
 20
-25.78400039672852
 30
3.588000059127808
 70
   192
  0
VERTEX
  5
31D
  8
0
 10
106.1289978027344
 20
-11.86400032043457
 30
23.17099952697754
 70
   192
  0
VERTEX
  5
31E
  8
0
 10
92.58999633789062
 20
-26.0
 30
0.1870000064373016
 70
   192
  0
VERTEX
  5
31F
  8
0
 10
101.2880020141602
 20
21.02700042724609
 30
14.95300006866455
 70
   192
  0
VERTEX
  5
320
  8
0
 10
98.31199645996094
 20
24.17799949645996
 30
9.901000022888184
 70
   192
  0
VERTEX
  5
321
  8
0
 10
107.9960021972656
 20
0.0320000015199184
 30
26.34099960327148
 70
   192
  0
VERTEX
  5
322
  8
0
 10
108.1179962158203
 20
1.677000045776367
 30
26.54800033569336
 70
   192
  0
VERTEX
  5
323
  8
0
 10
107.4000015258789
 20
-7.980999946594238
 30
25.32799911499023
 70
   192
  0
VERTEX
  5
324
  8
0
 10
100.1279983520508
 20
-22.74600028991699
 30
12.98299980163574
 70
   192
  0
VERTEX
  5
325
  8
0
 10
94.4229965209961
 20
25.41699981689453
 30
3.29800009727478
 70
   192
  0
VERTEX
  5
326
  8
0
 10
106.2799987792969
 20
11.97599983215332
 30
23.42700004577637
 70
   192
  0
VERTEX
  5
327
  8
0
 10
103.2320022583008
 20
18.9689998626709
 30
18.25399971008301
 70
   192
  0
VERTEX
  5
328
  8
0
 10
106.661003112793
 20
11.10099983215332
 30
24.07500076293945
 70
   192
  0
VERTEX
  5
329
  8
0
 10
104.6060028076172
 20
-16.52099990844727
 30
20.58499908447266
 70
   192
  0
VERTEX
  5
32A
  8
0
 10
92.58999633789062
 20
26.0
 30
0.1870000064373016
 70
   192
  0
VERTEX
  5
32B
  8
0
 62
     9
 10
0.0
 20
0.0
 30
0.0
 70
   128
 71
     3
 72
     2
 73
     1
  0
VERTEX
  5
32C
  8
0
 62
     9
 10
0.0
 20
0.0
 30
0.0
 70
   128
 71
     1
 72
     5
 73
     4
  0
VERTEX
  5
32D
  8
0
 62
     9
 10
0.0
 20
0.0
 30
0.0
 70
   128
 71
     2
 72
     5
 73
     1
  0
VERTEX
  5
32E
  8
0
 62
     9
 10
0.0
 20
0.0
 30
0.0
 70
   128
 71
     7
 72
     6
 73
     5
  0
VERTEX
  5
32F
  8
0
 62
     9
 10
0.0
 20
0.0
 30
0.0
 70
   128
 71
     9
 72
     8
 73
     5
  0
VERTEX
  5
330
  8
0
 62
     9
 10
0.0
 20
0.0
 30
0.0
 70
   128
 71
    10
 72
     4
 73
     5
  0
VERTEX
  5
331
  8
0
 62
     9
 10
0.0
 20
0.0
 30
0.0
 70
   128
 71
     1
 72
    11
 73
     3
  0
VERTEX
  5
332
  8
0
 62
     9
 10
0.0
 20
0.0
 30
0.0
 70
   128
 71
     5
 72
    12
 73
     7
  0
VERTEX
  5
333
  8
0
 62
     9
 10
0.0
 20
0.0
 30
0.0
 70
   128
 71
    14
 72
    13
 73
     5
  0
VERTEX
  5
334
  8
0
 62
     9
 10
0.0
 20
0.0
 30
0.0
 70
   128
 71
     5
 72
    15
 73
     9
  0
VERTEX
  5
335
  8
0
 62
     9
 10
0.0
 20
0.0
 30
0.0
 70
   128
 71
     4
 72
    16
 73
     1
  0
VERTEX
  5
336
  8
0
 62
     9
 10
0.0
 20
0.0
 30
0.0
 70
   128
 71
     5
 72
     6
 73
    14
  0
VERTEX
  5
337
  8
0
 62
     9
 10
0.0
 20
0.0
 30
0.0
 70
   128
 71
     5
 72
     8
 73
    10
  0
VERTEX
  5
338
  8
0
 62
     9
 10
0.0
 20
0.0
 30
0.0
 70
   128
 71
     5
 72
    13
 73
    15
  0
VERTEX
  5
339
  8
0
 62
     9
 10
0.0
 20
0.0
 30
0.0
 70
   128
 71
     5
 72
    17
 73
    12
  0
SEQEND
  5
33A
  8
0
 62
     9
  0
ENDBLK
  5
33D
  8
0
  0
BLOCK
  8
0
  2
E3_NODE_24_
 70
     0
 10
0.0
 20
0.0
 30
0.0
  3
E3_NODE_24_
  1

  0
POLYLINE
  5
33F
  8
0
 62
     9
 66
     1
 10
0.0
 20
0.0
 30
0.0
 70
    64
 71
     4
 72
     2
  0
VERTEX
  5
340
  8
0
 10
124.9100036621094
 20
-9.800000190734863
 30
-87.99700164794922
 70
   192
  0
VERTEX
  5
341
  8
0
 10
123.2099990844727
 20
-9.800000190734863
 30
-23.10199928283691
 70
   192
  0
VERTEX
  5
342
  8
0
 10
115.7129974365234
 20
-9.800000190734863
 30
-23.29800033569336
 70
   192
  0
VERTEX
  5
343
  8
0
 10
117.4120025634766
 20
-9.800000190734863
 30
-88.19300079345703
 70
   192
  0
VERTEX
  5
344
  8
0
 62
     9
 10
0.0
 20
0.0
 30
0.0
 70
   128
 71
     3
 72
     2
 73
     1
  0
VERTEX
  5
345
  8
0
 62
     9
 10
0.0
 20
0.0
 30
0.0
 70
   128
 71
     1
 72
     4
 73
     3
  0
SEQEND
  5
346
  8
0
 62
     9
  0
ENDBLK
  5
349
  8
0
  0
BLOCK
  8
0
  2
E3_NODE_25_
 70
     0
 10
0.0
 20
0.0
 30
0.0
  3
E3_NODE_25_
  1

  0
POLYLINE
  5
34B
  8
0
 62
     9
 66
     1
 10
0.0
 20
0.0
 30
0.0
 70
    64
 71
     4
 72
     2
  0
VERTEX
  5
34C
  8
0
 10
124.9100036621094
 20
9.800000190734863
 30
-87.99700164794922
 70
   192
  0
VERTEX
  5
34D
  8
0
 10
124.9100036621094
 20
-9.800000190734863
 30
-87.99700164794922
 70
   192
  0
VERTEX
  5
34E
  8
0
 10
117.4120025634766
 20
-9.800000190734863
 30
-88.19300079345703
 70
   192
  0
VERTEX
  5
34F
  8
0
 10
117.4120025634766
 20
9.800000190734863
 30
-88.19300079345703
 70
   192
  0
VERTEX
  5
350
  8
0
 62
     9
 10
0.0
 20
0.0
 30
0.0
 70
   128
 71
     3
 72
     2
 73
     1
  0
VERTEX
  5
351
  8
0
 62
     9
 10
0.0
 20
0.0
 30
0.0
 70
   128
 71
     1
 72
     4
 73
     3
  0
SEQEND
  5
352
  8
0
 62
     9
  0
ENDBLK
  5
355
  8
0
  0
BLOCK
  8
0
  2
E3_NODE_26_
 70
     0
 10
0.0
 20
0.0
 30
0.0
  3
E3_NODE_26_
  1

  0
POLYLINE
  5
357
  8
0
 62
     9
 66
     1
 10
0.0
 20
0.0
 30
0.0
 70
    64
 71
     4
 72
     2
  0
VERTEX
  5
358
  8
0
 10
115.7129974365234
 20
9.800000190734863
 30
-23.29800033569336
 70
   192
  0
VERTEX
  5
359
  8
0
 10
123.2099990844727
 20
9.800000190734863
 30
-23.10199928283691
 70
   192
  0
VERTEX
  5
35A
  8
0
 10
124.9100036621094
 20
9.800000190734863
 30
-87.99700164794922
 70
   192
  0
VERTEX
  5
35B
  8
0
 10
117.4120025634766
 20
9.800000190734863
 30
-88.19300079345703
 70
   192
  0
VERTEX
  5
35C
  8
0
 62
     9
 10
0.0
 20
0.0
 30
0.0
 70
   128
 71
     3
 72
     2
 73
     1
  0
VERTEX
  5
35D
  8
0
 62
     9
 10
0.0
 20
0.0
 30
0.0
 70
   128
 71
     1
 72
     4
 73
     3
  0
SEQEND
  5
35E
  8
0
 62
     9
  0
ENDBLK
  5
361
  8
0
  0
BLOCK
  8
0
  2
E3_NODE_27_
 70
     0
 10
0.0
 20
0.0
 30
0.0
  3
E3_NODE_27_
  1

  0
POLYLINE
  5
363
  8
0
 62
     9
 66
     1
 10
0.0
 20
0.0
 30
0.0
 70
    64
 71
     6
 72
     4
  0
VERTEX
  5
364
  8
0
 10
117.4120025634766
 20
-9.800000190734863
 30
-88.19300079345703
 70
   192
  0
VERTEX
  5
365
  8
0
 10
115.7429962158203
 20
-6.222000122070312
 30
-24.45999908447266
 70
   192
  0
VERTEX
  5
366
  8
0
 10
115.7429962158203
 20
6.222000122070312
 30
-24.45999908447266
 70
   192
  0
VERTEX
  5
367
  8
0
 10
117.4120025634766
 20
9.800000190734863
 30
-88.19300079345703
 70
   192
  0
VERTEX
  5
368
  8
0
 10
115.7129974365234
 20
-9.800000190734863
 30
-23.29800033569336
 70
   192
  0
VERTEX
  5
369
  8
0
 10
115.7129974365234
 20
9.800000190734863
 30
-23.29800033569336
 70
   192
  0
VERTEX
  5
36A
  8
0
 62
     9
 10
0.0
 20
0.0
 30
0.0
 70
   128
 71
     3
 72
     2
 73
     1
  0
VERTEX
  5
36B
  8
0
 62
     9
 10
0.0
 20
0.0
 30
0.0
 70
   128
 71
     1
 72
     4
 73
     3
  0
VERTEX
  5
36C
  8
0
 62
     9
 10
0.0
 20
0.0
 30
0.0
 70
   128
 71
     2
 72
     5
 73
     1
  0
VERTEX
  5
36D
  8
0
 62
     9
 10
0.0
 20
0.0
 30
0.0
 70
   128
 71
     4
 72
     6
 73
     3
  0
SEQEND
  5
36E
  8
0
 62
     9
  0
ENDBLK
  5
371
  8
0
  0
BLOCK
  8
0
  2
E3_NODE_28_
 70
     0
 10
0.0
 20
0.0
 30
0.0
  3
E3_NODE_28_
  1

  0
POLYLINE
  5
373
  8
0
 62
     9
 66
     1
 10
0.0
 20
0.0
 30
0.0
 70
    64
 71
     6
 72
     4
  0
VERTEX
  5
374
  8
0
 10
124.9100036621094
 20
-9.800000190734863
 30
-87.99700164794922
 70
   192
  0
VERTEX
  5
375
  8
0
 10
124.9100036621094
 20
9.800000190734863
 30
-87.99700164794922
 70
   192
  0
VERTEX
  5
376
  8
0
 10
123.2409973144531
 20
6.222000122070312
 30
-24.26300048828125
 70
   192
  0
VERTEX
  5
377
  8
0
 10
123.2099990844727
 20
9.800000190734863
 30
-23.10199928283691
 70
   192
  0
VERTEX
  5
378
  8
0
 10
123.2409973144531
 20
-6.222000122070312
 30
-24.26300048828125
 70
   192
  0
VERTEX
  5
379
  8
0
 10
123.2099990844727
 20
-9.800000190734863
 30
-23.10199928283691
 70
   192
  0
VERTEX
  5
37A
  8
0
 62
     9
 10
0.0
 20
0.0
 30
0.0
 70
   128
 71
     3
 72
     2
 73
     1
  0
VERTEX
  5
37B
  8
0
 62
     9
 10
0.0
 20
0.0
 30
0.0
 70
   128
 71
     3
 72
     4
 73
     2
  0
VERTEX
  5
37C
  8
0
 62
     9
 10
0.0
 20
0.0
 30
0.0
 70
   128
 71
     1
 72
     5
 73
     3
  0
VERTEX
  5
37D
  8
0
 62
     9
 10
0.0
 20
0.0
 30
0.0
 70
   128
 71
     1
 72
     6
 73
     5
  0
SEQEND
  5
37E
  8
0
 62
     9
  0
ENDBLK
  5
381
  8
0
  0
ENDSEC
  0
SECTION
  2
ENTITIES
  0
INSERT
  5
44
  8
LAYER_1
  2
E3_NODE
 10
0.0
 20
0.0
 30
0.0
  0
INSERT
  5
51
  8
LAYER_1
  2
E3_NODE_1_
 10
0.0
 20
0.0
 30
0.0
  0
INSERT
  5
5D
  8
LAYER_1
  2
E3_NODE_2_
 10
0.0
 20
0.0
 30
0.0
  0
INSERT
  5
69
  8
LAYER_1
  2
E3_NODE_3_
 10
0.0
 20
0.0
 30
0.0
  0
INSERT
  5
75
  8
LAYER_1
  2
E3_NODE_4_
 10
0.0
 20
0.0
 30
0.0
  0
INSERT
  5
81
  8
LAYER_1
  2
E3_NODE_5_
 10
0.0
 20
0.0
 30
0.0
  0
INSERT
  5
8D
  8
LAYER_1
  2
E3_NODE_6_
 10
0.0
 20
0.0
 30
0.0
  0
INSERT
  5
A1
  8
LAYER_1
  2
E3_NODE_7_
 10
0.0
 20
0.0
 30
0.0
  0
INSERT
  5
AD
  8
LAYER_1
  2
E3_NODE_8_
 10
0.0
 20
0.0
 30
0.0
  0
INSERT
  5
B9
  8
LAYER_1
  2
E3_NODE_9_
 10
0.0
 20
0.0
 30
0.0
  0
INSERT
  5
C5
  8
LAYER_1
  2
E3_NODE_10_
 10
0.0
 20
0.0
 30
0.0
  0
INSERT
  5
E3
  8
LAYER_1
  2
E3_NODE_11_
 10
0.0
 20
0.0
 30
0.0
  0
INSERT
  5
101
  8
LAYER_1
  2
E3_NODE_12_
 10
0.0
 20
0.0
 30
0.0
  0
INSERT
  5
119
  8
LAYER_1
  2
E3_NODE_13_
 10
0.0
 20
0.0
 30
0.0
  0
INSERT
  5
125
  8
LAYER_1
  2
E3_NODE_14_
 10
0.0
 20
0.0
 30
0.0
  0
INSERT
  5
15F
  8
LAYER_1
  2
E3_NODE_15_
 10
0.0
 20
0.0
 30
0.0
  0
INSERT
  5
17D
  8
LAYER_1
  2
E3_NODE_16_
 10
0.0
 20
0.0
 30
0.0
  0
INSERT
  5
1B7
  8
LAYER_1
  2
E3_NODE_17_
 10
0.0
 20
0.0
 30
0.0
  0
INSERT
  5
1FB
  8
LAYER_1
  2
E3_NODE_18_
 10
0.0
 20
0.0
 30
0.0
  0
INSERT
  5
27F
  8
LAYER_1
  2
E3_NODE_19_
 10
0.0
 20
0.0
 30
0.0
  0
INSERT
  5
29F
  8
LAYER_1
  2
E3_NODE_20_
 10
0.0
 20
0.0
 30
0.0
  0
INSERT
  5
301
  8
LAYER_1
  2
E3_NODE_21_
 10
0.0
 20
0.0
 30
0.0
  0
INSERT
  5
315
  8
LAYER_1
  2
E3_NODE_22_
 10
0.0
 20
0.0
 30
0.0
  0
INSERT
  5
33B
  8
LAYER_1
  2
E3_NODE_23_
 10
0.0
 20
0.0
 30
0.0
  0
INSERT
  5
347
  8
LAYER_1
  2
E3_NODE_24_
 10
0.0
 20
0.0
 30
0.0
  0
INSERT
  5
353
  8
LAYER_1
  2
E3_NODE_25_
 10
0.0
 20
0.0
 30
0.0
  0
INSERT
  5
35F
  8
LAYER_1
  2
E3_NODE_26_
 10
0.0
 20
0.0
 30
0.0
  0
INSERT
  5
36F
  8
LAYER_1
  2
E3_NODE_27_
 10
0.0
 20
0.0
 30
0.0
  0
INSERT
  5
37F
  8
LAYER_1
  2
E3_NODE_28_
 10
0.0
 20
0.0
 30
0.0
  0
ENDSEC
  0
EOF
