  0
SECTION
  2
HEADER
  9
$ACADVER
  1
AC1015
  9
$ACADMAINTVER
 70
     6
  9
$DWGCODEPAGE
  3
ANSI_1252
  9
$INSBASE
 10
0.0
 20
0.0
 30
0.0
  9
$EXTMIN
 10
0.0
 20
0.0
 30
0.0
  9
$EXTMAX
 10
1682.0
 20
2378.0
 30
0.0
  9
$LIMMIN
 10
0.0
 20
0.0
  9
$LIMMAX
 10
1682.0
 20
2378.0
  9
$ORTHOMODE
 70
     0
  9
$REGENMODE
 70
     1
  9
$FILLMODE
 70
     1
  9
$QTEXTMODE
 70
     0
  9
$MIRRTEXT
 70
     1
  9
$LTSCALE
 40
1.0
  9
$ATTMODE
 70
     1
  9
$TEXTSIZE
 40
2.5
  9
$TRACEWID
 40
1.0
  9
$TEXTSTYLE
  7
Standard
  9
$CLAYER
  8
0
  9
$CELTYPE
  6
ByLayer
  9
$CECOLOR
 62
   256
  9
$CELTSCALE
 40
1.0
  9
$DISPSILH
 70
     0
  9
$DIMSCALE
 40
1.0
  9
$DIMASZ
 40
2.5
  9
$DIMEXO
 40
0.625
  9
$DIMDLI
 40
3.75
  9
$DIMRND
 40
0.0
  9
$DIMDLE
 40
0.0
  9
$DIMEXE
 40
1.25
  9
$DIMTP
 40
0.0
  9
$DIMTM
 40
0.0
  9
$DIMTXT
 40
2.5
  9
$DIMCEN
 40
2.5
  9
$DIMTSZ
 40
0.0
  9
$DIMTOL
 70
     0
  9
$DIMLIM
 70
     0
  9
$DIMTIH
 70
     0
  9
$DIMTOH
 70
     0
  9
$DIMSE1
 70
     0
  9
$DIMSE2
 70
     0
  9
$DIMTAD
 70
     1
  9
$DIMZIN
 70
     8
  9
$DIMBLK
  1

  9
$DIMASO
 70
     1
  9
$DIMSHO
 70
     1
  9
$DIMPOST
  1

  9
$DIMAPOST
  1

  9
$DIMALT
 70
     0
  9
$DIMALTD
 70
     3
  9
$DIMALTF
 40
0.0393700787
  9
$DIMLFAC
 40
1.0
  9
$DIMTOFL
 70
     1
  9
$DIMTVP
 40
0.0
  9
$DIMTIX
 70
     0
  9
$DIMSOXD
 70
     0
  9
$DIMSAH
 70
     0
  9
$DIMBLK1
  1

  9
$DIMBLK2
  1

  9
$DIMSTYLE
  2
ISO-25
  9
$DIMCLRD
 70
     0
  9
$DIMCLRE
 70
     0
  9
$DIMCLRT
 70
     0
  9
$DIMTFAC
 40
1.0
  9
$DIMGAP
 40
0.625
  9
$DIMJUST
 70
     0
  9
$DIMSD1
 70
     0
  9
$DIMSD2
 70
     0
  9
$DIMTOLJ
 70
     0
  9
$DIMTZIN
 70
     8
  9
$DIMALTZ
 70
     0
  9
$DIMALTTZ
 70
     0
  9
$DIMUPT
 70
     0
  9
$DIMDEC
 70
     2
  9
$DIMTDEC
 70
     2
  9
$DIMALTU
 70
     2
  9
$DIMALTTD
 70
     3
  9
$DIMTXSTY
  7
Standard
  9
$DIMAUNIT
 70
     0
  9
$DIMADEC
 70
     0
  9
$DIMALTRND
 40
0.0
  9
$DIMAZIN
 70
     0
  9
$DIMDSEP
 70
    44
  9
$DIMATFIT
 70
     3
  9
$DIMFRAC
 70
     0
  9
$DIMLDRBLK
  1

  9
$DIMLUNIT
 70
     2
  9
$DIMLWD
 70
    -2
  9
$DIMLWE
 70
    -2
  9
$DIMTMOVE
 70
     0
  9
$LUNITS
 70
     2
  9
$LUPREC
 70
     4
  9
$SKETCHINC
 40
1.0
  9
$FILLETRAD
 40
10.0
  9
$AUNITS
 70
     0
  9
$AUPREC
 70
     0
  9
$MENU
  1
.
  9
$ELEVATION
 40
0.0
  9
$PELEVATION
 40
0.0
  9
$THICKNESS
 40
0.0
  9
$LIMCHECK
 70
     0
  9
$CHAMFERA
 40
10.0
  9
$CHAMFERB
 40
10.0
  9
$CHAMFERC
 40
20.0
  9
$CHAMFERD
 40
0.0
  9
$SKPOLY
 70
     0
  9
$TDCREATE
 40
2455566.506917106
  9
$TDUCREATE
 40
2455566.46525044
  9
$TDUPDATE
 40
2455566.506917118
  9
$TDUUPDATE
 40
2455566.465250452
  9
$TDINDWG
 40
0.0000000116
  9
$TDUSRTIMER
 40
0.0000000116
  9
$USRTIMER
 70
     1
  9
$ANGBASE
 50
0.0
  9
$ANGDIR
 70
     0
  9
$PDMODE
 70
     0
  9
$PDSIZE
 40
0.0
  9
$PLINEWID
 40
0.0
  9
$SPLFRAME
 70
     0
  9
$SPLINETYPE
 70
     6
  9
$SPLINESEGS
 70
     8
  9
$HANDSEED
  5
299
  9
$SURFTAB1
 70
     6
  9
$SURFTAB2
 70
     6
  9
$SURFTYPE
 70
     6
  9
$SURFU
 70
     6
  9
$SURFV
 70
     6
  9
$UCSBASE
  2

  9
$UCSNAME
  2

  9
$UCSORG
 10
0.0
 20
0.0
 30
0.0
  9
$UCSXDIR
 10
1.0
 20
0.0
 30
0.0
  9
$UCSYDIR
 10
0.0
 20
1.0
 30
0.0
  9
$UCSORTHOREF
  2

  9
$UCSORTHOVIEW
 70
     0
  9
$UCSORGTOP
 10
0.0
 20
0.0
 30
0.0
  9
$UCSORGBOTTOM
 10
0.0
 20
0.0
 30
0.0
  9
$UCSORGLEFT
 10
0.0
 20
0.0
 30
0.0
  9
$UCSORGRIGHT
 10
0.0
 20
0.0
 30
0.0
  9
$UCSORGFRONT
 10
0.0
 20
0.0
 30
0.0
  9
$UCSORGBACK
 10
0.0
 20
0.0
 30
0.0
  9
$PUCSBASE
  2

  9
$PUCSNAME
  2

  9
$PUCSORG
 10
0.0
 20
0.0
 30
0.0
  9
$PUCSXDIR
 10
1.0
 20
0.0
 30
0.0
  9
$PUCSYDIR
 10
0.0
 20
1.0
 30
0.0
  9
$PUCSORTHOREF
  2

  9
$PUCSORTHOVIEW
 70
     0
  9
$PUCSORGTOP
 10
0.0
 20
0.0
 30
0.0
  9
$PUCSORGBOTTOM
 10
0.0
 20
0.0
 30
0.0
  9
$PUCSORGLEFT
 10
0.0
 20
0.0
 30
0.0
  9
$PUCSORGRIGHT
 10
0.0
 20
0.0
 30
0.0
  9
$PUCSORGFRONT
 10
0.0
 20
0.0
 30
0.0
  9
$PUCSORGBACK
 10
0.0
 20
0.0
 30
0.0
  9
$USERI1
 70
     0
  9
$USERI2
 70
     0
  9
$USERI3
 70
     0
  9
$USERI4
 70
     0
  9
$USERI5
 70
     0
  9
$USERR1
 40
0.0
  9
$USERR2
 40
0.0
  9
$USERR3
 40
0.0
  9
$USERR4
 40
0.0
  9
$USERR5
 40
0.0
  9
$WORLDVIEW
 70
     1
  9
$SHADEDGE
 70
     3
  9
$SHADEDIF
 70
    70
  9
$TILEMODE
 70
     1
  9
$MAXACTVP
 70
    64
  9
$PINSBASE
 10
0.0
 20
0.0
 30
0.0
  9
$PLIMCHECK
 70
     0
  9
$PEXTMIN
 10
0.0
 20
0.0
 30
0.0
  9
$PEXTMAX
 10
1682.0
 20
2378.0
 30
0.0
  9
$PLIMMIN
 10
0.0
 20
0.0
  9
$PLIMMAX
 10
1682.0
 20
2378.0
  9
$UNITMODE
 70
     0
  9
$VISRETAIN
 70
     1
  9
$PLINEGEN
 70
     0
  9
$PSLTSCALE
 70
     1
  9
$TREEDEPTH
 70
  3020
  9
$CMLSTYLE
  2
Standard
  9
$CMLJUST
 70
     0
  9
$CMLSCALE
 40
20.0
  9
$PROXYGRAPHICS
 70
     1
  9
$MEASUREMENT
 70
     1
  9
$CELWEIGHT
370
    -1
  9
$ENDCAPS
280
     0
  9
$JOINSTYLE
280
     0
  9
$LWDISPLAY
290
     0
  9
$INSUNITS
 70
     4
  9
$HYPERLINKBASE
  1

  9
$STYLESHEET
  1

  9
$XEDIT
290
     1
  9
$CEPSNTYPE
380
     0
  9
$PSTYLEMODE
290
     1
  9
$FINGERPRINTGUID
  2
{0D51B6DA-DD32-4B57-9F78-A6CE4234CD69}
  9
$VERSIONGUID
  2
{FAEB1C32-E019-11D5-929B-00C0DF256EC4}
  9
$EXTNAMES
290
     1
  9
$PSVPSCALE
 40
0.0
  9
$OLESTARTUP
290
     0
  0
ENDSEC
  0
SECTION
  2
CLASSES
  0
CLASS
  1
ACDBDICTIONARYWDFLT
  2
AcDbDictionaryWithDefault
  3
ObjectDBX Classes
 90
        0
280
     0
281
     0
  0
CLASS
  1
VISUALSTYLE
  2
AcDbVisualStyle
  3
ObjectDBX Classes
 90
     4095
280
     0
281
     0
  0
CLASS
  1
SCALE
  2
AcDbScale
  3
ObjectDBX Classes
 90
     1153
280
     0
281
     0
  0
CLASS
  1
DICTIONARYVAR
  2
AcDbDictionaryVar
  3
ObjectDBX Classes
 90
        0
280
     0
281
     0
  0
CLASS
  1
ACDBPLACEHOLDER
  2
AcDbPlaceHolder
  3
ObjectDBX Classes
 90
        0
280
     0
281
     0
  0
CLASS
  1
LAYOUT
  2
AcDbLayout
  3
ObjectDBX Classes
 90
        0
280
     0
281
     0
  0
ENDSEC
  0
SECTION
  2
TABLES
  0
TABLE
  2
VPORT
  5
8
330
0
100
AcDbSymbolTable
 70
     1
  0
VPORT
  5
29
330
8
100
AcDbSymbolTableRecord
100
AcDbViewportTableRecord
  2
*Active
 70
     0
 10
0.0
 20
0.0
 11
1.0
 21
1.0
 12
344.1869158879
 22
148.5
 13
0.0
 23
0.0
 14
10.0
 24
10.0
 15
10.0
 25
10.0
 16
0.0
 26
0.0
 36
1.0
 17
0.0
 27
0.0
 37
0.0
 40
297.0
 41
1.9729729729
 42
50.0
 43
0.0
 44
0.0
 50
0.0
 51
0.0
 71
     0
 72
   100
 73
     1
 74
     3
 75
     0
 76
     0
 77
     0
 78
     0
281
     0
 65
     1
110
0.0
120
0.0
130
0.0
111
1.0
121
0.0
131
0.0
112
0.0
122
1.0
132
0.0
 79
     0
146
0.0
  0
ENDTAB
  0
TABLE
  2
LTYPE
  5
5
330
0
100
AcDbSymbolTable
 70
     2
  0
LTYPE
  5
14
330
5
100
AcDbSymbolTableRecord
100
AcDbLinetypeTableRecord
  2
ByBlock
 70
     0
  3

 72
    65
 73
     0
 40
0.0
  0
LTYPE
  5
15
330
5
100
AcDbSymbolTableRecord
100
AcDbLinetypeTableRecord
  2
ByLayer
 70
     0
  3

 72
    65
 73
     0
 40
0.0
  0
LTYPE
  5
16
330
5
100
AcDbSymbolTableRecord
100
AcDbLinetypeTableRecord
  2
Continuous
 70
     0
  3
Solid line
 72
    65
 73
     0
 40
0.0
  0
LTYPE
  5
62
330
5
100
AcDbSymbolTableRecord
100
AcDbLinetypeTableRecord
  2
CENTER2
 70
     0
  3
Center (.5x) ___ _ ___ _ ___ _ ___ _ ___ _ ___
 72
    65
 73
     4
 40
28.575
 49
19.05
 74
     4
 75
     0
340
0
 46
0.0
 50
0.0
 44
0.0
 45
0.0
 49
-3.175
 74
     4
 75
     0
340
0
 46
0.0
 50
0.0
 44
0.0
 45
0.0
 49
3.175
 74
     4
 75
     0
340
0
 46
0.0
 50
0.0
 44
0.0
 45
0.0
 49
-3.175
 74
     4
 75
     0
340
0
 46
0.0
 50
0.0
 44
0.0
 45
0.0
  0
ENDTAB
  0
TABLE
  2
LAYER
  5
2
330
0
100
AcDbSymbolTable
 70
     5
  0
LAYER
  5
10
330
2
100
AcDbSymbolTableRecord
100
AcDbLayerTableRecord
  2
0
 70
     0
 62
     7
  6
Continuous
370
    -3
390
F
  0
LAYER
  5
5D
330
2
100
AcDbSymbolTableRecord
100
AcDbLayerTableRecord
  2
Default
 70
     0
 62
     7
  6
Continuous
370
    -3
390
F
  0
LAYER
  5
89
330
2
100
AcDbSymbolTableRecord
100
AcDbLayerTableRecord
  2
DV1_Standard
 70
     0
 62
     7
  6
Continuous
370
    -3
390
F
  0
LAYER
  5
175
330
2
100
AcDbSymbolTableRecord
100
AcDbLayerTableRecord
  2
DV2_Standard
 70
     0
 62
     7
  6
Continuous
370
    -3
390
F
  0
LAYER
  5
211
330
2
100
AcDbSymbolTableRecord
100
AcDbLayerTableRecord
  2
DV3_Standard
 70
     0
 62
     7
  6
Continuous
370
    -3
390
F
  0
ENDTAB
  0
TABLE
  2
STYLE
  5
3
330
0
100
AcDbSymbolTable
 70
     2
  0
STYLE
  5
11
330
3
100
AcDbSymbolTableRecord
100
AcDbTextStyleTableRecord
  2
Standard
 70
     0
 40
0.0
 41
1.0
 50
0.0
 71
     0
 42
2.5
  3
txt
  4

  0
STYLE
  5
288
330
3
100
AcDbSymbolTableRecord
100
AcDbTextStyleTableRecord
  2
SEACAD_seiso_ttf
 70
     0
 40
0.0
 41
1.0
 50
0.0
 71
     0
 42
0.2
  3
seiso.ttf
  4

  0
ENDTAB
  0
TABLE
  2
VIEW
  5
6
330
0
100
AcDbSymbolTable
 70
     0
  0
ENDTAB
  0
TABLE
  2
UCS
  5
7
330
0
100
AcDbSymbolTable
 70
     0
  0
ENDTAB
  0
TABLE
  2
APPID
  5
9
330
0
100
AcDbSymbolTable
 70
     1
  0
APPID
  5
12
330
9
100
AcDbSymbolTableRecord
100
AcDbRegAppTableRecord
  2
ACAD
 70
     0
  0
ENDTAB
  0
TABLE
  2
DIMSTYLE
  5
A
330
0
100
AcDbSymbolTable
 70
     1
100
AcDbDimStyleTable
  0
DIMSTYLE
105
27
330
A
100
AcDbSymbolTableRecord
100
AcDbDimStyleTableRecord
  2
ISO-25
 70
     0
 41
2.5
 42
0.625
 43
3.75
 44
1.25
 73
     0
 74
     0
 77
     1
 78
     8
140
2.5
141
2.5
143
0.0393700787
147
0.625
171
     3
172
     1
271
     2
272
     2
274
     3
278
    44
283
     0
284
     8
340
11
  0
ENDTAB
  0
TABLE
  2
BLOCK_RECORD
  5
1
330
0
100
AcDbSymbolTable
 70
    10
  0
BLOCK_RECORD
  5
1F
330
1
100
AcDbSymbolTableRecord
100
AcDbBlockTableRecord
  2
*Model_Space
340
22
  0
BLOCK_RECORD
  5
1B
330
1
100
AcDbSymbolTableRecord
100
AcDbBlockTableRecord
  2
*Paper_Space
340
1E
  0
BLOCK_RECORD
  5
60
330
1
100
AcDbSymbolTableRecord
100
AcDbBlockTableRecord
  2
SEANNOT_GROUP
340
0
102
{BLKREFS
331
61
102
}
  0
BLOCK_RECORD
  5
67
330
1
100
AcDbSymbolTableRecord
100
AcDbBlockTableRecord
  2
SEANNOT_GROUP1
340
0
102
{BLKREFS
331
68
102
}
  0
BLOCK_RECORD
  5
6D
330
1
100
AcDbSymbolTableRecord
100
AcDbBlockTableRecord
  2
SEANNOT_GROUP2
340
0
102
{BLKREFS
331
6E
102
}
  0
BLOCK_RECORD
  5
73
330
1
100
AcDbSymbolTableRecord
100
AcDbBlockTableRecord
  2
SEANNOT_GROUP3
340
0
102
{BLKREFS
331
74
102
}
  0
BLOCK_RECORD
  5
7A
330
1
100
AcDbSymbolTableRecord
100
AcDbBlockTableRecord
  2
SEANNOT_GROUP4
340
0
102
{BLKREFS
331
7B
102
}
  0
BLOCK_RECORD
  5
81
330
1
100
AcDbSymbolTableRecord
100
AcDbBlockTableRecord
  2
SEANNOT_GROUP5
340
0
102
{BLKREFS
331
82
102
}
  0
BLOCK_RECORD
  5
87
330
1
100
AcDbSymbolTableRecord
100
AcDbBlockTableRecord
  2
SE
340
0
102
{BLKREFS
331
88
102
}
  0
BLOCK_RECORD
  5
173
330
1
100
AcDbSymbolTableRecord
100
AcDbBlockTableRecord
  2
SE1
340
0
102
{BLKREFS
331
174
102
}
  0
BLOCK_RECORD
  5
20F
330
1
100
AcDbSymbolTableRecord
100
AcDbBlockTableRecord
  2
SE2
340
0
102
{BLKREFS
331
210
102
}
  0
ENDTAB
  0
ENDSEC
  0
SECTION
  2
BLOCKS
  0
BLOCK
  5
20
330
1F
100
AcDbEntity
  8
0
100
AcDbBlockBegin
  2
*Model_Space
 70
     0
 10
0.0
 20
0.0
 30
0.0
  3
*Model_Space
  1

  0
ENDBLK
  5
21
330
1F
100
AcDbEntity
  8
0
100
AcDbBlockEnd
  0
BLOCK
  5
1C
330
1B
100
AcDbEntity
 67
     1
  8
0
100
AcDbBlockBegin
  2
*Paper_Space
 70
     0
 10
0.0
 20
0.0
 30
0.0
  3
*Paper_Space
  1

  0
ENDBLK
  5
1D
330
1B
100
AcDbEntity
 67
     1
  8
0
100
AcDbBlockEnd
  0
BLOCK
  5
65
330
60
100
AcDbEntity
  8
0
100
AcDbBlockBegin
  2
SEANNOT_GROUP
 70
     0
 10
0.0
 20
0.0
 30
0.0
  3
SEANNOT_GROUP
  1

  0
LINE
  5
63
330
60
100
AcDbEntity
  8
Default
  6
CENTER2
 62
     7
100
AcDbLine
 10
234.1371887042
 20
991.1009229906
 30
0.0
 11
194.1371895983
 21
991.1009229906
 31
0.0
  0
LINE
  5
64
330
60
100
AcDbEntity
  8
Default
  6
CENTER2
 62
     7
100
AcDbLine
 10
214.1371891513
 20
1011.1009225436
 30
0.0
 11
214.1371891513
 21
971.1009234377
 31
0.0
  0
ENDBLK
  5
66
330
60
100
AcDbEntity
  8
0
100
AcDbBlockEnd
  0
BLOCK
  5
6B
330
67
100
AcDbEntity
  8
0
100
AcDbBlockBegin
  2
SEANNOT_GROUP1
 70
     0
 10
0.0
 20
0.0
 30
0.0
  3
SEANNOT_GROUP1
  1

  0
LINE
  5
69
330
67
100
AcDbEntity
  8
Default
  6
CENTER2
 62
     7
100
AcDbLine
 10
69.999999553
 20
269.79087143
 30
0.0
 11
30.000000447
 21
269.79087143
 31
0.0
  0
LINE
  5
6A
330
67
100
AcDbEntity
  8
Default
  6
CENTER2
 62
     7
100
AcDbLine
 10
50.0
 20
289.790870983
 30
0.0
 11
50.0
 21
249.7908718771
 31
0.0
  0
ENDBLK
  5
6C
330
67
100
AcDbEntity
  8
0
100
AcDbBlockEnd
  0
BLOCK
  5
71
330
6D
100
AcDbEntity
  8
0
100
AcDbBlockBegin
  2
SEANNOT_GROUP2
 70
     0
 10
0.0
 20
0.0
 30
0.0
  3
SEANNOT_GROUP2
  1

  0
LINE
  5
6F
330
6D
100
AcDbEntity
  8
Default
  6
CENTER2
 62
     7
100
AcDbLine
 10
234.1371887042
 20
392.6259229906
 30
0.0
 11
194.1371895983
 21
392.6259229906
 31
0.0
  0
LINE
  5
70
330
6D
100
AcDbEntity
  8
Default
  6
CENTER2
 62
     7
100
AcDbLine
 10
214.1371891513
 20
412.6259225436
 30
0.0
 11
214.1371891513
 21
372.6259234377
 31
0.0
  0
ENDBLK
  5
72
330
6D
100
AcDbEntity
  8
0
100
AcDbBlockEnd
  0
BLOCK
  5
77
330
73
100
AcDbEntity
  8
0
100
AcDbBlockBegin
  2
SEANNOT_GROUP3
 70
     0
 10
0.0
 20
0.0
 30
0.0
  3
SEANNOT_GROUP3
  1

  0
LINE
  5
75
330
73
100
AcDbEntity
  8
Default
  6
CENTER2
 62
     7
100
AcDbLine
 10
123.399999553
 20
384.7074929572
 30
0.0
 11
83.400000447
 21
384.7074929572
 31
0.0
  0
LINE
  5
76
330
73
100
AcDbEntity
  8
Default
  6
CENTER2
 62
     7
100
AcDbLine
 10
103.4
 20
404.7074925101
 30
0.0
 11
103.4
 21
364.7074934042
 31
0.0
  0
ENDBLK
  5
78
330
73
100
AcDbEntity
  8
0
100
AcDbBlockEnd
  0
BLOCK
  5
7E
330
7A
100
AcDbEntity
  8
0
100
AcDbBlockBegin
  2
SEANNOT_GROUP4
 70
     0
 10
0.0
 20
0.0
 30
0.0
  3
SEANNOT_GROUP4
  1

  0
LINE
  5
7C
330
7A
100
AcDbEntity
  8
Default
  6
CENTER2
 62
     7
100
AcDbLine
 10
69.999999553
 20
991.1009229906
 30
0.0
 11
30.000000447
 21
991.1009229906
 31
0.0
  0
LINE
  5
7D
330
7A
100
AcDbEntity
  8
Default
  6
CENTER2
 62
     7
100
AcDbLine
 10
50.0
 20
1011.1009225436
 30
0.0
 11
50.0
 21
971.1009234377
 31
0.0
  0
ENDBLK
  5
7F
330
7A
100
AcDbEntity
  8
0
100
AcDbBlockEnd
  0
BLOCK
  5
85
330
81
100
AcDbEntity
  8
0
100
AcDbBlockBegin
  2
SEANNOT_GROUP5
 70
     0
 10
0.0
 20
0.0
 30
0.0
  3
SEANNOT_GROUP5
  1

  0
LINE
  5
83
330
81
100
AcDbEntity
  8
Default
  6
CENTER2
 62
     7
100
AcDbLine
 10
69.999999553
 20
392.6259229906
 30
0.0
 11
30.000000447
 21
392.6259229906
 31
0.0
  0
LINE
  5
84
330
81
100
AcDbEntity
  8
Default
  6
CENTER2
 62
     7
100
AcDbLine
 10
50.0
 20
412.6259225436
 30
0.0
 11
50.0
 21
372.6259234377
 31
0.0
  0
ENDBLK
  5
86
330
81
100
AcDbEntity
  8
0
100
AcDbBlockEnd
  0
BLOCK
  5
171
330
87
100
AcDbEntity
  8
0
100
AcDbBlockBegin
  2
SE
 70
     0
 10
0.0
 20
0.0
 30
0.0
  3
SE
  1

  0
LINE
  5
8A
330
87
100
AcDbEntity
  8
DV1_Standard
  6
Continuous
 62
     7
100
AcDbLine
 10
34.5
 20
416.6259229906
 30
0.0
 11
65.5
 21
416.6259229906
 31
0.0
  0
LINE
  5
8B
330
87
100
AcDbEntity
  8
DV1_Standard
  6
Continuous
 62
     7
100
AcDbLine
 10
34.5
 20
368.6259229906
 30
0.0
 11
65.5
 21
368.6259229906
 31
0.0
  0
LINE
  5
8C
330
87
100
AcDbEntity
  8
DV1_Standard
  6
Continuous
 62
     7
100
AcDbLine
 10
34.5
 20
967.1009229906
 30
0.0
 11
65.5
 21
967.1009229906
 31
0.0
  0
LINE
  5
8D
330
87
100
AcDbEntity
  8
DV1_Standard
  6
Continuous
 62
     7
100
AcDbLine
 10
34.5
 20
1015.1009229906
 30
0.0
 11
65.5
 21
1015.1009229906
 31
0.0
  0
LINE
  5
8E
330
87
100
AcDbEntity
  8
DV1_Standard
  6
Continuous
 62
     7
100
AcDbLine
 10
6.35
 20
675.1259229906
 30
0.0
 11
6.35
 21
702.1259229906
 31
0.0
  0
LINE
  5
8F
330
87
100
AcDbEntity
  8
DV1_Standard
  6
Continuous
 62
     7
100
AcDbLine
 10
16.55
 20
710.6259229906
 30
0.0
 11
8.55
 21
710.6259229906
 31
0.0
  0
ARC
  5
90
330
87
100
AcDbEntity
  8
DV1_Standard
  6
Continuous
 62
     7
100
AcDbCircle
 10
12.5500000078
 20
715.0387158254
 30
0.0
 40
13.51814405640693
100
AcDbArc
 50
252.7885719468
 51
287.2114295819
  0
LINE
  5
91
330
87
100
AcDbEntity
  8
DV1_Standard
  6
Continuous
 62
     7
100
AcDbLine
 10
32.75
 20
670.6259229906
 30
0.0
 11
32.75
 21
706.6259229906
 31
0.0
  0
LINE
  5
92
330
87
100
AcDbEntity
  8
DV1_Standard
  6
Continuous
 62
     7
100
AcDbLine
 10
25.25
 20
670.6259229906
 30
0.0
 11
25.25
 21
706.6259229906
 31
0.0
  0
LINE
  5
93
330
87
100
AcDbEntity
  8
DV1_Standard
  6
Continuous
 62
     7
100
AcDbLine
 10
114.9000000001
 20
385.2074929573
 30
0.0
 11
91.8999999999
 21
385.2074929573
 31
0.0
  0
LINE
  5
94
330
87
100
AcDbEntity
  8
DV1_Standard
  6
Continuous
 62
     7
100
AcDbLine
 10
114.9000000001
 20
397.7074929573
 30
0.0
 11
91.8999999999
 21
397.7074929573
 31
0.0
  0
LINE
  5
95
330
87
100
AcDbEntity
  8
DV1_Standard
  6
Continuous
 62
     7
100
AcDbLine
 10
114.4
 20
398.2074929574
 30
0.0
 11
92.4
 21
398.2074929574
 31
0.0
  0
LINE
  5
96
330
87
100
AcDbEntity
  8
DV1_Standard
  6
Continuous
 62
     7
100
AcDbLine
 10
110.89905
 20
415.7074929573
 30
0.0
 11
95.90095
 21
415.7074929573
 31
0.0
  0
LINE
  5
97
330
87
100
AcDbEntity
  8
DV1_Standard
  6
Continuous
 62
     7
100
AcDbLine
 10
115.2
 20
707.1259229906
 30
0.0
 11
91.6
 21
707.1259229906
 31
0.0
  0
LINE
  5
98
330
87
100
AcDbEntity
  8
DV1_Standard
  6
Continuous
 62
     7
100
AcDbLine
 10
114.9
 20
707.4259229906
 30
0.0
 11
91.9
 21
707.4259229906
 31
0.0
  0
LINE
  5
99
330
87
100
AcDbEntity
  8
DV1_Standard
  6
Continuous
 62
     7
100
AcDbLine
 10
114.9
 20
710.1259229906
 30
0.0
 11
91.9
 21
710.1259229906
 31
0.0
  0
LINE
  5
9A
330
87
100
AcDbEntity
  8
DV1_Standard
  6
Continuous
 62
     7
100
AcDbLine
 10
114.4
 20
710.6259229906
 30
0.0
 11
92.4
 21
710.6259229906
 31
0.0
  0
LINE
  5
9B
330
87
100
AcDbEntity
  8
DV1_Standard
  6
Continuous
 62
     7
100
AcDbLine
 10
114.4
 20
384.7074929572
 30
0.0
 11
92.4
 21
384.7074929572
 31
0.0
  0
LINE
  5
9C
330
87
100
AcDbEntity
  8
DV1_Standard
  6
Continuous
 62
     7
100
AcDbLine
 10
65.5
 20
368.6259229906
 30
0.0
 11
65.5
 21
416.6259229906
 31
0.0
  0
LINE
  5
9D
330
87
100
AcDbEntity
  8
DV1_Standard
  6
Continuous
 62
     7
100
AcDbLine
 10
34.5
 20
416.6259229906
 30
0.0
 11
34.5
 21
368.6259229906
 31
0.0
  0
LINE
  5
9E
330
87
100
AcDbEntity
  8
DV1_Standard
  6
Continuous
 62
     7
100
AcDbLine
 10
65.5
 20
967.1009229906
 30
0.0
 11
65.5
 21
1015.1009229906
 31
0.0
  0
LINE
  5
9F
330
87
100
AcDbEntity
  8
DV1_Standard
  6
Continuous
 62
     7
100
AcDbLine
 10
34.5
 20
1015.1009229906
 30
0.0
 11
34.5
 21
967.1009229906
 31
0.0
  0
LINE
  5
A0
330
87
100
AcDbEntity
  8
DV1_Standard
  6
Continuous
 62
     7
100
AcDbLine
 10
6.35
 20
675.1259229906
 30
0.0
 11
25.25
 21
675.1259229906
 31
0.0
  0
LINE
  5
A1
330
87
100
AcDbEntity
  8
DV1_Standard
  6
Continuous
 62
     7
100
AcDbLine
 10
8.5544800634
 20
702.1259229906
 30
0.0
 11
6.35
 21
702.1259229906
 31
0.0
  0
LINE
  5
A2
330
87
100
AcDbEntity
  8
DV1_Standard
  6
Continuous
 62
     7
100
AcDbLine
 10
25.25
 20
702.1259229906
 30
0.0
 11
16.55
 21
702.1259229906
 31
0.0
  0
LINE
  5
A3
330
87
100
AcDbEntity
  8
DV1_Standard
  6
Continuous
 62
     7
100
AcDbLine
 10
8.55
 20
710.6259229906
 30
0.0
 11
8.55
 21
702.1246068936
 31
0.0
  0
LINE
  5
A4
330
87
100
AcDbEntity
  8
DV1_Standard
  6
Continuous
 62
     7
100
AcDbLine
 10
16.55
 20
702.1259229906
 30
0.0
 11
16.55
 21
710.6259229906
 31
0.0
  0
LINE
  5
A5
330
87
100
AcDbEntity
  8
DV1_Standard
  6
Continuous
 62
     7
100
AcDbLine
 10
25.25
 20
670.6259229906
 30
0.0
 11
32.75
 21
670.6259229906
 31
0.0
  0
LINE
  5
A6
330
87
100
AcDbEntity
  8
DV1_Standard
  6
Continuous
 62
     7
100
AcDbLine
 10
32.75
 20
706.6259229906
 30
0.0
 11
25.25
 21
706.6259229906
 31
0.0
  0
ARC
  5
A7
330
87
100
AcDbEntity
  8
DV1_Standard
  6
Continuous
 62
     7
100
AcDbCircle
 10
114.4
 20
385.2074929573
 30
0.0
 40
0.5000000001019744
100
AcDbArc
 50
270.0
 51
0.0
  0
ARC
  5
A8
330
87
100
AcDbEntity
  8
DV1_Standard
  6
Continuous
 62
     7
100
AcDbCircle
 10
92.4
 20
385.2074929573
 30
0.0
 40
0.5000000001020368
100
AcDbArc
 50
179.9999999995
 51
270.0
  0
LINE
  5
A9
330
87
100
AcDbEntity
  8
DV1_Standard
  6
Continuous
 62
     7
100
AcDbLine
 10
114.9000000001
 20
385.2074929573
 30
0.0
 11
114.9000000001
 21
397.7074929573
 31
0.0
  0
LINE
  5
AA
330
87
100
AcDbEntity
  8
DV1_Standard
  6
Continuous
 62
     7
100
AcDbLine
 10
91.8999999999
 20
397.7074929573
 30
0.0
 11
91.8999999999
 21
385.2074929573
 31
0.0
  0
ARC
  5
AB
330
87
100
AcDbEntity
  8
DV1_Standard
  6
Continuous
 62
     7
100
AcDbCircle
 10
114.4
 20
397.7074929573
 30
0.0
 40
0.5000000001054022
100
AcDbArc
 50
0.0
 51
90.0
  0
ARC
  5
AC
330
87
100
AcDbEntity
  8
DV1_Standard
  6
Continuous
 62
     7
100
AcDbCircle
 10
92.4
 20
397.7074929573
 30
0.0
 40
0.5000000001053051
100
AcDbArc
 50
90.0
 51
180.0
  0
LINE
  5
AD
330
87
100
AcDbEntity
  8
DV1_Standard
  6
Continuous
 62
     7
100
AcDbLine
 10
110.89905
 20
398.2074929574
 30
0.0
 11
110.89905
 21
415.7074929573
 31
0.0
  0
LINE
  5
AE
330
87
100
AcDbEntity
  8
DV1_Standard
  6
Continuous
 62
     7
100
AcDbLine
 10
95.90095
 20
415.7074929573
 30
0.0
 11
95.90095
 21
398.2074929574
 31
0.0
  0
LINE
  5
AF
330
87
100
AcDbEntity
  8
DV1_Standard
  6
Continuous
 62
     7
100
AcDbLine
 10
109.4
 20
415.7074929573
 30
0.0
 11
109.4
 21
671.6259229906
 31
0.0
  0
LINE
  5
B0
330
87
100
AcDbEntity
  8
DV1_Standard
  6
Continuous
 62
     7
100
AcDbLine
 10
97.4
 20
671.6259229906
 30
0.0
 11
97.4
 21
415.7074929573
 31
0.0
  0
LINE
  5
B1
330
87
100
AcDbEntity
  8
DV1_Standard
  6
Continuous
 62
     7
100
AcDbLine
 10
91.6
 20
707.1259229906
 30
0.0
 11
91.6254756565
 21
705.6259229906
 31
0.0
  0
LINE
  5
B2
330
87
100
AcDbEntity
  8
DV1_Standard
  6
Continuous
 62
     7
100
AcDbLine
 10
115.1745243435
 20
705.6259229906
 30
0.0
 11
115.2
 21
707.1259229906
 31
0.0
  0
LINE
  5
B3
330
87
100
AcDbEntity
  8
DV1_Standard
  6
Continuous
 62
     7
100
AcDbLine
 10
115.2
 20
707.1259229906
 30
0.0
 11
114.9
 21
707.4259229906
 31
0.0
  0
LINE
  5
B4
330
87
100
AcDbEntity
  8
DV1_Standard
  6
Continuous
 62
     7
100
AcDbLine
 10
91.9
 20
707.4259229906
 30
0.0
 11
91.6
 21
707.1259229906
 31
0.0
  0
LINE
  5
B5
330
87
100
AcDbEntity
  8
DV1_Standard
  6
Continuous
 62
     7
100
AcDbLine
 10
114.9
 20
707.4259229906
 30
0.0
 11
114.9
 21
710.1259229906
 31
0.0
  0
LINE
  5
B6
330
87
100
AcDbEntity
  8
DV1_Standard
  6
Continuous
 62
     7
100
AcDbLine
 10
91.9
 20
710.1259229906
 30
0.0
 11
91.9
 21
707.4259229906
 31
0.0
  0
ARC
  5
B7
330
87
100
AcDbEntity
  8
DV1_Standard
  6
Continuous
 62
     7
100
AcDbCircle
 10
114.4
 20
710.1259229906
 30
0.0
 40
0.5000000000000143
100
AcDbArc
 50
0.0
 51
90.0
  0
ARC
  5
B8
330
87
100
AcDbEntity
  8
DV1_Standard
  6
Continuous
 62
     7
100
AcDbCircle
 10
92.4
 20
710.1259229906
 30
0.0
 40
0.500000000000056
100
AcDbArc
 50
90.0
 51
180.0
  0
ELLIPSE
  5
B9
330
87
100
AcDbEntity
  8
DV1_Standard
  6
Continuous
 62
     7
100
AcDbEllipse
 10
103.4
 20
882.5719272797
 30
0.0
 11
-44.23847695390783
 21
0.0
 31
0.0
210
0.0
220
0.0
230
1.0
 40
0.7622886623
 41
0.0
 42
0.7159834192037228
  0
ELLIPSE
  5
BA
330
87
100
AcDbEntity
  8
DV1_Standard
  6
Continuous
 62
     7
100
AcDbEllipse
 10
103.4
 20
882.5719272797
 30
0.0
 11
-44.23847695390783
 21
0.0
 31
0.0
210
0.0
220
0.0
230
1.0
 40
0.7622886623
 41
0.7159834192037228
 42
2.461650374916505
  0
ELLIPSE
  5
BB
330
87
100
AcDbEntity
  8
DV1_Standard
  6
Continuous
 62
     7
100
AcDbEllipse
 10
103.4
 20
882.5719272797
 30
0.0
 11
-44.23847695390783
 21
0.0
 31
0.0
210
0.0
220
0.0
230
1.0
 40
0.7622886623
 41
2.461650374916505
 42
6.283185307179586
  0
ELLIPSE
  5
BC
330
87
100
AcDbEntity
  8
DV1_Standard
  6
Continuous
 62
     7
100
AcDbEllipse
 10
103.4
 20
883.1760711228
 30
0.0
 11
-46.08247422680413
 21
6.938893903907228E-14
 31
0.0
210
0.0
220
0.0
230
1.0
 40
0.7622886623
 41
1.76361027532045
 42
3.472876614331054
  0
ARC
  5
BD
330
87
100
AcDbEntity
  8
DV1_Standard
  6
Continuous
 62
     7
100
AcDbCircle
 10
112.7530757044
 20
877.8304359902
 30
0.0
 40
38.11217870704368
100
AcDbArc
 50
26.1071757446
 51
48.2045011424
  0
ELLIPSE
  5
BE
330
87
100
AcDbEntity
  8
DV1_Standard
  6
Continuous
 62
     7
100
AcDbEllipse
 10
103.4
 20
883.1760711228
 30
0.0
 11
46.08247422680422
 21
-4.024558464266192E-13
 31
0.0
210
0.0
220
0.0
230
1.0
 40
0.7622886623
 41
0.7164127241238575
 42
2.425679063134455
  0
ARC
  5
BF
330
87
100
AcDbEntity
  8
DV1_Standard
  6
Continuous
 62
     7
100
AcDbCircle
 10
94.0361784851
 20
877.8411489845
 30
0.0
 40
38.09723835467888
100
AcDbArc
 50
131.824376188
 51
153.9275214668
  0
ELLIPSE
  5
C0
330
87
100
AcDbEntity
  8
DV1_Standard
  6
Continuous
 62
     7
100
AcDbEllipse
 10
103.4
 20
883.1760711228
 30
0.0
 11
46.08247422680412
 21
2.498001805406602E-13
 31
0.0
210
0.0
220
0.0
230
1.0
 40
0.7622886623
 41
2.810807826517035
 42
4.520074165527647
  0
ARC
  5
C1
330
87
100
AcDbEntity
  8
DV1_Standard
  6
Continuous
 62
     7
100
AcDbCircle
 10
103.3993589104
 20
911.4024909291
 30
0.0
 40
63.32242211721969
100
AcDbArc
 50
262.005120849
 51
278.0166792749
  0
ARC
  5
C2
330
87
100
AcDbEntity
  8
DV1_Standard
  6
Continuous
 62
     7
100
AcDbCircle
 10
57.2245869678
 20
896.7581087691
 30
0.0
 40
3.381685817387731
100
AcDbArc
 50
306.2341750395
 51
320.017202216
  0
SPLINE
  5
C3
330
87
100
AcDbEntity
  8
DV1_Standard
  6
Continuous
 62
     7
100
AcDbSpline
210
0.0
220
0.0
230
1.0
 70
     8
 71
     3
 72
    20
 73
    16
 74
     0
 42
0.0000000038516822
 43
0.0000000001
 40
0.0
 40
0.0
 40
0.0
 40
0.0
 40
0.1358204596695355
 40
0.1358204596695355
 40
0.2716409193390709
 40
0.2716409193390709
 40
0.5432818386781288
 40
0.5432818386781288
 40
0.6791022983476506
 40
0.6791022983476506
 40
0.8149227580171723
 40
0.8149227580171723
 40
0.9507432176866939
 40
0.9507432176866939
 40
0.9999999999999999
 40
0.9999999999999999
 40
0.9999999999999999
 40
0.9999999999999999
 10
59.22345711272825
 20
894.0304143010788
 30
0.0
 10
59.09268209896321
 20
893.9333615189764
 30
0.0
 10
58.95882093239049
 20
893.8466160485076
 30
0.0
 10
58.68966573135588
 20
893.6931285744021
 30
0.0
 10
58.55380768761476
 20
893.6261170008881
 30
0.0
 10
58.15631753960489
 20
893.4581592776117
 30
0.0
 10
57.90309147682809
 20
893.3890474433817
 30
0.0
 10
57.57006692696309
 20
893.3686424922223
 30
0.0
 10
57.46785993475603
 20
893.3764421757057
 30
0.0
 10
57.29558762025825
 20
893.4247517092115
 30
0.0
 10
57.22372416150526
 20
893.4661310168915
 30
0.0
 10
57.12471146418639
 20
893.5822520187251
 30
0.0
 10
57.09753450299247
 20
893.6552436818066
 30
0.0
 10
57.09647023906513
 20
893.7753400710566
 30
0.0
 10
57.09979067211657
 20
893.8092795232303
 30
0.0
 10
57.10665118170009
 20
893.8444973604942
 30
0.0
  0
SPLINE
  5
C4
330
87
100
AcDbEntity
  8
DV1_Standard
  6
Continuous
 62
     7
100
AcDbSpline
210
0.0
220
0.0
230
1.0
 70
     8
 71
     3
 72
    10
 73
     6
 74
     0
 42
0.0000000063805152
 43
0.0000000001
 40
0.0
 40
0.0
 40
0.0
 40
0.0
 40
0.2258732423527546
 40
0.2258732423527546
 40
1.0
 40
1.0
 40
1.0
 40
1.0
 10
91.9812564366144
 20
848.8984491403877
 30
0.0
 10
92.09089497291164
 20
848.8778344690962
 30
0.0
 10
92.20247865874775
 20
848.8601369152397
 30
0.0
 10
92.70438019122368
 20
848.7919628512384
 30
0.0
 10
93.11581171916438
 20
848.7666893741449
 30
0.0
 10
93.53937661539186
 20
848.7471376882785
 30
0.0
  0
ARC
  5
C5
330
87
100
AcDbEntity
  8
DV1_Standard
  6
Continuous
 62
     7
100
AcDbCircle
 10
91.8658716876
 20
803.8419097685
 30
0.0
 40
44.93640076012788
100
AcDbArc
 50
86.5217004023
 51
87.8657180822
  0
SPLINE
  5
C6
330
87
100
AcDbEntity
  8
DV1_Standard
  6
Continuous
 62
     7
100
AcDbSpline
210
0.0
220
0.0
230
1.0
 70
     8
 71
     3
 72
    12
 73
     8
 74
     0
 42
0.000000011916047
 43
0.0000000001
 40
0.0
 40
0.0
 40
0.0
 40
0.0
 40
0.4271249412217865
 40
0.4271249412217865
 40
0.854249882443573
 40
0.854249882443573
 40
1.0
 40
1.0
 40
1.0
 40
1.0
 10
136.2452199560496
 20
911.7249125326942
 30
0.0
 10
136.1695388223334
 20
911.8806810528398
 30
0.0
 10
136.1822204986055
 20
911.9684836260428
 30
0.0
 10
136.3242876384639
 20
912.0214955719194
 30
0.0
 10
136.4443007865714
 20
911.9958601457372
 30
0.0
 10
136.6278239990127
 20
911.9274408534403
 30
0.0
 10
136.6762844057063
 20
911.9074798070421
 30
0.0
 10
136.7262448282277
 20
911.885252665739
 30
0.0
  0
SPLINE
  5
C7
330
87
100
AcDbEntity
  8
DV1_Standard
  6
Continuous
 62
     7
100
AcDbSpline
210
0.0
220
0.0
230
1.0
 70
     8
 71
     3
 72
    12
 73
     8
 74
     0
 42
0.0000000117994201
 43
0.0000000001
 40
0.0
 40
0.0
 40
0.0
 40
0.0
 40
0.1482269156429561
 40
0.1482269156429561
 40
0.5741134578214788
 40
0.5741134578214788
 40
1.0
 40
1.0
 40
1.0
 40
1.0
 10
70.0496783049681
 20
911.8692345503097
 30
0.0
 10
70.10150016525714
 20
911.8924973056636
 30
0.0
 10
70.15177093328936
 20
911.913369790964
 30
0.0
 10
70.33924886147501
 20
911.9836600910392
 30
0.0
 10
70.45875533389578
 20
912.0091819495236
 30
0.0
 10
70.60119269275086
 20
911.9559395299708
 30
0.0
 10
70.61380835982703
 20
911.868980594798
 30
0.0
 10
70.5378166980346
 20
911.7125533611395
 30
0.0
  0
ARC
  5
C8
330
87
100
AcDbEntity
  8
DV1_Standard
  6
Continuous
 62
     7
100
AcDbCircle
 10
68.4402425722
 20
912.7329729002
 30
0.0
 40
2.332610822448222
100
AcDbArc
 50
332.2822269244
 51
334.0581888442
  0
ELLIPSE
  5
C9
330
87
100
AcDbEntity
  8
DV1_Standard
  6
Continuous
 62
     7
100
AcDbEllipse
 10
103.4
 20
885.4424931084
 30
0.0
 11
47.58022932183248
 21
-9.714451465470120E-14
 31
0.0
210
0.0
220
0.0
230
1.0
 40
0.7622886623
 41
0.8079272526894052
 42
2.334158677310747
  0
ARC
  5
CA
330
87
100
AcDbEntity
  8
DV1_Standard
  6
Continuous
 62
     7
100
AcDbCircle
 10
138.3407473748
 20
912.7444659044
 30
0.0
 40
2.33039143507194
100
AcDbArc
 50
205.9446744163
 51
207.7221999874
  0
ELLIPSE
  5
CB
330
87
100
AcDbEntity
  8
DV1_Standard
  6
Continuous
 62
     7
100
AcDbEllipse
 10
103.4
 20
888.1036657088
 30
0.0
 11
46.24757757664059
 21
5.551115123125783E-14
 31
0.0
210
0.0
220
0.0
230
1.0
 40
0.7622886623
 41
0.7347798185484641
 42
2.407246142560223
  0
ELLIPSE
  5
CC
330
87
100
AcDbEntity
  8
DV1_Standard
  6
Continuous
 62
     7
100
AcDbEllipse
 10
103.4
 20
888.1036657088
 30
0.0
 11
46.24757757664059
 21
5.551115123125783E-14
 31
0.0
210
0.0
220
0.0
230
1.0
 40
0.7622886623
 41
-3.302757830472457
 42
-3.292141649637058
  0
ELLIPSE
  5
CD
330
87
100
AcDbEntity
  8
DV1_Standard
  6
Continuous
 62
     7
100
AcDbEllipse
 10
103.4
 20
888.1895352412
 30
0.0
 11
-46.05925128988912
 21
-2.775557561562891E-14
 31
0.0
210
0.0
220
0.0
230
1.0
 40
0.7622886623
 41
-0.160778338842853
 42
-0.1497404035410277
  0
ELLIPSE
  5
CE
330
87
100
AcDbEntity
  8
DV1_Standard
  6
Continuous
 62
     7
100
AcDbEllipse
 10
103.4
 20
888.1895352412
 30
0.0
 11
-45.54999999999999
 21
1.387778780781446E-14
 31
0.0
210
0.0
220
0.0
230
1.0
 40
0.7622886623
 41
-0.1685978996803286
 42
-0.1565426191109784
  0
ELLIPSE
  5
CF
330
87
100
AcDbEntity
  8
DV1_Standard
  6
Continuous
 62
     7
100
AcDbEllipse
 10
103.4
 20
882.6880190262
 30
0.0
 11
43.95
 21
2.775557561562891E-14
 31
0.0
210
0.0
220
0.0
230
1.0
 40
0.7622886623
 41
0.0
 42
3.607738399789332
  0
ELLIPSE
  5
D0
330
87
100
AcDbEntity
  8
DV1_Standard
  6
Continuous
 62
     7
100
AcDbEllipse
 10
103.4
 20
882.6880190262
 30
0.0
 11
43.95
 21
2.775557561562891E-14
 31
0.0
210
0.0
220
0.0
230
1.0
 40
0.7622886623
 41
5.872016572063439
 42
6.283185307179585
  0
ELLIPSE
  5
D1
330
87
100
AcDbEntity
  8
DV1_Standard
  6
Continuous
 62
     7
100
AcDbEllipse
 10
103.4
 20
887.6717454798
 30
0.0
 11
-43.95000000000024
 21
-1.804112415015879E-13
 31
0.0
210
0.0
220
0.0
230
1.0
 40
0.7622886623
 41
0.0744469833199954
 42
0.0988212797331749
  0
LINE
  5
D2
330
87
100
AcDbEntity
  8
DV1_Standard
  6
Continuous
 62
     7
100
AcDbLine
 10
59.4955298403
 20
884.2125963508
 30
0.0
 11
59.4955298403
 21
882.1342975043
 31
0.0
  0
ELLIPSE
  5
D3
330
87
100
AcDbEntity
  8
DV1_Standard
  6
Continuous
 62
     7
100
AcDbEllipse
 10
103.3999999961
 20
883.6588748289
 30
0.0
 11
43.94999999610832
 21
2.435551760271437E-11
 31
0.0
210
0.0
220
0.0
230
1.0
 40
0.7622886623
 41
3.156082426938383
 42
3.187114631229238
  0
LINE
  5
D4
330
87
100
AcDbEntity
  8
DV1_Standard
  6
Continuous
 62
     7
100
AcDbLine
 10
138.3593066251
 20
906.4749649688
 30
0.0
 11
138.3593066251
 21
906.3588796152
 31
0.0
  0
LINE
  5
D5
330
87
100
AcDbEntity
  8
DV1_Standard
  6
Continuous
 62
     7
100
AcDbLine
 10
139.5348771297
 20
904.9886920902
 30
0.0
 11
139.5348771297
 21
905.0250701034
 31
0.0
  0
ELLIPSE
  5
D6
330
87
100
AcDbEntity
  8
DV1_Standard
  6
Continuous
 62
     7
100
AcDbEllipse
 10
103.4
 20
887.6717454798
 30
0.0
 11
-43.94999999999991
 21
2.081668171172169E-13
 31
0.0
210
0.0
220
0.0
230
1.0
 40
0.7622886623
 41
3.042771373855087
 42
3.06714567026958
  0
ELLIPSE
  5
D7
330
87
100
AcDbEntity
  8
DV1_Standard
  6
Continuous
 62
     7
100
AcDbEllipse
 10
103.3999999983
 20
886.6685278169
 30
0.0
 11
-43.94999999832235
 21
3.806399639927349E-10
 31
0.0
210
0.0
220
0.0
230
1.0
 40
0.7622886623
 41
0.066007744156803
 42
0.0954421833441253
  0
ELLIPSE
  5
D8
330
87
100
AcDbEntity
  8
DV1_Standard
  6
Continuous
 62
     7
100
AcDbEllipse
 10
103.4000000023
 20
885.2769678335
 30
0.0
 11
-43.95000000226141
 21
-5.291600491119652E-10
 31
0.0
210
0.0
220
0.0
230
1.0
 40
0.7622886623
 41
0.066007744138081
 42
0.0959977373641834
  0
LINE
  5
D9
330
87
100
AcDbEntity
  8
DV1_Standard
  6
Continuous
 62
     7
100
AcDbLine
 10
59.545710806
 20
884.4587031706
 30
0.0
 11
59.545710806
 21
883.0671431868
 31
0.0
  0
LINE
  5
DA
330
87
100
AcDbEntity
  8
DV1_Standard
  6
Continuous
 62
     7
100
AcDbLine
 10
140.5828159835
 20
903.997659453
 30
0.0
 11
140.5828159835
 21
903.9822641865
 31
0.0
  0
LINE
  5
DB
330
87
100
AcDbEntity
  8
DV1_Standard
  6
Continuous
 62
     7
100
AcDbLine
 10
59.896527773
 20
887.451585469
 30
0.0
 11
59.955705271
 21
887.4456465806
 31
0.0
  0
SPLINE
  5
DC
330
87
100
AcDbEntity
  8
DV1_Standard
  6
Continuous
 62
     7
100
AcDbSpline
210
0.0
220
0.0
230
1.0
 70
     8
 71
     3
 72
    26
 73
    22
 74
     0
 42
0.0000000004029649
 43
0.0000000001
 40
0.0
 40
0.0
 40
0.0
 40
0.0
 40
0.0639649832695307
 40
0.0639649832695307
 40
0.1365031400889789
 40
0.1365031400889789
 40
0.1727722184987022
 40
0.1727722184987022
 40
0.2090412969084255
 40
0.2090412969084255
 40
0.4991939241862088
 40
0.4991939241862088
 40
0.7893465514639919
 40
0.7893465514639919
 40
0.8256156298737143
 40
0.8256156298737143
 40
0.8618847082834367
 40
0.8618847082834367
 40
0.9344228651028818
 40
0.9344228651028818
 40
1.0
 40
1.0
 40
1.0
 40
1.0
 10
115.6600542787073
 20
849.0410085441928
 30
0.0
 10
115.3234020987506
 20
848.7953960095139
 30
0.0
 10
114.8913973016437
 20
848.6566458853446
 30
0.0
 10
113.8958109253229
 20
848.4762625626349
 30
0.0
 10
113.3117052820452
 20
848.4533054060748
 30
0.0
 10
112.4015103942953
 20
848.4105367464723
 30
0.0
 10
112.0863851794196
 20
848.3929530068193
 30
0.0
 10
111.469201130075
 20
848.330516420638
 30
0.0
 10
111.1643434203093
 20
848.2842324182076
 30
0.0
 10
108.4066210157329
 20
847.9367248565504
 30
0.0
 10
105.9262902289118
 20
847.783371446694
 30
0.0
 10
100.970636648551
 20
847.7793961373931
 30
0.0
 10
98.49495874628306
 20
847.9284072389552
 30
0.0
 10
95.73359636876235
 20
848.2714613714619
 30
0.0
 10
95.42849545718245
 20
848.3173775717725
 30
0.0
 10
94.8115514820327
 20
848.3840225822507
 30
0.0
 10
94.49559460428964
 20
848.4031556365069
 30
0.0
 10
93.56729325785685
 20
848.4477122038751
 30
0.0
 10
92.97556209707952
 20
848.4675551142956
 30
0.0
 10
91.95088973290046
 20
848.6453400994952
 30
0.0
 10
91.5003770871668
 20
848.7869100239888
 30
0.0
 10
91.15331772818654
 20
849.0432819344733
 30
0.0
  0
SPLINE
  5
DD
330
87
100
AcDbEntity
  8
DV1_Standard
  6
Continuous
 62
     7
100
AcDbSpline
210
0.0
220
0.0
230
1.0
 70
     8
 71
     3
 72
     8
 73
     4
 74
     0
 42
0.0000002707278519
 43
0.0000000001
 40
0.0
 40
0.0
 40
0.0
 40
0.0
 40
0.9999999999999999
 40
0.9999999999999999
 40
0.9999999999999999
 40
0.9999999999999999
 10
56.89508511959666
 20
894.1837247963816
 30
0.0
 10
56.89791685006062
 20
894.1715950248037
 30
0.0
 10
56.90140141768124
 20
894.1597936020087
 30
0.0
 10
56.90551568725544
 20
894.1483333168406
 30
0.0
  0
SPLINE
  5
DE
330
87
100
AcDbEntity
  8
DV1_Standard
  6
Continuous
 62
     7
100
AcDbSpline
210
0.0
220
0.0
230
1.0
 70
     8
 71
     3
 72
    32
 73
    28
 74
     0
 42
0.0000000004323136
 43
0.0000000001
 40
0.0
 40
0.0
 40
0.0
 40
0.0
 40
0.0235063662916705
 40
0.0235063662916705
 40
0.0886059418722265
 40
0.0886059418722265
 40
0.1537055174527825
 40
0.1537055174527825
 40
0.1862553052430604
 40
0.1862553052430604
 40
0.2188050930333383
 40
0.2188050930333383
 40
0.4792033953555603
 40
0.4792033953555603
 40
0.7396016976777822
 40
0.7396016976777822
 40
0.7721514854680605
 40
0.7721514854680605
 40
0.8047012732583387
 40
0.8047012732583387
 40
0.8698008488388927
 40
0.8698008488388927
 40
0.9349004244194468
 40
0.9349004244194468
 40
0.9674502122097234
 40
0.9674502122097234
 40
1.0
 40
1.0
 40
1.0
 40
1.0
 10
56.90551568725544
 20
894.1483333168406
 30
0.0
 10
56.9322377657334
 20
894.0738990499266
 30
0.0
 10
56.98552363326572
 20
894.013855572029
 30
0.0
 10
57.26261879269514
 20
893.8549784204496
 30
0.0
 10
57.61197746671202
 20
893.8680297943085
 30
0.0
 10
58.36145506755353
 20
894.0838181542925
 30
0.0
 10
58.77713905676018
 20
894.2832319296136
 30
0.0
 10
59.3160179051208
 20
894.7307202631325
 30
0.0
 10
59.4821876666438
 20
894.9098057888039
 30
0.0
 10
59.74422842637266
 20
895.3162729472073
 30
0.0
 10
59.84012276487972
 20
895.5458880258785
 30
0.0
 10
60.83305505085678
 20
897.528472906383
 30
0.0
 10
61.90002285766932
 20
899.2412147126338
 30
0.0
 10
64.37335870101803
 20
902.5146998430184
 30
0.0
 10
65.7795469107394
 20
904.0757824556973
 30
0.0
 10
67.54124367621428
 20
905.7387177813088
 30
0.0
 10
67.74983383970024
 20
905.9120593124568
 30
0.0
 10
68.11460188223755
 20
906.3116579294193
 30
0.0
 10
68.26858190832897
 20
906.5446526966696
 30
0.0
 10
68.65597619642561
 20
907.3033811280222
 30
0.0
 10
68.82691230789669
 20
907.87880929119
 30
0.0
 10
69.14096169844167
 20
909.0719924703645
 30
0.0
 10
69.27778014928188
 20
909.7070380654496
 30
0.0
 10
69.50122114872859
 20
910.5894470993285
 30
0.0
 10
69.57563493577547
 20
910.8654440520522
 30
0.0
 10
69.74072940668331
 20
911.3460949820504
 30
0.0
 10
69.83711888273395
 20
911.5453084336833
 30
0.0
 10
69.9132726396679
 20
911.6976864679427
 30
0.0
  0
SPLINE
  5
DF
330
87
100
AcDbEntity
  8
DV1_Standard
  6
Continuous
 62
     7
100
AcDbSpline
210
0.0
220
0.0
230
1.0
 70
     8
 71
     3
 72
    10
 73
     6
 74
     0
 42
0.000000021852608
 43
0.0000000001
 40
0.0
 40
0.0
 40
0.0
 40
0.0
 40
0.7477065822794003
 40
0.7477065822794003
 40
1.0
 40
1.0
 40
1.0
 40
1.0
 10
69.9132726396679
 20
911.6976864679427
 30
0.0
 10
69.98331671398373
 20
911.8378394792195
 30
0.0
 10
69.90484480569276
 20
911.8751563540973
 30
0.0
 10
69.77178266124142
 20
911.8643058270255
 30
0.0
 10
69.73416971129839
 20
911.8565910093689
 30
0.0
 10
69.69365279032435
 20
911.845018627437
 30
0.0
  0
SPLINE
  5
E0
330
87
100
AcDbEntity
  8
DV1_Standard
  6
Continuous
 62
     7
100
AcDbSpline
210
0.0
220
0.0
230
1.0
 70
     8
 71
     3
 72
    32
 73
    28
 74
     0
 42
0.0000000004311962
 43
0.0000000001
 40
0.0
 40
0.0
 40
0.0
 40
0.0
 40
0.0323660896758399
 40
0.0323660896758399
 40
0.0647321793516798
 40
0.0647321793516798
 40
0.1294643587033618
 40
0.1294643587033618
 40
0.1941965380550439
 40
0.1941965380550439
 40
0.2265626277308848
 40
0.2265626277308848
 40
0.2589287174067259
 40
0.2589287174067259
 40
0.5178574348134385
 40
0.5178574348134385
 40
0.776786152220151
 40
0.776786152220151
 40
0.8091522418959908
 40
0.8091522418959908
 40
0.8415183315718304
 40
0.8415183315718304
 40
0.9062505109235099
 40
0.9062505109235099
 40
0.9709826902751894
 40
0.9709826902751894
 40
1.0
 40
1.0
 40
1.0
 40
1.0
 10
136.8698205894951
 20
911.7102521236968
 30
0.0
 10
136.9449491673771
 20
911.559937671967
 30
0.0
 10
137.0393326355473
 20
911.3655095835018
 30
0.0
 10
137.2022879705653
 20
910.8954423765078
 30
0.0
 10
137.2768506825673
 20
910.6211232178365
 30
0.0
 10
137.498796806184
 20
909.7497945981664
 30
0.0
 10
137.6340967448845
 20
909.1229402072441
 30
0.0
 10
137.9427340071271
 20
907.9416755015817
 30
0.0
 10
138.1111556611987
 20
907.3698813409101
 30
0.0
 10
138.4824717005875
 20
906.61561870898
 30
0.0
 10
138.6314271539402
 20
906.3786372622799
 30
0.0
 10
138.9865704435557
 20
905.9702223145083
 30
0.0
 10
139.1955338148142
 20
905.7973268408065
 30
0.0
 10
140.9603239334138
 20
904.1388282492521
 30
0.0
 10
142.373686913422
 20
902.5767330312444
 30
0.0
 10
144.8560046504342
 20
899.3071562802892
 30
0.0
 10
145.9254943429819
 20
897.5995451777746
 30
0.0
 10
146.9251599550265
 20
895.6165910924457
 30
0.0
 10
147.0216707031198
 20
895.3871009663457
 30
0.0
 10
147.2738466357336
 20
894.9721344525419
 30
0.0
 10
147.4358234873847
 20
894.7879641840636
 30
0.0
 10
147.9767305457199
 20
894.3210352816758
 30
0.0
 10
148.3975255950271
 20
894.1151873650497
 30
0.0
 10
149.159792139055
 20
893.8872861908516
 30
0.0
 10
149.5170810602346
 20
893.8699506098266
 30
0.0
 10
149.8209330499208
 20
894.0359043401613
 30
0.0
 10
149.8833738787223
 20
894.1144928176114
 30
0.0
 10
149.9021326867142
 20
894.21581070355
 30
0.0
  0
SPLINE
  5
E1
330
87
100
AcDbEntity
  8
DV1_Standard
  6
Continuous
 62
     7
100
AcDbSpline
210
0.0
220
0.0
230
1.0
 70
     8
 71
     3
 72
    10
 73
     6
 74
     0
 42
0.0000000221779272
 43
0.0000000001
 40
0.0
 40
0.0
 40
0.0
 40
0.0
 40
0.2484536013717674
 40
0.2484536013717674
 40
1.0
 40
1.0
 40
1.0
 40
1.0
 10
137.0841561865205
 20
911.8593249667783
 30
0.0
 10
137.0449808110213
 20
911.8702021792906
 30
0.0
 10
137.0085457756396
 20
911.8773730243706
 30
0.0
 10
136.8766567004798
 20
911.8872645942308
 30
0.0
 10
136.8002579634504
 20
911.8494304269511
 30
0.0
 10
136.8698205894951
 20
911.7102521236968
 30
0.0
  0
ARC
  5
E2
330
87
100
AcDbEntity
  8
DV1_Standard
  6
Continuous
 62
     7
100
AcDbCircle
 10
136.8376584596
 20
911.3823471057
 30
0.0
 40
0.3294785325804143
100
AcDbArc
 50
84.3981374741
 51
112.8455418951
  0
ARC
  5
E3
330
87
100
AcDbEntity
  8
DV1_Standard
  6
Continuous
 62
     7
100
AcDbCircle
 10
135.0688096387
 20
910.7916131801
 30
0.0
 40
1.868834012153088
100
AcDbArc
 50
26.7165923327
 51
28.5919980857
  0
SPLINE
  5
E4
330
87
100
AcDbEntity
  8
DV1_Standard
  6
Continuous
 62
     7
100
AcDbSpline
210
0.0
220
0.0
230
1.0
 70
     8
 71
     3
 72
    20
 73
    16
 74
     0
 42
0.0000000021608919
 43
0.0000000001
 40
0.0
 40
0.0
 40
0.0
 40
0.0
 40
0.1249999999999976
 40
0.1249999999999976
 40
0.2499999999999951
 40
0.2499999999999951
 40
0.3749999999999927
 40
0.3749999999999927
 40
0.4999999999999902
 40
0.4999999999999902
 40
0.7499999999999922
 40
0.7499999999999922
 40
0.8749999999999961
 40
0.8749999999999961
 40
1.0
 40
1.0
 40
1.0
 40
1.0
 10
136.7381292345045
 20
911.6317992619082
 30
0.0
 10
136.7956062414241
 20
911.5188498961973
 30
0.0
 10
136.8561639353401
 20
911.3896443879912
 30
0.0
 10
136.9619874667522
 20
911.0912382163489
 30
0.0
 10
137.0110118902847
 20
910.9246587091897
 30
0.0
 10
137.106625812524
 20
910.5609163620356
 30
0.0
 10
137.1534036616545
 20
910.3652993332887
 30
0.0
 10
137.2451864835932
 20
909.9671602174011
 30
0.0
 10
137.2911601137118
 20
909.7602451259265
 30
0.0
 10
137.4302226687369
 20
909.141072049466
 30
0.0
 10
137.5230556468157
 20
908.7349685655195
 30
0.0
 10
137.6811725673886
 20
908.13692508592
 30
0.0
 10
137.7369233018937
 20
907.9391967286919
 30
0.0
 10
137.8566987506208
 20
907.5554585413169
 30
0.0
 10
137.9209802308901
 20
907.3684799389971
 30
0.0
 10
137.9925518557321
 20
907.1867259854247
 30
0.0
  0
SPLINE
  5
E5
330
87
100
AcDbEntity
  8
DV1_Standard
  6
Continuous
 62
     7
100
AcDbSpline
210
0.0
220
0.0
230
1.0
 70
     8
 71
     3
 72
    22
 73
    18
 74
     0
 42
0.0000000006107514
 43
0.0000000001
 40
0.0
 40
0.0
 40
0.0
 40
0.0
 40
0.0625000000000014
 40
0.0625000000000014
 40
0.1250000000000028
 40
0.1250000000000028
 40
0.2500000000000038
 40
0.2500000000000038
 40
0.5000000000000034
 40
0.5000000000000034
 40
0.750000000000003
 40
0.750000000000003
 40
0.8750000000000029
 40
0.8750000000000029
 40
0.9375000000000014
 40
0.9375000000000014
 40
1.0
 40
1.0
 40
1.0
 40
1.0
 10
147.7942372401474
 20
894.2532131994041
 30
0.0
 10
147.5435665486593
 20
894.423766335278
 30
0.0
 10
147.3019731731516
 20
894.6399985066716
 30
0.0
 10
146.9205940033982
 20
895.1543583994566
 30
0.0
 10
146.7950874311419
 20
895.4608447789835
 30
0.0
 10
146.3616918071219
 20
896.3420577148225
 30
0.0
 10
146.0503968205271
 20
896.9225740937198
 30
0.0
 10
145.0566706829648
 20
898.6420099574076
 30
0.0
 10
144.314230576308
 20
899.756272405012
 30
0.0
 10
142.6725889224993
 20
901.9218880967142
 30
0.0
 10
141.7721449007131
 20
902.9738623024834
 30
0.0
 10
140.315310557332
 20
904.4870901769901
 30
0.0
 10
139.8118099699773
 20
904.981709505156
 30
0.0
 10
139.0274094154983
 20
905.7071773438252
 30
0.0
 10
138.7498757954721
 20
905.9339112327968
 30
0.0
 10
138.3106098230578
 20
906.5065144696605
 30
0.0
 10
138.1377896913823
 20
906.8368694090548
 30
0.0
 10
137.9925518557321
 20
907.1867259854247
 30
0.0
  0
SPLINE
  5
E6
330
87
100
AcDbEntity
  8
DV1_Standard
  6
Continuous
 62
     7
100
AcDbSpline
210
0.0
220
0.0
230
1.0
 70
     8
 71
     3
 72
    16
 73
    12
 74
     0
 42
0.0000000049619354
 43
0.0000000001
 40
0.0
 40
0.0
 40
0.0
 40
0.0
 40
0.3695475140273115
 40
0.3695475140273115
 40
0.5543212710409672
 40
0.5543212710409672
 40
0.7390950280546229
 40
0.7390950280546229
 40
0.9238687850682786
 40
0.9238687850682786
 40
1.0
 40
1.0
 40
1.0
 40
1.0
 10
147.7942372401474
 20
894.2532131994041
 30
0.0
 10
148.0564120365469
 20
894.082002543949
 30
0.0
 10
148.331148251704
 20
893.9544715253058
 30
0.0
 10
148.7209133279051
 20
893.8277119808133
 30
0.0
 10
148.847831373566
 20
893.7962670882785
 30
0.0
 10
149.0910678647931
 20
893.7572398559446
 30
0.0
 10
149.2077333987737
 20
893.749741001375
 30
0.0
 10
149.4173333250256
 20
893.7623017687353
 30
0.0
 10
149.5113040845183
 20
893.7820434986916
 30
0.0
 10
149.6229123973238
 20
893.8314885337121
 30
0.0
 10
149.6527127724626
 20
893.8485433589345
 30
0.0
 10
149.679348940265
 20
893.8681082604671
 30
0.0
  0
SPLINE
  5
E7
330
87
100
AcDbEntity
  8
DV1_Standard
  6
Continuous
 62
     7
100
AcDbSpline
210
0.0
220
0.0
230
1.0
 70
     8
 71
     3
 72
     8
 73
     4
 74
     0
 42
0.0000000400403124
 43
0.0000000001
 40
0.0
 40
0.0
 40
0.0
 40
0.0
 40
1.0
 40
1.0
 40
1.0
 40
1.0
 10
136.7314365688871
 20
911.8729253596186
 30
0.0
 10
136.6722232219573
 20
911.854303498411
 30
0.0
 10
136.6497341666579
 20
911.798703580639
 30
0.0
 10
136.7097390082743
 20
911.6859796425023
 30
0.0
  0
SPLINE
  5
E8
330
87
100
AcDbEntity
  8
DV1_Standard
  6
Continuous
 62
     7
100
AcDbSpline
210
0.0
220
0.0
230
1.0
 70
     8
 71
     3
 72
    16
 73
    12
 74
     0
 42
0.0000000049451256
 43
0.0000000001
 40
0.0
 40
0.0
 40
0.0
 40
0.0
 40
0.0811331965871966
 40
0.0811331965871966
 40
0.2649065572697654
 40
0.2649065572697654
 40
0.6324532786348815
 40
0.6324532786348815
 40
0.8162266393174408
 40
0.8162266393174408
 40
0.9999999999999999
 40
0.9999999999999999
 40
0.9999999999999999
 40
0.9999999999999999
 10
57.10999428435228
 20
893.8542639990943
 30
0.0
 10
57.13812681465831
 20
893.832976048571
 30
0.0
 10
57.16984208121752
 20
893.8146154735845
 30
0.0
 10
57.2831858084606
 20
893.7646516732052
 30
0.0
 10
57.3787577337718
 20
893.7446223906791
 30
0.0
 10
57.69495563140695
 20
893.7265400211234
 30
0.0
 10
57.94096447808763
 20
893.7678170877931
 30
0.0
 10
58.33224392201768
 20
893.8951540957587
 30
0.0
 10
58.46687226263452
 20
893.9487875517074
 30
0.0
 10
58.73457343269234
 20
894.0766435371636
 30
0.0
 10
58.86828697238108
 20
894.1510822528173
 30
0.0
 10
58.99925081974956
 20
894.2367404793638
 30
0.0
  0
SPLINE
  5
E9
330
87
100
AcDbEntity
  8
DV1_Standard
  6
Continuous
 62
     7
100
AcDbSpline
210
0.0
220
0.0
230
1.0
 70
     8
 71
     3
 72
    22
 73
    18
 74
     0
 42
0.0000000006108247
 43
0.0000000001
 40
0.0
 40
0.0
 40
0.0
 40
0.0
 40
0.0625000000000016
 40
0.0625000000000016
 40
0.1250000000000033
 40
0.1250000000000033
 40
0.2500000000000032
 40
0.2500000000000032
 40
0.5000000000000031
 40
0.5000000000000031
 40
0.750000000000003
 40
0.750000000000003
 40
0.8750000000000022
 40
0.8750000000000022
 40
0.9375000000000011
 40
0.9375000000000011
 40
1.0
 40
1.0
 40
1.0
 40
1.0
 10
68.79216887041265
 20
907.1744272711609
 30
0.0
 10
68.64536739015774
 20
906.8201888788035
 30
0.0
 10
68.46893920340105
 20
906.48449769533
 30
0.0
 10
68.02735685818543
 20
905.9122828243444
 30
0.0
 10
67.74921756892755
 20
905.6858264129357
 30
0.0
 10
66.96469787372672
 20
904.9589981145197
 30
0.0
 10
66.46057430778853
 20
904.4628988741266
 30
0.0
 10
65.0037517175317
 20
902.9468196419039
 30
0.0
 10
64.10902145859971
 20
901.8994889033349
 30
0.0
 10
62.46951674182781
 20
899.7329325825453
 30
0.0
 10
61.72465879697712
 20
898.6125772647468
 30
0.0
 10
60.73417920708519
 20
896.8945610159898
 30
0.0
 10
60.42425653143037
 20
896.3151991509011
 30
0.0
 10
59.99234173071103
 20
895.4347382241255
 30
0.0
 10
59.86646511834779
 20
895.1288404286397
 30
0.0
 10
59.48442520968598
 20
894.6170548727317
 30
0.0
 10
59.24671155424053
 20
894.4053727367012
 30
0.0
 10
58.99925081974956
 20
894.2367404793638
 30
0.0
  0
SPLINE
  5
EA
330
87
100
AcDbEntity
  8
DV1_Standard
  6
Continuous
 62
     7
100
AcDbSpline
210
0.0
220
0.0
230
1.0
 70
     8
 71
     3
 72
    20
 73
    16
 74
     0
 42
0.0000000021609778
 43
0.0000000001
 40
0.0
 40
0.0
 40
0.0
 40
0.0
 40
0.2500000000000032
 40
0.2500000000000032
 40
0.3750000000000026
 40
0.3750000000000026
 40
0.5000000000000021
 40
0.5000000000000021
 40
0.6250000000000016
 40
0.6250000000000016
 40
0.750000000000001
 40
0.750000000000001
 40
0.8750000000000006
 40
0.8750000000000006
 40
1.0
 40
1.0
 40
1.0
 40
1.0
 10
68.79216887041265
 20
907.1744272711609
 30
0.0
 10
68.93512798293379
 20
907.5381241094021
 30
0.0
 10
69.05041604646763
 20
907.9255509967776
 30
0.0
 10
69.20761862888845
 20
908.520965264361
 30
0.0
 10
69.25718622459823
 20
908.7225383691361
 30
0.0
 10
69.35380850654603
 20
909.1322343874775
 30
0.0
 10
69.40118100404982
 20
909.3413186684098
 30
0.0
 10
69.49332174572805
 20
909.7522744870721
 30
0.0
 10
69.53843966366746
 20
909.9556581541966
 30
0.0
 10
69.63068675255879
 20
910.3562085886391
 30
0.0
 10
69.6772790627705
 20
910.551060026742
 30
0.0
 10
69.77233858014337
 20
910.9127999493794
 30
0.0
 10
69.82276650146713
 20
911.0839293373655
 30
0.0
 10
69.92836336363065
 20
911.3806935541371
 30
0.0
 10
69.98764613305605
 20
911.5067576577193
 30
0.0
 10
70.0448836162527
 20
911.6192616214711
 30
0.0
  0
ARC
  5
EB
330
87
100
AcDbEntity
  8
DV1_Standard
  6
Continuous
 62
     7
100
AcDbCircle
 10
71.7240710029
 20
910.7741533321
 30
0.0
 40
1.879861244939255
100
AcDbArc
 50
151.4201342153
 51
153.2846152305
  0
ARC
  5
EC
330
87
100
AcDbEntity
  8
DV1_Standard
  6
Continuous
 62
     7
100
AcDbCircle
 10
69.945433422
 20
911.3698031632
 30
0.0
 40
0.3294567915086649
100
AcDbArc
 50
67.1687467688
 51
95.6019979005
  0
SPLINE
  5
ED
330
87
100
AcDbEntity
  8
DV1_Standard
  6
Continuous
 62
     7
100
AcDbSpline
210
0.0
220
0.0
230
1.0
 70
     8
 71
     3
 72
     8
 73
     4
 74
     0
 42
0.0000000375537871
 43
0.0000000001
 40
0.0
 40
0.0
 40
0.0
 40
0.0
 40
1.0
 40
1.0
 40
1.0
 40
1.0
 10
70.07326871225006
 20
911.6734475539334
 30
0.0
 10
70.13685417114502
 20
911.7928933214212
 30
0.0
 10
70.10815493936718
 20
911.8480884846712
 30
0.0
 10
70.04108796901316
 20
911.8632449463045
 30
0.0
  0
SPLINE
  5
EE
330
87
100
AcDbEntity
  8
DV1_Standard
  6
Continuous
 62
     7
100
AcDbSpline
210
0.0
220
0.0
230
1.0
 70
     8
 71
     3
 72
     8
 73
     4
 74
     0
 42
0.0000005211395503
 43
0.0000000001
 40
0.0
 40
0.0
 40
0.0
 40
0.0
 40
1.0
 40
1.0
 40
1.0
 40
1.0
 10
70.04108796901316
 20
911.8632449463045
 30
0.0
 10
70.03507900967864
 20
911.864602910756
 30
0.0
 10
70.02876205272749
 20
911.8656394639091
 30
0.0
 10
70.02217587720067
 20
911.8663720198485
 30
0.0
  0
SPLINE
  5
EF
330
87
100
AcDbEntity
  8
DV1_Standard
  6
Continuous
 62
     7
100
AcDbSpline
210
0.0
220
0.0
230
1.0
 70
     8
 71
     3
 72
    14
 73
    10
 74
     0
 42
0.0000000040686897
 43
0.0000000001
 40
0.0
 40
0.0
 40
0.0
 40
0.0
 40
0.109066739928517
 40
0.109066739928517
 40
0.5545333699642621
 40
0.5545333699642621
 40
0.7772666849821309
 40
0.7772666849821309
 40
1.0
 40
1.0
 40
1.0
 40
1.0
 10
115.5931145934112
 20
849.0387178561267
 30
0.0
 10
115.5245005110958
 20
848.999203069264
 30
0.0
 10
115.4526384220731
 20
848.9630454189686
 30
0.0
 10
115.0748216998659
 20
848.7956647800271
 30
0.0
 10
114.7359798750994
 20
848.7143723590611
 30
0.0
 10
114.1865835105967
 20
848.6329440086299
 30
0.0
 10
113.9962044354747
 20
848.6129685046537
 30
0.0
 10
113.6087278166898
 20
848.5826822470779
 30
0.0
 10
113.4107327967311
 20
848.5722486655858
 30
0.0
 10
113.2081973245213
 20
848.5634092516705
 30
0.0
  0
ARC
  5
F0
330
87
100
AcDbEntity
  8
DV1_Standard
  6
Continuous
 62
     7
100
AcDbCircle
 10
103.3981715537
 20
915.9305811941
 30
0.0
 40
68.0776942995895
100
AcDbArc
 50
261.7364518229
 51
278.285191197
  0
SPLINE
  5
F1
330
87
100
AcDbEntity
  8
DV1_Standard
  6
Continuous
 62
     7
100
AcDbSpline
210
0.0
220
0.0
230
1.0
 70
     8
 71
     3
 72
    14
 73
    10
 74
     0
 42
0.0000000041772614
 43
0.0000000001
 40
0.0
 40
0.0
 40
0.0
 40
0.0
 40
0.4588592496390654
 40
0.4588592496390654
 40
0.6882888744585982
 40
0.6882888744585982
 40
0.9177184992781309
 40
0.9177184992781309
 40
1.0
 40
1.0
 40
1.0
 40
1.0
 10
93.61359388944346
 20
848.5597083997036
 30
0.0
 10
93.20845998052198
 20
848.5772499046968
 30
0.0
 10
92.81843570182738
 20
848.601936332583
 30
0.0
 10
92.2714680432054
 20
848.682734925076
 30
0.0
 10
92.0949824018379
 20
848.7167352539989
 30
0.0
 10
91.75512362866314
 20
848.8052806131807
 30
0.0
 10
91.59108559717878
 20
848.8603287420948
 30
0.0
 10
91.38610787624137
 20
848.9515042116964
 30
0.0
 10
91.33351583516155
 20
848.9771411832601
 30
0.0
 10
91.2825379494325
 20
849.0045507270424
 30
0.0
  0
ARC
  5
F2
330
87
100
AcDbEntity
  8
DV1_Standard
  6
Continuous
 62
     7
100
AcDbCircle
 10
142.2364129723
 20
909.0372200041
 30
0.0
 40
4.946574253008583
100
AcDbArc
 50
203.3314420829
 51
214.3778607355
  0
SPLINE
  5
F3
330
87
100
AcDbEntity
  8
DV1_Standard
  6
Continuous
 62
     7
100
AcDbSpline
210
0.0
220
0.0
230
1.0
 70
     8
 71
     3
 72
    20
 73
    16
 74
     0
 42
0.0000000020815362
 43
0.0000000001
 40
0.0
 40
0.0
 40
0.0
 40
0.0
 40
0.1250000000000037
 40
0.1250000000000037
 40
0.2500000000000074
 40
0.2500000000000074
 40
0.5000000000000034
 40
0.5000000000000034
 40
0.6250000000000026
 40
0.6250000000000026
 40
0.7500000000000017
 40
0.7500000000000017
 40
0.8750000000000009
 40
0.8750000000000009
 40
1.0
 40
1.0
 40
1.0
 40
1.0
 10
137.6943241501623
 20
907.0781319579596
 30
0.0
 10
137.6133591983562
 20
907.2606442574389
 30
0.0
 10
137.5392094441582
 20
907.4485403260786
 30
0.0
 10
137.3996245834426
 20
907.8347216310847
 30
0.0
 10
137.3338877459153
 20
908.033880354124
 30
0.0
 10
137.1462894030348
 20
908.6384282428475
 30
0.0
 10
137.034323935644
 20
909.0514870732292
 30
0.0
 10
136.870343890247
 20
909.6872885677737
 30
0.0
 10
136.8166543202213
 20
909.900922020151
 30
0.0
 10
136.7119004746779
 20
910.3149954793441
 30
0.0
 10
136.6598110320984
 20
910.5200326155302
 30
0.0
 10
136.5556884845732
 20
910.9043576909022
 30
0.0
 10
136.5039358338821
 20
911.0815619117136
 30
0.0
 10
136.3968184212958
 20
911.4013213066918
 30
0.0
 10
136.3414526314647
 20
911.5424405982908
 30
0.0
 10
136.2778535321254
 20
911.6604026062731
 30
0.0
  0
SPLINE
  5
F4
330
87
100
AcDbEntity
  8
DV1_Standard
  6
Continuous
 62
     7
100
AcDbSpline
210
0.0
220
0.0
230
1.0
 70
     8
 71
     3
 72
    20
 73
    16
 74
     0
 42
0.0000000020816422
 43
0.0000000001
 40
0.0
 40
0.0
 40
0.0
 40
0.0
 40
0.125
 40
0.125
 40
0.25
 40
0.25
 40
0.375
 40
0.375
 40
0.5
 40
0.5
 40
0.625
 40
0.625
 40
0.75
 40
0.75
 40
1.0
 40
1.0
 40
1.0
 40
1.0
 10
70.50518487932611
 20
911.6480367189824
 30
0.0
 10
70.44175262272995
 20
911.5303551567495
 30
0.0
 10
70.38780281832918
 20
911.393076941895
 30
0.0
 10
70.28089961303374
 20
911.0747361184134
 30
0.0
 10
70.22760509760981
 20
910.8923405540545
 30
0.0
 10
70.12420881409899
 20
910.5104898599697
 30
0.0
 10
70.07229751033432
 20
910.3060459634884
 30
0.0
 10
69.96703311845664
 20
909.8894750002273
 30
0.0
 10
69.9143211537052
 20
909.6794286465489
 30
0.0
 10
69.80566302839749
 20
909.2573689720518
 30
0.0
 10
69.74932863369445
 20
909.0439393442927
 30
0.0
 10
69.6339491574674
 20
908.6270903892071
 30
0.0
 10
69.57462849974387
 20
908.4226892173892
 30
0.0
 10
69.38798698208751
 20
907.8204650275305
 30
0.0
 10
69.25226138487785
 20
907.4311707534677
 30
0.0
 10
69.09050763364355
 20
907.0659438715578
 30
0.0
  0
ARC
  5
F5
330
87
100
AcDbEntity
  8
DV1_Standard
  6
Continuous
 62
     7
100
AcDbCircle
 10
64.5464118833
 20
909.0223310302
 30
0.0
 40
4.947348471955626
100
AcDbArc
 50
325.6516011563
 51
336.7064846207
  0
SPLINE
  5
F6
330
87
100
AcDbEntity
  8
DV1_Standard
  6
Continuous
 62
     7
100
AcDbSpline
210
0.0
220
0.0
230
1.0
 70
     8
 71
     3
 72
    20
 73
    16
 74
     0
 42
0.0000000038185697
 43
0.0000000001
 40
0.0
 40
0.0
 40
0.0
 40
0.0
 40
0.0583604321825672
 40
0.0583604321825672
 40
0.1928803704422012
 40
0.1928803704422012
 40
0.3274003087018352
 40
0.3274003087018352
 40
0.4619202469614692
 40
0.4619202469614692
 40
0.5964401852211033
 40
0.5964401852211033
 40
0.7309601234807372
 40
0.7309601234807372
 40
1.0
 40
1.0
 40
1.0
 40
1.0
 10
149.6830490286211
 20
893.8844702768454
 30
0.0
 10
149.6928875255572
 20
893.842312999799
 30
0.0
 10
149.6977543525316
 20
893.8016944130452
 30
0.0
 10
149.69737130741
 20
893.6751659662074
 30
0.0
 10
149.6695976108082
 20
893.599806601876
 30
0.0
 10
149.5713599104718
 20
893.4841778323663
 30
0.0
 10
149.4999568305285
 20
893.4425487150817
 30
0.0
 10
149.3267493645655
 20
893.3936504651201
 30
0.0
 10
149.2262202617811
 20
893.3859317704259
 30
0.0
 10
149.0053865728864
 20
893.3989076154139
 30
0.0
 10
148.8840888869645
 20
893.420009654728
 30
0.0
 10
148.6335072710294
 20
893.4863474344195
 30
0.0
 10
148.5037944180261
 20
893.5315314965726
 30
0.0
 10
148.1076328266917
 20
893.6987954771292
 30
0.0
 10
147.8319268959605
 20
893.8527235860671
 30
0.0
 10
147.5701157509673
 20
894.0467390486509
 30
0.0
  0
ARC
  5
F7
330
87
100
AcDbEntity
  8
DV1_Standard
  6
Continuous
 62
     7
100
AcDbCircle
 10
149.5675156093
 20
896.7767531811
 30
0.0
 40
3.38268877630269
100
AcDbArc
 50
220.0141563745
 51
233.8091364294
  0
ARC
  5
F8
330
87
100
AcDbEntity
  8
DV1_Standard
  6
Continuous
 62
     7
100
AcDbCircle
 10
114.9670254879
 20
803.967550214
 30
0.0
 40
44.81497079281935
100
AcDbArc
 50
92.1545271166
 51
93.5009559299
  0
SPLINE
  5
F9
330
87
100
AcDbEntity
  8
DV1_Standard
  6
Continuous
 62
     7
100
AcDbSpline
210
0.0
220
0.0
230
1.0
 70
     8
 71
     3
 72
    12
 73
     8
 74
     0
 42
0.0000000056413109
 43
0.0000000001
 40
0.0
 40
0.0
 40
0.0
 40
0.0
 40
0.3397667603694629
 40
0.3397667603694629
 40
0.6795335207389257
 40
0.6795335207389257
 40
1.0
 40
1.0
 40
1.0
 40
1.0
 10
113.2822187371117
 20
848.7508398807637
 30
0.0
 10
113.4939587026829
 20
848.7606869618772
 30
0.0
 10
113.7019696234536
 20
848.7718430945648
 30
0.0
 10
114.1107096852039
 20
848.8026526796765
 30
0.0
 10
114.3123045664723
 20
848.8224349445229
 30
0.0
 10
114.691285007242
 20
848.8740803045372
 30
0.0
 10
114.869705316757
 20
848.9048335871192
 30
0.0
 10
115.041652316373
 20
848.9440467714488
 30
0.0
  0
ELLIPSE
  5
FA
330
87
100
AcDbEntity
  8
DV1_Standard
  6
Continuous
 62
     7
100
AcDbEllipse
 10
137.9002255973
 20
906.9521658223
 30
0.0
 11
-0.468385489945003
 21
-0.1749715199949597
 31
0.0
210
0.0
220
0.0
230
1.0
 40
0.3981507268
 41
4.368508925825458
 42
5.014569943621392
  0
ELLIPSE
  5
FB
330
87
100
AcDbEntity
  8
DV1_Standard
  6
Continuous
 62
     7
100
AcDbEllipse
 10
136.6095590855
 20
912.0154441547
 30
0.0
 11
-0.4428349924308628
 21
-0.2321576392860514
 31
0.0
210
0.0
220
0.0
230
1.0
 40
0.8056412571
 41
0.4096363014591575
 42
1.441916917230933
  0
ELLIPSE
  5
FC
330
87
100
AcDbEntity
  8
DV1_Standard
  6
Continuous
 62
     7
100
AcDbEllipse
 10
138.32761747
 20
906.0722778058
 30
0.0
 11
0.4199284542400345
 21
0.2714039301842386
 31
0.0
210
0.0
220
0.0
230
1.0
 40
0.480004702
 41
1.145734949574479
 42
1.676291595476568
  0
ELLIPSE
  5
FD
330
87
100
AcDbEntity
  8
DV1_Standard
  6
Continuous
 62
     7
100
AcDbEllipse
 10
147.1946467917
 20
894.3716823809
 30
0.0
 11
0.3715085206351526
 21
0.3346362489260735
 31
0.0
210
0.0
220
0.0
230
1.0
 40
0.63363349
 41
1.056050390278914
 42
1.586607073716032
  0
ARC
  5
FE
330
87
100
AcDbEntity
  8
DV1_Standard
  6
Continuous
 62
     7
100
AcDbCircle
 10
113.0767372582
 20
878.0389193309
 30
0.0
 40
37.98537498352204
100
AcDbArc
 50
26.0851382975
 51
48.2265395792
  0
ARC
  5
FF
330
87
100
AcDbEntity
  8
DV1_Standard
  6
Continuous
 62
     7
100
AcDbCircle
 10
136.5148356287
 20
912.1511525762
 30
0.0
 40
0.5043542263511129
100
AcDbArc
 50
237.6848376133
 51
292.7332565615
  0
ELLIPSE
  5
100
330
87
100
AcDbEntity
  8
DV1_Standard
  6
Continuous
 62
     7
100
AcDbEllipse
 10
147.8353620442
 20
893.8425687764
 30
0.0
 11
0.2659294277257973
 21
0.4234165082627195
 31
0.0
210
0.0
220
0.0
230
0.9999999999999998
 40
0.6677721856
 41
0.8609076701640294
 42
1.507104197206228
  0
ELLIPSE
  5
101
330
87
100
AcDbEntity
  8
DV1_Standard
  6
Continuous
 62
     7
100
AcDbEllipse
 10
59.5978399085
 20
894.3550177916
 30
0.0
 11
-0.3716987535304864
 21
0.3344249342137479
 31
0.0
210
0.0
220
0.0
230
1.0
 40
0.633800774
 41
4.696273253364788
 42
5.226829899266632
  0
ARC
  5
102
330
87
100
AcDbEntity
  8
DV1_Standard
  6
Continuous
 62
     7
100
AcDbCircle
 10
57.6042696264
 20
896.5659290685
 30
0.0
 40
2.714975508820296
100
AcDbArc
 50
300.9179376827
 51
317.2976964013
  0
ELLIPSE
  5
103
330
87
100
AcDbEntity
  8
DV1_Standard
  6
Continuous
 62
     7
100
AcDbEllipse
 10
58.9582233069
 20
893.8261103058
 30
0.0
 11
-0.2662260605588787
 21
0.4232300611716339
 31
0.0
210
0.0
220
0.0
230
1.0
 40
0.6679285354
 41
4.775853339251638
 42
5.421914357047832
  0
ELLIPSE
  5
104
330
87
100
AcDbEntity
  8
DV1_Standard
  6
Continuous
 62
     7
100
AcDbEllipse
 10
68.4572067749
 20
906.0589855211
 30
0.0
 11
-0.4200699407129367
 21
0.2711848906364473
 31
0.0
210
0.0
220
0.0
230
1.0
 40
0.4801590782
 41
4.606587950526622
 42
5.137144633963414
  0
ARC
  5
105
330
87
100
AcDbEntity
  8
DV1_Standard
  6
Continuous
 62
     7
100
AcDbCircle
 10
93.7123028615
 20
878.0495752926
 30
0.0
 40
37.97030196715608
100
AcDbArc
 50
131.8022788043
 51
153.9496198399
  0
ARC
  5
106
330
87
100
AcDbEntity
  8
DV1_Standard
  6
Continuous
 62
     7
100
AcDbCircle
 10
70.2680327681
 20
912.1385906898
 30
0.0
 40
0.5042729164618767
100
AcDbArc
 50
247.2800353562
 51
302.3436316377
  0
ELLIPSE
  5
107
330
87
100
AcDbEntity
  8
DV1_Standard
  6
Continuous
 62
     7
100
AcDbEllipse
 10
68.8844754438
 20
906.9399553238
 30
0.0
 11
-0.4684926336517084
 21
0.1746844360956956
 31
0.0
210
0.0
220
0.0
230
1.0
 40
0.3981594391
 41
4.409723798812944
 42
5.055920325855257
  0
ELLIPSE
  5
108
330
87
100
AcDbEntity
  8
DV1_Standard
  6
Continuous
 62
     7
100
AcDbEllipse
 10
70.1733082
 20
912.0029535076
 30
0.0
 11
0.4428533433364079
 21
-0.2321226320201597
 31
0.0
210
0.0
220
0.0
230
1.0
 40
0.8056242691
 41
4.84150871695682
 42
5.873955770709125
  0
ELLIPSE
  5
109
330
87
100
AcDbEntity
  8
DV1_Standard
  6
Continuous
 62
     7
100
AcDbEllipse
 10
113.3415510957
 20
848.2746795323
 30
0.0
 11
-0.014490765978592
 21
0.4997899735901812
 31
0.0
210
0.0
220
0.0
230
0.9999999999999998
 40
0.3080612848
 41
0.2999212537658755
 42
0.9459822715626094
  0
ELLIPSE
  5
10A
330
87
100
AcDbEntity
  8
DV1_Standard
  6
Continuous
 62
     7
100
AcDbEllipse
 10
112.2745426215
 20
848.2392918298
 30
0.0
 11
-0.02698772195691007
 21
0.4992711316145759
 31
0.0
210
0.0
220
0.0
230
0.9999999999999998
 40
0.0999726099
 41
0.3959892321596686
 42
0.9265458780616285
  0
ELLIPSE
  5
10B
330
87
100
AcDbEntity
  8
DV1_Standard
  6
Continuous
 62
     7
100
AcDbEllipse
 10
94.5481464333
 20
848.2359195252
 30
0.0
 11
0.02679990439503899
 21
0.4992812485209164
 31
0.0
210
0.0
220
0.0
230
1.0
 40
0.1002875273
 41
-0.9265281954177373
 42
-0.3959715119804956
  0
ARC
  5
10C
330
87
100
AcDbEntity
  8
DV1_Standard
  6
Continuous
 62
     7
100
AcDbCircle
 10
103.3994463562
 20
911.1146703191
 30
0.0
 40
63.19604143201148
100
AcDbArc
 50
262.0000181319
 51
278.0217815092
  0
ELLIPSE
  5
10D
330
87
100
AcDbEntity
  8
DV1_Standard
  6
Continuous
 62
     7
100
AcDbEllipse
 10
93.480162512
 20
848.2709384403
 30
0.0
 11
0.01431932740664915
 21
0.4997949148026481
 31
0.0
210
0.0
220
0.0
230
0.9999999999999999
 40
0.308496867
 41
5.337201988746778
 42
5.983398515789234
  0
SPLINE
  5
10E
330
87
100
AcDbEntity
  8
DV1_Standard
  6
Continuous
 62
     7
100
AcDbSpline
210
0.0
220
0.0
230
1.0
 70
     8
 71
     3
 72
    42
 73
    38
 74
     0
 42
0.0000000001548515
 43
0.0000000001
 40
0.0
 40
0.0
 40
0.0
 40
0.0
 40
0.0111142227156351
 40
0.0407703997652412
 40
0.07037930578641
 40
0.0999479595031741
 40
0.1294850150169862
 40
0.1590004279001121
 40
0.188505031935556
 40
0.2180076003285069
 40
0.2475180799685822
 40
0.2770472547105008
 40
0.3066049893022208
 40
0.336199830718914
 40
0.3658387042315299
 40
0.3955267209419887
 40
0.4252671034505646
 40
0.4550612258371349
 40
0.4849087545018659
 40
0.5148078687825187
 40
0.5447555355429691
 40
0.5747478105343078
 40
0.6047801411154103
 40
0.6348476492149924
 40
0.6649453792230019
 40
0.6950685017411197
 40
0.7252124698793372
 40
0.7553731294371262
 40
0.7855467875698563
 40
0.8157302464229143
 40
0.8459208089217289
 40
0.8761162637366517
 40
0.9063148557083407
 40
0.9365151365751951
 40
0.9667160012009086
 40
0.9969169126434232
 40
1.0
 40
1.0
 40
1.0
 40
1.0
 10
57.13918647637723
 20
893.9209261175615
 30
0.0
 10
57.06068449959162
 20
893.6888363399627
 30
0.0
 10
56.81645414454599
 20
892.9626305539776
 30
0.0
 10
56.45897226332171
 20
891.5671640326343
 30
0.0
 10
56.1071104749678
 20
889.8537030233845
 30
0.0
 10
55.86109820333672
 20
888.1131508734032
 30
0.0
 10
55.71982905818962
 20
886.3711018151736
 30
0.0
 10
55.68378546182477
 20
884.6254477772175
 30
0.0
 10
55.75279114893338
 20
882.8814798227164
 30
0.0
 10
55.92661397626371
 20
881.1424956165124
 30
0.0
 10
56.20480665022308
 20
879.4122893970792
 30
0.0
 10
56.58676705156973
 20
877.6944408128473
 30
0.0
 10
57.07172998798512
 20
875.9925299092504
 30
0.0
 10
57.65875802533301
 20
874.310124166402
 30
0.0
 10
58.34672677277625
 20
872.6507971965127
 30
0.0
 10
59.13430903205904
 20
871.0181257004785
 30
0.0
 10
60.01995859823257
 20
869.4156850440997
 30
0.0
 10
61.00189611667739
 20
867.8470381091847
 30
0.0
 10
62.07809859753807
 20
866.3157197787057
 30
0.0
 10
63.24629377049729
 20
864.8252179746604
 30
0.0
 10
64.50395979038937
 20
863.3789529247421
 30
0.0
 10
65.84833018826967
 20
861.9802562096044
 30
0.0
 10
67.2764034249097
 20
860.6323509965226
 30
0.0
 10
68.78495609819306
 20
859.3383344940127
 30
0.0
 10
70.37055851608262
 20
858.1011633597498
 30
0.0
 10
72.02959202396264
 20
856.9236420250259
 30
0.0
 10
73.75826514146618
 20
855.8084149425313
 30
0.0
 10
75.55263505364593
 20
854.7579583612037
 30
0.0
 10
77.40860663953886
 20
853.7745863616223
 30
0.0
 10
79.32201072159368
 20
852.8604138578489
 30
0.0
 10
81.28838071245455
 20
852.0174880613977
 30
0.0
 10
83.30384919419022
 20
851.2472964784529
 30
0.0
 10
85.36185556270799
 20
850.5526066372353
 30
0.0
 10
87.46547670416759
 20
849.9306061963861
 30
0.0
 10
89.5814544401447
 20
849.3985081203778
 30
0.0
 10
91.14427908849979
 20
849.0477931311908
 30
0.0
 10
91.90518624781545
 20
848.915412351952
 30
0.0
 10
91.98715091474419
 20
848.9011765044239
 30
0.0
  0
ARC
  5
10F
330
87
100
AcDbEntity
  8
DV1_Standard
  6
Continuous
 62
     7
100
AcDbCircle
 10
103.4052828073
 20
883.6686631799
 30
0.0
 40
36.82083838802272
100
AcDbArc
 50
251.4941442499
 51
288.5008988545
  0
SPLINE
  5
110
330
87
100
AcDbEntity
  8
DV1_Standard
  6
Continuous
 62
     7
100
AcDbSpline
210
0.0
220
0.0
230
1.0
 70
     8
 71
     3
 72
    35
 73
    31
 74
     0
 42
0.0000000004180178
 43
0.0000000001
 40
0.0
 40
0.0
 40
0.0
 40
0.0
 40
0.0216182609650922
 40
0.0358689736983155
 40
0.0483347309098999
 40
0.0692011429688569
 40
0.0916799354993557
 40
0.1164643801660441
 40
0.1873241404564322
 40
0.2521943604417695
 40
0.3313560008770455
 40
0.4047886116270384
 40
0.4794995519284526
 40
0.5200301197799777
 40
0.5644346144917244
 40
0.6127123202336281
 40
0.6648849110035073
 40
0.7177681573718064
 40
0.7626857811822961
 40
0.7908790848047639
 40
0.8144060247161902
 40
0.834421499144977
 40
0.8598822403255542
 40
0.8923867710098563
 40
0.9215051869299893
 40
0.9328677742183659
 40
0.947940880413791
 40
0.9734744382676724
 40
0.9892172980082258
 40
1.0
 40
1.0
 40
1.0
 40
1.0
 10
69.699417801025
 20
911.8463883062489
 30
0.0
 10
69.49826678847437
 20
911.7983901951571
 30
0.0
 10
69.2194617611546
 20
911.7315488134105
 30
0.0
 10
68.7842420398973
 20
911.6188322683139
 30
0.0
 10
68.39762849673667
 20
911.513654527844
 30
0.0
 10
67.95323291179639
 20
911.3811976994963
 30
0.0
 10
67.4141296889376
 20
911.1980307485998
 30
0.0
 10
66.4864674875228
 20
910.8392386283164
 30
0.0
 10
65.25185868544538
 20
910.2324778660436
 30
0.0
 10
63.80541539552006
 20
909.1718504868882
 30
0.0
 10
62.4784848387282
 20
907.9993657372878
 30
0.0
 10
61.24489108297446
 20
906.6932643981028
 30
0.0
 10
60.32082653970395
 20
905.565590384566
 30
0.0
 10
59.58940324637832
 20
904.5857818254958
 30
0.0
 10
59.01043657537189
 20
903.7494113371384
 30
0.0
 10
58.42735643142222
 20
902.8177390862473
 30
0.0
 10
57.87266455027807
 20
901.8059751134597
 30
0.0
 10
57.40903360090373
 20
900.7893783697031
 30
0.0
 10
57.0901860773413
 20
899.9081571030445
 30
0.0
 10
56.89806794993827
 20
899.2134589062581
 30
0.0
 10
56.78957366729151
 20
898.6847381411627
 30
0.0
 10
56.70861210087355
 20
898.1643250090352
 30
0.0
 10
56.64372825581003
 20
897.5367662500604
 30
0.0
 10
56.61388844715307
 20
896.8381007137544
 30
0.0
 10
56.62380994456829
 20
896.2483204260739
 30
0.0
 10
56.64790345443066
 20
895.8048103067896
 30
0.0
 10
56.68867854484849
 20
895.3449941296743
 30
0.0
 10
56.76130266098848
 20
894.8617695469254
 30
0.0
 10
56.84359584040951
 20
894.421909485467
 30
0.0
 10
56.88256727123834
 20
894.2499321474457
 30
0.0
 10
56.90122935191438
 20
894.1684048577696
 30
0.0
  0
SPLINE
  5
111
330
87
100
AcDbEntity
  8
DV1_Standard
  6
Continuous
 62
     7
100
AcDbSpline
210
0.0
220
0.0
230
1.0
 70
     8
 71
     3
 72
    32
 73
    28
 74
     0
 42
0.0000000004183343
 43
0.0000000001
 40
0.0
 40
0.0
 40
0.0
 40
0.0
 40
0.022974093396732
 40
0.0471867096272149
 40
0.071868962992292
 40
0.1141887794195738
 40
0.1496999504322926
 40
0.1758819539165984
 40
0.201582496747875
 40
0.2340498839338225
 40
0.2781037948802583
 40
0.3303979821917181
 40
0.3827470064786968
 40
0.4312178945012744
 40
0.4758310803599491
 40
0.5165882826006115
 40
0.5913956636639721
 40
0.6648335260612924
 40
0.7380592748676043
 40
0.7753889815005869
 40
0.8172937001304902
 40
0.8650058322506589
 40
0.8946143856144692
 40
0.9200020463499224
 40
0.9408753806167652
 40
0.9658571921630543
 40
1.0
 40
1.0
 40
1.0
 40
1.0
 10
149.8970657125688
 20
894.2112761986015
 30
0.0
 10
149.9467419731825
 20
894.4301080639432
 30
0.0
 10
150.0320407124644
 20
894.8107944671003
 30
0.0
 10
150.1129143156047
 20
895.4132416894151
 30
0.0
 10
150.1683045673289
 20
896.092173803509
 30
0.0
 10
150.1826547119235
 20
896.9377714510402
 30
0.0
 10
150.1323291617075
 20
897.7738063037815
 30
0.0
 10
150.0447520879691
 20
898.4635069590976
 30
0.0
 10
149.9283944960145
 20
899.0868254963065
 30
0.0
 10
149.7336818361663
 20
899.8278028894571
 30
0.0
 10
149.4114577165165
 20
900.7305449758829
 30
0.0
 10
148.9572355420154
 20
901.7418571745906
 30
0.0
 10
148.4079777927734
 20
902.7546299917047
 30
0.0
 10
147.8259910328689
 20
903.6925602093739
 30
0.0
 10
147.2467668515784
 20
904.5350210654468
 30
0.0
 10
146.5147023680376
 20
905.5205646270991
 30
0.0
 10
145.5923358342625
 20
906.6524270179831
 30
0.0
 10
144.3929124156752
 20
907.9284262381351
 30
0.0
 10
143.2837612876028
 20
908.9243847419181
 30
0.0
 10
142.2930451207068
 20
909.6933158160149
 30
0.0
 10
141.4093819915688
 20
910.2887515493326
 30
0.0
 10
140.5086102542272
 20
910.7501178335773
 30
0.0
 10
139.7141706868897
 20
911.0849560422954
 30
0.0
 10
139.1147765859764
 20
911.3022671807015
 30
0.0
 10
138.5793245762137
 20
911.4688417402573
 30
0.0
 10
137.8685639456473
 20
911.6704612754779
 30
0.0
 10
137.4010693594377
 20
911.7828216334334
 30
0.0
 10
137.0751291837117
 20
911.8606066136563
 30
0.0
  0
ARC
  5
112
330
87
100
AcDbEntity
  8
DV1_Standard
  6
Continuous
 62
     7
100
AcDbCircle
 10
149.4425633929
 20
894.2700691001
 30
0.0
 40
0.4560323548496883
100
AcDbArc
 50
299.5350783345
 51
354.7692681021
  0
ARC
  5
113
330
87
100
AcDbEntity
  8
DV1_Standard
  6
Continuous
 62
     7
100
AcDbCircle
 10
136.8934298276
 20
911.3825151446
 30
0.0
 40
0.510404904294116
100
AcDbArc
 50
66.8899630255
 51
105.5985333141
  0
ARC
  5
114
330
87
100
AcDbEntity
  8
DV1_Standard
  6
Continuous
 62
     7
100
AcDbCircle
 10
57.3610207273
 20
894.2352146848
 30
0.0
 40
0.4458738279435869
100
AcDbArc
 50
190.1544559964
 51
236.5048821781
  0
SPLINE
  5
115
330
87
100
AcDbEntity
  8
DV1_Standard
  6
Continuous
 62
     7
100
AcDbSpline
210
0.0
220
0.0
230
1.0
 70
     8
 71
     3
 72
    10
 73
     6
 74
     0
 42
0.0000000270795585
 43
0.0000000001
 40
0.0
 40
0.0
 40
0.0
 40
0.0
 40
0.1720534217314142
 40
0.5318434389083961
 40
1.0
 40
1.0
 40
1.0
 40
1.0
 10
70.04091843577423
 20
911.8653684350726
 30
0.0
 10
70.01414405757741
 20
911.8723538465902
 30
0.0
 10
69.94363502835543
 20
911.8906268813951
 30
0.0
 10
69.81829556151354
 20
911.877055367528
 30
0.0
 10
69.73526692443124
 20
911.8572863148148
 30
0.0
 10
69.68025051490415
 20
911.841087924695
 30
0.0
  0
SPLINE
  5
116
330
87
100
AcDbEntity
  8
DV1_Standard
  6
Continuous
 62
     7
100
AcDbSpline
210
0.0
220
0.0
230
1.0
 70
     8
 71
     3
 72
    42
 73
    38
 74
     0
 42
0.0000000001550031
 43
0.0000000001
 40
0.0
 40
0.0
 40
0.0
 40
0.0
 40
0.0063757329697453
 40
0.0366176542226537
 40
0.0668627859277472
 40
0.097111040273342
 40
0.1273620948217014
 40
0.1576153447209273
 40
0.1878695417241947
 40
0.218123159429607
 40
0.2483742970759152
 40
0.2786205633251337
 40
0.3088590417970168
 40
0.3390862715546947
 40
0.3692982492897772
 40
0.3994904608513566
 40
0.4296579500393151
 40
0.4597954319133692
 40
0.4898974559051225
 40
0.5199586205010156
 40
0.5499738361503503
 40
0.579938626639069
 40
0.6098494521621995
 40
0.6397040308050954
 40
0.6695016303958838
 40
0.699243300925823
 40
0.7289320197466908
 40
0.7585727276648602
 40
0.7881722432269879
 40
0.8177390536827254
 40
0.8472829927604099
 40
0.876814825994358
 40
0.9063437460517944
 40
0.9358792942513743
 40
0.9654323414749341
 40
0.9950128900586345
 40
0.9999999999999999
 40
0.9999999999999999
 40
0.9999999999999999
 40
0.9999999999999999
 10
114.8352342122918
 20
848.9086031849736
 30
0.0
 10
115.004442202546
 20
848.9385011710712
 30
0.0
 10
115.8368438605708
 20
849.0861083126556
 30
0.0
 10
117.4753411807668
 20
849.4583486321294
 30
0.0
 10
119.5898556503128
 20
850.0014915325982
 30
0.0
 10
121.6900707736405
 20
850.6328349444638
 30
0.0
 10
123.7447990317875
 20
851.3373839793578
 30
0.0
 10
125.7566005759654
 20
852.1173952514703
 30
0.0
 10
127.719078617674
 20
852.9702938302581
 30
0.0
 10
129.6283364558571
 20
853.8945895764019
 30
0.0
 10
131.4799247636125
 20
854.8882929784683
 30
0.0
 10
133.2696700851622
 20
855.9493375530247
 30
0.0
 10
134.9934633937962
 20
857.0754633602503
 30
0.0
 10
136.647330738869
 20
858.2642457099136
 30
0.0
 10
138.2274305696694
 20
859.5130857174145
 30
0.0
 10
139.7300727461772
 20
860.819212254725
 30
0.0
 10
141.1517338386694
 20
862.1796827785804
 30
0.0
 10
142.4890753317838
 20
863.5913872453901
 30
0.0
 10
143.7389624606891
 20
865.0510548654258
 30
0.0
 10
144.8984834228811
 20
866.555264547493
 30
0.0
 10
145.9649678015462
 20
868.1004593470362
 30
0.0
 10
146.9360029755682
 20
869.682964976115
 30
0.0
 10
147.8094471445317
 20
871.2990119534654
 30
0.0
 10
148.5834376955101
 20
872.9447605264289
 30
0.0
 10
149.2563939096174
 20
874.6163268712043
 30
0.0
 10
149.8270135810012
 20
876.3098093218769
 30
0.0
 10
150.2942634894917
 20
878.0213110411794
 30
0.0
 10
150.6573654095291
 20
879.7469638089392
 30
0.0
 10
150.9157761118189
 20
881.4829275840541
 30
0.0
 10
151.0691746912088
 20
883.2254541784547
 30
0.0
 10
151.1174171125614
 20
884.9706826512503
 30
0.0
 10
151.0606191164251
 20
886.7153655316941
 30
0.0
 10
150.8987910059852
 20
888.4539967659995
 30
0.0
 10
150.6332011282844
 20
890.1895579037483
 30
0.0
 10
150.2612646533519
 20
891.8935280849403
 30
0.0
 10
149.9248118313321
 20
893.1664357299869
 30
0.0
 10
149.7124055500553
 20
893.7855045069091
 30
0.0
 10
149.6781106836559
 20
893.8845793615602
 30
0.0
  0
SPLINE
  5
117
330
87
100
AcDbEntity
  8
DV1_Standard
  6
Continuous
 62
     7
100
AcDbSpline
210
0.0
220
0.0
230
1.0
 70
     8
 71
     3
 72
    10
 73
     6
 74
     0
 42
0.0000001096049318
 43
0.0000000001
 40
0.0
 40
0.0
 40
0.0
 40
0.0
 40
0.0527968385298431
 40
0.7361484105273536
 40
1.0
 40
1.0
 40
1.0
 40
1.0
 10
136.7384996645127
 20
911.8762690331486
 30
0.0
 10
136.7352108694692
 20
911.8752823872985
 30
0.0
 10
136.6959908099369
 20
911.8634282197988
 30
0.0
 10
136.6563705041485
 20
911.8635078259778
 30
0.0
 10
136.6492291125096
 20
911.8640519622453
 30
0.0
 10
136.6491872282755
 20
911.8640278539234
 30
0.0
  0
SPLINE
  5
118
330
87
100
AcDbEntity
  8
DV1_Standard
  6
Continuous
 62
     7
100
AcDbSpline
210
0.0
220
0.0
230
1.0
 70
     8
 71
     3
 72
    11
 73
     7
 74
     0
 42
0.0000000912334362
 43
0.0000000001
 40
0.0
 40
0.0
 40
0.0
 40
0.0
 40
0.0827416374465566
 40
0.523447387507727
 40
0.9868902447632459
 40
1.0
 40
1.0
 40
1.0
 40
1.0
 10
149.6790772039897
 20
893.8796467687207
 30
0.0
 10
149.680132806106
 20
893.8748140860707
 30
0.0
 10
149.6854646457882
 20
893.8489723404554
 30
0.0
 10
149.6740315434427
 20
893.8686899110462
 30
0.0
 10
149.7057710994096
 20
893.8829740930029
 30
0.0
 10
149.6875344838961
 20
893.8746628500367
 30
0.0
 10
149.6869555422673
 20
893.8743976270549
 30
0.0
  0
SPLINE
  5
119
330
87
100
AcDbEntity
  8
DV1_Standard
  6
Continuous
 62
     7
100
AcDbSpline
210
0.0
220
0.0
230
1.0
 70
     8
 71
     3
 72
     8
 73
     4
 74
     0
 42
0.000000292626691
 43
0.0000000001
 40
0.0
 40
0.0
 40
0.0
 40
0.0
 40
1.0
 40
1.0
 40
1.0
 40
1.0
 10
70.04725676097115
 20
911.8237929036037
 30
0.0
 10
70.05889544274152
 20
911.8280065494291
 30
0.0
 10
70.06957558805966
 20
911.83167380235
 30
0.0
 10
70.07959095611517
 20
911.8348371309021
 30
0.0
  0
ELLIPSE
  5
11A
330
87
100
AcDbEntity
  8
DV1_Standard
  6
Continuous
 62
     7
100
AcDbEllipse
 10
103.4
 20
883.5100102724
 30
0.0
 11
43.75000000000003
 21
5.551115123125783E-14
 31
0.0
210
0.0
220
0.0
230
1.0
 40
0.7622886623
 41
0.0
 42
0.1744575526794147
  0
ELLIPSE
  5
11B
330
87
100
AcDbEntity
  8
DV1_Standard
  6
Continuous
 62
     7
100
AcDbEllipse
 10
103.4
 20
883.5100102724
 30
0.0
 11
43.75000000000003
 21
5.551115123125783E-14
 31
0.0
210
0.0
220
0.0
230
1.0
 40
0.7622886623
 41
2.967135100849578
 42
3.141592653589792
  0
ELLIPSE
  5
11C
330
87
100
AcDbEntity
  8
DV1_Standard
  6
Continuous
 62
     7
100
AcDbEllipse
 10
103.4
 20
882.4118783418
 30
0.0
 11
43.75000000000003
 21
2.775557561562891E-14
 31
0.0
210
0.0
220
0.0
230
1.0
 40
0.7622886623
 41
0.0
 42
3.97310574333641
  0
ELLIPSE
  5
11D
330
87
100
AcDbEntity
  8
DV1_Standard
  6
Continuous
 62
     7
100
AcDbEllipse
 10
103.4
 20
882.4118783418
 30
0.0
 11
43.75000000000003
 21
2.775557561562891E-14
 31
0.0
210
0.0
220
0.0
230
1.0
 40
0.7622886623
 41
5.445311211416948
 42
6.283185307179585
  0
ELLIPSE
  5
11E
330
87
100
AcDbEntity
  8
DV1_Standard
  6
Continuous
 62
     7
100
AcDbEllipse
 10
103.4
 20
882.2954059381
 30
0.0
 11
-43.63727454909828
 21
1.387778780781446E-14
 31
0.0
210
0.0
220
0.0
230
1.0
 40
0.7622886623
 41
0.0000000000000004
 42
0.6786025921107413
  0
ELLIPSE
  5
11F
330
87
100
AcDbEntity
  8
DV1_Standard
  6
Continuous
 62
     7
100
AcDbEllipse
 10
103.4
 20
882.2954059381
 30
0.0
 11
-43.63727454909828
 21
1.387778780781446E-14
 31
0.0
210
0.0
220
0.0
230
1.0
 40
0.7622886623
 41
0.6786025921107413
 42
2.436855825372175
  0
ELLIPSE
  5
120
330
87
100
AcDbEntity
  8
DV1_Standard
  6
Continuous
 62
     7
100
AcDbEllipse
 10
103.4
 20
882.2954059381
 30
0.0
 11
-43.63727454909828
 21
1.387778780781446E-14
 31
0.0
210
0.0
220
0.0
230
1.0
 40
0.7622886623
 41
2.436855825372175
 42
6.283185307179586
  0
ELLIPSE
  5
121
330
87
100
AcDbEntity
  8
DV1_Standard
  6
Continuous
 62
     7
100
AcDbEllipse
 10
103.4
 20
878.4346467147
 30
0.0
 11
28.19951867058419
 21
4.163336342344337E-14
 31
0.0
210
0.0
220
0.0
230
1.0
 40
0.7622886623
 41
0.0
 42
6.283185307179586
  0
ELLIPSE
  5
122
330
87
100
AcDbEntity
  8
DV1_Standard
  6
Continuous
 62
     7
100
AcDbEllipse
 10
103.4
 20
878.6586763939
 30
0.0
 11
27.6
 21
0.0
 31
0.0
210
0.0
220
0.0
230
1.0
 40
0.7622886623
 41
0.0
 42
6.283185307179586
  0
ELLIPSE
  5
123
330
87
100
AcDbEntity
  8
DV1_Standard
  6
Continuous
 62
     7
100
AcDbEllipse
 10
103.4
 20
876.1414675655
 30
0.0
 11
-1.750000000000002
 21
0.0
 31
0.0
210
0.0
220
0.0
230
1.0
 40
0.7622886623
 41
0.0
 42
6.283185307179586
  0
LINE
  5
124
330
87
100
AcDbEntity
  8
DV1_Standard
  6
Continuous
 62
     7
100
AcDbLine
 10
147.15
 20
882.4118783418
 30
0.0
 11
147.15
 21
883.5100102724
 31
0.0
  0
LINE
  5
125
330
87
100
AcDbEntity
  8
DV1_Standard
  6
Continuous
 62
     7
100
AcDbLine
 10
59.65
 20
883.5100102724
 30
0.0
 11
59.65
 21
882.4118783418
 31
0.0
  0
SPLINE
  5
126
330
87
100
AcDbEntity
  8
DV1_Standard
  6
Continuous
 62
     7
100
AcDbSpline
210
0.0
220
0.0
230
1.0
 70
     8
 71
     3
 72
    12
 73
     8
 74
     0
 42
0.0000000352216995
 43
0.0000000001
 40
0.0
 40
0.0
 40
0.0
 40
0.0
 40
0.2500000000000079
 40
0.2500000000000079
 40
0.5000000000000159
 40
0.5000000000000159
 40
1.0
 40
1.0
 40
1.0
 40
1.0
 10
118.7550529812929
 20
719.550843714269
 30
0.0
 10
118.7879283070711
 20
719.5794615889693
 30
0.0
 10
118.8124264672285
 20
719.6006921289637
 30
0.0
 10
118.844320242181
 20
719.6278929608517
 30
0.0
 10
118.8515795311796
 20
719.6337333664668
 30
0.0
 10
118.8459515495353
 20
719.6268001679267
 30
0.0
 10
118.8059446981762
 20
719.589748929393
 30
0.0
 10
118.7368098701235
 20
719.5272177965011
 30
0.0
  0
ARC
  5
127
330
87
100
AcDbEntity
  8
DV1_Standard
  6
Continuous
 62
     7
100
AcDbCircle
 10
85.868230368
 20
755.9710320543
 30
0.0
 40
49.07642118313454
100
AcDbArc
 50
305.5404690588
 51
312.047216718
  0
ARC
  5
128
330
87
100
AcDbEntity
  8
DV1_Standard
  6
Continuous
 62
     7
100
AcDbCircle
 10
103.4
 20
731.3933037996
 30
0.0
 40
18.88657937053994
100
AcDbArc
 50
234.3964384264
 51
305.6035615736
  0
ARC
  5
129
330
87
100
AcDbEntity
  8
DV1_Standard
  6
Continuous
 62
     7
100
AcDbCircle
 10
120.8245897998
 20
755.8376978892
 30
0.0
 40
48.90562618860692
100
AcDbArc
 50
227.9414091087
 51
234.4709051144
  0
SPLINE
  5
12A
330
87
100
AcDbEntity
  8
DV1_Standard
  6
Continuous
 62
     7
100
AcDbSpline
210
0.0
220
0.0
230
1.0
 70
     8
 71
     3
 72
    12
 73
     8
 74
     0
 42
0.0000000344872634
 43
0.0000000001
 40
0.0
 40
0.0
 40
0.0
 40
0.0
 40
0.2500000000000007
 40
0.2500000000000007
 40
0.5000000000000013
 40
0.5000000000000013
 40
1.0
 40
1.0
 40
1.0
 40
1.0
 10
88.0631901298763
 20
719.5272177965011
 30
0.0
 10
88.02863748807384
 20
719.5584700017523
 30
0.0
 10
88.00154000555129
 20
719.583201952428
 30
0.0
 10
87.96330584958947
 20
719.6185182219843
 30
0.0
 10
87.95222610666892
 20
719.6290589300809
 30
0.0
 10
87.94647604285475
 20
719.6361012993128
 30
0.0
 10
87.97915844823356
 20
719.6081124719756
 30
0.0
 10
88.0449470187069
 20
719.550843714269
 30
0.0
  0
LINE
  5
12B
330
87
100
AcDbEntity
  8
DV1_Standard
  6
Continuous
 62
     7
100
AcDbLine
 10
88.0631901299
 20
720.8114962391
 30
0.0
 11
88.0631901299
 21
719.5272177965
 31
0.0
  0
LINE
  5
12C
330
87
100
AcDbEntity
  8
DV1_Standard
  6
Continuous
 62
     7
100
AcDbLine
 10
118.7368098701
 20
720.8116825197
 30
0.0
 11
118.7368098701
 21
719.5272177965
 31
0.0
  0
LINE
  5
12D
330
87
100
AcDbEntity
  8
DV1_Standard
  6
Continuous
 62
     7
100
AcDbLine
 10
118.7550529813
 20
720.8292614645
 30
0.0
 11
118.7550529813
 21
719.5508437143
 31
0.0
  0
LINE
  5
12E
330
87
100
AcDbEntity
  8
DV1_Standard
  6
Continuous
 62
     7
100
AcDbLine
 10
88.0449470187
 20
720.8290860105
 30
0.0
 11
88.0449470187
 21
719.5508437143
 31
0.0
  0
LINE
  5
12F
330
87
100
AcDbEntity
  8
DV1_Standard
  6
Continuous
 62
     7
100
AcDbLine
 10
113.8775
 20
710.6259229906
 30
0.0
 11
113.8775
 21
715.7033025963
 31
0.0
  0
LINE
  5
130
330
87
100
AcDbEntity
  8
DV1_Standard
  6
Continuous
 62
     7
100
AcDbLine
 10
92.9225
 20
715.703943993
 30
0.0
 11
92.9225
 21
710.6259229906
 31
0.0
  0
SPLINE
  5
131
330
87
100
AcDbEntity
  8
DV1_Standard
  6
Continuous
 62
     7
100
AcDbSpline
210
0.0
220
0.0
230
1.0
 70
     8
 71
     3
 72
    14
 73
    10
 74
     0
 42
0.0000000001153642
 43
0.0000000001
 40
0.0
 40
0.0
 40
0.0
 40
0.0
 40
0.2500000000000007
 40
0.2500000000000007
 40
0.5000000000000004
 40
0.5000000000000004
 40
0.7500000000000002
 40
0.7500000000000002
 40
1.0
 40
1.0
 40
1.0
 40
1.0
 10
121.1279324881622
 20
723.7162746554656
 30
0.0
 10
121.1281518963758
 20
730.9581425874628
 30
0.0
 10
121.1282195340758
 20
738.1996455944244
 30
0.0
 10
121.1282965913734
 20
752.6765241492418
 30
0.0
 10
121.1283059537998
 20
759.9117533847565
 30
0.0
 10
121.1282667501092
 20
774.368983438159
 30
0.0
 10
121.128215238985
 20
781.5914839776274
 30
0.0
 10
121.1280102169668
 20
796.0159246575191
 30
0.0
 10
121.1282656247599
 20
803.2182161210648
 30
0.0
 10
121.1277344724532
 20
810.3982707615221
 30
0.0
  0
SPLINE
  5
132
330
87
100
AcDbEntity
  8
DV1_Standard
  6
Continuous
 62
     7
100
AcDbSpline
210
0.0
220
0.0
230
1.0
 70
     8
 71
     3
 72
    12
 73
     8
 74
     0
 42
0.0000000450185223
 43
0.0000000001
 40
0.0
 40
0.0
 40
0.0
 40
0.0
 40
0.2564291037207239
 40
0.2564291037207239
 40
0.5128582074414477
 40
0.5128582074414477
 40
1.0
 40
1.0
 40
1.0
 40
1.0
 10
121.1279324881622
 20
723.7162746554656
 30
0.0
 10
121.1511967608134
 20
723.7409559292468
 30
0.0
 10
121.1749727745312
 20
723.7634186865043
 30
0.0
 10
121.2177659210974
 20
723.7989552339515
 30
0.0
 10
121.23704185318
 20
723.8132937505615
 30
0.0
 10
121.2829175701403
 20
723.8445981688994
 30
0.0
 10
121.2999564068536
 20
723.8539645058606
 30
0.0
 10
121.2994157725146
 20
723.8532783671582
 30
0.0
  0
SPLINE
  5
133
330
87
100
AcDbEntity
  8
DV1_Standard
  6
Continuous
 62
     7
100
AcDbSpline
210
0.0
220
0.0
230
1.0
 70
     8
 71
     3
 72
    13
 73
     9
 74
     0
 42
0.0000000002416296
 43
0.0000000001
 40
0.0
 40
0.0
 40
0.0
 40
0.0
 40
0.1317869927430929
 40
0.2837571662343005
 40
0.4581818607774429
 40
0.7104019981556026
 40
0.9320271932735548
 40
1.0
 40
1.0
 40
1.0
 40
1.0
 10
121.1277344724532
 20
810.3982707615221
 30
0.0
 10
121.1272672572879
 20
812.3234846280144
 30
0.0
 10
121.126114239932
 20
816.4687547835356
 30
0.0
 10
121.1380344001641
 20
823.1354955488782
 30
0.0
 10
121.2219623683813
 20
831.480222006235
 30
0.0
 10
121.6287614507852
 20
840.6024828095414
 30
0.0
 10
122.7582805612451
 20
847.5469172610542
 30
0.0
 10
123.7577863511285
 20
850.765450928898
 30
0.0
 10
124.0141415293568
 20
851.4873899055235
 30
0.0
  0
SPLINE
  5
134
330
87
100
AcDbEntity
  8
DV1_Standard
  6
Continuous
 62
     7
100
AcDbSpline
210
0.0
220
0.0
230
1.0
 70
     8
 71
     3
 72
    10
 73
     6
 74
     0
 42
0.000000049730581
 43
0.0000000001
 40
0.0
 40
0.0
 40
0.0
 40
0.0
 40
0.4807321387507026
 40
0.4807321387507026
 40
1.0
 40
1.0
 40
1.0
 40
1.0
 10
85.51354262441569
 20
723.8383465044087
 30
0.0
 10
85.51330724952598
 20
723.8386881465701
 30
0.0
 10
85.52740131452357
 20
723.82989664166
 30
0.0
 10
85.58232532037673
 20
723.7921554872951
 30
0.0
 10
85.62561293029495
 20
723.7588236828434
 30
0.0
 10
85.67191834573052
 20
723.7164270322476
 30
0.0
  0
SPLINE
  5
135
330
87
100
AcDbEntity
  8
DV1_Standard
  6
Continuous
 62
     7
100
AcDbSpline
210
0.0
220
0.0
230
1.0
 70
     8
 71
     3
 72
    14
 73
    10
 74
     0
 42
0.0000000001153644
 43
0.0000000001
 40
0.0
 40
0.0
 40
0.0
 40
0.0
 40
0.25
 40
0.25
 40
0.5
 40
0.5
 40
0.75
 40
0.75
 40
1.0
 40
1.0
 40
1.0
 40
1.0
 10
85.6722664469388
 20
810.3983106128126
 30
0.0
 10
85.67155926005503
 20
803.218251176103
 30
0.0
 10
85.6718298633157
 20
796.0159460351438
 30
0.0
 10
85.67163860438731
 20
781.5914542094707
 30
0.0
 10
85.67161447875611
 20
774.3689122214629
 30
0.0
 10
85.67160486315007
 20
759.9116435680686
 30
0.0
 10
85.67162570714665
 20
752.6764256954176
 30
0.0
 10
85.67172835362013
 20
738.199495469309
 30
0.0
 10
85.67180878991613
 20
730.9579487713471
 30
0.0
 10
85.67191834573052
 20
723.7164270322476
 30
0.0
  0
SPLINE
  5
136
330
87
100
AcDbEntity
  8
DV1_Standard
  6
Continuous
 62
     7
100
AcDbSpline
210
0.0
220
0.0
230
1.0
 70
     8
 71
     3
 72
    14
 73
    10
 74
     0
 42
0.0000000002417768
 43
0.0000000001
 40
0.0
 40
0.0
 40
0.0
 40
0.0
 40
0.0156435690465067
 40
0.2176554935191378
 40
0.4009646968628923
 40
0.5686150080010247
 40
0.7230931595914731
 40
0.8663778616567014
 40
1.0
 40
1.0
 40
1.0
 40
1.0
 10
82.79181692165896
 20
851.469792274532
 30
0.0
 10
82.8507422906585
 20
851.3034980381407
 30
0.0
 10
83.65415192718774
 20
848.9654806720617
 30
0.0
 10
84.70618519383572
 20
844.0640046032073
 30
0.0
 10
85.36595939585379
 20
836.5573054600442
 30
0.0
 10
85.59951113927278
 20
829.3905255122345
 30
0.0
 10
85.6602933215598
 20
822.6700547276289
 30
0.0
 10
85.67341957519632
 20
816.3943970048222
 30
0.0
 10
85.67247330791746
 20
812.3499807157851
 30
0.0
 10
85.6722664469388
 20
810.3983106128126
 30
0.0
  0
SPLINE
  5
137
330
87
100
AcDbEntity
  8
DV1_Standard
  6
Continuous
 62
     7
100
AcDbSpline
210
0.0
220
0.0
230
1.0
 70
     8
 71
     3
 72
    24
 73
    20
 74
     0
 42
0.0000000002430826
 43
0.0000000001
 40
0.0
 40
0.0
 40
0.0
 40
0.0
 40
0.1250000000000003
 40
0.1250000000000003
 40
0.2500000000000006
 40
0.2500000000000006
 40
0.3750000000000008
 40
0.3750000000000008
 40
0.4375000000000007
 40
0.4375000000000007
 40
0.5000000000000007
 40
0.5000000000000007
 40
0.6250000000000004
 40
0.6250000000000004
 40
0.7500000000000003
 40
0.7500000000000003
 40
0.8750000000000001
 40
0.8750000000000001
 40
1.0
 40
1.0
 40
1.0
 40
1.0
 10
85.67191834573052
 20
723.7164270322476
 30
0.0
 10
86.28299040731056
 20
723.0812808472471
 30
0.0
 10
87.15581223612912
 20
722.2077026351029
 30
0.0
 10
89.3489838861093
 20
720.2680509277279
 30
0.0
 10
90.63952717927687
 20
719.2267225195883
 30
0.0
 10
93.63631049777773
 20
717.2496959847972
 30
0.0
 10
95.32149269769869
 20
716.3244219967704
 30
0.0
 10
98.18923887417651
 20
715.2819670439263
 30
0.0
 10
99.18763851758675
 20
714.9996113401145
 30
0.0
 10
101.2498509346911
 20
714.6117944470053
 30
0.0
 10
102.3302211372116
 20
714.5068419413645
 30
0.0
 10
105.517116608492
 20
714.505431293307
 30
0.0
 10
107.6376635258725
 20
714.9301737776981
 30
0.0
 10
111.4612669331539
 20
716.3162349398701
 30
0.0
 10
113.1427374041984
 20
717.2374413371854
 30
0.0
 10
116.1453903393433
 20
719.2152234801028
 30
0.0
 10
117.4377425180557
 20
720.2571478065851
 30
0.0
 10
119.6312807527618
 20
722.1954611985037
 30
0.0
 10
120.5177969295065
 20
723.0820999993492
 30
0.0
 10
121.1279324881622
 20
723.7162746554656
 30
0.0
  0
SPLINE
  5
138
330
87
100
AcDbEntity
  8
DV1_Standard
  6
Continuous
 62
     7
100
AcDbSpline
210
0.0
220
0.0
230
1.0
 70
     8
 71
     3
 72
     9
 73
     5
 74
     0
 42
0.0000000834978095
 43
0.0000000001
 40
0.0
 40
0.0
 40
0.0
 40
0.0
 40
0.4296950584926029
 40
1.0
 40
1.0
 40
1.0
 40
1.0
 10
120.9881654816077
 20
723.1226362228775
 30
0.0
 10
120.9781472281667
 20
723.1115094395042
 30
0.0
 10
120.9524930929278
 20
723.0831009702675
 30
0.0
 10
120.9240354108844
 20
723.0517513231604
 30
0.0
 10
120.9077825883407
 20
723.033856278815
 30
0.0
  0
SPLINE
  5
139
330
87
100
AcDbEntity
  8
DV1_Standard
  6
Continuous
 62
     7
100
AcDbSpline
210
0.0
220
0.0
230
1.0
 70
     8
 71
     3
 72
    31
 73
    27
 74
     0
 42
0.0000000002431531
 43
0.0000000001
 40
0.0
 40
0.0
 40
0.0
 40
0.0
 40
0.0203167479734976
 40
0.0411421856718955
 40
0.0625625754259294
 40
0.0933218566307387
 40
0.1252378339089532
 40
0.1875979428061572
 40
0.2188439850604645
 40
0.2502394213921602
 40
0.3125327730550757
 40
0.3751035841496927
 40
0.4064212701511122
 40
0.4377676602149077
 40
0.5001807981401408
 40
0.5627556090742721
 40
0.6252473217221545
 40
0.6565739611104646
 40
0.6877299990697282
 40
0.7503027042438832
 40
0.8127024772074125
 40
0.8752606324606339
 40
0.9069902231533752
 40
0.9375723663088743
 40
0.9694065452158896
 40
1.0
 40
1.0
 40
1.0
 40
1.0
 10
120.9077825883407
 20
723.033856278815
 30
0.0
 10
120.8056771699305
 20
722.9220753996267
 30
0.0
 10
120.5989387161901
 20
722.6957640593554
 30
0.0
 10
120.2266125909974
 20
722.2987733435835
 30
0.0
 10
119.7458729167888
 20
721.7984582348842
 30
0.0
 10
119.1243749397709
 20
721.1733847031352
 30
0.0
 10
118.0914296243452
 20
720.1834280552941
 30
0.0
 10
116.8988828918614
 20
719.1289320884135
 30
0.0
 10
115.567961874004
 20
718.0776454311582
 30
0.0
 10
114.1405594185678
 20
717.0425023853787
 30
0.0
 10
112.1695713958795
 20
715.8104987415517
 30
0.0
 10
109.9441304508752
 20
714.7682203886084
 30
0.0
 10
108.0201050625098
 20
714.1271091517023
 30
0.0
 10
106.0179230536565
 20
713.6431274782708
 30
0.0
 10
103.3893245817206
 20
713.381390824751
 30
0.0
 10
100.240364865146
 20
713.6984665622555
 30
0.0
 10
97.77319193169286
 20
714.4228208623477
 30
0.0
 10
95.9492048271958
 20
715.1928761125716
 30
0.0
 10
94.22245563723065
 20
716.0647631032973
 30
0.0
 10
92.25353208521238
 20
717.296955331284
 30
0.0
 10
90.18544830335281
 20
718.8771116895148
 30
0.0
 10
88.69886983004082
 20
720.1922890453154
 30
0.0
 10
87.66796040643382
 20
721.1809860348134
 30
0.0
 10
86.9748422935158
 20
721.8783717448293
 30
0.0
 10
86.36996650702304
 20
722.5122072774155
 30
0.0
 10
86.04923072873464
 20
722.8624096467892
 30
0.0
 10
85.89229336338276
 20
723.0337781148982
 30
0.0
  0
SPLINE
  5
13A
330
87
100
AcDbEntity
  8
DV1_Standard
  6
Continuous
 62
     7
100
AcDbSpline
210
0.0
220
0.0
230
1.0
 70
     8
 71
     3
 72
    13
 73
     9
 74
     0
 42
0.0000000242779147
 43
0.0000000001
 40
0.0
 40
0.0
 40
0.0
 40
0.0
 40
0.1374258306544828
 40
0.2523116639929925
 40
0.5013222866845953
 40
0.7509391264518167
 40
0.8657806612029959
 40
1.0
 40
1.0
 40
1.0
 40
1.0
 10
85.89229336338276
 20
723.0337781148982
 30
0.0
 10
85.8752376802853
 20
723.05257480121
 30
0.0
 10
85.84349477255431
 20
723.0875654486671
 30
0.0
 10
85.79244091717626
 20
723.1443037426244
 30
0.0
 10
85.76298119293888
 20
723.1780459536168
 30
0.0
 10
85.80301491582578
 20
723.1360289348698
 30
0.0
 10
85.85982809974732
 20
723.0755500795872
 30
0.0
 10
85.89392150208585
 20
723.0392483151917
 30
0.0
 10
85.91263706478175
 20
723.0193222756856
 30
0.0
  0
ARC
  5
13B
330
87
100
AcDbEntity
  8
DV1_Standard
  6
Continuous
 62
     7
100
AcDbCircle
 10
86.5335181596
 20
723.6176760191
 30
0.0
 40
0.8672404521068734
100
AcDbArc
 50
173.4616575194
 51
222.3209256245
  0
ARC
  5
13C
330
87
100
AcDbEntity
  8
DV1_Standard
  6
Continuous
 62
     7
100
AcDbCircle
 10
120.2663366443
 20
723.6175080144
 30
0.0
 40
0.8672382876352321
100
AcDbArc
 50
317.7009364867
 51
6.5393981222
  0
ARC
  5
13D
330
87
100
AcDbEntity
  8
DV1_Standard
  6
Continuous
 62
     7
100
AcDbCircle
 10
86.5477071109
 20
723.5901835525
 30
0.0
 40
0.8539300678541937
100
AcDbArc
 50
216.2118581437
 51
221.952213742
  0
SPLINE
  5
13E
330
87
100
AcDbEntity
  8
DV1_Standard
  6
Continuous
 62
     7
100
AcDbSpline
210
0.0
220
0.0
230
1.0
 70
     8
 71
     3
 72
    49
 73
    45
 74
     0
 42
0.0000000001184943
 43
0.0000000001
 40
0.0
 40
0.0
 40
0.0
 40
0.0
 40
0.0006915142601497
 40
0.0227992583351624
 40
0.0571232291091169
 40
0.0883036775178893
 40
0.1161769850285192
 40
0.1309208720838296
 40
0.1444074768513356
 40
0.1591367626066507
 40
0.1778856044683082
 40
0.2041029677989437
 40
0.2326101220914493
 40
0.2590870844127792
 40
0.2834800368521708
 40
0.3057946959334562
 40
0.3260489826064256
 40
0.3442790856178228
 40
0.3609130280231937
 40
0.3889990723190985
 40
0.4195587428330271
 40
0.4525872576476651
 40
0.488123204548266
 40
0.5262717449325015
 40
0.5601860158144224
 40
0.5954607333836878
 40
0.628974985919092
 40
0.6603294406068178
 40
0.6894485560381133
 40
0.7162568461222416
 40
0.7406758034656684
 40
0.7626871655569121
 40
0.7839626947367299
 40
0.8054268765042237
 40
0.827098348792128
 40
0.8512621357689903
 40
0.8720582722017041
 40
0.8949284942366877
 40
0.916347236836444
 40
0.9350746954699812
 40
0.951136601615081
 40
0.9662675620698663
 40
0.9831946861896388
 40
1.0
 40
1.0
 40
1.0
 40
1.0
 10
140.407012060161
 20
910.7824347393799
 30
0.0
 10
140.3950736052994
 20
910.7975856722032
 30
0.0
 10
140.0011100824551
 20
911.2968903623515
 30
0.0
 10
138.9848621096539
 20
912.5295991129287
 30
0.0
 10
137.3146459095241
 20
914.3414656447623
 30
0.0
 10
135.4155569864318
 20
916.1498200618164
 30
0.0
 10
133.830736674427
 20
917.4909234711063
 30
0.0
 10
132.5830005878867
 20
918.4590519369858
 30
0.0
 10
131.6061503520821
 20
919.1741947967431
 30
0.0
 10
130.5150085855367
 20
919.9271186853247
 30
0.0
 10
129.0991185144695
 20
920.8363169496429
 30
0.0
 10
127.3107585802111
 20
921.8758672665432
 30
0.0
 10
125.2774666291599
 20
922.9199458256855
 30
0.0
 10
123.239272952662
 20
923.8379533555807
 30
0.0
 10
121.3227426583322
 20
924.5964441990816
 30
0.0
 10
119.5418055978281
 20
925.2168104029217
 30
0.0
 10
117.905284453432
 20
925.7190161658881
 30
0.0
 10
116.408119445149
 20
926.1245694059762
 30
0.0
 10
114.6878314853059
 20
926.5363558174262
 30
0.0
 10
112.6143132376165
 20
926.9520086993408
 30
0.0
 10
110.0665885986174
 20
927.3371772615816
 30
0.0
 10
107.2902547399442
 20
927.6134628238317
 30
0.0
 10
104.2845153287986
 20
927.7491198981132
 30
0.0
 10
101.2471170639147
 20
927.7123162444385
 30
0.0
 10
98.22511388860141
 20
927.5049793952934
 30
0.0
 10
95.35273747121781
 20
927.1492100529863
 30
0.0
 10
92.58165580388466
 20
926.6484939209075
 30
0.0
 10
90.01473064276827
 20
926.0420251631803
 30
0.0
 10
87.66569302072847
 20
925.358329644703
 30
0.0
 10
85.53697842679824
 20
924.6243226756911
 30
0.0
 10
83.62772617340173
 20
923.8668725930511
 30
0.0
 10
81.8911900676905
 20
923.0913152531645
 30
0.0
 10
80.25827139585556
 20
922.2814710839602
 30
0.0
 10
78.66566946921648
 20
921.4096256102782
 30
0.0
 10
77.03980812512916
 20
920.4293674320585
 30
0.0
 10
75.47478648076256
 20
919.3862117764869
 30
0.0
 10
73.93338051170174
 20
918.2567280647041
 30
0.0
 10
72.50408032854725
 20
917.1111445315934
 30
0.0
 10
71.17002937573558
 20
915.9416652277913
 30
0.0
 10
70.02280265158424
 20
914.8519050555037
 30
0.0
 10
69.03836934336002
 20
913.8497185732047
 30
0.0
 10
68.12179136261024
 20
912.8567000000587
 30
0.0
 10
67.22762009994736
 20
911.8244374471855
 30
0.0
 10
66.63244673488376
 20
911.0903139829094
 30
0.0
 10
66.34400009282173
 20
910.7228507813654
 30
0.0
  0
SPLINE
  5
13F
330
87
100
AcDbEntity
  8
DV1_Standard
  6
Continuous
 62
     7
100
AcDbSpline
210
0.0
220
0.0
230
1.0
 70
     8
 71
     3
 72
    38
 73
    34
 74
     0
 42
0.0000000000781434
 43
0.0000000001
 40
0.0
 40
0.0
 40
0.0
 40
0.0
 40
0.0378593263559146
 40
0.0814718240290585
 40
0.1217436561372895
 40
0.1586740043691355
 40
0.1922621262524424
 40
0.2225076132613653
 40
0.249410098547062
 40
0.2711336377706691
 40
0.2904005107313041
 40
0.3094260513275807
 40
0.3285962897888303
 40
0.3479112534746375
 40
0.3673710186045899
 40
0.438053791377946
 40
0.5097125458638356
 40
0.5813972069244614
 40
0.6163137061583919
 40
0.651252765609951
 40
0.6862185565887139
 40
0.721214397541484
 40
0.7562482296864828
 40
0.7917454935738089
 40
0.8288250938315431
 40
0.8512180718934513
 40
0.8741795857304311
 40
0.8977210747833733
 40
0.9218635182250585
 40
0.9466416112126254
 40
0.9705618176678283
 40
0.9922594562597022
 40
1.0
 40
1.0
 40
1.0
 40
1.0
 10
121.2994420034662
 20
723.8458977632922
 30
0.0
 10
121.299196479586
 20
725.6634192256988
 30
0.0
 10
121.2987577687026
 20
728.9647618733127
 30
0.0
 10
121.2984166941542
 20
734.3906960830282
 30
0.0
 10
121.2982546394449
 20
739.635095170487
 30
0.0
 10
121.2982676253713
 20
744.4774293383881
 30
0.0
 10
121.2984249922852
 20
748.8737303959339
 30
0.0
 10
121.2986724698938
 20
752.8341467882902
 30
0.0
 10
121.2989587211683
 20
756.2761407702243
 30
0.0
 10
121.2992470647513
 20
759.2389401987758
 30
0.0
 10
121.299526607188
 20
761.8578298878149
 30
0.0
 10
121.2998049689026
 20
764.3651322114473
 30
0.0
 10
121.3000793068931
 20
766.8743262817017
 30
0.0
 10
121.3003375306438
 20
769.4022240734527
 30
0.0
 10
121.3007767713725
 20
774.176850451872
 30
0.0
 10
121.3012167973022
 20
781.2327639095897
 30
0.0
 10
121.300882668028
 20
790.5589423234225
 30
0.0
 10
121.2990523270886
 20
798.3171828258983
 30
0.0
 10
121.2969707270107
 20
804.468465229664
 30
0.0
 10
121.2951754143895
 20
809.0192635179623
 30
0.0
 10
121.2909971069696
 20
813.5683979514947
 30
0.0
 10
121.2927223248438
 20
818.1127109753023
 30
0.0
 10
121.3090002247935
 20
822.6651837432657
 30
0.0
 10
121.3555836104317
 20
827.2817126030858
 30
0.0
 10
121.4510628686146
 20
831.3135196958332
 30
0.0
 10
121.595862379353
 20
834.7626942165994
 30
0.0
 10
121.7666088784064
 20
837.6030619246229
 30
0.0
 10
122.0068683486414
 20
840.4568052914059
 30
0.0
 10
122.3392521080452
 20
843.3022802211597
 30
0.0
 10
122.7784765944502
 20
846.0543587978251
 30
0.0
 10
123.3185040481994
 20
848.5795911849582
 30
0.0
 10
123.8167918582566
 20
850.3730744532231
 30
0.0
 10
124.1246751459484
 20
851.3109142770486
 30
0.0
 10
124.2079001574113
 20
851.55370051933
 30
0.0
  0
SPLINE
  5
140
330
87
100
AcDbEntity
  8
DV1_Standard
  6
Continuous
 62
     7
100
AcDbSpline
210
0.0
220
0.0
230
1.0
 70
     8
 71
     3
 72
    36
 73
    32
 74
     0
 42
0.0000000000781371
 43
0.0000000001
 40
0.0
 40
0.0
 40
0.0
 40
0.0
 40
0.0020996793376612
 40
0.0164929872900749
 40
0.0336102387795129
 40
0.0534569648692456
 40
0.07603292939366
 40
0.1013290076233202
 40
0.1339692846592979
 40
0.1660785264535219
 40
0.1976473381300169
 40
0.2286682929165792
 40
0.2591364133372706
 40
0.2890502124822708
 40
0.318409144965253
 40
0.3472131507525304
 40
0.375560460325113
 40
0.4033491204983197
 40
0.4308347959754599
 40
0.4603123899762172
 40
0.4923309763996233
 40
0.5262526161942144
 40
0.5626278237261393
 40
0.6014567594073684
 40
0.6427393829777142
 40
0.6950848894302051
 40
0.7509060068554932
 40
0.8101996013721041
 40
0.8729639309569971
 40
0.9391976253257639
 40
0.9999999999999999
 40
0.9999999999999999
 40
0.9999999999999999
 40
0.9999999999999999
 10
82.57787428231836
 20
851.5428329246099
 30
0.0
 10
82.60062908606375
 20
851.476558994544
 30
0.0
 10
82.77806432263291
 20
850.9537592204418
 30
0.0
 10
83.1185221972204
 20
849.853875093107
 30
0.0
 10
83.57657804555284
 20
848.0854238240333
 30
0.0
 10
84.02723177847
 20
845.9332931270831
 30
0.0
 10
84.44160173583307
 20
843.37441015227
 30
0.0
 10
84.818716702637
 20
840.2133036120447
 30
0.0
 10
85.10988414618986
 20
836.5561748902068
 30
0.0
 10
85.30501254220512
 20
832.5467414866469
 30
0.0
 10
85.41600931865082
 20
828.540896754006
 30
0.0
 10
85.47211939900207
 20
824.5641337204195
 30
0.0
 10
85.4980610211215
 20
820.6334933247214
 30
0.0
 10
85.50705074969997
 20
816.7590008442123
 30
0.0
 10
85.50774593394807
 20
812.9468738546458
 30
0.0
 10
85.50570573210216
 20
809.1967053815202
 30
0.0
 10
85.50386952561445
 20
805.5105637891259
 30
0.0
 10
85.5033118589641
 20
801.8785468257688
 30
0.0
 10
85.5027087017142
 20
798.194499692727
 30
0.0
 10
85.50199346502914
 20
794.3238255697094
 30
0.0
 10
85.50123806532588
 20
790.1705166295121
 30
0.0
 10
85.50054117683601
 20
785.7144589473859
 30
0.0
 10
85.49998578620242
 20
780.9595036573527
 30
0.0
 10
85.49967389476821
 20
775.8817214219988
 30
0.0
 10
85.49969319295249
 20
770.1060496086303
 30
0.0
 10
85.50012719518084
 20
763.5868076500034
 30
0.0
 10
85.50106577616721
 20
756.2837129520974
 30
0.0
 10
85.50255338847424
 20
748.5115943950277
 30
0.0
 10
85.50496524614793
 20
740.3395406885804
 30
0.0
 10
85.50858737151779
 20
731.8872989530989
 30
0.0
 10
85.5117920469368
 20
726.7445354024404
 30
0.0
 10
85.51363849785862
 20
723.8262909054267
 30
0.0
  0
SPLINE
  5
141
330
87
100
AcDbEntity
  8
DV1_Standard
  6
Continuous
 62
     7
100
AcDbSpline
210
0.0
220
0.0
230
1.0
 70
     8
 71
     3
 72
    16
 73
    12
 74
     0
 42
0.0000000113025123
 43
0.0000000001
 40
0.0
 40
0.0
 40
0.0
 40
0.0
 40
0.1836051750135726
 40
0.323937105825456
 40
0.3879063965482322
 40
0.418722085268133
 40
0.4488848908913442
 40
0.5271090328100683
 40
0.7061662693680483
 40
0.9373303512300947
 40
1.0
 40
1.0
 40
1.0
 40
1.0
 10
120.9405139452018
 20
723.0701441328242
 30
0.0
 10
120.9644861073327
 20
723.0964958818898
 30
0.0
 10
120.999887459479
 20
723.1354526137859
 30
0.0
 10
121.0319628727239
 20
723.1713903360519
 30
0.0
 10
121.0495599509788
 20
723.191404351901
 30
0.0
 10
121.0650141828833
 20
723.2094933461465
 30
0.0
 10
121.0937598964106
 20
723.2446256961307
 30
0.0
 10
121.1634485623821
 20
723.3405275454317
 30
0.0
 10
121.2482302509108
 20
723.513526340306
 30
0.0
 10
121.3035356415305
 20
723.7080090495165
 30
0.0
 10
121.2938238582444
 20
723.8189925592982
 30
0.0
 10
121.2912759436503
 20
723.846559547247
 30
0.0
  0
LINE
  5
142
330
87
100
AcDbEntity
  8
DV1_Standard
  6
Continuous
 62
     7
100
AcDbLine
 10
120.9115848959
 20
723.0382418021
 30
0.0
 11
120.9405139452
 21
723.0701441328
 31
0.0
  0
LINE
  5
143
330
87
100
AcDbEntity
  8
DV1_Standard
  6
Continuous
 62
     7
100
AcDbLine
 10
37.8284461314
 20
335.630186094
 30
0.0
 11
62.1715538686
 21
335.630186094
 31
0.0
  0
ARC
  5
144
330
87
100
AcDbEntity
  8
DV1_Standard
  6
Continuous
 62
     7
100
AcDbCircle
 10
50.0
 20
357.4671564979
 30
0.0
 40
24.99999999999993
100
AcDbArc
 50
240.8654520802
 51
270.0
  0
ARC
  5
145
330
87
100
AcDbEntity
  8
DV1_Standard
  6
Continuous
 62
     7
100
AcDbCircle
 10
50.0
 20
357.4671564979
 30
0.0
 40
25.00000000000002
100
AcDbArc
 50
270.0
 51
299.1345479198
  0
LINE
  5
146
330
87
100
AcDbEntity
  8
DV1_Standard
  6
Continuous
 62
     7
100
AcDbLine
 10
37.75
 20
338.6259229906
 30
0.0
 11
37.8284461314
 21
335.630186094
 31
0.0
  0
LINE
  5
147
330
87
100
AcDbEntity
  8
DV1_Standard
  6
Continuous
 62
     7
100
AcDbLine
 10
62.1715538686
 20
335.630186094
 30
0.0
 11
62.25
 21
338.6259229906
 31
0.0
  0
LINE
  5
148
330
87
100
AcDbEntity
  8
DV1_Standard
  6
Continuous
 62
     7
100
AcDbLine
 10
62.1715538686
 20
1041.6216598873
 30
0.0
 11
37.8284461314
 21
1041.6216598873
 31
0.0
  0
ARC
  5
149
330
87
100
AcDbEntity
  8
DV1_Standard
  6
Continuous
 62
     7
100
AcDbCircle
 10
50.0
 20
1019.7846894833
 30
0.0
 40
24.99999999999999
100
AcDbArc
 50
60.8654520802
 51
119.1345479198
  0
LINE
  5
14A
330
87
100
AcDbEntity
  8
DV1_Standard
  6
Continuous
 62
     7
100
AcDbLine
 10
62.25
 20
1038.6259229906
 30
0.0
 11
62.1715538686
 21
1041.6216598873
 31
0.0
  0
LINE
  5
14B
330
87
100
AcDbEntity
  8
DV1_Standard
  6
Continuous
 62
     7
100
AcDbLine
 10
37.8284461314
 20
1041.6216598873
 30
0.0
 11
37.75
 21
1038.6259229906
 31
0.0
  0
LINE
  5
14C
330
87
100
AcDbEntity
  8
DV1_Standard
  6
Continuous
 62
     7
100
AcDbLine
 10
66.0
 20
670.6259229906
 30
0.0
 11
66.0
 21
706.6259229906
 31
0.0
  0
LINE
  5
14D
330
87
100
AcDbEntity
  8
DV1_Standard
  6
Continuous
 62
     7
100
AcDbLine
 10
34.0
 20
670.6259229906
 30
0.0
 11
34.0
 21
706.6259229906
 31
0.0
  0
LINE
  5
14E
330
87
100
AcDbEntity
  8
DV1_Standard
  6
Continuous
 62
     7
100
AcDbLine
 10
66.0
 20
675.6259229906
 30
0.0
 11
66.65
 21
675.6259229906
 31
0.0
  0
LINE
  5
14F
330
87
100
AcDbEntity
  8
DV1_Standard
  6
Continuous
 62
     7
100
AcDbLine
 10
66.65
 20
701.6259229906
 30
0.0
 11
66.0
 21
701.6259229906
 31
0.0
  0
LINE
  5
150
330
87
100
AcDbEntity
  8
DV1_Standard
  6
Continuous
 62
     7
100
AcDbLine
 10
34.0
 20
670.6259229906
 30
0.0
 11
37.6
 21
670.6259229906
 31
0.0
  0
LINE
  5
151
330
87
100
AcDbEntity
  8
DV1_Standard
  6
Continuous
 62
     7
100
AcDbLine
 10
62.4
 20
670.6259229906
 30
0.0
 11
66.0
 21
670.6259229906
 31
0.0
  0
LINE
  5
152
330
87
100
AcDbEntity
  8
DV1_Standard
  6
Continuous
 62
     7
100
AcDbLine
 10
66.0
 20
706.6259229906
 30
0.0
 11
62.4
 21
706.6259229906
 31
0.0
  0
LINE
  5
153
330
87
100
AcDbEntity
  8
DV1_Standard
  6
Continuous
 62
     7
100
AcDbLine
 10
37.6
 20
706.6259229906
 30
0.0
 11
34.0
 21
706.6259229906
 31
0.0
  0
LINE
  5
154
330
87
100
AcDbEntity
  8
DV1_Standard
  6
Continuous
 62
     7
100
AcDbLine
 10
32.75
 20
679.1259229906
 30
0.0
 11
34.0
 21
679.1259229906
 31
0.0
  0
LINE
  5
155
330
87
100
AcDbEntity
  8
DV1_Standard
  6
Continuous
 62
     7
100
AcDbLine
 10
34.0
 20
698.1259229906
 30
0.0
 11
32.75
 21
698.1259229906
 31
0.0
  0
SPLINE
  5
156
330
87
100
AcDbEntity
  8
DV1_Standard
  6
Continuous
 62
     7
100
AcDbSpline
210
0.0
220
0.0
230
1.0
 70
     8
 71
     3
 72
    34
 73
    30
 74
     0
 42
0.0000000003144224
 43
0.0000000001
 40
0.0
 40
0.0
 40
0.0
 40
0.0
 40
0.0475058151476751
 40
0.0475058151476751
 40
0.0950116302953502
 40
0.0950116302953502
 40
0.1900232605906983
 40
0.1900232605906983
 40
0.2850348908860465
 40
0.2850348908860465
 40
0.3325407060337223
 40
0.3325407060337223
 40
0.380046521181398
 40
0.380046521181398
 40
0.4750581514767462
 40
0.4750581514767462
 40
0.5700697817720943
 40
0.5700697817720943
 40
0.6175755969197684
 40
0.6175755969197684
 40
0.6650814120674423
 40
0.6650814120674423
 40
0.760093042362789
 40
0.760093042362789
 40
0.8551046726581356
 40
0.8551046726581356
 40
0.9501163029534823
 40
0.9501163029534823
 40
1.0
 40
1.0
 40
1.0
 40
1.0
 10
87.9
 20
700.1259229906416
 30
0.0
 10
87.9
 20
700.1259229906416
 30
0.0
 10
87.96087713385234
 20
700.0442384054493
 30
0.0
 10
88.1923866877586
 20
699.729206950385
 30
0.0
 10
88.36571386298064
 20
699.4920853931669
 30
0.0
 10
89.00363616265571
 20
698.5973920183387
 30
0.0
 10
89.59819679936255
 20
697.7442827602815
 30
0.0
 10
90.85840762472245
 20
695.6931892660187
 30
0.0
 10
91.52898294272775
 20
694.4979664771115
 30
0.0
 10
92.34209266148888
 20
692.4557110905677
 30
0.0
 10
92.57952384843364
 20
691.7277625197133
 30
0.0
 10
92.91137374930898
 20
690.2227902187419
 30
0.0
 10
93.0065050882141
 20
689.4255284404123
 30
0.0
 10
93.01004007295406
 20
687.0735709488833
 30
0.0
 10
92.62449627038649
 20
685.5123292384718
 30
0.0
 10
91.53879557330485
 20
682.7717658456301
 30
0.0
 10
90.86840724433054
 20
681.5761592866313
 30
0.0
 10
89.92242982868764
 20
680.034678287762
 30
0.0
 10
89.61902303227403
 20
679.5699953911178
 30
0.0
 10
89.05866474108501
 20
678.7381327667633
 30
0.0
 10
88.7997443972579
 20
678.3686434245266
 30
0.0
 10
88.15813973950756
 20
677.4683432383591
 30
0.0
 10
87.90310273320226
 20
677.1301049419033
 30
0.0
 10
87.89695665164811
 20
677.1218210798928
 30
0.0
 10
88.14683579257262
 20
677.4529434134529
 30
0.0
 10
89.00163020512609
 20
678.6514802972642
 30
0.0
 10
89.59697584557894
 20
679.5058147585687
 30
0.0
 10
90.55692980011891
 20
681.0678527365831
 30
0.0
 10
90.90049577722286
 20
681.6565697398487
 30
0.0
 10
91.2302206587582
 20
682.2902019310861
 30
0.0
  0
SPLINE
  5
157
330
87
100
AcDbEntity
  8
DV1_Standard
  6
Continuous
 62
     7
100
AcDbSpline
210
0.0
220
0.0
230
1.0
 70
     8
 71
     3
 72
    14
 73
    10
 74
     0
 42
0.0000000021601772
 43
0.0000000001
 40
0.0
 40
0.0
 40
0.0
 40
0.0
 40
0.0631031359146111
 40
0.0631031359146111
 40
0.5315515679573047
 40
0.5315515679573047
 40
0.7657757839786508
 40
0.7657757839786508
 40
1.0
 40
1.0
 40
1.0
 40
1.0
 10
90.4873167967484
 20
696.2906282841111
 30
0.0
 10
90.40118109105315
 20
696.4353635733561
 30
0.0
 10
90.31542508502861
 20
696.5768982435908
 30
0.0
 10
89.59996076467633
 20
697.7416923868742
 30
0.0
 10
89.00821235240238
 20
698.5908586841759
 30
0.0
 10
88.36783034682857
 20
699.4891739958614
 30
0.0
 10
88.19335395750677
 20
699.7278839011739
 30
0.0
 10
87.96145910602576
 20
700.043453246009
 30
0.0
 10
87.9
 20
700.1259229906416
 30
0.0
 10
87.9
 20
700.1259229906416
 30
0.0
  0
LINE
  5
158
330
87
100
AcDbEntity
  8
DV1_Standard
  6
Continuous
 62
     7
100
AcDbLine
 10
74.3418375494
 20
677.1259229906
 30
0.0
 11
74.3418375494
 21
700.1259229906
 31
0.0
  0
LINE
  5
159
330
87
100
AcDbEntity
  8
DV1_Standard
  6
Continuous
 62
     7
100
AcDbLine
 10
74.15
 20
670.6259229906
 30
0.0
 11
74.15
 21
706.6259229906
 31
0.0
  0
LINE
  5
15A
330
87
100
AcDbEntity
  8
DV1_Standard
  6
Continuous
 62
     7
100
AcDbLine
 10
66.65
 20
670.6259229906
 30
0.0
 11
66.65
 21
706.6259229906
 31
0.0
  0
LINE
  5
15B
330
87
100
AcDbEntity
  8
DV1_Standard
  6
Continuous
 62
     7
100
AcDbLine
 10
115.8373429638
 20
705.6259229906
 30
0.0
 11
87.9
 21
705.6259229906
 31
0.0
  0
LINE
  5
15C
330
87
100
AcDbEntity
  8
DV1_Standard
  6
Continuous
 62
     7
100
AcDbLine
 10
115.8373429638
 20
705.6259229906
 30
0.0
 11
115.8373429638
 21
671.6259229906
 31
0.0
  0
LINE
  5
15D
330
87
100
AcDbEntity
  8
DV1_Standard
  6
Continuous
 62
     7
100
AcDbLine
 10
115.8373429638
 20
671.6259229906
 30
0.0
 11
87.9
 21
671.6259229906
 31
0.0
  0
LINE
  5
15E
330
87
100
AcDbEntity
  8
DV1_Standard
  6
Continuous
 62
     7
100
AcDbLine
 10
74.3418375494
 20
677.1259229906
 30
0.0
 11
87.9
 21
677.1259229906
 31
0.0
  0
LINE
  5
15F
330
87
100
AcDbEntity
  8
DV1_Standard
  6
Continuous
 62
     7
100
AcDbLine
 10
87.9
 20
700.1259229906
 30
0.0
 11
74.3418375494
 21
700.1259229906
 31
0.0
  0
ARC
  5
160
330
87
100
AcDbEntity
  8
DV1_Standard
  6
Continuous
 62
     7
100
AcDbCircle
 10
-425.5258949559
 20
688.6259229906
 30
0.0
 40
500.0000000000002
100
AcDbArc
 50
1.3179191428
 51
2.0630938545
  0
ARC
  5
161
330
87
100
AcDbEntity
  8
DV1_Standard
  6
Continuous
 62
     7
100
AcDbCircle
 10
-425.5258949559
 20
688.6259229906
 30
0.0
 40
500.0000000000003
100
AcDbArc
 50
357.9369061455
 51
358.6820808572
  0
LINE
  5
162
330
87
100
AcDbEntity
  8
DV1_Standard
  6
Continuous
 62
     7
100
AcDbLine
 10
66.65
 20
670.6259229906
 30
0.0
 11
74.15
 21
670.6259229906
 31
0.0
  0
LINE
  5
163
330
87
100
AcDbEntity
  8
DV1_Standard
  6
Continuous
 62
     7
100
AcDbLine
 10
74.15
 20
706.6259229906
 30
0.0
 11
66.65
 21
706.6259229906
 31
0.0
  0
LINE
  5
164
330
87
100
AcDbEntity
  8
DV1_Standard
  6
Continuous
 62
     7
100
AcDbLine
 10
87.9
 20
677.1586838962
 30
0.0
 11
87.9
 21
671.6259229906
 31
0.0
  0
LINE
  5
165
330
87
100
AcDbEntity
  8
DV1_Standard
  6
Continuous
 62
     7
100
AcDbLine
 10
87.9
 20
705.6259229906
 30
0.0
 11
87.9
 21
700.1259229906
 31
0.0
  0
LINE
  5
166
330
87
100
AcDbEntity
  8
DV1_Standard
  6
Continuous
 62
     7
100
AcDbLine
 10
62.4
 20
1038.6259229906
 30
0.0
 11
37.6
 21
1038.6259229906
 31
0.0
  0
LINE
  5
167
330
87
100
AcDbEntity
  8
DV1_Standard
  6
Continuous
 62
     7
100
AcDbLine
 10
62.4
 20
338.6259229906
 30
0.0
 11
37.6
 21
338.6259229906
 31
0.0
  0
LINE
  5
168
330
87
100
AcDbEntity
  8
DV1_Standard
  6
Continuous
 62
     7
100
AcDbLine
 10
62.4
 20
338.6259229906
 30
0.0
 11
62.4
 21
368.6259229906
 31
0.0
  0
LINE
  5
169
330
87
100
AcDbEntity
  8
DV1_Standard
  6
Continuous
 62
     7
100
AcDbLine
 10
62.4
 20
416.6259229906
 30
0.0
 11
62.4
 21
670.6259229906
 31
0.0
  0
LINE
  5
16A
330
87
100
AcDbEntity
  8
DV1_Standard
  6
Continuous
 62
     7
100
AcDbLine
 10
62.4
 20
706.6259229906
 30
0.0
 11
62.4
 21
865.9314134194
 31
0.0
  0
LINE
  5
16B
330
87
100
AcDbEntity
  8
DV1_Standard
  6
Continuous
 62
     7
100
AcDbLine
 10
62.4
 20
907.8790288807
 30
0.0
 11
62.4
 21
967.1009229906
 31
0.0
  0
LINE
  5
16C
330
87
100
AcDbEntity
  8
DV1_Standard
  6
Continuous
 62
     7
100
AcDbLine
 10
62.4
 20
1015.1009229906
 30
0.0
 11
62.4
 21
1038.6259229906
 31
0.0
  0
LINE
  5
16D
330
87
100
AcDbEntity
  8
DV1_Standard
  6
Continuous
 62
     7
100
AcDbLine
 10
37.6
 20
1038.6259229906
 30
0.0
 11
37.6
 21
1015.1009229906
 31
0.0
  0
LINE
  5
16E
330
87
100
AcDbEntity
  8
DV1_Standard
  6
Continuous
 62
     7
100
AcDbLine
 10
37.6
 20
967.1009229906
 30
0.0
 11
37.6
 21
706.6259229906
 31
0.0
  0
LINE
  5
16F
330
87
100
AcDbEntity
  8
DV1_Standard
  6
Continuous
 62
     7
100
AcDbLine
 10
37.6
 20
670.6259229906
 30
0.0
 11
37.6
 21
416.6259229906
 31
0.0
  0
LINE
  5
170
330
87
100
AcDbEntity
  8
DV1_Standard
  6
Continuous
 62
     7
100
AcDbLine
 10
37.6
 20
368.6259229906
 30
0.0
 11
37.6
 21
338.6259229906
 31
0.0
  0
ENDBLK
  5
172
330
87
100
AcDbEntity
  8
0
100
AcDbBlockEnd
  0
BLOCK
  5
20D
330
173
100
AcDbEntity
  8
0
100
AcDbBlockBegin
  2
SE1
 70
     0
 10
0.0
 20
0.0
 30
0.0
  3
SE1
  1

  0
LINE
  5
176
330
173
100
AcDbEntity
  8
DV2_Standard
  6
Continuous
 62
     7
100
AcDbLine
 10
214.1371891513
 20
416.6259229906
 30
0.0
 11
264.6458124051
 21
416.6259229906
 31
0.0
  0
LINE
  5
177
330
173
100
AcDbEntity
  8
DV2_Standard
  6
Continuous
 62
     7
100
AcDbLine
 10
264.6458124051
 20
416.6259229906
 30
0.0
 11
269.5790470421
 21
416.6259229906
 31
0.0
  0
LINE
  5
178
330
173
100
AcDbEntity
  8
DV2_Standard
  6
Continuous
 62
     7
100
AcDbLine
 10
269.5790470421
 20
416.6259229906
 30
0.0
 11
294.6371891513
 21
416.6259229906
 31
0.0
  0
LINE
  5
179
330
173
100
AcDbEntity
  8
DV2_Standard
  6
Continuous
 62
     7
100
AcDbLine
 10
269.5790470421
 20
368.6259229906
 30
0.0
 11
294.6371891513
 21
368.6259229906
 31
0.0
  0
LINE
  5
17A
330
173
100
AcDbEntity
  8
DV2_Standard
  6
Continuous
 62
     7
100
AcDbLine
 10
264.6458124051
 20
368.6259229906
 30
0.0
 11
269.5790470421
 21
368.6259229906
 31
0.0
  0
LINE
  5
17B
330
173
100
AcDbEntity
  8
DV2_Standard
  6
Continuous
 62
     7
100
AcDbLine
 10
214.1371891513
 20
368.6259229906
 30
0.0
 11
264.6458124051
 21
368.6259229906
 31
0.0
  0
LINE
  5
17C
330
173
100
AcDbEntity
  8
DV2_Standard
  6
Continuous
 62
     7
100
AcDbLine
 10
269.5790470421
 20
416.6259229906
 30
0.0
 11
269.5790470421
 21
368.6259229906
 31
0.0
  0
LINE
  5
17D
330
173
100
AcDbEntity
  8
DV2_Standard
  6
Continuous
 62
     7
100
AcDbLine
 10
264.6458124051
 20
416.6259229906
 30
0.0
 11
264.6458124051
 21
368.6259229906
 31
0.0
  0
LINE
  5
17E
330
173
100
AcDbEntity
  8
DV2_Standard
  6
Continuous
 62
     7
100
AcDbLine
 10
214.1371891513
 20
416.6259229906
 30
0.0
 11
214.1371891513
 21
368.6259229906
 31
0.0
  0
LINE
  5
17F
330
173
100
AcDbEntity
  8
DV2_Standard
  6
Continuous
 62
     7
100
AcDbLine
 10
214.1371891513
 20
967.1009229906
 30
0.0
 11
264.6458124051
 21
967.1009229906
 31
0.0
  0
LINE
  5
180
330
173
100
AcDbEntity
  8
DV2_Standard
  6
Continuous
 62
     7
100
AcDbLine
 10
214.1371891513
 20
1015.1009229906
 30
0.0
 11
214.1371891513
 21
967.1009229906
 31
0.0
  0
LINE
  5
181
330
173
100
AcDbEntity
  8
DV2_Standard
  6
Continuous
 62
     7
100
AcDbLine
 10
264.6458124051
 20
967.1009229906
 30
0.0
 11
269.5790470421
 21
967.1009229906
 31
0.0
  0
LINE
  5
182
330
173
100
AcDbEntity
  8
DV2_Standard
  6
Continuous
 62
     7
100
AcDbLine
 10
264.6458124051
 20
1015.1009229906
 30
0.0
 11
264.6458124051
 21
967.1009229906
 31
0.0
  0
LINE
  5
183
330
173
100
AcDbEntity
  8
DV2_Standard
  6
Continuous
 62
     7
100
AcDbLine
 10
269.5790470421
 20
967.1009229906
 30
0.0
 11
294.6371891513
 21
967.1009229906
 31
0.0
  0
LINE
  5
184
330
173
100
AcDbEntity
  8
DV2_Standard
  6
Continuous
 62
     7
100
AcDbLine
 10
269.5790470421
 20
1015.1009229906
 30
0.0
 11
269.5790470421
 21
967.1009229906
 31
0.0
  0
LINE
  5
185
330
173
100
AcDbEntity
  8
DV2_Standard
  6
Continuous
 62
     7
100
AcDbLine
 10
214.1371891513
 20
1015.1009229906
 30
0.0
 11
264.6458124051
 21
1015.1009229906
 31
0.0
  0
LINE
  5
186
330
173
100
AcDbEntity
  8
DV2_Standard
  6
Continuous
 62
     7
100
AcDbLine
 10
264.6458124051
 20
1015.1009229906
 30
0.0
 11
269.5790470421
 21
1015.1009229906
 31
0.0
  0
LINE
  5
187
330
173
100
AcDbEntity
  8
DV2_Standard
  6
Continuous
 62
     7
100
AcDbLine
 10
269.5790470421
 20
1015.1009229906
 30
0.0
 11
294.6371891513
 21
1015.1009229906
 31
0.0
  0
CIRCLE
  5
188
330
173
100
AcDbEntity
  8
DV2_Standard
  6
Continuous
 62
     7
100
AcDbCircle
 10
279.1371891513
 20
688.6259229906
 30
0.0
 40
13.5
  0
LINE
  5
189
330
173
100
AcDbEntity
  8
DV2_Standard
  6
Continuous
 62
     7
100
AcDbLine
 10
275.1371891513
 20
710.6259229906
 30
0.0
 11
283.1371891513
 21
710.6259229906
 31
0.0
  0
ARC
  5
18A
330
173
100
AcDbEntity
  8
DV2_Standard
  6
Continuous
 62
     7
100
AcDbCircle
 10
279.1371891513
 20
688.6259229906
 30
0.0
 40
18.0
100
AcDbArc
 50
0.0
 51
77.1604115931
  0
ARC
  5
18B
330
173
100
AcDbEntity
  8
DV2_Standard
  6
Continuous
 62
     7
100
AcDbCircle
 10
279.1371891513
 20
688.6259229906
 30
0.0
 40
18.0
100
AcDbArc
 50
102.8395884069
 51
0.0
  0
LINE
  5
18C
330
173
100
AcDbEntity
  8
DV2_Standard
  6
Continuous
 62
     7
100
AcDbLine
 10
294.6371891513
 20
368.6259229906
 30
0.0
 11
294.6371891513
 21
416.6259229906
 31
0.0
  0
LINE
  5
18D
330
173
100
AcDbEntity
  8
DV2_Standard
  6
Continuous
 62
     7
100
AcDbLine
 10
294.6371891513
 20
967.1009229906
 30
0.0
 11
294.6371891513
 21
1015.1009229906
 31
0.0
  0
LINE
  5
18E
330
173
100
AcDbEntity
  8
DV2_Standard
  6
Continuous
 62
     7
100
AcDbLine
 10
275.1371891513
 20
710.6259229906
 30
0.0
 11
275.1371891513
 21
701.5337113378
 31
0.0
  0
LINE
  5
18F
330
173
100
AcDbEntity
  8
DV2_Standard
  6
Continuous
 62
     7
100
AcDbLine
 10
283.1371891513
 20
701.5289805507
 30
0.0
 11
283.1371891513
 21
710.6259229906
 31
0.0
  0
LINE
  5
190
330
173
100
AcDbEntity
  8
DV2_Standard
  6
Continuous
 62
     7
100
AcDbLine
 10
377.0678840284
 20
916.2944166983
 30
0.0
 11
319.8023079601
 21
848.849437861
 31
0.0
  0
LINE
  5
191
330
173
100
AcDbEntity
  8
DV2_Standard
  6
Continuous
 62
     7
100
AcDbLine
 10
377.5498525402
 20
918.3042187559
 30
0.0
 11
367.2987645488
 21
906.2309199242
 31
0.0
  0
ARC
  5
192
330
173
100
AcDbEntity
  8
DV2_Standard
  6
Continuous
 62
     7
100
AcDbCircle
 10
110.1481273446
 20
1114.549368515
 30
0.0
 40
330.9426328502043
100
AcDbArc
 50
318.3437862653
 51
320.9889714283
  0
LINE
  5
193
330
173
100
AcDbEntity
  8
DV2_Standard
  6
Continuous
 62
     7
100
AcDbLine
 10
357.4107051849
 20
894.5851808899
 30
0.0
 11
318.4471338552
 21
848.6955308735
 31
0.0
  0
SPLINE
  5
194
330
173
100
AcDbEntity
  8
DV2_Standard
  6
Continuous
 62
     7
100
AcDbSpline
210
0.0
220
0.0
230
1.0
 70
     8
 71
     3
 72
    14
 73
    10
 74
     0
 42
0.000000012357091
 43
0.0000000001
 40
0.0
 40
0.0
 40
0.0
 40
0.0
 40
0.1254451760563391
 40
0.1254451760563391
 40
0.2508903521126781
 40
0.2508903521126781
 40
0.5017807042253557
 40
0.5017807042253557
 40
1.0
 40
1.0
 40
1.0
 40
1.0
 10
318.4471338551975
 20
848.6955308735479
 30
0.0
 10
318.4848665280181
 20
848.675465887954
 30
0.0
 10
318.4553714855945
 20
848.6302727381319
 30
0.0
 10
318.3740126289079
 20
848.5351728150879
 30
0.0
 10
318.3366905837872
 20
848.4912160647416
 30
0.0
 10
318.2334394896724
 20
848.3695529934649
 30
0.0
 10
318.1760695535781
 20
848.3019869303592
 30
0.0
 10
318.0390854736374
 20
848.1407096589348
 30
0.0
 10
317.9938247556843
 20
848.0874295885259
 30
0.0
 10
317.9938347537281
 20
848.0874411812579
 30
0.0
  0
ARC
  5
195
330
173
100
AcDbEntity
  8
DV2_Standard
  6
Continuous
 62
     7
100
AcDbCircle
 10
353.8340989901
 20
898.3520102345
 30
0.0
 40
5.19433491253318
100
AcDbArc
 50
303.6970657405
 51
313.516151357
  0
ARC
  5
196
330
173
100
AcDbEntity
  8
DV2_Standard
  6
Continuous
 62
     7
100
AcDbCircle
 10
354.540187989
 20
897.3290352602
 30
0.0
 40
3.951548272738676
100
AcDbArc
 50
236.3863869578
 51
303.408445531
  0
LINE
  5
197
330
173
100
AcDbEntity
  8
DV2_Standard
  6
Continuous
 62
     7
100
AcDbLine
 10
352.3526526356
 20
894.0382264191
 30
0.0
 11
315.4907523434
 21
850.6238358584
 31
0.0
  0
ARC
  5
198
330
173
100
AcDbEntity
  8
DV2_Standard
  6
Continuous
 62
     7
100
AcDbCircle
 10
318.9772552651
 20
852.7896404
 30
0.0
 40
4.104438077944781
100
AcDbArc
 50
211.8484188982
 51
260.0338419968
  0
SPLINE
  5
199
330
173
100
AcDbEntity
  8
DV2_Standard
  6
Continuous
 62
     7
100
AcDbSpline
210
0.0
220
0.0
230
1.0
 70
     8
 71
     3
 72
     8
 73
     4
 74
     0
 42
0.0000000520771052
 43
0.0000000001
 40
0.0
 40
0.0
 40
0.0
 40
0.0
 40
1.0
 40
1.0
 40
1.0
 40
1.0
 10
318.2669146699186
 20
848.7471376882785
 30
0.0
 10
318.3582927782184
 20
848.7312258048844
 30
0.0
 10
318.422278877388
 20
848.7188830061501
 30
0.0
 10
318.4471338551975
 20
848.6955308735479
 30
0.0
  0
ARC
  5
19A
330
173
100
AcDbEntity
  8
DV2_Standard
  6
Continuous
 62
     7
100
AcDbCircle
 10
312.2219585055
 20
848.7851679819
 30
0.0
 40
3.745484101351587
100
AcDbArc
 50
31.2778715438
 51
90.7595094683
  0
ARC
  5
19B
330
173
100
AcDbEntity
  8
DV2_Standard
  6
Continuous
 62
     7
100
AcDbCircle
 10
305.8619196424
 20
844.5473507923
 30
0.0
 40
11.38587238381516
100
AcDbArc
 50
32.2548690286
 51
32.8875143592
  0
ARC
  5
19C
330
173
100
AcDbEntity
  8
DV2_Standard
  6
Continuous
 62
     7
100
AcDbCircle
 10
353.6500516414
 20
896.3079949915
 30
0.0
 40
2.614401184362159
100
AcDbArc
 50
237.5794793224
 51
240.2477283838
  0
SPLINE
  5
19D
330
173
100
AcDbEntity
  8
DV2_Standard
  6
Continuous
 62
     7
100
AcDbSpline
210
0.0
220
0.0
230
1.0
 70
     8
 71
     3
 72
    26
 73
    22
 74
     0
 42
0.0000000003890581
 43
0.0000000001
 40
0.0
 40
0.0
 40
0.0
 40
0.0
 40
0.0312500000000007
 40
0.0312500000000007
 40
0.0625000000000014
 40
0.0625000000000014
 40
0.1250000000000013
 40
0.1250000000000013
 40
0.2500000000000012
 40
0.2500000000000012
 40
0.5000000000000008
 40
0.5000000000000008
 40
0.7500000000000003
 40
0.7500000000000003
 40
0.8750000000000004
 40
0.8750000000000004
 40
0.9375000000000004
 40
0.9375000000000004
 40
0.9687500000000002
 40
0.9687500000000002
 40
1.0
 40
1.0
 40
1.0
 40
1.0
 10
352.2483949318053
 20
894.1010849296415
 30
0.0
 10
351.9947026871
 20
894.2622808651327
 30
0.0
 10
351.8215090981462
 20
894.5115811137091
 30
0.0
 10
351.6404400636902
 20
895.0532155722635
 30
0.0
 10
351.6199610306066
 20
895.341682254118
 30
0.0
 10
351.6653504016266
 20
896.1864007433229
 30
0.0
 10
351.8148419427068
 20
896.7380704290217
 30
0.0
 10
352.3717554940476
 20
898.332877953172
 30
0.0
 10
352.8807939155737
 20
899.324315749472
 30
0.0
 10
354.5365515041473
 20
902.191287887343
 30
0.0
 10
355.8259449249319
 20
903.943725081704
 30
0.0
 10
358.5450696871586
 20
907.1462092192411
 30
0.0
 10
359.9752969202237
 20
908.5955328930122
 30
0.0
 10
362.2943154515523
 20
910.417214217483
 30
0.0
 10
363.0942927534379
 20
910.9706440958845
 30
0.0
 10
364.4502705780711
 20
911.6329762438324
 30
0.0
 10
364.9358036666339
 20
911.8272326857598
 30
0.0
 10
365.7497923283559
 20
911.9836600910392
 30
0.0
 10
366.036188702362
 20
912.0091819495237
 30
0.0
 10
366.6347027195428
 20
911.9559395299708
 30
0.0
 10
366.942397741185
 20
911.868980594798
 30
0.0
 10
367.2017744811189
 20
911.7125533611395
 30
0.0
  0
ARC
  5
19E
330
173
100
AcDbEntity
  8
DV2_Standard
  6
Continuous
 62
     7
100
AcDbCircle
 10
365.4075334796
 20
908.7377829857
 30
0.0
 40
3.47398324091718
100
AcDbArc
 50
56.9009951709
 51
58.9036042291
  0
LINE
  5
19F
330
173
100
AcDbEntity
  8
DV2_Standard
  6
Continuous
 62
     7
100
AcDbLine
 10
375.8499591872
 20
921.7123624693
 30
0.0
 11
367.3046319921
 21
911.648036719
 31
0.0
  0
LINE
  5
1A0
330
173
100
AcDbEntity
  8
DV2_Standard
  6
Continuous
 62
     7
100
AcDbLine
 10
312.0076534845
 20
853.0790901897
 30
0.0
 11
371.6301753253
 21
923.2999802928
 31
0.0
  0
SPLINE
  5
1A1
330
173
100
AcDbEntity
  8
DV2_Standard
  6
Continuous
 62
     7
100
AcDbSpline
210
0.0
220
0.0
230
1.0
 70
     8
 71
     3
 72
     8
 73
     4
 74
     0
 42
0.0000000441829929
 43
0.0000000001
 40
0.0
 40
0.0
 40
0.0
 40
0.0
 40
1.0
 40
1.0
 40
1.0
 40
1.0
 10
317.790704055009
 20
847.9870330176697
 30
0.0
 10
317.7220314446002
 20
847.9027501087724
 30
0.0
 10
317.6740101757339
 20
847.8445291974226
 30
0.0
 10
317.6471188843967
 20
847.8120799197957
 30
0.0
  0
SPLINE
  5
1A2
330
173
100
AcDbEntity
  8
DV2_Standard
  6
Continuous
 62
     7
100
AcDbSpline
210
0.0
220
0.0
230
1.0
 70
     8
 71
     3
 72
    20
 73
    16
 74
     0
 42
0.0000000021567578
 43
0.0000000001
 40
0.0
 40
0.0
 40
0.0
 40
0.0
 40
0.4984139029558106
 40
0.4984139029558106
 40
0.5611121650863341
 40
0.5611121650863341
 40
0.6238104272168576
 40
0.6238104272168576
 40
0.7492069514779052
 40
0.7492069514779052
 40
0.8746034757389528
 40
0.8746034757389528
 40
0.9373017378694763
 40
0.9373017378694763
 40
0.9999999999999999
 40
0.9999999999999999
 40
0.9999999999999999
 40
0.9999999999999999
 10
317.6215732738374
 20
847.7813642000987
 30
0.0
 10
317.6215085497577
 20
847.7812871636011
 30
0.0
 10
317.7463183278897
 20
847.9303357600519
 30
0.0
 10
318.020482763959
 20
848.2714613714619
 30
0.0
 10
318.0663819824437
 20
848.3173775717725
 30
0.0
 10
318.0883250182411
 20
848.3840225822509
 30
0.0
 10
318.0586575645298
 20
848.4031556365069
 30
0.0
 10
317.8692438456929
 20
848.4477122038752
 30
0.0
 10
317.6229938615704
 20
848.4675551142956
 30
0.0
 10
317.0032331834261
 20
848.6543004771916
 30
0.0
 10
316.6142301621647
 20
848.8176094016468
 30
0.0
 10
315.982929650224
 20
849.2845053066944
 30
0.0
 10
315.767729094058
 20
849.4739178182929
 30
0.0
 10
315.3615015440232
 20
849.9294868748149
 30
0.0
 10
315.1797019771213
 20
850.1947285833296
 30
0.0
 10
315.0090887913428
 20
850.4647604235489
 30
0.0
  0
ARC
  5
1A3
330
173
100
AcDbEntity
  8
DV2_Standard
  6
Continuous
 62
     7
100
AcDbCircle
 10
312.1662654922
 20
848.4298182902
 30
0.0
 40
3.496088356478701
100
AcDbArc
 50
35.5957431547
 51
90.7280035555
  0
SPLINE
  5
1A4
330
173
100
AcDbEntity
  8
DV2_Standard
  6
Continuous
 62
     7
100
AcDbSpline
210
0.0
220
0.0
230
1.0
 70
     8
 71
     3
 72
    18
 73
    14
 74
     0
 42
0.0000000016743666
 43
0.0000000001
 40
0.0
 40
0.0
 40
0.0
 40
0.0
 40
0.1381342107840589
 40
0.1381342107840589
 40
0.2762684215681178
 40
0.2762684215681178
 40
0.552536843136247
 40
0.552536843136247
 40
0.828805264704376
 40
0.828805264704376
 40
0.9669394754884404
 40
0.9669394754884404
 40
1.0
 40
1.0
 40
1.0
 40
1.0
 10
352.534473058448
 20
894.6606498641065
 30
0.0
 10
352.7869967971483
 20
894.4934612608164
 30
0.0
 10
353.0705084164489
 20
894.3581188636107
 30
0.0
 10
353.6516413468889
 20
894.1227477991279
 30
0.0
 10
353.9500230675214
 20
894.0300711103764
 30
0.0
 10
354.8246045059983
 20
893.8549784204496
 30
0.0
 10
355.3622502427949
 20
893.8680297943085
 30
0.0
 10
356.3272777249875
 20
894.0838181542925
 30
0.0
 10
356.7636880192268
 20
894.2832319296136
 30
0.0
 10
357.3797919676987
 20
894.7307202631325
 30
0.0
 10
357.582843078744
 20
894.9098057888039
 30
0.0
 10
357.8236573794192
 20
895.16168053147
 30
0.0
 10
357.8697959867312
 20
895.211832875827
 30
0.0
 10
357.9156679144864
 20
895.2630068391396
 30
0.0
  0
SPLINE
  5
1A5
330
173
100
AcDbEntity
  8
DV2_Standard
  6
Continuous
 62
     7
100
AcDbSpline
210
0.0
220
0.0
230
1.0
 70
     8
 71
     3
 72
    12
 73
     8
 74
     0
 42
0.0000000009785794
 43
0.0000000001
 40
0.0
 40
0.0
 40
0.0
 40
0.0
 40
0.0615201358374718
 40
0.0615201358374718
 40
0.7085354419683108
 40
0.7085354419683108
 40
1.0
 40
1.0
 40
1.0
 40
1.0
 10
357.9156679144864
 20
895.2630068391396
 30
0.0
 10
358.0614590843748
 20
895.4256490550713
 30
0.0
 10
358.2045564987064
 20
895.5986107411969
 30
0.0
 10
359.8585493498782
 20
897.528472906383
 30
0.0
 10
361.3146175139473
 20
899.2412147126338
 30
0.0
 10
363.3303915997121
 20
901.6152697399194
 30
0.0
 10
363.9430512205373
 20
902.3372286643183
 30
0.0
 10
364.5408104270651
 20
903.0431705736046
 30
0.0
  0
SPLINE
  5
1A6
330
173
100
AcDbEntity
  8
DV2_Standard
  6
Continuous
 62
     7
100
AcDbSpline
210
0.0
220
0.0
230
1.0
 70
     8
 71
     3
 72
    20
 73
    16
 74
     0
 42
0.0000000009665654
 43
0.0000000001
 40
0.0
 40
0.0
 40
0.0
 40
0.0
 40
0.3546407207774758
 40
0.3546407207774758
 40
0.4353106306802939
 40
0.4353106306802939
 40
0.515980540583112
 40
0.515980540583112
 40
0.677320360388742
 40
0.677320360388742
 40
0.8386601801943718
 40
0.8386601801943718
 40
0.9193300900971859
 40
0.9193300900971859
 40
1.0
 40
1.0
 40
1.0
 40
1.0
 10
364.5408104270651
 20
903.0431705736046
 30
0.0
 10
365.2700028012576
 20
903.9043324783534
 30
0.0
 10
365.9770218907725
 20
904.7416594863874
 30
0.0
 10
366.8142640076456
 20
905.7387177813088
 30
0.0
 10
366.9683563800446
 20
905.9120593124568
 30
0.0
 10
367.2730006696353
 20
906.3116579294193
 30
0.0
 10
367.4249169958381
 20
906.5446526966696
 30
0.0
 10
367.8418859004052
 20
907.3033811280222
 30
0.0
 10
368.0673672460584
 20
907.87880929119
 30
0.0
 10
368.3021437376132
 20
909.0719924703645
 30
0.0
 10
368.3136786461108
 20
909.7070380654496
 30
0.0
 10
368.0351782847019
 20
910.5894470993285
 30
0.0
 10
367.8934940671139
 20
910.8654440520522
 30
0.0
 10
367.5085628086373
 20
911.3460949820504
 30
0.0
 10
367.2707005632084
 20
911.5453084336833
 30
0.0
 10
367.0001909419764
 20
911.6976864679427
 30
0.0
  0
SPLINE
  5
1A7
330
173
100
AcDbEntity
  8
DV2_Standard
  6
Continuous
 62
     7
100
AcDbSpline
210
0.0
220
0.0
230
1.0
 70
     8
 71
     3
 72
    18
 73
    14
 74
     0
 42
0.0000000005922511
 43
0.0000000001
 40
0.0
 40
0.0
 40
0.0
 40
0.0
 40
0.0440621929877219
 40
0.0440621929877219
 40
0.0881243859754438
 40
0.0881243859754438
 40
0.1762487719508873
 40
0.1762487719508873
 40
0.3524975439017775
 40
0.3524975439017775
 40
0.7049950878035551
 40
0.7049950878035551
 40
1.0
 40
1.0
 40
1.0
 40
1.0
 10
367.0001909419764
 20
911.6976864679427
 30
0.0
 10
366.7513838341917
 20
911.8378394792195
 30
0.0
 10
366.4442163829326
 20
911.8751563540973
 30
0.0
 10
365.9015100360727
 20
911.8589303330717
 30
0.0
 10
365.6457719954994
 20
911.8071009134492
 30
0.0
 10
364.917510120323
 20
911.6079040146667
 30
0.0
 10
364.4773602073536
 20
911.4071030084148
 30
0.0
 10
363.2095525438735
 20
910.7316126769605
 30
0.0
 10
362.45327972665
 20
910.1862601905785
 30
0.0
 10
360.261637231238
 20
908.411370392272
 30
0.0
 10
358.9036347971915
 20
907.0231229428623
 30
0.0
 10
356.5369547693339
 20
904.235965808044
 30
0.0
 10
355.5006327571152
 20
902.8684983551035
 30
0.0
 10
354.562551336099
 20
901.3986335162449
 30
0.0
  0
SPLINE
  5
1A8
330
173
100
AcDbEntity
  8
DV2_Standard
  6
Continuous
 62
     7
100
AcDbSpline
210
0.0
220
0.0
230
1.0
 70
     8
 71
     3
 72
    16
 73
    12
 74
     0
 42
0.0000000013421264
 43
0.0000000001
 40
0.0
 40
0.0
 40
0.0
 40
0.0
 40
0.1402292911536194
 40
0.1402292911536194
 40
0.5701146455768072
 40
0.5701146455768072
 40
0.7850573227884036
 40
0.7850573227884036
 40
0.8925286613942016
 40
0.8925286613942016
 40
1.0
 40
1.0
 40
1.0
 40
1.0
 10
354.562551336099
 20
901.3986335162449
 30
0.0
 10
354.3797314323675
 20
901.1121759206479
 30
0.0
 10
354.2006428001257
 20
900.8218291745274
 30
0.0
 10
353.4894059166729
 20
899.6254434191939
 30
0.0
 10
352.9883467996507
 20
898.68573114893
 30
0.0
 10
352.4166588834733
 20
897.1962484940999
 30
0.0
 10
352.2533577698388
 20
896.6851826176946
 30
0.0
 10
352.1414325052337
 20
895.8932197792377
 30
0.0
 10
352.1232437407219
 20
895.6257371083844
 30
0.0
 10
352.2030171507942
 20
895.0947100682552
 30
0.0
 10
352.3006577128215
 20
894.8154521859175
 30
0.0
 10
352.534473058448
 20
894.6606498641065
 30
0.0
  0
ARC
  5
1A9
330
173
100
AcDbEntity
  8
DV2_Standard
  6
Continuous
 62
     7
100
AcDbCircle
 10
353.1937831967
 20
894.3141061601
 30
0.0
 40
0.7448371615154133
100
AcDbArc
 50
152.2728833094
 51
163.8785759081
  0
ARC
  5
1AA
330
173
100
AcDbEntity
  8
DV2_Standard
  6
Continuous
 62
     7
100
AcDbCircle
 10
355.2091264454
 20
899.0173760451
 30
0.0
 40
5.260779903238176
100
AcDbArc
 50
238.7278555654
 51
239.8459190719
  0
ARC
  5
1AB
330
173
100
AcDbEntity
  8
DV2_Standard
  6
Continuous
 62
     7
100
AcDbCircle
 10
354.8748123074
 20
897.8105434284
 30
0.0
 40
4.061724576432467
100
AcDbArc
 50
235.3675461586
 51
298.3729182564
  0
ARC
  5
1AC
330
173
100
AcDbEntity
  8
DV2_Standard
  6
Continuous
 62
     7
100
AcDbCircle
 10
291.1922058641
 20
961.0771223994
 30
0.0
 40
93.66254589052622
100
AcDbArc
 50
314.468983167
 51
324.8654198012
  0
SPLINE
  5
1AD
330
173
100
AcDbEntity
  8
DV2_Standard
  6
Continuous
 62
     7
100
AcDbSpline
210
0.0
220
0.0
230
1.0
 70
     8
 71
     3
 72
    20
 73
    16
 74
     0
 42
0.0000000020295796
 43
0.0000000001
 40
0.0
 40
0.0
 40
0.0
 40
0.0
 40
0.2500000000000004
 40
0.2500000000000004
 40
0.3750000000000003
 40
0.3750000000000003
 40
0.5000000000000002
 40
0.5000000000000002
 40
0.6250000000000002
 40
0.6250000000000002
 40
0.7500000000000001
 40
0.7500000000000001
 40
0.8750000000000001
 40
0.8750000000000001
 40
1.0
 40
1.0
 40
1.0
 40
1.0
 10
367.7896729279845
 20
907.1744272711609
 30
0.0
 10
367.956580645981
 20
907.5381241094021
 30
0.0
 10
368.0932670510847
 20
907.9255509967778
 30
0.0
 10
368.2276001067719
 20
908.520965264361
 30
0.0
 10
368.2608387833047
 20
908.722538369136
 30
0.0
 10
368.2984503081593
 20
909.1322343874775
 30
0.0
 10
368.3025936149286
 20
909.3413186684087
 30
0.0
 10
368.274714606247
 20
909.7522744870712
 30
0.0
 10
368.2430722116913
 20
909.9556581541966
 30
0.0
 10
368.1356341031329
 20
910.3562085886391
 30
0.0
 10
368.0596473005695
 20
910.5510600267419
 30
0.0
 10
367.8638477605157
 20
910.9127999493794
 30
0.0
 10
367.7414641230545
 20
911.0839293373654
 30
0.0
 10
367.459602410475
 20
911.380693554137
 30
0.0
 10
367.3007245214397
 20
911.5067576577193
 30
0.0
 10
367.1287484610364
 20
911.6192616214711
 30
0.0
  0
ARC
  5
1AE
330
173
100
AcDbEntity
  8
DV2_Standard
  6
Continuous
 62
     7
100
AcDbCircle
 10
365.8940130093
 20
909.738569092
 30
0.0
 40
2.249794663089977
100
AcDbArc
 50
56.7138065493
 51
58.7871065038
  0
ARC
  5
1AF
330
173
100
AcDbEntity
  8
DV2_Standard
  6
Continuous
 62
     7
100
AcDbCircle
 10
365.8940130093
 20
909.738569092
 30
0.0
 40
2.249794663089977
100
AcDbArc
 50
59.1650781488
 51
59.3193304516
  0
SPLINE
  5
1B0
330
173
100
AcDbEntity
  8
DV2_Standard
  6
Continuous
 62
     7
100
AcDbSpline
210
0.0
220
0.0
230
1.0
 70
     8
 71
     3
 72
     8
 73
     4
 74
     0
 42
0.0000001629551886
 43
0.0000000001
 40
0.0
 40
0.0
 40
0.0
 40
0.0
 40
1.0
 40
1.0
 40
1.0
 40
1.0
 10
367.0001909419764
 20
911.6976864679427
 30
0.0
 10
367.021677421107
 20
911.7034029353713
 30
0.0
 10
367.0363500029034
 20
911.6948917879262
 30
0.0
 10
367.0419770173269
 20
911.6734475539334
 30
0.0
  0
SPLINE
  5
1B1
330
173
100
AcDbEntity
  8
DV2_Standard
  6
Continuous
 62
     7
100
AcDbSpline
210
0.0
220
0.0
230
1.0
 70
     8
 71
     3
 72
    24
 73
    20
 74
     0
 42
0.0000000004258214
 43
0.0000000001
 40
0.0
 40
0.0
 40
0.0
 40
0.0
 40
0.0325562322142437
 40
0.0325562322142437
 40
0.0651124644284874
 40
0.0651124644284874
 40
0.1302249288569721
 40
0.1302249288569721
 40
0.2604498577139415
 40
0.2604498577139415
 40
0.5208997154278803
 40
0.5208997154278803
 40
0.781349573141819
 40
0.781349573141819
 40
0.9115745019987891
 40
0.9115745019987891
 40
0.9766869664272748
 40
0.9766869664272748
 40
1.0
 40
1.0
 40
1.0
 40
1.0
 10
367.0419770173269
 20
911.6734475539334
 30
0.0
 10
366.7927736840789
 20
911.8218001733544
 30
0.0
 10
366.4817676596343
 20
911.8710408193361
 30
0.0
 10
365.9280463494146
 20
911.8640734447064
 30
0.0
 10
365.6693885039467
 20
911.8142888378949
 30
0.0
 10
364.9315412143165
 20
911.6160477716131
 30
0.0
 10
364.4845158898214
 20
911.4138613274158
 30
0.0
 10
363.2208713452953
 20
910.7442147878122
 30
0.0
 10
362.4596886025849
 20
910.200638544348
 30
0.0
 10
360.2472241526207
 20
908.4217870598618
 30
0.0
 10
358.874784165224
 20
907.0240630023568
 30
0.0
 10
356.2664987141395
 20
903.9522248196283
 30
0.0
 10
355.0301267499308
 20
902.2789285130642
 30
0.0
 10
353.4204692475977
 20
899.5498306374844
 30
0.0
 10
352.9223063804272
 20
898.6070796535026
 30
0.0
 10
352.3395147010096
 20
897.0987611600176
 30
0.0
 10
352.1708205461879
 20
896.574867994397
 30
0.0
 10
352.0610391242365
 20
895.8453351230738
 30
0.0
 10
352.042614549497
 20
895.6482043269345
 30
0.0
 10
352.0502568730673
 20
895.45241867655
 30
0.0
  0
SPLINE
  5
1B2
330
173
100
AcDbEntity
  8
DV2_Standard
  6
Continuous
 62
     7
100
AcDbSpline
210
0.0
220
0.0
230
1.0
 70
     8
 71
     3
 72
    10
 73
     6
 74
     0
 42
0.0000000091131042
 43
0.0000000001
 40
0.0
 40
0.0
 40
0.0
 40
0.0
 40
0.2211321650147269
 40
0.2211321650147269
 40
1.0
 40
1.0
 40
1.0
 40
1.0
 10
352.0502568730673
 20
895.45241867655
 30
0.0
 10
352.0532869169534
 20
895.374793186413
 30
0.0
 10
352.0604146249146
 20
895.2973791504877
 30
0.0
 10
352.1155600244418
 20
894.949984839616
 30
0.0
 10
352.2325333558788
 20
894.6716829526167
 30
0.0
 10
352.4782364636321
 20
894.5209279916339
 30
0.0
  0
LINE
  5
1B3
330
173
100
AcDbEntity
  8
DV2_Standard
  6
Continuous
 62
     7
100
AcDbLine
 10
315.1364295608
 20
850.5413236775
 30
0.0
 11
315.0132070643
 21
850.4696862055
 31
0.0
  0
ARC
  5
1B4
330
173
100
AcDbEntity
  8
DV2_Standard
  6
Continuous
 62
     7
100
AcDbCircle
 10
318.908304015
 20
852.8458886499
 30
0.0
 40
4.420187395351264
100
AcDbArc
 50
211.424373641
 51
212.8004357068
  0
SPLINE
  5
1B5
330
173
100
AcDbEntity
  8
DV2_Standard
  6
Continuous
 62
     7
100
AcDbSpline
210
0.0
220
0.0
230
1.0
 70
     8
 71
     3
 72
    10
 73
     6
 74
     0
 42
0.0000000379109531
 43
0.0000000001
 40
0.0
 40
0.0
 40
0.0
 40
0.0
 40
0.8307632225900202
 40
0.8307632225900202
 40
1.0
 40
1.0
 40
1.0
 40
1.0
 10
318.0216145770378
 20
848.5597083997036
 30
0.0
 10
318.141677273299
 20
848.5364362098146
 30
0.0
 10
318.2194863944964
 20
848.5197262425289
 30
0.0
 10
318.2358421732294
 20
848.4783959954664
 30
0.0
 10
318.2353652156497
 20
848.4703053499275
 30
0.0
 10
318.2324810153254
 20
848.461419810239
 30
0.0
  0
ARC
  5
1B6
330
173
100
AcDbEntity
  8
DV2_Standard
  6
Continuous
 62
     7
100
AcDbCircle
 10
318.5650461732
 20
852.4458831602
 30
0.0
 40
3.923986769673314
100
AcDbArc
 50
210.6335271256
 51
262.0395411608
  0
ARC
  5
1B7
330
173
100
AcDbEntity
  8
DV2_Standard
  6
Continuous
 62
     7
100
AcDbCircle
 10
318.9199136298
 20
852.8511932752
 30
0.0
 40
4.43903148772929
100
AcDbArc
 50
211.4312746926
 51
212.8015071213
  0
LINE
  5
1B8
330
173
100
AcDbEntity
  8
DV2_Standard
  6
Continuous
 62
     7
100
AcDbLine
 10
315.0090887913
 20
850.4647604235
 30
0.0
 11
315.1322377503
 21
850.5363472802
 31
0.0
  0
SPLINE
  5
1B9
330
173
100
AcDbEntity
  8
DV2_Standard
  6
Continuous
 62
     7
100
AcDbSpline
210
0.0
220
0.0
230
1.0
 70
     8
 71
     3
 72
    20
 73
    16
 74
     0
 42
0.0000000019784147
 43
0.0000000001
 40
0.0
 40
0.0
 40
0.0
 40
0.0
 40
0.125000000000001
 40
0.125000000000001
 40
0.250000000000002
 40
0.250000000000002
 40
0.375000000000003
 40
0.375000000000003
 40
0.500000000000004
 40
0.500000000000004
 40
0.625000000000005
 40
0.625000000000005
 40
0.750000000000006
 40
0.750000000000006
 40
1.0
 40
1.0
 40
1.0
 40
1.0
 10
367.304631992078
 20
911.6480367189824
 30
0.0
 10
367.4803893079259
 20
911.5303551567495
 30
0.0
 10
367.6406977990039
 20
911.393076941895
 30
0.0
 10
367.9193129010633
 20
911.0747361184134
 30
0.0
 10
368.0370412474996
 20
910.8923405540545
 30
0.0
 10
368.2192765344674
 20
910.5104898599697
 30
0.0
 10
368.2863695325014
 20
910.3060459634884
 30
0.0
 10
368.3740810283642
 20
909.8894750002273
 30
0.0
 10
368.3950960098566
 20
909.6794286465489
 30
0.0
 10
368.401277248065
 20
909.2573689720518
 30
0.0
 10
368.3859935225293
 20
909.0439393442927
 30
0.0
 10
368.3269705460443
 20
908.627090389207
 30
0.0
 10
368.2833766318016
 20
908.4226892173892
 30
0.0
 10
368.1193921437539
 20
907.8204650275305
 30
0.0
 10
367.9649443075494
 20
907.4311707534677
 30
0.0
 10
367.7837221368629
 20
907.0659438715578
 30
0.0
  0
ARC
  5
1BA
330
173
100
AcDbEntity
  8
DV2_Standard
  6
Continuous
 62
     7
100
AcDbCircle
 10
361.1580312209
 20
910.3556155836
 30
0.0
 40
7.397413067239506
100
AcDbArc
 50
326.1109667582
 51
333.5954893058
  0
ELLIPSE
  5
1BB
330
173
100
AcDbEntity
  8
DV2_Standard
  6
Continuous
 62
     7
100
AcDbEllipse
 10
357.7974031306
 20
894.3550177916
 30
0.0
 11
-0.3359628223079947
 21
0.3703093058873148
 31
0.0
210
0.0
220
0.0
230
1.0
 40
0.5173529213
 41
0.0038113452344521
 42
0.5343679911656178
  0
ARC
  5
1BC
330
173
100
AcDbEntity
  8
DV2_Standard
  6
Continuous
 62
     7
100
AcDbCircle
 10
354.7320931582
 20
897.7071557984
 30
0.0
 40
4.042354935627664
100
AcDbArc
 50
300.8499404414
 51
312.4547232692
  0
ELLIPSE
  5
1BD
330
173
100
AcDbEntity
  8
DV2_Standard
  6
Continuous
 62
     7
100
AcDbEllipse
 10
357.087289031
 20
893.8261103058
 30
0.0
 11
-0.2551179145646454
 21
0.4300172667092706
 31
0.0
210
0.0
220
0.0
230
0.9999999999999998
 40
0.6299571377
 41
0.1058528151720727
 42
0.7519138329684275
  0
ELLIPSE
  5
1BE
330
173
100
AcDbEntity
  8
DV2_Standard
  6
Continuous
 62
     7
100
AcDbEllipse
 10
367.7349027912
 20
906.0589855211
 30
0.0
 11
0.4189258966652288
 21
-0.2729488836817618
 31
0.0
210
0.0
220
0.0
230
1.0
 40
0.4757566999
 41
3.017421397785244
 42
3.547978081219969
  0
ARC
  5
1BF
330
173
100
AcDbEntity
  8
DV2_Standard
  6
Continuous
 62
     7
100
AcDbCircle
 10
94.8229951096
 20
1127.7297620845
 30
0.0
 40
351.0982018176602
100
AcDbArc
 50
318.4214262349
 51
318.5958165708
  0
ARC
  5
1C0
330
173
100
AcDbEntity
  8
DV2_Standard
  6
Continuous
 62
     7
100
AcDbCircle
 10
94.8229951096
 20
1127.7297620845
 30
0.0
 40
351.0982018176602
100
AcDbArc
 50
320.8846565553
 51
320.9113328399
  0
ARC
  5
1C1
330
173
100
AcDbEntity
  8
DV2_Standard
  6
Continuous
 62
     7
100
AcDbCircle
 10
350.9111580824
 20
895.1059847775
 30
0.0
 40
1.672730132307824
100
AcDbArc
 50
323.0760592691
 51
339.5272651246
  0
SPLINE
  5
1C2
330
173
100
AcDbEntity
  8
DV2_Standard
  6
Continuous
 62
     7
100
AcDbSpline
210
0.0
220
0.0
230
1.0
 70
     8
 71
     3
 72
     8
 73
     4
 74
     0
 42
0.0000000882863466
 43
0.0000000001
 40
0.0
 40
0.0
 40
0.0
 40
0.0
 40
0.9999999999999999
 40
0.9999999999999999
 40
0.9999999999999999
 40
0.9999999999999999
 10
367.2017744811189
 20
911.7125533611395
 30
0.0
 10
367.1680077303741
 20
911.679562833289
 30
0.0
 10
367.1374776058329
 20
911.6563265871607
 30
0.0
 10
367.1124721188991
 20
911.6444251893556
 30
0.0
  0
ELLIPSE
  5
1C3
330
173
100
AcDbEntity
  8
DV2_Standard
  6
Continuous
 62
     7
100
AcDbEllipse
 10
368.2215321671
 20
906.9399553238
 30
0.0
 11
0.4536856851471149
 21
-0.2101649330706334
 31
0.0
210
0.0
220
0.0
230
0.9999999999999999
 40
0.3204817358
 41
3.12087180553066
 42
3.591640998424795
  0
ELLIPSE
  5
1C4
330
173
100
AcDbEntity
  8
DV2_Standard
  6
Continuous
 62
     7
100
AcDbEllipse
 10
367.4224960785
 20
912.0029535076
 30
0.0
 11
0.2728818141248257
 21
0.4189695878224486
 31
0.0
210
0.0
220
0.0
230
1.0
 40
0.2750313454
 41
3.15561108129336
 42
3.903603507970201
  0
ELLIPSE
  5
1C5
330
173
100
AcDbEntity
  8
DV2_Standard
  6
Continuous
 62
     7
100
AcDbEllipse
 10
318.4108898542
 20
848.2746795323
 30
0.0
 11
0.04457276090007178
 21
0.4980093061235646
 31
0.0
210
0.0
220
0.0
230
1.0
 40
0.9509668902
 41
0.9485791541477889
 42
1.039822543263503
  0
ELLIPSE
  5
1C6
330
173
100
AcDbEntity
  8
DV2_Standard
  6
Continuous
 62
     7
100
AcDbEllipse
 10
315.090165369
 20
850.3681428666
 30
0.0
 11
0.4228072401418898
 21
0.2668970544675853
 31
0.0
210
0.0
220
0.0
230
1.0
 40
0.0323195232
 41
0.3005918906158385
 42
1.305107300607267
  0
ELLIPSE
  5
1C7
330
173
100
AcDbEntity
  8
DV2_Standard
  6
Continuous
 62
     7
100
AcDbEllipse
 10
318.6418772703
 20
848.2392918298
 30
0.0
 11
0.2366181782236937
 21
0.4404677488014375
 31
0.0
210
0.0
220
0.0
230
1.0
 40
0.9935397558
 41
0.9614787412161837
 42
1.42221359811151
  0
ELLIPSE
  5
1C8
330
173
100
AcDbEntity
  8
DV2_Standard
  6
Continuous
 62
     7
100
AcDbEllipse
 10
318.6390139442
 20
848.2359195252
 30
0.0
 11
0.2347555517777517
 21
0.4414632837616284
 31
0.0
210
0.0
220
0.0
230
1.0
 40
0.9935282418
 41
0.887404910469164
 42
1.417961593906
  0
SPLINE
  5
1C9
330
173
100
AcDbEntity
  8
DV2_Standard
  6
Continuous
 62
     7
100
AcDbSpline
210
0.0
220
0.0
230
1.0
 70
     8
 71
     3
 72
     8
 73
     4
 74
     0
 42
0.0000002826697076
 43
0.0000000001
 40
0.0
 40
0.0
 40
0.0
 40
0.0
 40
1.0
 40
1.0
 40
1.0
 40
1.0
 10
318.158281101635
 20
848.3660798829912
 30
0.0
 10
318.1658053100564
 20
848.3749160104669
 30
0.0
 10
318.1734543906904
 20
848.3838891343449
 30
0.0
 10
318.1812327826698
 20
848.3930010751346
 30
0.0
  0
SPLINE
  5
1CA
330
173
100
AcDbEntity
  8
DV2_Standard
  6
Continuous
 62
     7
100
AcDbSpline
210
0.0
220
0.0
230
1.0
 70
     8
 71
     3
 72
     8
 73
     4
 74
     0
 42
0.0000001119692438
 43
0.0000000001
 40
0.0
 40
0.0
 40
0.0
 40
0.0
 40
0.9999999999999999
 40
0.9999999999999999
 40
0.9999999999999999
 40
0.9999999999999999
 10
318.2393995778665
 20
848.4658061126311
 30
0.0
 10
318.2584015396699
 20
848.4951671383958
 30
0.0
 10
318.2656687574173
 20
848.5210215246068
 30
0.0
 10
318.2412596089425
 20
848.5336456347862
 30
0.0
  0
ELLIPSE
  5
1CB
330
173
100
AcDbEntity
  8
DV2_Standard
  6
Continuous
 62
     7
100
AcDbEllipse
 10
318.4073709484
 20
848.2709384403
 30
0.0
 11
0.04398135285040018
 21
0.4980618843090091
 31
0.0
210
0.0
220
0.0
230
1.0
 40
0.9508351942
 41
0.3923921400248004
 42
1.038588667067194
  0
ELLIPSE
  5
1CC
330
173
100
AcDbEntity
  8
DV2_Standard
  6
Continuous
 62
     7
100
AcDbEllipse
 10
315.0858647969
 20
850.3630778343
 30
0.0
 11
0.4227938063177256
 21
0.2669183345883064
 31
0.0
210
0.0
220
0.0
230
1.0
 40
0.0323415309
 41
0.2723546065480653
 42
1.304801660299398
  0
ARC
  5
1CD
330
173
100
AcDbEntity
  8
DV2_Standard
  6
Continuous
 62
     7
100
AcDbCircle
 10
280.0711160495
 20
940.6178005432
 30
0.0
 40
99.99999999999993
100
AcDbArc
 50
345.9225169361
 51
347.1067182742
  0
ARC
  5
1CE
330
173
100
AcDbEntity
  8
DV2_Standard
  6
Continuous
 62
     7
100
AcDbCircle
 10
280.0711160495
 20
940.6178005432
 30
0.0
 40
100.0
100
AcDbArc
 50
292.2934949318
 51
293.4102407575
  0
ARC
  5
1CF
330
173
100
AcDbEntity
  8
DV2_Standard
  6
Continuous
 62
     7
100
AcDbCircle
 10
374.5611751506
 20
888.9678287107
 30
0.0
 40
72.24999999999999
100
AcDbArc
 50
209.9937432483
 51
210.2868318278
  0
ARC
  5
1D0
330
173
100
AcDbEntity
  8
DV2_Standard
  6
Continuous
 62
     7
100
AcDbCircle
 10
346.3606703254
 20
855.7544642127
 30
0.0
 40
72.25000000000003
100
AcDbArc
 50
65.9109343548
 51
69.3390144453
  0
ARC
  5
1D1
330
173
100
AcDbEntity
  8
DV2_Standard
  6
Continuous
 62
     7
100
AcDbCircle
 10
376.8738904924
 20
916.343063466
 30
0.0
 40
0.2000000000000138
100
AcDbArc
 50
319.6663788468
 51
345.9225169361
  0
ARC
  5
1D2
330
173
100
AcDbEntity
  8
DV2_Standard
  6
Continuous
 62
     7
100
AcDbCircle
 10
319.7228455762
 20
849.0329745864
 30
0.0
 40
0.1999999999999932
100
AcDbArc
 50
293.4102407575
 51
319.6663788468
  0
LINE
  5
1D3
330
173
100
AcDbEntity
  8
DV2_Standard
  6
Continuous
 62
     7
100
AcDbLine
 10
319.8753033087
 20
848.903527146
 30
0.0
 11
377.0263482249
 21
916.2136160257
 31
0.0
  0
ARC
  5
1D4
330
173
100
AcDbEntity
  8
DV2_Standard
  6
Continuous
 62
     7
100
AcDbCircle
 10
371.7826330578
 20
923.1705328524
 30
0.0
 40
0.2000000000000538
100
AcDbArc
 50
69.3390144453
 51
139.6663788468
  0
ARC
  5
1D5
330
173
100
AcDbEntity
  8
DV2_Standard
  6
Continuous
 62
     7
100
AcDbCircle
 10
312.1601112169
 20
852.9496427493
 30
0.0
 40
0.2000000000000952
100
AcDbArc
 50
139.6663788469
 51
209.9937432483
  0
SPLINE
  5
1D6
330
173
100
AcDbEntity
  8
DV2_Standard
  6
Continuous
 62
     7
100
AcDbSpline
210
0.0
220
0.0
230
1.0
 70
     8
 71
     3
 72
    15
 73
    11
 74
     0
 42
0.0000000009437187
 43
0.0000000001
 40
0.0
 40
0.0
 40
0.0
 40
0.0
 40
0.2037762485483501
 40
0.3255338477081316
 40
0.3981165927331468
 40
0.4454829463060025
 40
0.5060600486206465
 40
0.5980542156388864
 40
0.7495245770252039
 40
1.0
 40
1.0
 40
1.0
 40
1.0
 10
312.1372914187231
 20
851.9762604937368
 30
0.0
 10
311.9150993617143
 20
851.2253862809097
 30
0.0
 10
311.6543481273609
 20
850.2061003253897
 30
0.0
 10
311.6029071151929
 20
848.778954765532
 30
0.0
 10
311.8278182966139
 20
847.952773229532
 30
0.0
 10
312.1804891686609
 20
847.4190617664455
 30
0.0
 10
312.7606508231061
 20
846.997197845577
 30
0.0
 10
313.8269119866154
 20
846.7814123224042
 30
0.0
 10
315.5813082493747
 20
847.0246327384926
 30
0.0
 10
316.8058920006613
 20
847.4558611784794
 30
0.0
 10
317.6997217987926
 20
847.8129267400686
 30
0.0
  0
ARC
  5
1D7
330
173
100
AcDbEntity
  8
DV2_Standard
  6
Continuous
 62
     7
100
AcDbCircle
 10
374.6254904455
 20
918.9736262095
 30
0.0
 40
2.999999999999985
100
AcDbArc
 50
347.1067182742
 51
65.9109343548
  0
ARC
  5
1D8
330
173
100
AcDbEntity
  8
DV2_Standard
  6
Continuous
 62
     7
100
AcDbCircle
 10
363.8426544407
 20
909.235531817
 30
0.0
 40
4.432899076914849
100
AcDbArc
 50
1.9694272559
 51
10.5743999297
  0
ARC
  5
1D9
330
173
100
AcDbEntity
  8
DV2_Standard
  6
Continuous
 62
     7
100
AcDbCircle
 10
365.9431988233
 20
909.609434187
 30
0.0
 40
2.299481533080101
100
AcDbArc
 50
19.5030911457
 51
41.0613440163
  0
ARC
  5
1DA
330
173
100
AcDbEntity
  8
DV2_Standard
  6
Continuous
 62
     7
100
AcDbCircle
 10
365.9431988233
 20
909.609434187
 30
0.0
 40
2.299481533080101
100
AcDbArc
 50
11.0209854088
 51
14.0510634105
  0
LINE
  5
1DB
330
173
100
AcDbEntity
  8
DV2_Standard
  6
Continuous
 62
     7
100
AcDbLine
 10
371.5595880024
 20
899.9308200792
 30
0.0
 11
335.0560328912
 21
856.9384733503
 31
0.0
  0
LINE
  5
1DC
330
173
100
AcDbEntity
  8
DV2_Standard
  6
Continuous
 62
     7
100
AcDbLine
 10
357.1412851778
 20
877.4754727244
 30
0.0
 11
354.8759549717
 21
874.8074624065
 31
0.0
  0
LINE
  5
1DD
330
173
100
AcDbEntity
  8
DV2_Standard
  6
Continuous
 62
     7
100
AcDbLine
 10
376.9402224564
 20
915.7620073167
 30
0.0
 11
376.7674533441
 21
915.9087005608
 31
0.0
  0
LINE
  5
1DE
330
173
100
AcDbEntity
  8
DV2_Standard
  6
Continuous
 62
     7
100
AcDbLine
 10
320.1341981894
 20
849.2084426109
 30
0.0
 11
320.3069673017
 21
849.0617493668
 31
0.0
  0
ARC
  5
1DF
330
173
100
AcDbEntity
  8
DV2_Standard
  6
Continuous
 62
     7
100
AcDbCircle
 10
376.8107750161
 20
915.6095495842
 30
0.0
 40
0.1999999999999729
100
AcDbArc
 50
345.5390548643
 51
49.6663788468
  0
ARC
  5
1E0
330
173
100
AcDbEntity
  8
DV2_Standard
  6
Continuous
 62
     7
100
AcDbCircle
 10
320.436414742
 20
849.2142070993
 30
0.0
 40
0.1999999999999747
100
AcDbArc
 50
229.6663788469
 51
293.7937028294
  0
ARC
  5
1E1
330
173
100
AcDbEntity
  8
DV2_Standard
  6
Continuous
 62
     7
100
AcDbCircle
 10
280.172630286
 20
940.5316077483
 30
0.0
 40
100.0000000000221
100
AcDbArc
 50
336.0456986893
 51
345.5390548642
  0
ARC
  5
1E2
330
173
100
AcDbEntity
  8
DV2_Standard
  6
Continuous
 62
     7
100
AcDbCircle
 10
280.172630286
 20
940.5316077483
 30
0.0
 40
100.0000000000221
100
AcDbArc
 50
293.7937028294
 51
303.2870590044
  0
ARC
  5
1E3
330
173
100
AcDbEntity
  8
DV2_Standard
  6
Continuous
 62
     7
100
AcDbCircle
 10
280.172630286
 20
940.5316077483
 30
0.0
 40
99.50000000000001
100
AcDbArc
 50
320.6741455228
 51
335.0357978663
  0
ARC
  5
1E4
330
173
100
AcDbEntity
  8
DV2_Standard
  6
Continuous
 62
     7
100
AcDbCircle
 10
280.172630286
 20
940.5316077483
 30
0.0
 40
99.50000000000007
100
AcDbArc
 50
304.2969598273
 51
318.6586121708
  0
SPLINE
  5
1E5
330
173
100
AcDbEntity
  8
DV2_Standard
  6
Continuous
 62
     7
100
AcDbSpline
210
0.0
220
0.0
230
1.0
 70
     8
 71
     3
 72
    23
 73
    19
 74
     0
 42
0.0000000001471684
 43
0.0000000001
 40
0.0
 40
0.0
 40
0.0
 40
0.0
 40
0.054602830440105
 40
0.1176293084107647
 40
0.1806557863814244
 40
0.243682264352084
 40
0.3067087423227437
 40
0.3697352202934034
 40
0.432761698264063
 40
0.4957881762347227
 40
0.5588146542053825
 40
0.621841132176042
 40
0.6848676101467017
 40
0.7478940881173614
 40
0.810920566088021
 40
0.8739470440586807
 40
0.9369735220293404
 40
1.0
 40
1.0
 40
1.0
 40
1.0
 10
327.3806294217371
 20
871.642740342381
 30
0.0
 10
328.3653086748268
 20
872.8025640533906
 30
0.0
 10
330.5517269511147
 20
875.3778223370037
 30
0.0
 10
334.0792280791845
 20
879.5326342860761
 30
0.0
 10
337.8987463674246
 20
884.0313648241004
 30
0.0
 10
341.7809692848341
 20
888.6039267403905
 30
0.0
 10
345.6600014556169
 20
893.1727112421748
 30
0.0
 10
349.4700018469717
 20
897.6601735395669
 30
0.0
 10
353.146300827384
 20
901.9901484696826
 30
0.0
 10
356.6264992264736
 20
906.0891449229464
 30
0.0
 10
359.851524197003
 20
909.8875893928058
 30
0.0
 10
362.7666386753329
 20
913.3210148756565
 30
0.0
 10
365.3223599549208
 20
916.3311427279461
 30
0.0
 10
367.4753105208424
 20
918.8668847431637
 30
0.0
 10
369.1889458905103
 20
920.885200371927
 30
0.0
 10
370.4341811066939
 20
922.3518345790184
 30
0.0
 10
371.1898786546324
 20
923.2418924915746
 30
0.0
 10
371.3587683711827
 20
923.4408101683655
 30
0.0
 10
371.3587691288101
 20
923.4408110606672
 30
0.0
  0
SPLINE
  5
1E6
330
173
100
AcDbEntity
  8
DV2_Standard
  6
Continuous
 62
     7
100
AcDbSpline
210
0.0
220
0.0
230
1.0
 70
     8
 71
     3
 72
    22
 73
    18
 74
     0
 42
0.0000000002534133
 43
0.0000000001
 40
0.0
 40
0.0
 40
0.0
 40
0.0
 40
0.0041220780780633
 40
0.0124152037498562
 40
0.024757704731745
 40
0.0409258203870049
 40
0.0606695379082076
 40
0.0837222390836612
 40
0.1217340403569546
 40
0.1699236530205094
 40
0.2552362640042304
 40
0.35928846080164
 40
0.4421572168236574
 40
0.5450878535750322
 40
0.6660434321956642
 40
0.8030237795215983
 40
1.0
 40
1.0
 40
1.0
 40
1.0
 10
322.8237256528943
 20
866.2757906364407
 30
0.0
 10
322.7801977222225
 20
866.2397022199494
 30
0.0
 10
322.649097627717
 20
866.1310091835079
 30
0.0
 10
322.3981714559797
 20
865.9694832801151
 30
0.0
 10
322.0207338854933
 20
865.7332222070494
 30
0.0
 10
321.5232901684569
 20
865.446392647964
 30
0.0
 10
320.909049675335
 20
865.107506107823
 30
0.0
 10
320.0619220714285
 20
864.6565921812959
 30
0.0
 10
318.8999448674296
 20
864.0688965893085
 30
0.0
 10
317.0229575741046
 20
863.2053931996004
 30
0.0
 10
314.33724558287
 20
862.0855725225841
 30
0.0
 10
311.1560071918136
 20
860.8239641789866
 30
0.0
 10
307.7314161819275
 20
859.3619919509944
 30
0.0
 10
304.1138476627956
 20
857.5900150101643
 30
0.0
 10
300.0286110179024
 20
854.9345321815484
 30
0.0
 10
295.5158992852115
 20
850.5042931907905
 30
0.0
 10
292.8623769663982
 20
846.5219675043506
 30
0.0
 10
291.5264332138006
 20
844.0369107853107
 30
0.0
  0
LINE
  5
1E7
330
173
100
AcDbEntity
  8
DV2_Standard
  6
Continuous
 62
     7
100
AcDbLine
 10
326.9270676308
 20
871.1085369399
 30
0.0
 11
322.8237256529
 21
866.2757906364
 31
0.0
  0
LINE
  5
1E8
330
173
100
AcDbEntity
  8
DV2_Standard
  6
Continuous
 62
     7
100
AcDbLine
 10
327.3806396685
 20
871.6427316607
 30
0.0
 11
326.9270692511
 21
871.1085355641
 31
0.0
  0
LINE
  5
1E9
330
173
100
AcDbEntity
  8
DV2_Standard
  6
Continuous
 62
     7
100
AcDbLine
 10
311.8229724495
 20
853.3195677569
 30
0.0
 11
322.8237256562
 21
866.275790639
 31
0.0
  0
SPLINE
  5
1EA
330
173
100
AcDbEntity
  8
DV2_Standard
  6
Continuous
 62
     7
100
AcDbSpline
210
0.0
220
0.0
230
1.0
 70
     8
 71
     3
 72
    19
 73
    15
 74
     0
 42
0.0000000001354955
 43
0.0000000001
 40
0.0
 40
0.0
 40
0.0
 40
0.0
 40
0.0228913256622951
 40
0.0909439379723424
 40
0.1639056568808828
 40
0.242009303711286
 40
0.3256339204502487
 40
0.4152547569892331
 40
0.5028101356493438
 40
0.595507672259714
 40
0.6932574716010467
 40
0.7959207746414646
 40
0.9033055453833383
 40
0.9999999999999999
 40
0.9999999999999999
 40
0.9999999999999999
 40
0.9999999999999999
 10
266.7318295738148
 20
788.4260469812028
 30
0.0
 10
266.6932560903826
 20
787.8642212715226
 30
0.0
 10
266.5440036390455
 20
785.6318941337761
 30
0.0
 10
266.3027939160241
 20
781.6068331924494
 30
0.0
 10
266.0320864108302
 20
776.2230699092135
 30
0.0
 10
265.7924286572213
 20
770.4544180252745
 30
0.0
 10
265.5859493591179
 20
764.2743617308265
 30
0.0
 10
265.4201001352268
 20
757.8606984684063
 30
0.0
 10
265.2914415891829
 20
751.2221528964682
 30
0.0
 10
265.1975270058675
 20
744.3861957551783
 30
0.0
 10
265.1365690421823
 20
737.1654145163866
 30
0.0
 10
265.1150940052626
 20
729.6344203465391
 30
0.0
 10
265.1363954135848
 20
721.9319828865871
 30
0.0
 10
265.1992523793961
 20
717.2730564909003
 30
0.0
 10
265.2355779137957
 20
714.6566672664163
 30
0.0
  0
SPLINE
  5
1EB
330
173
100
AcDbEntity
  8
DV2_Standard
  6
Continuous
 62
     7
100
AcDbSpline
210
0.0
220
0.0
230
1.0
 70
     8
 71
     3
 72
    36
 73
    32
 74
     0
 42
0.0000000001034235
 43
0.0000000001
 40
0.0
 40
0.0
 40
0.0
 40
0.0
 40
0.0267622700954595
 40
0.0493948129716475
 40
0.0678974797427025
 40
0.0831135295427927
 40
0.0980339223936079
 40
0.1129218191340086
 40
0.127777309030362
 40
0.168718569041154
 40
0.2120136273121323
 40
0.2538973243389501
 40
0.2981843328161314
 40
0.3443733386232133
 40
0.3899535555561472
 40
0.434579326349839
 40
0.4619895916865057
 40
0.489027154669694
 40
0.5156923245540425
 40
0.5419844437852847
 40
0.5679037251644171
 40
0.595021953734483
 40
0.6251616622406364
 40
0.6583251419761376
 40
0.6999271105263135
 40
0.7454780138266314
 40
0.7949789640907089
 40
0.848429811969132
 40
0.9058308165286091
 40
0.9671821369878595
 40
1.0
 40
1.0
 40
1.0
 40
1.0
 10
371.3587691288148
 20
923.4408110606734
 30
0.0
 10
370.4700333386672
 20
923.7743732092114
 30
0.0
 10
369.0896486592271
 20
924.2882658109559
 30
0.0
 10
366.9655246357116
 20
924.969569407335
 30
0.0
 10
365.2270827418591
 20
925.4704819269931
 30
0.0
 10
363.7076945507023
 20
925.8667396954241
 30
0.0
 10
362.2951628107041
 20
926.2010882413759
 30
0.0
 10
360.8863261561804
 20
926.5012755816978
 30
0.0
 10
358.6468563425495
 20
926.9259542831356
 30
0.0
 10
355.4827892518497
 20
927.3880469149636
 30
0.0
 10
351.4257641543039
 20
927.7121210183668
 30
0.0
 10
347.248174396956
 20
927.7621350457499
 30
0.0
 10
342.9835906263831
 20
927.5120485732605
 30
0.0
 10
338.6316068654543
 20
926.9215007968943
 30
0.0
 10
334.3295397428672
 20
925.9852454761449
 30
0.0
 10
330.6954542272538
 20
924.8854526008755
 30
0.0
 10
327.7018905222931
 20
923.7665459056248
 30
0.0
 10
325.2979174672557
 20
922.7333948951217
 30
0.0
 10
322.9775747922351
 20
921.6044118080611
 30
0.0
 10
320.7432101574911
 20
920.3873850460277
 30
0.0
 10
318.5525436541584
 20
919.0649856707562
 30
0.0
 10
316.3189030211502
 20
917.5785995263398
 30
0.0
 10
313.9676653569605
 20
915.8524521099198
 30
0.0
 10
311.3411364869153
 20
913.7184502891461
 30
0.0
 10
308.4679520127942
 20
911.1079871439917
 30
0.0
 10
305.3878303579384
 20
907.9525276533861
 30
0.0
 10
302.2533316085448
 20
904.3307012498558
 30
0.0
 10
299.099546034923
 20
900.2210936361213
 30
0.0
 10
295.9858511629658
 20
895.6536448088084
 30
0.0
 10
293.3980049967117
 20
891.3940621659298
 30
0.0
 10
292.0051732184624
 20
888.8680255948549
 30
0.0
 10
291.5120826819909
 20
887.9533968392412
 30
0.0
  0
ARC
  5
1EC
330
173
100
AcDbEntity
  8
DV2_Standard
  6
Continuous
 62
     7
100
AcDbCircle
 10
1037.5288838885
 20
738.9349325833
 30
0.0
 40
744.6994006797485
100
AcDbArc
 50
174.6051487623
 51
181.8778241644
  0
SPLINE
  5
1ED
330
173
100
AcDbEntity
  8
DV2_Standard
  6
Continuous
 62
     7
100
AcDbSpline
210
0.0
220
0.0
230
1.0
 70
     8
 71
     3
 72
    22
 73
    18
 74
     0
 42
0.000000000207999
 43
0.0000000001
 40
0.0
 40
0.0
 40
0.0
 40
0.0
 40
0.0982496812356136
 40
0.1892733347949282
 40
0.2726163199920477
 40
0.3480694788948523
 40
0.4156223197347049
 40
0.4744198711076834
 40
0.5259833956253098
 40
0.5706344009588047
 40
0.6104028308406421
 40
0.6729441877299353
 40
0.7377730474713259
 40
0.802779637155393
 40
0.8671908749449448
 40
0.9368467694309217
 40
1.0
 40
1.0
 40
1.0
 40
1.0
 10
296.1282038344892
 20
808.9507115425752
 30
0.0
 10
296.3254077960621
 20
810.6708955566996
 30
0.0
 10
296.648439538706
 20
813.4594811563315
 30
0.0
 10
297.2096130402999
 20
817.8753136369335
 30
0.0
 10
297.7687429796811
 20
821.8187620235738
 30
0.0
 10
298.3639061431419
 20
825.4009871256018
 30
0.0
 10
298.9959296171529
 20
828.5713317228204
 30
0.0
 10
299.6594316506938
 20
831.3443765812596
 30
0.0
 10
300.3358543144786
 20
833.7345968934976
 30
0.0
 10
301.0156818713963
 20
835.8050598113269
 30
0.0
 10
301.8400388172233
 20
838.0109825520851
 30
0.0
 10
302.9092543765435
 20
840.4685619263137
 30
0.0
 10
304.3353121779806
 20
843.2026031058097
 30
0.0
 10
305.973967577696
 20
845.8563780757659
 30
0.0
 10
307.813205805737
 20
848.4437664275381
 30
0.0
 10
309.8259970986236
 20
850.9649977977772
 30
0.0
 10
311.1008628651916
 20
852.4726904746427
 30
0.0
 10
311.8229730228763
 20
853.3195684322006
 30
0.0
  0
LINE
  5
1EE
330
173
100
AcDbEntity
  8
DV2_Standard
  6
Continuous
 62
     7
100
AcDbLine
 10
266.2259994954
 20
713.6379108355
 30
0.0
 11
266.7371891513
 21
713.634934253
 31
0.0
  0
LINE
  5
1EF
330
173
100
AcDbEntity
  8
DV2_Standard
  6
Continuous
 62
     7
100
AcDbLine
 10
291.5371891513
 20
713.4905274891
 30
0.0
 11
292.2202222742
 21
713.4865502874
 31
0.0
  0
ARC
  5
1F0
330
173
100
AcDbEntity
  8
DV2_Standard
  6
Continuous
 62
     7
100
AcDbCircle
 10
292.2341747048
 20
714.4766913589
 30
0.0
 40
0.9874118269306094
100
AcDbArc
 50
269.1719033909
 51
3.2196229871
  0
ARC
  5
1F1
330
173
100
AcDbEntity
  8
DV2_Standard
  6
Continuous
 62
     7
100
AcDbCircle
 10
266.2130836117
 20
714.6183640574
 30
0.0
 40
0.9731250436087908
100
AcDbArc
 50
177.7833971216
 51
270.758677524
  0
LINE
  5
1F2
330
173
100
AcDbEntity
  8
DV2_Standard
  6
Continuous
 62
     7
100
AcDbLine
 10
291.3087430198
 20
335.630186094
 30
0.0
 11
266.9656352827
 21
335.630186094
 31
0.0
  0
ARC
  5
1F3
330
173
100
AcDbEntity
  8
DV2_Standard
  6
Continuous
 62
     7
100
AcDbCircle
 10
279.1371891513
 20
357.4671564979
 30
0.0
 40
24.99999999999993
100
AcDbArc
 50
240.8654520802
 51
270.0
  0
ARC
  5
1F4
330
173
100
AcDbEntity
  8
DV2_Standard
  6
Continuous
 62
     7
100
AcDbCircle
 10
279.1371891513
 20
357.4671564979
 30
0.0
 40
25.00000000000002
100
AcDbArc
 50
270.0
 51
299.1345479198
  0
LINE
  5
1F5
330
173
100
AcDbEntity
  8
DV2_Standard
  6
Continuous
 62
     7
100
AcDbLine
 10
266.8871891513
 20
338.6259229906
 30
0.0
 11
266.9656352827
 21
335.630186094
 31
0.0
  0
LINE
  5
1F6
330
173
100
AcDbEntity
  8
DV2_Standard
  6
Continuous
 62
     7
100
AcDbLine
 10
291.3087430198
 20
335.630186094
 30
0.0
 11
291.3871891513
 21
338.6259229906
 31
0.0
  0
LINE
  5
1F7
330
173
100
AcDbEntity
  8
DV2_Standard
  6
Continuous
 62
     7
100
AcDbLine
 10
266.9656352827
 20
1041.6216598873
 30
0.0
 11
291.3087430198
 21
1041.6216598873
 31
0.0
  0
ARC
  5
1F8
330
173
100
AcDbEntity
  8
DV2_Standard
  6
Continuous
 62
     7
100
AcDbCircle
 10
279.1371891513
 20
1019.7846894833
 30
0.0
 40
24.99999999999998
100
AcDbArc
 50
60.8654520802
 51
119.1345479198
  0
LINE
  5
1F9
330
173
100
AcDbEntity
  8
DV2_Standard
  6
Continuous
 62
     7
100
AcDbLine
 10
291.3871891513
 20
1038.6259229906
 30
0.0
 11
291.3087430198
 21
1041.6216598873
 31
0.0
  0
LINE
  5
1FA
330
173
100
AcDbEntity
  8
DV2_Standard
  6
Continuous
 62
     7
100
AcDbLine
 10
266.9656352827
 20
1041.6216598873
 30
0.0
 11
266.8871891513
 21
1038.6259229906
 31
0.0
  0
LINE
  5
1FB
330
173
100
AcDbEntity
  8
DV2_Standard
  6
Continuous
 62
     7
100
AcDbLine
 10
294.6371891513
 20
705.6259229906
 30
0.0
 11
291.5371891513
 21
705.6259229906
 31
0.0
  0
LINE
  5
1FC
330
173
100
AcDbEntity
  8
DV2_Standard
  6
Continuous
 62
     7
100
AcDbLine
 10
266.7371891513
 20
705.6259229906
 30
0.0
 11
263.6371891513
 21
705.6259229906
 31
0.0
  0
LINE
  5
1FD
330
173
100
AcDbEntity
  8
DV2_Standard
  6
Continuous
 62
     7
100
AcDbLine
 10
294.6371891513
 20
671.6259229906
 30
0.0
 11
291.5371891513
 21
671.6259229906
 31
0.0
  0
LINE
  5
1FE
330
173
100
AcDbEntity
  8
DV2_Standard
  6
Continuous
 62
     7
100
AcDbLine
 10
266.7371891513
 20
671.6259229906
 30
0.0
 11
263.6371891513
 21
671.6259229906
 31
0.0
  0
LINE
  5
1FF
330
173
100
AcDbEntity
  8
DV2_Standard
  6
Continuous
 62
     7
100
AcDbLine
 10
294.6371891513
 20
671.6259229906
 30
0.0
 11
294.6371891513
 21
679.4744203818
 31
0.0
  0
LINE
  5
200
330
173
100
AcDbEntity
  8
DV2_Standard
  6
Continuous
 62
     7
100
AcDbLine
 10
294.6371891513
 20
697.7774255995
 30
0.0
 11
294.6371891513
 21
705.6259229906
 31
0.0
  0
LINE
  5
201
330
173
100
AcDbEntity
  8
DV2_Standard
  6
Continuous
 62
     7
100
AcDbLine
 10
263.6371891513
 20
705.6259229906
 30
0.0
 11
263.6371891513
 21
697.7774255995
 31
0.0
  0
LINE
  5
202
330
173
100
AcDbEntity
  8
DV2_Standard
  6
Continuous
 62
     7
100
AcDbLine
 10
263.6371891513
 20
679.4744203818
 30
0.0
 11
263.6371891513
 21
671.6259229906
 31
0.0
  0
LINE
  5
203
330
173
100
AcDbEntity
  8
DV2_Standard
  6
Continuous
 62
     7
100
AcDbLine
 10
266.7371891513
 20
1038.6259229906
 30
0.0
 11
291.5371891513
 21
1038.6259229906
 31
0.0
  0
LINE
  5
204
330
173
100
AcDbEntity
  8
DV2_Standard
  6
Continuous
 62
     7
100
AcDbLine
 10
266.7371891513
 20
338.6259229906
 30
0.0
 11
291.5371891513
 21
338.6259229906
 31
0.0
  0
LINE
  5
205
330
173
100
AcDbEntity
  8
DV2_Standard
  6
Continuous
 62
     7
100
AcDbLine
 10
291.5371891513
 20
338.6259229906
 30
0.0
 11
291.5371891513
 21
368.6259229906
 31
0.0
  0
LINE
  5
206
330
173
100
AcDbEntity
  8
DV2_Standard
  6
Continuous
 62
     7
100
AcDbLine
 10
291.5371891513
 20
416.6259229906
 30
0.0
 11
291.5371891513
 21
675.5783178464
 31
0.0
  0
LINE
  5
207
330
173
100
AcDbEntity
  8
DV2_Standard
  6
Continuous
 62
     7
100
AcDbLine
 10
291.5371891513
 20
701.6735281349
 30
0.0
 11
291.5371891513
 21
967.1009229906
 31
0.0
  0
LINE
  5
208
330
173
100
AcDbEntity
  8
DV2_Standard
  6
Continuous
 62
     7
100
AcDbLine
 10
291.5371891513
 20
1015.1009229906
 30
0.0
 11
291.5371891513
 21
1038.6259229906
 31
0.0
  0
LINE
  5
209
330
173
100
AcDbEntity
  8
DV2_Standard
  6
Continuous
 62
     7
100
AcDbLine
 10
266.7371891513
 20
1038.6259229906
 30
0.0
 11
266.7371891513
 21
1015.1009229906
 31
0.0
  0
LINE
  5
20A
330
173
100
AcDbEntity
  8
DV2_Standard
  6
Continuous
 62
     7
100
AcDbLine
 10
266.7371891513
 20
967.1009229906
 30
0.0
 11
266.7371891513
 21
701.6735281349
 31
0.0
  0
LINE
  5
20B
330
173
100
AcDbEntity
  8
DV2_Standard
  6
Continuous
 62
     7
100
AcDbLine
 10
266.7371891513
 20
675.5783178464
 30
0.0
 11
266.7371891513
 21
416.6259229906
 31
0.0
  0
LINE
  5
20C
330
173
100
AcDbEntity
  8
DV2_Standard
  6
Continuous
 62
     7
100
AcDbLine
 10
266.7371891513
 20
368.6259229906
 30
0.0
 11
266.7371891513
 21
338.6259229906
 31
0.0
  0
ENDBLK
  5
20E
330
173
100
AcDbEntity
  8
0
100
AcDbBlockEnd
  0
BLOCK
  5
286
330
20F
100
AcDbEntity
  8
0
100
AcDbBlockBegin
  2
SE2
 70
     0
 10
0.0
 20
0.0
 30
0.0
  3
SE2
  1

  0
LINE
  5
212
330
20F
100
AcDbEntity
  8
DV3_Standard
  6
Continuous
 62
     7
100
AcDbLine
 10
60.5
 20
244.79087143
 30
0.0
 11
60.5
 21
269.79087143
 31
0.0
  0
LINE
  5
213
330
20F
100
AcDbEntity
  8
DV3_Standard
  6
Continuous
 62
     7
100
AcDbLine
 10
60.5
 20
269.79087143
 30
0.0
 11
39.5
 21
269.79087143
 31
0.0
  0
LINE
  5
214
330
20F
100
AcDbEntity
  8
DV3_Standard
  6
Continuous
 62
     7
100
AcDbLine
 10
39.5
 20
269.79087143
 30
0.0
 11
39.5
 21
219.2822481762
 31
0.0
  0
ARC
  5
215
330
20F
100
AcDbEntity
  8
DV3_Standard
  6
Continuous
 62
     7
100
AcDbCircle
 10
31.5
 20
219.2822481762
 30
0.0
 40
7.999999999999998
100
AcDbArc
 50
321.9277745864
 51
0.0
  0
ARC
  5
216
330
20F
100
AcDbEntity
  8
DV3_Standard
  6
Continuous
 62
     7
100
AcDbCircle
 10
50.0
 20
204.79087143
 30
0.0
 40
15.50000000000001
100
AcDbArc
 50
141.9277745864
 51
38.0722254136
  0
ARC
  5
217
330
20F
100
AcDbEntity
  8
DV3_Standard
  6
Continuous
 62
     7
100
AcDbCircle
 10
68.5
 20
219.2822481762
 30
0.0
 40
8.000000000000034
100
AcDbArc
 50
180.0
 51
218.0722254136
  0
LINE
  5
218
330
20F
100
AcDbEntity
  8
DV3_Standard
  6
Continuous
 62
     7
100
AcDbLine
 10
60.5
 20
219.2822481762
 30
0.0
 11
60.5
 21
227.79087143
 31
0.0
  0
LINE
  5
219
330
20F
100
AcDbEntity
  8
DV3_Standard
  6
Continuous
 62
     7
100
AcDbLine
 10
60.5
 20
227.79087143
 30
0.0
 11
51.0
 21
227.79087143
 31
0.0
  0
ARC
  5
21A
330
20F
100
AcDbEntity
  8
DV3_Standard
  6
Continuous
 62
     7
100
AcDbCircle
 10
51.0
 20
236.29087143
 30
0.0
 40
8.5
100
AcDbArc
 50
90.0
 51
270.0
  0
LINE
  5
21B
330
20F
100
AcDbEntity
  8
DV3_Standard
  6
Continuous
 62
     7
100
AcDbLine
 10
51.0
 20
244.79087143
 30
0.0
 11
60.5
 21
244.79087143
 31
0.0
  0
LINE
  5
21C
330
20F
100
AcDbEntity
  8
DV3_Standard
  6
Continuous
 62
     7
100
AcDbLine
 10
6.35
 20
191.29087143
 30
0.0
 11
6.35
 21
218.29087143
 31
0.0
  0
CIRCLE
  5
21D
330
20F
100
AcDbEntity
  8
DV3_Standard
  6
Continuous
 62
     7
100
AcDbCircle
 10
12.55
 20
204.79087143
 30
0.0
 40
4.0
  0
LINE
  5
21E
330
20F
100
AcDbEntity
  8
DV3_Standard
  6
Continuous
 62
     7
100
AcDbLine
 10
32.75
 20
186.79087143
 30
0.0
 11
32.75
 21
222.79087143
 31
0.0
  0
LINE
  5
21F
330
20F
100
AcDbEntity
  8
DV3_Standard
  6
Continuous
 62
     7
100
AcDbLine
 10
25.25
 20
186.79087143
 30
0.0
 11
25.25
 21
222.79087143
 31
0.0
  0
LINE
  5
220
330
20F
100
AcDbEntity
  8
DV3_Standard
  6
Continuous
 62
     7
100
AcDbLine
 10
6.35
 20
191.29087143
 30
0.0
 11
25.25
 21
191.29087143
 31
0.0
  0
LINE
  5
221
330
20F
100
AcDbEntity
  8
DV3_Standard
  6
Continuous
 62
     7
100
AcDbLine
 10
25.25
 20
218.29087143
 30
0.0
 11
6.35
 21
218.29087143
 31
0.0
  0
LINE
  5
222
330
20F
100
AcDbEntity
  8
DV3_Standard
  6
Continuous
 62
     7
100
AcDbLine
 10
25.25
 20
186.79087143
 30
0.0
 11
32.75
 21
186.79087143
 31
0.0
  0
LINE
  5
223
330
20F
100
AcDbEntity
  8
DV3_Standard
  6
Continuous
 62
     7
100
AcDbLine
 10
32.75
 20
222.79087143
 30
0.0
 11
25.25
 21
222.79087143
 31
0.0
  0
ELLIPSE
  5
224
330
20F
100
AcDbEntity
  8
DV3_Standard
  6
Continuous
 62
     7
100
AcDbEllipse
 10
103.4
 20
138.8737958799
 30
0.0
 11
47.58022932183261
 21
1.110223024625156E-13
 31
0.0
210
0.0
220
0.0
230
1.0
 40
0.6472372018
 41
2.891590150670115
 42
3.38086295209698
  0
SPLINE
  5
225
330
20F
100
AcDbEntity
  8
DV3_Standard
  6
Continuous
 62
     7
100
AcDbSpline
210
0.0
220
0.0
230
1.0
 70
     8
 71
     3
 72
    26
 73
    22
 74
     0
 42
0.0000000004658655
 43
0.0000000001
 40
0.0
 40
0.0
 40
0.0
 40
0.0
 40
0.0312500000000003
 40
0.0312500000000003
 40
0.0625000000000006
 40
0.0625000000000006
 40
0.1250000000000008
 40
0.1250000000000008
 40
0.2500000000000013
 40
0.2500000000000013
 40
0.5000000000000013
 40
0.5000000000000013
 40
0.7500000000000013
 40
0.7500000000000013
 40
0.8750000000000013
 40
0.8750000000000013
 40
0.9375000000000003
 40
0.9375000000000003
 40
0.9687500000000002
 40
0.9687500000000002
 40
1.0
 40
1.0
 40
1.0
 40
1.0
 10
136.2452199560496
 20
116.7157846072838
 30
0.0
 10
136.1695388223334
 20
116.9740851129993
 30
0.0
 10
136.1822204986055
 20
117.2844016957383
 30
0.0
 10
136.3242876384639
 20
117.8803459388574
 30
0.0
 10
136.4443007865714
 20
118.1675199649719
 30
0.0
 10
136.8547952222726
 20
118.969295374564
 30
0.0
 10
137.1892156282248
 20
119.4493267784106
 30
0.0
 10
138.2124757520368
 20
120.8057357560067
 30
0.0
 10
138.9216859389458
 20
121.6088433252972
 30
0.0
 10
141.0062664850109
 20
123.940575223149
 30
0.0
 10
142.3396882776653
 20
125.3706556285529
 30
0.0
 10
144.7658982539466
 20
128.089028335766
 30
0.0
 10
145.8584310666165
 20
129.3766636963725
 30
0.0
 10
147.3250628556175
 20
131.0242548479911
 30
0.0
 10
147.7857143289856
 20
131.5323914507906
 30
0.0
 10
148.4707543198074
 20
132.092920954291
 30
0.0
 10
148.7012489078105
 20
132.2467128161975
 30
0.0
 10
149.0521651132675
 20
132.2938441558813
 30
0.0
 10
149.1697924222842
 20
132.273286066419
 30
0.0
 10
149.39890654205
 20
132.0912989864699
 30
0.0
 10
149.5076621817007
 20
131.919666991267
 30
0.0
 10
149.5877776505912
 20
131.6649132358699
 30
0.0
  0
ELLIPSE
  5
226
330
20F
100
AcDbEntity
  8
DV3_Standard
  6
Continuous
 62
     7
100
AcDbEllipse
 10
103.4
 20
138.8737958799
 30
0.0
 11
-47.58022932183277
 21
-8.326672684688674E-14
 31
0.0
210
0.0
220
0.0
230
1.0
 40
0.6472372018
 41
2.901829078672244
 42
3.391777108520022
  0
SPLINE
  5
227
330
20F
100
AcDbEntity
  8
DV3_Standard
  6
Continuous
 62
     7
100
AcDbSpline
210
0.0
220
0.0
230
1.0
 70
     8
 71
     3
 72
    26
 73
    22
 74
     0
 42
0.0000000004659722
 43
0.0000000001
 40
0.0
 40
0.0
 40
0.0
 40
0.0
 40
0.0312500000000008
 40
0.0312500000000008
 40
0.0625000000000016
 40
0.0625000000000016
 40
0.1250000000000018
 40
0.1250000000000018
 40
0.2500000000000021
 40
0.2500000000000021
 40
0.5000000000000013
 40
0.5000000000000013
 40
0.7500000000000007
 40
0.7500000000000007
 40
0.8750000000000006
 40
0.8750000000000006
 40
0.9375000000000003
 40
0.9375000000000003
 40
0.9687500000000002
 40
0.9687500000000002
 40
1.0
 40
1.0
 40
1.0
 40
1.0
 10
57.20665863770302
 20
131.6796656495054
 30
0.0
 10
57.28645044479778
 20
131.9333578942107
 30
0.0
 10
57.3960855901756
 20
132.1065514831644
 30
0.0
 10
57.62409654957851
 20
132.2876205176204
 30
0.0
 10
57.74198138631677
 20
132.308099550704
 30
0.0
 10
58.08717715630512
 20
132.2627101796841
 30
0.0
 10
58.3143055005193
 20
132.1132186386038
 30
0.0
 10
58.99777248403333
 20
131.556305087263
 30
0.0
 10
59.45902629231045
 20
131.047266665736
 30
0.0
 10
60.93137684057416
 20
129.3915090771622
 30
0.0
 10
62.02378740321994
 20
128.1021156563787
 30
0.0
 10
64.44794854145516
 20
125.3829908941521
 30
0.0
 10
65.7798108281229
 20
123.9527636610869
 30
0.0
 10
67.85148487500709
 20
121.6337451297584
 30
0.0
 10
68.5577006845095
 20
120.8337678278727
 30
0.0
 10
69.5822287141577
 20
119.4777900032395
 30
0.0
 10
69.9220264876636
 20
118.9922569146767
 30
0.0
 10
70.33924886147501
 20
118.1782682529548
 30
0.0
 10
70.45875533389578
 20
117.8918718789486
 30
0.0
 10
70.60119269275086
 20
117.293357861768
 30
0.0
 10
70.61380835982703
 20
116.9856628401257
 30
0.0
 10
70.5378166980346
 20
116.7262861001917
 30
0.0
  0
ARC
  5
228
330
20F
100
AcDbEntity
  8
DV3_Standard
  6
Continuous
 62
     7
100
AcDbCircle
 10
68.2066044812
 20
117.4092643504
 30
0.0
 40
2.42919939288077
100
AcDbArc
 50
341.125532622
 51
343.6709304228
  0
ELLIPSE
  5
229
330
20F
100
AcDbEntity
  8
DV3_Standard
  6
Continuous
 62
     7
100
AcDbEllipse
 10
103.4
 20
138.8737958799
 30
0.0
 11
47.58022932183246
 21
0.0
 31
0.0
210
0.0
220
0.0
230
1.0
 40
0.6472372018
 41
3.94902662986884
 42
5.475258054490183
  0
ARC
  5
22A
330
20F
100
AcDbEntity
  8
DV3_Standard
  6
Continuous
 62
     7
100
AcDbCircle
 10
138.5759634971
 20
117.3986685321
 30
0.0
 40
2.428723102559315
100
AcDbArc
 50
196.3300426872
 51
198.8759078254
  0
ELLIPSE
  5
22B
330
20F
100
AcDbEntity
  8
DV3_Standard
  6
Continuous
 62
     7
100
AcDbEllipse
 10
103.4
 20
142.0080126649
 30
0.0
 11
-46.2475775766406
 21
0.0
 31
0.0
210
0.0
220
0.0
230
1.0
 40
0.6472372018
 41
5.87283908025948
 42
6.283185307179586
  0
ELLIPSE
  5
22C
330
20F
100
AcDbEntity
  8
DV3_Standard
  6
Continuous
 62
     7
100
AcDbEllipse
 10
103.4
 20
142.0080126649
 30
0.0
 11
-46.2475775766406
 21
0.0
 31
0.0
210
0.0
220
0.0
230
1.0
 40
0.6472372018
 41
2.950445324232711
 42
3.538371720005007
  0
ELLIPSE
  5
22D
330
20F
100
AcDbEntity
  8
DV3_Standard
  6
Continuous
 62
     7
100
AcDbEllipse
 10
103.4
 20
142.0080126649
 30
0.0
 11
-46.2475775766406
 21
0.0
 31
0.0
210
0.0
220
0.0
230
1.0
 40
0.6472372018
 41
0.1883013256465325
 42
2.950445324232711
  0
ELLIPSE
  5
22E
330
20F
100
AcDbEntity
  8
DV3_Standard
  6
Continuous
 62
     7
100
AcDbEllipse
 10
103.4
 20
142.0080126649
 30
0.0
 11
-46.2475775766406
 21
0.0
 31
0.0
210
0.0
220
0.0
230
1.0
 40
0.6472372018
 41
0.0
 42
0.1883013256465325
  0
ELLIPSE
  5
22F
330
20F
100
AcDbEntity
  8
DV3_Standard
  6
Continuous
 62
     7
100
AcDbEllipse
 10
103.4
 20
142.1091461764
 30
0.0
 11
46.05925128988911
 21
0.0
 31
0.0
210
0.0
220
0.0
230
1.0
 40
0.6472372018
 41
0.0
 42
0.2822341408703893
  0
ELLIPSE
  5
230
330
20F
100
AcDbEntity
  8
DV3_Standard
  6
Continuous
 62
     7
100
AcDbEllipse
 10
103.4
 20
142.1091461764
 30
0.0
 11
46.05925128988911
 21
0.0
 31
0.0
210
0.0
220
0.0
230
1.0
 40
0.6472372018
 41
2.75638856866647
 42
2.982692606372614
  0
ELLIPSE
  5
231
330
20F
100
AcDbEntity
  8
DV3_Standard
  6
Continuous
 62
     7
100
AcDbEllipse
 10
103.4
 20
142.1091461764
 30
0.0
 11
46.05925128988911
 21
0.0
 31
0.0
210
0.0
220
0.0
230
1.0
 40
0.6472372018
 41
3.141592653589793
 42
3.992790851032594
  0
ELLIPSE
  5
232
330
20F
100
AcDbEntity
  8
DV3_Standard
  6
Continuous
 62
     7
100
AcDbEllipse
 10
103.4
 20
142.1091461764
 30
0.0
 11
46.05925128988911
 21
0.0
 31
0.0
210
0.0
220
0.0
230
1.0
 40
0.6472372018
 41
3.992790851032594
 42
5.309738662277391
  0
ELLIPSE
  5
233
330
20F
100
AcDbEntity
  8
DV3_Standard
  6
Continuous
 62
     7
100
AcDbEllipse
 10
103.4
 20
142.1091461764
 30
0.0
 11
46.05925128988911
 21
0.0
 31
0.0
210
0.0
220
0.0
230
1.0
 40
0.6472372018
 41
5.309738662277391
 42
6.283185307179586
  0
SPLINE
  5
234
330
20F
100
AcDbEntity
  8
DV3_Standard
  6
Continuous
 62
     7
100
AcDbSpline
210
0.0
220
0.0
230
1.0
 70
     8
 71
     3
 72
     8
 73
     4
 74
     0
 42
0.0000001224759407
 43
0.0000000001
 40
0.0
 40
0.0
 40
0.0
 40
0.0
 40
1.0
 40
1.0
 40
1.0
 40
1.0
 10
57.01697088310087
 20
131.3935875228627
 30
0.0
 10
57.00807816951849
 20
131.3680426549627
 30
0.0
 10
56.99957713807525
 20
131.3421806881339
 30
0.0
 10
56.99148720491917
 20
131.3160263967177
 30
0.0
  0
SPLINE
  5
235
330
20F
100
AcDbEntity
  8
DV3_Standard
  6
Continuous
 62
     7
100
AcDbSpline
210
0.0
220
0.0
230
1.0
 70
     8
 71
     3
 72
     8
 73
     4
 74
     0
 42
0.0000000724029287
 43
0.0000000001
 40
0.0
 40
0.0
 40
0.0
 40
0.0
 40
1.0
 40
1.0
 40
1.0
 40
1.0
 10
69.04469073476939
 20
115.7028203950517
 30
0.0
 10
69.08855154000572
 20
115.6774513317274
 30
0.0
 10
69.13108774444329
 20
115.6618561129252
 30
0.0
 10
69.17307222722546
 20
115.6582172640051
 30
0.0
  0
SPLINE
  5
236
330
20F
100
AcDbEntity
  8
DV3_Standard
  6
Continuous
 62
     7
100
AcDbSpline
210
0.0
220
0.0
230
1.0
 70
     8
 71
     3
 72
    12
 73
     8
 74
     0
 42
0.0000000064471343
 43
0.0000000001
 40
0.0
 40
0.0
 40
0.0
 40
0.0
 40
0.3674725431950057
 40
0.3674725431950057
 40
0.6837362715975028
 40
0.6837362715975028
 40
1.0
 40
1.0
 40
1.0
 40
1.0
 10
69.17307222722546
 20
115.6582172640051
 30
0.0
 10
69.25775888509348
 20
115.6508773628532
 30
0.0
 10
69.34020077009774
 20
115.6921839746629
 30
0.0
 10
69.50122114872859
 20
115.8928822966088
 30
0.0
 10
69.57563493577547
 20
116.0345665141968
 30
0.0
 10
69.74072940668331
 20
116.4194977726734
 30
0.0
 10
69.83711888273395
 20
116.6573600181023
 30
0.0
 10
69.9132726396679
 20
116.9278696393343
 30
0.0
  0
SPLINE
  5
237
330
20F
100
AcDbEntity
  8
DV3_Standard
  6
Continuous
 62
     7
100
AcDbSpline
210
0.0
220
0.0
230
1.0
 70
     8
 71
     3
 72
    26
 73
    22
 74
     0
 42
0.0000000004913821
 43
0.0000000001
 40
0.0
 40
0.0
 40
0.0
 40
0.0
 40
0.0312499999999998
 40
0.0312499999999998
 40
0.0624999999999997
 40
0.0624999999999997
 40
0.1249999999999991
 40
0.1249999999999991
 40
0.2500000000000003
 40
0.2500000000000003
 40
0.5000000000000007
 40
0.5000000000000007
 40
0.750000000000001
 40
0.750000000000001
 40
0.8749999999999998
 40
0.8749999999999998
 40
0.9374999999999999
 40
0.9374999999999999
 40
0.9687499999999999
 40
0.9687499999999999
 40
1.0
 40
1.0
 40
1.0
 40
1.0
 10
69.9132726396679
 20
116.9278696393343
 30
0.0
 10
69.98331671398371
 20
117.176676747119
 30
0.0
 10
69.90484480569276
 20
117.4838441983781
 30
0.0
 10
69.70586192317579
 20
118.026550545238
 30
0.0
 10
69.57086680046729
 20
118.2822885858113
 30
0.0
 10
69.14825868346107
 20
119.0105504609877
 30
0.0
 10
68.82924190058921
 20
119.4507003739571
 30
0.0
 10
67.85338000792584
 20
120.7185080374371
 30
0.0
 10
67.18126255774918
 20
121.4747808546607
 30
0.0
 10
65.2150388868575
 20
123.6664233500727
 30
0.0
 10
63.95788808361809
 20
125.0244257841192
 30
0.0
 10
61.66057273254265
 20
127.6012465796674
 30
0.0
 10
60.61197030839128
 20
128.8297660555093
 30
0.0
 10
59.18981118155946
 20
130.4386546646378
 30
0.0
 10
58.74001249443887
 20
130.93971378166
 30
0.0
 10
58.07555332906962
 20
131.5114016978374
 30
0.0
 10
57.85587660694501
 20
131.6747028114719
 30
0.0
 10
57.52824596282684
 20
131.786628076077
 30
0.0
 10
57.42003452453146
 20
131.8048168405888
 30
0.0
 10
57.20482030993885
 20
131.7250434305166
 30
0.0
 10
57.09836699397388
 20
131.6274028684892
 30
0.0
 10
57.01697088310087
 20
131.3935875228627
 30
0.0
  0
SPLINE
  5
238
330
20F
100
AcDbEntity
  8
DV3_Standard
  6
Continuous
 62
     7
100
AcDbSpline
210
0.0
220
0.0
230
1.0
 70
     8
 71
     3
 72
    12
 73
     8
 74
     0
 42
0.0000000057164251
 43
0.0000000001
 40
0.0
 40
0.0
 40
0.0
 40
0.0
 40
0.2578549359071073
 40
0.2578549359071073
 40
0.5157098718142147
 40
0.5157098718142147
 40
0.9999999999999999
 40
0.9999999999999999
 40
0.9999999999999999
 40
0.9999999999999999
 10
136.8698205894951
 20
116.9172645710022
 30
0.0
 10
136.9449491673771
 20
116.6504134794531
 30
0.0
 10
137.0393326355473
 20
116.4170698075018
 30
0.0
 10
137.2022879705653
 20
116.0352105670174
 30
0.0
 10
137.2768506825673
 20
115.8910562011522
 30
0.0
 10
137.489782060123
 20
115.6191404364784
 30
0.0
 10
137.6175633767207
 20
115.6133385753779
 30
0.0
 10
137.760414301302
 20
115.7048693342131
 30
0.0
  0
SPLINE
  5
239
330
20F
100
AcDbEntity
  8
DV3_Standard
  6
Continuous
 62
     7
100
AcDbSpline
210
0.0
220
0.0
230
1.0
 70
     8
 71
     3
 72
     8
 73
     4
 74
     0
 42
0.0000000329123429
 43
0.0000000001
 40
0.0
 40
0.0
 40
0.0
 40
0.0
 40
1.0
 40
1.0
 40
1.0
 40
1.0
 10
149.8581865110921
 20
131.0863321470775
 30
0.0
 10
149.8370737166391
 20
131.1874068373374
 30
0.0
 10
149.8097618693182
 20
131.2853351086445
 30
0.0
 10
149.7772427482706
 20
131.3787524989787
 30
0.0
  0
SPLINE
  5
23A
330
20F
100
AcDbEntity
  8
DV3_Standard
  6
Continuous
 62
     7
100
AcDbSpline
210
0.0
220
0.0
230
1.0
 70
     8
 71
     3
 72
    26
 73
    22
 74
     0
 42
0.0000000004912751
 43
0.0000000001
 40
0.0
 40
0.0
 40
0.0
 40
0.0
 40
0.0312499999999994
 40
0.0312499999999994
 40
0.0624999999999987
 40
0.0624999999999987
 40
0.124999999999999
 40
0.124999999999999
 40
0.249999999999999
 40
0.249999999999999
 40
0.5000000000000007
 40
0.5000000000000007
 40
0.7500000000000024
 40
0.7500000000000024
 40
0.8750000000000024
 40
0.8750000000000024
 40
0.937500000000001
 40
0.937500000000001
 40
0.9687500000000006
 40
0.9687500000000006
 40
1.0
 40
1.0
 40
1.0
 40
1.0
 10
149.7772427482706
 20
131.3787524989787
 30
0.0
 10
149.695281991557
 20
131.6142004371555
 30
0.0
 10
149.5869784189307
 20
131.7119836617509
 30
0.0
 10
149.3715582124503
 20
131.790124371354
 30
0.0
 10
149.2614927209588
 20
131.7711377696033
 30
0.0
 10
148.9330865298913
 20
131.6574767685191
 30
0.0
 10
148.713319330891
 20
131.4936241281103
 30
0.0
 10
148.0446812264136
 20
130.9178688225248
 30
0.0
 10
147.5968103617749
 20
130.4185812952224
 30
0.0
 10
146.1797406488893
 20
128.8173904633918
 30
0.0
 10
145.1306559800864
 20
127.5899928843024
 30
0.0
 10
142.8315969481608
 20
125.0140586666596
 30
0.0
 10
141.5735922378112
 20
123.6567614780221
 30
0.0
 10
139.5962278897356
 20
121.4546220532726
 30
0.0
 10
138.9199099257196
 20
120.6932506683241
 30
0.0
 10
137.9483959163985
 20
119.4309345902848
 30
0.0
 10
137.6293141699201
 20
118.9902617521312
 30
0.0
 10
137.207569456887
 20
118.2621014826647
 30
0.0
 10
137.0748982193893
 20
118.0102492731682
 30
0.0
 10
136.8766567004798
 20
117.4669722565503
 30
0.0
 10
136.8002579634504
 20
117.164345817791
 30
0.0
 10
136.8698205894951
 20
116.9172645710022
 30
0.0
  0
ARC
  5
23B
330
20F
100
AcDbEntity
  8
DV3_Standard
  6
Continuous
 62
     7
100
AcDbCircle
 10
136.6411160626
 20
117.4658700841
 30
0.0
 40
0.5943683787597651
100
AcDbArc
 50
276.6298834624
 51
292.6304446538
  0
ARC
  5
23C
330
20F
100
AcDbEntity
  8
DV3_Standard
  6
Continuous
 62
     7
100
AcDbCircle
 10
150.0955905864
 20
121.2070511817
 30
0.0
 40
14.0692417087248
100
AcDbArc
 50
197.9312444654
 51
198.3030499552
  0
SPLINE
  5
23D
330
20F
100
AcDbEntity
  8
DV3_Standard
  6
Continuous
 62
     7
100
AcDbSpline
210
0.0
220
0.0
230
1.0
 70
     8
 71
     3
 72
    16
 73
    12
 74
     0
 42
0.0000000073763203
 43
0.0000000001
 40
0.0
 40
0.0
 40
0.0
 40
0.0
 40
0.2423612029665971
 40
0.2423612029665971
 40
0.4847224059331942
 40
0.4847224059331942
 40
0.7270836088997912
 40
0.7270836088997912
 40
0.9694448118663883
 40
0.9694448118663883
 40
1.0
 40
1.0
 40
1.0
 40
1.0
 10
136.7381292345045
 20
116.7887043765218
 30
0.0
 10
136.795606241424
 20
116.6160300522529
 30
0.0
 10
136.8561639353401
 20
116.4536629695681
 30
0.0
 10
136.9619874667522
 20
116.1717249267536
 30
0.0
 10
137.0110118902847
 20
116.052971112996
 30
0.0
 10
137.106625812524
 20
115.8564101151254
 30
0.0
 10
137.1534036616553
 20
115.7805796034047
 30
0.0
 10
137.2451864835909
 20
115.6740988851434
 30
0.0
 10
137.2911601137154
 20
115.6419171952003
 30
0.0
 10
137.3433583068628
 20
115.6264984161284
 30
0.0
 10
137.3492028101477
 20
115.6250534646794
 30
0.0
 10
137.3550509279943
 20
115.6238837149967
 30
0.0
  0
SPLINE
  5
23E
330
20F
100
AcDbEntity
  8
DV3_Standard
  6
Continuous
 62
     7
100
AcDbSpline
210
0.0
220
0.0
230
1.0
 70
     8
 71
     3
 72
     8
 73
     4
 74
     0
 42
0.0000002237696597
 43
0.0000000001
 40
0.0
 40
0.0
 40
0.0
 40
0.0
 40
1.0
 40
1.0
 40
1.0
 40
1.0
 10
149.4829175293226
 20
131.7972822038165
 30
0.0
 10
149.4705824279173
 20
131.8066873524446
 30
0.0
 10
149.458194592317
 20
131.8149196029142
 30
0.0
 10
149.4458052688032
 20
131.8220674699938
 30
0.0
  0
SPLINE
  5
23F
330
20F
100
AcDbEntity
  8
DV3_Standard
  6
Continuous
 62
     7
100
AcDbSpline
210
0.0
220
0.0
230
1.0
 70
     8
 71
     3
 72
     8
 73
     4
 74
     0
 42
0.0000002966598967
 43
0.0000000001
 40
0.0
 40
0.0
 40
0.0
 40
0.0
 40
1.0
 40
1.0
 40
1.0
 40
1.0
 10
149.4458052688032
 20
131.8220674699938
 30
0.0
 10
149.4357897967877
 20
131.8278457727904
 30
0.0
 10
149.4257733524161
 20
131.8329154276726
 30
0.0
 10
149.4157830085303
 20
131.83732319601
 30
0.0
  0
SPLINE
  5
240
330
20F
100
AcDbEntity
  8
DV3_Standard
  6
Continuous
 62
     7
100
AcDbSpline
210
0.0
220
0.0
230
1.0
 70
     8
 71
     3
 72
    26
 73
    22
 74
     0
 42
0.0000000004996569
 43
0.0000000001
 40
0.0
 40
0.0
 40
0.0
 40
0.0
 40
0.0008834598835375
 40
0.0008834598835375
 40
0.033113025693747
 40
0.033113025693747
 40
0.0975721573141645
 40
0.0975721573141645
 40
0.2264904205549993
 40
0.2264904205549993
 40
0.4843269470366665
 40
0.4843269470366665
 40
0.7421634735183338
 40
0.7421634735183338
 40
0.8710817367591677
 40
0.8710817367591677
 40
0.9355408683795847
 40
0.9355408683795847
 40
0.9677704341897924
 40
0.9677704341897924
 40
1.0
 40
1.0
 40
1.0
 40
1.0
 10
149.4157830085303
 20
131.83732319601
 30
0.0
 10
149.4128649585026
 20
131.8386106480403
 30
0.0
 10
149.4099491352338
 20
131.8398416313245
 30
0.0
 10
149.3007696935935
 20
131.8839073735322
 30
0.0
 10
149.1939471171845
 20
131.863562274133
 30
0.0
 10
148.8740814478854
 20
131.7392806752037
 30
0.0
 10
148.6578862868982
 20
131.5676077129791
 30
0.0
 10
148.0059771612109
 20
130.9828169540865
 30
0.0
 10
147.5573984826405
 20
130.485691403111
 30
0.0
 10
146.1300840106057
 20
128.8847755712845
 30
0.0
 10
145.0724698731628
 20
127.6492063691581
 30
0.0
 10
142.7452376374261
 20
125.0417075847776
 30
0.0
 10
141.4759687600328
 20
123.6704618212715
 30
0.0
 10
139.4887990905777
 20
121.4454376511942
 30
0.0
 10
138.8119199894572
 20
120.6809411979429
 30
0.0
 10
137.8147764278857
 20
119.4166264345092
 30
0.0
 10
137.4816371209131
 20
118.9713418953393
 30
0.0
 10
137.0391424549142
 20
118.2435788269276
 30
0.0
 10
136.8976972668849
 20
117.9856390173508
 30
0.0
 10
136.6941808706348
 20
117.4348676419243
 30
0.0
 10
136.6310785416151
 20
117.1237139563736
 30
0.0
 10
136.7097390082743
 20
116.8754764349598
 30
0.0
  0
ARC
  5
241
330
20F
100
AcDbEntity
  8
DV3_Standard
  6
Continuous
 62
     7
100
AcDbCircle
 10
57.1120253363
 20
131.3458388556
 30
0.0
 40
0.1063733251311551
100
AcDbArc
 50
102.1635404787
 51
153.3282664627
  0
SPLINE
  5
242
330
20F
100
AcDbEntity
  8
DV3_Standard
  6
Continuous
 62
     7
100
AcDbSpline
210
0.0
220
0.0
230
1.0
 70
     8
 71
     3
 72
    16
 73
    12
 74
     0
 42
0.0000000073645243
 43
0.0000000001
 40
0.0
 40
0.0
 40
0.0
 40
0.0
 40
0.0371084292187887
 40
0.0371084292187887
 40
0.2778313219140917
 40
0.2778313219140917
 40
0.5185542146093943
 40
0.5185542146093943
 40
0.7592771073046972
 40
0.7592771073046972
 40
1.0
 40
1.0
 40
1.0
 40
1.0
 10
69.42585406271351
 20
115.6342365769605
 30
0.0
 10
69.43301655550427
 20
115.6355385171146
 30
0.0
 10
69.44014943673831
 20
115.6372576385126
 30
0.0
 10
69.49332174572791
 20
115.653345975083
 30
0.0
 10
69.53843966366746
 20
115.6849883696194
 30
0.0
 10
69.6306867525588
 20
115.7924264781778
 30
0.0
 10
69.67727906277477
 20
115.8684132807388
 30
0.0
 10
69.77233858014752
 20
116.0642128207922
 30
0.0
 10
69.82276650146713
 20
116.1865964582562
 30
0.0
 10
69.92836336363065
 20
116.4684581708357
 30
0.0
 10
69.98764613305606
 20
116.627336059871
 30
0.0
 10
70.0448836162527
 20
116.7993121202743
 30
0.0
  0
ARC
  5
243
330
20F
100
AcDbEntity
  8
DV3_Standard
  6
Continuous
 62
     7
100
AcDbCircle
 10
56.9198475067
 20
121.14086612
 30
0.0
 40
13.8244589047345
100
AcDbArc
 50
341.6966029125
 51
342.0749827677
  0
ARC
  5
244
330
20F
100
AcDbEntity
  8
DV3_Standard
  6
Continuous
 62
     7
100
AcDbCircle
 10
70.1420090264
 20
117.4764857434
 30
0.0
 40
0.5943904140206258
100
AcDbArc
 50
247.367113531
 51
263.3589734928
  0
SPLINE
  5
245
330
20F
100
AcDbEntity
  8
DV3_Standard
  6
Continuous
 62
     7
100
AcDbSpline
210
0.0
220
0.0
230
1.0
 70
     8
 71
     3
 72
    26
 73
    22
 74
     0
 42
0.0000000004995399
 43
0.0000000001
 40
0.0
 40
0.0
 40
0.0
 40
0.0
 40
0.0322053289741417
 40
0.0322053289741417
 40
0.0644106579482833
 40
0.0644106579482833
 40
0.1288213158965668
 40
0.1288213158965668
 40
0.2576426317931336
 40
0.2576426317931336
 40
0.5152852635862673
 40
0.5152852635862673
 40
0.7729278953794008
 40
0.7729278953794008
 40
0.9017492112759684
 40
0.9017492112759684
 40
0.9661598692242527
 40
0.9661598692242527
 40
0.998365198198395
 40
0.998365198198395
 40
0.9999999999999999
 40
0.9999999999999999
 40
0.9999999999999999
 40
0.9999999999999999
 10
70.07326871225006
 20
116.8860835639838
 30
0.0
 10
70.15224237186617
 20
117.1352868972317
 30
0.0
 10
70.08885911640958
 20
117.4462929216764
 30
0.0
 10
69.88397800141067
 20
118.0000142318962
 30
0.0
 10
69.74192362068032
 20
118.258672077364
 30
0.0
 10
69.29275076047908
 20
118.9965193669941
 30
0.0
 10
68.95705301202155
 20
119.4435446914893
 30
0.0
 10
67.96011590777539
 20
120.7071892360154
 30
0.0
 10
67.286255038531
 20
121.4683719787258
 30
0.0
 10
65.31194777714319
 20
123.68083642869
 30
0.0
 10
64.04315854422174
 20
125.0532764160868
 30
0.0
 10
61.7177929006162
 20
127.6615618671711
 30
0.0
 10
60.66100760045713
 20
128.8979338313799
 30
0.0
 10
59.22755421275333
 20
130.5075913337129
 30
0.0
 10
58.77811255133869
 20
131.0057542008834
 30
0.0
 10
58.12759525697742
 20
131.5885458803011
 30
0.0
 10
57.91305163822792
 20
131.7572400351228
 30
0.0
 10
57.59820116205548
 20
131.8784970100899
 30
0.0
 10
57.49180202751997
 20
131.898402512747
 30
0.0
 10
57.38086381463383
 20
131.8532712640779
 30
0.0
 10
57.37549276027348
 20
131.8509002551719
 30
0.0
 10
57.37011443857949
 20
131.8483313522875
 30
0.0
  0
SPLINE
  5
246
330
20F
100
AcDbEntity
  8
DV3_Standard
  6
Continuous
 62
     7
100
AcDbSpline
210
0.0
220
0.0
230
1.0
 70
     8
 71
     3
 72
     8
 73
     4
 74
     0
 42
0.0000003885678421
 43
0.0000000001
 40
0.0
 40
0.0
 40
0.0
 40
0.0
 40
1.0
 40
1.0
 40
1.0
 40
1.0
 10
57.37011443857949
 20
131.8483313522875
 30
0.0
 10
57.36254785451542
 20
131.8447172472313
 30
0.0
 10
57.35496688639844
 20
131.8407114555406
 30
0.0
 10
57.34738381661397
 20
131.8362940513305
 30
0.0
  0
SPLINE
  5
247
330
20F
100
AcDbEntity
  8
DV3_Standard
  6
Continuous
 62
     7
100
AcDbSpline
210
0.0
220
0.0
230
1.0
 70
     8
 71
     3
 72
     8
 73
     4
 74
     0
 42
0.0000000973222137
 43
0.0000000001
 40
0.0
 40
0.0
 40
0.0
 40
0.0
 40
1.0
 40
1.0
 40
1.0
 40
1.0
 10
57.34738381661397
 20
131.8362940513305
 30
0.0
 10
57.32051740175957
 20
131.820643422039
 30
0.0
 10
57.29362460577872
 20
131.7998260373311
 30
0.0
 10
57.26725166013513
 20
131.772955738293
 30
0.0
  0
SPLINE
  5
248
330
20F
100
AcDbEntity
  8
DV3_Standard
  6
Continuous
 62
     7
100
AcDbSpline
210
0.0
220
0.0
230
1.0
 70
     8
 71
     3
 72
    16
 73
    12
 74
     0
 42
0.0000000062962798
 43
0.0000000001
 40
0.0
 40
0.0
 40
0.0
 40
0.0
 40
0.2590884197222404
 40
0.2590884197222404
 40
0.4443163147916804
 40
0.4443163147916804
 40
0.6295442098611201
 40
0.6295442098611201
 40
0.8147721049305601
 40
0.8147721049305601
 40
1.0
 40
1.0
 40
1.0
 40
1.0
 10
137.1618300585552
 20
115.6021983858987
 30
0.0
 10
137.0792097892388
 20
115.5458816546172
 30
0.0
 10
137.0014598675729
 20
115.5151899241267
 30
0.0
 10
136.870343890247
 20
115.5219187024814
 30
0.0
 10
136.8166543202212
 20
115.5432929404878
 30
0.0
 10
136.7119004746779
 20
115.6301867530194
 30
0.0
 10
136.6598110320984
 20
115.6969982031906
 30
0.0
 10
136.5556884845731
 20
115.8801172382532
 30
0.0
 10
136.5039358338821
 20
115.9941714207104
 30
0.0
 10
136.3968184212958
 20
116.2724326334153
 30
0.0
 10
136.3414526314648
 20
116.4367382053142
 30
0.0
 10
136.2778535321254
 20
116.6129290728642
 30
0.0
  0
SPLINE
  5
249
330
20F
100
AcDbEntity
  8
DV3_Standard
  6
Continuous
 62
     7
100
AcDbSpline
210
0.0
220
0.0
230
1.0
 70
     8
 71
     3
 72
    18
 73
    14
 74
     0
 42
0.0000000063062624
 43
0.0000000001
 40
0.0
 40
0.0
 40
0.0
 40
0.0
 40
0.185161791988963
 40
0.185161791988963
 40
0.370323583977926
 40
0.370323583977926
 40
0.555485375966889
 40
0.555485375966889
 40
0.740647167955852
 40
0.740647167955852
 40
0.9258089599448149
 40
0.9258089599448149
 40
1.0
 40
1.0
 40
1.0
 40
1.0
 10
70.50518487932611
 20
116.6234285892328
 30
0.0
 10
70.44175262272995
 20
116.4476712733848
 30
0.0
 10
70.38780281832918
 20
116.2873627823068
 30
0.0
 10
70.28089961303374
 20
116.0087476802475
 30
0.0
 10
70.22760509760981
 20
115.8910193338111
 30
0.0
 10
70.12420881409899
 20
115.7087840468433
 30
0.0
 10
70.07229751033432
 20
115.6416910488093
 30
0.0
 10
69.96703311845664
 20
115.5539795529465
 30
0.0
 10
69.91432115370513
 20
115.5329645714541
 30
0.0
 10
69.80566302839755
 20
115.5267833332458
 30
0.0
 10
69.74932863369445
 20
115.5420670587814
 30
0.0
 10
69.66852364256259
 20
115.5834032759961
 30
0.0
 10
69.64514655151537
 20
115.5974888856659
 30
0.0
 10
69.62142642361874
 20
115.6136414370428
 30
0.0
  0
ELLIPSE
  5
24A
330
20F
100
AcDbEntity
  8
DV3_Standard
  6
Continuous
 62
     7
100
AcDbEllipse
 10
136.6095590855
 20
116.4949590565
 30
0.0
 11
-0.4731811992246954
 21
-0.1615535598505635
 31
0.0
210
0.0
220
0.0
230
1.0
 40
0.5246741918
 41
4.264381717061307
 42
5.296662332833076
  0
ARC
  5
24B
330
20F
100
AcDbEntity
  8
DV3_Standard
  6
Continuous
 62
     7
100
AcDbCircle
 10
136.7726382322
 20
115.9370589535
 30
0.0
 40
0.9405230895010533
100
AcDbArc
 50
93.8346234266
 51
124.1091492296
  0
ARC
  5
24C
330
20F
100
AcDbEntity
  8
DV3_Standard
  6
Continuous
 62
     7
100
AcDbCircle
 10
70.0102743505
 20
115.9478087593
 30
0.0
 40
0.9403871004883051
100
AcDbArc
 50
55.8761077991
 51
86.1590116461
  0
ELLIPSE
  5
24D
330
20F
100
AcDbEntity
  8
DV3_Standard
  6
Continuous
 62
     7
100
AcDbEllipse
 10
70.1733082
 20
116.5055645028
 30
0.0
 11
-0.4731856803505339
 21
0.1615404342924787
 31
0.0
210
0.0
220
0.0
230
0.9999999999999998
 40
0.5247163958
 41
4.127630622449914
 42
5.160077676202606
  0
ARC
  5
24E
330
20F
100
AcDbEntity
  8
DV3_Standard
  6
Continuous
 62
     7
100
AcDbCircle
 10
77.7137548209
 20
138.2329886124
 30
0.0
 40
22.01007495878376
100
AcDbArc
 50
157.9670885078
 51
199.0387878572
  0
ARC
  5
24F
330
20F
100
AcDbEntity
  8
DV3_Standard
  6
Continuous
 62
     7
100
AcDbCircle
 10
99.9180225906
 20
130.3848809259
 30
0.0
 40
45.54833362736806
100
AcDbArc
 50
152.9579721766
 51
159.2926991187
  0
ARC
  5
250
330
20F
100
AcDbEntity
  8
DV3_Standard
  6
Continuous
 62
     7
100
AcDbCircle
 10
105.9429543742
 20
129.9798058555
 30
0.0
 40
46.57027245818687
100
AcDbArc
 50
20.783697232
 51
26.9741567311
  0
SPLINE
  5
251
330
20F
100
AcDbEntity
  8
DV3_Standard
  6
Continuous
 62
     7
100
AcDbSpline
210
0.0
220
0.0
230
1.0
 70
     8
 71
     3
 72
    26
 73
    22
 74
     0
 42
0.0000000004701532
 43
0.0000000001
 40
0.0
 40
0.0
 40
0.0
 40
0.0
 40
0.0434940028944382
 40
0.0823605431479972
 40
0.1117255182332339
 40
0.1320337021408907
 40
0.1500704679377612
 40
0.1985863645535408
 40
0.2521313101873812
 40
0.3307326687402941
 40
0.4128725070566746
 40
0.4924181737734626
 40
0.6063402532263683
 40
0.7142797296287657
 40
0.7449655576476711
 40
0.7757970640992645
 40
0.806828889460962
 40
0.8433527093022007
 40
0.8902717058125666
 40
0.9458981744312155
 40
1.0
 40
1.0
 40
1.0
 40
1.0
 10
57.0005183000083
 20
131.320130742868
 30
0.0
 10
56.90185302016598
 20
131.052413395049
 30
0.0
 10
56.74931410392799
 20
130.623774729601
 30
0.0
 10
56.63576382465352
 20
129.9267767227127
 30
0.0
 10
56.61259869849112
 20
129.3774457646394
 30
0.0
 10
56.63167423287
 20
128.9536570138204
 30
0.0
 10
56.68960525180947
 20
128.4178072996426
 30
0.0
 10
56.8408402707751
 20
127.7051875469353
 30
0.0
 10
57.17074419548475
 20
126.6687878691071
 30
0.0
 10
57.74639036572589
 20
125.4223717318814
 30
0.0
 10
58.60235715588973
 20
124.0642210269941
 30
0.0
 10
59.74483273965107
 20
122.5863756750595
 30
0.0
 10
61.15625618925397
 20
121.0423966336549
 30
0.0
 10
62.56613559351026
 20
119.7882019881663
 30
0.0
 10
63.60165637514739
 20
118.9993597089351
 30
0.0
 10
64.19171870815202
 20
118.5798786778097
 30
0.0
 10
64.82928752373134
 20
118.1540225246911
 30
0.0
 10
65.65485086046411
 20
117.6507364306932
 30
0.0
 10
66.67762304363939
 20
117.0445428487679
 30
0.0
 10
67.86726516936444
 20
116.3426780150985
 30
0.0
 10
68.61194540646429
 20
115.9409142871344
 30
0.0
 10
69.04607644292469
 20
115.7067655593085
 30
0.0
  0
SPLINE
  5
252
330
20F
100
AcDbEntity
  8
DV3_Standard
  6
Continuous
 62
     7
100
AcDbSpline
210
0.0
220
0.0
230
1.0
 70
     8
 71
     3
 72
    27
 73
    23
 74
     0
 42
0.0000000004698975
 43
0.0000000001
 40
0.0
 40
0.0
 40
0.0
 40
0.0
 40
0.0521197611339861
 40
0.0976780790976429
 40
0.1276641359554756
 40
0.1527164753162044
 40
0.1778757398920429
 40
0.2027307942313525
 40
0.2276430205265714
 40
0.2945401362256777
 40
0.3749843845508662
 40
0.4627928809079644
 40
0.5455234793898238
 40
0.6224045499009035
 40
0.6858276470594383
 40
0.7116807971627979
 40
0.739858427628207
 40
0.7831224894374499
 40
0.8254958004030633
 40
0.8763389961072457
 40
0.9360017524012886
 40
1.0
 40
1.0
 40
1.0
 40
1.0
 10
137.7382925355266
 20
115.6949702832083
 30
0.0
 10
138.1717951618223
 20
115.9241364907772
 30
0.0
 10
138.8538403027527
 20
116.2859797857875
 30
0.0
 10
139.8345831514003
 20
116.8551317029668
 30
0.0
 10
140.5671577194951
 20
117.2963944195986
 30
0.0
 10
141.1314970631345
 20
117.6406784138276
 30
0.0
 10
141.665251484628
 20
117.9618634744795
 30
0.0
 10
142.1763488391523
 20
118.2876388444584
 30
0.0
 10
142.9349975174937
 20
118.7985969455857
 30
0.0
 10
143.9899037134662
 20
119.5864722379626
 30
0.0
 10
145.2948677355998
 20
120.7272616077156
 30
0.0
 10
146.5409068432479
 20
122.0103755535361
 30
0.0
 10
147.6481589760081
 20
123.3260916920546
 30
0.0
 10
148.5172505279681
 20
124.550794144595
 30
0.0
 10
149.0648738147451
 20
125.4957633544206
 30
0.0
 10
149.3967468544635
 20
126.1801710257375
 30
0.0
 10
149.6404076887056
 20
126.7533865249028
 30
0.0
 10
149.8733717721551
 20
127.4282683146879
 30
0.0
 10
150.0875070146128
 20
128.2551263954323
 30
0.0
 10
150.2014659796748
 20
129.1846086944862
 30
0.0
 10
150.1424533532609
 20
130.2682445633426
 30
0.0
 10
149.9272642328704
 20
130.9147833710744
 30
0.0
 10
149.7892569768356
 20
131.3095074307156
 30
0.0
  0
ARC
  5
253
330
20F
100
AcDbEntity
  8
DV3_Standard
  6
Continuous
 62
     7
100
AcDbCircle
 10
137.4788331418
 20
116.1039452309
 30
0.0
 40
0.4908283682323663
100
AcDbArc
 50
255.3963903274
 51
302.5081365378
  0
ARC
  5
254
330
20F
100
AcDbEntity
  8
DV3_Standard
  6
Continuous
 62
     7
100
AcDbCircle
 10
149.1398170402
 20
131.2564321184
 30
0.0
 40
0.6399295378526584
100
AcDbArc
 50
12.7403139798
 51
61.1626920567
  0
LINE
  5
255
330
20F
100
AcDbEntity
  8
DV3_Standard
  6
Continuous
 62
     7
100
AcDbLine
 10
69.2784847108
 20
115.6355872316
 30
0.0
 11
69.4195369005
 21
115.6442857208
 31
0.0
  0
SPLINE
  5
256
330
20F
100
AcDbEntity
  8
DV3_Standard
  6
Continuous
 62
     7
100
AcDbSpline
210
0.0
220
0.0
230
1.0
 70
     8
 71
     3
 72
    10
 73
     6
 74
     0
 42
0.00000001779288
 43
0.0000000001
 40
0.0
 40
0.0
 40
0.0
 40
0.0
 40
0.2866281195419513
 40
0.7605390324589896
 40
1.0
 40
1.0
 40
1.0
 40
1.0
 10
57.34327684768164
 20
131.8221967719717
 30
0.0
 10
57.29753470708032
 20
131.7977647672321
 30
0.0
 10
57.19518364737112
 20
131.7407115050142
 30
0.0
 10
57.08458148115906
 20
131.571745355295
 30
0.0
 10
57.03949159699901
 20
131.4429674456883
 30
0.0
 10
57.02229975073288
 20
131.3911491196585
 30
0.0
  0
ARC
  5
257
330
20F
100
AcDbEntity
  8
DV3_Standard
  6
Continuous
 62
     7
100
AcDbCircle
 10
103.4012348171
 20
172.5172989878
 30
0.0
 40
66.16729898778704
100
AcDbArc
 50
239.2963386945
 51
300.6822956265
  0
ARC
  5
258
330
20F
100
AcDbEntity
  8
DV3_Standard
  6
Continuous
 62
     7
100
AcDbCircle
 10
129.0763123707
 20
138.2341536352
 30
0.0
 40
22.02039932317475
100
AcDbArc
 50
340.8465281026
 51
17.4948759301
  0
ARC
  5
259
330
20F
100
AcDbEntity
  8
DV3_Standard
  6
Continuous
 62
     7
100
AcDbCircle
 10
129.0763123707
 20
138.2341536352
 30
0.0
 40
22.02039932317475
100
AcDbArc
 50
18.1011640808
 51
22.2550561473
  0
SPLINE
  5
25A
330
20F
100
AcDbEntity
  8
DV3_Standard
  6
Continuous
 62
     7
100
AcDbSpline
210
0.0
220
0.0
230
1.0
 70
     8
 71
     3
 72
    10
 73
     6
 74
     0
 42
0.0000000445678493
 43
0.0000000001
 40
0.0
 40
0.0
 40
0.0
 40
0.0
 40
0.1585967336010047
 40
0.6155766983865457
 40
1.0
 40
1.0
 40
1.0
 40
1.0
 10
137.1652513914886
 20
115.6054039074304
 30
0.0
 10
137.1627283625673
 20
115.6038213543047
 30
0.0
 10
137.155001632446
 20
115.597211924716
 30
0.0
 10
137.2246738423766
 20
115.6383821835809
 30
0.0
 10
137.306062856297
 20
115.6234361808339
 30
0.0
 10
137.3532605785161
 20
115.6176288569295
 30
0.0
  0
SPLINE
  5
25B
330
20F
100
AcDbEntity
  8
DV3_Standard
  6
Continuous
 62
     7
100
AcDbSpline
210
0.0
220
0.0
230
1.0
 70
     8
 71
     3
 72
     9
 73
     5
 74
     0
 42
0.0000004288836178
 43
0.0000000001
 40
0.0
 40
0.0
 40
0.0
 40
0.0
 40
0.9471312643859946
 40
1.0
 40
1.0
 40
1.0
 40
1.0
 10
149.419536757722
 20
131.8364242702976
 30
0.0
 10
149.4093935886123
 20
131.8423191048954
 30
0.0
 10
149.4005295288863
 20
131.8467541120291
 30
0.0
 10
149.3989397087427
 20
131.846539307349
 30
0.0
 10
149.39887547063
 20
131.8465148857979
 30
0.0
  0
ARC
  5
25C
330
20F
100
AcDbEntity
  8
DV3_Standard
  6
Continuous
 62
     7
100
AcDbCircle
 10
58.1835218844
 20
131.2634810974
 30
0.0
 40
1.007310814612215
100
AcDbArc
 50
144.7622203286
 51
144.7806827344
  0
SPLINE
  5
25D
330
20F
100
AcDbEntity
  8
DV3_Standard
  6
Continuous
 62
     7
100
AcDbSpline
210
0.0
220
0.0
230
1.0
 70
     8
 71
     3
 72
    10
 73
     6
 74
     0
 42
0.0000000463874754
 43
0.0000000001
 40
0.0
 40
0.0
 40
0.0
 40
0.0
 40
0.3516507596238099
 40
0.8195724669693
 40
1.0
 40
1.0
 40
1.0
 40
1.0
 10
69.43565642196864
 20
115.628506108096
 30
0.0
 10
69.47730797269512
 20
115.6343812494665
 30
0.0
 10
69.55412083136689
 20
115.6494969172004
 30
0.0
 10
69.62800711617011
 20
115.6085920768217
 30
0.0
 10
69.62178211744082
 20
115.613985143491
 30
0.0
 10
69.61956125812029
 20
115.6152091750859
 30
0.0
  0
SPLINE
  5
25E
330
20F
100
AcDbEntity
  8
DV3_Standard
  6
Continuous
 62
     7
100
AcDbSpline
210
0.0
220
0.0
230
1.0
 70
     8
 71
     3
 72
     9
 73
     5
 74
     0
 42
0.0000005188787611
 43
0.0000000001
 40
0.0
 40
0.0
 40
0.0
 40
0.0
 40
0.8720724478395758
 40
1.0
 40
1.0
 40
1.0
 40
1.0
 10
121.0932661097139
 20
205.9083078359122
 30
0.0
 10
121.0935897785898
 20
205.9076176256298
 30
0.0
 10
121.0942757616948
 20
205.9020678837888
 30
0.0
 10
121.0952429597194
 20
205.8907408042573
 30
0.0
 10
121.0953710931364
 20
205.8891963940339
 30
0.0
  0
ARC
  5
25F
330
20F
100
AcDbEntity
  8
DV3_Standard
  6
Continuous
 62
     7
100
AcDbCircle
 10
103.399952227
 20
200.112613632
 30
0.0
 40
18.59339126259228
100
AcDbArc
 50
18.0719698864
 51
19.4739175602
  0
ARC
  5
260
330
20F
100
AcDbEntity
  8
DV3_Standard
  6
Continuous
 62
     7
100
AcDbCircle
 10
103.399952227
 20
200.112613632
 30
0.0
 40
18.59339126259228
100
AcDbArc
 50
161.2028188341
 51
161.8883172479
  0
SPLINE
  5
261
330
20F
100
AcDbEntity
  8
DV3_Standard
  6
Continuous
 62
     7
100
AcDbSpline
210
0.0
220
0.0
230
1.0
 70
     8
 71
     3
 72
     8
 73
     4
 74
     0
 42
0.0000000639292426
 43
0.0000000001
 40
0.0
 40
0.0
 40
0.0
 40
0.0
 40
1.0
 40
1.0
 40
1.0
 40
1.0
 10
82.18927597294365
 20
187.743126643184
 30
0.0
 10
82.20948738527659
 20
187.7914127591529
 30
0.0
 10
82.22957748848438
 20
187.8395279763342
 30
0.0
 10
82.24954618461334
 20
187.887472147521
 30
0.0
  0
SPLINE
  5
262
330
20F
100
AcDbEntity
  8
DV3_Standard
  6
Continuous
 62
     7
100
AcDbSpline
210
0.0
220
0.0
230
1.0
 70
     8
 71
     3
 72
    39
 73
    35
 74
     0
 42
0.000000000069093
 43
0.0000000001
 40
0.0
 40
0.0
 40
0.0
 40
0.0
 40
0.0015328937913416
 40
0.0347713034978933
 40
0.0680097132044451
 40
0.1012481229109969
 40
0.1344865326175487
 40
0.1677249423241005
 40
0.2009633520306522
 40
0.234201761737204
 40
0.2674401714437558
 40
0.3006785811503075
 40
0.3339169908568593
 40
0.3671554005634111
 40
0.4003938102699628
 40
0.4336322199765146
 40
0.4668706296830664
 40
0.5001090393896181
 40
0.5333474490961699
 40
0.5665858588027216
 40
0.5998242685092734
 40
0.6330626782158252
 40
0.666301087922377
 40
0.6995394976289288
 40
0.7327779073354805
 40
0.7660163170420323
 40
0.799254726748584
 40
0.8324931364551359
 40
0.8657315461616876
 40
0.8989699558682395
 40
0.9322083655747911
 40
0.9654467752813429
 40
0.9986851849878947
 40
1.0
 40
1.0
 40
1.0
 40
1.0
 10
60.87684041871683
 20
153.6747918106921
 30
0.0
 10
60.84172660918424
 20
153.6196338302313
 30
0.0
 10
60.0510424220526
 20
152.3669096407802
 30
0.0
 10
58.76337787447725
 20
149.8488325021262
 30
0.0
 10
57.63303966082215
 20
146.0293142138861
 30
0.0
 10
57.27950836592726
 20
142.1470912964766
 30
0.0
 10
57.70878700278696
 20
138.2680591256938
 30
0.0
 10
58.91358695378016
 20
134.458058734339
 30
0.0
 10
60.87346145847097
 20
130.7817597539267
 30
0.0
 10
63.55514320794711
 20
127.3015613548371
 30
0.0
 10
66.91311687305024
 20
124.0765363843077
 30
0.0
 10
70.89038758023473
 20
121.1614219059778
 30
0.0
 10
75.41944822572874
 20
118.6057006263899
 30
0.0
 10
80.42342584339474
 20
116.4527500604684
 30
0.0
 10
85.8173886414279
 20
114.7391146908004
 30
0.0
 10
91.5097831474314
 20
113.4938794746169
 30
0.0
 10
97.4039924538992
 20
112.7381819266784
 30
0.0
 10
103.3999729283421
 20
112.4848473518529
 30
0.0
 10
109.3959541790802
 20
112.7381773809139
 30
0.0
 10
115.2901656826883
 20
113.4938706005424
 30
0.0
 10
120.9825640294164
 20
114.7391020033458
 30
0.0
 10
126.3765314351946
 20
116.4527341059649
 30
0.0
 10
131.3805145707481
 20
118.6056821660674
 30
0.0
 10
135.9095812882775
 20
121.1614017975038
 30
0.0
 10
139.8868576419001
 20
124.0765148947469
 30
0.0
 10
143.2448383476275
 20
127.3015406295537
 30
0.0
 10
145.9265258340324
 20
130.7817398708555
 30
0.0
 10
147.8864055695595
 20
134.4580405933844
 30
0.0
 10
149.0912098465355
 20
138.2680433758078
 30
0.0
 10
149.5204917119466
 20
142.1470784379528
 30
0.0
 10
149.1669624084088
 20
146.0293045710681
 30
0.0
 10
148.0366248730734
 20
149.84882621784
 30
0.0
 10
146.7530888919444
 20
152.358831174405
 30
0.0
 10
145.9681880760099
 20
153.603915842095
 30
0.0
 10
145.938132359319
 20
153.6512434306832
 30
0.0
  0
ARC
  5
263
330
20F
100
AcDbEntity
  8
DV3_Standard
  6
Continuous
 62
     7
100
AcDbCircle
 10
44.3652018452
 20
204.3368395694
 30
0.0
 40
41.30220333755842
100
AcDbArc
 50
324.690237292
 51
336.4594842616
  0
ARC
  5
264
330
20F
100
AcDbEntity
  8
DV3_Standard
  6
Continuous
 62
     7
100
AcDbCircle
 10
103.3975267801
 20
200.1601088768
 30
0.0
 40
18.56772193218434
100
AcDbArc
 50
17.8835695922
 51
162.0616394472
  0
ARC
  5
265
330
20F
100
AcDbEntity
  8
DV3_Standard
  6
Continuous
 62
     7
100
AcDbCircle
 10
162.4303201897
 20
204.329866184
 30
0.0
 40
41.2945193699645
100
AcDbArc
 50
203.5208516531
 51
215.3066462705
  0
ARC
  5
266
330
20F
100
AcDbEntity
  8
DV3_Standard
  6
Continuous
 62
     7
100
AcDbCircle
 10
-18.3910895807
 20
66.9314465386
 30
0.0
 40
185.8347015687747
100
AcDbArc
 50
27.7026112212
 51
37.6577022045
  0
ARC
  5
267
330
20F
100
AcDbEntity
  8
DV3_Standard
  6
Continuous
 62
     7
100
AcDbCircle
 10
221.4695989318
 20
69.331921773
 30
0.0
 40
181.4224261945844
100
AcDbArc
 50
142.2240714742
 51
152.4119519502
  0
ARC
  5
268
330
20F
100
AcDbEntity
  8
DV3_Standard
  6
Continuous
 62
     7
100
AcDbCircle
 10
154.5526243463
 20
202.4772837073
 30
0.0
 40
33.3449125598728
100
AcDbArc
 50
175.779410955
 51
205.4584097533
  0
LINE
  5
269
330
20F
100
AcDbEntity
  8
DV3_Standard
  6
Continuous
 62
     7
100
AcDbLine
 10
124.5615659703
 20
187.8575103437
 30
0.0
 11
124.4455845301
 21
188.1437793511
 31
0.0
  0
ARC
  5
26A
330
20F
100
AcDbEntity
  8
DV3_Standard
  6
Continuous
 62
     7
100
AcDbCircle
 10
118.7596728933
 20
204.8783699768
 30
0.0
 40
2.539305594128116
100
AcDbArc
 50
2.0023860607
 51
5.6083794716
  0
ARC
  5
26B
330
20F
100
AcDbEntity
  8
DV3_Standard
  6
Continuous
 62
     7
100
AcDbCircle
 10
118.4626770676
 20
204.9582897011
 30
0.0
 40
2.835337945355258
100
AcDbArc
 50
358.9751365654
 51
359.6584142164
  0
ARC
  5
26C
330
20F
100
AcDbEntity
  8
DV3_Standard
  6
Continuous
 62
     7
100
AcDbCircle
 10
118.3625183095
 20
204.8248501673
 30
0.0
 40
2.93783131451972
100
AcDbArc
 50
2.3140631873
 51
21.6417574534
  0
ARC
  5
26D
330
20F
100
AcDbEntity
  8
DV3_Standard
  6
Continuous
 62
     7
100
AcDbCircle
 10
88.5007998849
 20
204.8217575522
 30
0.0
 40
2.998618700903947
100
AcDbArc
 50
158.7611044583
 51
178.1116110098
  0
ARC
  5
26E
330
20F
100
AcDbEntity
  8
DV3_Standard
  6
Continuous
 62
     7
100
AcDbCircle
 10
52.0212215824
 20
202.4897236089
 30
0.0
 40
33.57364169612878
100
AcDbArc
 50
334.1200676712
 51
4.2047251458
  0
CIRCLE
  5
26F
330
20F
100
AcDbEntity
  8
DV3_Standard
  6
Continuous
 62
     7
100
AcDbCircle
 10
50.0
 20
204.79087143
 30
0.0
 40
12.17155386858166
  0
CIRCLE
  5
270
330
20F
100
AcDbEntity
  8
DV3_Standard
  6
Continuous
 62
     7
100
AcDbCircle
 10
50.0
 20
204.79087143
 30
0.0
 40
12.25
  0
LINE
  5
271
330
20F
100
AcDbEntity
  8
DV3_Standard
  6
Continuous
 62
     7
100
AcDbLine
 10
66.0
 20
186.79087143
 30
0.0
 11
66.0
 21
222.79087143
 31
0.0
  0
LINE
  5
272
330
20F
100
AcDbEntity
  8
DV3_Standard
  6
Continuous
 62
     7
100
AcDbLine
 10
34.0
 20
186.79087143
 30
0.0
 11
34.0
 21
222.79087143
 31
0.0
  0
LINE
  5
273
330
20F
100
AcDbEntity
  8
DV3_Standard
  6
Continuous
 62
     7
100
AcDbLine
 10
66.0
 20
191.79087143
 30
0.0
 11
66.65
 21
191.79087143
 31
0.0
  0
LINE
  5
274
330
20F
100
AcDbEntity
  8
DV3_Standard
  6
Continuous
 62
     7
100
AcDbLine
 10
66.65
 20
217.79087143
 30
0.0
 11
66.0
 21
217.79087143
 31
0.0
  0
LINE
  5
275
330
20F
100
AcDbEntity
  8
DV3_Standard
  6
Continuous
 62
     7
100
AcDbLine
 10
34.0
 20
186.79087143
 30
0.0
 11
66.0
 21
186.79087143
 31
0.0
  0
LINE
  5
276
330
20F
100
AcDbEntity
  8
DV3_Standard
  6
Continuous
 62
     7
100
AcDbLine
 10
66.0
 20
222.79087143
 30
0.0
 11
60.5
 21
222.79087143
 31
0.0
  0
LINE
  5
277
330
20F
100
AcDbEntity
  8
DV3_Standard
  6
Continuous
 62
     7
100
AcDbLine
 10
39.5
 20
222.79087143
 30
0.0
 11
34.0
 21
222.79087143
 31
0.0
  0
LINE
  5
278
330
20F
100
AcDbEntity
  8
DV3_Standard
  6
Continuous
 62
     7
100
AcDbLine
 10
32.75
 20
195.29087143
 30
0.0
 11
34.0
 21
195.29087143
 31
0.0
  0
LINE
  5
279
330
20F
100
AcDbEntity
  8
DV3_Standard
  6
Continuous
 62
     7
100
AcDbLine
 10
34.0
 20
214.29087143
 30
0.0
 11
32.75
 21
214.29087143
 31
0.0
  0
LINE
  5
27A
330
20F
100
AcDbEntity
  8
DV3_Standard
  6
Continuous
 62
     7
100
AcDbLine
 10
74.3418375494
 20
216.29087143
 30
0.0
 11
74.3418375494
 21
193.29087143
 31
0.0
  0
LINE
  5
27B
330
20F
100
AcDbEntity
  8
DV3_Standard
  6
Continuous
 62
     7
100
AcDbLine
 10
74.15
 20
222.79087143
 30
0.0
 11
74.15
 21
186.79087143
 31
0.0
  0
LINE
  5
27C
330
20F
100
AcDbEntity
  8
DV3_Standard
  6
Continuous
 62
     7
100
AcDbLine
 10
66.65
 20
222.79087143
 30
0.0
 11
66.65
 21
186.79087143
 31
0.0
  0
ARC
  5
27D
330
20F
100
AcDbEntity
  8
DV3_Standard
  6
Continuous
 62
     7
100
AcDbCircle
 10
103.4
 20
204.79087143
 30
0.0
 40
15.49999999999996
100
AcDbArc
 50
36.6392139443
 51
145.1933079486
  0
LINE
  5
27E
330
20F
100
AcDbEntity
  8
DV3_Standard
  6
Continuous
 62
     7
100
AcDbLine
 10
115.6576921833
 20
214.04087143
 30
0.0
 11
115.8373429638
 21
214.04087143
 31
0.0
  0
LINE
  5
27F
330
20F
100
AcDbEntity
  8
DV3_Standard
  6
Continuous
 62
     7
100
AcDbLine
 10
74.3418375494
 20
193.29087143
 30
0.0
 11
84.2165175119
 21
193.29087143
 31
0.0
  0
LINE
  5
280
330
20F
100
AcDbEntity
  8
DV3_Standard
  6
Continuous
 62
     7
100
AcDbLine
 10
92.9916106407
 20
216.29087143
 30
0.0
 11
74.3418375494
 21
216.29087143
 31
0.0
  0
ARC
  5
281
330
20F
100
AcDbEntity
  8
DV3_Standard
  6
Continuous
 62
     7
100
AcDbCircle
 10
-425.5258949559
 20
204.79087143
 30
0.0
 40
500.0000000000002
100
AcDbArc
 50
1.3179191428
 51
2.0630938545
  0
ARC
  5
282
330
20F
100
AcDbEntity
  8
DV3_Standard
  6
Continuous
 62
     7
100
AcDbCircle
 10
-425.5258949559
 20
204.79087143
 30
0.0
 40
500.0000000000003
100
AcDbArc
 50
357.9369061455
 51
358.6820808572
  0
LINE
  5
283
330
20F
100
AcDbEntity
  8
DV3_Standard
  6
Continuous
 62
     7
100
AcDbLine
 10
66.65
 20
186.79087143
 30
0.0
 11
74.15
 21
186.79087143
 31
0.0
  0
LINE
  5
284
330
20F
100
AcDbEntity
  8
DV3_Standard
  6
Continuous
 62
     7
100
AcDbLine
 10
74.15
 20
222.79087143
 30
0.0
 11
66.65
 21
222.79087143
 31
0.0
  0
CIRCLE
  5
285
330
20F
100
AcDbEntity
  8
DV3_Standard
  6
Continuous
 62
     7
100
AcDbCircle
 10
50.0
 20
204.79087143
 30
0.0
 40
12.4
  0
ENDBLK
  5
287
330
20F
100
AcDbEntity
  8
0
100
AcDbBlockEnd
  0
ENDSEC
  0
SECTION
  2
ENTITIES
  0
ARC
  5
5E
330
1F
100
AcDbEntity
  8
Default
  6
Continuous
 62
     7
100
AcDbCircle
 10
50.0
 20
739.317742103
 30
0.0
 40
34.96448250551304
100
AcDbArc
 50
249.2282741921
 51
290.7717258079
  0
ARC
  5
5F
330
1F
100
AcDbEntity
  8
Default
  6
Continuous
 62
     7
100
AcDbCircle
 10
50.0
 20
637.9341038782
 30
0.0
 40
34.96448250551304
100
AcDbArc
 50
69.2282741921
 51
110.7717258079
  0
INSERT
  5
61
330
1F
100
AcDbEntity
  8
Default
100
AcDbBlockReference
  2
SEANNOT_GROUP
 10
0.0
 20
0.0
 30
0.0
  0
INSERT
  5
68
330
1F
100
AcDbEntity
  8
Default
100
AcDbBlockReference
  2
SEANNOT_GROUP1
 10
0.0
 20
0.0
 30
0.0
  0
INSERT
  5
6E
330
1F
100
AcDbEntity
  8
Default
100
AcDbBlockReference
  2
SEANNOT_GROUP2
 10
0.0
 20
0.0
 30
0.0
  0
INSERT
  5
74
330
1F
100
AcDbEntity
  8
Default
100
AcDbBlockReference
  2
SEANNOT_GROUP3
 10
0.0
 20
0.0
 30
0.0
  0
LINE
  5
79
330
1F
100
AcDbEntity
  8
Default
  6
Continuous
 62
     7
100
AcDbLine
 10
49.9
 20
991.1009229906
 30
0.0
 11
50.1
 21
991.1009229906
 31
0.0
  0
INSERT
  5
7B
330
1F
100
AcDbEntity
  8
Default
100
AcDbBlockReference
  2
SEANNOT_GROUP4
 10
0.0
 20
0.0
 30
0.0
  0
LINE
  5
80
330
1F
100
AcDbEntity
  8
Default
  6
Continuous
 62
     7
100
AcDbLine
 10
49.9
 20
392.6259229906
 30
0.0
 11
50.1
 21
392.6259229906
 31
0.0
  0
INSERT
  5
82
330
1F
100
AcDbEntity
  8
Default
100
AcDbBlockReference
  2
SEANNOT_GROUP5
 10
0.0
 20
0.0
 30
0.0
  0
INSERT
  5
88
330
1F
100
AcDbEntity
  8
Default
100
AcDbBlockReference
  2
SE
 10
0.0
 20
0.0
 30
0.0
  0
INSERT
  5
174
330
1F
100
AcDbEntity
  8
Default
100
AcDbBlockReference
  2
SE1
 10
0.0
 20
0.0
 30
0.0
  0
INSERT
  5
210
330
1F
100
AcDbEntity
  8
Default
100
AcDbBlockReference
  2
SE2
 10
0.0
 20
0.0
 30
0.0
  0
TEXT
  5
289
330
1F
100
AcDbEntity
  8
Default
  6
Continuous
 62
     7
100
AcDbText
 10
5.9362635081
 20
53.4225120485
 30
0.0
 40
10.0
  1
Grohe AG^J
  7
SEACAD_seiso_ttf
 11
5.9362635081
 21
63.4225120485
 31
0.0
100
AcDbText
 73
     3
  0
TEXT
  5
28A
330
1F
100
AcDbEntity
  8
Default
  6
Continuous
 62
     7
100
AcDbText
 10
5.9362635081
 20
37.0588756849
 30
0.0
 40
10.0
  1
 
  7
SEACAD_seiso_ttf
 11
5.9362635081
 21
47.0588756849
 31
0.0
100
AcDbText
 73
     3
  0
TEXT
  5
28B
330
1F
100
AcDbEntity
  8
Default
  6
Continuous
 62
     7
100
AcDbText
 10
5.9362635081
 20
20.6952393213
 30
0.0
 40
10.0
  1
ecn: 
  7
SEACAD_seiso_ttf
 11
5.9362635081
 21
30.6952393213
 31
0.0
100
AcDbText
 73
     3
  0
TEXT
  5
28C
330
1F
100
AcDbEntity
  8
Default
  6
Continuous
 62
     7
100
AcDbText
 10
5.9362635081
 20
4.3316029576
 30
0.0
 40
10.0
  1
unit: mm
  7
SEACAD_seiso_ttf
 11
5.9362635081
 21
14.3316029576
 31
0.0
100
AcDbText
 73
     3
  0
LINE
  5
28D
330
1F
100
AcDbEntity
  8
Default
  6
Continuous
 62
     7
100
AcDbLine
 10
0.0
 20
0.0
 30
0.0
 11
100.0
 21
0.0
 31
0.0
  0
LINE
  5
28E
330
1F
100
AcDbEntity
  8
Default
  6
Continuous
 62
     7
100
AcDbLine
 10
0.0
 20
0.0
 30
0.0
 11
0.0
 21
100.0
 31
0.0
  0
TEXT
  5
28F
330
1F
100
AcDbEntity
  8
Default
  6
Continuous
 62
     7
100
AcDbText
 10
24.3923665681
 20
-18.2375342018
 30
0.0
 40
10.0
  1
100 mm
  7
SEACAD_seiso_ttf
 11
24.3923665681
 21
-8.2375342018
 31
0.0
100
AcDbText
 73
     3
  0
TEXT
  5
290
330
1F
100
AcDbEntity
  8
Default
  6
Continuous
 62
     7
100
AcDbText
 10
-7.6150308803
 20
24.6231930421
 30
0.0
 40
10.0
  1
100 mm
 50
90.0
  7
SEACAD_seiso_ttf
 11
-17.6150308803
 21
24.6231930421
 31
0.0
100
AcDbText
 73
     3
  0
TEXT
  5
291
330
1F
100
AcDbEntity
  8
Default
  6
Continuous
 62
     7
100
AcDbText
 10
28.4878128572
 20
20.0907663715
 30
0.0
 40
10.0
  1
213757
  7
SEACAD_seiso_ttf
 11
28.4878128572
 21
30.0907663715
 31
0.0
100
AcDbText
 73
     3
  0
TEXT
  5
292
330
1F
100
AcDbEntity
  8
Default
  6
Continuous
 62
     7
100
AcDbText
 10
5.9012241913
 20
36.7242780188
 30
0.0
 40
10.0
  1
28917000
  7
SEACAD_seiso_ttf
 11
5.9012241913
 21
46.7242780188
 31
0.0
100
AcDbText
 73
     3
  0
ENDSEC
  0
SECTION
  2
OBJECTS
  0
DICTIONARY
  5
C
330
0
100
AcDbDictionary
281
     1
  3
ACAD_GROUP
350
D
  3
ACAD_LAYOUT
350
1A
  3
ACAD_MLEADERSTYLE
350
296
  3
ACAD_MLINESTYLE
350
17
  3
ACAD_PLOTSETTINGS
350
19
  3
ACAD_PLOTSTYLENAME
350
E
  3
ACAD_SCALELIST
350
3B
  3
ACAD_TABLESTYLE
350
295
  3
ACAD_VISUALSTYLE
350
2A
  3
AcDbVariableDictionary
350
293
  0
DICTIONARY
  5
D
102
{ACAD_REACTORS
330
C
102
}
330
C
100
AcDbDictionary
281
     1
  0
DICTIONARY
  5
1A
102
{ACAD_REACTORS
330
C
102
}
330
C
100
AcDbDictionary
281
     1
  3
Layout1
350
1E
  3
Model
350
22
  0
DICTIONARY
  5
296
102
{ACAD_REACTORS
330
C
102
}
330
C
100
AcDbDictionary
281
     1
  0
DICTIONARY
  5
17
102
{ACAD_REACTORS
330
C
102
}
330
C
100
AcDbDictionary
281
     1
  3
Standard
350
18
  0
DICTIONARY
  5
19
102
{ACAD_REACTORS
330
C
102
}
330
C
100
AcDbDictionary
281
     1
  0
ACDBDICTIONARYWDFLT
  5
E
102
{ACAD_REACTORS
330
C
102
}
330
C
100
AcDbDictionary
281
     1
  3
Normal
350
F
100
AcDbDictionaryWithDefault
340
F
  0
DICTIONARY
  5
3B
102
{ACAD_REACTORS
330
C
102
}
330
C
100
AcDbDictionary
281
     1
  3
A0
350
3C
  3
A1
350
3D
  3
A2
350
3E
  3
A3
350
3F
  3
A4
350
40
  3
A5
350
41
  3
A6
350
42
  3
A7
350
43
  3
A8
350
44
  3
A9
350
45
  3
B0
350
46
  3
B1
350
47
  3
B2
350
48
  3
B3
350
49
  3
B4
350
4A
  3
B5
350
4B
  3
B6
350
4C
  3
B7
350
4D
  3
B8
350
4E
  3
B9
350
4F
  3
C0
350
50
  3
C1
350
51
  3
C2
350
52
  3
C3
350
53
  3
C4
350
54
  3
C5
350
55
  3
C6
350
56
  3
C7
350
57
  3
C8
350
58
  3
C9
350
59
  3
D0
350
5A
  3
D1
350
5B
  3
D2
350
5C
  0
DICTIONARY
  5
295
102
{ACAD_REACTORS
330
C
102
}
330
C
100
AcDbDictionary
281
     1
  0
DICTIONARY
  5
2A
102
{ACAD_REACTORS
330
C
102
}
330
C
100
AcDbDictionary
281
     1
  3
2dWireframe
350
2F
  3
3D Hidden
350
31
  3
3dWireframe
350
30
  3
Basic
350
32
  3
Brighten
350
36
  3
ColorChange
350
3A
  3
Conceptual
350
34
  3
Dim
350
35
  3
Facepattern
350
39
  3
Flat
350
2B
  3
FlatWithEdges
350
2C
  3
Gouraud
350
2D
  3
GouraudWithEdges
350
2E
  3
Linepattern
350
38
  3
Realistic
350
33
  3
Thicken
350
37
  0
DICTIONARY
  5
293
102
{ACAD_REACTORS
330
C
102
}
330
C
100
AcDbDictionary
281
     1
  3
CANNOSCALE
350
294
  3
PSOLHEIGHT
350
298
  3
PSOLWIDTH
350
297
  0
LAYOUT
  5
1E
102
{ACAD_REACTORS
330
1A
102
}
330
1A
100
AcDbPlotSettings
  1

  2
none_device
  4

  6

 40
0.0
 41
0.0
 42
0.0
 43
0.0
 44
0.0
 45
0.0
 46
0.0
 47
0.0
 48
0.0
 49
0.0
140
0.0
141
0.0
142
1.0
143
1.0
 70
   688
 72
     0
 73
     0
 74
     5
  7

 75
    16
147
1.0
148
0.0
149
0.0
100
AcDbLayout
  1
Layout1
 70
     1
 71
     1
 10
0.0
 20
0.0
 11
1682.0
 21
2378.0
 12
0.0
 22
0.0
 32
0.0
 14
0.0
 24
0.0
 34
0.0
 15
1682.0
 25
2378.0
 35
0.0
146
0.0
 13
0.0
 23
0.0
 33
0.0
 16
1.0
 26
0.0
 36
0.0
 17
0.0
 27
1.0
 37
0.0
 76
     0
330
1B
  0
LAYOUT
  5
22
102
{ACAD_REACTORS
330
1A
102
}
330
1A
100
AcDbPlotSettings
  1

  2
none_device
  4

  6

 40
0.0
 41
0.0
 42
0.0
 43
0.0
 44
0.0
 45
0.0
 46
0.0
 47
0.0
 48
0.0
 49
0.0
140
0.0
141
0.0
142
1.0
143
1.0
 70
  1712
 72
     0
 73
     0
 74
     0
  7

 75
     0
147
1.0
148
0.0
149
0.0
100
AcDbLayout
  1
Model
 70
     1
 71
     0
 10
0.0
 20
0.0
 11
1682.0
 21
2378.0
 12
0.0
 22
0.0
 32
0.0
 14
0.0
 24
0.0
 34
0.0
 15
1682.0
 25
2378.0
 35
0.0
146
0.0
 13
0.0
 23
0.0
 33
0.0
 16
1.0
 26
0.0
 36
0.0
 17
0.0
 27
1.0
 37
0.0
 76
     0
330
1F
331
29
  0
MLINESTYLE
  5
18
102
{ACAD_REACTORS
330
17
102
}
330
17
100
AcDbMlineStyle
  2
Standard
 70
     0
  3

 62
   256
 51
90.0
 52
90.0
 71
     2
 49
0.5
 62
   256
  6
BYLAYER
 49
-0.5
 62
   256
  6
BYLAYER
  0
ACDBPLACEHOLDER
  5
F
102
{ACAD_REACTORS
330
E
102
}
330
E
  0
SCALE
  5
3C
102
{ACAD_REACTORS
330
3B
102
}
330
3B
100
AcDbScale
 70
     0
300
1:1
140
1.0
141
1.0
290
     1
  0
SCALE
  5
3D
102
{ACAD_REACTORS
330
3B
102
}
330
3B
100
AcDbScale
 70
     0
300
1:2
140
1.0
141
2.0
290
     0
  0
SCALE
  5
3E
102
{ACAD_REACTORS
330
3B
102
}
330
3B
100
AcDbScale
 70
     0
300
1:4
140
1.0
141
4.0
290
     0
  0
SCALE
  5
3F
102
{ACAD_REACTORS
330
3B
102
}
330
3B
100
AcDbScale
 70
     0
300
1:5
140
1.0
141
5.0
290
     0
  0
SCALE
  5
40
102
{ACAD_REACTORS
330
3B
102
}
330
3B
100
AcDbScale
 70
     0
300
1:8
140
1.0
141
8.0
290
     0
  0
SCALE
  5
41
102
{ACAD_REACTORS
330
3B
102
}
330
3B
100
AcDbScale
 70
     0
300
1:10
140
1.0
141
10.0
290
     0
  0
SCALE
  5
42
102
{ACAD_REACTORS
330
3B
102
}
330
3B
100
AcDbScale
 70
     0
300
1:16
140
1.0
141
16.0
290
     0
  0
SCALE
  5
43
102
{ACAD_REACTORS
330
3B
102
}
330
3B
100
AcDbScale
 70
     0
300
1:20
140
1.0
141
20.0
290
     0
  0
SCALE
  5
44
102
{ACAD_REACTORS
330
3B
102
}
330
3B
100
AcDbScale
 70
     0
300
1:30
140
1.0
141
30.0
290
     0
  0
SCALE
  5
45
102
{ACAD_REACTORS
330
3B
102
}
330
3B
100
AcDbScale
 70
     0
300
1:40
140
1.0
141
40.0
290
     0
  0
SCALE
  5
46
102
{ACAD_REACTORS
330
3B
102
}
330
3B
100
AcDbScale
 70
     0
300
1:50
140
1.0
141
50.0
290
     0
  0
SCALE
  5
47
102
{ACAD_REACTORS
330
3B
102
}
330
3B
100
AcDbScale
 70
     0
300
1:100
140
1.0
141
100.0
290
     0
  0
SCALE
  5
48
102
{ACAD_REACTORS
330
3B
102
}
330
3B
100
AcDbScale
 70
     0
300
2:1
140
2.0
141
1.0
290
     0
  0
SCALE
  5
49
102
{ACAD_REACTORS
330
3B
102
}
330
3B
100
AcDbScale
 70
     0
300
4:1
140
4.0
141
1.0
290
     0
  0
SCALE
  5
4A
102
{ACAD_REACTORS
330
3B
102
}
330
3B
100
AcDbScale
 70
     0
300
8:1
140
8.0
141
1.0
290
     0
  0
SCALE
  5
4B
102
{ACAD_REACTORS
330
3B
102
}
330
3B
100
AcDbScale
 70
     0
300
10:1
140
10.0
141
1.0
290
     0
  0
SCALE
  5
4C
102
{ACAD_REACTORS
330
3B
102
}
330
3B
100
AcDbScale
 70
     0
300
100:1
140
100.0
141
1.0
290
     0
  0
SCALE
  5
4D
102
{ACAD_REACTORS
330
3B
102
}
330
3B
100
AcDbScale
 70
     0
300
1/128" = 1'-0"
140
0.0078125
141
12.0
290
     0
  0
SCALE
  5
4E
102
{ACAD_REACTORS
330
3B
102
}
330
3B
100
AcDbScale
 70
     0
300
1/64" = 1'-0"
140
0.015625
141
12.0
290
     0
  0
SCALE
  5
4F
102
{ACAD_REACTORS
330
3B
102
}
330
3B
100
AcDbScale
 70
     0
300
1/32" = 1'-0"
140
0.03125
141
12.0
290
     0
  0
SCALE
  5
50
102
{ACAD_REACTORS
330
3B
102
}
330
3B
100
AcDbScale
 70
     0
300
1/16" = 1'-0"
140
0.0625
141
12.0
290
     0
  0
SCALE
  5
51
102
{ACAD_REACTORS
330
3B
102
}
330
3B
100
AcDbScale
 70
     0
300
3/32" = 1'-0"
140
0.09375
141
12.0
290
     0
  0
SCALE
  5
52
102
{ACAD_REACTORS
330
3B
102
}
330
3B
100
AcDbScale
 70
     0
300
1/8" = 1'-0"
140
0.125
141
12.0
290
     0
  0
SCALE
  5
53
102
{ACAD_REACTORS
330
3B
102
}
330
3B
100
AcDbScale
 70
     0
300
3/16" = 1'-0"
140
0.1875
141
12.0
290
     0
  0
SCALE
  5
54
102
{ACAD_REACTORS
330
3B
102
}
330
3B
100
AcDbScale
 70
     0
300
1/4" = 1'-0"
140
0.25
141
12.0
290
     0
  0
SCALE
  5
55
102
{ACAD_REACTORS
330
3B
102
}
330
3B
100
AcDbScale
 70
     0
300
3/8" = 1'-0"
140
0.375
141
12.0
290
     0
  0
SCALE
  5
56
102
{ACAD_REACTORS
330
3B
102
}
330
3B
100
AcDbScale
 70
     0
300
1/2" = 1'-0"
140
0.5
141
12.0
290
     0
  0
SCALE
  5
57
102
{ACAD_REACTORS
330
3B
102
}
330
3B
100
AcDbScale
 70
     0
300
3/4" = 1'-0"
140
0.75
141
12.0
290
     0
  0
SCALE
  5
58
102
{ACAD_REACTORS
330
3B
102
}
330
3B
100
AcDbScale
 70
     0
300
1" = 1'-0"
140
1.0
141
12.0
290
     0
  0
SCALE
  5
59
102
{ACAD_REACTORS
330
3B
102
}
330
3B
100
AcDbScale
 70
     0
300
1-1/2" = 1'-0"
140
1.5
141
12.0
290
     0
  0
SCALE
  5
5A
102
{ACAD_REACTORS
330
3B
102
}
330
3B
100
AcDbScale
 70
     0
300
3" = 1'-0"
140
3.0
141
12.0
290
     0
  0
SCALE
  5
5B
102
{ACAD_REACTORS
330
3B
102
}
330
3B
100
AcDbScale
 70
     0
300
6" = 1'-0"
140
6.0
141
12.0
290
     0
  0
SCALE
  5
5C
102
{ACAD_REACTORS
330
3B
102
}
330
3B
100
AcDbScale
 70
     0
300
1'-0" = 1'-0"
140
12.0
141
12.0
290
     0
  0
VISUALSTYLE
  5
2F
102
{ACAD_REACTORS
330
2A
102
}
330
2A
100
AcDbVisualStyle
  2
2dWireframe
 70
     4
 71
     0
 72
     2
 73
     0
 90
        0
 40
-0.6
 41
-30.0
 62
     5
 63
     7
 74
     1
 91
        4
 64
     7
 65
   257
 75
     1
175
     1
 42
1.0
 92
        0
 66
   257
 43
1.0
 76
     1
 77
     6
 78
     2
 67
     7
 79
     5
170
     0
171
     0
290
     0
174
     0
 93
        1
 44
0.0
173
     0
291
     0
 45
0.0
1001
ACAD
1000
AcDbSavedByObjectVersion
1070
     0
  0
VISUALSTYLE
  5
31
102
{ACAD_REACTORS
330
2A
102
}
330
2A
100
AcDbVisualStyle
  2
3D Hidden
 70
     6
 71
     1
 72
     2
 73
     2
 90
        0
 40
-0.6
 41
-30.0
 62
     5
 63
     7
 74
     2
 91
        2
 64
     7
 65
   257
 75
     2
175
     1
 42
40.0
 92
        0
 66
   257
 43
1.0
 76
     1
 77
     6
 78
     2
 67
     7
 79
     3
170
     0
171
     0
290
     0
174
     0
 93
        1
 44
0.0
173
     0
291
     0
 45
0.0
1001
ACAD
1000
AcDbSavedByObjectVersion
1070
     0
  0
VISUALSTYLE
  5
30
102
{ACAD_REACTORS
330
2A
102
}
330
2A
100
AcDbVisualStyle
  2
3dWireframe
 70
     5
 71
     0
 72
     2
 73
     0
 90
        0
 40
-0.6
 41
-30.0
 62
     5
 63
     7
 74
     1
 91
        4
 64
     7
 65
   257
 75
     1
175
     1
 42
1.0
 92
        0
 66
   257
 43
1.0
 76
     1
 77
     6
 78
     2
 67
     7
 79
     5
170
     0
171
     0
290
     0
174
     0
 93
        1
 44
0.0
173
     0
291
     0
 45
0.0
1001
ACAD
1000
AcDbSavedByObjectVersion
1070
     0
  0
VISUALSTYLE
  5
32
102
{ACAD_REACTORS
330
2A
102
}
330
2A
100
AcDbVisualStyle
  2
Basic
 70
     7
 71
     1
 72
     0
 73
     1
 90
        0
 40
-0.6
 41
-30.0
 62
     5
 63
     7
 74
     0
 91
        4
 64
     7
 65
   257
 75
     1
175
     1
 42
1.0
 92
        8
 66
     7
 43
1.0
 76
     1
 77
     6
 78
     2
 67
     7
 79
     5
170
     0
171
     0
290
     0
174
     0
 93
        1
 44
0.0
173
     0
291
     1
 45
0.0
1001
ACAD
1000
AcDbSavedByObjectVersion
1070
     0
  0
VISUALSTYLE
  5
36
102
{ACAD_REACTORS
330
2A
102
}
330
2A
100
AcDbVisualStyle
  2
Brighten
 70
    12
 71
     2
 72
     2
 73
     0
 90
        0
 40
-0.6
 41
-30.0
 62
     5
 63
     7
 74
     1
 91
        4
 64
     7
 65
   257
 75
     1
175
     1
 42
1.0
 92
        8
 66
     7
 43
1.0
 76
     1
 77
     6
 78
     2
 67
     7
 79
     5
170
     0
171
     0
290
     0
174
     0
 93
        1
 44
50.0
173
     0
291
     1
 45
0.0
1001
ACAD
1000
AcDbSavedByObjectVersion
1070
     0
  0
VISUALSTYLE
  5
3A
102
{ACAD_REACTORS
330
2A
102
}
330
2A
100
AcDbVisualStyle
  2
ColorChange
 70
    16
 71
     2
 72
     2
 73
     3
 90
        0
 40
-0.6
 41
-30.0
 62
     5
 63
     8
 74
     1
 91
        4
 64
     7
 65
   257
 75
     1
175
     1
 42
1.0
 92
        8
 66
     8
 43
1.0
 76
     1
 77
     6
 78
     2
 67
     7
 79
     5
170
     0
171
     0
290
     0
174
     0
 93
        1
 44
0.0
173
     0
291
     1
 45
0.0
1001
ACAD
1000
AcDbSavedByObjectVersion
1070
     0
  0
VISUALSTYLE
  5
34
102
{ACAD_REACTORS
330
2A
102
}
330
2A
100
AcDbVisualStyle
  2
Conceptual
 70
     9
 71
     3
 72
     2
 73
     0
 90
        0
 40
-0.6
 41
-30.0
 62
     5
 63
     7
 74
     2
 91
        2
 64
     7
 65
   257
 75
     1
175
     1
 42
40.0
 92
        8
 66
     7
 43
1.0
 76
     1
 77
     6
 78
     2
 67
     7
 79
     3
170
     0
171
     0
290
     0
174
     0
 93
        1
 44
0.0
173
     0
291
     0
 45
0.0
1001
ACAD
1000
AcDbSavedByObjectVersion
1070
     0
  0
VISUALSTYLE
  5
35
102
{ACAD_REACTORS
330
2A
102
}
330
2A
100
AcDbVisualStyle
  2
Dim
 70
    11
 71
     2
 72
     2
 73
     0
 90
        0
 40
-0.6
 41
-30.0
 62
     5
 63
     7
 74
     1
 91
        4
 64
     7
 65
   257
 75
     1
175
     1
 42
1.0
 92
        8
 66
     7
 43
1.0
 76
     1
 77
     6
 78
     2
 67
     7
 79
     5
170
     0
171
     0
290
     0
174
     0
 93
        1
 44
-50.0
173
     0
291
     1
 45
0.0
1001
ACAD
1000
AcDbSavedByObjectVersion
1070
     0
  0
VISUALSTYLE
  5
39
102
{ACAD_REACTORS
330
2A
102
}
330
2A
100
AcDbVisualStyle
  2
Facepattern
 70
    15
 71
     2
 72
     2
 73
     0
 90
        0
 40
-0.6
 41
-30.0
 62
     5
 63
     7
 74
     1
 91
        4
 64
     7
 65
   257
 75
     1
175
     1
 42
1.0
 92
        8
 66
     7
 43
1.0
 76
     1
 77
     6
 78
     2
 67
     7
 79
     5
170
     0
171
     0
290
     0
174
     0
 93
        1
 44
0.0
173
     0
291
     1
 45
0.0
1001
ACAD
1000
AcDbSavedByObjectVersion
1070
     0
  0
VISUALSTYLE
  5
2B
102
{ACAD_REACTORS
330
2A
102
}
330
2A
100
AcDbVisualStyle
  2
Flat
 70
     0
 71
     2
 72
     1
 73
     1
 90
        2
 40
-0.6
 41
30.0
 62
     5
 63
     7
 74
     0
 91
        4
 64
     7
 65
   257
 75
     1
175
     1
 42
1.0
 92
        8
 66
     7
 43
1.0
 76
     1
 77
     6
 78
     2
 67
     7
 79
     5
170
     0
171
     0
290
     0
174
     0
 93
       13
 44
0.0
173
     0
291
     1
 45
0.0
1001
ACAD
1000
AcDbSavedByObjectVersion
1070
     0
  0
VISUALSTYLE
  5
2C
102
{ACAD_REACTORS
330
2A
102
}
330
2A
100
AcDbVisualStyle
  2
FlatWithEdges
 70
     1
 71
     2
 72
     1
 73
     1
 90
        2
 40
-0.6
 41
30.0
 62
     5
 63
     7
 74
     1
 91
        4
 64
     7
 65
   257
 75
     1
175
     1
 42
1.0
 92
        0
 66
   257
 43
1.0
 76
     1
 77
     6
 78
     2
 67
     7
 79
     5
170
     0
171
     0
290
     0
174
     0
 93
       13
 44
0.0
173
     0
291
     1
 45
0.0
1001
ACAD
1000
AcDbSavedByObjectVersion
1070
     0
  0
VISUALSTYLE
  5
2D
102
{ACAD_REACTORS
330
2A
102
}
330
2A
100
AcDbVisualStyle
  2
Gouraud
 70
     2
 71
     2
 72
     2
 73
     1
 90
        2
 40
-0.6
 41
30.0
 62
     5
 63
     7
 74
     0
 91
        4
 64
     7
 65
   257
 75
     1
175
     1
 42
1.0
 92
        0
 66
     7
 43
1.0
 76
     1
 77
     6
 78
     2
 67
     7
 79
     5
170
     0
171
     0
290
     0
174
     0
 93
       13
 44
0.0
173
     0
291
     1
 45
0.0
1001
ACAD
1000
AcDbSavedByObjectVersion
1070
     0
  0
VISUALSTYLE
  5
2E
102
{ACAD_REACTORS
330
2A
102
}
330
2A
100
AcDbVisualStyle
  2
GouraudWithEdges
 70
     3
 71
     2
 72
     2
 73
     1
 90
        2
 40
-0.6
 41
30.0
 62
     5
 63
     7
 74
     1
 91
        4
 64
     7
 65
   257
 75
     1
175
     1
 42
1.0
 92
        0
 66
   257
 43
1.0
 76
     1
 77
     6
 78
     2
 67
     7
 79
     5
170
     0
171
     0
290
     0
174
     0
 93
       13
 44
0.0
173
     0
291
     1
 45
0.0
1001
ACAD
1000
AcDbSavedByObjectVersion
1070
     0
  0
VISUALSTYLE
  5
38
102
{ACAD_REACTORS
330
2A
102
}
330
2A
100
AcDbVisualStyle
  2
Linepattern
 70
    14
 71
     2
 72
     2
 73
     0
 90
        0
 40
-0.6
 41
-30.0
 62
     5
 63
     7
 74
     1
 91
        4
 64
     7
 65
   257
 75
     7
175
     7
 42
1.0
 92
        8
 66
     7
 43
1.0
 76
     1
 77
     6
 78
     2
 67
     7
 79
     5
170
     0
171
     0
290
     0
174
     0
 93
        1
 44
0.0
173
     0
291
     1
 45
0.0
1001
ACAD
1000
AcDbSavedByObjectVersion
1070
     0
  0
VISUALSTYLE
  5
33
102
{ACAD_REACTORS
330
2A
102
}
330
2A
100
AcDbVisualStyle
  2
Realistic
 70
     8
 71
     2
 72
     2
 73
     0
 90
        0
 40
-0.6
 41
-30.0
 62
     5
 63
     7
 74
     1
 91
        0
 64
     7
 65
   257
 75
     1
175
     1
 42
1.0
 92
        8
 66
     8
 43
1.0
 76
     1
 77
     6
 78
     2
 67
     7
 79
     5
170
     0
171
     0
290
     0
174
     0
 93
       13
 44
0.0
173
     0
291
     0
 45
0.0
1001
ACAD
1000
AcDbSavedByObjectVersion
1070
     0
  0
VISUALSTYLE
  5
37
102
{ACAD_REACTORS
330
2A
102
}
330
2A
100
AcDbVisualStyle
  2
Thicken
 70
    13
 71
     2
 72
     2
 73
     0
 90
        0
 40
-0.6
 41
-30.0
 62
     5
 63
     7
 74
     1
 91
        4
 64
     7
 65
   257
 75
     1
175
     1
 42
1.0
 92
       12
 66
     7
 43
1.0
 76
     1
 77
     6
 78
     2
 67
     7
 79
     5
170
     0
171
     0
290
     0
174
     0
 93
        1
 44
0.0
173
     0
291
     1
 45
0.0
1001
ACAD
1000
AcDbSavedByObjectVersion
1070
     0
  0
DICTIONARYVAR
  5
294
102
{ACAD_REACTORS
330
293
102
}
330
293
100
DictionaryVariables
280
     0
  1
1:1
  0
DICTIONARYVAR
  5
298
102
{ACAD_REACTORS
330
293
102
}
330
293
100
DictionaryVariables
280
     0
  1
80.000000
  0
DICTIONARYVAR
  5
297
102
{ACAD_REACTORS
330
293
102
}
330
293
100
DictionaryVariables
280
     0
  1
5.000000
  0
ENDSEC
  0
EOF
