  0
SECTION
  2
HEADER
  9
$ACADVER
  1
AC1027
  9
$ACADMAINTVER
 70
   125
  9
$DWGCODEPAGE
  3
ANSI_1252
  9
$LASTSAVEDBY
  1
danica
  9
$REQUIREDVERSIONS
160
                 0
  9
$INSBASE
 10
0.0
 20
0.0
 30
0.0
  9
$EXTMIN
 10
-8.252612384176245
 20
-72.4676976161465
 30
-0.0015258207003583
  9
$EXTMAX
 10
46.90661333351292
 20
-1.122241319144507
 30
0.0000000349246037
  9
$LIMMIN
 10
0.0
 20
0.0
  9
$LIMMAX
 10
12.0
 20
9.0
  9
$ORTHOMODE
 70
     0
  9
$REGENMODE
 70
     1
  9
$FILLMODE
 70
     1
  9
$QTEXTMODE
 70
     0
  9
$MIRRTEXT
 70
     0
  9
$LTSCALE
 40
1.0
  9
$ATTMODE
 70
     1
  9
$TEXTSIZE
 40
0.2
  9
$TRACEWID
 40
0.05
  9
$TEXTSTYLE
  7
Standard
  9
$CLAYER
  8
0
  9
$CELTYPE
  6
ByLayer
  9
$CECOLOR
 62
   256
  9
$CELTSCALE
 40
1.0
  9
$DISPSILH
 70
     0
  9
$DIMSCALE
 40
1.0
  9
$DIMASZ
 40
0.18
  9
$DIMEXO
 40
0.0625
  9
$DIMDLI
 40
0.38
  9
$DIMRND
 40
0.0
  9
$DIMDLE
 40
0.0
  9
$DIMEXE
 40
0.18
  9
$DIMTP
 40
0.0
  9
$DIMTM
 40
0.0
  9
$DIMTXT
 40
0.18
  9
$DIMCEN
 40
0.09
  9
$DIMTSZ
 40
0.0
  9
$DIMTOL
 70
     0
  9
$DIMLIM
 70
     0
  9
$DIMTIH
 70
     1
  9
$DIMTOH
 70
     1
  9
$DIMSE1
 70
     0
  9
$DIMSE2
 70
     0
  9
$DIMTAD
 70
     0
  9
$DIMZIN
 70
     0
  9
$DIMBLK
  1

  9
$DIMASO
 70
     1
  9
$DIMSHO
 70
     1
  9
$DIMPOST
  1

  9
$DIMAPOST
  1

  9
$DIMALT
 70
     0
  9
$DIMALTD
 70
     2
  9
$DIMALTF
 40
25.4
  9
$DIMLFAC
 40
1.0
  9
$DIMTOFL
 70
     0
  9
$DIMTVP
 40
0.0
  9
$DIMTIX
 70
     0
  9
$DIMSOXD
 70
     0
  9
$DIMSAH
 70
     0
  9
$DIMBLK1
  1

  9
$DIMBLK2
  1

  9
$DIMSTYLE
  2
Standard
  9
$DIMCLRD
 70
     0
  9
$DIMCLRE
 70
     0
  9
$DIMCLRT
 70
     0
  9
$DIMTFAC
 40
1.0
  9
$DIMGAP
 40
0.09
  9
$DIMJUST
 70
     0
  9
$DIMSD1
 70
     0
  9
$DIMSD2
 70
     0
  9
$DIMTOLJ
 70
     1
  9
$DIMTZIN
 70
     0
  9
$DIMALTZ
 70
     0
  9
$DIMALTTZ
 70
     0
  9
$DIMUPT
 70
     0
  9
$DIMDEC
 70
     4
  9
$DIMTDEC
 70
     4
  9
$DIMALTU
 70
     4
  9
$DIMALTTD
 70
     2
  9
$DIMTXSTY
  7
Standard
  9
$DIMAUNIT
 70
     0
  9
$DIMADEC
 70
     0
  9
$DIMALTRND
 40
0.0
  9
$DIMAZIN
 70
     0
  9
$DIMDSEP
 70
    46
  9
$DIMATFIT
 70
     3
  9
$DIMFRAC
 70
     0
  9
$DIMLDRBLK
  1

  9
$DIMLUNIT
 70
     4
  9
$DIMLWD
 70
    -2
  9
$DIMLWE
 70
    -2
  9
$DIMTMOVE
 70
     0
  9
$DIMFXL
 40
1.0
  9
$DIMFXLON
 70
     0
  9
$DIMJOGANG
 40
0.7853981633974483
  9
$DIMTFILL
 70
     0
  9
$DIMTFILLCLR
 70
     0
  9
$DIMARCSYM
 70
     0
  9
$DIMLTYPE
  6

  9
$DIMLTEX1
  6

  9
$DIMLTEX2
  6

  9
$DIMTXTDIRECTION
 70
     0
  9
$LUNITS
 70
     4
  9
$LUPREC
 70
     4
  9
$SKETCHINC
 40
0.1
  9
$FILLETRAD
 40
0.0
  9
$AUNITS
 70
     0
  9
$AUPREC
 70
     0
  9
$MENU
  1
.
  9
$ELEVATION
 40
0.0
  9
$PELEVATION
 40
0.0
  9
$THICKNESS
 40
0.0
  9
$LIMCHECK
 70
     0
  9
$CHAMFERA
 40
0.0
  9
$CHAMFERB
 40
0.0
  9
$CHAMFERC
 40
0.0
  9
$CHAMFERD
 40
0.0
  9
$SKPOLY
 70
     0
  9
$TDCREATE
 40
2458919.567569445
  9
$TDUCREATE
 40
2458919.734247604
  9
$TDUPDATE
 40
2458919.578587963
  9
$TDUUPDATE
 40
2458919.745254630
  9
$TDINDWG
 40
0.0047550231
  9
$TDUSRTIMER
 40
0.0047550231
  9
$USRTIMER
 70
     1
  9
$ANGBASE
 50
0.0
  9
$ANGDIR
 70
     0
  9
$PDMODE
 70
     0
  9
$PDSIZE
 40
0.0
  9
$PLINEWID
 40
0.0
  9
$SPLFRAME
 70
     0
  9
$SPLINETYPE
 70
     6
  9
$SPLINESEGS
 70
     8
  9
$HANDSEED
  5
43D
  9
$SURFTAB1
 70
     6
  9
$SURFTAB2
 70
     6
  9
$SURFTYPE
 70
     6
  9
$SURFU
 70
     6
  9
$SURFV
 70
     6
  9
$UCSBASE
  2

  9
$UCSNAME
  2

  9
$UCSORG
 10
0.0
 20
0.0
 30
0.0
  9
$UCSXDIR
 10
1.0
 20
0.0
 30
0.0
  9
$UCSYDIR
 10
0.0
 20
1.0
 30
0.0
  9
$UCSORTHOREF
  2

  9
$UCSORTHOVIEW
 70
     0
  9
$UCSORGTOP
 10
0.0
 20
0.0
 30
0.0
  9
$UCSORGBOTTOM
 10
0.0
 20
0.0
 30
0.0
  9
$UCSORGLEFT
 10
0.0
 20
0.0
 30
0.0
  9
$UCSORGRIGHT
 10
0.0
 20
0.0
 30
0.0
  9
$UCSORGFRONT
 10
0.0
 20
0.0
 30
0.0
  9
$UCSORGBACK
 10
0.0
 20
0.0
 30
0.0
  9
$PUCSBASE
  2

  9
$PUCSNAME
  2

  9
$PUCSORG
 10
0.0
 20
0.0
 30
0.0
  9
$PUCSXDIR
 10
1.0
 20
0.0
 30
0.0
  9
$PUCSYDIR
 10
0.0
 20
1.0
 30
0.0
  9
$PUCSORTHOREF
  2

  9
$PUCSORTHOVIEW
 70
     0
  9
$PUCSORGTOP
 10
0.0
 20
0.0
 30
0.0
  9
$PUCSORGBOTTOM
 10
0.0
 20
0.0
 30
0.0
  9
$PUCSORGLEFT
 10
0.0
 20
0.0
 30
0.0
  9
$PUCSORGRIGHT
 10
0.0
 20
0.0
 30
0.0
  9
$PUCSORGFRONT
 10
0.0
 20
0.0
 30
0.0
  9
$PUCSORGBACK
 10
0.0
 20
0.0
 30
0.0
  9
$USERI1
 70
     0
  9
$USERI2
 70
     0
  9
$USERI3
 70
     0
  9
$USERI4
 70
     0
  9
$USERI5
 70
     0
  9
$USERR1
 40
0.0
  9
$USERR2
 40
0.0
  9
$USERR3
 40
0.0
  9
$USERR4
 40
0.0
  9
$USERR5
 40
0.0
  9
$WORLDVIEW
 70
     1
  9
$SHADEDGE
 70
     3
  9
$SHADEDIF
 70
    70
  9
$TILEMODE
 70
     1
  9
$MAXACTVP
 70
    64
  9
$PINSBASE
 10
0.0
 20
0.0
 30
0.0
  9
$PLIMCHECK
 70
     0
  9
$PEXTMIN
 10
1.000000000000000E+20
 20
1.000000000000000E+20
 30
1.000000000000000E+20
  9
$PEXTMAX
 10
-1.000000000000000E+20
 20
-1.000000000000000E+20
 30
-1.000000000000000E+20
  9
$PLIMMIN
 10
0.0
 20
0.0
  9
$PLIMMAX
 10
12.0
 20
9.0
  9
$UNITMODE
 70
     0
  9
$VISRETAIN
 70
     1
  9
$PLINEGEN
 70
     0
  9
$PSLTSCALE
 70
     1
  9
$TREEDEPTH
 70
  3020
  9
$CMLSTYLE
  2
Standard
  9
$CMLJUST
 70
     0
  9
$CMLSCALE
 40
1.0
  9
$PROXYGRAPHICS
 70
     1
  9
$MEASUREMENT
 70
     0
  9
$CELWEIGHT
370
    -1
  9
$ENDCAPS
280
     0
  9
$JOINSTYLE
280
     0
  9
$LWDISPLAY
290
     0
  9
$INSUNITS
 70
     1
  9
$HYPERLINKBASE
  1

  9
$STYLESHEET
  1

  9
$XEDIT
290
     1
  9
$CEPSNTYPE
380
     0
  9
$PSTYLEMODE
290
     1
  9
$FINGERPRINTGUID
  2
{5D6FBF1C-5B86-4D88-9F07-88B2448CF9AF}
  9
$VERSIONGUID
  2
{D768474A-7153-C049-B884-8CC55798AAD9}
  9
$EXTNAMES
290
     1
  9
$PSVPSCALE
 40
0.0
  9
$OLESTARTUP
290
     0
  9
$SORTENTS
280
   127
  9
$INDEXCTL
280
     0
  9
$HIDETEXT
280
     1
  9
$XCLIPFRAME
280
     2
  9
$HALOGAP
280
     0
  9
$OBSCOLOR
 70
   257
  9
$OBSLTYPE
280
     0
  9
$INTERSECTIONDISPLAY
280
     0
  9
$INTERSECTIONCOLOR
 70
   257
  9
$DIMASSOC
280
     2
  9
$PROJECTNAME
  1

  9
$CAMERADISPLAY
290
     0
  9
$LENSLENGTH
 40
50.0
  9
$CAMERAHEIGHT
 40
0.0
  9
$STEPSPERSEC
 40
2.0
  9
$STEPSIZE
 40
6.0
  9
$3DDWFPREC
 40
2.0
  9
$PSOLWIDTH
 40
0.25
  9
$PSOLHEIGHT
 40
4.0
  9
$LOFTANG1
 40
1.570796326794896
  9
$LOFTANG2
 40
1.570796326794896
  9
$LOFTMAG1
 40
0.0
  9
$LOFTMAG2
 40
0.0
  9
$LOFTPARAM
 70
     7
  9
$LOFTNORMALS
280
     1
  9
$LATITUDE
 40
0.0
  9
$LONGITUDE
 40
0.0
  9
$NORTHDIRECTION
 40
0.0
  9
$TIMEZONE
 70
     0
  9
$LIGHTGLYPHDISPLAY
280
     1
  9
$TILEMODELIGHTSYNCH
280
     1
  9
$CMATERIAL
347
11
  9
$SOLIDHIST
280
     0
  9
$SHOWHIST
280
     1
  9
$DWFFRAME
280
     2
  9
$DGNFRAME
280
     0
  9
$REALWORLDSCALE
290
     1
  9
$INTERFERECOLOR
 62
     1
  9
$INTERFEREOBJVS
345
33
  9
$INTERFEREVPVS
346
30
  9
$CSHADOW
280
     0
  9
$SHADOWPLANELOCATION
 40
0.0
  0
ENDSEC
  0
SECTION
  2
CLASSES
  0
CLASS
  1
ACDBDICTIONARYWDFLT
  2
AcDbDictionaryWithDefault
  3
ObjectDBX Classes
 90
        0
 91
        1
280
     0
281
     0
  0
CLASS
  1
MATERIAL
  2
AcDbMaterial
  3
ObjectDBX Classes
 90
     1153
 91
        3
280
     0
281
     0
  0
CLASS
  1
VISUALSTYLE
  2
AcDbVisualStyle
  3
ObjectDBX Classes
 90
     4095
 91
       24
280
     0
281
     0
  0
CLASS
  1
SCALE
  2
AcDbScale
  3
ObjectDBX Classes
 90
     1153
 91
       17
280
     0
281
     0
  0
CLASS
  1
TABLESTYLE
  2
AcDbTableStyle
  3
ObjectDBX Classes
 90
     4095
 91
        1
280
     0
281
     0
  0
CLASS
  1
MLEADERSTYLE
  2
AcDbMLeaderStyle
  3
ACDB_MLEADERSTYLE_CLASS
 90
     4095
 91
        1
280
     0
281
     0
  0
CLASS
  1
ACDBSECTIONVIEWSTYLE
  2
AcDbSectionViewStyle
  3
ObjectDBX Classes
 90
     1025
 91
        1
280
     0
281
     0
  0
CLASS
  1
ACDBDETAILVIEWSTYLE
  2
AcDbDetailViewStyle
  3
ObjectDBX Classes
 90
     1025
 91
        1
280
     0
281
     0
  0
CLASS
  1
RASTERVARIABLES
  2
AcDbRasterVariables
  3
ISM
 90
        0
 91
        1
280
     0
281
     0
  0
CLASS
  1
DICTIONARYVAR
  2
AcDbDictionaryVar
  3
ObjectDBX Classes
 90
        0
 91
        5
280
     0
281
     0
  0
CLASS
  1
SORTENTSTABLE
  2
AcDbSortentsTable
  3
ObjectDBX Classes
 90
        0
 91
        5
280
     0
281
     0
  0
CLASS
  1
EXACXREFPANELOBJECT
  2
ExAcXREFPanelObject
  3
EXAC_ESW
 90
     1025
 91
        1
280
     0
281
     0
  0
CLASS
  1
NPOCOLLECTION
  2
AcDbImpNonPersistentObjectsCollection
  3
ObjectDBX Classes
 90
     1153
 91
        1
280
     0
281
     0
  0
CLASS
  1
CELLSTYLEMAP
  2
AcDbCellStyleMap
  3
ObjectDBX Classes
 90
     1152
 91
        2
280
     0
281
     0
  0
ENDSEC
  0
SECTION
  2
TABLES
  0
TABLE
  2
VPORT
  5
8
330
0
100
AcDbSymbolTable
 70
     1
1001
ACAD
1000
DbSaveVer
1071
      123
  0
VPORT
  5
57
330
8
100
AcDbSymbolTableRecord
100
AcDbViewportTableRecord
  2
*Active
 70
     0
 10
0.0
 20
0.0
 11
1.0
 21
1.0
 12
19.32700047466834
 22
-36.7949694676455
 13
0.0
 23
0.0
 14
1.0
 24
1.0
 15
0.0
 25
0.0
 16
0.0
 26
0.0
 36
1.0
 17
0.0
 27
0.0
 37
0.0
 40
71.89426749928663
 41
1.956354300385109
 42
50.0
 43
0.0
 44
0.0
 50
0.0
 51
0.0
 71
     0
 72
  1000
 73
     1
 74
     1
 75
     0
 76
     0
 77
     0
 78
     0
281
     0
 65
     1
110
0.0
120
0.0
130
0.0
111
1.0
121
0.0
131
0.0
112
0.0
122
1.0
132
0.0
 79
     0
146
0.0
348
2F
 60
     3
 61
     5
292
     1
282
     1
141
0.0
142
0.0
 63
   250
421
  3355443
1001
ACAD_NAV_VCDISPLAY
1070
     3
  0
ENDTAB
  0
TABLE
  2
LTYPE
  5
5
330
0
100
AcDbSymbolTable
 70
     1
  0
LTYPE
  5
5B
330
5
100
AcDbSymbolTableRecord
100
AcDbLinetypeTableRecord
  2
ByBlock
 70
     0
  3

 72
    65
 73
     0
 40
0.0
  0
LTYPE
  5
5C
330
5
100
AcDbSymbolTableRecord
100
AcDbLinetypeTableRecord
  2
ByLayer
 70
     0
  3

 72
    65
 73
     0
 40
0.0
  0
LTYPE
  5
5D
330
5
100
AcDbSymbolTableRecord
100
AcDbLinetypeTableRecord
  2
Continuous
 70
     0
  3
Solid line
 72
    65
 73
     0
 40
0.0
  0
ENDTAB
  0
TABLE
  2
LAYER
  5
2
330
0
100
AcDbSymbolTable
 70
     5
  0
LAYER
  5
54
330
2
100
AcDbSymbolTableRecord
100
AcDbLayerTableRecord
  2
0
 70
     0
 62
     7
  6
Continuous
370
    -3
390
F
347
21
348
0
  0
LAYER
  5
A0
330
2
100
AcDbSymbolTableRecord
100
AcDbLayerTableRecord
  2
39676000
 70
     0
 62
     7
  6
Continuous
370
     9
390
F
347
21
348
0
  0
ENDTAB
  0
TABLE
  2
STYLE
  5
3
330
0
100
AcDbSymbolTable
 70
     3
  0
STYLE
  5
55
330
3
100
AcDbSymbolTableRecord
100
AcDbTextStyleTableRecord
  2
Standard
 70
     0
 40
0.0
 41
1.0
 50
0.0
 71
     0
 42
0.2
  3
txt
  4

  0
ENDTAB
  0
TABLE
  2
VIEW
  5
6
330
0
100
AcDbSymbolTable
 70
     0
  0
ENDTAB
  0
TABLE
  2
UCS
  5
7
330
0
100
AcDbSymbolTable
 70
     0
  0
ENDTAB
  0
TABLE
  2
APPID
  5
9
330
0
100
AcDbSymbolTable
 70
     6
  0
APPID
  5
56
330
9
100
AcDbSymbolTableRecord
100
AcDbRegAppTableRecord
  2
ACAD
 70
     0
  0
APPID
  5
5E
330
9
100
AcDbSymbolTableRecord
100
AcDbRegAppTableRecord
  2
AcadAnnotative
 70
     0
  0
APPID
  5
78
330
9
100
AcDbSymbolTableRecord
100
AcDbRegAppTableRecord
  2
REVIT
 70
     0
  0
APPID
  5
194
330
9
100
AcDbSymbolTableRecord
100
AcDbRegAppTableRecord
  2
ACAD_NAV_VCDISPLAY
 70
     0
  0
APPID
  5
430
330
9
100
AcDbSymbolTableRecord
100
AcDbRegAppTableRecord
  2
AcAecLayerStandard
 70
     0
  0
APPID
  5
431
330
9
100
AcDbSymbolTableRecord
100
AcDbRegAppTableRecord
  2
AcCmTransparency
 70
     0
  0
ENDTAB
  0
TABLE
  2
DIMSTYLE
  5
A
330
0
100
AcDbSymbolTable
 70
     2
100
AcDbDimStyleTable
 71
     0
  0
DIMSTYLE
105
58
330
A
100
AcDbSymbolTableRecord
100
AcDbDimStyleTableRecord
  2
Standard
 70
     0
340
55
  0
ENDTAB
  0
TABLE
  2
BLOCK_RECORD
  5
1
330
0
100
AcDbSymbolTable
 70
    21
  0
BLOCK_RECORD
  5
70
102
{ACAD_XDICTIONARY
360
10C
102
}
330
1
100
AcDbSymbolTableRecord
100
AcDbBlockTableRecord
  2
*Model_Space
340
73
 70
     0
280
     1
281
     0
  0
BLOCK_RECORD
  5
6C
330
1
100
AcDbSymbolTableRecord
100
AcDbBlockTableRecord
  2
*Paper_Space
340
6F
 70
     0
280
     1
281
     0
  0
BLOCK_RECORD
  5
74
330
1
100
AcDbSymbolTableRecord
100
AcDbBlockTableRecord
  2
*Paper_Space0
340
77
 70
     0
280
     1
281
     0
  0
BLOCK_RECORD
  5
2F0
330
1
100
AcDbSymbolTableRecord
100
AcDbBlockTableRecord
  2
Toilet_Essence_39676000_Side View
340
0
310
280000002000000020000000010020000000000000100000010000000100000000000000000000000D000000302821FF302821FF302821FF302821FF302821FF302821FF302821FF302821FF302821FF302821FF302821FF302821FF302821FF302821FF302821FF302821FF302821FF302821FF302821FF302821FF302821
310
FF302821FF302821FF302821FF302821FF302821FF302821FF302821FF302821FF302821FF302821FF302821FF302821FF302821FF302821FF302821FF302821FF302821FFFFFFFFFFFFFFFFFFFFFFFFFFFFFFFFFFFFFFFFFFFFFFFFFFFFFFFFFFFFFFFFFFFFFFFFFFFFFFFFFFFFFFFFFFFFFFFFFFFFFFFFFFFFFFFFFFFFFF
310
FFFFFFFFFFFFFFFFFFFFFFFFFFFFFFFFFFFFFFFFFFFF302821FF302821FF302821FF302821FF302821FF302821FF302821FF302821FF302821FF302821FF302821FF302821FFFFFFFFFF302821FF302821FF302821FF302821FF302821FF302821FF302821FF302821FF302821FF302821FF302821FF302821FF302821FF30
310
2821FF302821FF302821FF302821FF302821FFFFFFFFFF302821FF302821FF302821FF302821FF302821FF302821FF302821FF302821FF302821FF302821FF302821FF302821FFFFFFFFFF302821FF302821FF302821FF302821FFFFFFFFFFFFFFFFFFFFFFFFFF302821FF302821FF302821FF302821FF302821FF302821FF
310
302821FF302821FF302821FF302821FF302821FFFFFFFFFF302821FF302821FF302821FF302821FF302821FF302821FF302821FF302821FF302821FF302821FF302821FFFFFFFFFFFFFFFFFF302821FF302821FF302821FF302821FFFFFFFFFF302821FFFFFFFFFF302821FF302821FF302821FF302821FF302821FF302821
310
FF302821FF302821FF302821FF302821FF302821FF302821FFFFFFFFFF302821FF302821FF302821FF302821FF302821FF302821FF302821FF302821FF302821FF302821FFFFFFFFFFFFFFFFFF302821FF302821FF302821FF302821FFFFFFFFFFFFFFFFFFFFFFFFFF302821FF302821FF302821FF302821FF302821FF3028
310
21FF302821FF302821FF302821FF302821FF302821FF302821FFFFFFFFFF302821FF302821FF302821FF302821FF302821FF302821FF302821FF302821FF302821FFFFFFFFFFFFFFFFFF302821FF302821FF302821FF302821FF302821FF302821FFFFFFFFFF302821FF302821FF302821FF302821FF302821FF302821FF30
310
2821FF302821FF302821FF302821FF302821FF302821FF302821FF302821FFFFFFFFFF302821FF302821FF302821FF302821FF302821FF302821FF302821FF302821FFFFFFFFFFFFFFFFFF302821FF302821FF302821FF302821FF302821FF302821FF302821FF302821FF302821FF302821FF302821FF302821FF302821FF
310
302821FF302821FF302821FF302821FF302821FF302821FF302821FF302821FFFFFFFFFF302821FF302821FF302821FF302821FF302821FF302821FF302821FF302821FFFFFFFFFFFFFFFFFF302821FF302821FF302821FF302821FF302821FF302821FF302821FF302821FF302821FF302821FF302821FF302821FF302821
310
FF302821FF302821FF302821FF302821FF302821FF302821FF302821FF302821FFFFFFFFFF302821FF302821FF302821FF302821FF302821FF302821FF302821FF302821FFFFFFFFFFFFFFFFFF302821FF302821FF302821FF302821FF302821FF302821FF302821FF302821FF302821FF302821FF302821FF302821FF3028
310
21FF302821FF302821FF302821FF302821FF302821FF302821FF302821FF302821FF302821FFFFFFFFFF302821FF302821FF302821FF302821FF302821FF302821FF302821FF302821FFFFFFFFFF302821FF302821FF302821FF302821FF302821FF302821FF302821FF302821FF302821FF302821FF302821FF302821FF30
310
2821FF302821FF302821FF302821FF302821FF302821FF302821FF302821FF302821FF302821FFFFFFFFFF302821FF302821FF302821FF302821FF302821FF302821FF302821FF302821FFFFFFFFFF302821FF302821FF302821FF302821FF302821FF302821FF302821FF302821FF302821FF302821FF302821FF302821FF
310
302821FF302821FF302821FF302821FF302821FF302821FF302821FF302821FF302821FF302821FFFFFFFFFF302821FF302821FF302821FF302821FF302821FF302821FF302821FF302821FFFFFFFFFF302821FF302821FF302821FF302821FF302821FF302821FF302821FF302821FF302821FF302821FF302821FF302821
310
FF302821FF302821FF302821FF302821FF302821FF302821FF302821FF302821FF302821FF302821FFFFFFFFFF302821FF302821FF302821FF302821FF302821FF302821FF302821FF302821FFFFFFFFFF302821FF302821FF302821FF302821FF302821FF302821FF302821FF302821FF302821FF302821FF302821FF3028
310
21FF302821FF302821FF302821FF302821FF302821FF302821FF302821FF302821FF302821FF302821FFFFFFFFFF302821FF302821FF302821FF302821FF302821FF302821FFFFFFFFFFFFFFFFFFFFFFFFFF302821FF302821FF302821FF302821FF302821FF302821FF302821FF302821FF302821FF302821FF302821FF30
310
2821FF302821FF302821FF302821FF302821FF302821FF302821FF302821FF302821FF302821FF302821FFFFFFFFFF302821FF302821FF302821FF302821FF302821FF302821FFFFFFFFFF302821FF302821FF302821FF302821FF302821FF302821FF302821FF302821FF302821FF302821FF302821FF302821FF302821FF
310
302821FF302821FF302821FF302821FF302821FF302821FF302821FF302821FF302821FF302821FF302821FF302821FFFFFFFFFF302821FF302821FF302821FF302821FF302821FFFFFFFFFF302821FF302821FF302821FF302821FF302821FFFFFFFFFFFFFFFFFFFFFFFFFFFFFFFFFFFFFFFFFFFFFFFFFFFFFFFFFFFFFFFF
310
FFFFFFFFFFFFFFFFFFFFFFFFFFFFFFFFFFFFFFFFFFFFFFFFFFFFFFFFFFFFFFFFFFFFFFFFFFFFFFFFFFFFFFFFFFFFFFFFFFFFFFFFFF302821FF302821FF302821FF302821FF302821FFFFFFFFFFFFFFFFFFFFFFFFFFFFFFFFFFFFFFFFFFFFFFFFFFFFFFFFFF302821FFFFFFFFFF302821FF302821FF302821FF302821FF3028
310
21FF302821FF302821FF302821FF302821FF302821FF302821FF302821FF302821FF302821FF302821FF302821FF302821FFFFFFFFFF302821FF302821FF302821FF302821FF302821FFFFFFFFFF302821FF302821FF302821FF302821FF302821FFFFFFFFFF302821FFFFFFFFFFFFFFFFFFFFFFFFFFFFFFFFFFFFFFFFFFFF
310
FFFFFFFFFFFFFFFFFFFFFFFFFFFFFFFFFFFFFFFFFFFFFFFFFFFFFFFFFFFFFFFFFFFFFFFFFFFFFFFFFFFFFFFFFFFFFFFFFFFFFFFFFFFFFF302821FF302821FF302821FF302821FF302821FFFFFFFFFF302821FF302821FF302821FF302821FF302821FFFFFFFFFF302821FF302821FF302821FF302821FF302821FF302821FF
310
302821FF302821FF302821FF302821FF302821FF302821FF302821FF302821FF302821FF302821FF302821FF302821FF302821FF302821FF302821FF302821FF302821FF302821FF302821FFFFFFFFFF302821FF302821FF302821FF302821FF302821FFFFFFFFFF302821FF302821FF302821FF302821FF302821FF302821
310
FF302821FF302821FF302821FF302821FF302821FF302821FF302821FF302821FF302821FF302821FF302821FF302821FF302821FF302821FF302821FF302821FF302821FF302821FF302821FFFFFFFFFF302821FF302821FF302821FF302821FF302821FFFFFFFFFF302821FF302821FF302821FF302821FF302821FF3028
310
21FF302821FF302821FF302821FF302821FF302821FF302821FF302821FF302821FF302821FF302821FF302821FF302821FF302821FF302821FF302821FF302821FF302821FF302821FF302821FFFFFFFFFF302821FF302821FF302821FF302821FF302821FFFFFFFFFF302821FF302821FF302821FF302821FF302821FF30
310
2821FF302821FF302821FF302821FF302821FF302821FF302821FF302821FF302821FF302821FF302821FF302821FF302821FF302821FF302821FF302821FF302821FF302821FF302821FFFFFFFFFF302821FF302821FF302821FF302821FF302821FF302821FFFFFFFFFF302821FF302821FF302821FF302821FF302821FF
310
302821FF302821FF302821FF302821FF302821FF302821FF302821FF302821FF302821FF302821FF302821FF302821FF302821FF302821FF302821FF302821FF302821FF302821FF302821FFFFFFFFFF302821FF302821FF302821FF302821FF302821FF302821FFFFFFFFFF302821FF302821FF302821FF302821FF302821
310
FF302821FF302821FF302821FF302821FF302821FF302821FF302821FF302821FF302821FF302821FF302821FF302821FF302821FF302821FF302821FF302821FF302821FF302821FF302821FFFFFFFFFF302821FF302821FF302821FF302821FF302821FF302821FFFFFFFFFF302821FF302821FF302821FF302821FF3028
310
21FF302821FF302821FF302821FF302821FF302821FF302821FF302821FF302821FF302821FF302821FF302821FF302821FF302821FF302821FF302821FF302821FF302821FF302821FF302821FFFFFFFFFF302821FF302821FFFFFFFFFFFFFFFFFF302821FF302821FFFFFFFFFF302821FF302821FF302821FF302821FF30
310
2821FF302821FF302821FF302821FF302821FF302821FF302821FF302821FF302821FF302821FF302821FF302821FF302821FF302821FF302821FF302821FF302821FF302821FF302821FF302821FFFFFFFFFFFFFFFFFFFFFFFFFFFFFFFFFFFFFFFFFF302821FF302821FFFFFFFFFF302821FF302821FF302821FF302821FF
310
302821FF302821FF302821FF302821FF302821FF302821FF302821FF302821FF302821FF302821FF302821FF302821FF302821FF302821FF302821FF302821FF302821FF302821FF302821FF302821FFFFFFFFFFFFFFFFFFFFFFFFFFFFFFFFFFFFFFFFFFFFFFFFFFFFFFFFFFFFFFFFFF302821FF302821FF302821FF302821
310
FF302821FF302821FF302821FF302821FF302821FF302821FF302821FF302821FF302821FF302821FF302821FF302821FF302821FF302821FF302821FF302821FF302821FF302821FF302821FF302821FFFFFFFFFF302821FF302821FF302821FF302821FF302821FF302821FFFFFFFFFF302821FF302821FF302821FF3028
310
21FF302821FF302821FF302821FF302821FF302821FF302821FF302821FF302821FF302821FF302821FF302821FF302821FF302821FF302821FF302821FF302821FF302821FF302821FF302821FF302821FFFFFFFFFFFFFFFFFFFFFFFFFFFFFFFFFFFFFFFFFFFFFFFFFFFFFFFFFFFFFFFFFF302821FF302821FF302821FF30
310
2821FF302821FF302821FF302821FF302821FF302821FF302821FF302821FF302821FF302821FF302821FF302821FF302821FF302821FF302821FF302821FF302821FF302821FF302821FF302821FF302821FF302821FF302821FF302821FF302821FF302821FF302821FF302821FF302821FF302821FF302821FF302821FF
310
302821FF302821FF302821FF302821FF302821FF302821FF302821FF302821FF302821FF302821FF302821FF302821FF302821FF302821FF302821FF302821FF302821FF302821FF
102
{BLKREFS
331
33A
102
}
 70
     1
280
     1
281
     0
  0
BLOCK_RECORD
  5
33B
330
1
100
AcDbSymbolTableRecord
100
AcDbBlockTableRecord
  2
Toilet_Essence_39676000_Front View
340
0
310
2800000020000000200000000100200000000000001000000100000001000000000000000000000001000000302821FF302821FF302821FF302821FF302821FF302821FF302821FF302821FF302821FF302821FF302821FF302821FF302821FF302821FF302821FF302821FF302821FF302821FF302821FF302821FF302821
310
FF302821FF302821FF302821FF302821FF302821FF302821FF302821FF302821FF302821FF302821FF302821FF302821FF302821FF302821FF302821FF302821FF302821FF302821FF302821FF302821FF302821FF302821FFFFFFFFFFFFFFFFFFFFFFFFFFFFFFFFFFFFFFFFFFFFFFFFFFFFFFFFFFFFFFFFFFFFFFFFFFFFFF
310
FFFFFFFFFFFF302821FF302821FF302821FF302821FF302821FF302821FF302821FF302821FF302821FF302821FF302821FF302821FF302821FF302821FF302821FF302821FF302821FF302821FF302821FF302821FF302821FFFFFFFFFF302821FF302821FF302821FF302821FF302821FF302821FF302821FF302821FF30
310
2821FFFFFFFFFF302821FF302821FF302821FF302821FF302821FF302821FF302821FF302821FF302821FF302821FF302821FF302821FF302821FF302821FF302821FF302821FF302821FF302821FF302821FF302821FF302821FFFFFFFFFF302821FF302821FF302821FF302821FF302821FF302821FF302821FF302821FF
310
302821FFFFFFFFFF302821FF302821FF302821FF302821FF302821FF302821FF302821FF302821FF302821FF302821FF302821FF302821FF302821FF302821FF302821FF302821FF302821FF302821FF302821FF302821FF302821FFFFFFFFFF302821FF302821FF302821FF302821FF302821FF302821FF302821FF302821
310
FF302821FFFFFFFFFF302821FF302821FF302821FF302821FF302821FF302821FF302821FF302821FF302821FF302821FF302821FF302821FF302821FF302821FF302821FF302821FF302821FF302821FF302821FF302821FFFFFFFFFFFFFFFFFF302821FF302821FF302821FF302821FF302821FF302821FF302821FF3028
310
21FF302821FFFFFFFFFFFFFFFFFF302821FF302821FF302821FF302821FF302821FF302821FF302821FF302821FF302821FF302821FF302821FF302821FF302821FF302821FF302821FF302821FF302821FF302821FF302821FFFFFFFFFF302821FF302821FF302821FF302821FF302821FF302821FF302821FF302821FF30
310
2821FF302821FFFFFFFFFFFFFFFFFF302821FF302821FF302821FF302821FF302821FF302821FF302821FF302821FF302821FF302821FF302821FF302821FF302821FF302821FF302821FF302821FF302821FF302821FF302821FFFFFFFFFF302821FF302821FF302821FF302821FF302821FF302821FF302821FF302821FF
310
302821FF302821FF302821FFFFFFFFFF302821FF302821FF302821FF302821FF302821FF302821FF302821FF302821FF302821FF302821FF302821FF302821FF302821FF302821FF302821FF302821FF302821FF302821FF302821FFFFFFFFFF302821FF302821FF302821FF302821FF302821FF302821FF302821FF302821
310
FF302821FF302821FF302821FFFFFFFFFF302821FF302821FF302821FF302821FF302821FF302821FF302821FF302821FF302821FF302821FF302821FF302821FF302821FF302821FF302821FF302821FF302821FF302821FF302821FFFFFFFFFF302821FF302821FF302821FF302821FF302821FF302821FF302821FF3028
310
21FF302821FF302821FF302821FFFFFFFFFF302821FF302821FF302821FF302821FF302821FF302821FF302821FF302821FF302821FF302821FF302821FF302821FF302821FF302821FF302821FF302821FF302821FF302821FF302821FFFFFFFFFF302821FF302821FF302821FF302821FF302821FF302821FF302821FF30
310
2821FF302821FF302821FF302821FFFFFFFFFF302821FF302821FF302821FF302821FF302821FF302821FF302821FF302821FF302821FF302821FF302821FF302821FF302821FF302821FF302821FF302821FF302821FF302821FF302821FFFFFFFFFF302821FF302821FF302821FF302821FF302821FF302821FF302821FF
310
302821FF302821FF302821FF302821FFFFFFFFFF302821FF302821FF302821FF302821FF302821FF302821FF302821FF302821FF302821FF302821FF302821FF302821FF302821FF302821FF302821FF302821FF302821FF302821FFFFFFFFFF302821FF302821FF302821FF302821FF302821FF302821FF302821FF302821
310
FF302821FF302821FF302821FF302821FFFFFFFFFF302821FF302821FF302821FF302821FF302821FF302821FF302821FF302821FF302821FF302821FF302821FF302821FF302821FF302821FF302821FF302821FF302821FF302821FFFFFFFFFF302821FF302821FF302821FF302821FF302821FF302821FF302821FF3028
310
21FF302821FF302821FF302821FF302821FFFFFFFFFF302821FF302821FF302821FF302821FF302821FF302821FF302821FF302821FF302821FF302821FF302821FF302821FF302821FF302821FF302821FF302821FF302821FF302821FFFFFFFFFF302821FF302821FF302821FF302821FF302821FF302821FF302821FF30
310
2821FF302821FF302821FF302821FF302821FFFFFFFFFF302821FF302821FF302821FF302821FF302821FF302821FF302821FF302821FF302821FF302821FF302821FF302821FF302821FF302821FF302821FF302821FF302821FF302821FFFFFFFFFF302821FF302821FF302821FF302821FF302821FF302821FF302821FF
310
302821FF302821FF302821FF302821FF302821FF302821FFFFFFFFFF302821FF302821FF302821FF302821FF302821FF302821FF302821FF302821FF302821FF302821FF302821FF302821FF302821FF302821FF302821FF302821FF302821FFFFFFFFFFFFFFFFFFFFFFFFFFFFFFFFFFFFFFFFFFFFFFFFFFFFFFFFFFFFFFFF
310
FFFFFFFFFFFFFFFFFFFFFFFFFFFFFFFFFFFFFFFFFFFFFFFFFFFFFFFFFF302821FF302821FF302821FF302821FF302821FF302821FF302821FF302821FF302821FF302821FF302821FF302821FF302821FF302821FF302821FF302821FF302821FFFFFFFFFF302821FF302821FF302821FF302821FF302821FF302821FF3028
310
21FF302821FF302821FF302821FF302821FF302821FF302821FFFFFFFFFF302821FF302821FF302821FF302821FF302821FF302821FF302821FF302821FF302821FF302821FF302821FF302821FF302821FF302821FF302821FF302821FF302821FFFFFFFFFFFFFFFFFFFFFFFFFFFFFFFFFFFFFFFFFFFFFFFFFFFFFFFFFFFF
310
FFFFFFFFFFFFFFFFFFFFFFFFFFFFFFFFFFFFFFFFFFFFFFFFFFFFFFFFFFFFFF302821FF302821FF302821FF302821FF302821FF302821FF302821FF302821FF302821FF302821FF302821FF302821FF302821FF302821FF302821FF302821FF302821FFFFFFFFFF302821FF302821FF302821FF302821FF302821FF302821FF
310
302821FF302821FF302821FF302821FF302821FF302821FF302821FFFFFFFFFF302821FF302821FF302821FF302821FF302821FF302821FF302821FF302821FF302821FF302821FF302821FF302821FF302821FF302821FF302821FF302821FF302821FFFFFFFFFF302821FF302821FF302821FF302821FF302821FF302821
310
FF302821FF302821FF302821FF302821FF302821FF302821FF302821FFFFFFFFFF302821FF302821FF302821FF302821FF302821FF302821FF302821FF302821FF302821FF302821FF302821FF302821FF302821FF302821FF302821FF302821FF302821FFFFFFFFFF302821FF302821FF302821FF302821FF302821FF3028
310
21FF302821FF302821FF302821FF302821FF302821FF302821FF302821FFFFFFFFFF302821FF302821FF302821FF302821FF302821FF302821FF302821FF302821FF302821FF302821FF302821FF302821FF302821FF302821FF302821FF302821FF302821FFFFFFFFFF302821FF302821FF302821FF302821FF302821FF30
310
2821FF302821FF302821FF302821FF302821FF302821FF302821FF302821FFFFFFFFFF302821FF302821FF302821FF302821FF302821FF302821FF302821FF302821FF302821FF302821FF302821FF302821FF302821FF302821FF302821FF302821FFFFFFFFFF302821FF302821FF302821FF302821FF302821FF302821FF
310
302821FF302821FF302821FF302821FF302821FF302821FF302821FF302821FFFFFFFFFF302821FF302821FF302821FF302821FF302821FF302821FF302821FF302821FF302821FF302821FF302821FF302821FF302821FF302821FF302821FF302821FFFFFFFFFF302821FF302821FF302821FF302821FF302821FF302821
310
FF302821FF302821FF302821FF302821FF302821FF302821FF302821FF302821FFFFFFFFFF302821FF302821FF302821FF302821FF302821FF302821FF302821FF302821FF302821FF302821FF302821FF302821FF302821FF302821FF302821FF302821FFFFFFFFFF302821FF302821FF302821FF302821FF302821FF3028
310
21FF302821FF302821FF302821FF302821FF302821FF302821FF302821FF302821FFFFFFFFFF302821FF302821FF302821FF302821FF302821FF302821FF302821FF302821FF302821FF302821FF302821FF302821FF302821FF302821FF302821FF302821FFFFFFFFFF302821FF302821FF302821FF302821FF302821FF30
310
2821FF302821FF302821FF302821FF302821FF302821FF302821FF302821FF302821FFFFFFFFFF302821FF302821FF302821FF302821FF302821FF302821FF302821FF302821FF302821FF302821FF302821FF302821FF302821FF302821FF302821FF302821FFFFFFFFFF302821FF302821FF302821FF302821FF302821FF
310
302821FF302821FF302821FF302821FF302821FF302821FF302821FF302821FF302821FFFFFFFFFF302821FF302821FF302821FF302821FF302821FF302821FF302821FF302821FF302821FF302821FF302821FF302821FF302821FF302821FF302821FF302821FFFFFFFFFFFFFFFFFFFFFFFFFFFFFFFFFFFFFFFFFFFFFFFF
310
FFFFFFFFFFFFFFFFFFFFFFFFFFFFFFFFFFFFFFFFFFFFFFFFFFFFFFFFFFFFFFFFFFFFFFFFFFFFFFFFFF302821FF302821FF302821FF302821FF302821FF302821FF302821FF302821FF302821FF302821FF302821FF302821FF302821FF302821FF302821FF302821FFFFFFFFFF302821FF302821FF302821FF302821FF3028
310
21FF302821FF302821FF302821FF302821FF302821FF302821FF302821FF302821FF302821FFFFFFFFFF302821FF302821FF302821FF302821FF302821FF302821FF302821FF302821FF302821FF302821FF302821FF302821FF302821FF302821FF302821FF302821FFFFFFFFFFFFFFFFFFFFFFFFFFFFFFFFFFFFFFFFFFFF
310
FFFFFFFFFFFFFFFFFFFFFFFFFFFFFFFFFFFFFFFFFFFFFFFFFFFFFFFFFFFFFFFFFFFFFFFFFFFFFFFFFFFFFF302821FF302821FF302821FF302821FF302821FF302821FF302821FF302821FF302821FF302821FF302821FF302821FF302821FF302821FF302821FF302821FF302821FF302821FF302821FF302821FF302821FF
310
302821FF302821FF302821FF302821FF302821FF302821FF302821FF302821FF302821FF302821FF302821FF302821FF302821FF302821FF302821FF302821FF302821FF302821FF
102
{BLKREFS
331
37C
102
}
 70
     1
280
     1
281
     0
  0
BLOCK_RECORD
  5
37D
330
1
100
AcDbSymbolTableRecord
100
AcDbBlockTableRecord
  2
Toilet_Essence_39676000_Plan View
340
0
310
28000000200000002000000001002000000000000010000001000000010000000000000000000000609B9896302821FF302821FF302821FF302821FF302821FF302821FF302821FF302821FF302821FF302821FF302821FF302821FF302821FF302821FF302821FF302821FF302821FF302821FF302821FF302821FF302821
310
FF302821FF302821FF302821FF302821FF302821FF302821FF302821FF302821FF302821FF302821FF302821FF302821FF302821FF302821FF302821FF302821FF302821FF302821FF302821FF302821FF302821FF302821FF302821FF302821FF302821FF302821FFFFFFFFFFFFFFFFFF302821FF302821FF302821FF3028
310
21FF302821FF302821FF302821FF302821FF302821FF302821FF302821FF302821FF302821FF302821FF302821FF302821FF302821FF302821FF302821FF302821FF302821FF302821FF302821FF302821FF302821FF302821FF302821FF302821FFFFFFFFFFFFFFFFFF302821FF302821FFFFFFFFFFFFFFFFFFFFFFFFFF30
310
2821FF302821FF302821FF302821FF302821FF302821FF302821FF302821FF302821FF302821FF302821FF302821FF302821FF302821FF302821FF302821FF302821FF302821FF302821FF302821FF302821FF302821FF302821FF302821FFFFFFFFFF302821FF302821FF302821FF302821FF302821FF302821FF302821FF
310
FFFFFFFF302821FF302821FF302821FF302821FF302821FF302821FF302821FF302821FF302821FF302821FF302821FF302821FF302821FF302821FF302821FF302821FF302821FF302821FF302821FF302821FF302821FF302821FFFFFFFFFF302821FF302821FF302821FF302821FF302821FF302821FF302821FF302821
310
FF302821FFFFFFFFFF302821FF302821FF302821FF302821FF302821FF302821FF302821FF302821FF302821FF302821FF302821FF302821FF302821FF302821FF302821FF302821FF302821FF302821FF302821FF302821FFFFFFFFFF302821FF302821FF302821FF302821FF302821FF302821FF302821FF302821FF3028
310
21FF302821FF302821FFFFFFFFFF302821FF302821FF302821FF302821FF302821FF302821FF302821FF302821FF302821FF302821FF302821FF302821FF302821FF302821FF302821FF302821FF302821FF302821FFFFFFFFFF302821FF302821FF302821FF302821FF302821FF302821FF302821FF302821FF302821FF30
310
2821FF302821FF302821FFFFFFFFFF302821FF302821FF302821FF302821FF302821FF302821FF302821FF302821FF302821FF302821FF302821FF302821FF302821FF302821FF302821FF302821FF302821FF302821FFFFFFFFFF302821FF302821FF302821FF302821FF302821FF302821FF302821FF302821FF302821FF
310
302821FF302821FF302821FF302821FFFFFFFFFF302821FF302821FF302821FF302821FF302821FF302821FF302821FF302821FF302821FF302821FF302821FF302821FF302821FF302821FF302821FF302821FF302821FFFFFFFFFF302821FF302821FF302821FF302821FF302821FF302821FF302821FF302821FF302821
310
FF302821FF302821FF302821FF302821FFFFFFFFFF302821FF302821FF302821FF302821FF302821FF302821FF302821FF302821FF302821FF302821FF302821FF302821FF302821FF302821FF302821FF302821FF302821FFFFFFFFFF302821FF302821FF302821FF302821FF302821FF302821FF302821FF302821FF3028
310
21FF302821FF302821FF302821FF302821FFFFFFFFFF302821FF302821FF302821FF302821FF302821FF302821FF302821FF302821FF302821FF302821FF302821FF302821FF302821FF302821FF302821FF302821FF302821FFFFFFFFFF302821FF302821FF302821FF302821FF302821FF302821FF302821FF302821FF30
310
2821FF302821FF302821FF302821FF302821FFFFFFFFFF302821FF302821FF302821FF302821FF302821FF302821FF302821FF302821FF302821FF302821FF302821FF302821FF302821FF302821FF302821FF302821FF302821FFFFFFFFFF302821FF302821FF302821FF302821FF302821FF302821FF302821FF302821FF
310
302821FF302821FF302821FF302821FF302821FFFFFFFFFF302821FF302821FF302821FF302821FF302821FF302821FF302821FF302821FF302821FF302821FF302821FF302821FF302821FF302821FF302821FF302821FF302821FFFFFFFFFF302821FF302821FF302821FF302821FF302821FF302821FF302821FF302821
310
FF302821FF302821FF302821FF302821FF302821FFFFFFFFFF302821FF302821FF302821FF302821FF302821FF302821FF302821FF302821FF302821FF302821FF302821FF302821FF302821FF302821FF302821FF302821FF302821FFFFFFFFFF302821FF302821FF302821FF302821FF302821FF302821FF302821FF3028
310
21FF302821FF302821FF302821FF302821FF302821FFFFFFFFFF302821FF302821FF302821FF302821FF302821FF302821FF302821FF302821FF302821FF302821FF302821FF302821FF302821FF302821FF302821FF302821FF302821FFFFFFFFFF302821FF302821FF302821FF302821FF302821FF302821FF302821FF30
310
2821FF302821FF302821FF302821FF302821FF302821FFFFFFFFFF302821FF302821FF302821FF302821FF302821FF302821FF302821FF302821FF302821FF302821FF302821FF302821FF302821FF302821FF302821FF302821FF302821FFFFFFFFFF302821FF302821FF302821FF302821FF302821FF302821FF302821FF
310
302821FF302821FF302821FF302821FF302821FF302821FFFFFFFFFF302821FF302821FF302821FF302821FF302821FF302821FF302821FF302821FF302821FF302821FF302821FF302821FF302821FF302821FF302821FF302821FF302821FFFFFFFFFF302821FF302821FF302821FF302821FF302821FF302821FF302821
310
FF302821FF302821FF302821FF302821FF302821FF302821FFFFFFFFFF302821FF302821FF302821FF302821FF302821FF302821FF302821FF302821FF302821FF302821FF302821FF302821FF302821FF302821FF302821FF302821FF302821FFFFFFFFFF302821FF302821FF302821FF302821FF302821FF302821FF3028
310
21FF302821FF302821FF302821FF302821FF302821FF302821FFFFFFFFFF302821FF302821FF302821FF302821FF302821FF302821FF302821FF302821FF302821FF302821FF302821FF302821FF302821FF302821FF302821FF302821FF302821FFFFFFFFFF302821FF302821FF302821FF302821FF302821FF302821FF30
310
2821FF302821FF302821FF302821FF302821FF302821FF302821FFFFFFFFFF302821FF302821FF302821FF302821FF302821FF302821FF302821FF302821FF302821FF302821FF302821FF302821FF302821FF302821FF302821FF302821FF302821FFFFFFFFFF302821FF302821FF302821FF302821FF302821FF302821FF
310
302821FF302821FF302821FF302821FF302821FF302821FF302821FFFFFFFFFF302821FF302821FF302821FF302821FF302821FF302821FF302821FF302821FF302821FF302821FF302821FF302821FF302821FF302821FF302821FF302821FF302821FFFFFFFFFFFFFFFFFFFFFFFFFFFFFFFFFFFFFFFFFFFFFFFFFFFFFFFF
310
FFFFFFFFFFFFFFFFFFFFFFFFFFFFFFFFFFFFFFFFFFFFFFFFFFFFFFFFFFFFFFFFFF302821FF302821FF302821FF302821FF302821FF302821FF302821FF302821FF302821FF302821FF302821FF302821FF302821FF302821FF302821FF302821FF302821FFFFFFFFFF302821FF302821FF302821FF302821FF302821FF3028
310
21FF302821FF302821FF302821FF302821FF302821FF302821FF302821FFFFFFFFFF302821FF302821FF302821FF302821FF302821FF302821FF302821FF302821FF302821FF302821FF302821FF302821FF302821FF302821FF302821FF302821FF302821FFFFFFFFFFFFFFFFFFFFFFFFFFFFFFFFFFFFFFFFFFFFFFFFFFFF
310
FFFFFFFFFFFFFFFFFFFFFFFFFFFFFFFFFFFFFFFFFFFFFFFFFFFFFFFFFFFFFFFFFFFFFF302821FF302821FF302821FF302821FF302821FF302821FF302821FF302821FF302821FF302821FF302821FF302821FF302821FF302821FF302821FF302821FFFFFFFFFFFFFFFFFF302821FF302821FF302821FF302821FF302821FF
310
302821FF302821FF302821FF302821FF302821FF302821FF302821FF302821FFFFFFFFFF302821FF302821FF302821FF302821FF302821FF302821FF302821FF302821FF302821FF302821FF302821FF302821FF302821FF302821FF302821FF302821FFFFFFFFFF302821FF302821FF302821FF302821FF302821FF302821
310
FF302821FF302821FF302821FF302821FF302821FF302821FF302821FF302821FF302821FFFFFFFFFF302821FF302821FF302821FF302821FF302821FF302821FF302821FF302821FF302821FF302821FF302821FF302821FF302821FF302821FFFFFFFFFFFFFFFFFF302821FF302821FF302821FF302821FF302821FF3028
310
21FF302821FF302821FF302821FF302821FF302821FF302821FF302821FF302821FF302821FFFFFFFFFF302821FF302821FF302821FF302821FF302821FF302821FF302821FF302821FF302821FF302821FF302821FF302821FF302821FF302821FFFFFFFFFFFFFFFFFF302821FF302821FF302821FF302821FF302821FF30
310
2821FF302821FF302821FF302821FF302821FF302821FF302821FF302821FF302821FF302821FFFFFFFFFF302821FF302821FF302821FF302821FF302821FF302821FF302821FF302821FF302821FF302821FF302821FF302821FF302821FF302821FFFFFFFFFFFFFFFFFF302821FF302821FF302821FF302821FF302821FF
310
302821FF302821FF302821FF302821FF302821FF302821FF302821FF302821FF302821FF302821FFFFFFFFFF302821FF302821FF302821FF302821FF302821FF302821FF302821FF302821FF302821FF302821FF302821FF302821FF302821FF302821FFFFFFFFFFFFFFFFFF302821FF302821FF302821FF302821FF302821
310
FF302821FF302821FF302821FF302821FF302821FF302821FF302821FF302821FF302821FF302821FFFFFFFFFF302821FF302821FF302821FF302821FF302821FF302821FF302821FF302821FF302821FF302821FF302821FF302821FF302821FF302821FFFFFFFFFFFFFFFFFF302821FF302821FF302821FF302821FF3028
310
21FF302821FF302821FF302821FF302821FF302821FF302821FF302821FF302821FF302821FFFFFFFFFFFFFFFFFF302821FF302821FF302821FF302821FF302821FF302821FF302821FF302821FF302821FF302821FF302821FF302821FF302821FF302821FF302821FFFFFFFFFFFFFFFFFFFFFFFFFFFFFFFFFFFFFFFFFFFF
310
FFFFFFFFFFFFFFFFFFFFFFFFFFFFFFFFFFFFFFFFFFFFFFFFFFFFFFFFFFFFFFFFFFFFFFFFFFFFFFFFFFFFFF302821FF302821FF302821FF302821FF302821FF302821FF302821FF302821FF302821FF302821FF302821FF302821FF302821FF302821FF302821FF302821FF302821FF302821FF302821FF302821FF302821FF
310
302821FF302821FF302821FF302821FF302821FF302821FF302821FF302821FF302821FF302821FF302821FF302821FF302821FF302821FF302821FF302821FF302821FF302821FF
102
{BLKREFS
331
395
102
}
 70
     1
280
     1
281
     0
  0
ENDTAB
  0
ENDSEC
  0
SECTION
  2
BLOCKS
  0
BLOCK
  5
71
330
70
100
AcDbEntity
  8
0
100
AcDbBlockBegin
  2
*Model_Space
 70
     0
 10
0.0
 20
0.0
 30
0.0
  3
*Model_Space
  1

  0
ENDBLK
  5
72
330
70
100
AcDbEntity
  8
0
100
AcDbBlockEnd
  0
BLOCK
  5
6D
330
6C
100
AcDbEntity
 67
     1
  8
0
100
AcDbBlockBegin
  2
*Paper_Space
 70
     0
 10
0.0
 20
0.0
 30
0.0
  3
*Paper_Space
  1

  0
ENDBLK
  5
6E
330
6C
100
AcDbEntity
 67
     1
  8
0
100
AcDbBlockEnd
  0
BLOCK
  5
75
330
74
100
AcDbEntity
 67
     1
  8
0
100
AcDbBlockBegin
  2
*Paper_Space0
 70
     0
 10
0.0
 20
0.0
 30
0.0
  3
*Paper_Space0
  1

  0
ENDBLK
  5
76
330
74
100
AcDbEntity
 67
     1
  8
0
100
AcDbBlockEnd
  0
BLOCK
  5
2F1
330
2F0
100
AcDbEntity
  8
0
100
AcDbBlockBegin
  2
Toilet_Essence_39676000_Side View
 70
     0
 10
0.0
 20
0.0
 30
0.0
  3
Toilet_Essence_39676000_Side View
  1

  0
LINE
  5
2F3
330
2F0
100
AcDbEntity
  8
39676000
100
AcDbLine
 10
30.31960789147028
 20
16.49999999999983
 30
0.0
 11
8.653734278679266
 21
16.49999999999936
 31
0.0
1001
REVIT
1002
{
1070
     2
1000
-2001160
1002
}
  0
LWPOLYLINE
  5
2F4
330
2F0
100
AcDbEntity
  8
39676000
100
AcDbPolyline
 90
       40
 70
   128
 43
0.0
 10
30.03924632212142
 20
16.49982274921365
 10
30.04809350342126
 20
16.49929128041999
 10
30.05691235483651
 20
16.49840644385507
 10
30.06568876808616
 20
16.49716965506864
 10
30.07440870278121
 20
16.49558289265893
 10
30.0830582088863
 20
16.49364869510728
 10
30.09162344903681
 20
16.49137015671719
 10
30.10009072067562
 20
16.48875092266401
 10
30.10844647797439
 20
16.48579518316349
 10
30.1166773535039
 20
16.4825076667683
 10
30.12477017961912
 20
16.47889363280339
 10
30.13271200952467
 20
16.47495886295213
 10
30.14049013798684
 20
16.47070965200693
 10
30.14809212165934
 20
16.46615279779882
 10
30.15550579898997
 20
16.4612955903225
 10
30.1627193096765
 20
16.45614580007375
 10
30.16972111364065
 20
16.45071166561841
 10
30.17650000948968
 20
16.4450018804124
 10
30.18304515243634
 20
16.43902557889402
 10
30.18934607164814
 20
16.43279232187082
 10
30.19539268699846
 20
16.42631208122435
 10
30.20117532519261
 20
16.41959522395726
 10
30.20668473524305
 20
16.41265249560834
 10
30.21191210326898
 20
16.4054950030619
 10
30.21684906659668
 20
16.39813419677917
 10
30.22148772713796
 20
16.39058185247997
 10
30.2258206640255
 20
16.3828500523041
 10
30.22984094548459
 20
16.3749511654825
 10
30.23354213992251
 20
16.36689782854906
 10
30.2369183262177
 20
16.35870292512491
 10
30.2399641031923
 20
16.3503795653074
 10
30.24267459825291
 20
16.34194106469667
 10
30.24504547518561
 20
16.33340092309358
 10
30.24707294109306
 20
16.32477280290289
 10
30.24875375246234
 20
16.31607050727634
 10
30.2500852203538
 20
16.30730795803055
 10
30.25106521470285
 20
16.29849917337507
 10
30.25169216772758
 20
16.28965824548624
 10
30.25196507643689
 20
16.28079931796269
 10
30.25194446828364
 20
16.27455267739174
1001
REVIT
1002
{
1070
     2
1000
-2001160
1002
}
  0
LWPOLYLINE
  5
2F5
330
2F0
100
AcDbEntity
  8
39676000
100
AcDbPolyline
 90
       14
 70
   128
 43
0.0
 10
30.25194446828365
 20
16.27455267739174
 10
30.20140605545292
 20
14.92368797726409
 10
30.09688788802765
 20
13.57592482229193
 10
29.9385571727797
 20
12.23341934601576
 10
29.72666720507804
 20
10.89831927081172
 10
29.46155696367022
 20
9.572760471993987
 10
29.14365056838864
 20
8.258863560869869
 10
28.77345660164935
 20
6.958730492214087
 10
28.35156729482864
 20
5.674441201589601
 10
27.87865758081917
 20
4.408050277894261
 10
27.3554840142813
 20
3.161583676457027
 10
26.78288356131713
 20
1.937035477941492
 10
26.16177226050312
 20
0.7363646982422552
 10
25.80015477146158
 20
0.0896908478186021
1001
REVIT
1002
{
1070
     2
1000
-2001160
1002
}
  0
LINE
  5
2F6
330
2F0
100
AcDbEntity
  8
39676000
100
AcDbLine
 10
1.125000000000888
 20
30.94830068074891
 30
0.0
 11
1.125000000000888
 21
29.71368501007265
 31
0.0
1001
REVIT
1002
{
1070
     2
1000
-2001160
1002
}
  0
LINE
  5
2F7
330
2F0
100
AcDbEntity
  8
39676000
100
AcDbLine
 10
1.236440752501323
 20
29.68519149849615
 30
0.0
 11
1.449851909161246
 21
17.45887452187426
 31
0.0
1001
REVIT
1002
{
1070
     2
1000
-2001160
1002
}
  0
LWPOLYLINE
  5
2F8
330
2F0
100
AcDbEntity
  8
39676000
100
AcDbPolyline
 90
        4
 70
   128
 43
0.0
 10
1.153493511577394
 20
29.68519149849615
 10
1.152354075020809
 20
29.68521429026626
 10
1.151216461319648
 20
29.68528262911464
 10
1.150082490413161
 20
29.6853964057137
1001
REVIT
1002
{
1070
     2
1000
-2001160
1002
}
  0
LWPOLYLINE
  5
2F9
330
2F0
100
AcDbEntity
  8
39676000
100
AcDbPolyline
 90
        5
 70
   128
 43
0.0
 10
1.1445304056409
 20
29.68663795969869
 10
1.143455981633465
 20
29.68701802309276
 10
1.142397615532715
 20
29.68744074797736
 10
1.141357000498643
 20
29.68790545808283
 10
1.140335801293311
 20
29.68841140997213
1001
REVIT
1002
{
1070
     2
1000
-2001160
1002
}
  0
LWPOLYLINE
  5
2FA
330
2F0
100
AcDbEntity
  8
39676000
100
AcDbPolyline
 90
        4
 70
   128
 43
0.0
 10
1.648024488429769
 20
17.2641308706025
 10
1.64009849176314
 20
17.26428941167521
 10
1.632185175000337
 20
17.26476478126143
 10
1.624297197760149
 20
17.26555621887125
1001
REVIT
1002
{
1070
     2
1000
-2001160
1002
}
  0
LWPOLYLINE
  5
2FB
330
2F0
100
AcDbEntity
  8
39676000
100
AcDbPolyline
 90
        6
 70
   128
 43
0.0
 10
1.616447179123483
 20
17.2666624583733
 10
1.608647677445567
 20
17.26808173002038
 10
1.600911170265298
 20
17.26981176328061
 10
1.593250034343782
 20
17.27184979046983
 10
1.585676525864208
 20
17.27419255117928
 10
1.578202760824552
 20
17.27683629749161
1001
REVIT
1002
{
1070
     2
1000
-2001160
1002
}
  0
LWPOLYLINE
  5
2FC
330
2F0
100
AcDbEntity
  8
39676000
100
AcDbPolyline
 90
       13
 70
   128
 43
0.0
 10
1.570840695654553
 20
17.27977679997667
 10
1.563602108087998
 20
17.28300935445777
 10
1.556498578320848
 20
17.28652878953731
 10
1.54954147048538
 20
17.29032947486993
 10
1.542741914470035
 20
17.29440533016989
 10
1.536110788113944
 20
17.29874983493815
 10
1.529658699804706
 20
17.30335603889388
 10
1.523395971507248
 20
17.30821657309334
 10
1.517332622250862
 20
17.31332366171868
 10
1.511478352100922
 20
17.31866913451755
 10
1.505842526640819
 20
17.32424443987378
 10
1.500434161989048
 20
17.33004065848813
 10
1.495261910375319
 20
17.33604851764728
1001
REVIT
1002
{
1070
     2
1000
-2001160
1002
}
  0
LWPOLYLINE
  5
2FD
330
2F0
100
AcDbEntity
  8
39676000
100
AcDbPolyline
 90
       13
 70
   128
 43
0.0
 10
1.490334046298869
 20
17.34225840605819
 10
1.485658453290994
 20
17.34866038922411
 10
1.481242611303102
 20
17.35524422533765
 10
1.477093584740373
 20
17.3619993816655
 10
1.473218011160241
 20
17.36891505139857
 10
1.469622090653672
 20
17.37598017094055
 10
1.466311575926397
 20
17.3831834376073
 10
1.463291763095774
 20
17.39051332770879
 10
1.460567483218142
 20
17.39795811498448
 10
1.458143094560156
 20
17.40550588936286
 10
1.45602247562649
 20
17.41314457601504
 10
1.454209018955054
 20
17.42086195467186
 10
1.452705625689695
 20
17.42864567917377
1001
REVIT
1002
{
1070
     2
1000
-2001160
1002
}
  0
LWPOLYLINE
  5
2FE
330
2F0
100
AcDbEntity
  8
39676000
100
AcDbPolyline
 90
        4
 70
   128
 43
0.0
 10
1.451514700938915
 20
17.436483297222
 10
1.450638149928266
 20
17.4443622702996
 10
1.450077374952378
 20
17.45226999373042
 10
1.449851909161296
 20
17.45887452187426
1001
REVIT
1002
{
1070
     2
1000
-2001160
1002
}
  0
LWPOLYLINE
  5
2FF
330
2F0
100
AcDbEntity
  8
39676000
100
AcDbPolyline
 90
        4
 70
   128
 43
0.0
 10
1.125000000000881
 20
30.94830068074891
 10
1.12514134060936
 20
30.955366768877
 10
1.125565136319977
 20
30.96242155277143
 10
1.126270709149991
 20
30.96945374628291
1001
REVIT
1002
{
1070
     2
1000
-2001160
1002
}
  0
LWPOLYLINE
  5
300
330
2F0
100
AcDbEntity
  8
39676000
100
AcDbPolyline
 90
        6
 70
   128
 43
0.0
 10
1.127256930333395
 20
30.97645209940196
 10
1.128522222126683
 20
30.98340541625648
 10
1.13006456033289
 20
30.9903025730228
 10
1.131881477539906
 20
30.99713253572141
 10
1.133970067067785
 20
31.00388437786895
 10
1.136326987618829
 20
31.01054729795834
1001
REVIT
1002
{
1070
     2
1000
-2001160
1002
}
  0
LWPOLYLINE
  5
301
330
2F0
100
AcDbEntity
  8
39676000
100
AcDbPolyline
 90
        7
 70
   128
 43
0.0
 10
1.138948468622935
 20
31.01711063673876
 10
1.141830316269718
 20
31.02356389426827
 10
1.144967920217709
 20
31.02989674671145
 10
1.148356260969897
 20
31.03609906285532
 10
1.151989917903904
 20
31.04216092031713
 10
1.155863077943763
 20
31.0480726214181
 10
1.159969544859642
 20
31.05382470869752
1001
REVIT
1002
{
1070
     2
1000
-2001160
1002
}
  0
LWPOLYLINE
  5
302
330
2F0
100
AcDbEntity
  8
39676000
100
AcDbPolyline
 90
        6
 70
   128
 43
0.0
 10
1.164302749180478
 20
31.05940798004283
 10
1.16885575870372
 20
31.0648135034109
 10
1.173621289585391
 20
31.07003263111746
 10
1.178591717992674
 20
31.07505701367151
 10
1.183759092300419
 20
31.07987861313281
 10
1.189115145812046
 20
31.08448971597074
1001
REVIT
1002
{
1070
     2
1000
-2001160
1002
}
  0
LWPOLYLINE
  5
303
330
2F0
100
AcDbEntity
  8
39676000
100
AcDbPolyline
 90
        7
 70
   128
 43
0.0
 10
1.1946513099845
 20
31.08888294540444
 10
1.200358728136095
 20
31.09305127320397
 10
1.206228269615301
 20
31.09698803093405
 10
1.212250544407851
 20
31.10068692062211
 10
1.218415918158768
 20
31.10414202483371
 10
1.224714527585256
 20
31.10734781613915
 10
1.231136296255861
 20
31.11029916595621
1001
REVIT
1002
{
1070
     2
1000
-2001160
1002
}
  0
LWPOLYLINE
  5
304
330
2F0
100
AcDbEntity
  8
39676000
100
AcDbPolyline
 90
       10
 70
   128
 43
0.0
 10
1.237670950710622
 20
31.11299135275478
 10
1.244308036896391
 20
31.11542006961027
 10
1.251036936891104
 20
31.11758143109381
 10
1.257846885890202
 20
31.11947197948811
 10
1.264726989427991
 20
31.12108869031902
 10
1.271666240806489
 20
31.12242897719409
 10
1.278653538703778
 20
31.12349069594023
 10
1.285677704933782
 20
31.12427214803395
 10
1.292727502328929
 20
31.1247720833186
 10
1.299791652717267
 20
31.12498970200436
1001
REVIT
1002
{
1070
     2
1000
-2001160
1002
}
  0
LWPOLYLINE
  5
305
330
2F0
100
AcDbEntity
  8
39676000
100
AcDbPolyline
 90
        8
 70
   128
 43
0.0
 10
8.992928073670988
 20
29.69489682528846
 10
8.992159611687547
 20
29.69405521890109
 10
8.991358109112645
 20
29.69324501599214
 10
8.990524848179425
 20
29.69246751271339
 10
8.989661161927635
 20
29.69172395290428
 10
8.988768432071033
 20
29.69101552610186
 10
8.987848086786947
 20
29.69034336563789
 10
8.986901598431501
 20
29.68970854682573
1001
REVIT
1002
{
1070
     2
1000
-2001160
1002
}
  0
LWPOLYLINE
  5
306
330
2F0
100
AcDbEntity
  8
39676000
100
AcDbPolyline
 90
       11
 70
   128
 43
0.0
 10
8.981831333296447
 20
29.68712794358688
 10
8.98076107511509
 20
29.68673630273546
 10
8.979676011569239
 20
29.68638777406703
 10
8.978577878529094
 20
29.68608291515309
 10
8.977468432773264
 20
29.6858222137029
 10
8.976349449178286
 20
29.68560608678315
 10
8.975222717879212
 20
29.68543488015082
 10
8.974090041405766
 20
29.68530886769999
 10
8.972953231798676
 20
29.68522825102371
 10
8.971814107710812
 20
29.68519315909145
 10
8.971506488424431
 20
29.68519149849615
1001
REVIT
1002
{
1070
     2
1000
-2001160
1002
}
  0
LWPOLYLINE
  5
307
330
2F0
100
AcDbEntity
  8
39676000
100
AcDbPolyline
 90
        4
 70
   128
 43
0.0
 10
8.675148090840529
 20
17.45887452187426
 10
8.674851246199153
 20
17.45095249929849
 10
8.674237842593605
 20
17.44304868411539
 10
8.67330886133881
 20
17.43517572074318
1001
REVIT
1002
{
1070
     2
1000
-2001160
1002
}
  0
LWPOLYLINE
  5
308
330
2F0
100
AcDbEntity
  8
39676000
100
AcDbPolyline
 90
        6
 70
   128
 43
0.0
 10
8.672065788606602
 20
17.42734620424379
 10
8.670510613048179
 20
17.41957266017339
 10
8.668645822612681
 20
17.41186752454423
 10
8.666474400567004
 20
17.40424312392966
 10
8.663999820723205
 20
17.3967116557442
 10
8.661226041881157
 20
17.38928516873032
1001
REVIT
1002
{
1070
     2
1000
-2001160
1002
}
  0
LWPOLYLINE
  5
309
330
2F0
100
AcDbEntity
  8
39676000
100
AcDbPolyline
 90
       13
 70
   128
 43
0.0
 10
8.658157501495303
 20
17.381975543683
 10
8.654799108575666
 20
17.37479447444303
 10
8.651156235834498
 20
17.36775344918931
 10
8.647234711091087
 20
17.36086373206023
 10
8.643040807948466
 20
17.35413634513347
 10
8.638581235757023
 20
17.34758205079303
 10
8.633863128880925
 20
17.34121133451166
 10
8.628894035284709
 20
17.33503438807641
 10
8.623681904458109
 20
17.32906109328388
 10
8.618235074698588
 20
17.32330100613153
 10
8.612562259771827
 20
17.31776334153003
 10
8.606672534971579
 20
17.31245695856145
 10
8.600575322601116
 20
17.30739034630656
1001
REVIT
1002
{
1070
     2
1000
-2001160
1002
}
  0
LWPOLYLINE
  5
30A
330
2F0
100
AcDbEntity
  8
39676000
100
AcDbPolyline
 90
       13
 70
   128
 43
0.0
 10
8.594280376899554
 20
17.30257161026415
 10
8.587797768437184
 20
17.29800845938395
 10
8.581137868004638
 20
17.29370819373396
 10
8.57431133002192
 20
17.28967769282185
 10
8.567329075493553
 20
17.28592340458931
 10
8.56020227453731
 20
17.28245133509663
 10
8.552942328514419
 20
17.27926703891433
 10
8.545560851789808
 20
17.27637561023702
 10
8.538069653151602
 20
17.27378167473378
 10
8.530480716919598
 20
17.27148938214807
 10
8.522806183772871
 20
17.26950239965904
 10
8.515058331327317
 20
17.2678239060148
 10
8.507249554494045
 20
17.26645658644712
1001
REVIT
1002
{
1070
     2
1000
-2001160
1002
}
  0
LWPOLYLINE
  5
30B
330
2F0
100
AcDbEntity
  8
39676000
100
AcDbPolyline
 90
        4
 70
   128
 43
0.0
 10
8.499392345650221
 20
17.26540262837562
 10
8.491499274653875
 20
17.26466371790839
 10
8.483582968734829
 20
17.26424103714456
 10
8.476975511572007
 20
17.2641308706025
1001
REVIT
1002
{
1070
     2
1000
-2001160
1002
}
  0
LWPOLYLINE
  5
30C
330
2F0
100
AcDbEntity
  8
39676000
100
AcDbPolyline
 90
        4
 70
   128
 43
0.0
 10
8.823300680749802
 20
31.12500000000004
 10
8.830366768877894
 20
31.12485865939156
 10
8.837421552772326
 20
31.12443486368095
 10
8.844453746283811
 20
31.12372929085095
1001
REVIT
1002
{
1070
     2
1000
-2001160
1002
}
  0
LWPOLYLINE
  5
30D
330
2F0
100
AcDbEntity
  8
39676000
100
AcDbPolyline
 90
        6
 70
   128
 43
0.0
 10
8.851452099402855
 20
31.12274306966753
 10
8.858405416257376
 20
31.12147777787425
 10
8.86530257302369
 20
31.11993543966804
 10
8.872132535722293
 20
31.11811852246102
 10
8.878884377869844
 20
31.11602993293315
 10
8.885547297959234
 20
31.1136730123821
1001
REVIT
1002
{
1070
     2
1000
-2001160
1002
}
  0
LWPOLYLINE
  5
30E
330
2F0
100
AcDbEntity
  8
39676000
100
AcDbPolyline
 90
        7
 70
   128
 43
0.0
 10
8.892110636739651
 20
31.111051531378
 10
8.898563894269166
 20
31.10816968373121
 10
8.904896746712338
 20
31.10503207978323
 10
8.911099062856202
 20
31.10164373903103
 10
8.917160920318025
 20
31.09801008209703
 10
8.923072621418988
 20
31.09413692205717
 10
8.928824708698421
 20
31.09003045514128
1001
REVIT
1002
{
1070
     2
1000
-2001160
1002
}
  0
LWPOLYLINE
  5
30F
330
2F0
100
AcDbEntity
  8
39676000
100
AcDbPolyline
 90
        6
 70
   128
 43
0.0
 10
8.934407980043737
 20
31.08569725082046
 10
8.939813503411798
 20
31.08114424129721
 10
8.945032631118351
 20
31.07637871041554
 10
8.950057013672406
 20
31.07140828200825
 10
8.954878613133701
 20
31.06624090770051
 10
8.959489715971635
 20
31.06088485418888
1001
REVIT
1002
{
1070
     2
1000
-2001160
1002
}
  0
LWPOLYLINE
  5
310
330
2F0
100
AcDbEntity
  8
39676000
100
AcDbPolyline
 90
        7
 70
   128
 43
0.0
 10
8.963882945405337
 20
31.05534869001643
 10
8.968051273204864
 20
31.04964127186484
 10
8.971988030934944
 20
31.04377173038563
 10
8.975686920623012
 20
31.03774945559307
 10
8.979142024834608
 20
31.03158408184216
 10
8.982347816140041
 20
31.02528547241568
 10
8.985299165957101
 20
31.01886370374507
1001
REVIT
1002
{
1070
     2
1000
-2001160
1002
}
  0
LWPOLYLINE
  5
311
330
2F0
100
AcDbEntity
  8
39676000
100
AcDbPolyline
 90
       10
 70
   128
 43
0.0
 10
8.987991352755663
 20
31.01232904929031
 10
8.990420069611154
 20
31.00569196310454
 10
8.992581431094698
 20
30.99896306310983
 10
8.994471979488999
 20
30.99215311411072
 10
8.996088690319908
 20
30.98527301057294
 10
8.997428977194985
 20
30.97833375919444
 10
8.998490695941129
 20
30.97134646129716
 10
8.999272148034854
 20
30.96432229506715
 10
8.999772083319498
 20
30.957272497672
 10
8.999989702005251
 20
30.95020834728366
1001
REVIT
1002
{
1070
     2
1000
-2001160
1002
}
  0
LINE
  5
312
330
2F0
100
AcDbEntity
  8
39676000
100
AcDbLine
 10
9.000000000000852
 20
29.71368501007265
 30
0.0
 11
9.000000000000852
 21
30.94830068074891
 31
0.0
1001
REVIT
1002
{
1070
     2
1000
-2001160
1002
}
  0
LINE
  5
313
330
2F0
100
AcDbEntity
  8
39676000
100
AcDbLine
 10
8.675148090840494
 20
17.45887452187426
 30
0.0
 11
8.888559247500417
 21
29.68519149849615
 31
0.0
1001
REVIT
1002
{
1070
     2
1000
-2001160
1002
}
  0
LWPOLYLINE
  5
314
330
2F0
100
AcDbEntity
  8
39676000
100
AcDbPolyline
 90
        2
 70
   128
 43
0.0
 10
8.351288017345375
 20
17.2641308706025
 10
8.476975511571978
 20
17.2641308706025
1001
REVIT
1002
{
1070
     2
1000
-2001160
1002
}
  0
LINE
  5
315
330
2F0
100
AcDbEntity
  8
39676000
100
AcDbLine
 10
10.50000000000003
 20
3.194889000865387
 30
0.0
 11
10.50000000000003
 21
3.050284759739938
 31
0.0
1001
REVIT
1002
{
1070
     2
1000
-2001160
1002
}
  0
LINE
  5
316
330
2F0
100
AcDbEntity
  8
39676000
100
AcDbLine
 10
13.50000000000003
 20
3.050284759739923
 30
0.0
 11
13.50000000000003
 21
3.194889000865387
 31
0.0
1001
REVIT
1002
{
1070
     2
1000
-2001160
1002
}
  0
LWPOLYLINE
  5
317
330
2F0
100
AcDbEntity
  8
39676000
100
AcDbPolyline
 90
       37
 70
   128
 43
0.0
 10
4.077330709682492
 20
9.901850573452406
 10
3.954984159646805
 20
9.714661262913523
 10
3.840221049696843
 20
9.522729126781328
 10
3.733224976327043
 20
9.326361215530276
 10
3.634167110430183
 20
9.125871675928792
 10
3.543205923460483
 20
8.921581248471412
 10
3.460486933913067
 20
8.713816754262438
 10
3.386142474525449
 20
8.50291057217187
 10
3.320291480573324
 20
8.289200107100143
 10
3.263039299599569
 20
8.07302725020223
 10
3.214477522880592
 20
7.854737831934755
 10
3.174683838899845
 20
7.634681068801029
 10
3.143721909062833
 20
7.413209004679103
 10
3.121641265852439
 20
7.190675947626743
 10
3.1084772335875
 20
6.967437903064038
 10
3.104250871911482
 20
6.743852004240693
 10
3.108968942101483
 20
6.520275940899068
 10
3.122623896251667
 20
6.297067387046823
 10
3.145193889348291
 20
6.074583428754834
 10
3.176642814217082
 20
5.853179992895633
 10
3.216920359286987
 20
5.633211277736421
 10
3.265962089077994
 20
5.41502918629726
 10
3.323689547284104
 20
5.198982763381465
 10
3.390010382286718
 20
4.985417637178201
 10
3.464818494897528
 20
4.774675466331302
 10
3.547994208094578
 20
4.567093393358177
 10
3.639404458479944
 20
4.363003505293775
 10
3.738903009152828
 20
4.162732302422142
 10
3.846330683657377
 20
3.966600175945629
 10
3.961515620631068
 20
3.7749208954273
 10
4.084273548746224
 20
3.588001106826609
 10
4.214408081504814
 20
3.406139841931192
 10
4.351711031414986
 20
3.229628039969895
 10
4.495962743046604
 20
3.05874808217203
 10
4.646932444433126
 20
2.893773340017588
 10
4.80437861625748
 20
2.734967737901328
 10
4.83355026210819
 20
2.706902144265285
1001
REVIT
1002
{
1070
     2
1000
-2001160
1002
}
  0
LWPOLYLINE
  5
318
330
2F0
100
AcDbEntity
  8
39676000
100
AcDbPolyline
 90
        2
 70
   128
 43
0.0
 10
2.137631805582671
 20
16.45062061537489
 10
2.13700300841382
 20
16.4626405502277
1001
REVIT
1002
{
1070
     2
1000
-2001160
1002
}
  0
SPLINE
  5
319
330
2F0
100
AcDbEntity
  8
39676000
100
AcDbSpline
210
0.0
220
0.0
230
1.0
 70
     8
 71
     3
 72
    11
 73
     7
 74
     0
 42
0.000000001
 43
0.0000000001
 40
-1.0
 40
-1.0
 40
-1.0
 40
-1.0
 40
-0.75
 40
-0.5
 40
-0.25
 40
0.0
 40
0.0
 40
0.0
 40
0.0
 10
2.773456797695942
 20
14.03675429913757
 30
0.0
 10
2.690957374522454
 20
14.09068744728011
 30
0.0
 10
2.542908076639108
 20
14.21363963501537
 30
0.0
 10
2.366915665623956
 20
14.44872074407757
 30
0.0
 10
2.251306119161696
 20
14.71850412443518
 30
0.0
 10
2.218775850261437
 20
14.90842504113787
 30
0.0
 10
2.213289113076669
 20
15.00699318965635
 30
0.0
1001
REVIT
1002
{
1070
     2
1000
-2001160
1002
}
  0
LWPOLYLINE
  5
31A
330
2F0
100
AcDbEntity
  8
39676000
100
AcDbPolyline
 90
        2
 70
   128
 43
0.0
 10
3.264128142544564
 20
13.71810860202844
 10
2.773456797695935
 20
14.03675429913757
1001
REVIT
1002
{
1070
     2
1000
-2001160
1002
}
  0
SPLINE
  5
31B
330
2F0
100
AcDbEntity
  8
39676000
100
AcDbSpline
210
0.0
220
0.0
230
1.0
 70
     8
 71
     3
 72
    11
 73
     7
 74
     0
 42
0.000000001
 43
0.0000000001
 40
-1.0
 40
-1.0
 40
-1.0
 40
-1.0
 40
-0.75
 40
-0.5
 40
-0.25
 40
0.0
 40
0.0
 40
0.0
 40
0.0
 10
3.76991919803779
 20
12.89273261478718
 30
0.0
 10
3.760876332277604
 20
12.97680784966987
 30
0.0
 10
3.725479216055063
 20
13.13859662773249
 30
0.0
 10
3.61873304468061
 20
13.36709854291428
 30
0.0
 10
3.46348540506797
 20
13.56648883469373
 30
0.0
 10
3.335137920521027
 20
13.67173189748113
 30
0.0
 10
3.264128142544571
 20
13.71810860202844
 30
0.0
1001
REVIT
1002
{
1070
     2
1000
-2001160
1002
}
  0
LWPOLYLINE
  5
31C
330
2F0
100
AcDbEntity
  8
39676000
100
AcDbPolyline
 90
        3
 70
   128
 43
0.0
 10
4.228047615198477
 20
8.533439257338258
 10
4.124029530818582
 20
9.523597851704735
 10
3.769919198037818
 20
12.89273261478693
1001
REVIT
1002
{
1070
     2
1000
-2001160
1002
}
  0
ELLIPSE
  5
31D
330
2F0
100
AcDbEntity
  8
39676000
100
AcDbEllipse
 10
12.00000000000002
 20
3.050284759739923
 30
0.0
 11
1.5
 21
0.0
 31
0.0
210
0.0
220
0.0
230
1.0
 40
0.9925461516413204
 41
0.0
 42
3.14159265358978
1001
REVIT
1002
{
1070
     2
1000
-2001160
1002
}
  0
ELLIPSE
  5
31E
330
2F0
100
AcDbEntity
  8
39676000
100
AcDbEllipse
 10
12.00000000000002
 20
3.050284759739923
 30
0.0
 11
1.5
 21
0.0
 31
0.0
210
0.0
220
0.0
230
1.0
 40
0.99254615164132
 41
3.141592653589793
 42
6.283185307179577
1001
REVIT
1002
{
1070
     2
1000
-2001160
1002
}
  0
LINE
  5
31F
330
2F0
100
AcDbEntity
  8
39676000
100
AcDbLine
 10
25.78274245590145
 20
0.0
 30
0.0
 11
25.86305578480898
 21
0.3096433968674432
 31
0.0
1001
REVIT
1002
{
1070
     2
1000
-2001160
1002
}
  0
LINE
  5
320
330
2F0
100
AcDbEntity
  8
39676000
100
AcDbLine
 10
25.77672519531115
 20
0.0
 30
0.0
 11
5.124999999999864
 21
0.0
 31
0.0
1001
REVIT
1002
{
1070
     2
1000
-2001160
1002
}
  0
LWPOLYLINE
  5
321
330
2F0
100
AcDbEntity
  8
39676000
100
AcDbPolyline
 90
        4
 70
   128
 43
0.0
 10
8.680912984195806
 20
16.45779870924055
 10
8.642021680012554
 20
16.513958531539
 10
8.449261687677896
 20
16.8875569468402
 10
8.343410782758645
 20
17.29440799635121
1001
REVIT
1002
{
1070
     2
1000
-2001160
1002
}
  0
LINE
  5
322
330
2F0
100
AcDbEntity
  8
39676000
100
AcDbLine
 10
7.319696469841204
 20
17.2944079963512
 30
0.0
 11
8.343410782758645
 21
17.2944079963512
 31
0.0
1001
REVIT
1002
{
1070
     2
1000
-2001160
1002
}
  0
LINE
  5
323
330
2F0
100
AcDbEntity
  8
39676000
100
AcDbLine
 10
2.137062181107488
 20
16.46148969784653
 30
0.0
 11
2.094997539682211
 21
17.26413087060248
 31
0.0
1001
REVIT
1002
{
1070
     2
1000
-2001160
1002
}
  0
LINE
  5
324
330
2F0
100
AcDbEntity
  8
39676000
100
AcDbLine
 10
5.124999999999864
 20
0.0
 30
0.0
 11
4.227112958059834
 21
8.542824555741162
 31
0.0
1001
REVIT
1002
{
1070
     2
1000
-2001160
1002
}
  0
LWPOLYLINE
  5
325
330
2F0
100
AcDbEntity
  8
39676000
100
AcDbPolyline
 90
       41
 70
   128
 43
0.0
 10
30.20156088450031
 20
17.82685685131082
 10
30.20891132531293
 20
17.82664563969584
 10
30.21624744034506
 20
17.82614065779356
 10
30.22355749337759
 20
17.82534271346728
 10
30.23082978988507
 20
17.82425308325772
 10
30.23805269574441
 20
17.82287351034076
 10
30.24521465584706
 20
17.82120620173877
 10
30.25230421258466
 20
17.81925382478987
 10
30.25931002417877
 20
17.81701950288066
 10
30.26622088282535
 20
17.81450681044958
 10
30.27302573262479
 20
17.8117197672685
 10
30.27971368726906
 20
17.80866283201197
 10
30.28627404745739
 20
17.80534089512431
 10
30.29269631801295
 20
17.80175927099587
 10
30.29897022467286
 20
17.79792368946124
 10
30.30508573052486
 20
17.79384028663264
 10
30.31103305206411
 20
17.78951559508353
 10
30.31680267484488
 20
17.78495653339784
 10
30.32238536870148
 20
17.78017039510172
 10
30.32777220251466
 20
17.77516483699545
 10
30.33295455849947
 20
17.76994786690419
 10
30.33792414599182
 20
17.76452783086721
 10
30.34267301471184
 20
17.75891339978596
 10
30.34719356748263
 20
17.75311355555247
 10
30.35147857238409
 20
17.7471375766803
 10
30.35552117432246
 20
17.74099502346082
 10
30.35931490599701
 20
17.73469572266884
 10
30.36285369824636
 20
17.72824975184187
 10
30.3661318897578
 20
17.72166742315816
 10
30.36914423612423
 20
17.71495926693943
 10
30.37188591823407
 20
17.70813601480464
 10
30.37435254998077
 20
17.70120858250166
 10
30.37654018527976
 20
17.6941880524444
 10
30.37844532438122
 20
17.68708565598334
 10
30.380064919469
 20
17.67991275543767
 10
30.38139637953643
 20
17.67268082591818
 10
30.38243757453147
 20
17.66540143696933
 10
30.38318683876421
 20
17.65808623406061
 10
30.38364297357172
 20
17.65074691995617
 10
30.38380524923562
 20
17.64339523599295
 10
30.38379864259015
 20
17.64141036139992
1001
REVIT
1002
{
1070
     2
1000
-2001160
1002
}
  0
LINE
  5
326
330
2F0
100
AcDbEntity
  8
39676000
100
AcDbLine
 10
30.37383766021534
 20
16.49999483711414
 30
0.0
 11
30.38379864259011
 21
17.64141036139991
 31
0.0
1001
REVIT
1002
{
1070
     2
1000
-2001160
1002
}
  0
LWPOLYLINE
  5
327
330
2F0
100
AcDbEntity
  8
39676000
100
AcDbPolyline
 90
        4
 70
   128
 43
0.0
 10
11.26148543733784
 20
17.80828826059575
 10
11.26169664895281
 20
17.81563870140837
 10
11.26220163085509
 20
17.8229748164405
 10
11.26299957518137
 20
17.83028486947303
1001
REVIT
1002
{
1070
     2
1000
-2001160
1002
}
  0
LWPOLYLINE
  5
328
330
2F0
100
AcDbEntity
  8
39676000
100
AcDbPolyline
 90
        6
 70
   128
 43
0.0
 10
11.26408920539094
 20
17.8375571659805
 10
11.2654687783079
 20
17.84478007183985
 10
11.26713608690988
 20
17.85194203194251
 10
11.26908846385879
 20
17.8590315886801
 10
11.271322785768
 20
17.86603740027422
 10
11.27383547819908
 20
17.8729482589208
1001
REVIT
1002
{
1070
     2
1000
-2001160
1002
}
  0
LWPOLYLINE
  5
329
330
2F0
100
AcDbEntity
  8
39676000
100
AcDbPolyline
 90
        7
 70
   128
 43
0.0
 10
11.27662252138016
 20
17.87975310872024
 10
11.27967945663668
 20
17.8864410633645
 10
11.28300139352435
 20
17.89300142355283
 10
11.28658301765279
 20
17.89942369410839
 10
11.29041859918742
 20
17.9056976007683
 10
11.29450200201602
 20
17.91181310662028
 10
11.29882669356512
 20
17.91776042815955
1001
REVIT
1002
{
1070
     2
1000
-2001160
1002
}
  0
LWPOLYLINE
  5
32A
330
2F0
100
AcDbEntity
  8
39676000
100
AcDbPolyline
 90
        6
 70
   128
 43
0.0
 10
11.3033857552508
 20
17.92353005094031
 10
11.30817189354694
 20
17.92911274479692
 10
11.31317745165321
 20
17.9344995786101
 10
11.31839442174446
 20
17.93968193459491
 10
11.32381445778144
 20
17.94465152208725
 10
11.3294288888627
 20
17.94940039080728
1001
REVIT
1002
{
1070
     2
1000
-2001160
1002
}
  0
LWPOLYLINE
  5
32B
330
2F0
100
AcDbEntity
  8
39676000
100
AcDbPolyline
 90
        7
 70
   128
 43
0.0
 10
11.33522873309618
 20
17.95392094357807
 10
11.34120471196836
 20
17.95820594847953
 10
11.34734726518784
 20
17.96224855041791
 10
11.35364656597981
 20
17.96604228209246
 10
11.36009253680678
 20
17.96958107434181
 10
11.3666748654905
 20
17.97285926585324
 10
11.37338302170923
 20
17.97587161221968
1001
REVIT
1002
{
1070
     2
1000
-2001160
1002
}
  0
LWPOLYLINE
  5
32C
330
2F0
100
AcDbEntity
  8
39676000
100
AcDbPolyline
 90
       10
 70
   128
 43
0.0
 10
11.38020627384402
 20
17.9786132943295
 10
11.38713370614699
 20
17.98107992607621
 10
11.39415423620425
 20
17.9832675613752
 10
11.40125663266533
 20
17.98517270047666
 10
11.40842953321098
 20
17.98679229556443
 10
11.41566146273049
 20
17.98812375563187
 10
11.42294085167933
 20
17.98916495062691
 10
11.43025605458805
 20
17.98991421485965
 10
11.43759536869248
 20
17.99037034966717
 10
11.44494705265571
 20
17.99053262533106
1001
REVIT
1002
{
1070
     2
1000
-2001160
1002
}
  0
LWPOLYLINE
  5
32D
330
2F0
100
AcDbEntity
  8
39676000
100
AcDbPolyline
 90
        3
 70
   128
 43
0.0
 10
30.20156088450031
 20
17.82685685131082
 10
11.44695035174745
 20
17.99052585789744
 10
11.4469319272487
 20
17.99052601868561
1001
REVIT
1002
{
1070
     2
1000
-2001160
1002
}
  0
LINE
  5
32E
330
2F0
100
AcDbEntity
  8
39676000
100
AcDbLine
 10
11.26148543733783
 20
17.80828826059574
 30
0.0
 11
11.2500681786554
 21
16.49999999999991
 31
0.0
1001
REVIT
1002
{
1070
     2
1000
-2001160
1002
}
  0
LWPOLYLINE
  5
32F
330
2F0
100
AcDbEntity
  8
39676000
100
AcDbPolyline
 90
        2
 70
   128
 43
0.0
 10
30.31960789147028
 20
16.49999999999983
 10
30.36889973833354
 20
16.49999535434091
1001
REVIT
1002
{
1070
     2
1000
-2001160
1002
}
  0
LWPOLYLINE
  5
330
330
2F0
100
AcDbEntity
  8
39676000
100
AcDbPolyline
 90
        2
 70
   128
 43
0.0
 10
11.33373065882905
 20
16.50000044219432
 10
11.35915659117386
 20
16.4999999999999
1001
REVIT
1002
{
1070
     2
1000
-2001160
1002
}
  0
LINE
  5
331
330
2F0
100
AcDbEntity
  8
39676000
100
AcDbLine
 10
5.000000000000433
 20
28.69512381929627
 30
0.0
 11
2.331946257132926
 21
28.69512381929635
 31
0.0
1001
REVIT
1002
{
1070
     2
1000
-2001160
1002
}
  0
ARC
  5
332
330
2F0
100
AcDbEntity
  8
39676000
100
AcDbCircle
 10
2.331946257132912
 20
28.30873324552591
 30
0.0
 40
0.3863905737704347
100
AcDbArc
 50
89.99999999999836
 51
270.0
1001
REVIT
1002
{
1070
     2
1000
-2001160
1002
}
  0
LINE
  5
333
330
2F0
100
AcDbEntity
  8
39676000
100
AcDbLine
 10
2.331946257132912
 20
27.92234267175548
 30
0.0
 11
5.000000000000419
 21
27.92234267175549
 31
0.0
1001
REVIT
1002
{
1070
     2
1000
-2001160
1002
}
  0
ARC
  5
334
330
2F0
100
AcDbEntity
  8
39676000
100
AcDbCircle
 10
5.000000000000419
 20
28.30873324552588
 30
0.0
 40
0.3863905737703948
100
AcDbArc
 50
270.0000000000004
 51
89.99999999999797
1001
REVIT
1002
{
1070
     2
1000
-2001160
1002
}
  0
ARC
  5
335
330
2F0
100
AcDbEntity
  8
39676000
100
AcDbCircle
 10
5.000000000000419
 20
28.30873324552587
 30
0.0
 40
0.7499999999999916
100
AcDbArc
 50
211.0999711071881
 51
148.9000250153862
1001
REVIT
1002
{
1070
     2
1000
-2001160
1002
}
  0
LINE
  5
336
330
2F0
100
AcDbEntity
  8
39676000
100
AcDbLine
 10
2.213289113076669
 20
15.00699318965635
 30
0.0
 11
2.137631805582671
 21
16.45062061537489
 31
0.0
  0
LINE
  5
337
330
2F0
100
AcDbEntity
  8
39676000
100
AcDbLine
 10
8.823300680749774
 20
31.12500000000004
 30
0.0
 11
1.301699319251966
 21
31.12500000000004
 31
0.0
  0
LINE
  5
338
330
2F0
100
AcDbEntity
  8
39676000
100
AcDbLine
 10
1.648024488429769
 20
17.2641308706025
 30
0.0
 11
7.292555746538887
 21
17.2641308706025
 31
0.0
  0
LINE
  5
339
330
2F0
100
AcDbEntity
  8
39676000
100
AcDbLine
 10
1.153493511577345
 20
29.68519149849615
 30
0.0
 11
8.971506488424395
 21
29.68519149849615
 31
0.0
  0
ENDBLK
  5
2F2
330
2F0
100
AcDbEntity
  8
0
100
AcDbBlockEnd
  0
BLOCK
  5
33C
330
33B
100
AcDbEntity
  8
0
100
AcDbBlockBegin
  2
Toilet_Essence_39676000_Front View
 70
     0
 10
0.0
 20
0.0
 30
0.0
  3
Toilet_Essence_39676000_Front View
  1

  0
LWPOLYLINE
  5
33E
330
33B
100
AcDbEntity
  8
39676000
100
AcDbPolyline
 90
       10
 70
   128
 43
0.0
 10
-8.221506488423539
 20
29.68519149849615
 10
-8.222645924980124
 20
29.68521429026626
 10
-8.223783538681283
 20
29.68528262911464
 10
-8.224917509587777
 20
29.6853964057137
 10
-8.22604602358805
 20
29.68555543804515
 10
-8.227167275300448
 20
29.68575947169119
 10
-8.228279470961409
 20
29.68600818024152
 10
-8.229380831295134
 20
29.68630116581548
 10
-8.230469594360037
 20
29.68663795969869
 10
-8.23154401836747
 20
29.68701802309278
1001
REVIT
1002
{
1070
     2
1000
-2001160
1002
}
  0
LWPOLYLINE
  5
33F
330
33B
100
AcDbEntity
  8
39676000
100
AcDbPolyline
 90
        8
 70
   128
 43
0.0
 10
-8.23664184850328
 20
29.68954373675874
 10
-8.23759513527581
 20
29.69016830017473
 10
-8.238522683645438
 20
29.69083048530992
 10
-8.239423009732639
 20
29.69152923280935
 10
-8.240294673207733
 20
29.6922634248261
 10
-8.241136279595103
 20
29.69303188680953
 10
-8.241946482504065
 20
29.69383338938444
 10
-8.242723985782799
 20
29.69466665031766
1001
REVIT
1002
{
1070
     2
1000
-2001160
1002
}
  0
LWPOLYLINE
  5
340
330
33B
100
AcDbEntity
  8
39676000
100
AcDbPolyline
 90
        4
 70
   128
 43
0.0
 10
-7.726975511571128
 20
17.26413087060251
 10
-7.734901508237799
 20
17.26428941167522
 10
-7.742814825000598
 20
17.26476478126144
 10
-7.750702802240786
 20
17.26555621887125
1001
REVIT
1002
{
1070
     2
1000
-2001160
1002
}
  0
LWPOLYLINE
  5
341
330
33B
100
AcDbEntity
  8
39676000
100
AcDbPolyline
 90
        6
 70
   128
 43
0.0
 10
-7.758552820877453
 20
17.2666624583733
 10
-7.766352322555366
 20
17.26808173002038
 10
-7.774088829735639
 20
17.26981176328061
 10
-7.781749965657155
 20
17.27184979046983
 10
-7.789323474136729
 20
17.27419255117929
 10
-7.796797239176386
 20
17.27683629749161
1001
REVIT
1002
{
1070
     2
1000
-2001160
1002
}
  0
LWPOLYLINE
  5
342
330
33B
100
AcDbEntity
  8
39676000
100
AcDbPolyline
 90
       13
 70
   128
 43
0.0
 10
-7.804159304346383
 20
17.27977679997668
 10
-7.811397891912935
 20
17.28300935445777
 10
-7.818501421680091
 20
17.28652878953731
 10
-7.825458529515554
 20
17.29032947486994
 10
-7.832258085530899
 20
17.29440533016989
 10
-7.838889211886993
 20
17.29874983493816
 10
-7.845341300196229
 20
17.30335603889388
 10
-7.85160402849369
 20
17.30821657309334
 10
-7.85766737775007
 20
17.31332366171868
 10
-7.863521647900011
 20
17.31866913451755
 10
-7.869157473360113
 20
17.32424443987378
 10
-7.874565838011887
 20
17.33004065848814
 10
-7.879738089625613
 20
17.3360485176473
1001
REVIT
1002
{
1070
     2
1000
-2001160
1002
}
  0
LWPOLYLINE
  5
343
330
33B
100
AcDbEntity
  8
39676000
100
AcDbPolyline
 90
       13
 70
   128
 43
0.0
 10
-7.884665953702064
 20
17.34225840605821
 10
-7.889341546709941
 20
17.34866038922411
 10
-7.893757388697832
 20
17.35524422533766
 10
-7.89790641526056
 20
17.3619993816655
 10
-7.901781988840697
 20
17.36891505139857
 10
-7.905377909347263
 20
17.37598017094055
 10
-7.908688424074535
 20
17.38318343760731
 10
-7.911708236905157
 20
17.3905133277088
 10
-7.91443251678279
 20
17.39795811498449
 10
-7.916856905440782
 20
17.40550588936287
 10
-7.918977524374449
 20
17.41314457601504
 10
-7.920790981045879
 20
17.42086195467186
 10
-7.92229437431124
 20
17.42864567917377
1001
REVIT
1002
{
1070
     2
1000
-2001160
1002
}
  0
LWPOLYLINE
  5
344
330
33B
100
AcDbEntity
  8
39676000
100
AcDbPolyline
 90
        4
 70
   128
 43
0.0
 10
-7.92348529906202
 20
17.436483297222
 10
-7.924361850072671
 20
17.4443622702996
 10
-7.924922625048555
 20
17.45226999373043
 10
-7.925148090839638
 20
17.45887452187426
1001
REVIT
1002
{
1070
     2
1000
-2001160
1002
}
  0
LWPOLYLINE
  5
345
330
33B
100
AcDbEntity
  8
39676000
100
AcDbPolyline
 90
        4
 70
   128
 43
0.0
 10
-8.250000000000051
 20
30.94830068074891
 10
-8.249858659391573
 20
30.95536676887701
 10
-8.249434863680958
 20
30.96242155277144
 10
-8.248729290850942
 20
30.96945374628293
1001
REVIT
1002
{
1070
     2
1000
-2001160
1002
}
  0
LWPOLYLINE
  5
346
330
33B
100
AcDbEntity
  8
39676000
100
AcDbPolyline
 90
        6
 70
   128
 43
0.0
 10
-8.247743069667537
 20
30.97645209940197
 10
-8.246477777874254
 20
30.98340541625649
 10
-8.244935439668047
 20
30.9903025730228
 10
-8.243118522461031
 20
30.99713253572141
 10
-8.24102993293315
 20
31.00388437786896
 10
-8.238673012382108
 20
31.01054729795834
1001
REVIT
1002
{
1070
     2
1000
-2001160
1002
}
  0
LWPOLYLINE
  5
347
330
33B
100
AcDbEntity
  8
39676000
100
AcDbPolyline
 90
        7
 70
   128
 43
0.0
 10
-8.236051531377999
 20
31.01711063673877
 10
-8.233169683731217
 20
31.02356389426827
 10
-8.230032079783228
 20
31.02989674671145
 10
-8.226643739031034
 20
31.03609906285532
 10
-8.223010082097031
 20
31.04216092031714
 10
-8.219136922057172
 20
31.0480726214181
 10
-8.215030455141295
 20
31.05382470869753
1001
REVIT
1002
{
1070
     2
1000
-2001160
1002
}
  0
LWPOLYLINE
  5
348
330
33B
100
AcDbEntity
  8
39676000
100
AcDbPolyline
 90
        6
 70
   128
 43
0.0
 10
-8.210697250820459
 20
31.05940798004285
 10
-8.206144241297215
 20
31.06481350341092
 10
-8.201378710415541
 20
31.07003263111747
 10
-8.19640828200826
 20
31.07505701367152
 10
-8.191240907700514
 20
31.07987861313282
 10
-8.185884854188888
 20
31.08448971597075
1001
REVIT
1002
{
1070
     2
1000
-2001160
1002
}
  0
LWPOLYLINE
  5
349
330
33B
100
AcDbEntity
  8
39676000
100
AcDbPolyline
 90
        7
 70
   128
 43
0.0
 10
-8.180348690016431
 20
31.08888294540444
 10
-8.174641271864841
 20
31.09305127320397
 10
-8.168771730385634
 20
31.09698803093406
 10
-8.162749455593083
 20
31.10068692062212
 10
-8.156584081842167
 20
31.10414202483371
 10
-8.150285472415681
 20
31.10734781613916
 10
-8.143863703745074
 20
31.11029916595621
1001
REVIT
1002
{
1070
     2
1000
-2001160
1002
}
  0
LWPOLYLINE
  5
34A
330
33B
100
AcDbEntity
  8
39676000
100
AcDbPolyline
 90
       10
 70
   128
 43
0.0
 10
-8.137329049290315
 20
31.11299135275478
 10
-8.130691963104547
 20
31.11542006961027
 10
-8.12396306310983
 20
31.11758143109382
 10
-8.117153114110733
 20
31.11947197948811
 10
-8.110273010572946
 20
31.12108869031902
 10
-8.10333375919445
 20
31.12242897719409
 10
-8.096346461297155
 20
31.12349069594025
 10
-8.089322295067155
 20
31.12427214803396
 10
-8.082272497672008
 20
31.1247720833186
 10
-8.075208347283668
 20
31.12498970200436
1001
REVIT
1002
{
1070
     2
1000
-2001160
1002
}
  0
LWPOLYLINE
  5
34B
330
33B
100
AcDbEntity
  8
39676000
100
AcDbPolyline
 90
        8
 70
   128
 43
0.0
 10
8.242928073669101
 20
29.69489682528847
 10
8.242159611685657
 20
29.6940552189011
 10
8.241358109110755
 20
29.69324501599214
 10
8.240524848177537
 20
29.6924675127134
 10
8.239661161925747
 20
29.69172395290428
 10
8.238768432069143
 20
29.69101552610187
 10
8.237848086785053
 20
29.6903433656379
 10
8.236901598429607
 20
29.68970854682574
1001
REVIT
1002
{
1070
     2
1000
-2001160
1002
}
  0
LWPOLYLINE
  5
34C
330
33B
100
AcDbEntity
  8
39676000
100
AcDbPolyline
 90
       11
 70
   128
 43
0.0
 10
8.231831333294557
 20
29.68712794358689
 10
8.230761075113202
 20
29.68673630273547
 10
8.229676011567351
 20
29.68638777406703
 10
8.228577878527204
 20
29.68608291515309
 10
8.227468432771368
 20
29.6858222137029
 10
8.226349449176391
 20
29.68560608678317
 10
8.225222717877318
 20
29.68543488015083
 10
8.224090041403872
 20
29.6853088677
 10
8.222953231796786
 20
29.68522825102372
 10
8.221814107708921
 20
29.68519315909146
 10
8.221506488422539
 20
29.68519149849615
1001
REVIT
1002
{
1070
     2
1000
-2001160
1002
}
  0
LWPOLYLINE
  5
34D
330
33B
100
AcDbEntity
  8
39676000
100
AcDbPolyline
 90
        4
 70
   128
 43
0.0
 10
7.925148090838639
 20
17.45887452187426
 10
7.924851246197256
 20
17.45095249929849
 10
7.924237842591713
 20
17.44304868411539
 10
7.923308861336916
 20
17.43517572074319
1001
REVIT
1002
{
1070
     2
1000
-2001160
1002
}
  0
LWPOLYLINE
  5
34E
330
33B
100
AcDbEntity
  8
39676000
100
AcDbPolyline
 90
        7
 70
   128
 43
0.0
 10
7.922065788604708
 20
17.42734620424379
 10
7.920510613046289
 20
17.41957266017339
 10
7.918645822610788
 20
17.41186752454423
 10
7.916474400565112
 20
17.40424312392967
 10
7.913999820721318
 20
17.3967116557442
 10
7.911226041879269
 20
17.38928516873032
 10
7.910497289091473
 20
17.38754919365387
1001
REVIT
1002
{
1070
     2
1000
-2001160
1002
}
  0
LWPOLYLINE
  5
34F
330
33B
100
AcDbEntity
  8
39676000
100
AcDbPolyline
 90
       13
 70
   128
 43
0.0
 10
7.908157501493413
 20
17.38197554368301
 10
7.904799108573774
 20
17.37479447444303
 10
7.901156235832608
 20
17.36775344918931
 10
7.897234711089193
 20
17.36086373206024
 10
7.893040807946576
 20
17.35413634513348
 10
7.888581235755125
 20
17.34758205079304
 10
7.883863128879029
 20
17.34121133451167
 10
7.878894035282819
 20
17.33503438807641
 10
7.873681904456217
 20
17.32906109328389
 10
7.868235074696697
 20
17.32330100613153
 10
7.862562259769937
 20
17.31776334153004
 10
7.856672534969691
 20
17.31245695856145
 10
7.850575322599226
 20
17.30739034630656
1001
REVIT
1002
{
1070
     2
1000
-2001160
1002
}
  0
LWPOLYLINE
  5
350
330
33B
100
AcDbEntity
  8
39676000
100
AcDbPolyline
 90
       13
 70
   128
 43
0.0
 10
7.844280376897671
 20
17.30257161026416
 10
7.837797768435288
 20
17.29800845938396
 10
7.831137868002748
 20
17.29370819373396
 10
7.824311330020028
 20
17.28967769282185
 10
7.817329075491665
 20
17.28592340458931
 10
7.81020227453542
 20
17.28245133509664
 10
7.802942328512529
 20
17.27926703891434
 10
7.795560851787918
 20
17.27637561023702
 10
7.788069653149717
 20
17.27378167473378
 10
7.780480716917709
 20
17.27148938214808
 10
7.772806183770981
 20
17.26950239965904
 10
7.765058331325423
 20
17.2678239060148
 10
7.757249554492155
 20
17.26645658644712
1001
REVIT
1002
{
1070
     2
1000
-2001160
1002
}
  0
LWPOLYLINE
  5
351
330
33B
100
AcDbEntity
  8
39676000
100
AcDbPolyline
 90
        4
 70
   128
 43
0.0
 10
7.749392345648333
 20
17.26540262837562
 10
7.741499274651982
 20
17.2646637179084
 10
7.733582968732944
 20
17.26424103714457
 10
7.726975511570119
 20
17.26413087060251
1001
REVIT
1002
{
1070
     2
1000
-2001160
1002
}
  0
LWPOLYLINE
  5
352
330
33B
100
AcDbEntity
  8
39676000
100
AcDbPolyline
 90
        4
 70
   128
 43
0.0
 10
8.073300680747916
 20
31.12500000000006
 10
8.080366768876002
 20
31.12485865939157
 10
8.087421552770434
 20
31.12443486368096
 10
8.094453746281921
 20
31.12372929085095
1001
REVIT
1002
{
1070
     2
1000
-2001160
1002
}
  0
LWPOLYLINE
  5
353
330
33B
100
AcDbEntity
  8
39676000
100
AcDbPolyline
 90
        6
 70
   128
 43
0.0
 10
8.101452099400967
 20
31.12274306966754
 10
8.108405416255482
 20
31.12147777787426
 10
8.115302573021798
 20
31.11993543966805
 10
8.1221325357204
 20
31.11811852246103
 10
8.128884377867958
 20
31.11602993293315
 10
8.135547297957339
 20
31.11367301238211
1001
REVIT
1002
{
1070
     2
1000
-2001160
1002
}
  0
LWPOLYLINE
  5
354
330
33B
100
AcDbEntity
  8
39676000
100
AcDbPolyline
 90
        7
 70
   128
 43
0.0
 10
8.142110636737763
 20
31.111051531378
 10
8.148563894267271
 20
31.10816968373122
 10
8.154896746710448
 20
31.10503207978323
 10
8.161099062854315
 20
31.10164373903103
 10
8.167160920316137
 20
31.09801008209704
 10
8.173072621417098
 20
31.09413692205718
 10
8.178824708696533
 20
31.09003045514129
1001
REVIT
1002
{
1070
     2
1000
-2001160
1002
}
  0
LWPOLYLINE
  5
355
330
33B
100
AcDbEntity
  8
39676000
100
AcDbPolyline
 90
        6
 70
   128
 43
0.0
 10
8.184407980041841
 20
31.08569725082046
 10
8.189813503409906
 20
31.08114424129721
 10
8.195032631116458
 20
31.07637871041554
 10
8.200057013670519
 20
31.07140828200826
 10
8.20487861313181
 20
31.06624090770052
 10
8.209489715969745
 20
31.0608848541889
1001
REVIT
1002
{
1070
     2
1000
-2001160
1002
}
  0
LWPOLYLINE
  5
356
330
33B
100
AcDbEntity
  8
39676000
100
AcDbPolyline
 90
        7
 70
   128
 43
0.0
 10
8.21388294540344
 20
31.05534869001643
 10
8.21805127320297
 20
31.04964127186484
 10
8.221988030933053
 20
31.04377173038564
 10
8.225686920621118
 20
31.03774945559308
 10
8.229142024832709
 20
31.03158408184217
 10
8.232347816138148
 20
31.02528547241568
 10
8.235299165955213
 20
31.01886370374507
1001
REVIT
1002
{
1070
     2
1000
-2001160
1002
}
  0
LWPOLYLINE
  5
357
330
33B
100
AcDbEntity
  8
39676000
100
AcDbPolyline
 90
       10
 70
   128
 43
0.0
 10
8.237991352753773
 20
31.01232904929032
 10
8.240420069609267
 20
31.00569196310456
 10
8.24258143109281
 20
30.99896306310983
 10
8.244471979487109
 20
30.99215311411074
 10
8.246088690318019
 20
30.98527301057295
 10
8.24742897719309
 20
30.97833375919446
 10
8.248490695939242
 20
30.97134646129716
 10
8.249272148032963
 20
30.96432229506716
 10
8.249772083317601
 20
30.95727249767201
 10
8.249989702003359
 20
30.95020834728366
1001
REVIT
1002
{
1070
     2
1000
-2001160
1002
}
  0
LINE
  5
358
330
33B
100
AcDbEntity
  8
39676000
100
AcDbLine
 10
8.249999999998994
 20
29.71368501007266
 30
0.0
 11
8.249999999998994
 21
30.94830068074891
 31
0.0
1001
REVIT
1002
{
1070
     2
1000
-2001160
1002
}
  0
LINE
  5
359
330
33B
100
AcDbEntity
  8
39676000
100
AcDbLine
 10
7.92514809083863
 20
17.45887452187426
 30
0.0
 11
8.138559247498555
 21
29.68519149849615
 31
0.0
1001
REVIT
1002
{
1070
     2
1000
-2001160
1002
}
  0
LWPOLYLINE
  5
35A
330
33B
100
AcDbEntity
  8
39676000
100
AcDbPolyline
 90
        2
 70
   128
 43
0.0
 10
7.437499999999044
 20
17.26413087060251
 10
7.726975511570115
 20
17.26413087060251
1001
REVIT
1002
{
1070
     2
1000
-2001160
1002
}
  0
LINE
  5
35B
330
33B
100
AcDbEntity
  8
39676000
100
AcDbLine
 10
-8.25000000000001
 20
30.94830068074891
 30
0.0
 11
-8.25000000000001
 21
29.71368501007266
 31
0.0
1001
REVIT
1002
{
1070
     2
1000
-2001160
1002
}
  0
LINE
  5
35C
330
33B
100
AcDbEntity
  8
39676000
100
AcDbLine
 10
-8.138559247499571
 20
29.68519149849615
 30
0.0
 11
-7.925148090839646
 21
17.45887452187426
 31
0.0
1001
REVIT
1002
{
1070
     2
1000
-2001160
1002
}
  0
LWPOLYLINE
  5
35D
330
33B
100
AcDbEntity
  8
39676000
100
AcDbPolyline
 90
        2
 70
   128
 43
0.0
 10
-7.726975511571129
 20
17.26413087060251
 10
-7.437500000000042
 20
17.26413087060251
1001
REVIT
1002
{
1070
     2
1000
-2001160
1002
}
  0
LINE
  5
35E
330
33B
100
AcDbEntity
  8
39676000
100
AcDbLine
 10
5.50500199832337
 20
1.566686164291283
 30
0.0
 11
5.547520634012762
 21
1.561465532277964
 31
0.0
1001
REVIT
1002
{
1070
     2
1000
-2001160
1002
}
  0
LINE
  5
35F
330
33B
100
AcDbEntity
  8
39676000
100
AcDbLine
 10
5.913128664228239
 20
4.539103987201926
 30
0.0
 11
5.870866775444604
 21
4.544293094659153
 31
0.0
1001
REVIT
1002
{
1070
     2
1000
-2001160
1002
}
  0
LINE
  5
360
330
33B
100
AcDbEntity
  8
39676000
100
AcDbLine
 10
-5.547520634012741
 20
1.561465532277949
 30
0.0
 11
-5.505001998323459
 21
1.56668616429124
 31
0.0
1001
REVIT
1002
{
1070
     2
1000
-2001160
1002
}
  0
LINE
  5
361
330
33B
100
AcDbEntity
  8
39676000
100
AcDbLine
 10
-5.870866775444866
 20
4.54429309465911
 30
0.0
 11
-5.913128664228224
 21
4.539103987201912
 31
0.0
1001
REVIT
1002
{
1070
     2
1000
-2001160
1002
}
  0
LINE
  5
362
330
33B
100
AcDbEntity
  8
39676000
100
AcDbLine
 10
5.913128664228231
 20
4.539103987201926
 30
0.0
 11
5.547520634012759
 21
1.561465532277964
 31
0.0
1001
REVIT
1002
{
1070
     2
1000
-2001160
1002
}
  0
LINE
  5
363
330
33B
100
AcDbEntity
  8
39676000
100
AcDbLine
 10
-5.547520634012734
 20
1.561465532277949
 30
0.0
 11
-5.913128664228215
 21
4.539103987201912
 31
0.0
1001
REVIT
1002
{
1070
     2
1000
-2001160
1002
}
  0
LINE
  5
364
330
33B
100
AcDbEntity
  8
39676000
100
AcDbLine
 10
-6.361818799758305
 20
8.539928207652593
 30
0.0
 11
-5.312499999999996
 21
0.0
 31
0.0
1001
REVIT
1002
{
1070
     2
1000
-2001160
1002
}
  0
LINE
  5
365
330
33B
100
AcDbEntity
  8
39676000
100
AcDbLine
 10
5.312499999999992
 20
0.0
 30
0.0
 11
6.361818799758188
 21
8.539928207655719
 31
0.0
1001
REVIT
1002
{
1070
     2
1000
-2001160
1002
}
  0
LINE
  5
366
330
33B
100
AcDbEntity
  8
39676000
100
AcDbLine
 10
-7.33470407107975
 20
16.45779870924054
 30
0.0
 11
-7.3397563503951
 21
16.49891691149523
 31
0.0
1001
REVIT
1002
{
1070
     2
1000
-2001160
1002
}
  0
LINE
  5
367
330
33B
100
AcDbEntity
  8
39676000
100
AcDbLine
 10
5.312499999999989
 20
0.0
 30
0.0
 11
-5.312499999999989
 21
0.0
 31
0.0
1001
REVIT
1002
{
1070
     2
1000
-2001160
1002
}
  0
LINE
  5
368
330
33B
100
AcDbEntity
  8
39676000
100
AcDbLine
 10
7.339756350394161
 20
16.49891691149507
 30
0.0
 11
7.334704071078826
 21
16.45779870924051
 31
0.0
1001
REVIT
1002
{
1070
     2
1000
-2001160
1002
}
  0
LINE
  5
369
330
33B
100
AcDbEntity
  8
39676000
100
AcDbLine
 10
7.437499999999044
 20
16.49999999999977
 30
0.0
 11
7.43749999999904
 21
17.80392499284662
 31
0.0
1001
REVIT
1002
{
1070
     2
1000
-2001160
1002
}
  0
LINE
  5
36A
330
33B
100
AcDbEntity
  8
39676000
100
AcDbLine
 10
-7.437500000000037
 20
17.80392499284662
 30
0.0
 11
-7.437500000000042
 21
16.49999999999991
 31
0.0
1001
REVIT
1002
{
1070
     2
1000
-2001160
1002
}
  0
LWPOLYLINE
  5
36B
330
33B
100
AcDbEntity
  8
39676000
100
AcDbPolyline
 90
       40
 70
   128
 43
0.0
 10
7.292565455299124
 20
17.98366385314051
 10
7.272533997370311
 20
17.9869150479692
 10
7.264648090552988
 20
17.98762480430285
 10
7.259539841299448
 20
17.98794545509159
 10
7.255256168570488
 20
17.98815210397748
 10
7.251141199948538
 20
17.98831313395403
 10
7.246915299784269
 20
17.98845195433964
 10
7.242441262192402
 20
17.9885782648385
 10
7.237645819074941
 20
17.9886966178088
 10
7.232488113901995
 20
17.98880933525195
 10
7.226945330229147
 20
17.98891766575571
 10
7.221005487625236
 20
17.98902229822953
 10
7.21466355135257
 20
17.98912361093309
 10
7.207919200608712
 20
17.98922180098962
 10
7.200775481701276
 20
17.98931695576182
 10
7.19323795890013
 20
17.98940909415494
 10
7.185314157778091
 20
17.98949819154109
 10
7.17701318697903
 20
17.98958419536133
 10
7.168345472353912
 20
17.9896670352159
 10
7.159322563824259
 20
17.98974662958525
 10
7.149956990437511
 20
17.98982289042939
 10
7.140262148008931
 20
17.98989572641546
 10
7.130252209183144
 20
17.98996504523644
 10
7.1199420491485
 20
17.99003075531446
 10
7.109347182414905
 20
17.99009276707825
 10
7.098483707489716
 20
17.99015099394017
 10
7.087368257236285
 20
17.99020535305719
 10
7.076017953344491
 20
17.99025576593325
 10
7.064450363787587
 20
17.99030215890325
 10
7.05268346245108
 20
17.99034446352647
 10
7.040735590340574
 20
17.9903826169097
 10
7.028625417934199
 20
17.99041656197437
 10
7.016371908360662
 20
17.99044624767815
 10
7.003994281168433
 20
17.99047162919861
 10
6.991511976514003
 20
17.99049266808476
 10
6.978944619643398
 20
17.99050933238042
 10
6.966311985575563
 20
17.9905215967226
 10
6.953633963921484
 20
17.99052944241705
 10
6.940930523791529
 20
17.99053285749273
 10
6.937499999998989
 20
17.99053301909691
1001
REVIT
1002
{
1070
     2
1000
-2001160
1002
}
  0
LINE
  5
36C
330
33B
100
AcDbEntity
  8
39676000
100
AcDbLine
 10
6.937499999998987
 20
17.99053301909689
 30
0.0
 11
-6.937499999999987
 21
17.99053301909689
 31
0.0
1001
REVIT
1002
{
1070
     2
1000
-2001160
1002
}
  0
LWPOLYLINE
  5
36D
330
33B
100
AcDbEntity
  8
39676000
100
AcDbPolyline
 90
       40
 70
   128
 43
0.0
 10
-7.292565455300117
 20
17.98366385314051
 10
-7.272533997371304
 20
17.98691504796921
 10
-7.264648090553977
 20
17.98762480430287
 10
-7.259539841300437
 20
17.9879454550916
 10
-7.255256168571476
 20
17.9881521039775
 10
-7.251141199949525
 20
17.98831313395405
 10
-7.246915299785257
 20
17.98845195433965
 10
-7.24244126219339
 20
17.98857826483851
 10
-7.237645819075931
 20
17.98869661780881
 10
-7.232488113902986
 20
17.98880933525196
 10
-7.226945330230137
 20
17.98891766575572
 10
-7.221005487626227
 20
17.98902229822954
 10
-7.214663551353559
 20
17.9891236109331
 10
-7.207919200609703
 20
17.98922180098964
 10
-7.200775481702265
 20
17.98931695576182
 10
-7.19323795890112
 20
17.98940909415495
 10
-7.185314157779083
 20
17.98949819154111
 10
-7.177013186980021
 20
17.98958419536134
 10
-7.168345472354904
 20
17.98966703521591
 10
-7.159322563825254
 20
17.98974662958526
 10
-7.149956990438504
 20
17.98982289042941
 10
-7.140262148009927
 20
17.98989572641547
 10
-7.130252209184138
 20
17.98996504523646
 10
-7.119942049149495
 20
17.99003075531448
 10
-7.109347182415902
 20
17.99009276707826
 10
-7.098483707490713
 20
17.99015099394019
 10
-7.08736825723728
 20
17.9902053530572
 10
-7.076017953345488
 20
17.99025576593327
 10
-7.064450363788584
 20
17.99030215890326
 10
-7.052683462452078
 20
17.99034446352647
 10
-7.040735590341572
 20
17.99038261690971
 10
-7.028625417935197
 20
17.99041656197438
 10
-7.01637190836166
 20
17.99044624767816
 10
-7.003994281169431
 20
17.99047162919862
 10
-6.991511976514999
 20
17.99049266808477
 10
-6.978944619644396
 20
17.99050933238043
 10
-6.966311985576561
 20
17.99052159672261
 10
-6.953633963922488
 20
17.99052944241707
 10
-6.94093052379253
 20
17.99053285749273
 10
-6.937499999999985
 20
17.99053301909693
1001
REVIT
1002
{
1070
     2
1000
-2001160
1002
}
  0
LWPOLYLINE
  5
36E
330
33B
100
AcDbEntity
  8
39676000
100
AcDbPolyline
 90
        2
 70
   128
 43
0.0
 10
-7.437500000000033
 20
16.4999999999999
 10
7.437499999999035
 20
16.49999999999974
1001
REVIT
1002
{
1070
     2
1000
-2001160
1002
}
  0
LINE
  5
36F
330
33B
100
AcDbEntity
  8
39676000
100
AcDbLine
 10
-8.9378678547851
 20
27.92234267175552
 30
0.0
 11
-8.25000000000028
 21
27.92234267175551
 31
0.0
1001
REVIT
1002
{
1070
     2
1000
-2001160
1002
}
  0
LINE
  5
370
330
33B
100
AcDbEntity
  8
39676000
100
AcDbLine
 10
-8.25000000000028
 20
28.6951238192963
 30
0.0
 11
-8.937867854785093
 21
28.69512381929631
 31
0.0
1001
REVIT
1002
{
1070
     2
1000
-2001160
1002
}
  0
LINE
  5
371
330
33B
100
AcDbEntity
  8
39676000
100
AcDbLine
 10
-8.127624378019156
 20
29.05873324552589
 30
0.0
 11
-8.25000000000028
 21
29.05873324552589
 31
0.0
1001
REVIT
1002
{
1070
     2
1000
-2001160
1002
}
  0
LINE
  5
372
330
33B
100
AcDbEntity
  8
39676000
100
AcDbLine
 10
-8.25000000000028
 20
27.55873324552592
 30
0.0
 11
-8.10144178062683
 21
27.55873324552592
 31
0.0
1001
REVIT
1002
{
1070
     2
1000
-2001160
1002
}
  0
LINE
  5
373
330
33B
100
AcDbEntity
  8
39676000
100
AcDbLine
 10
-8.937867854785089
 20
27.92234267175549
 30
0.0
 11
-8.937867854785082
 21
28.69512381929627
 31
0.0
1001
REVIT
1002
{
1070
     2
1000
-2001160
1002
}
  0
LINE
  5
374
330
33B
100
AcDbEntity
  8
39676000
100
AcDbLine
 10
-8.25000000000027
 20
29.05873324552586
 30
0.0
 11
-8.25000000000027
 21
27.55873324552588
 31
0.0
1001
REVIT
1002
{
1070
     2
1000
-2001160
1002
}
  0
LINE
  5
375
330
33B
100
AcDbEntity
  8
39676000
100
AcDbLine
 10
8.073300680747911
 20
31.12500000000006
 30
0.0
 11
-8.073300680748928
 21
31.12500000000006
 31
0.0
  0
LINE
  5
376
330
33B
100
AcDbEntity
  8
39676000
100
AcDbLine
 10
-8.221506488423548
 20
29.68519149849615
 30
0.0
 11
8.22150648842253
 21
29.68519149849615
 31
0.0
  0
ARC
  5
377
330
33B
100
AcDbEntity
  8
39676000
100
AcDbCircle
 10
24.95189295641184
 20
16.82605169186185
 30
0.0
 40
32.39148632502177
100
AcDbArc
 50
180.6513994457453
 51
194.8216917144934
  0
ARC
  5
378
330
33B
100
AcDbEntity
  8
39676000
100
AcDbCircle
 10
-24.95189295641183
 20
16.82605169186185
 30
0.0
 40
32.39148632502177
100
AcDbArc
 50
345.1783082855065
 51
359.3486005542546
  0
LINE
  5
379
330
33B
100
AcDbEntity
  8
39676000
100
AcDbLine
 10
-7.437500000000033
 20
16.45779870924056
 30
0.0
 11
7.437500000000033
 21
16.45779870924055
 31
0.0
  0
ARC
  5
37A
330
33B
100
AcDbEntity
  8
39676000
100
AcDbCircle
 10
-7.234106961070072
 20
17.78822089071606
 30
0.0
 40
0.2039983997704228
100
AcDbArc
 50
106.6523288312678
 51
175.5849170551406
  0
ARC
  5
37B
330
33B
100
AcDbEntity
  8
39676000
100
AcDbCircle
 10
7.234106961070073
 20
17.78822089071606
 30
0.0
 40
0.2039983997704228
100
AcDbArc
 50
4.415082944859368
 51
73.34767116873222
  0
ENDBLK
  5
33D
330
33B
100
AcDbEntity
  8
0
100
AcDbBlockEnd
  0
BLOCK
  5
37E
330
37D
100
AcDbEntity
  8
0
100
AcDbBlockBegin
  2
Toilet_Essence_39676000_Plan View
 70
     0
 10
0.0
 20
0.0
 30
0.0
  3
Toilet_Essence_39676000_Plan View
  1

  0
ARC
  5
380
330
37D
100
AcDbEntity
  8
39676000
100
AcDbCircle
 10
0.0000000000002385
 20
-22.95001015261465
 30
0.0
 40
7.437499999999487
100
AcDbArc
 50
180.0000000000002
 51
359.9999999999994
1001
REVIT
1002
{
1070
     1
1000
90867
1002
}
1002
{
1070
     2
1000
-2001160
1002
}
  0
LINE
  5
381
330
37D
100
AcDbEntity
  8
39676000
100
AcDbLine
 10
7.437499999999721
 20
-22.95001015261465
 30
0.0
 11
7.437499999999742
 21
-8.053008463208279
 31
0.0
1001
REVIT
1002
{
1070
     1
1000
90867
1002
}
1002
{
1070
     2
1000
-2001160
1002
}
  0
ARC
  5
382
330
37D
100
AcDbEntity
  8
39676000
100
AcDbCircle
 10
5.249999999999729
 20
-6.000000000001192
 30
0.0
 40
2.999999999999997
100
AcDbArc
 50
316.816578203826
 51
359.9999999999996
1001
REVIT
1002
{
1070
     1
1000
90867
1002
}
1002
{
1070
     2
1000
-2001160
1002
}
  0
LINE
  5
383
330
37D
100
AcDbEntity
  8
39676000
100
AcDbLine
 10
8.249999999999726
 20
-6.000000000001195
 30
0.0
 11
8.249999999999726
 21
-1.874999999997783
 31
0.0
1001
REVIT
1002
{
1070
     1
1000
90867
1002
}
1002
{
1070
     2
1000
-2001160
1002
}
  0
ARC
  5
384
330
37D
100
AcDbEntity
  8
39676000
100
AcDbCircle
 10
7.499999999999733
 20
-1.875000000001241
 30
0.0
 40
0.7499999999999992
100
AcDbArc
 50
359.999999999999
 51
89.99999999999968
1001
REVIT
1002
{
1070
     1
1000
90867
1002
}
1002
{
1070
     2
1000
-2001160
1002
}
  0
LINE
  5
385
330
37D
100
AcDbEntity
  8
39676000
100
AcDbLine
 10
7.499999999999733
 20
-1.125000000001244
 30
0.0
 11
-7.499999999999235
 21
-1.125000000001196
 31
0.0
1001
REVIT
1002
{
1070
     1
1000
90867
1002
}
1002
{
1070
     2
1000
-2001160
1002
}
  0
ARC
  5
386
330
37D
100
AcDbEntity
  8
39676000
100
AcDbCircle
 10
-7.499999999999239
 20
-1.875000000001241
 30
0.0
 40
0.7499999999999964
100
AcDbArc
 50
89.99999999999962
 51
180.0000000000002
1001
REVIT
1002
{
1070
     1
1000
90867
1002
}
1002
{
1070
     2
1000
-2001160
1002
}
  0
LINE
  5
387
330
37D
100
AcDbEntity
  8
39676000
100
AcDbLine
 10
-8.249999999999239
 20
-1.875000000001244
 30
0.0
 11
-8.249999999999232
 21
-6.000000000001195
 31
0.0
1001
REVIT
1002
{
1070
     1
1000
90867
1002
}
1002
{
1070
     2
1000
-2001160
1002
}
  0
ARC
  5
388
330
37D
100
AcDbEntity
  8
39676000
100
AcDbCircle
 10
-5.249999999999236
 20
-6.000000000001192
 30
0.0
 40
2.999999999999999
100
AcDbArc
 50
180.0
 51
223.1834217961739
1001
REVIT
1002
{
1070
     1
1000
90867
1002
}
1002
{
1070
     2
1000
-2001160
1002
}
  0
LINE
  5
389
330
37D
100
AcDbEntity
  8
39676000
100
AcDbLine
 10
-7.43749999999922
 20
-8.05300846320831
 30
0.0
 11
-7.437499999999244
 21
-22.95001015261469
 31
0.0
1001
REVIT
1002
{
1070
     1
1000
90867
1002
}
1002
{
1070
     2
1000
-2001160
1002
}
  0
LINE
  5
38A
330
37D
100
AcDbEntity
  8
39676000
100
AcDbLine
 10
-8.746062741154743
 20
-1.945555683362785
 30
0.0
 11
-8.937867854784629
 21
-1.945555683362785
 31
0.0
1001
REVIT
1002
{
1070
     1
1000
91245
1002
}
1002
{
1070
     2
1000
-2001160
1002
}
  0
LINE
  5
38B
330
37D
100
AcDbEntity
  8
39676000
100
AcDbLine
 10
-8.937867854784629
 20
-1.945555683362785
 30
0.0
 11
-8.937867854784634
 21
-5.386390573771117
 31
0.0
1001
REVIT
1002
{
1070
     1
1000
91245
1002
}
1002
{
1070
     2
1000
-2001160
1002
}
  0
LINE
  5
38C
330
37D
100
AcDbEntity
  8
39676000
100
AcDbLine
 10
-8.937867854784634
 20
-5.386390573771117
 30
0.0
 11
-8.249999999999525
 21
-5.386390573771119
 31
0.0
1001
REVIT
1002
{
1070
     1
1000
91245
1002
}
1002
{
1070
     2
1000
-2001160
1002
}
  0
LINE
  5
38D
330
37D
100
AcDbEntity
  8
39676000
100
AcDbLine
 10
-8.249999999999523
 20
-4.613609426230328
 30
0.0
 11
-8.746062741154746
 21
-4.613609426230326
 31
0.0
1001
REVIT
1002
{
1070
     1
1000
91245
1002
}
1002
{
1070
     2
1000
-2001160
1002
}
  0
LINE
  5
38E
330
37D
100
AcDbEntity
  8
39676000
100
AcDbLine
 10
-8.746062741154743
 20
-1.945555683362785
 30
0.0
 11
-8.746062741154746
 21
-5.000000000000735
 31
0.0
1001
REVIT
1002
{
1070
     1
1000
91757
1002
}
1002
{
1070
     2
1000
-2001160
1002
}
  0
LINE
  5
38F
330
37D
100
AcDbEntity
  8
39676000
100
AcDbLine
 10
-5.312500000000247
 20
-9.00000000000119
 30
0.0
 11
5.312500000000722
 21
-9.000000000001225
 31
0.0
1001
REVIT
1002
{
1070
     1
1000
91995
1002
}
1002
{
1070
     2
1000
-2001160
1002
}
  0
ARC
  5
390
330
37D
100
AcDbEntity
  8
39676000
100
AcDbCircle
 10
5.312500000000731
 20
-6.142309217946925
 30
0.0
 40
2.857690782054297
100
AcDbArc
 50
269.9999999999994
 51
318.0396238075708
1001
REVIT
1002
{
1070
     1
1000
92065
1002
}
1002
{
1070
     2
1000
-2001160
1002
}
  0
ARC
  5
391
330
37D
100
AcDbEntity
  8
39676000
100
AcDbCircle
 10
-5.312500000000238
 20
-6.142309217946925
 30
0.0
 40
2.857690782054301
100
AcDbArc
 50
221.9603761924291
 51
269.9999999999995
1001
REVIT
1002
{
1070
     1
1000
92114
1002
}
1002
{
1070
     2
1000
-2001160
1002
}
  0
LINE
  5
392
330
37D
100
AcDbEntity
  8
39676000
100
AcDbLine
 10
-6.93748945426901
 20
-11.25006715272163
 30
0.0
 11
6.937489454269507
 21
-11.25006715272167
 31
0.0
1001
REVIT
1002
{
1070
     1
1000
92207
1002
}
1002
{
1070
     2
1000
-2001160
1002
}
  0
ARC
  5
393
330
37D
100
AcDbEntity
  8
39676000
100
AcDbCircle
 10
6.937489454269504
 20
-11.75283189632249
 30
0.0
 40
0.5027647436008233
100
AcDbArc
 50
5.999999999999857
 51
89.99999999999969
1001
REVIT
1002
{
1070
     1
1000
92271
1002
}
1002
{
1070
     2
1000
-2001160
1002
}
  0
ARC
  5
394
330
37D
100
AcDbEntity
  8
39676000
100
AcDbCircle
 10
-6.937489454269011
 20
-11.75283189632249
 30
0.0
 40
0.5027647436008213
100
AcDbArc
 50
90.0000000000003
 51
174.0000000000001
1001
REVIT
1002
{
1070
     1
1000
92327
1002
}
1002
{
1070
     2
1000
-2001160
1002
}
  0
ENDBLK
  5
37F
330
37D
100
AcDbEntity
  8
0
100
AcDbBlockEnd
  0
ENDSEC
  0
SECTION
  2
ENTITIES
  0
INSERT
  5
33A
330
70
100
AcDbEntity
  8
39676000
100
AcDbBlockReference
  2
Toilet_Essence_39676000_Side View
 10
48.02861764550826
 20
-72.46521168485752
 30
0.0
 41
-1.0
  0
INSERT
  5
37C
330
70
100
AcDbEntity
  8
39676000
100
AcDbBlockReference
  2
Toilet_Essence_39676000_Front View
 10
-0.00000001641977
 20
-72.46521166858906
 30
0.0
 41
-1.0
  0
INSERT
  5
395
330
70
100
AcDbEntity
  8
39676000
100
AcDbBlockReference
  2
Toilet_Essence_39676000_Plan View
 10
0.0000000000007518
 20
-0.0000000000004558
 30
0.0
 41
-1.0
  0
ENDSEC
  0
SECTION
  2
OBJECTS
  0
DICTIONARY
  5
C
330
0
100
AcDbDictionary
281
     1
  3
ACAD_CIP_PREVIOUS_PRODUCT_INFO
350
79
  3
ACAD_COLOR
350
63
  3
ACAD_DETAILVIEWSTYLE
350
6A
  3
ACAD_GROUP
350
D
  3
ACAD_IMAGE_VARS
350
7A
  3
ACAD_LAYOUT
350
62
  3
ACAD_MATERIAL
350
10
  3
ACAD_MLEADERSTYLE
350
66
  3
ACAD_MLINESTYLE
350
5F
  3
ACAD_PLOTSETTINGS
350
61
  3
ACAD_PLOTSTYLENAME
350
E
  3
ACAD_SCALELIST
350
42
  3
ACAD_SECTIONVIEWSTYLE
350
68
  3
ACAD_TABLESTYLE
350
64
  3
ACAD_VISUALSTYLE
350
29
  3
ACDB_RECOMPOSE_DATA
350
438
  3
AcDbVariableDictionary
350
114
  3
REVIT_DICTIONARY
350
109
  0
DICTIONARY
  5
10C
330
70
100
AcDbDictionary
280
     1
281
     1
  3
ACAD_SORTENTS
360
10D
  0
XRECORD
  5
79
102
{ACAD_REACTORS
330
C
102
}
330
C
100
AcDbXrecord
280
     1
300
ACD
300
2019
300
87084ACD_2019_0F
  0
DICTIONARY
  5
63
102
{ACAD_REACTORS
330
C
102
}
330
C
100
AcDbDictionary
281
     1
  0
DICTIONARY
  5
6A
102
{ACAD_REACTORS
330
C
102
}
330
C
100
AcDbDictionary
281
     1
  3
Imperial24
350
6B
  0
DICTIONARY
  5
D
102
{ACAD_REACTORS
330
C
102
}
330
C
100
AcDbDictionary
281
     1
  0
RASTERVARIABLES
  5
7A
102
{ACAD_REACTORS
330
C
102
}
330
C
100
AcDbRasterVariables
 90
        0
 70
     0
 71
     1
 72
     5
  0
DICTIONARY
  5
62
102
{ACAD_REACTORS
330
C
102
}
330
C
100
AcDbDictionary
281
     1
  3
Layout1
350
6F
  3
Layout2
350
77
  3
Model
350
73
  0
DICTIONARY
  5
10
102
{ACAD_REACTORS
330
C
102
}
330
C
100
AcDbDictionary
281
     1
  3
ByBlock
350
19
  3
ByLayer
350
11
  3
Global
350
21
  0
DICTIONARY
  5
66
102
{ACAD_REACTORS
330
C
102
}
330
C
100
AcDbDictionary
281
     1
  3
Standard
350
67
  0
DICTIONARY
  5
5F
102
{ACAD_REACTORS
330
C
102
}
330
C
100
AcDbDictionary
281
     1
  3
Standard
350
60
  0
DICTIONARY
  5
61
102
{ACAD_REACTORS
330
C
102
}
330
C
100
AcDbDictionary
281
     1
  0
ACDBDICTIONARYWDFLT
  5
E
102
{ACAD_REACTORS
330
C
102
}
330
C
100
AcDbDictionary
281
     1
  3
Normal
350
F
100
AcDbDictionaryWithDefault
340
F
  0
DICTIONARY
  5
42
102
{ACAD_REACTORS
330
C
102
}
330
C
100
AcDbDictionary
281
     1
  3
A0
350
43
  3
A1
350
44
  3
A2
350
45
  3
A3
350
46
  3
A4
350
47
  3
A5
350
48
  3
A6
350
49
  3
A7
350
4A
  3
A8
350
4B
  3
A9
350
4C
  3
B0
350
4D
  3
B1
350
4E
  3
B2
350
4F
  3
B3
350
50
  3
B4
350
51
  3
B5
350
52
  3
B6
350
53
  0
DICTIONARY
  5
68
102
{ACAD_REACTORS
330
C
102
}
330
C
100
AcDbDictionary
281
     1
  3
Imperial24
350
69
  0
DICTIONARY
  5
64
102
{ACAD_REACTORS
330
C
102
}
330
C
100
AcDbDictionary
281
     1
  3
Standard
350
65
  0
DICTIONARY
  5
29
102
{ACAD_REACTORS
330
C
102
}
330
C
100
AcDbDictionary
281
     1
  3
2dWireframe
350
2F
  3
Basic
350
2E
  3
Brighten
350
35
  3
ColorChange
350
39
  3
Conceptual
350
32
  3
Dim
350
34
  3
EdgeColorOff
350
41
  3
Facepattern
350
38
  3
Flat
350
2A
  3
FlatWithEdges
350
2B
  3
Gouraud
350
2C
  3
GouraudWithEdges
350
2D
  3
Hidden
350
31
  3
JitterOff
350
3F
  3
Linepattern
350
37
  3
OverhangOff
350
40
  3
Realistic
350
33
  3
Shaded
350
3E
  3
Shaded with edges
350
3D
  3
Shades of Gray
350
3A
  3
Sketchy
350
3B
  3
Thicken
350
36
  3
Wireframe
350
30
  3
X-Ray
350
3C
  0
XRECORD
  5
438
102
{ACAD_REACTORS
330
C
102
}
330
C
100
AcDbXrecord
280
     1
 90
        1
330
65
  0
DICTIONARY
  5
114
102
{ACAD_REACTORS
330
C
102
}
330
C
100
AcDbDictionary
281
     1
  3
CANNOSCALE
350
119
  3
CMLEADERSTYLE
350
116
  3
CTABLESTYLE
350
115
  3
CVIEWDETAILSTYLE
350
117
  3
CVIEWSECTIONSTYLE
350
118
  0
DICTIONARY
  5
109
102
{ACAD_REACTORS
330
C
102
}
330
C
100
AcDbDictionary
281
     1
  3
DRAWING_TOOL
350
10B
  3
REVIT_CATEGORY_MAPPING
350
10A
  0
SORTENTSTABLE
  5
10D
102
{ACAD_REACTORS
330
10C
102
}
330
10C
100
AcDbSortentsTable
330
70
  0
ACDBDETAILVIEWSTYLE
  5
6B
102
{ACAD_XDICTIONARY
360
43B
102
}
102
{ACAD_REACTORS
330
6A
102
}
330
6A
100
AcDbModelDocViewStyle
 70
     0
  3
Imperial24
290
     0
100
AcDbDetailViewStyle
 70
     0
 71
     0
 90
        3
 71
     1
340
55
 62
   256
 40
0.24
340
0
 62
   256
 40
0.24
300

 40
0.36
280
     3
 71
     2
340
5D
 90
       25
 62
   256
 71
     3
340
55
 62
   256
 40
0.24
 90
        1
 40
0.75
 90
        1
300
%<\AcVar ViewType \f "%tc1">% %<\AcVar ViewDetailId>%\PSCALE %<\AcVar ViewScale \f "%sn">%
 71
     4
340
5D
 90
       25
 62
   256
340
5D
 90
       25
 62
   256
280
     0
  0
LAYOUT
  5
6F
102
{ACAD_REACTORS
330
62
102
}
330
62
100
AcDbPlotSettings
  1

  2

  4

  6

 40
0.0
 41
0.0
 42
0.0
 43
0.0
 44
0.0
 45
0.0
 46
0.0
 47
0.0
 48
0.0
 49
0.0
140
0.0
141
0.0
142
1.0
143
1.0
 70
   688
 72
     0
 73
     0
 74
     5
  7

 75
    16
147
1.0
 76
     0
 77
     2
 78
   300
148
0.0
149
0.0
100
AcDbLayout
  1
Layout1
 70
     1
 71
     1
 10
0.0
 20
0.0
 11
12.0
 21
9.0
 12
0.0
 22
0.0
 32
0.0
 14
1.000000000000000E+20
 24
1.000000000000000E+20
 34
1.000000000000000E+20
 15
-1.000000000000000E+20
 25
-1.000000000000000E+20
 35
-1.000000000000000E+20
146
0.0
 13
0.0
 23
0.0
 33
0.0
 16
1.0
 26
0.0
 36
0.0
 17
0.0
 27
1.0
 37
0.0
 76
     0
330
6C
  0
LAYOUT
  5
77
102
{ACAD_REACTORS
330
62
102
}
330
62
100
AcDbPlotSettings
  1

  2

  4

  6

 40
0.0
 41
0.0
 42
0.0
 43
0.0
 44
0.0
 45
0.0
 46
0.0
 47
0.0
 48
0.0
 49
0.0
140
0.0
141
0.0
142
1.0
143
1.0
 70
   688
 72
     0
 73
     0
 74
     5
  7

 75
    16
147
1.0
 76
     0
 77
     2
 78
   300
148
0.0
149
0.0
100
AcDbLayout
  1
Layout2
 70
     1
 71
     2
 10
0.0
 20
0.0
 11
12.0
 21
9.0
 12
0.0
 22
0.0
 32
0.0
 14
0.0
 24
0.0
 34
0.0
 15
0.0
 25
0.0
 35
0.0
146
0.0
 13
0.0
 23
0.0
 33
0.0
 16
1.0
 26
0.0
 36
0.0
 17
0.0
 27
1.0
 37
0.0
 76
     0
330
74
  0
LAYOUT
  5
73
102
{ACAD_REACTORS
330
62
102
}
330
62
100
AcDbPlotSettings
  1

  2

  4

  6

 40
0.0
 41
0.0
 42
0.0
 43
0.0
 44
0.0
 45
0.0
 46
0.0
 47
0.0
 48
0.0
 49
0.0
140
0.0
141
0.0
142
1.0
143
1.0
 70
  1712
 72
     0
 73
     0
 74
     0
  7

 75
     0
147
1.0
 76
     0
 77
     2
 78
   300
148
0.0
149
0.0
100
AcDbLayout
  1
Model
 70
     1
 71
     0
 10
0.0
 20
0.0
 11
12.0
 21
9.0
 12
0.0
 22
0.0
 32
0.0
 14
0.0
 24
0.0
 34
0.0
 15
0.0
 25
0.0
 35
0.0
146
0.0
 13
0.0
 23
0.0
 33
0.0
 16
1.0
 26
0.0
 36
0.0
 17
0.0
 27
1.0
 37
0.0
 76
     0
330
70
331
57
  0
MATERIAL
  5
19
102
{ACAD_XDICTIONARY
360
1A
102
}
102
{ACAD_REACTORS
330
10
102
}
330
10
100
AcDbMaterial
  1
ByBlock
 72
     0
 43
0.0208333333333333
 43
0.0
 43
0.0
 43
0.0
 43
0.0
 43
0.0208333333333333
 43
0.0
 43
0.0
 43
0.0
 43
0.0
 43
1.0
 43
0.0
 43
0.0
 43
0.0
 43
0.0
 43
1.0
 77
     0
 47
0.0208333333333333
 47
0.0
 47
0.0
 47
0.0
 47
0.0
 47
0.0208333333333333
 47
0.0
 47
0.0
 47
0.0
 47
0.0
 47
1.0
 47
0.0
 47
0.0
 47
0.0
 47
0.0
 47
1.0
171
     0
 49
0.0208333333333333
 49
0.0
 49
0.0
 49
0.0
 49
0.0
 49
0.0208333333333333
 49
0.0
 49
0.0
 49
0.0
 49
0.0
 49
1.0
 49
0.0
 49
0.0
 49
0.0
 49
0.0
 49
1.0
175
     0
142
0.0208333333333333
142
0.0
142
0.0
142
0.0
142
0.0
142
0.0208333333333333
142
0.0
142
0.0
142
0.0
142
0.0
142
1.0
142
0.0
142
0.0
142
0.0
142
0.0
142
1.0
179
     0
144
0.0208333333333333
144
0.0
144
0.0
144
0.0
144
0.0
144
0.0208333333333333
144
0.0
144
0.0
144
0.0
144
0.0
144
1.0
144
0.0
144
0.0
144
0.0
144
0.0
144
1.0
147
0.0208333333333333
147
0.0
147
0.0
147
0.0
147
0.0
147
0.0208333333333333
147
0.0
147
0.0
147
0.0
147
0.0
147
1.0
147
0.0
147
0.0
147
0.0
147
0.0
147
1.0
  0
MATERIAL
  5
11
102
{ACAD_XDICTIONARY
360
12
102
}
102
{ACAD_REACTORS
330
10
102
}
330
10
100
AcDbMaterial
  1
ByLayer
 72
     0
 43
0.0208333333333333
 43
0.0
 43
0.0
 43
0.0
 43
0.0
 43
0.0208333333333333
 43
0.0
 43
0.0
 43
0.0
 43
0.0
 43
1.0
 43
0.0
 43
0.0
 43
0.0
 43
0.0
 43
1.0
 77
     0
 47
0.0208333333333333
 47
0.0
 47
0.0
 47
0.0
 47
0.0
 47
0.0208333333333333
 47
0.0
 47
0.0
 47
0.0
 47
0.0
 47
1.0
 47
0.0
 47
0.0
 47
0.0
 47
0.0
 47
1.0
171
     0
 49
0.0208333333333333
 49
0.0
 49
0.0
 49
0.0
 49
0.0
 49
0.0208333333333333
 49
0.0
 49
0.0
 49
0.0
 49
0.0
 49
1.0
 49
0.0
 49
0.0
 49
0.0
 49
0.0
 49
1.0
175
     0
142
0.0208333333333333
142
0.0
142
0.0
142
0.0
142
0.0
142
0.0208333333333333
142
0.0
142
0.0
142
0.0
142
0.0
142
1.0
142
0.0
142
0.0
142
0.0
142
0.0
142
1.0
179
     0
144
0.0208333333333333
144
0.0
144
0.0
144
0.0
144
0.0
144
0.0208333333333333
144
0.0
144
0.0
144
0.0
144
0.0
144
1.0
144
0.0
144
0.0
144
0.0
144
0.0
144
1.0
147
0.0208333333333333
147
0.0
147
0.0
147
0.0
147
0.0
147
0.0208333333333333
147
0.0
147
0.0
147
0.0
147
0.0
147
1.0
147
0.0
147
0.0
147
0.0
147
0.0
147
1.0
  0
MATERIAL
  5
21
102
{ACAD_XDICTIONARY
360
22
102
}
102
{ACAD_REACTORS
330
10
102
}
330
10
100
AcDbMaterial
  1
Global
 72
     0
 43
0.0208333333333333
 43
0.0
 43
0.0
 43
0.0
 43
0.0
 43
0.0208333333333333
 43
0.0
 43
0.0
 43
0.0
 43
0.0
 43
1.0
 43
0.0
 43
0.0
 43
0.0
 43
0.0
 43
1.0
 77
     0
 47
0.0208333333333333
 47
0.0
 47
0.0
 47
0.0
 47
0.0
 47
0.0208333333333333
 47
0.0
 47
0.0
 47
0.0
 47
0.0
 47
1.0
 47
0.0
 47
0.0
 47
0.0
 47
0.0
 47
1.0
171
     0
 49
0.0208333333333333
 49
0.0
 49
0.0
 49
0.0
 49
0.0
 49
0.0208333333333333
 49
0.0
 49
0.0
 49
0.0
 49
0.0
 49
1.0
 49
0.0
 49
0.0
 49
0.0
 49
0.0
 49
1.0
175
     0
142
0.0208333333333333
142
0.0
142
0.0
142
0.0
142
0.0
142
0.0208333333333333
142
0.0
142
0.0
142
0.0
142
0.0
142
1.0
142
0.0
142
0.0
142
0.0
142
0.0
142
1.0
179
     0
144
0.0208333333333333
144
0.0
144
0.0
144
0.0
144
0.0
144
0.0208333333333333
144
0.0
144
0.0
144
0.0
144
0.0
144
1.0
144
0.0
144
0.0
144
0.0
144
0.0
144
1.0
147
0.0208333333333333
147
0.0
147
0.0
147
0.0
147
0.0
147
0.0208333333333333
147
0.0
147
0.0
147
0.0
147
0.0
147
1.0
147
0.0
147
0.0
147
0.0
147
0.0
147
1.0
  0
MLEADERSTYLE
  5
67
102
{ACAD_REACTORS
330
66
102
}
330
66
100
AcDbMLeaderStyle
179
     2
170
     2
171
     1
172
     0
 90
        2
 40
0.0
 41
0.0
173
     1
 91
-1056964608
340
5B
 92
       -2
290
     1
 42
0.09
291
     1
 43
0.36
  3
Standard
 44
0.18
300

342
55
174
     1
178
     6
175
     1
176
     0
 93
-1056964608
 45
0.18
292
     0
297
     0
 46
0.18
 94
-1056964608
 47
1.0
 49
1.0
140
1.0
293
     1
141
0.0
294
     1
177
     0
142
1.0
295
     0
296
     0
143
0.125
271
     0
272
     9
273
     9
298
     1
  0
MLINESTYLE
  5
60
102
{ACAD_REACTORS
330
5F
102
}
330
5F
100
AcDbMlineStyle
  2
STANDARD
 70
     0
  3

 62
   256
 51
90.0
 52
90.0
 71
     2
 49
0.5
 62
   256
  6
BYLAYER
 49
-0.5
 62
   256
  6
BYLAYER
  0
ACDBPLACEHOLDER
  5
F
102
{ACAD_REACTORS
330
E
102
}
330
E
  0
SCALE
  5
43
102
{ACAD_REACTORS
330
42
102
}
330
42
100
AcDbScale
 70
     0
300
1:1
140
1.0
141
1.0
290
     1
  0
SCALE
  5
44
102
{ACAD_REACTORS
330
42
102
}
330
42
100
AcDbScale
 70
     0
300
1/128" = 1'-0"
140
0.0078125
141
12.0
290
     0
  0
SCALE
  5
45
102
{ACAD_REACTORS
330
42
102
}
330
42
100
AcDbScale
 70
     0
300
1/64" = 1'-0"
140
0.015625
141
12.0
290
     0
  0
SCALE
  5
46
102
{ACAD_REACTORS
330
42
102
}
330
42
100
AcDbScale
 70
     0
300
1/32" = 1'-0"
140
0.03125
141
12.0
290
     0
  0
SCALE
  5
47
102
{ACAD_REACTORS
330
42
102
}
330
42
100
AcDbScale
 70
     0
300
1/16" = 1'-0"
140
0.0625
141
12.0
290
     0
  0
SCALE
  5
48
102
{ACAD_REACTORS
330
42
102
}
330
42
100
AcDbScale
 70
     0
300
3/32" = 1'-0"
140
0.09375
141
12.0
290
     0
  0
SCALE
  5
49
102
{ACAD_REACTORS
330
42
102
}
330
42
100
AcDbScale
 70
     0
300
1/8" = 1'-0"
140
0.125
141
12.0
290
     0
  0
SCALE
  5
4A
102
{ACAD_REACTORS
330
42
102
}
330
42
100
AcDbScale
 70
     0
300
3/16" = 1'-0"
140
0.1875
141
12.0
290
     0
  0
SCALE
  5
4B
102
{ACAD_REACTORS
330
42
102
}
330
42
100
AcDbScale
 70
     0
300
1/4" = 1'-0"
140
0.25
141
12.0
290
     0
  0
SCALE
  5
4C
102
{ACAD_REACTORS
330
42
102
}
330
42
100
AcDbScale
 70
     0
300
3/8" = 1'-0"
140
0.375
141
12.0
290
     0
  0
SCALE
  5
4D
102
{ACAD_REACTORS
330
42
102
}
330
42
100
AcDbScale
 70
     0
300
1/2" = 1'-0"
140
0.5
141
12.0
290
     0
  0
SCALE
  5
4E
102
{ACAD_REACTORS
330
42
102
}
330
42
100
AcDbScale
 70
     0
300
3/4" = 1'-0"
140
0.75
141
12.0
290
     0
  0
SCALE
  5
4F
102
{ACAD_REACTORS
330
42
102
}
330
42
100
AcDbScale
 70
     0
300
1" = 1'-0"
140
1.0
141
12.0
290
     0
  0
SCALE
  5
50
102
{ACAD_REACTORS
330
42
102
}
330
42
100
AcDbScale
 70
     0
300
1-1/2" = 1'-0"
140
1.5
141
12.0
290
     0
  0
SCALE
  5
51
102
{ACAD_REACTORS
330
42
102
}
330
42
100
AcDbScale
 70
     0
300
3" = 1'-0"
140
3.0
141
12.0
290
     0
  0
SCALE
  5
52
102
{ACAD_REACTORS
330
42
102
}
330
42
100
AcDbScale
 70
     0
300
6" = 1'-0"
140
6.0
141
12.0
290
     0
  0
SCALE
  5
53
102
{ACAD_REACTORS
330
42
102
}
330
42
100
AcDbScale
 70
     0
300
1'-0" = 1'-0"
140
12.0
141
12.0
290
     0
  0
ACDBSECTIONVIEWSTYLE
  5
69
102
{ACAD_XDICTIONARY
360
439
102
}
102
{ACAD_REACTORS
330
68
102
}
330
68
100
AcDbModelDocViewStyle
 70
     0
  3
Imperial24
290
     0
100
AcDbSectionViewStyle
 70
     0
 71
     0
 90
       78
 71
     1
340
55
 62
   256
 40
0.24
340
0
340
0
 62
   256
 40
0.24
300
I, O, Q, S, X, Z
 40
0.48
 90
        3
 40
0.18
 90
        1
 71
     2
340
5D
 90
       25
 62
   256
340
5D
 90
       50
 62
   256
 40
0.24
 40
0.0
 40
0.24
 71
     3
340
55
 62
   256
 40
0.24
 90
        1
 40
0.75
 90
        1
300
%<\AcVar ViewType \f "%tc1">% %<\AcVar ViewSectionStartId>%-%<\AcVar ViewSectionEndId>%\PSCALE %<\AcVar ViewScale \f "%sn">%
 71
     4
 62
   256
 62
   257
300
ANSI31
 40
1.0
 90
        0
290
     0
290
     0
 90
        6
 40
0.0
 40
1.570796326794896
 40
0.2617993877991494
 40
1.308996938995747
 40
-0.2617993877991494
 40
1.832595714594046
  0
TABLESTYLE
  5
65
102
{ACAD_XDICTIONARY
360
436
102
}
102
{ACAD_REACTORS
330
64
102
}
330
64
100
AcDbTableStyle
280
     0
  3
Standard
 70
     0
 71
     0
 40
0.06
 41
0.06
280
     0
281
     0
  7
Standard
140
0.18
170
     2
 62
     0
 63
     7
283
     0
 90
      512
 91
        0
  1

274
    -2
284
     1
 64
     0
275
    -2
285
     1
 65
     0
276
    -2
286
     1
 66
     0
277
    -2
287
     1
 67
     0
278
    -2
288
     1
 68
     0
279
    -2
289
     1
 69
     0
  7
Standard
140
0.25
170
     5
 62
     0
 63
     7
283
     0
 90
      512
 91
        0
  1

274
    -2
284
     1
 64
     0
275
    -2
285
     1
 65
     0
276
    -2
286
     1
 66
     0
277
    -2
287
     1
 67
     0
278
    -2
288
     1
 68
     0
279
    -2
289
     1
 69
     0
  7
Standard
140
0.18
170
     5
 62
     0
 63
     7
283
     0
 90
      512
 91
        0
  1

274
    -2
284
     1
 64
     0
275
    -2
285
     1
 65
     0
276
    -2
286
     1
 66
     0
277
    -2
287
     1
 67
     0
278
    -2
288
     1
 68
     0
279
    -2
289
     1
 69
     0
  0
VISUALSTYLE
  5
2F
102
{ACAD_REACTORS
330
29
102
}
330
29
100
AcDbVisualStyle
  2
2dWireframe
 70
     4
177
     3
291
     0
 70
    58
 90
        0
176
     1
 90
        2
176
     1
 90
        0
176
     1
 90
        0
176
     1
 40
0.6
176
     1
 40
30.0
176
     1
 62
     7
420
 16777215
176
     1
 90
        1
176
     1
 90
        4
176
     1
 62
     7
176
     1
 62
   257
176
     1
 90
        1
176
     1
 90
        1
176
     1
 40
1.0
176
     1
 90
        0
176
     1
 62
   257
176
     1
 40
1.0
176
     1
 90
        1
176
     1
 90
        6
176
     1
 90
        2
176
     1
 62
     7
176
     1
 90
        5
176
     1
 90
        0
176
     1
 90
        0
176
     1
290
     0
176
     1
 90
        1
176
     1
 40
0.0
176
     1
 90
        0
176
     1
290
     1
176
     1
290
     1
176
     1
290
     0
176
     1
290
     0
176
     1
290
     0
176
     1
290
     0
176
     1
290
     0
176
     1
290
     0
176
     1
290
     0
176
     1
 90
       50
176
     1
 40
0.0
176
     1
 40
1.0
176
     1
 90
        0
176
     1
 62
    18
420
        0
176
     1
 90
       50
176
     1
 90
        3
176
     1
 62
     5
420
      255
176
     1
290
     0
176
     1
 90
       50
176
     1
 90
       50
176
     1
 90
       50
176
     1
290
     0
176
     1
 90
       50
176
     1
 62
   256
176
     0
 40
1.0
176
     0
 90
        2
176
     1
  1
strokes_ogs.tif
176
     1
290
     0
176
     1
 40
1.0
176
     1
 40
1.0
176
     1
1001
ACAD
1000
AcDbSavedByObjectVersion
1070
     0
  0
VISUALSTYLE
  5
2E
102
{ACAD_REACTORS
330
29
102
}
330
29
100
AcDbVisualStyle
  2
Basic
 70
     7
177
     3
291
     1
 70
    58
 90
        1
176
     1
 90
        0
176
     1
 90
        1
176
     1
 90
        0
176
     1
 40
0.6
176
     1
 40
30.0
176
     1
 62
     7
420
 16777215
176
     1
 90
        0
176
     1
 90
        4
176
     1
 62
     7
176
     1
 62
   257
176
     1
 90
        1
176
     1
 90
        1
176
     1
 40
1.0
176
     1
 90
        8
176
     1
 62
     7
176
     1
 40
1.0
176
     1
 90
        1
176
     1
 90
        6
176
     1
 90
        2
176
     1
 62
     7
176
     1
 90
        5
176
     1
 90
        0
176
     1
 90
        0
176
     1
290
     0
176
     1
 90
        1
176
     1
 40
0.0
176
     1
 90
        0
176
     1
290
     0
176
     1
290
     1
176
     1
290
     1
176
     1
290
     0
176
     1
290
     0
176
     1
290
     0
176
     1
290
     0
176
     1
290
     0
176
     1
290
     0
176
     1
 90
       50
176
     1
 40
0.0
176
     1
 40
1.0
176
     1
 90
        0
176
     1
 62
    18
420
        0
176
     1
 90
       50
176
     1
 90
        3
176
     1
 62
     5
420
      255
176
     1
290
     0
176
     1
 90
       50
176
     1
 90
       50
176
     1
 90
       50
176
     1
290
     0
176
     1
 90
       50
176
     1
 62
   256
176
     0
 40
1.0
176
     0
 90
        2
176
     1
  1
strokes_ogs.tif
176
     1
290
     0
176
     1
 40
1.0
176
     1
 40
1.0
176
     1
1001
ACAD
1000
AcDbSavedByObjectVersion
1070
     0
  0
VISUALSTYLE
  5
35
102
{ACAD_REACTORS
330
29
102
}
330
29
100
AcDbVisualStyle
  2
Brighten
 70
    12
177
     3
291
     1
 70
    58
 90
        2
176
     1
 90
        2
176
     1
 90
        0
176
     1
 90
        0
176
     1
 40
0.6
176
     1
 40
30.0
176
     1
 62
     7
420
 16777215
176
     1
 90
        1
176
     1
 90
        4
176
     1
 62
     7
176
     1
 62
   257
176
     1
 90
        1
176
     1
 90
        1
176
     1
 40
1.0
176
     1
 90
        8
176
     1
 62
     7
176
     1
 40
1.0
176
     1
 90
        1
176
     1
 90
        6
176
     1
 90
        2
176
     1
 62
     7
176
     1
 90
        5
176
     1
 90
        0
176
     1
 90
        0
176
     1
290
     0
176
     1
 90
        1
176
     1
 40
50.0
176
     1
 90
        0
176
     1
290
     0
176
     1
290
     1
176
     1
290
     1
176
     1
290
     0
176
     1
290
     0
176
     1
290
     0
176
     1
290
     0
176
     1
290
     0
176
     1
290
     0
176
     1
 90
       50
176
     1
 40
0.0
176
     1
 40
1.0
176
     1
 90
        0
176
     1
 62
    18
420
        0
176
     1
 90
       50
176
     1
 90
        3
176
     1
 62
     5
420
      255
176
     1
290
     0
176
     1
 90
       50
176
     1
 90
       50
176
     1
 90
       50
176
     1
290
     0
176
     1
 90
       50
176
     1
 62
   256
176
     0
 40
1.0
176
     0
 90
        2
176
     1
  1
strokes_ogs.tif
176
     1
290
     0
176
     1
 40
1.0
176
     1
 40
1.0
176
     1
1001
ACAD
1000
AcDbSavedByObjectVersion
1070
     0
  0
VISUALSTYLE
  5
39
102
{ACAD_REACTORS
330
29
102
}
330
29
100
AcDbVisualStyle
  2
ColorChange
 70
    16
177
     3
291
     1
 70
    58
 90
        2
176
     1
 90
        2
176
     1
 90
        3
176
     1
 90
        0
176
     1
 40
0.6
176
     1
 40
30.0
176
     1
 62
     8
420
  8421504
176
     1
 90
        1
176
     1
 90
        4
176
     1
 62
     7
176
     1
 62
   257
176
     1
 90
        1
176
     1
 90
        1
176
     1
 40
1.0
176
     1
 90
        8
176
     1
 62
     8
420
  8421504
176
     1
 40
1.0
176
     1
 90
        1
176
     1
 90
        6
176
     1
 90
        2
176
     1
 62
     7
176
     1
 90
        5
176
     1
 90
        0
176
     1
 90
        0
176
     1
290
     0
176
     1
 90
        1
176
     1
 40
0.0
176
     1
 90
        0
176
     1
290
     0
176
     1
290
     1
176
     1
290
     1
176
     1
290
     0
176
     1
290
     0
176
     1
290
     0
176
     1
290
     0
176
     1
290
     0
176
     1
290
     0
176
     1
 90
       50
176
     1
 40
0.0
176
     1
 40
1.0
176
     1
 90
        0
176
     1
 62
    18
420
        0
176
     1
 90
       50
176
     1
 90
        3
176
     1
 62
     5
420
      255
176
     1
290
     0
176
     1
 90
       50
176
     1
 90
       50
176
     1
 90
       50
176
     1
290
     0
176
     1
 90
       50
176
     1
 62
   256
176
     0
 40
1.0
176
     0
 90
        2
176
     1
  1
strokes_ogs.tif
176
     1
290
     0
176
     1
 40
1.0
176
     1
 40
1.0
176
     1
1001
ACAD
1000
AcDbSavedByObjectVersion
1070
     0
  0
VISUALSTYLE
  5
32
102
{ACAD_REACTORS
330
29
102
}
330
29
100
AcDbVisualStyle
  2
Conceptual
 70
     9
177
     3
291
     0
 70
    58
 90
        3
176
     1
 90
        2
176
     1
 90
        0
176
     1
 90
        0
176
     1
 40
0.6
176
     1
 40
30.0
176
     1
 62
     7
420
 16777215
176
     1
 90
        2
176
     1
 90
        2
176
     1
 62
     7
176
     1
 62
   257
176
     1
 90
        1
176
     1
 90
        1
176
     1
 40
179.0
176
     1
 90
        8
176
     1
 62
     7
176
     1
 40
1.0
176
     1
 90
        1
176
     1
 90
        6
176
     1
 90
        2
176
     1
 62
     7
176
     1
 90
        3
176
     1
 90
        0
176
     1
 90
        0
176
     1
290
     0
176
     1
 90
        1
176
     1
 40
0.0
176
     1
 90
        0
176
     1
290
     0
176
     1
290
     1
176
     1
290
     1
176
     1
290
     0
176
     1
290
     0
176
     1
290
     0
176
     1
290
     0
176
     1
290
     0
176
     1
290
     0
176
     1
 90
       50
176
     1
 40
0.0
176
     1
 40
1.0
176
     1
 90
        0
176
     1
 62
    18
420
        0
176
     1
 90
       50
176
     1
 90
        3
176
     1
 62
     5
420
      255
176
     1
290
     0
176
     1
 90
       50
176
     1
 90
       50
176
     1
 90
       50
176
     1
290
     0
176
     1
 90
       50
176
     1
 62
   256
176
     0
 40
1.0
176
     0
 90
        2
176
     1
  1
strokes_ogs.tif
176
     1
290
     0
176
     1
 40
1.0
176
     1
 40
1.0
176
     1
1001
ACAD
1000
AcDbSavedByObjectVersion
1070
     0
  0
VISUALSTYLE
  5
34
102
{ACAD_REACTORS
330
29
102
}
330
29
100
AcDbVisualStyle
  2
Dim
 70
    11
177
     3
291
     1
 70
    58
 90
        2
176
     1
 90
        2
176
     1
 90
        0
176
     1
 90
        0
176
     1
 40
0.6
176
     1
 40
30.0
176
     1
 62
     7
420
 16777215
176
     1
 90
        1
176
     1
 90
        4
176
     1
 62
     7
176
     1
 62
   257
176
     1
 90
        1
176
     1
 90
        1
176
     1
 40
1.0
176
     1
 90
        8
176
     1
 62
     7
176
     1
 40
1.0
176
     1
 90
        1
176
     1
 90
        6
176
     1
 90
        2
176
     1
 62
     7
176
     1
 90
        5
176
     1
 90
        0
176
     1
 90
        0
176
     1
290
     0
176
     1
 90
        1
176
     1
 40
-50.0
176
     1
 90
        0
176
     1
290
     0
176
     1
290
     1
176
     1
290
     1
176
     1
290
     0
176
     1
290
     0
176
     1
290
     0
176
     1
290
     0
176
     1
290
     0
176
     1
290
     0
176
     1
 90
       50
176
     1
 40
0.0
176
     1
 40
1.0
176
     1
 90
        0
176
     1
 62
    18
420
        0
176
     1
 90
       50
176
     1
 90
        3
176
     1
 62
     5
420
      255
176
     1
290
     0
176
     1
 90
       50
176
     1
 90
       50
176
     1
 90
       50
176
     1
290
     0
176
     1
 90
       50
176
     1
 62
   256
176
     0
 40
1.0
176
     0
 90
        2
176
     1
  1
strokes_ogs.tif
176
     1
290
     0
176
     1
 40
1.0
176
     1
 40
1.0
176
     1
1001
ACAD
1000
AcDbSavedByObjectVersion
1070
     0
  0
VISUALSTYLE
  5
41
102
{ACAD_REACTORS
330
29
102
}
330
29
100
AcDbVisualStyle
  2
EdgeColorOff
 70
    22
177
     3
291
     1
 70
    58
 90
        2
176
     0
 90
        2
176
     0
 90
        0
176
     0
 90
        0
176
     0
 40
0.6
176
     0
 40
30.0
176
     0
 62
     7
420
 16777215
176
     0
 90
        1
176
     0
 90
        4
176
     0
 62
     7
176
     0
 62
   257
176
     0
 90
        1
176
     0
 90
        1
176
     0
 40
1.0
176
     0
 90
        8
176
     2
 62
     7
176
     0
 40
1.0
176
     0
 90
        1
176
     0
 90
        6
176
     0
 90
        2
176
     0
 62
     7
176
     0
 90
        5
176
     0
 90
        0
176
     0
 90
        0
176
     0
290
     0
176
     0
 90
        1
176
     0
 40
0.0
176
     0
 90
        0
176
     0
290
     0
176
     0
290
     1
176
     0
290
     1
176
     0
290
     0
176
     0
290
     0
176
     0
290
     0
176
     0
290
     0
176
     0
290
     0
176
     0
290
     0
176
     0
 90
       50
176
     0
 40
0.0
176
     0
 40
1.0
176
     0
 90
        0
176
     0
 62
    18
420
        0
176
     0
 90
       50
176
     0
 90
        3
176
     0
 62
     5
420
      255
176
     0
290
     0
176
     0
 90
       50
176
     0
 90
       50
176
     0
 90
       50
176
     0
290
     0
176
     0
 90
       50
176
     0
 62
   256
176
     0
 40
1.0
176
     0
 90
        2
176
     0
  1
strokes_ogs.tif
176
     0
290
     0
176
     0
 40
1.0
176
     0
 40
1.0
176
     0
1001
ACAD
1000
AcDbSavedByObjectVersion
1070
     0
  0
VISUALSTYLE
  5
38
102
{ACAD_REACTORS
330
29
102
}
330
29
100
AcDbVisualStyle
  2
Facepattern
 70
    15
177
     3
291
     1
 70
    58
 90
        2
176
     1
 90
        2
176
     1
 90
        0
176
     1
 90
        0
176
     1
 40
0.6
176
     1
 40
30.0
176
     1
 62
     7
420
 16777215
176
     1
 90
        1
176
     1
 90
        4
176
     1
 62
     7
176
     1
 62
   257
176
     1
 90
        1
176
     1
 90
        1
176
     1
 40
1.0
176
     1
 90
        8
176
     1
 62
     7
176
     1
 40
1.0
176
     1
 90
        1
176
     1
 90
        6
176
     1
 90
        2
176
     1
 62
     7
176
     1
 90
        5
176
     1
 90
        0
176
     1
 90
        0
176
     1
290
     0
176
     1
 90
        1
176
     1
 40
0.0
176
     1
 90
        0
176
     1
290
     0
176
     1
290
     1
176
     1
290
     1
176
     1
290
     0
176
     1
290
     0
176
     1
290
     0
176
     1
290
     0
176
     1
290
     0
176
     1
290
     0
176
     1
 90
       50
176
     1
 40
0.0
176
     1
 40
1.0
176
     1
 90
        0
176
     1
 62
    18
420
        0
176
     1
 90
       50
176
     1
 90
        3
176
     1
 62
     5
420
      255
176
     1
290
     0
176
     1
 90
       50
176
     1
 90
       50
176
     1
 90
       50
176
     1
290
     0
176
     1
 90
       50
176
     1
 62
   256
176
     0
 40
1.0
176
     0
 90
        2
176
     1
  1
strokes_ogs.tif
176
     1
290
     0
176
     1
 40
1.0
176
     1
 40
1.0
176
     1
1001
ACAD
1000
AcDbSavedByObjectVersion
1070
     0
  0
VISUALSTYLE
  5
2A
102
{ACAD_REACTORS
330
29
102
}
330
29
100
AcDbVisualStyle
  2
Flat
 70
     0
177
     3
291
     1
 70
    58
 90
        2
176
     1
 90
        1
176
     1
 90
        1
176
     1
 90
        2
176
     1
 40
0.6
176
     1
 40
30.0
176
     1
 62
     7
420
 16777215
176
     1
 90
        0
176
     1
 90
        0
176
     1
 62
     7
176
     1
 62
   257
176
     1
 90
        1
176
     1
 90
        1
176
     1
 40
1.0
176
     1
 90
        8
176
     1
 62
     7
176
     1
 40
1.0
176
     1
 90
        1
176
     1
 90
        6
176
     1
 90
        2
176
     1
 62
     7
176
     1
 90
        5
176
     1
 90
        0
176
     1
 90
        0
176
     1
290
     0
176
     1
 90
       13
176
     1
 40
0.0
176
     1
 90
        0
176
     1
290
     0
176
     1
290
     1
176
     1
290
     1
176
     1
290
     0
176
     1
290
     0
176
     1
290
     0
176
     1
290
     0
176
     1
290
     0
176
     1
290
     0
176
     1
 90
       50
176
     1
 40
0.0
176
     1
 40
1.0
176
     1
 90
        0
176
     1
 62
    18
420
        0
176
     1
 90
       50
176
     1
 90
        3
176
     1
 62
     5
420
      255
176
     1
290
     0
176
     1
 90
       50
176
     1
 90
       50
176
     1
 90
       50
176
     1
290
     0
176
     1
 90
       50
176
     1
 62
   256
176
     0
 40
1.0
176
     0
 90
        2
176
     1
  1
strokes_ogs.tif
176
     1
290
     0
176
     1
 40
1.0
176
     1
 40
1.0
176
     1
1001
ACAD
1000
AcDbSavedByObjectVersion
1070
     0
  0
VISUALSTYLE
  5
2B
102
{ACAD_REACTORS
330
29
102
}
330
29
100
AcDbVisualStyle
  2
FlatWithEdges
 70
     1
177
     3
291
     1
 70
    58
 90
        2
176
     1
 90
        1
176
     1
 90
        1
176
     1
 90
        2
176
     1
 40
0.6
176
     1
 40
30.0
176
     1
 62
     7
420
 16777215
176
     1
 90
        1
176
     1
 90
        0
176
     1
 62
     7
176
     1
 62
   257
176
     1
 90
        1
176
     1
 90
        1
176
     1
 40
1.0
176
     1
 90
        0
176
     1
 62
   257
176
     1
 40
1.0
176
     1
 90
        1
176
     1
 90
        6
176
     1
 90
        2
176
     1
 62
     7
176
     1
 90
        5
176
     1
 90
        0
176
     1
 90
        0
176
     1
290
     0
176
     1
 90
       13
176
     1
 40
0.0
176
     1
 90
        0
176
     1
290
     0
176
     1
290
     1
176
     1
290
     1
176
     1
290
     0
176
     1
290
     0
176
     1
290
     0
176
     1
290
     0
176
     1
290
     0
176
     1
290
     0
176
     1
 90
       50
176
     1
 40
0.0
176
     1
 40
1.0
176
     1
 90
        0
176
     1
 62
    18
420
        0
176
     1
 90
       50
176
     1
 90
        3
176
     1
 62
     5
420
      255
176
     1
290
     0
176
     1
 90
       50
176
     1
 90
       50
176
     1
 90
       50
176
     1
290
     0
176
     1
 90
       50
176
     1
 62
   256
176
     0
 40
1.0
176
     0
 90
        2
176
     1
  1
strokes_ogs.tif
176
     1
290
     0
176
     1
 40
1.0
176
     1
 40
1.0
176
     1
1001
ACAD
1000
AcDbSavedByObjectVersion
1070
     0
  0
VISUALSTYLE
  5
2C
102
{ACAD_REACTORS
330
29
102
}
330
29
100
AcDbVisualStyle
  2
Gouraud
 70
     2
177
     3
291
     1
 70
    58
 90
        2
176
     1
 90
        2
176
     1
 90
        1
176
     1
 90
        2
176
     1
 40
0.6
176
     1
 40
30.0
176
     1
 62
     7
420
 16777215
176
     1
 90
        0
176
     1
 90
        0
176
     1
 62
     7
176
     1
 62
   257
176
     1
 90
        1
176
     1
 90
        1
176
     1
 40
1.0
176
     1
 90
        0
176
     1
 62
     7
176
     1
 40
1.0
176
     1
 90
        1
176
     1
 90
        6
176
     1
 90
        2
176
     1
 62
     7
176
     1
 90
        5
176
     1
 90
        0
176
     1
 90
        0
176
     1
290
     0
176
     1
 90
       13
176
     1
 40
0.0
176
     1
 90
        0
176
     1
290
     0
176
     1
290
     1
176
     1
290
     1
176
     1
290
     0
176
     1
290
     0
176
     1
290
     0
176
     1
290
     0
176
     1
290
     0
176
     1
290
     0
176
     1
 90
       50
176
     1
 40
0.0
176
     1
 40
1.0
176
     1
 90
        0
176
     1
 62
    18
420
        0
176
     1
 90
       50
176
     1
 90
        3
176
     1
 62
     5
420
      255
176
     1
290
     0
176
     1
 90
       50
176
     1
 90
       50
176
     1
 90
       50
176
     1
290
     0
176
     1
 90
       50
176
     1
 62
   256
176
     0
 40
1.0
176
     0
 90
        2
176
     1
  1
strokes_ogs.tif
176
     1
290
     0
176
     1
 40
1.0
176
     1
 40
1.0
176
     1
1001
ACAD
1000
AcDbSavedByObjectVersion
1070
     0
  0
VISUALSTYLE
  5
2D
102
{ACAD_REACTORS
330
29
102
}
330
29
100
AcDbVisualStyle
  2
GouraudWithEdges
 70
     3
177
     3
291
     1
 70
    58
 90
        2
176
     1
 90
        2
176
     1
 90
        1
176
     1
 90
        2
176
     1
 40
0.6
176
     1
 40
30.0
176
     1
 62
     7
420
 16777215
176
     1
 90
        1
176
     1
 90
        0
176
     1
 62
     7
176
     1
 62
   257
176
     1
 90
        1
176
     1
 90
        1
176
     1
 40
1.0
176
     1
 90
        0
176
     1
 62
   257
176
     1
 40
1.0
176
     1
 90
        1
176
     1
 90
        6
176
     1
 90
        2
176
     1
 62
     7
176
     1
 90
        5
176
     1
 90
        0
176
     1
 90
        0
176
     1
290
     0
176
     1
 90
       13
176
     1
 40
0.0
176
     1
 90
        0
176
     1
290
     0
176
     1
290
     1
176
     1
290
     1
176
     1
290
     0
176
     1
290
     0
176
     1
290
     0
176
     1
290
     0
176
     1
290
     0
176
     1
290
     0
176
     1
 90
       50
176
     1
 40
0.0
176
     1
 40
1.0
176
     1
 90
        0
176
     1
 62
    18
420
        0
176
     1
 90
       50
176
     1
 90
        3
176
     1
 62
     5
420
      255
176
     1
290
     0
176
     1
 90
       50
176
     1
 90
       50
176
     1
 90
       50
176
     1
290
     0
176
     1
 90
       50
176
     1
 62
   256
176
     0
 40
1.0
176
     0
 90
        2
176
     1
  1
strokes_ogs.tif
176
     1
290
     0
176
     1
 40
1.0
176
     1
 40
1.0
176
     1
1001
ACAD
1000
AcDbSavedByObjectVersion
1070
     0
  0
VISUALSTYLE
  5
31
102
{ACAD_REACTORS
330
29
102
}
330
29
100
AcDbVisualStyle
  2
Hidden
 70
     6
177
     3
291
     0
 70
    58
 90
        1
176
     1
 90
        2
176
     1
 90
        2
176
     1
 90
        0
176
     1
 40
0.6
176
     1
 40
30.0
176
     1
 62
     7
420
 16777215
176
     1
 90
        2
176
     1
 90
        2
176
     1
 62
     7
176
     1
 62
   257
176
     1
 90
        2
176
     1
 90
        1
176
     1
 40
40.0
176
     1
 90
        0
176
     1
 62
   257
176
     1
 40
1.0
176
     1
 90
        1
176
     1
 90
        6
176
     1
 90
        2
176
     1
 62
     7
176
     1
 90
        3
176
     1
 90
        0
176
     1
 90
        0
176
     1
290
     0
176
     1
 90
        1
176
     1
 40
0.0
176
     1
 90
        0
176
     1
290
     0
176
     1
290
     1
176
     1
290
     1
176
     1
290
     0
176
     1
290
     0
176
     1
290
     0
176
     1
290
     0
176
     1
290
     0
176
     1
290
     0
176
     1
 90
       50
176
     1
 40
0.0
176
     1
 40
1.0
176
     1
 90
        0
176
     1
 62
    18
420
        0
176
     1
 90
       50
176
     1
 90
        3
176
     1
 62
     5
420
      255
176
     1
290
     0
176
     1
 90
       50
176
     1
 90
       50
176
     1
 90
       50
176
     1
290
     0
176
     1
 90
       50
176
     1
 62
   256
176
     0
 40
1.0
176
     0
 90
        2
176
     1
  1
strokes_ogs.tif
176
     1
290
     0
176
     1
 40
1.0
176
     1
 40
1.0
176
     1
1001
ACAD
1000
AcDbSavedByObjectVersion
1070
     0
  0
VISUALSTYLE
  5
3F
102
{ACAD_REACTORS
330
29
102
}
330
29
100
AcDbVisualStyle
  2
JitterOff
 70
    20
177
     3
291
     1
 70
    58
 90
        2
176
     0
 90
        2
176
     0
 90
        0
176
     0
 90
        0
176
     0
 40
0.6
176
     0
 40
30.0
176
     0
 62
     7
420
 16777215
176
     0
 90
        1
176
     0
 90
        4
176
     0
 62
     7
176
     0
 62
   257
176
     0
 90
        1
176
     0
 90
        1
176
     0
 40
1.0
176
     0
 90
       10
176
     2
 62
     7
176
     0
 40
1.0
176
     0
 90
        1
176
     0
 90
        6
176
     0
 90
        2
176
     0
 62
     7
176
     0
 90
        5
176
     0
 90
        0
176
     0
 90
        0
176
     0
290
     0
176
     0
 90
        1
176
     0
 40
0.0
176
     0
 90
        0
176
     0
290
     0
176
     0
290
     1
176
     0
290
     1
176
     0
290
     0
176
     0
290
     0
176
     0
290
     0
176
     0
290
     0
176
     0
290
     0
176
     0
290
     0
176
     0
 90
       50
176
     0
 40
0.0
176
     0
 40
1.0
176
     0
 90
        0
176
     0
 62
    18
420
        0
176
     0
 90
       50
176
     0
 90
        3
176
     0
 62
     5
420
      255
176
     0
290
     0
176
     0
 90
       50
176
     0
 90
       50
176
     0
 90
       50
176
     0
290
     0
176
     0
 90
       50
176
     0
 62
   256
176
     0
 40
1.0
176
     0
 90
        2
176
     0
  1
strokes_ogs.tif
176
     0
290
     0
176
     0
 40
1.0
176
     0
 40
1.0
176
     0
1001
ACAD
1000
AcDbSavedByObjectVersion
1070
     0
  0
VISUALSTYLE
  5
37
102
{ACAD_REACTORS
330
29
102
}
330
29
100
AcDbVisualStyle
  2
Linepattern
 70
    14
177
     3
291
     1
 70
    58
 90
        2
176
     1
 90
        2
176
     1
 90
        0
176
     1
 90
        0
176
     1
 40
0.6
176
     1
 40
30.0
176
     1
 62
     7
420
 16777215
176
     1
 90
        1
176
     1
 90
        4
176
     1
 62
     7
176
     1
 62
   257
176
     1
 90
        7
176
     1
 90
        7
176
     1
 40
1.0
176
     1
 90
        8
176
     1
 62
     7
176
     1
 40
1.0
176
     1
 90
        1
176
     1
 90
        6
176
     1
 90
        2
176
     1
 62
     7
176
     1
 90
        5
176
     1
 90
        0
176
     1
 90
        0
176
     1
290
     0
176
     1
 90
        1
176
     1
 40
0.0
176
     1
 90
        0
176
     1
290
     0
176
     1
290
     1
176
     1
290
     1
176
     1
290
     0
176
     1
290
     0
176
     1
290
     0
176
     1
290
     0
176
     1
290
     0
176
     1
290
     0
176
     1
 90
       50
176
     1
 40
0.0
176
     1
 40
1.0
176
     1
 90
        0
176
     1
 62
    18
420
        0
176
     1
 90
       50
176
     1
 90
        3
176
     1
 62
     5
420
      255
176
     1
290
     0
176
     1
 90
       50
176
     1
 90
       50
176
     1
 90
       50
176
     1
290
     0
176
     1
 90
       50
176
     1
 62
   256
176
     0
 40
1.0
176
     0
 90
        2
176
     1
  1
strokes_ogs.tif
176
     1
290
     0
176
     1
 40
1.0
176
     1
 40
1.0
176
     1
1001
ACAD
1000
AcDbSavedByObjectVersion
1070
     0
  0
VISUALSTYLE
  5
40
102
{ACAD_REACTORS
330
29
102
}
330
29
100
AcDbVisualStyle
  2
OverhangOff
 70
    21
177
     3
291
     1
 70
    58
 90
        2
176
     0
 90
        2
176
     0
 90
        0
176
     0
 90
        0
176
     0
 40
0.6
176
     0
 40
30.0
176
     0
 62
     7
420
 16777215
176
     0
 90
        1
176
     0
 90
        4
176
     0
 62
     7
176
     0
 62
   257
176
     0
 90
        1
176
     0
 90
        1
176
     0
 40
1.0
176
     0
 90
        9
176
     2
 62
     7
176
     0
 40
1.0
176
     0
 90
        1
176
     0
 90
        6
176
     0
 90
        2
176
     0
 62
     7
176
     0
 90
        5
176
     0
 90
        0
176
     0
 90
        0
176
     0
290
     0
176
     0
 90
        1
176
     0
 40
0.0
176
     0
 90
        0
176
     0
290
     0
176
     0
290
     1
176
     0
290
     1
176
     0
290
     0
176
     0
290
     0
176
     0
290
     0
176
     0
290
     0
176
     0
290
     0
176
     0
290
     0
176
     0
 90
       50
176
     0
 40
0.0
176
     0
 40
1.0
176
     0
 90
        0
176
     0
 62
    18
420
        0
176
     0
 90
       50
176
     0
 90
        3
176
     0
 62
     5
420
      255
176
     0
290
     0
176
     0
 90
       50
176
     0
 90
       50
176
     0
 90
       50
176
     0
290
     0
176
     0
 90
       50
176
     0
 62
   256
176
     0
 40
1.0
176
     0
 90
        2
176
     0
  1
strokes_ogs.tif
176
     0
290
     0
176
     0
 40
1.0
176
     0
 40
1.0
176
     0
1001
ACAD
1000
AcDbSavedByObjectVersion
1070
     0
  0
VISUALSTYLE
  5
33
102
{ACAD_REACTORS
330
29
102
}
330
29
100
AcDbVisualStyle
  2
Realistic
 70
     8
177
     3
291
     0
 70
    58
 90
        2
176
     1
 90
        3
176
     1
 90
        0
176
     1
 90
        2
176
     1
 40
0.6
176
     1
 40
30.0
176
     1
 62
     7
420
 16777215
176
     1
 90
        0
176
     1
 90
        0
176
     1
 62
     7
176
     1
 62
   257
176
     1
 90
        1
176
     1
 90
        1
176
     1
 40
1.0
176
     1
 90
        8
176
     1
 62
   257
176
     1
 40
1.0
176
     1
 90
        1
176
     1
 90
        6
176
     1
 90
        2
176
     1
 62
     7
176
     1
 90
        3
176
     1
 90
        0
176
     1
 90
        0
176
     1
290
     0
176
     1
 90
       13
176
     1
 40
0.0
176
     1
 90
        0
176
     1
290
     0
176
     1
290
     1
176
     1
290
     1
176
     1
290
     0
176
     1
290
     0
176
     1
290
     0
176
     1
290
     0
176
     1
290
     0
176
     1
290
     0
176
     1
 90
       50
176
     1
 40
0.0
176
     1
 40
1.0
176
     1
 90
        0
176
     1
 62
    18
420
        0
176
     1
 90
       50
176
     1
 90
        3
176
     1
 62
     5
420
      255
176
     1
290
     0
176
     1
 90
       50
176
     1
 90
       50
176
     1
 90
       50
176
     1
290
     0
176
     1
 90
       50
176
     1
 62
   256
176
     0
 40
1.0
176
     0
 90
        2
176
     1
  1
strokes_ogs.tif
176
     1
290
     0
176
     1
 40
1.0
176
     1
 40
1.0
176
     1
1001
ACAD
1000
AcDbSavedByObjectVersion
1070
     0
  0
VISUALSTYLE
  5
3E
102
{ACAD_REACTORS
330
29
102
}
330
29
100
AcDbVisualStyle
  2
Shaded
 70
    27
177
     3
291
     0
 70
    58
 90
        2
176
     1
 90
        2
176
     1
 90
        1
176
     1
 90
        2
176
     1
 40
0.6
176
     1
 40
30.0
176
     1
 62
     7
420
 16777215
176
     1
 90
        0
176
     1
 90
        4
176
     1
 62
     7
176
     1
 62
   257
176
     1
 90
        1
176
     1
 90
        1
176
     1
 40
1.0
176
     1
 90
        8
176
     1
 62
   257
176
     1
 40
1.0
176
     1
 90
        1
176
     1
 90
        6
176
     1
 90
        2
176
     1
 62
     8
420
  7895160
176
     1
 90
        3
176
     1
 90
        0
176
     1
 90
        0
176
     1
290
     0
176
     1
 90
        5
176
     1
 40
0.0
176
     1
 90
        0
176
     1
290
     0
176
     1
290
     1
176
     1
290
     1
176
     1
290
     0
176
     1
290
     0
176
     1
290
     0
176
     1
290
     0
176
     1
290
     0
176
     1
290
     0
176
     1
 90
       50
176
     1
 40
0.0
176
     1
 40
1.0
176
     1
 90
        0
176
     1
 62
    18
420
        0
176
     1
 90
       50
176
     1
 90
        3
176
     1
 62
     5
420
      255
176
     1
290
     0
176
     1
 90
       50
176
     1
 90
       50
176
     1
 90
       50
176
     1
290
     0
176
     1
 90
       50
176
     1
 62
   256
176
     0
 40
1.0
176
     0
 90
        2
176
     1
  1
strokes_ogs.tif
176
     1
290
     0
176
     1
 40
1.0
176
     1
 40
1.0
176
     1
1001
ACAD
1000
AcDbSavedByObjectVersion
1070
     0
  0
VISUALSTYLE
  5
3D
102
{ACAD_REACTORS
330
29
102
}
330
29
100
AcDbVisualStyle
  2
Shaded with edges
 70
    26
177
     3
291
     0
 70
    58
 90
        2
176
     1
 90
        2
176
     1
 90
        1
176
     1
 90
        2
176
     1
 40
0.6
176
     1
 40
30.0
176
     1
 62
     7
420
 16777215
176
     1
 90
        1
176
     1
 90
        2
176
     1
 62
     7
176
     1
 62
   257
176
     1
 90
        2
176
     1
 90
        1
176
     1
 40
1.0
176
     1
 90
        8
176
     1
 62
   257
176
     1
 40
1.0
176
     1
 90
        1
176
     1
 90
        6
176
     1
 90
        2
176
     1
 62
     7
176
     1
 90
        3
176
     1
 90
        0
176
     1
 90
        0
176
     1
290
     0
176
     1
 90
        5
176
     1
 40
0.0
176
     1
 90
        0
176
     1
290
     0
176
     1
290
     1
176
     1
290
     1
176
     1
290
     0
176
     1
290
     0
176
     1
290
     0
176
     1
290
     0
176
     1
290
     0
176
     1
290
     0
176
     1
 90
       50
176
     1
 40
0.0
176
     1
 40
1.0
176
     1
 90
        0
176
     1
 62
    18
420
        0
176
     1
 90
       50
176
     1
 90
        3
176
     1
 62
     5
420
      255
176
     1
290
     0
176
     1
 90
       50
176
     1
 90
       50
176
     1
 90
       50
176
     1
290
     0
176
     1
 90
       50
176
     1
 62
   256
176
     0
 40
1.0
176
     0
 90
        2
176
     1
  1
strokes_ogs.tif
176
     1
290
     0
176
     1
 40
1.0
176
     1
 40
1.0
176
     1
1001
ACAD
1000
AcDbSavedByObjectVersion
1070
     0
  0
VISUALSTYLE
  5
3A
102
{ACAD_REACTORS
330
29
102
}
330
29
100
AcDbVisualStyle
  2
Shades of Gray
 70
    23
177
     3
291
     0
 70
    58
 90
        2
176
     1
 90
        2
176
     1
 90
        3
176
     1
 90
        0
176
     1
 40
0.6
176
     1
 40
30.0
176
     1
 62
     7
420
 16777215
176
     1
 90
        2
176
     1
 90
        2
176
     1
 62
     7
176
     1
 62
     7
176
     1
 90
        1
176
     1
 90
        1
176
     1
 40
40.0
176
     1
 90
        8
176
     1
 62
     7
176
     1
 40
1.0
176
     1
 90
        1
176
     1
 90
        6
176
     1
 90
        2
176
     1
 62
     7
176
     1
 90
        3
176
     1
 90
        0
176
     1
 90
        0
176
     1
290
     0
176
     1
 90
        1
176
     1
 40
0.0
176
     1
 90
        0
176
     1
290
     0
176
     1
290
     1
176
     1
290
     1
176
     1
290
     0
176
     1
290
     0
176
     1
290
     0
176
     1
290
     0
176
     1
290
     0
176
     1
290
     0
176
     1
 90
       50
176
     1
 40
0.0
176
     1
 40
1.0
176
     1
 90
        0
176
     1
 62
    18
420
        0
176
     1
 90
       50
176
     1
 90
        3
176
     1
 62
     5
420
      255
176
     1
290
     0
176
     1
 90
       50
176
     1
 90
       50
176
     1
 90
       50
176
     1
290
     0
176
     1
 90
       50
176
     1
 62
   256
176
     0
 40
1.0
176
     0
 90
        2
176
     1
  1
strokes_ogs.tif
176
     1
290
     0
176
     1
 40
1.0
176
     1
 40
1.0
176
     1
1001
ACAD
1000
AcDbSavedByObjectVersion
1070
     0
  0
VISUALSTYLE
  5
3B
102
{ACAD_REACTORS
330
29
102
}
330
29
100
AcDbVisualStyle
  2
Sketchy
 70
    24
177
     3
291
     0
 70
    58
 90
        1
176
     1
 90
        2
176
     1
 90
        2
176
     1
 90
        0
176
     1
 40
0.6
176
     1
 40
30.0
176
     1
 62
     7
420
 16777215
176
     1
 90
        2
176
     1
 90
        2
176
     1
 62
     7
176
     1
 62
     7
176
     1
 90
        1
176
     1
 90
        1
176
     1
 40
40.0
176
     1
 90
       11
176
     1
 62
     7
176
     1
 40
1.0
176
     1
 90
        1
176
     1
 90
        6
176
     1
 90
        2
176
     1
 62
     7
176
     1
 90
        6
176
     1
 90
        0
176
     1
 90
        0
176
     1
290
     0
176
     1
 90
        1
176
     1
 40
0.0
176
     1
 90
        0
176
     1
290
     0
176
     1
290
     1
176
     1
290
     1
176
     1
290
     0
176
     1
290
     0
176
     1
290
     0
176
     1
290
     0
176
     1
290
     0
176
     1
290
     0
176
     1
 90
       50
176
     1
 40
0.0
176
     1
 40
1.0
176
     1
 90
        0
176
     1
 62
    18
420
        0
176
     1
 90
       50
176
     1
 90
        3
176
     1
 62
     5
420
      255
176
     1
290
     0
176
     1
 90
       50
176
     1
 90
       50
176
     1
 90
       50
176
     1
290
     0
176
     1
 90
       50
176
     1
 62
   256
176
     0
 40
1.0
176
     0
 90
        2
176
     1
  1
strokes_ogs.tif
176
     1
290
     0
176
     1
 40
1.0
176
     1
 40
1.0
176
     1
1001
ACAD
1000
AcDbSavedByObjectVersion
1070
     0
  0
VISUALSTYLE
  5
36
102
{ACAD_REACTORS
330
29
102
}
330
29
100
AcDbVisualStyle
  2
Thicken
 70
    13
177
     3
291
     1
 70
    58
 90
        2
176
     1
 90
        2
176
     1
 90
        0
176
     1
 90
        0
176
     1
 40
0.6
176
     1
 40
30.0
176
     1
 62
     7
420
 16777215
176
     1
 90
        1
176
     1
 90
        4
176
     1
 62
     7
176
     1
 62
   257
176
     1
 90
        1
176
     1
 90
        1
176
     1
 40
1.0
176
     1
 90
       12
176
     1
 62
     7
176
     1
 40
1.0
176
     1
 90
        1
176
     1
 90
        6
176
     1
 90
        2
176
     1
 62
     7
176
     1
 90
        5
176
     1
 90
        0
176
     1
 90
        0
176
     1
290
     0
176
     1
 90
        1
176
     1
 40
0.0
176
     1
 90
        0
176
     1
290
     0
176
     1
290
     1
176
     1
290
     1
176
     1
290
     0
176
     1
290
     0
176
     1
290
     0
176
     1
290
     0
176
     1
290
     0
176
     1
290
     0
176
     1
 90
       50
176
     1
 40
0.0
176
     1
 40
1.0
176
     1
 90
        0
176
     1
 62
    18
420
        0
176
     1
 90
       50
176
     1
 90
        3
176
     1
 62
     5
420
      255
176
     1
290
     0
176
     1
 90
       50
176
     1
 90
       50
176
     1
 90
       50
176
     1
290
     0
176
     1
 90
       50
176
     1
 62
   256
176
     0
 40
1.0
176
     0
 90
        2
176
     1
  1
strokes_ogs.tif
176
     1
290
     0
176
     1
 40
1.0
176
     1
 40
1.0
176
     1
1001
ACAD
1000
AcDbSavedByObjectVersion
1070
     0
  0
VISUALSTYLE
  5
30
102
{ACAD_REACTORS
330
29
102
}
330
29
100
AcDbVisualStyle
  2
Wireframe
 70
     5
177
     3
291
     0
 70
    58
 90
        0
176
     1
 90
        2
176
     1
 90
        0
176
     1
 90
        0
176
     1
 40
0.6
176
     1
 40
30.0
176
     1
 62
     7
420
 16777215
176
     1
 90
        1
176
     1
 90
        4
176
     1
 62
     7
176
     1
 62
   257
176
     1
 90
        1
176
     1
 90
        1
176
     1
 40
1.0
176
     1
 90
        0
176
     1
 62
   257
176
     1
 40
1.0
176
     1
 90
        1
176
     1
 90
        6
176
     1
 90
        2
176
     1
 62
     7
176
     1
 90
        3
176
     1
 90
        0
176
     1
 90
        0
176
     1
290
     0
176
     1
 90
        1
176
     1
 40
0.0
176
     1
 90
        0
176
     1
290
     0
176
     1
290
     1
176
     1
290
     1
176
     1
290
     0
176
     1
290
     0
176
     1
290
     0
176
     1
290
     0
176
     1
290
     0
176
     1
290
     0
176
     1
 90
       50
176
     1
 40
0.0
176
     1
 40
1.0
176
     1
 90
        0
176
     1
 62
    18
420
        0
176
     1
 90
       50
176
     1
 90
        3
176
     1
 62
     5
420
      255
176
     1
290
     0
176
     1
 90
       50
176
     1
 90
       50
176
     1
 90
       50
176
     1
290
     0
176
     1
 90
       50
176
     1
 62
   256
176
     0
 40
1.0
176
     0
 90
        2
176
     1
  1
strokes_ogs.tif
176
     1
290
     0
176
     1
 40
1.0
176
     1
 40
1.0
176
     1
1001
ACAD
1000
AcDbSavedByObjectVersion
1070
     0
  0
VISUALSTYLE
  5
3C
102
{ACAD_REACTORS
330
29
102
}
330
29
100
AcDbVisualStyle
  2
X-Ray
 70
    25
177
     3
291
     0
 70
    58
 90
        2
176
     1
 90
        2
176
     1
 90
        1
176
     1
 90
        1
176
     1
 40
0.5
176
     1
 40
30.0
176
     1
 62
     7
420
 16777215
176
     1
 90
        1
176
     1
 90
        0
176
     1
 62
     7
176
     1
 62
   257
176
     1
 90
        1
176
     1
 90
        1
176
     1
 40
1.0
176
     1
 90
        8
176
     1
 62
     7
176
     1
 40
1.0
176
     1
 90
        1
176
     1
 90
        6
176
     1
 90
        2
176
     1
 62
     7
176
     1
 90
        3
176
     1
 90
        0
176
     1
 90
        0
176
     1
290
     0
176
     1
 90
       13
176
     1
 40
0.0
176
     1
 90
        0
176
     1
290
     0
176
     1
290
     1
176
     1
290
     1
176
     1
290
     0
176
     1
290
     0
176
     1
290
     0
176
     1
290
     0
176
     1
290
     0
176
     1
290
     0
176
     1
 90
       50
176
     1
 40
0.0
176
     1
 40
1.0
176
     1
 90
        0
176
     1
 62
    18
420
        0
176
     1
 90
       50
176
     1
 90
        3
176
     1
 62
     5
420
      255
176
     1
290
     0
176
     1
 90
       50
176
     1
 90
       50
176
     1
 90
       50
176
     1
290
     0
176
     1
 90
       50
176
     1
 62
   256
176
     0
 40
1.0
176
     0
 90
        2
176
     1
  1
strokes_ogs.tif
176
     1
290
     0
176
     1
 40
1.0
176
     1
 40
1.0
176
     1
1001
ACAD
1000
AcDbSavedByObjectVersion
1070
     0
  0
DICTIONARYVAR
  5
119
102
{ACAD_REACTORS
330
114
102
}
330
114
100
DictionaryVariables
280
     0
  1
1:1
  0
DICTIONARYVAR
  5
116
102
{ACAD_REACTORS
330
114
102
}
330
114
100
DictionaryVariables
280
     0
  1
STANDARD
  0
DICTIONARYVAR
  5
115
102
{ACAD_REACTORS
330
114
102
}
330
114
100
DictionaryVariables
280
     0
  1
STANDARD
  0
DICTIONARYVAR
  5
117
102
{ACAD_REACTORS
330
114
102
}
330
114
100
DictionaryVariables
280
     0
  1
Imperial24
  0
DICTIONARYVAR
  5
118
102
{ACAD_REACTORS
330
114
102
}
330
114
100
DictionaryVariables
280
     0
  1
Imperial24
  0
XRECORD
  5
10B
102
{ACAD_REACTORS
330
109
102
}
330
109
100
AcDbXrecord
280
     1
  1
BUILDING_ID
  1
Toilet-Elongated-DXV-Essence-3967_Series
  1
FLOOR_ID
  1
23
  0
XRECORD
  5
10A
102
{ACAD_REACTORS
330
109
102
}
330
109
100
AcDbXrecord
280
     1
  1
-2000051
  1
Lines
  1
-2001160
  1
Plumbing Fixtures
  1
-2002000
  1
Detail Items
  1
-2007000
  1
Connector Element
  0
DICTIONARY
  5
43B
330
6B
100
AcDbDictionary
280
     1
281
     1
  3
ACAD_XREC_ROUNDTRIP
360
43C
  0
DICTIONARY
  5
1A
330
19
100
AcDbDictionary
280
     1
281
     1
  3
BUMPTILE
360
1C
  3
DIFFUSETILE
360
1B
  3
OPACITYTILE
360
1F
  3
REFLECTIONTILE
360
1E
  3
REFRACTIONTILE
360
20
  3
SPECULARTILE
360
1D
  0
DICTIONARY
  5
12
330
11
100
AcDbDictionary
280
     1
281
     1
  3
BUMPTILE
360
14
  3
DIFFUSETILE
360
13
  3
OPACITYTILE
360
17
  3
REFLECTIONTILE
360
16
  3
REFRACTIONTILE
360
18
  3
SPECULARTILE
360
15
  0
DICTIONARY
  5
22
330
21
100
AcDbDictionary
280
     1
281
     1
  3
BUMPTILE
360
24
  3
DIFFUSETILE
360
23
  3
OPACITYTILE
360
27
  3
REFLECTIONTILE
360
26
  3
REFRACTIONTILE
360
28
  3
SPECULARTILE
360
25
  0
DICTIONARY
  5
439
330
69
100
AcDbDictionary
280
     1
281
     1
  3
ACAD_XREC_ROUNDTRIP
360
43A
  0
DICTIONARY
  5
436
330
65
100
AcDbDictionary
280
     1
281
     1
  3
ACAD_ROUNDTRIP_2008_TABLESTYLE_CELLSTYLEMAP
360
437
  0
XRECORD
  5
43C
102
{ACAD_REACTORS
330
43B
102
}
330
43B
100
AcDbXrecord
280
     1
102
DISPLAYNAME
  1
Imperial24
102
FLAGS
 90
        0
  0
XRECORD
  5
1C
102
{ACAD_REACTORS
330
1A
102
}
330
1A
100
AcDbXrecord
280
     1
270
     1
271
     1
  0
XRECORD
  5
1B
102
{ACAD_REACTORS
330
1A
102
}
330
1A
100
AcDbXrecord
280
     1
270
     1
271
     1
  0
XRECORD
  5
1F
102
{ACAD_REACTORS
330
1A
102
}
330
1A
100
AcDbXrecord
280
     1
270
     1
271
     1
  0
XRECORD
  5
1E
102
{ACAD_REACTORS
330
1A
102
}
330
1A
100
AcDbXrecord
280
     1
270
     1
271
     1
  0
XRECORD
  5
20
102
{ACAD_REACTORS
330
1A
102
}
330
1A
100
AcDbXrecord
280
     1
270
     1
271
     1
  0
XRECORD
  5
1D
102
{ACAD_REACTORS
330
1A
102
}
330
1A
100
AcDbXrecord
280
     1
270
     1
271
     1
  0
XRECORD
  5
14
102
{ACAD_REACTORS
330
12
102
}
330
12
100
AcDbXrecord
280
     1
270
     1
271
     1
  0
XRECORD
  5
13
102
{ACAD_REACTORS
330
12
102
}
330
12
100
AcDbXrecord
280
     1
270
     1
271
     1
  0
XRECORD
  5
17
102
{ACAD_REACTORS
330
12
102
}
330
12
100
AcDbXrecord
280
     1
270
     1
271
     1
  0
XRECORD
  5
16
102
{ACAD_REACTORS
330
12
102
}
330
12
100
AcDbXrecord
280
     1
270
     1
271
     1
  0
XRECORD
  5
18
102
{ACAD_REACTORS
330
12
102
}
330
12
100
AcDbXrecord
280
     1
270
     1
271
     1
  0
XRECORD
  5
15
102
{ACAD_REACTORS
330
12
102
}
330
12
100
AcDbXrecord
280
     1
270
     1
271
     1
  0
XRECORD
  5
24
102
{ACAD_REACTORS
330
22
102
}
330
22
100
AcDbXrecord
280
     1
270
     1
271
     1
  0
XRECORD
  5
23
102
{ACAD_REACTORS
330
22
102
}
330
22
100
AcDbXrecord
280
     1
270
     1
271
     1
  0
XRECORD
  5
27
102
{ACAD_REACTORS
330
22
102
}
330
22
100
AcDbXrecord
280
     1
270
     1
271
     1
  0
XRECORD
  5
26
102
{ACAD_REACTORS
330
22
102
}
330
22
100
AcDbXrecord
280
     1
270
     1
271
     1
  0
XRECORD
  5
28
102
{ACAD_REACTORS
330
22
102
}
330
22
100
AcDbXrecord
280
     1
270
     1
271
     1
  0
XRECORD
  5
25
102
{ACAD_REACTORS
330
22
102
}
330
22
100
AcDbXrecord
280
     1
270
     1
271
     1
  0
XRECORD
  5
43A
102
{ACAD_REACTORS
330
439
102
}
330
439
100
AcDbXrecord
280
     1
102
DISPLAYNAME
  1
Imperial24
102
FLAGS
 90
        0
  0
CELLSTYLEMAP
  5
437
102
{ACAD_REACTORS
330
436
102
}
330
436
100
AcDbCellStyleMap
 90
        3
300
CELLSTYLE
  1
TABLEFORMAT_BEGIN
 90
        5
170
     1
 91
        0
 92
    32768
 62
   257
 93
        1
300
CONTENTFORMAT
  1
CONTENTFORMAT_BEGIN
 90
        0
 91
        0
 92
      512
 93
        0
300

 40
0.0
140
1.0
 94
        5
 62
     0
340
55
144
0.25
309
CONTENTFORMAT_END
171
     0
 94
        0
309
TABLEFORMAT_END
  1
CELLSTYLE_BEGIN
 90
        1
 91
        1
300
_TITLE
309
CELLSTYLE_END
300
CELLSTYLE
  1
TABLEFORMAT_BEGIN
 90
        5
170
     1
 91
        0
 92
        0
 62
   257
 93
        1
300
CONTENTFORMAT
  1
CONTENTFORMAT_BEGIN
 90
        0
 91
        0
 92
      512
 93
        0
300

 40
0.0
140
1.0
 94
        5
 62
     0
340
55
144
0.18
309
CONTENTFORMAT_END
171
     0
 94
        0
309
TABLEFORMAT_END
  1
CELLSTYLE_BEGIN
 90
        2
 91
        1
300
_HEADER
309
CELLSTYLE_END
300
CELLSTYLE
  1
TABLEFORMAT_BEGIN
 90
        5
170
     1
 91
        0
 92
        0
 62
   257
 93
        1
300
CONTENTFORMAT
  1
CONTENTFORMAT_BEGIN
 90
        0
 91
        0
 92
      512
 93
        0
300

 40
0.0
140
1.0
 94
        2
 62
     0
340
55
144
0.18
309
CONTENTFORMAT_END
171
     0
 94
        0
309
TABLEFORMAT_END
  1
CELLSTYLE_BEGIN
 90
        3
 91
        2
300
_DATA
309
CELLSTYLE_END
  0
ENDSEC
  0
EOF
