  0
SECTION
  2
HEADER
  9
$ACADVER
  1
AC1015
  9
$ACADMAINTVER
 70
     6
  9
$DWGCODEPAGE
  3
ANSI_1252
  9
$INSBASE
 10
0.0
 20
0.0
 30
0.0
  9
$EXTMIN
 10
0.0
 20
0.0
 30
0.0
  9
$EXTMAX
 10
1682.0
 20
2378.0
 30
0.0
  9
$LIMMIN
 10
0.0
 20
0.0
  9
$LIMMAX
 10
1682.0
 20
2378.0
  9
$ORTHOMODE
 70
     0
  9
$REGENMODE
 70
     1
  9
$FILLMODE
 70
     1
  9
$QTEXTMODE
 70
     0
  9
$MIRRTEXT
 70
     1
  9
$LTSCALE
 40
1.0
  9
$ATTMODE
 70
     1
  9
$TEXTSIZE
 40
2.5
  9
$TRACEWID
 40
1.0
  9
$TEXTSTYLE
  7
Standard
  9
$CLAYER
  8
0
  9
$CELTYPE
  6
ByLayer
  9
$CECOLOR
 62
   256
  9
$CELTSCALE
 40
1.0
  9
$DISPSILH
 70
     0
  9
$DIMSCALE
 40
1.0
  9
$DIMASZ
 40
2.5
  9
$DIMEXO
 40
0.625
  9
$DIMDLI
 40
3.75
  9
$DIMRND
 40
0.0
  9
$DIMDLE
 40
0.0
  9
$DIMEXE
 40
1.25
  9
$DIMTP
 40
0.0
  9
$DIMTM
 40
0.0
  9
$DIMTXT
 40
2.5
  9
$DIMCEN
 40
2.5
  9
$DIMTSZ
 40
0.0
  9
$DIMTOL
 70
     0
  9
$DIMLIM
 70
     0
  9
$DIMTIH
 70
     0
  9
$DIMTOH
 70
     0
  9
$DIMSE1
 70
     0
  9
$DIMSE2
 70
     0
  9
$DIMTAD
 70
     1
  9
$DIMZIN
 70
     8
  9
$DIMBLK
  1

  9
$DIMASO
 70
     1
  9
$DIMSHO
 70
     1
  9
$DIMPOST
  1

  9
$DIMAPOST
  1

  9
$DIMALT
 70
     0
  9
$DIMALTD
 70
     3
  9
$DIMALTF
 40
0.0393700787
  9
$DIMLFAC
 40
1.0
  9
$DIMTOFL
 70
     1
  9
$DIMTVP
 40
0.0
  9
$DIMTIX
 70
     0
  9
$DIMSOXD
 70
     0
  9
$DIMSAH
 70
     0
  9
$DIMBLK1
  1

  9
$DIMBLK2
  1

  9
$DIMSTYLE
  2
ISO-25
  9
$DIMCLRD
 70
     0
  9
$DIMCLRE
 70
     0
  9
$DIMCLRT
 70
     0
  9
$DIMTFAC
 40
1.0
  9
$DIMGAP
 40
0.625
  9
$DIMJUST
 70
     0
  9
$DIMSD1
 70
     0
  9
$DIMSD2
 70
     0
  9
$DIMTOLJ
 70
     0
  9
$DIMTZIN
 70
     8
  9
$DIMALTZ
 70
     0
  9
$DIMALTTZ
 70
     0
  9
$DIMUPT
 70
     0
  9
$DIMDEC
 70
     2
  9
$DIMTDEC
 70
     2
  9
$DIMALTU
 70
     2
  9
$DIMALTTD
 70
     3
  9
$DIMTXSTY
  7
Standard
  9
$DIMAUNIT
 70
     0
  9
$DIMADEC
 70
     0
  9
$DIMALTRND
 40
0.0
  9
$DIMAZIN
 70
     0
  9
$DIMDSEP
 70
    44
  9
$DIMATFIT
 70
     3
  9
$DIMFRAC
 70
     0
  9
$DIMLDRBLK
  1

  9
$DIMLUNIT
 70
     2
  9
$DIMLWD
 70
    -2
  9
$DIMLWE
 70
    -2
  9
$DIMTMOVE
 70
     0
  9
$LUNITS
 70
     2
  9
$LUPREC
 70
     4
  9
$SKETCHINC
 40
1.0
  9
$FILLETRAD
 40
10.0
  9
$AUNITS
 70
     0
  9
$AUPREC
 70
     0
  9
$MENU
  1
.
  9
$ELEVATION
 40
0.0
  9
$PELEVATION
 40
0.0
  9
$THICKNESS
 40
0.0
  9
$LIMCHECK
 70
     0
  9
$CHAMFERA
 40
10.0
  9
$CHAMFERB
 40
10.0
  9
$CHAMFERC
 40
20.0
  9
$CHAMFERD
 40
0.0
  9
$SKPOLY
 70
     0
  9
$TDCREATE
 40
2455463.601151956
  9
$TDUCREATE
 40
2455463.517818623
  9
$TDUPDATE
 40
2455463.601151967
  9
$TDUUPDATE
 40
2455463.517818634
  9
$TDINDWG
 40
0.0000000116
  9
$TDUSRTIMER
 40
0.0000000116
  9
$USRTIMER
 70
     1
  9
$ANGBASE
 50
0.0
  9
$ANGDIR
 70
     0
  9
$PDMODE
 70
     0
  9
$PDSIZE
 40
0.0
  9
$PLINEWID
 40
0.0
  9
$SPLFRAME
 70
     0
  9
$SPLINETYPE
 70
     6
  9
$SPLINESEGS
 70
     8
  9
$HANDSEED
  5
481
  9
$SURFTAB1
 70
     6
  9
$SURFTAB2
 70
     6
  9
$SURFTYPE
 70
     6
  9
$SURFU
 70
     6
  9
$SURFV
 70
     6
  9
$UCSBASE
  2

  9
$UCSNAME
  2

  9
$UCSORG
 10
0.0
 20
0.0
 30
0.0
  9
$UCSXDIR
 10
1.0
 20
0.0
 30
0.0
  9
$UCSYDIR
 10
0.0
 20
1.0
 30
0.0
  9
$UCSORTHOREF
  2

  9
$UCSORTHOVIEW
 70
     0
  9
$UCSORGTOP
 10
0.0
 20
0.0
 30
0.0
  9
$UCSORGBOTTOM
 10
0.0
 20
0.0
 30
0.0
  9
$UCSORGLEFT
 10
0.0
 20
0.0
 30
0.0
  9
$UCSORGRIGHT
 10
0.0
 20
0.0
 30
0.0
  9
$UCSORGFRONT
 10
0.0
 20
0.0
 30
0.0
  9
$UCSORGBACK
 10
0.0
 20
0.0
 30
0.0
  9
$PUCSBASE
  2

  9
$PUCSNAME
  2

  9
$PUCSORG
 10
0.0
 20
0.0
 30
0.0
  9
$PUCSXDIR
 10
1.0
 20
0.0
 30
0.0
  9
$PUCSYDIR
 10
0.0
 20
1.0
 30
0.0
  9
$PUCSORTHOREF
  2

  9
$PUCSORTHOVIEW
 70
     0
  9
$PUCSORGTOP
 10
0.0
 20
0.0
 30
0.0
  9
$PUCSORGBOTTOM
 10
0.0
 20
0.0
 30
0.0
  9
$PUCSORGLEFT
 10
0.0
 20
0.0
 30
0.0
  9
$PUCSORGRIGHT
 10
0.0
 20
0.0
 30
0.0
  9
$PUCSORGFRONT
 10
0.0
 20
0.0
 30
0.0
  9
$PUCSORGBACK
 10
0.0
 20
0.0
 30
0.0
  9
$USERI1
 70
     0
  9
$USERI2
 70
     0
  9
$USERI3
 70
     0
  9
$USERI4
 70
     0
  9
$USERI5
 70
     0
  9
$USERR1
 40
0.0
  9
$USERR2
 40
0.0
  9
$USERR3
 40
0.0
  9
$USERR4
 40
0.0
  9
$USERR5
 40
0.0
  9
$WORLDVIEW
 70
     1
  9
$SHADEDGE
 70
     3
  9
$SHADEDIF
 70
    70
  9
$TILEMODE
 70
     1
  9
$MAXACTVP
 70
    64
  9
$PINSBASE
 10
0.0
 20
0.0
 30
0.0
  9
$PLIMCHECK
 70
     0
  9
$PEXTMIN
 10
0.0
 20
0.0
 30
0.0
  9
$PEXTMAX
 10
1682.0
 20
2378.0
 30
0.0
  9
$PLIMMIN
 10
0.0
 20
0.0
  9
$PLIMMAX
 10
1682.0
 20
2378.0
  9
$UNITMODE
 70
     0
  9
$VISRETAIN
 70
     1
  9
$PLINEGEN
 70
     0
  9
$PSLTSCALE
 70
     1
  9
$TREEDEPTH
 70
  3020
  9
$CMLSTYLE
  2
Standard
  9
$CMLJUST
 70
     0
  9
$CMLSCALE
 40
20.0
  9
$PROXYGRAPHICS
 70
     1
  9
$MEASUREMENT
 70
     1
  9
$CELWEIGHT
370
    -1
  9
$ENDCAPS
280
     0
  9
$JOINSTYLE
280
     0
  9
$LWDISPLAY
290
     0
  9
$INSUNITS
 70
     4
  9
$HYPERLINKBASE
  1

  9
$STYLESHEET
  1

  9
$XEDIT
290
     1
  9
$CEPSNTYPE
380
     0
  9
$PSTYLEMODE
290
     1
  9
$FINGERPRINTGUID
  2
{79269271-EA5B-414C-AF80-B9DA8DD1C5DF}
  9
$VERSIONGUID
  2
{FAEB1C32-E019-11D5-929B-00C0DF256EC4}
  9
$EXTNAMES
290
     1
  9
$PSVPSCALE
 40
0.0
  9
$OLESTARTUP
290
     0
  0
ENDSEC
  0
SECTION
  2
CLASSES
  0
CLASS
  1
ACDBDICTIONARYWDFLT
  2
AcDbDictionaryWithDefault
  3
ObjectDBX Classes
 90
        0
280
     0
281
     0
  0
CLASS
  1
VISUALSTYLE
  2
AcDbVisualStyle
  3
ObjectDBX Classes
 90
     4095
280
     0
281
     0
  0
CLASS
  1
SCALE
  2
AcDbScale
  3
ObjectDBX Classes
 90
     1153
280
     0
281
     0
  0
CLASS
  1
DICTIONARYVAR
  2
AcDbDictionaryVar
  3
ObjectDBX Classes
 90
        0
280
     0
281
     0
  0
CLASS
  1
ACDBPLACEHOLDER
  2
AcDbPlaceHolder
  3
ObjectDBX Classes
 90
        0
280
     0
281
     0
  0
CLASS
  1
LAYOUT
  2
AcDbLayout
  3
ObjectDBX Classes
 90
        0
280
     0
281
     0
  0
ENDSEC
  0
SECTION
  2
TABLES
  0
TABLE
  2
VPORT
  5
8
330
0
100
AcDbSymbolTable
 70
     1
  0
VPORT
  5
29
330
8
100
AcDbSymbolTableRecord
100
AcDbViewportTableRecord
  2
*Active
 70
     0
 10
0.0
 20
0.0
 11
1.0
 21
1.0
 12
344.1869158879
 22
148.5
 13
0.0
 23
0.0
 14
10.0
 24
10.0
 15
10.0
 25
10.0
 16
0.0
 26
0.0
 36
1.0
 17
0.0
 27
0.0
 37
0.0
 40
297.0
 41
1.9729729729
 42
50.0
 43
0.0
 44
0.0
 50
0.0
 51
0.0
 71
     0
 72
   100
 73
     1
 74
     3
 75
     0
 76
     0
 77
     0
 78
     0
281
     0
 65
     1
110
0.0
120
0.0
130
0.0
111
1.0
121
0.0
131
0.0
112
0.0
122
1.0
132
0.0
 79
     0
146
0.0
  0
ENDTAB
  0
TABLE
  2
LTYPE
  5
5
330
0
100
AcDbSymbolTable
 70
     2
  0
LTYPE
  5
14
330
5
100
AcDbSymbolTableRecord
100
AcDbLinetypeTableRecord
  2
ByBlock
 70
     0
  3

 72
    65
 73
     0
 40
0.0
  0
LTYPE
  5
15
330
5
100
AcDbSymbolTableRecord
100
AcDbLinetypeTableRecord
  2
ByLayer
 70
     0
  3

 72
    65
 73
     0
 40
0.0
  0
LTYPE
  5
16
330
5
100
AcDbSymbolTableRecord
100
AcDbLinetypeTableRecord
  2
Continuous
 70
     0
  3
Solid line
 72
    65
 73
     0
 40
0.0
  0
LTYPE
  5
60
330
5
100
AcDbSymbolTableRecord
100
AcDbLinetypeTableRecord
  2
CENTER2
 70
     0
  3
Center (.5x) ___ _ ___ _ ___ _ ___ _ ___ _ ___
 72
    65
 73
     4
 40
28.575
 49
19.05
 74
     4
 75
     0
340
0
 46
0.0
 50
0.0
 44
0.0
 45
0.0
 49
-3.175
 74
     4
 75
     0
340
0
 46
0.0
 50
0.0
 44
0.0
 45
0.0
 49
3.175
 74
     4
 75
     0
340
0
 46
0.0
 50
0.0
 44
0.0
 45
0.0
 49
-3.175
 74
     4
 75
     0
340
0
 46
0.0
 50
0.0
 44
0.0
 45
0.0
  0
ENDTAB
  0
TABLE
  2
LAYER
  5
2
330
0
100
AcDbSymbolTable
 70
    14
  0
LAYER
  5
10
330
2
100
AcDbSymbolTableRecord
100
AcDbLayerTableRecord
  2
0
 70
     0
 62
     7
  6
Continuous
370
    -3
390
F
  0
LAYER
  5
5D
330
2
100
AcDbSymbolTableRecord
100
AcDbLayerTableRecord
  2
Default
 70
     0
 62
     7
  6
Continuous
370
    -3
390
F
  0
LAYER
  5
77
330
2
100
AcDbSymbolTableRecord
100
AcDbLayerTableRecord
  2
$DDT_AUDIT_GENERATED_(77)
 70
     0
 62
     7
  6
Continuous
370
    -3
390
F
  0
LAYER
  5
7C
330
2
100
AcDbSymbolTableRecord
100
AcDbLayerTableRecord
  2
$DDT_AUDIT_GENERATED_(7C)
 70
     0
 62
     7
  6
Continuous
370
    -3
390
F
  0
LAYER
  5
81
330
2
100
AcDbSymbolTableRecord
100
AcDbLayerTableRecord
  2
$DDT_AUDIT_GENERATED_(81)
 70
     0
 62
     7
  6
Continuous
370
    -3
390
F
  0
LAYER
  5
8E
330
2
100
AcDbSymbolTableRecord
100
AcDbLayerTableRecord
  2
$DDT_AUDIT_GENERATED_(8E)
 70
     0
 62
     7
  6
Continuous
370
    -3
390
F
  0
LAYER
  5
A0
330
2
100
AcDbSymbolTableRecord
100
AcDbLayerTableRecord
  2
4221035_0__HUELS
 70
     0
 62
     7
  6
Continuous
370
    -3
390
F
  0
LAYER
  5
B2
330
2
100
AcDbSymbolTableRecord
100
AcDbLayerTableRecord
  2
4221039_0__SIEB_
 70
     0
 62
     7
  6
Continuous
370
    -3
390
F
  0
LAYER
  5
3D7
330
2
100
AcDbSymbolTableRecord
100
AcDbLayerTableRecord
  2
$DDT_AUDIT_GENERATED_(3D7)
 70
     0
 62
     7
  6
Continuous
370
    -3
390
F
  0
LAYER
  5
3DA
330
2
100
AcDbSymbolTableRecord
100
AcDbLayerTableRecord
  2
09146038_NABE
 70
     0
 62
     7
  6
Continuous
370
    -3
390
F
  0
LAYER
  5
3E6
330
2
100
AcDbSymbolTableRecord
100
AcDbLayerTableRecord
  2
09155038_GRIFF
 70
     0
 62
     7
  6
Continuous
370
    -3
390
F
  0
LAYER
  5
43E
330
2
100
AcDbSymbolTableRecord
100
AcDbLayerTableRecord
  2
09161031_SCHRAUB
 70
     0
 62
     7
  6
Continuous
370
    -3
390
F
  0
LAYER
  5
442
330
2
100
AcDbSymbolTableRecord
100
AcDbLayerTableRecord
  2
$DDT_AUDIT_GENERATED_(442)
 70
     0
 62
     7
  6
Continuous
370
    -3
390
F
  0
LAYER
  5
447
330
2
100
AcDbSymbolTableRecord
100
AcDbLayerTableRecord
  2
$DDT_AUDIT_GENERATED_(447)
 70
     0
 62
     7
  6
Continuous
370
    -3
390
F
  0
ENDTAB
  0
TABLE
  2
STYLE
  5
3
330
0
100
AcDbSymbolTable
 70
     2
  0
STYLE
  5
11
330
3
100
AcDbSymbolTableRecord
100
AcDbTextStyleTableRecord
  2
Standard
 70
     0
 40
0.0
 41
1.0
 50
0.0
 71
     0
 42
2.5
  3
txt
  4

  0
STYLE
  5
470
330
3
100
AcDbSymbolTableRecord
100
AcDbTextStyleTableRecord
  2
SEACAD_seiso_ttf
 70
     0
 40
0.0
 41
1.0
 50
0.0
 71
     0
 42
0.2
  3
seiso.ttf
  4

  0
ENDTAB
  0
TABLE
  2
VIEW
  5
6
330
0
100
AcDbSymbolTable
 70
     0
  0
ENDTAB
  0
TABLE
  2
UCS
  5
7
330
0
100
AcDbSymbolTable
 70
     0
  0
ENDTAB
  0
TABLE
  2
APPID
  5
9
330
0
100
AcDbSymbolTable
 70
     1
  0
APPID
  5
12
330
9
100
AcDbSymbolTableRecord
100
AcDbRegAppTableRecord
  2
ACAD
 70
     0
  0
ENDTAB
  0
TABLE
  2
DIMSTYLE
  5
A
330
0
100
AcDbSymbolTable
 70
     1
100
AcDbDimStyleTable
  0
DIMSTYLE
105
27
330
A
100
AcDbSymbolTableRecord
100
AcDbDimStyleTableRecord
  2
ISO-25
 70
     0
 41
2.5
 42
0.625
 43
3.75
 44
1.25
 73
     0
 74
     0
 77
     1
 78
     8
140
2.5
141
2.5
143
0.0393700787
147
0.625
171
     3
172
     1
271
     2
272
     2
274
     3
278
    44
283
     0
284
     8
340
11
  0
ENDTAB
  0
TABLE
  2
BLOCK_RECORD
  5
1
330
0
100
AcDbSymbolTable
 70
     7
  0
BLOCK_RECORD
  5
1F
330
1
100
AcDbSymbolTableRecord
100
AcDbBlockTableRecord
  2
*Model_Space
340
22
  0
BLOCK_RECORD
  5
1B
330
1
100
AcDbSymbolTableRecord
100
AcDbBlockTableRecord
  2
*Paper_Space
340
1E
  0
BLOCK_RECORD
  5
5E
330
1
100
AcDbSymbolTableRecord
100
AcDbBlockTableRecord
  2
SEANNOT_GROUP
340
0
102
{BLKREFS
331
5F
102
}
  0
BLOCK_RECORD
  5
69
330
1
100
AcDbSymbolTableRecord
100
AcDbBlockTableRecord
  2
SEANNOT_GROUP1
340
0
102
{BLKREFS
331
6A
102
}
  0
BLOCK_RECORD
  5
6F
330
1
100
AcDbSymbolTableRecord
100
AcDbBlockTableRecord
  2
SEANNOT_GROUP2
340
0
102
{BLKREFS
331
70
102
}
  0
BLOCK_RECORD
  5
75
330
1
100
AcDbSymbolTableRecord
100
AcDbBlockTableRecord
  2
SE
340
0
102
{BLKREFS
331
76
102
}
  0
BLOCK_RECORD
  5
3F2
330
1
100
AcDbSymbolTableRecord
100
AcDbBlockTableRecord
  2
SE1
340
0
102
{BLKREFS
331
3F3
102
}
  0
BLOCK_RECORD
  5
44B
330
1
100
AcDbSymbolTableRecord
100
AcDbBlockTableRecord
  2
SE2
340
0
102
{BLKREFS
331
44C
102
}
  0
ENDTAB
  0
ENDSEC
  0
SECTION
  2
BLOCKS
  0
BLOCK
  5
20
330
1F
100
AcDbEntity
  8
0
100
AcDbBlockBegin
  2
*Model_Space
 70
     0
 10
0.0
 20
0.0
 30
0.0
  3
*Model_Space
  1

  0
ENDBLK
  5
21
330
1F
100
AcDbEntity
  8
0
100
AcDbBlockEnd
  0
BLOCK
  5
1C
330
1B
100
AcDbEntity
 67
     1
  8
0
100
AcDbBlockBegin
  2
*Paper_Space
 70
     0
 10
0.0
 20
0.0
 30
0.0
  3
*Paper_Space
  1

  0
ENDBLK
  5
1D
330
1B
100
AcDbEntity
 67
     1
  8
0
100
AcDbBlockEnd
  0
BLOCK
  5
67
330
5E
100
AcDbEntity
  8
0
100
AcDbBlockBegin
  2
SEANNOT_GROUP
 70
     0
 10
0.0
 20
0.0
 30
0.0
  3
SEANNOT_GROUP
  1

  0
LINE
  5
61
330
5E
100
AcDbEntity
  8
Default
  6
CENTER2
 62
     7
100
AcDbLine
 10
72.9653668363
 20
255.3331892935
 30
0.0
 11
32.9653677304
 21
255.3331892935
 31
0.0
  0
LINE
  5
62
330
5E
100
AcDbEntity
  8
Default
  6
CENTER2
 62
     7
100
AcDbLine
 10
52.9653672834
 20
275.3331888465
 30
0.0
 11
52.9653672834
 21
235.3331897406
 31
0.0
  0
LINE
  5
63
330
5E
100
AcDbEntity
  8
Default
  6
CENTER2
 62
     7
100
AcDbLine
 10
77.9653667246
 20
255.3331892935
 30
0.0
 11
81.4653672834
 21
255.3331892935
 31
0.0
  0
LINE
  5
64
330
5E
100
AcDbEntity
  8
Default
  6
CENTER2
 62
     7
100
AcDbLine
 10
52.9653672834
 20
280.3331887347
 30
0.0
 11
52.9653672834
 21
283.8331892935
 31
0.0
  0
LINE
  5
65
330
5E
100
AcDbEntity
  8
Default
  6
CENTER2
 62
     7
100
AcDbLine
 10
27.9653678422
 20
255.3331892935
 30
0.0
 11
24.4653672834
 21
255.3331892935
 31
0.0
  0
LINE
  5
66
330
5E
100
AcDbEntity
  8
Default
  6
CENTER2
 62
     7
100
AcDbLine
 10
52.9653672834
 20
230.3331898523
 30
0.0
 11
52.9653672834
 21
226.8331892935
 31
0.0
  0
ENDBLK
  5
68
330
5E
100
AcDbEntity
  8
0
100
AcDbBlockEnd
  0
BLOCK
  5
6D
330
69
100
AcDbEntity
  8
0
100
AcDbBlockBegin
  2
SEANNOT_GROUP1
 70
     0
 10
0.0
 20
0.0
 30
0.0
  3
SEANNOT_GROUP1
  1

  0
LINE
  5
6B
330
69
100
AcDbEntity
  8
Default
  6
CENTER2
 62
     7
100
AcDbLine
 10
72.9653668363
 20
331.66964165
 30
0.0
 11
32.9653677304
 21
331.66964165
 31
0.0
  0
LINE
  5
6C
330
69
100
AcDbEntity
  8
Default
  6
CENTER2
 62
     7
100
AcDbLine
 10
52.9653672834
 20
351.6696412029
 30
0.0
 11
52.9653672834
 21
311.669642097
 31
0.0
  0
ENDBLK
  5
6E
330
69
100
AcDbEntity
  8
0
100
AcDbBlockEnd
  0
BLOCK
  5
73
330
6F
100
AcDbEntity
  8
0
100
AcDbBlockBegin
  2
SEANNOT_GROUP2
 70
     0
 10
0.0
 20
0.0
 30
0.0
  3
SEANNOT_GROUP2
  1

  0
LINE
  5
71
330
6F
100
AcDbEntity
  8
Default
  6
CENTER2
 62
     7
100
AcDbLine
 10
164.7171145855
 20
331.66964165
 30
0.0
 11
124.7171154795
 21
331.66964165
 31
0.0
  0
LINE
  5
72
330
6F
100
AcDbEntity
  8
Default
  6
CENTER2
 62
     7
100
AcDbLine
 10
144.7171150325
 20
351.6696412029
 30
0.0
 11
144.7171150325
 21
311.669642097
 31
0.0
  0
ENDBLK
  5
74
330
6F
100
AcDbEntity
  8
0
100
AcDbBlockEnd
  0
BLOCK
  5
3F0
330
75
100
AcDbEntity
  8
0
100
AcDbBlockBegin
  2
SE
 70
     0
 10
0.0
 20
0.0
 30
0.0
  3
SE
  1

  0
LINE
  5
78
330
75
100
AcDbEntity
  8
$DDT_AUDIT_GENERATED_(77)
  6
Continuous
 62
     7
100
AcDbLine
 10
77.9653672834
 20
331.66964165
 30
0.0
 11
27.9653672834
 21
331.66964165
 31
0.0
  0
LINE
  5
79
330
75
100
AcDbEntity
  8
$DDT_AUDIT_GENERATED_(77)
  6
Continuous
 62
     7
100
AcDbLine
 10
27.9653672834
 20
511.66964165
 30
0.0
 11
77.9653672834
 21
511.66964165
 31
0.0
  0
LINE
  5
7A
330
75
100
AcDbEntity
  8
$DDT_AUDIT_GENERATED_(77)
  6
Continuous
 62
     7
100
AcDbLine
 10
27.9653672834
 20
511.66964165
 30
0.0
 11
27.9653672834
 21
331.66964165
 31
0.0
  0
LINE
  5
7B
330
75
100
AcDbEntity
  8
$DDT_AUDIT_GENERATED_(77)
  6
Continuous
 62
     7
100
AcDbLine
 10
77.9653672834
 20
331.66964165
 30
0.0
 11
77.9653672834
 21
511.66964165
 31
0.0
  0
LINE
  5
7D
330
75
100
AcDbEntity
  8
$DDT_AUDIT_GENERATED_(7C)
  6
Continuous
 62
     7
100
AcDbLine
 10
27.9653672834
 20
619.66964165
 30
0.0
 11
77.9653672834
 21
619.66964165
 31
0.0
  0
LINE
  5
7E
330
75
100
AcDbEntity
  8
$DDT_AUDIT_GENERATED_(7C)
  6
Continuous
 62
     7
100
AcDbLine
 10
27.9653672834
 20
511.66964165
 30
0.0
 11
77.9653672834
 21
511.66964165
 31
0.0
  0
LINE
  5
7F
330
75
100
AcDbEntity
  8
$DDT_AUDIT_GENERATED_(7C)
  6
Continuous
 62
     7
100
AcDbLine
 10
27.9653672834
 20
619.66964165
 30
0.0
 11
27.9653672834
 21
511.66964165
 31
0.0
  0
LINE
  5
80
330
75
100
AcDbEntity
  8
$DDT_AUDIT_GENERATED_(7C)
  6
Continuous
 62
     7
100
AcDbLine
 10
77.9653672834
 20
511.66964165
 30
0.0
 11
77.9653672834
 21
619.66964165
 31
0.0
  0
ARC
  5
82
330
75
100
AcDbEntity
  8
$DDT_AUDIT_GENERATED_(81)
  6
Continuous
 62
     7
100
AcDbCircle
 10
52.9653672834
 20
591.66964165
 30
0.0
 40
14.00000000000001
100
AcDbArc
 50
0.0
 51
90.0
  0
ARC
  5
83
330
75
100
AcDbEntity
  8
$DDT_AUDIT_GENERATED_(81)
  6
Continuous
 62
     7
100
AcDbCircle
 10
52.9653672834
 20
591.66964165
 30
0.0
 40
13.99999999999996
100
AcDbArc
 50
90.0
 51
180.0
  0
SPLINE
  5
84
330
75
100
AcDbEntity
  8
$DDT_AUDIT_GENERATED_(81)
  6
Continuous
 62
     7
100
AcDbSpline
210
0.0
220
0.0
230
1.0
 70
     8
 71
     3
 72
     8
 73
     4
 74
     0
 42
0.0000000001908368
 43
0.0000000001
 40
0.3808921462785186
 40
0.3808921462785186
 40
0.3808921462785186
 40
0.3808921462785186
 40
0.3815783977693482
 40
0.3815783977693482
 40
0.3815783977693482
 40
0.3815783977693482
 10
38.96516054301974
 20
567.9596078524189
 30
0.0
 10
38.96512906996983
 20
567.9715967443674
 30
0.0
 10
38.96513390536202
 20
567.9835834135627
 30
0.0
 10
38.96517508007393
 20
567.9955678546219
 30
0.0
  0
SPLINE
  5
85
330
75
100
AcDbEntity
  8
$DDT_AUDIT_GENERATED_(81)
  6
Continuous
 62
     7
100
AcDbSpline
210
0.0
220
0.0
230
1.0
 70
     8
 71
     3
 72
     8
 73
     4
 74
     0
 42
0.0000000001909724
 43
0.0000000001
 40
0.8789166416685398
 40
0.8789166416685398
 40
0.8789166416685398
 40
0.8789166416685398
 40
0.8792852749844678
 40
0.8792852749844678
 40
0.8792852749844678
 40
0.8792852749844678
 10
66.96531382598612
 20
567.9631258481851
 30
0.0
 10
66.96530573650283
 20
567.956691994042
 30
0.0
 10
66.96528691138104
 20
567.9502577022544
 30
0.0
 10
66.9652573533638
 20
567.9438229894237
 30
0.0
  0
ELLIPSE
  5
86
330
75
100
AcDbEntity
  8
$DDT_AUDIT_GENERATED_(81)
  6
Continuous
 62
     7
100
AcDbEllipse
 10
52.9653672834
 20
566.0457324516
 30
0.0
 11
-12.25
 21
0.0
 31
0.0
210
0.0
220
0.0
230
1.0
 40
0.5
 41
2.869703596476972
 42
6.283185307179586
  0
ELLIPSE
  5
87
330
75
100
AcDbEntity
  8
$DDT_AUDIT_GENERATED_(81)
  6
Continuous
 62
     7
100
AcDbEllipse
 10
52.9653672834
 20
566.0457324516
 30
0.0
 11
-12.25
 21
0.0
 31
0.0
210
0.0
220
0.0
230
1.0
 40
0.5
 41
0.0
 42
0.2718890571128213
  0
ELLIPSE
  5
88
330
75
100
AcDbEntity
  8
$DDT_AUDIT_GENERATED_(81)
  6
Continuous
 62
     7
100
AcDbEllipse
 10
52.9653672834
 20
569.0768213649
 30
0.0
 11
-12.25
 21
0.0
 31
0.0
210
0.0
220
0.0
230
1.0
 40
0.5
 41
-3.413481710702615
 42
-3.391625546688202
  0
ELLIPSE
  5
89
330
75
100
AcDbEntity
  8
$DDT_AUDIT_GENERATED_(81)
  6
Continuous
 62
     7
100
AcDbEllipse
 10
52.9653672834
 20
569.0768213649
 30
0.0
 11
-12.25
 21
0.0
 31
0.0
210
0.0
220
0.0
230
1.0
 40
0.5
 41
0.2500328930984071
 42
0.2718890571128213
  0
LINE
  5
8A
330
75
100
AcDbEntity
  8
$DDT_AUDIT_GENERATED_(81)
  6
Continuous
 62
     7
100
AcDbLine
 10
66.9653672834
 20
567.9695595499
 30
0.0
 11
66.9653672834
 21
591.66964165
 31
0.0
  0
LINE
  5
8B
330
75
100
AcDbEntity
  8
$DDT_AUDIT_GENERATED_(81)
  6
Continuous
 62
     7
100
AcDbLine
 10
38.9653672834
 20
591.66964165
 30
0.0
 11
38.9653672834
 21
567.9710450985
 31
0.0
  0
SPLINE
  5
8C
330
75
100
AcDbEntity
  8
$DDT_AUDIT_GENERATED_(81)
  6
Continuous
 62
     7
100
AcDbSpline
210
0.0
220
0.0
230
1.0
 70
     8
 71
     3
 72
    21
 73
    17
 74
     0
 42
0.0000000004242268
 43
0.0000000001
 40
0.0
 40
0.0
 40
0.0
 40
0.0
 40
0.0104224934909526
 40
0.0324591427199706
 40
0.054532796022921
 40
0.0767779928648148
 40
0.0989598571228263
 40
0.1211606037179799
 40
0.143460699615464
 40
0.1659423761839074
 40
0.1886748174194297
 40
0.2117125573713108
 40
0.2344788777377335
 40
0.2571679476098136
 40
0.2797088837112254
 40
0.2827084151178237
 40
0.2827084151178237
 40
0.2827084151178237
 40
0.2827084151178237
 10
38.96980402372679
 20
567.9975280016056
 30
0.0
 10
38.96823526563524
 20
567.9125956999567
 30
0.0
 10
38.96471918704589
 20
567.6876606192287
 30
0.0
 10
38.99867630979666
 20
567.2739283759329
 30
0.0
 10
39.07020424065034
 20
566.7909635770783
 30
0.0
 10
39.18157172710623
 20
566.3056858501509
 30
0.0
 10
39.33045093653912
 20
565.8264446434861
 30
0.0
 10
39.51676506151698
 20
565.3541385740024
 30
0.0
 10
39.74034091247083
 20
564.8892325722735
 30
0.0
 10
40.00146352486357
 20
564.4314717749164
 30
0.0
 10
40.30038862080784
 20
563.981024489488
 30
0.0
 10
40.63496009000157
 20
563.541047662671
 30
0.0
 10
41.00451120654937
 20
563.1134442914736
 30
0.0
 10
41.40518006297187
 20
562.7023236924356
 30
0.0
 10
41.71308612472651
 20
562.4205820367929
 30
0.0
 10
41.8831492990083
 20
562.2745087345777
 30
0.0
 10
41.90321842836099
 20
562.2573969610625
 30
0.0
  0
ARC
  5
8D
330
75
100
AcDbEntity
  8
$DDT_AUDIT_GENERATED_(81)
  6
Continuous
 62
     7
100
AcDbCircle
 10
59.3407744886
 20
568.2507892717
 30
0.0
 40
7.626673941455243
100
AcDbArc
 50
307.8041168851
 51
357.6907840788
  0
ELLIPSE
  5
8F
330
75
100
AcDbEntity
  8
$DDT_AUDIT_GENERATED_(8E)
  6
Continuous
 62
     7
100
AcDbEllipse
 10
52.9653672834
 20
561.7156054327
 30
0.0
 11
10.05000000000001
 21
0.0
 31
0.0
210
0.0
220
0.0
230
1.0
 40
0.5
 41
0.0
 42
6.283185307179586
  0
ELLIPSE
  5
90
330
75
100
AcDbEntity
  8
$DDT_AUDIT_GENERATED_(8E)
  6
Continuous
 62
     7
100
AcDbEllipse
 10
52.9653672834
 20
561.7156054327
 30
0.0
 11
-10.75000000000001
 21
-2.775557561562891E-14
 31
0.0
210
0.0
220
0.0
230
1.0
 40
0.5
 41
0.0
 42
6.283185307179586
  0
ELLIPSE
  5
91
330
75
100
AcDbEntity
  8
$DDT_AUDIT_GENERATED_(8E)
  6
Continuous
 62
     7
100
AcDbEllipse
 10
52.9653672834
 20
561.9906054327
 30
0.0
 11
11.30000000000003
 21
0.0
 31
0.0
210
0.0
220
0.0
230
1.0
 40
0.5
 41
4.319647151400501
 42
5.090183957858237
  0
LINE
  5
92
330
75
100
AcDbEntity
  8
$DDT_AUDIT_GENERATED_(8E)
  6
Continuous
 62
     7
100
AcDbLine
 10
63.9653672834
 20
560.6973537171
 30
0.0
 11
63.9653672834
 21
563.2838571484
 31
0.0
  0
ELLIPSE
  5
93
330
75
100
AcDbEntity
  8
$DDT_AUDIT_GENERATED_(8E)
  6
Continuous
 62
     7
100
AcDbEllipse
 10
52.9653672834
 20
564.3136816441
 30
0.0
 11
-11.80000000000018
 21
1.387778780781446E-13
 31
0.0
210
0.0
220
0.0
230
1.0
 40
0.5
 41
2.771250021498085
 42
3.511935285681512
  0
LINE
  5
94
330
75
100
AcDbEntity
  8
$DDT_AUDIT_GENERATED_(8E)
  6
Continuous
 62
     7
100
AcDbLine
 10
63.9653672834
 20
560.3645861977
 30
0.0
 11
63.9653672834
 21
560.6973537171
 31
0.0
  0
LINE
  5
95
330
75
100
AcDbEntity
  8
$DDT_AUDIT_GENERATED_(8E)
  6
Continuous
 62
     7
100
AcDbLine
 10
63.9653672834
 20
563.2838571484
 30
0.0
 11
63.9653672834
 21
564.8760210831
 31
0.0
  0
LINE
  5
96
330
75
100
AcDbEntity
  8
$DDT_AUDIT_GENERATED_(8E)
  6
Continuous
 62
     7
100
AcDbLine
 10
63.9653672834
 20
564.8760210831
 30
0.0
 11
63.9653672834
 21
566.4490972945
 31
0.0
  0
LINE
  5
97
330
75
100
AcDbEntity
  8
$DDT_AUDIT_GENERATED_(8E)
  6
Continuous
 62
     7
100
AcDbLine
 10
41.9653672834
 20
563.2838571484
 30
0.0
 11
41.9653672834
 21
560.6973537171
 31
0.0
  0
ELLIPSE
  5
98
330
75
100
AcDbEntity
  8
$DDT_AUDIT_GENERATED_(8E)
  6
Continuous
 62
     7
100
AcDbEllipse
 10
52.9653672834
 20
564.3136816441
 30
0.0
 11
11.80000000000018
 21
0.0
 31
0.0
210
0.0
220
0.0
230
1.0
 40
0.5
 41
2.77125002149808
 42
3.511935285681506
  0
LINE
  5
99
330
75
100
AcDbEntity
  8
$DDT_AUDIT_GENERATED_(8E)
  6
Continuous
 62
     7
100
AcDbLine
 10
41.9653672834
 20
566.4490972945
 30
0.0
 11
41.9653672834
 21
564.8760210831
 31
0.0
  0
LINE
  5
9A
330
75
100
AcDbEntity
  8
$DDT_AUDIT_GENERATED_(8E)
  6
Continuous
 62
     7
100
AcDbLine
 10
41.9653672834
 20
564.8760210831
 30
0.0
 11
41.9653672834
 21
563.2838571484
 31
0.0
  0
LINE
  5
9B
330
75
100
AcDbEntity
  8
$DDT_AUDIT_GENERATED_(8E)
  6
Continuous
 62
     7
100
AcDbLine
 10
41.9653672834
 20
560.6973537171
 30
0.0
 11
41.9653672834
 21
560.364574389
 31
0.0
  0
ARC
  5
9C
330
75
100
AcDbEntity
  8
$DDT_AUDIT_GENERATED_(8E)
  6
Continuous
 62
     7
100
AcDbCircle
 10
55.7895106592
 20
567.506693234
 30
0.0
 40
10.85087337198698
100
AcDbArc
 50
277.1761546602
 51
318.8811877703
  0
ARC
  5
9D
330
75
100
AcDbEntity
  8
$DDT_AUDIT_GENERATED_(8E)
  6
Continuous
 62
     7
100
AcDbCircle
 10
50.0720778047
 20
567.4152936426
 30
0.0
 40
10.73999169279378
100
AcDbArc
 50
221.0050712968
 51
262.2712165835
  0
LINE
  5
9E
330
75
100
AcDbEntity
  8
$DDT_AUDIT_GENERATED_(8E)
  6
Continuous
 62
     7
100
AcDbLine
 10
41.1653672834
 20
567.6906108666
 30
0.0
 11
41.1653672834
 21
564.3136816441
 31
0.0
  0
LINE
  5
9F
330
75
100
AcDbEntity
  8
$DDT_AUDIT_GENERATED_(8E)
  6
Continuous
 62
     7
100
AcDbLine
 10
64.7653672834
 20
564.3136816441
 30
0.0
 11
64.7653672834
 21
567.6906108666
 31
0.0
  0
ELLIPSE
  5
A1
330
75
100
AcDbEntity
  8
4221035_0__HUELS
  6
Continuous
 62
     7
100
AcDbEllipse
 10
52.9653672834
 20
561.9321117837
 30
0.0
 11
-8.5
 21
0.0
 31
0.0
210
0.0
220
0.0
230
1.0
 40
0.5
 41
0.0305703638476899
 42
0.2043534945144339
  0
ELLIPSE
  5
A2
330
75
100
AcDbEntity
  8
4221035_0__HUELS
  6
Continuous
 62
     7
100
AcDbEllipse
 10
52.9653672834
 20
561.9321117837
 30
0.0
 11
-8.5
 21
0.0
 31
0.0
210
0.0
220
0.0
230
1.0
 40
0.5
 41
0.3950712480965539
 42
0.4736354243296281
  0
ELLIPSE
  5
A3
330
75
100
AcDbEntity
  8
4221035_0__HUELS
  6
Continuous
 62
     7
100
AcDbEllipse
 10
52.9653672834
 20
561.9321117837
 30
0.0
 11
-8.5
 21
0.0
 31
0.0
210
0.0
220
0.0
230
1.0
 40
0.5
 41
0.6010954138206661
 42
0.7823715225000019
  0
ELLIPSE
  5
A4
330
75
100
AcDbEntity
  8
4221035_0__HUELS
  6
Continuous
 62
     7
100
AcDbEllipse
 10
52.9653672834
 20
561.9321117837
 30
0.0
 11
-8.5
 21
0.0
 31
0.0
210
0.0
220
0.0
230
1.0
 40
0.5
 41
0.8423633502938482
 42
1.013879517101578
  0
ELLIPSE
  5
A5
330
75
100
AcDbEntity
  8
4221035_0__HUELS
  6
Continuous
 62
     7
100
AcDbEllipse
 10
52.9653672834
 20
561.9321117837
 30
0.0
 11
-8.5
 21
0.0
 31
0.0
210
0.0
220
0.0
230
1.0
 40
0.5
 41
1.186042231214478
 42
1.215466977419535
  0
ELLIPSE
  5
A6
330
75
100
AcDbEntity
  8
4221035_0__HUELS
  6
Continuous
 62
     7
100
AcDbEllipse
 10
52.9653672834
 20
561.9321117837
 30
0.0
 11
-8.5
 21
0.0
 31
0.0
210
0.0
220
0.0
230
1.0
 40
0.5
 41
1.240450952362646
 42
1.402780049331344
  0
ELLIPSE
  5
A7
330
75
100
AcDbEntity
  8
4221035_0__HUELS
  6
Continuous
 62
     7
100
AcDbEllipse
 10
52.9653672834
 20
561.9321117837
 30
0.0
 11
-8.5
 21
0.0
 31
0.0
210
0.0
220
0.0
230
1.0
 40
0.5
 41
1.426599661242815
 42
1.584242110084311
  0
ELLIPSE
  5
A8
330
75
100
AcDbEntity
  8
4221035_0__HUELS
  6
Continuous
 62
     7
100
AcDbEllipse
 10
52.9653672834
 20
561.9321117837
 30
0.0
 11
-8.5
 21
0.0
 31
0.0
210
0.0
220
0.0
230
1.0
 40
0.5
 41
1.607779546820306
 42
1.766154234494329
  0
ELLIPSE
  5
A9
330
75
100
AcDbEntity
  8
4221035_0__HUELS
  6
Continuous
 62
     7
100
AcDbEllipse
 10
52.9653672834
 20
561.9321117837
 30
0.0
 11
-8.5
 21
0.0
 31
0.0
210
0.0
220
0.0
230
1.0
 40
0.5
 41
-4.492985892912976
 42
-4.328218817306897
  0
ELLIPSE
  5
AA
330
75
100
AcDbEntity
  8
4221035_0__HUELS
  6
Continuous
 62
     7
100
AcDbEllipse
 10
52.9653672834
 20
561.9321117837
 30
0.0
 11
-8.5
 21
0.0
 31
0.0
210
0.0
220
0.0
230
1.0
 40
0.5
 41
-4.302705165914237
 42
-4.123470300595693
  0
ELLIPSE
  5
AB
330
75
100
AcDbEntity
  8
4221035_0__HUELS
  6
Continuous
 62
     7
100
AcDbEllipse
 10
52.9653672834
 20
561.9321117837
 30
0.0
 11
-8.5
 21
0.0
 31
0.0
210
0.0
220
0.0
230
1.0
 40
0.5
 41
-4.094897632260432
 42
-3.983956003883642
  0
ELLIPSE
  5
AC
330
75
100
AcDbEntity
  8
4221035_0__HUELS
  6
Continuous
 62
     7
100
AcDbEllipse
 10
52.9653672834
 20
561.9321117837
 30
0.0
 11
-8.5
 21
0.0
 31
0.0
210
0.0
220
0.0
230
1.0
 40
0.5
 41
-3.849592900229912
 42
-3.742688067410461
  0
ELLIPSE
  5
AD
330
75
100
AcDbEntity
  8
4221035_0__HUELS
  6
Continuous
 62
     7
100
AcDbEllipse
 10
52.9653672834
 20
561.9321117837
 30
0.0
 11
-8.5
 21
0.0
 31
0.0
210
0.0
220
0.0
230
1.0
 40
0.5
 41
2.794413200845817
 42
3.111022289742103
  0
ELLIPSE
  5
AE
330
75
100
AcDbEntity
  8
4221035_0__HUELS
  6
Continuous
 62
     7
100
AcDbEllipse
 10
52.9653672834
 20
561.6723041625
 30
0.0
 11
-8.5
 21
0.0
 31
0.0
210
0.0
220
0.0
230
1.0
 40
0.5
 41
0.0
 42
6.283185307179586
  0
ELLIPSE
  5
AF
330
75
100
AcDbEntity
  8
4221035_0__HUELS
  6
Continuous
 62
     7
100
AcDbEllipse
 10
52.9653672834
 20
561.6723041625
 30
0.0
 11
-9.399999999999995
 21
0.0
 31
0.0
210
0.0
220
0.0
230
1.0
 40
0.5
 41
0.0
 42
6.283185307179586
  0
LINE
  5
B0
330
75
100
AcDbEntity
  8
4221035_0__HUELS
  6
Continuous
 62
     7
100
AcDbLine
 10
62.3653672834
 20
561.6723041625
 30
0.0
 11
62.3653672834
 21
563.4934201025
 31
0.0
  0
LINE
  5
B1
330
75
100
AcDbEntity
  8
4221035_0__HUELS
  6
Continuous
 62
     7
100
AcDbLine
 10
43.5653672834
 20
563.4934201025
 30
0.0
 11
43.5653672834
 21
561.6723041625
 31
0.0
  0
ELLIPSE
  5
B3
330
75
100
AcDbEntity
  8
4221039_0__SIEB_
  6
Continuous
 62
     7
100
AcDbEllipse
 10
50.1082244262
 20
565.771397498
 30
0.0
 11
-0.08660254037842459
 21
0.08660254037851089
 31
0.0
210
0.0
220
0.0
230
1.0
 40
0.5773502692
 41
2.25604409045499
 42
2.617993877991535
  0
ELLIPSE
  5
B4
330
75
100
AcDbEntity
  8
4221039_0__SIEB_
  6
Continuous
 62
     7
100
AcDbEllipse
 10
51.643938712
 20
565.771397498
 30
0.0
 11
0.08660254037844693
 21
-0.08660254037842763
 31
0.0
210
0.0
220
0.0
230
0.9999999999999998
 40
0.5773502692
 41
3.665191429187092
 42
5.235987755983438
  0
ELLIPSE
  5
B5
330
75
100
AcDbEntity
  8
4221039_0__SIEB_
  6
Continuous
 62
     7
100
AcDbEllipse
 10
51.643938712
 20
565.771397498
 30
0.0
 11
0.08660254037843652
 21
0.08660254037845538
 31
0.0
210
0.0
220
0.0
230
1.0
 40
0.5773502692
 41
3.665191429186282
 42
4.188790204785398
  0
ELLIPSE
  5
B6
330
75
100
AcDbEntity
  8
4221039_0__SIEB_
  6
Continuous
 62
     7
100
AcDbEllipse
 10
51.643938712
 20
565.771397498
 30
0.0
 11
-0.08660254037844366
 21
0.08660254037842761
 31
0.0
210
0.0
220
0.0
230
1.0
 40
0.5773502692
 41
2.094395102393667
 42
2.617993877991835
  0
ELLIPSE
  5
B7
330
75
100
AcDbEntity
  8
4221039_0__SIEB_
  6
Continuous
 62
     7
100
AcDbEllipse
 10
51.643938712
 20
565.771397498
 30
0.0
 11
-0.08660254037843132
 21
-0.08660254037848314
 31
0.0
210
0.0
220
0.0
230
1.0
 40
0.5773502692
 41
1.047197551196186
 42
2.617993877991776
  0
ELLIPSE
  5
B8
330
75
100
AcDbEntity
  8
4221039_0__SIEB_
  6
Continuous
 62
     7
100
AcDbEllipse
 10
53.1796529977
 20
565.771397498
 30
0.0
 11
0.08660254037844498
 21
-0.08660254037845538
 31
0.0
210
0.0
220
0.0
230
1.0
 40
0.5773502692
 41
3.665191429187449
 42
5.235987755983357
  0
ELLIPSE
  5
B9
330
75
100
AcDbEntity
  8
4221039_0__SIEB_
  6
Continuous
 62
     7
100
AcDbEllipse
 10
53.1796529977
 20
565.771397498
 30
0.0
 11
0.0866025403784505
 21
0.08660254037845538
 31
0.0
210
0.0
220
0.0
230
1.0
 40
0.5773502692
 41
3.665191429186058
 42
4.188790204786011
  0
ELLIPSE
  5
BA
330
75
100
AcDbEntity
  8
4221039_0__SIEB_
  6
Continuous
 62
     7
100
AcDbEllipse
 10
53.1796529977
 20
565.771397498
 30
0.0
 11
-0.08660254037842265
 21
0.08660254037845538
 31
0.0
210
0.0
220
0.0
230
0.9999999999999998
 40
0.5773502692
 41
2.094395102394092
 42
2.617993877991028
  0
ELLIPSE
  5
BB
330
75
100
AcDbEntity
  8
4221039_0__SIEB_
  6
Continuous
 62
     7
100
AcDbEllipse
 10
53.1796529977
 20
565.771397498
 30
0.0
 11
-0.08660254037844525
 21
-0.08660254037842763
 31
0.0
210
0.0
220
0.0
230
0.9999999999999999
 40
0.5773502692
 41
1.047197551196136
 42
2.617993877992506
  0
ELLIPSE
  5
BC
330
75
100
AcDbEntity
  8
4221039_0__SIEB_
  6
Continuous
 62
     7
100
AcDbEllipse
 10
54.7153672834
 20
565.771397498
 30
0.0
 11
0.08660254037845236
 21
-0.0866025403784554
 31
0.0
210
0.0
220
0.0
230
1.0
 40
0.5773502692
 41
3.665191429187498
 42
5.235987755983355
  0
ELLIPSE
  5
BD
330
75
100
AcDbEntity
  8
4221039_0__SIEB_
  6
Continuous
 62
     7
100
AcDbEllipse
 10
54.7153672834
 20
565.771397498
 30
0.0
 11
0.08660254037843847
 21
0.08660254037845538
 31
0.0
210
0.0
220
0.0
230
0.9999999999999998
 40
0.5773502692
 41
3.665191429187703
 42
4.1887902047856
  0
ELLIPSE
  5
BE
330
75
100
AcDbEntity
  8
4221039_0__SIEB_
  6
Continuous
 62
     7
100
AcDbEllipse
 10
54.7153672834
 20
565.771397498
 30
0.0
 11
-0.08660254037842459
 21
0.08660254037851089
 31
0.0
210
0.0
220
0.0
230
1.0
 40
0.5773502692
 41
2.094395102393416
 42
2.617993877991371
  0
ELLIPSE
  5
BF
330
75
100
AcDbEntity
  8
4221039_0__SIEB_
  6
Continuous
 62
     7
100
AcDbEllipse
 10
54.7153672834
 20
565.771397498
 30
0.0
 11
-0.08660254037843847
 21
-0.08660254037845538
 31
0.0
210
0.0
220
0.0
230
0.9999999999999998
 40
0.5773502692
 41
1.047197551195807
 42
2.617993877990868
  0
ELLIPSE
  5
C0
330
75
100
AcDbEntity
  8
4221039_0__SIEB_
  6
Continuous
 62
     7
100
AcDbEllipse
 10
57.7867958548
 20
565.0035403551
 30
0.0
 11
-0.08660254037845279
 21
0.0866025403784554
 31
0.0
210
0.0
220
0.0
230
0.9999999999999998
 40
0.5773502692
 41
2.094395102393559
 42
2.61799387798956
  0
ELLIPSE
  5
C1
330
75
100
AcDbEntity
  8
4221039_0__SIEB_
  6
Continuous
 62
     7
100
AcDbEllipse
 10
57.7867958548
 20
565.0035403551
 30
0.0
 11
-0.0866025403784389
 21
-0.08660254037845538
 31
0.0
210
0.0
220
0.0
230
1.0
 40
0.5773502692
 41
1.04719755119581
 42
2.617993877992178
  0
ELLIPSE
  5
C2
330
75
100
AcDbEntity
  8
4221039_0__SIEB_
  6
Continuous
 62
     7
100
AcDbEllipse
 10
56.2510815691
 20
565.0035403551
 30
0.0
 11
-0.0866025403784363
 21
0.08660254037848314
 31
0.0
210
0.0
220
0.0
230
1.0
 40
0.5773502692
 41
2.094395102393337
 42
2.617993877990333
  0
ELLIPSE
  5
C3
330
75
100
AcDbEntity
  8
4221039_0__SIEB_
  6
Continuous
 62
     7
100
AcDbEllipse
 10
56.2510815691
 20
565.0035403551
 30
0.0
 11
-0.08660254037843934
 21
-0.08660254037845538
 31
0.0
210
0.0
220
0.0
230
1.0
 40
0.5773502692
 41
1.047197551195813
 42
2.617993877992175
  0
ELLIPSE
  5
C4
330
75
100
AcDbEntity
  8
4221039_0__SIEB_
  6
Continuous
 62
     7
100
AcDbEllipse
 10
57.7867958548
 20
565.0035403551
 30
0.0
 11
0.08660254037842502
 21
-0.08660254037851089
 31
0.0
210
0.0
220
0.0
230
0.9999999999999998
 40
0.5773502692
 41
3.665191429188056
 42
5.235987755982921
  0
ELLIPSE
  5
C5
330
75
100
AcDbEntity
  8
4221039_0__SIEB_
  6
Continuous
 62
     7
100
AcDbEllipse
 10
57.7867958548
 20
565.0035403551
 30
0.0
 11
0.0866025403784389
 21
0.08660254037845538
 31
0.0
210
0.0
220
0.0
230
1.0
 40
0.5773502692
 41
3.665191429188201
 42
4.188790204785603
  0
ELLIPSE
  5
C6
330
75
100
AcDbEntity
  8
4221039_0__SIEB_
  6
Continuous
 62
     7
100
AcDbEllipse
 10
54.7153672834
 20
565.0035403551
 30
0.0
 11
-0.08660254037843847
 21
0.08660254037845538
 31
0.0
210
0.0
220
0.0
230
0.9999999999999998
 40
0.5773502692
 41
2.094395102393939
 42
2.617993877991555
  0
ELLIPSE
  5
C7
330
75
100
AcDbEntity
  8
4221039_0__SIEB_
  6
Continuous
 62
     7
100
AcDbEllipse
 10
54.7153672834
 20
565.0035403551
 30
0.0
 11
-0.08660254037842459
 21
-0.08660254037851089
 31
0.0
210
0.0
220
0.0
230
1.0
 40
0.5773502692
 41
1.047197551196614
 42
2.617993877991534
  0
ELLIPSE
  5
C8
330
75
100
AcDbEntity
  8
4221039_0__SIEB_
  6
Continuous
 62
     7
100
AcDbEllipse
 10
56.2510815691
 20
565.0035403551
 30
0.0
 11
0.08660254037844541
 21
-0.08660254037845538
 31
0.0
210
0.0
220
0.0
230
1.0
 40
0.5773502692
 41
3.66519142918737
 42
5.235987755983875
  0
ELLIPSE
  5
C9
330
75
100
AcDbEntity
  8
4221039_0__SIEB_
  6
Continuous
 62
     7
100
AcDbEllipse
 10
56.2510815691
 20
565.0035403551
 30
0.0
 11
0.08660254037843847
 21
0.08660254037845538
 31
0.0
210
0.0
220
0.0
230
0.9999999999999998
 40
0.5773502692
 41
3.665191429188196
 42
4.1887902047856
  0
ELLIPSE
  5
CA
330
75
100
AcDbEntity
  8
4221039_0__SIEB_
  6
Continuous
 62
     7
100
AcDbEllipse
 10
53.1796529977
 20
565.0035403551
 30
0.0
 11
-0.08660254037845232
 21
0.08660254037845538
 31
0.0
210
0.0
220
0.0
230
1.0
 40
0.5773502692
 41
2.094395102393562
 42
2.617993877989566
  0
ELLIPSE
  5
CB
330
75
100
AcDbEntity
  8
4221039_0__SIEB_
  6
Continuous
 62
     7
100
AcDbEllipse
 10
53.1796529977
 20
565.0035403551
 30
0.0
 11
-0.08660254037844525
 21
-0.08660254037842763
 31
0.0
210
0.0
220
0.0
230
0.9999999999999999
 40
0.5773502692
 41
1.047197551195663
 42
2.617993877991193
  0
ELLIPSE
  5
CC
330
75
100
AcDbEntity
  8
4221039_0__SIEB_
  6
Continuous
 62
     7
100
AcDbEllipse
 10
54.7153672834
 20
565.0035403551
 30
0.0
 11
0.08660254037843847
 21
-0.08660254037845538
 31
0.0
210
0.0
220
0.0
230
1.0
 40
0.5773502692
 41
3.665191429187405
 42
5.235987755983732
  0
ELLIPSE
  5
CD
330
75
100
AcDbEntity
  8
4221039_0__SIEB_
  6
Continuous
 62
     7
100
AcDbEllipse
 10
54.7153672834
 20
565.0035403551
 30
0.0
 11
0.08660254037845236
 21
0.0866025403784554
 31
0.0
210
0.0
220
0.0
230
1.0
 40
0.5773502692
 41
3.665191429188216
 42
4.188790204786024
  0
ELLIPSE
  5
CE
330
75
100
AcDbEntity
  8
4221039_0__SIEB_
  6
Continuous
 62
     7
100
AcDbEllipse
 10
51.643938712
 20
565.0035403551
 30
0.0
 11
-0.08660254037843673
 21
0.08660254037848314
 31
0.0
210
0.0
220
0.0
230
1.0
 40
0.5773502692
 41
2.094395102393287
 42
2.617993877988768
  0
ELLIPSE
  5
CF
330
75
100
AcDbEntity
  8
4221039_0__SIEB_
  6
Continuous
 62
     7
100
AcDbEllipse
 10
51.643938712
 20
565.0035403551
 30
0.0
 11
-0.08660254037843847
 21
-0.08660254037845538
 31
0.0
210
0.0
220
0.0
230
0.9999999999999998
 40
0.5773502692
 41
1.047197551195807
 42
2.617993877992181
  0
ELLIPSE
  5
D0
330
75
100
AcDbEntity
  8
4221039_0__SIEB_
  6
Continuous
 62
     7
100
AcDbEllipse
 10
53.1796529977
 20
565.0035403551
 30
0.0
 11
0.08660254037842459
 21
-0.08660254037851089
 31
0.0
210
0.0
220
0.0
230
1.0
 40
0.5773502692
 41
3.665191429188052
 42
5.235987755982924
  0
ELLIPSE
  5
D1
330
75
100
AcDbEntity
  8
4221039_0__SIEB_
  6
Continuous
 62
     7
100
AcDbEllipse
 10
53.1796529977
 20
565.0035403551
 30
0.0
 11
0.08660254037842274
 21
0.08660254037845538
 31
0.0
210
0.0
220
0.0
230
1.0
 40
0.5773502692
 41
3.665191429188314
 42
4.188790204785448
  0
ELLIPSE
  5
D2
330
75
100
AcDbEntity
  8
4221039_0__SIEB_
  6
Continuous
 62
     7
100
AcDbEllipse
 10
50.1082244262
 20
565.0035403551
 30
0.0
 11
-0.0866025403784363
 21
0.08660254037845538
 31
0.0
210
0.0
220
0.0
230
1.0
 40
0.5773502692
 41
2.094395102394143
 42
2.617993877990436
  0
ELLIPSE
  5
D3
330
75
100
AcDbEntity
  8
4221039_0__SIEB_
  6
Continuous
 62
     7
100
AcDbEllipse
 10
50.1082244262
 20
565.0035403551
 30
0.0
 11
-0.08660254037842459
 21
-0.08660254037851089
 31
0.0
210
0.0
220
0.0
230
1.0
 40
0.5773502692
 41
1.047197551196614
 42
2.617993877991534
  0
ELLIPSE
  5
D4
330
75
100
AcDbEntity
  8
4221039_0__SIEB_
  6
Continuous
 62
     7
100
AcDbEllipse
 10
51.643938712
 20
565.0035403551
 30
0.0
 11
0.08660254037844498
 21
-0.08660254037845538
 31
0.0
210
0.0
220
0.0
230
1.0
 40
0.5773502692
 41
3.665191429187449
 42
5.235987755983831
  0
ELLIPSE
  5
D5
330
75
100
AcDbEntity
  8
4221039_0__SIEB_
  6
Continuous
 62
     7
100
AcDbEllipse
 10
51.643938712
 20
565.0035403551
 30
0.0
 11
0.08660254037843847
 21
0.08660254037845538
 31
0.0
210
0.0
220
0.0
230
0.9999999999999998
 40
0.5773502692
 41
3.665191429188113
 42
4.1887902047856
  0
ELLIPSE
  5
D6
330
75
100
AcDbEntity
  8
4221039_0__SIEB_
  6
Continuous
 62
     7
100
AcDbEllipse
 10
48.5725101405
 20
565.0035403551
 30
0.0
 11
-0.08660254037845279
 21
0.0866025403784554
 31
0.0
210
0.0
220
0.0
230
0.9999999999999998
 40
0.5773502692
 41
2.094395102393559
 42
2.617993877989477
  0
ELLIPSE
  5
D7
330
75
100
AcDbEntity
  8
4221039_0__SIEB_
  6
Continuous
 62
     7
100
AcDbEllipse
 10
48.5725101405
 20
565.0035403551
 30
0.0
 11
-0.08660254037844758
 21
-0.08660254037842763
 31
0.0
210
0.0
220
0.0
230
0.9999999999999998
 40
0.5773502692
 41
1.047197551195631
 42
2.617993877991096
  0
ELLIPSE
  5
D8
330
75
100
AcDbEntity
  8
4221039_0__SIEB_
  6
Continuous
 62
     7
100
AcDbEllipse
 10
50.1082244262
 20
565.0035403551
 30
0.0
 11
0.08660254037843153
 21
-0.08660254037848314
 31
0.0
210
0.0
220
0.0
230
1.0
 40
0.5773502692
 41
3.665191429186416
 42
5.235987755983352
  0
ELLIPSE
  5
D9
330
75
100
AcDbEntity
  8
4221039_0__SIEB_
  6
Continuous
 62
     7
100
AcDbEllipse
 10
50.1082244262
 20
565.0035403551
 30
0.0
 11
0.08660254037845236
 21
0.0866025403784554
 31
0.0
210
0.0
220
0.0
230
1.0
 40
0.5773502692
 41
3.665191429188216
 42
4.188790204786024
  0
ELLIPSE
  5
DA
330
75
100
AcDbEntity
  8
4221039_0__SIEB_
  6
Continuous
 62
     7
100
AcDbEllipse
 10
48.5725101405
 20
565.0035403551
 30
0.0
 11
0.08660254037842502
 21
-0.08660254037851089
 31
0.0
210
0.0
220
0.0
230
0.9999999999999998
 40
0.5773502692
 41
3.665191429187974
 42
5.235987755982921
  0
ELLIPSE
  5
DB
330
75
100
AcDbEntity
  8
4221039_0__SIEB_
  6
Continuous
 62
     7
100
AcDbEllipse
 10
48.5725101405
 20
565.0035403551
 30
0.0
 11
0.08660254037845712
 21
0.08660254037842763
 31
0.0
210
0.0
220
0.0
230
1.0
 40
0.5773502692
 41
3.665191429188751
 42
4.188790204786672
  0
ELLIPSE
  5
DC
330
75
100
AcDbEntity
  8
4221039_0__SIEB_
  6
Continuous
 62
     7
100
AcDbEllipse
 10
47.0367958548
 20
564.2356832122
 30
0.0
 11
0.08660254037845191
 21
-0.08660254037845538
 31
0.0
210
0.0
220
0.0
230
1.0
 40
0.5773502692
 41
3.665191429186182
 42
5.235987755983405
  0
ELLIPSE
  5
DD
330
75
100
AcDbEntity
  8
4221039_0__SIEB_
  6
Continuous
 62
     7
100
AcDbEllipse
 10
47.0367958548
 20
564.2356832122
 30
0.0
 11
0.08660254037843805
 21
0.0866025403784554
 31
0.0
210
0.0
220
0.0
230
1.0
 40
0.5773502692
 41
3.665191429189009
 42
4.188790204785597
  0
ELLIPSE
  5
DE
330
75
100
AcDbEntity
  8
4221039_0__SIEB_
  6
Continuous
 62
     7
100
AcDbEllipse
 10
47.0367958548
 20
564.2356832122
 30
0.0
 11
-0.08660254037842589
 21
0.08660254037851089
 31
0.0
210
0.0
220
0.0
230
1.0
 40
0.5773502692
 41
2.094395102393123
 42
2.617993877990204
  0
ELLIPSE
  5
DF
330
75
100
AcDbEntity
  8
4221039_0__SIEB_
  6
Continuous
 62
     7
100
AcDbEllipse
 10
47.0367958548
 20
564.2356832122
 30
0.0
 11
-0.0866025403784389
 21
-0.08660254037845538
 31
0.0
210
0.0
220
0.0
230
1.0
 40
0.5773502692
 41
1.04719755119581
 42
2.617993877992178
  0
ELLIPSE
  5
E0
330
75
100
AcDbEntity
  8
4221039_0__SIEB_
  6
Continuous
 62
     7
100
AcDbEllipse
 10
48.5725101405
 20
564.2356832122
 30
0.0
 11
0.08660254037843194
 21
-0.08660254037845537
 31
0.0
210
0.0
220
0.0
230
1.0
 40
0.5773502692
 41
3.66519142918728
 42
5.235987755983823
  0
ELLIPSE
  5
E1
330
75
100
AcDbEntity
  8
4221039_0__SIEB_
  6
Continuous
 62
     7
100
AcDbEllipse
 10
48.5725101405
 20
564.2356832122
 30
0.0
 11
0.08660254037844843
 21
0.08660254037845537
 31
0.0
210
0.0
220
0.0
230
1.0
 40
0.5773502692
 41
3.665191429188328
 42
4.188790204785809
  0
ELLIPSE
  5
E2
330
75
100
AcDbEntity
  8
4221039_0__SIEB_
  6
Continuous
 62
     7
100
AcDbEllipse
 10
48.5725101405
 20
564.2356832122
 30
0.0
 11
-0.08660254037843718
 21
0.08660254037845538
 31
0.0
210
0.0
220
0.0
230
1.0
 40
0.5773502692
 41
2.094395102394089
 42
2.617993877990916
  0
ELLIPSE
  5
E3
330
75
100
AcDbEntity
  8
4221039_0__SIEB_
  6
Continuous
 62
     7
100
AcDbEllipse
 10
48.5725101405
 20
564.2356832122
 30
0.0
 11
-0.08660254037843718
 21
-0.08660254037845538
 31
0.0
210
0.0
220
0.0
230
1.0
 40
0.5773502692
 41
1.047197551195609
 42
2.617993877990795
  0
ELLIPSE
  5
E4
330
75
100
AcDbEntity
  8
4221039_0__SIEB_
  6
Continuous
 62
     7
100
AcDbEllipse
 10
50.1082244262
 20
564.2356832122
 30
0.0
 11
0.08660254037843847
 21
-0.08660254037845538
 31
0.0
210
0.0
220
0.0
230
1.0
 40
0.5773502692
 41
3.665191429187405
 42
5.235987755983732
  0
ELLIPSE
  5
E5
330
75
100
AcDbEntity
  8
4221039_0__SIEB_
  6
Continuous
 62
     7
100
AcDbEllipse
 10
50.1082244262
 20
564.2356832122
 30
0.0
 11
0.08660254037843847
 21
0.08660254037845538
 31
0.0
210
0.0
220
0.0
230
0.9999999999999998
 40
0.5773502692
 41
3.665191429188031
 42
4.1887902047856
  0
ELLIPSE
  5
E6
330
75
100
AcDbEntity
  8
4221039_0__SIEB_
  6
Continuous
 62
     7
100
AcDbEllipse
 10
50.1082244262
 20
564.2356832122
 30
0.0
 11
-0.08660254037843847
 21
0.08660254037845538
 31
0.0
210
0.0
220
0.0
230
0.9999999999999998
 40
0.5773502692
 41
2.094395102393939
 42
2.61799387799139
  0
ELLIPSE
  5
E7
330
75
100
AcDbEntity
  8
4221039_0__SIEB_
  6
Continuous
 62
     7
100
AcDbEllipse
 10
50.1082244262
 20
564.2356832122
 30
0.0
 11
-0.08660254037843847
 21
-0.08660254037845538
 31
0.0
210
0.0
220
0.0
230
0.9999999999999998
 40
0.5773502692
 41
1.047197551195807
 42
2.617993877992181
  0
ELLIPSE
  5
E8
330
75
100
AcDbEntity
  8
4221039_0__SIEB_
  6
Continuous
 62
     7
100
AcDbEllipse
 10
51.643938712
 20
564.2356832122
 30
0.0
 11
0.08660254037843305
 21
-0.08660254037848314
 31
0.0
210
0.0
220
0.0
230
1.0
 40
0.5773502692
 41
3.665191429186426
 42
5.235987755983436
  0
ELLIPSE
  5
E9
330
75
100
AcDbEntity
  8
4221039_0__SIEB_
  6
Continuous
 62
     7
100
AcDbEllipse
 10
51.643938712
 20
564.2356832122
 30
0.0
 11
0.08660254037842265
 21
0.08660254037845538
 31
0.0
210
0.0
220
0.0
230
0.9999999999999998
 40
0.5773502692
 41
3.66519142918823
 42
4.1887902047854
  0
ELLIPSE
  5
EA
330
75
100
AcDbEntity
  8
4221039_0__SIEB_
  6
Continuous
 62
     7
100
AcDbEllipse
 10
51.643938712
 20
564.2356832122
 30
0.0
 11
-0.08660254037843002
 21
0.08660254037848314
 31
0.0
210
0.0
220
0.0
230
1.0
 40
0.5773502692
 41
2.094395102393332
 42
2.61799387799099
  0
ELLIPSE
  5
EB
330
75
100
AcDbEntity
  8
4221039_0__SIEB_
  6
Continuous
 62
     7
100
AcDbEllipse
 10
51.643938712
 20
564.2356832122
 30
0.0
 11
-0.0866025403784452
 21
-0.08660254037842763
 31
0.0
210
0.0
220
0.0
230
0.9999999999999998
 40
0.5773502692
 41
1.047197551195662
 42
2.617993877991111
  0
ELLIPSE
  5
EC
330
75
100
AcDbEntity
  8
4221039_0__SIEB_
  6
Continuous
 62
     7
100
AcDbEllipse
 10
53.1796529977
 20
564.2356832122
 30
0.0
 11
0.08660254037843115
 21
-0.08660254037845538
 31
0.0
210
0.0
220
0.0
230
0.9999999999999998
 40
0.5773502692
 41
3.665191429187357
 42
5.235987755983875
  0
ELLIPSE
  5
ED
330
75
100
AcDbEntity
  8
4221039_0__SIEB_
  6
Continuous
 62
     7
100
AcDbEllipse
 10
53.1796529977
 20
564.2356832122
 30
0.0
 11
0.08660254037842274
 21
0.08660254037845538
 31
0.0
210
0.0
220
0.0
230
1.0
 40
0.5773502692
 41
3.665191429187985
 42
4.188790204785448
  0
ELLIPSE
  5
EE
330
75
100
AcDbEntity
  8
4221039_0__SIEB_
  6
Continuous
 62
     7
100
AcDbEllipse
 10
53.1796529977
 20
564.2356832122
 30
0.0
 11
-0.08660254037843652
 21
0.08660254037848314
 31
0.0
210
0.0
220
0.0
230
0.9999999999999998
 40
0.5773502692
 41
2.094395102393336
 42
2.617993877990247
  0
ELLIPSE
  5
EF
330
75
100
AcDbEntity
  8
4221039_0__SIEB_
  6
Continuous
 62
     7
100
AcDbEllipse
 10
53.1796529977
 20
564.2356832122
 30
0.0
 11
-0.08660254037844525
 21
-0.08660254037842763
 31
0.0
210
0.0
220
0.0
230
0.9999999999999999
 40
0.5773502692
 41
1.047197551195663
 42
2.617993877991193
  0
ELLIPSE
  5
F0
330
75
100
AcDbEntity
  8
4221039_0__SIEB_
  6
Continuous
 62
     7
100
AcDbEllipse
 10
54.7153672834
 20
564.2356832122
 30
0.0
 11
0.08660254037843847
 21
-0.08660254037845538
 31
0.0
210
0.0
220
0.0
230
1.0
 40
0.5773502692
 41
3.665191429187405
 42
5.235987755983732
  0
ELLIPSE
  5
F1
330
75
100
AcDbEntity
  8
4221039_0__SIEB_
  6
Continuous
 62
     7
100
AcDbEllipse
 10
54.7153672834
 20
564.2356832122
 30
0.0
 11
0.08660254037843847
 21
0.08660254037845538
 31
0.0
210
0.0
220
0.0
230
0.9999999999999998
 40
0.5773502692
 41
3.665191429189016
 42
4.1887902047856
  0
ELLIPSE
  5
F2
330
75
100
AcDbEntity
  8
4221039_0__SIEB_
  6
Continuous
 62
     7
100
AcDbEllipse
 10
54.7153672834
 20
564.2356832122
 30
0.0
 11
-0.08660254037843847
 21
0.08660254037845538
 31
0.0
210
0.0
220
0.0
230
0.9999999999999998
 40
0.5773502692
 41
2.094395102393939
 42
2.61799387799139
  0
ELLIPSE
  5
F3
330
75
100
AcDbEntity
  8
4221039_0__SIEB_
  6
Continuous
 62
     7
100
AcDbEllipse
 10
54.7153672834
 20
564.2356832122
 30
0.0
 11
-0.08660254037843847
 21
-0.08660254037845538
 31
0.0
210
0.0
220
0.0
230
0.9999999999999998
 40
0.5773502692
 41
1.047197551195807
 42
2.617993877992181
  0
ELLIPSE
  5
F4
330
75
100
AcDbEntity
  8
4221039_0__SIEB_
  6
Continuous
 62
     7
100
AcDbEllipse
 10
56.2510815691
 20
564.2356832122
 30
0.0
 11
0.08660254037844065
 21
-0.08660254037845538
 31
0.0
210
0.0
220
0.0
230
0.9999999999999998
 40
0.5773502692
 41
3.66519142918742
 42
5.235987755983149
  0
ELLIPSE
  5
F5
330
75
100
AcDbEntity
  8
4221039_0__SIEB_
  6
Continuous
 62
     7
100
AcDbEllipse
 10
56.2510815691
 20
564.2356832122
 30
0.0
 11
0.08660254037842285
 21
0.08660254037845538
 31
0.0
210
0.0
220
0.0
230
1.0
 40
0.5773502692
 41
3.665191429188069
 42
4.188790204785401
  0
ELLIPSE
  5
F6
330
75
100
AcDbEntity
  8
4221039_0__SIEB_
  6
Continuous
 62
     7
100
AcDbEllipse
 10
56.2510815691
 20
564.2356832122
 30
0.0
 11
-0.08660254037844194
 21
0.08660254037842763
 31
0.0
210
0.0
220
0.0
230
1.0
 40
0.5773502692
 41
2.094395102394153
 42
2.617993877990709
  0
ELLIPSE
  5
F7
330
75
100
AcDbEntity
  8
4221039_0__SIEB_
  6
Continuous
 62
     7
100
AcDbEllipse
 10
56.2510815691
 20
564.2356832122
 30
0.0
 11
-0.08660254037844628
 21
-0.08660254037842763
 31
0.0
210
0.0
220
0.0
230
0.9999999999999998
 40
0.5773502692
 41
1.047197551195622
 42
2.617993877991104
  0
ELLIPSE
  5
F8
330
75
100
AcDbEntity
  8
4221039_0__SIEB_
  6
Continuous
 62
     7
100
AcDbEllipse
 10
57.7867958548
 20
564.2356832122
 30
0.0
 11
0.08660254037845191
 21
-0.08660254037845538
 31
0.0
210
0.0
220
0.0
230
1.0
 40
0.5773502692
 41
3.665191429186182
 42
5.235987755983358
  0
ELLIPSE
  5
F9
330
75
100
AcDbEntity
  8
4221039_0__SIEB_
  6
Continuous
 62
     7
100
AcDbEllipse
 10
57.7867958548
 20
564.2356832122
 30
0.0
 11
0.08660254037843805
 21
0.0866025403784554
 31
0.0
210
0.0
220
0.0
230
1.0
 40
0.5773502692
 41
3.665191429187861
 42
4.188790204785597
  0
ELLIPSE
  5
FA
330
75
100
AcDbEntity
  8
4221039_0__SIEB_
  6
Continuous
 62
     7
100
AcDbEllipse
 10
57.7867958548
 20
564.2356832122
 30
0.0
 11
-0.08660254037842414
 21
0.08660254037851088
 31
0.0
210
0.0
220
0.0
230
1.0
 40
0.5773502692
 41
2.094395102393134
 42
2.617993877989981
  0
ELLIPSE
  5
FB
330
75
100
AcDbEntity
  8
4221039_0__SIEB_
  6
Continuous
 62
     7
100
AcDbEllipse
 10
57.7867958548
 20
564.2356832122
 30
0.0
 11
-0.0866025403784389
 21
-0.08660254037845538
 31
0.0
210
0.0
220
0.0
230
1.0
 40
0.5773502692
 41
1.04719755119581
 42
2.617993877990866
  0
ELLIPSE
  5
FC
330
75
100
AcDbEntity
  8
4221039_0__SIEB_
  6
Continuous
 62
     7
100
AcDbEllipse
 10
59.3225101405
 20
564.2356832122
 30
0.0
 11
0.08660254037843371
 21
-0.08660254037848314
 31
0.0
210
0.0
220
0.0
230
1.0
 40
0.5773502692
 41
3.665191429186431
 42
5.235987755983337
  0
ELLIPSE
  5
FD
330
75
100
AcDbEntity
  8
4221039_0__SIEB_
  6
Continuous
 62
     7
100
AcDbEllipse
 10
59.3225101405
 20
564.2356832122
 30
0.0
 11
0.08660254037842414
 21
0.08660254037845537
 31
0.0
210
0.0
220
0.0
230
1.0
 40
0.5773502692
 41
3.665191429188004
 42
4.18879020478541
  0
ELLIPSE
  5
FE
330
75
100
AcDbEntity
  8
4221039_0__SIEB_
  6
Continuous
 62
     7
100
AcDbEllipse
 10
59.3225101405
 20
564.2356832122
 30
0.0
 11
-0.08660254037842936
 21
0.08660254037848314
 31
0.0
210
0.0
220
0.0
230
1.0
 40
0.5773502692
 41
2.094395102393384
 42
2.617993877990917
  0
ELLIPSE
  5
FF
330
75
100
AcDbEntity
  8
4221039_0__SIEB_
  6
Continuous
 62
     7
100
AcDbEllipse
 10
59.3225101405
 20
564.2356832122
 30
0.0
 11
-0.08660254037844499
 21
-0.08660254037842764
 31
0.0
210
0.0
220
0.0
230
1.0
 40
0.5773502692
 41
1.047197551195614
 42
2.617993877991112
  0
ELLIPSE
  5
100
330
75
100
AcDbEntity
  8
4221039_0__SIEB_
  6
Continuous
 62
     7
100
AcDbEllipse
 10
59.3225101405
 20
563.4678260694
 30
0.0
 11
-0.08660254037844584
 21
0.08660254037845538
 31
0.0
210
0.0
220
0.0
230
1.0
 40
0.5773502692
 41
2.094395102392705
 42
2.617993877989324
  0
ELLIPSE
  5
101
330
75
100
AcDbEntity
  8
4221039_0__SIEB_
  6
Continuous
 62
     7
100
AcDbEllipse
 10
59.3225101405
 20
563.4678260694
 30
0.0
 11
-0.08660254037843718
 21
-0.08660254037845538
 31
0.0
210
0.0
220
0.0
230
1.0
 40
0.5773502692
 41
1.047197551197077
 42
2.617993877992189
  0
ELLIPSE
  5
102
330
75
100
AcDbEntity
  8
4221039_0__SIEB_
  6
Continuous
 62
     7
100
AcDbEllipse
 10
57.7867958548
 20
563.4678260694
 30
0.0
 11
-0.08660254037844499
 21
0.08660254037842764
 31
0.0
210
0.0
220
0.0
230
1.0
 40
0.5773502692
 41
2.094395102391953
 42
2.617993877989684
  0
ELLIPSE
  5
103
330
75
100
AcDbEntity
  8
4221039_0__SIEB_
  6
Continuous
 62
     7
100
AcDbEllipse
 10
57.7867958548
 20
563.4678260694
 30
0.0
 11
-0.08660254037843718
 21
-0.08660254037845538
 31
0.0
210
0.0
220
0.0
230
1.0
 40
0.5773502692
 41
1.04719755119703
 42
2.617993877992189
  0
ELLIPSE
  5
104
330
75
100
AcDbEntity
  8
4221039_0__SIEB_
  6
Continuous
 62
     7
100
AcDbEllipse
 10
59.3225101405
 20
563.4678260694
 30
0.0
 11
0.0866025403784363
 21
-0.08660254037845538
 31
0.0
210
0.0
220
0.0
230
1.0
 40
0.5773502692
 41
3.665191429187473
 42
5.235987755982515
  0
ELLIPSE
  5
105
330
75
100
AcDbEntity
  8
4221039_0__SIEB_
  6
Continuous
 62
     7
100
AcDbEllipse
 10
59.3225101405
 20
563.4678260694
 30
0.0
 11
0.08660254037843977
 21
0.08660254037845538
 31
0.0
210
0.0
220
0.0
230
1.0
 40
0.5773502692
 41
3.665191429188294
 42
4.188790204786888
  0
ELLIPSE
  5
106
330
75
100
AcDbEntity
  8
4221039_0__SIEB_
  6
Continuous
 62
     7
100
AcDbEllipse
 10
56.2510815691
 20
563.4678260694
 30
0.0
 11
-0.08660254037843934
 21
0.08660254037845538
 31
0.0
210
0.0
220
0.0
230
1.0
 40
0.5773502692
 41
2.094395102392654
 42
2.617993877989821
  0
ELLIPSE
  5
107
330
75
100
AcDbEntity
  8
4221039_0__SIEB_
  6
Continuous
 62
     7
100
AcDbEllipse
 10
56.2510815691
 20
563.4678260694
 30
0.0
 11
-0.08660254037843934
 21
-0.08660254037845538
 31
0.0
210
0.0
220
0.0
230
1.0
 40
0.5773502692
 41
1.047197551197092
 42
2.617993877992175
  0
ELLIPSE
  5
108
330
75
100
AcDbEntity
  8
4221039_0__SIEB_
  6
Continuous
 62
     7
100
AcDbEllipse
 10
57.7867958548
 20
563.4678260694
 30
0.0
 11
0.08660254037843718
 21
-0.08660254037845538
 31
0.0
210
0.0
220
0.0
230
1.0
 40
0.5773502692
 41
3.665191429187479
 42
5.23598775598303
  0
ELLIPSE
  5
109
330
75
100
AcDbEntity
  8
4221039_0__SIEB_
  6
Continuous
 62
     7
100
AcDbEllipse
 10
57.7867958548
 20
563.4678260694
 30
0.0
 11
0.08660254037844584
 21
0.08660254037845538
 31
0.0
210
0.0
220
0.0
230
1.0
 40
0.5773502692
 41
3.665191429188293
 42
4.188790204786786
  0
ELLIPSE
  5
10A
330
75
100
AcDbEntity
  8
4221039_0__SIEB_
  6
Continuous
 62
     7
100
AcDbEllipse
 10
54.7153672834
 20
563.4678260694
 30
0.0
 11
-0.08660254037844499
 21
0.08660254037842764
 31
0.0
210
0.0
220
0.0
230
1.0
 40
0.5773502692
 41
2.094395102392001
 42
2.617993877989602
  0
ELLIPSE
  5
10B
330
75
100
AcDbEntity
  8
4221039_0__SIEB_
  6
Continuous
 62
     7
100
AcDbEllipse
 10
54.7153672834
 20
563.4678260694
 30
0.0
 11
-0.08660254037843673
 21
-0.08660254037845538
 31
0.0
210
0.0
220
0.0
230
1.0
 40
0.5773502692
 41
1.047197551197027
 42
2.617993877992193
  0
ELLIPSE
  5
10C
330
75
100
AcDbEntity
  8
4221039_0__SIEB_
  6
Continuous
 62
     7
100
AcDbEllipse
 10
56.2510815691
 20
563.4678260694
 30
0.0
 11
0.08660254037843847
 21
-0.08660254037845538
 31
0.0
210
0.0
220
0.0
230
1.0
 40
0.5773502692
 41
3.665191429187324
 42
5.235987755982453
  0
ELLIPSE
  5
10D
330
75
100
AcDbEntity
  8
4221039_0__SIEB_
  6
Continuous
 62
     7
100
AcDbEllipse
 10
56.2510815691
 20
563.4678260694
 30
0.0
 11
0.08660254037843847
 21
0.08660254037845538
 31
0.0
210
0.0
220
0.0
230
0.9999999999999998
 40
0.5773502692
 41
3.665191429188196
 42
4.188790204786879
  0
ELLIPSE
  5
10E
330
75
100
AcDbEntity
  8
4221039_0__SIEB_
  6
Continuous
 62
     7
100
AcDbEllipse
 10
53.1796529977
 20
563.4678260694
 30
0.0
 11
-0.08660254037845232
 21
0.08660254037845538
 31
0.0
210
0.0
220
0.0
230
1.0
 40
0.5773502692
 41
2.094395102392804
 42
2.61799387798973
  0
ELLIPSE
  5
10F
330
75
100
AcDbEntity
  8
4221039_0__SIEB_
  6
Continuous
 62
     7
100
AcDbEllipse
 10
53.1796529977
 20
563.4678260694
 30
0.0
 11
-0.08660254037843847
 21
-0.08660254037845538
 31
0.0
210
0.0
220
0.0
230
0.9999999999999998
 40
0.5773502692
 41
1.047197551196612
 42
2.61799387799095
  0
ELLIPSE
  5
110
330
75
100
AcDbEntity
  8
4221039_0__SIEB_
  6
Continuous
 62
     7
100
AcDbEllipse
 10
54.7153672834
 20
563.4678260694
 30
0.0
 11
0.0866025403784363
 21
-0.08660254037845538
 31
0.0
210
0.0
220
0.0
230
1.0
 40
0.5773502692
 41
3.665191429187473
 42
5.235987755983036
  0
ELLIPSE
  5
111
330
75
100
AcDbEntity
  8
4221039_0__SIEB_
  6
Continuous
 62
     7
100
AcDbEllipse
 10
54.7153672834
 20
563.4678260694
 30
0.0
 11
0.0866025403784452
 21
0.08660254037845538
 31
0.0
210
0.0
220
0.0
230
1.0
 40
0.5773502692
 41
3.665191429188285
 42
4.188790204786829
  0
ELLIPSE
  5
112
330
75
100
AcDbEntity
  8
4221039_0__SIEB_
  6
Continuous
 62
     7
100
AcDbEllipse
 10
51.643938712
 20
563.4678260694
 30
0.0
 11
-0.0866025403784452
 21
0.08660254037845538
 31
0.0
210
0.0
220
0.0
230
1.0
 40
0.5773502692
 41
2.09439510239271
 42
2.617993877989333
  0
ELLIPSE
  5
113
330
75
100
AcDbEntity
  8
4221039_0__SIEB_
  6
Continuous
 62
     7
100
AcDbEllipse
 10
51.643938712
 20
563.4678260694
 30
0.0
 11
-0.08660254037843673
 21
-0.08660254037845538
 31
0.0
210
0.0
220
0.0
230
1.0
 40
0.5773502692
 41
1.047197551197027
 42
2.617993877992193
  0
ELLIPSE
  5
114
330
75
100
AcDbEntity
  8
4221039_0__SIEB_
  6
Continuous
 62
     7
100
AcDbEllipse
 10
53.1796529977
 20
563.4678260694
 30
0.0
 11
0.08660254037842459
 21
-0.08660254037851089
 31
0.0
210
0.0
220
0.0
230
1.0
 40
0.5773502692
 41
3.665191429188052
 42
5.235987755982166
  0
ELLIPSE
  5
115
330
75
100
AcDbEntity
  8
4221039_0__SIEB_
  6
Continuous
 62
     7
100
AcDbEllipse
 10
53.1796529977
 20
563.4678260694
 30
0.0
 11
0.08660254037843844
 21
0.08660254037845538
 31
0.0
210
0.0
220
0.0
230
0.9999999999999998
 40
0.5773502692
 41
3.665191429189097
 42
4.188790204786406
  0
ELLIPSE
  5
116
330
75
100
AcDbEntity
  8
4221039_0__SIEB_
  6
Continuous
 62
     7
100
AcDbEllipse
 10
50.1082244262
 20
563.4678260694
 30
0.0
 11
-0.08660254037843847
 21
0.08660254037845538
 31
0.0
210
0.0
220
0.0
230
0.9999999999999998
 40
0.5773502692
 41
2.094395102393181
 42
2.617993877991473
  0
ELLIPSE
  5
117
330
75
100
AcDbEntity
  8
4221039_0__SIEB_
  6
Continuous
 62
     7
100
AcDbEllipse
 10
50.1082244262
 20
563.4678260694
 30
0.0
 11
-0.0866025403784363
 21
-0.08660254037845538
 31
0.0
210
0.0
220
0.0
230
1.0
 40
0.5773502692
 41
1.047197551197024
 42
2.617993877992195
  0
ELLIPSE
  5
118
330
75
100
AcDbEntity
  8
4221039_0__SIEB_
  6
Continuous
 62
     7
100
AcDbEllipse
 10
51.643938712
 20
563.4678260694
 30
0.0
 11
0.08660254037843652
 21
-0.08660254037845538
 31
0.0
210
0.0
220
0.0
230
1.0
 40
0.5773502692
 41
3.665191429187475
 42
5.235987755982561
  0
ELLIPSE
  5
119
330
75
100
AcDbEntity
  8
4221039_0__SIEB_
  6
Continuous
 62
     7
100
AcDbEllipse
 10
51.643938712
 20
563.4678260694
 30
0.0
 11
0.08660254037845928
 21
0.08660254037845538
 31
0.0
210
0.0
220
0.0
230
1.0
 40
0.5773502692
 41
3.665191429188063
 42
4.188790204787681
  0
ELLIPSE
  5
11A
330
75
100
AcDbEntity
  8
4221039_0__SIEB_
  6
Continuous
 62
     7
100
AcDbEllipse
 10
48.5725101405
 20
563.4678260694
 30
0.0
 11
-0.08660254037844584
 21
0.08660254037845538
 31
0.0
210
0.0
220
0.0
230
1.0
 40
0.5773502692
 41
2.094395102392705
 42
2.61799387798916
  0
ELLIPSE
  5
11B
330
75
100
AcDbEntity
  8
4221039_0__SIEB_
  6
Continuous
 62
     7
100
AcDbEllipse
 10
48.5725101405
 20
563.4678260694
 30
0.0
 11
-0.0866025403784389
 21
-0.08660254037845538
 31
0.0
210
0.0
220
0.0
230
1.0
 40
0.5773502692
 41
1.047197551197089
 42
2.617993877992178
  0
ELLIPSE
  5
11C
330
75
100
AcDbEntity
  8
4221039_0__SIEB_
  6
Continuous
 62
     7
100
AcDbEllipse
 10
50.1082244262
 20
563.4678260694
 30
0.0
 11
0.08660254037843934
 21
-0.08660254037845538
 31
0.0
210
0.0
220
0.0
230
1.0
 40
0.5773502692
 41
3.665191429187411
 42
5.235987755983015
  0
ELLIPSE
  5
11D
330
75
100
AcDbEntity
  8
4221039_0__SIEB_
  6
Continuous
 62
     7
100
AcDbEllipse
 10
50.1082244262
 20
563.4678260694
 30
0.0
 11
0.08660254037844541
 21
0.08660254037842763
 31
0.0
210
0.0
220
0.0
230
1.0
 40
0.5773502692
 41
3.665191429189087
 42
4.188790204787589
  0
ELLIPSE
  5
11E
330
75
100
AcDbEntity
  8
4221039_0__SIEB_
  6
Continuous
 62
     7
100
AcDbEllipse
 10
47.0367958548
 20
563.4678260694
 30
0.0
 11
-0.08660254037844584
 21
0.08660254037845538
 31
0.0
210
0.0
220
0.0
230
1.0
 40
0.5773502692
 41
2.094395102392753
 42
2.617993877989324
  0
ELLIPSE
  5
11F
330
75
100
AcDbEntity
  8
4221039_0__SIEB_
  6
Continuous
 62
     7
100
AcDbEllipse
 10
47.0367958548
 20
563.4678260694
 30
0.0
 11
-0.08660254037843541
 21
-0.08660254037848313
 31
0.0
210
0.0
220
0.0
230
0.9999999999999998
 40
0.5773502692
 41
1.047197551196971
 42
2.617993877991831
  0
ELLIPSE
  5
120
330
75
100
AcDbEntity
  8
4221039_0__SIEB_
  6
Continuous
 62
     7
100
AcDbEllipse
 10
48.5725101405
 20
563.4678260694
 30
0.0
 11
0.08660254037843718
 21
-0.08660254037845538
 31
0.0
210
0.0
220
0.0
230
1.0
 40
0.5773502692
 41
3.665191429186085
 42
5.235987755982556
  0
ELLIPSE
  5
121
330
75
100
AcDbEntity
  8
4221039_0__SIEB_
  6
Continuous
 62
     7
100
AcDbEllipse
 10
48.5725101405
 20
563.4678260694
 30
0.0
 11
0.0866025403784389
 21
0.08660254037845538
 31
0.0
210
0.0
220
0.0
230
1.0
 40
0.5773502692
 41
3.665191429187872
 42
4.188790204786882
  0
ELLIPSE
  5
122
330
75
100
AcDbEntity
  8
4221039_0__SIEB_
  6
Continuous
 62
     7
100
AcDbEllipse
 10
45.5010815691
 20
563.4678260694
 30
0.0
 11
-0.08660254037843805
 21
0.0866025403784554
 31
0.0
210
0.0
220
0.0
230
1.0
 40
0.5773502692
 41
2.09439510239271
 42
2.617993877989756
  0
ELLIPSE
  5
123
330
75
100
AcDbEntity
  8
4221039_0__SIEB_
  6
Continuous
 62
     7
100
AcDbEllipse
 10
45.5010815691
 20
563.4678260694
 30
0.0
 11
-0.0866025403784389
 21
-0.08660254037845538
 31
0.0
210
0.0
220
0.0
230
1.0
 40
0.5773502692
 41
1.047197551197089
 42
2.61799387799226
  0
ELLIPSE
  5
124
330
75
100
AcDbEntity
  8
4221039_0__SIEB_
  6
Continuous
 62
     7
100
AcDbEllipse
 10
47.0367958548
 20
563.4678260694
 30
0.0
 11
0.08660254037843805
 21
-0.0866025403784554
 31
0.0
210
0.0
220
0.0
230
1.0
 40
0.5773502692
 41
3.665191429187403
 42
5.235987755982503
  0
ELLIPSE
  5
125
330
75
100
AcDbEntity
  8
4221039_0__SIEB_
  6
Continuous
 62
     7
100
AcDbEllipse
 10
47.0367958548
 20
563.4678260694
 30
0.0
 11
0.08660254037843718
 21
0.08660254037845538
 31
0.0
210
0.0
220
0.0
230
1.0
 40
0.5773502692
 41
3.665191429189983
 42
4.188790204786871
  0
ELLIPSE
  5
126
330
75
100
AcDbEntity
  8
4221039_0__SIEB_
  6
Continuous
 62
     7
100
AcDbEllipse
 10
45.5010815691
 20
563.4678260694
 30
0.0
 11
0.0866025403784389
 21
-0.08660254037845538
 31
0.0
210
0.0
220
0.0
230
1.0
 40
0.5773502692
 41
3.665191429187408
 42
5.235987755982498
  0
ELLIPSE
  5
127
330
75
100
AcDbEntity
  8
4221039_0__SIEB_
  6
Continuous
 62
     7
100
AcDbEllipse
 10
45.5010815691
 20
563.4678260694
 30
0.0
 11
0.08660254037843805
 21
0.0866025403784554
 31
0.0
210
0.0
220
0.0
230
1.0
 40
0.5773502692
 41
3.665191429188107
 42
4.188790204786876
  0
ELLIPSE
  5
128
330
75
100
AcDbEntity
  8
4221039_0__SIEB_
  6
Continuous
 62
     7
100
AcDbEllipse
 10
45.5010815691
 20
562.6999689265
 30
0.0
 11
0.08660254037845191
 21
-0.08660254037845538
 31
0.0
210
0.0
220
0.0
230
1.0
 40
0.5773502692
 41
3.665191429187495
 42
5.235987755983358
  0
ELLIPSE
  5
129
330
75
100
AcDbEntity
  8
4221039_0__SIEB_
  6
Continuous
 62
     7
100
AcDbEllipse
 10
45.5010815691
 20
562.6999689265
 30
0.0
 11
0.08660254037844584
 21
0.08660254037845538
 31
0.0
210
0.0
220
0.0
230
1.0
 40
0.5773502692
 41
3.665191429186735
 42
4.188790204786028
  0
ELLIPSE
  5
12A
330
75
100
AcDbEntity
  8
4221039_0__SIEB_
  6
Continuous
 62
     7
100
AcDbEllipse
 10
45.5010815691
 20
562.6999689265
 30
0.0
 11
-0.08660254037842328
 21
0.08660254037851088
 31
0.0
210
0.0
220
0.0
230
1.0
 40
0.5773502692
 41
2.094395102393187
 42
2.617993877991224
  0
ELLIPSE
  5
12B
330
75
100
AcDbEntity
  8
4221039_0__SIEB_
  6
Continuous
 62
     7
100
AcDbEllipse
 10
45.5010815691
 20
562.6999689265
 30
0.0
 11
-0.08660254037845191
 21
-0.08660254037845538
 31
0.0
210
0.0
220
0.0
230
1.0
 40
0.5773502692
 41
1.047197551196228
 42
2.617993877990861
  0
ELLIPSE
  5
12C
330
75
100
AcDbEntity
  8
4221039_0__SIEB_
  6
Continuous
 62
     7
100
AcDbEllipse
 10
47.0367958548
 20
562.6999689265
 30
0.0
 11
0.08660254037843718
 21
-0.08660254037845538
 31
0.0
210
0.0
220
0.0
230
1.0
 40
0.5773502692
 41
3.665191429188792
 42
5.235987755983219
  0
ELLIPSE
  5
12D
330
75
100
AcDbEntity
  8
4221039_0__SIEB_
  6
Continuous
 62
     7
100
AcDbEllipse
 10
47.0367958548
 20
562.6999689265
 30
0.0
 11
0.08660254037843805
 21
0.0866025403784554
 31
0.0
210
0.0
220
0.0
230
1.0
 40
0.5773502692
 41
3.665191429187533
 42
4.188790204786071
  0
ELLIPSE
  5
12E
330
75
100
AcDbEntity
  8
4221039_0__SIEB_
  6
Continuous
 62
     7
100
AcDbEllipse
 10
47.0367958548
 20
562.6999689265
 30
0.0
 11
-0.08660254037843541
 21
0.08660254037848313
 31
0.0
210
0.0
220
0.0
230
0.9999999999999998
 40
0.5773502692
 41
2.094395102393485
 42
2.617993877992232
  0
ELLIPSE
  5
12F
330
75
100
AcDbEntity
  8
4221039_0__SIEB_
  6
Continuous
 62
     7
100
AcDbEllipse
 10
47.0367958548
 20
562.6999689265
 30
0.0
 11
-0.0866025403784389
 21
-0.08660254037845538
 31
0.0
210
0.0
220
0.0
230
1.0
 40
0.5773502692
 41
1.047197551196283
 42
2.617993877990866
  0
ELLIPSE
  5
130
330
75
100
AcDbEntity
  8
4221039_0__SIEB_
  6
Continuous
 62
     7
100
AcDbEllipse
 10
48.5725101405
 20
562.6999689265
 30
0.0
 11
0.0866025403784389
 21
-0.08660254037845538
 31
0.0
210
0.0
220
0.0
230
1.0
 40
0.5773502692
 41
3.665191429187326
 42
5.235987755983255
  0
ELLIPSE
  5
131
330
75
100
AcDbEntity
  8
4221039_0__SIEB_
  6
Continuous
 62
     7
100
AcDbEllipse
 10
48.5725101405
 20
562.6999689265
 30
0.0
 11
0.08660254037842938
 21
0.0866025403784554
 31
0.0
210
0.0
220
0.0
230
1.0
 40
0.5773502692
 41
3.665191429186925
 42
4.188790204785965
  0
ELLIPSE
  5
132
330
75
100
AcDbEntity
  8
4221039_0__SIEB_
  6
Continuous
 62
     7
100
AcDbEllipse
 10
48.5725101405
 20
562.6999689265
 30
0.0
 11
-0.08660254037843805
 21
0.0866025403784554
 31
0.0
210
0.0
220
0.0
230
1.0
 40
0.5773502692
 41
2.094395102393468
 42
2.617993877990494
  0
ELLIPSE
  5
133
330
75
100
AcDbEntity
  8
4221039_0__SIEB_
  6
Continuous
 62
     7
100
AcDbEllipse
 10
48.5725101405
 20
562.6999689265
 30
0.0
 11
-0.08660254037842936
 21
-0.08660254037851089
 31
0.0
210
0.0
220
0.0
230
1.0
 40
0.5773502692
 41
1.047197551196267
 42
2.617993877991502
  0
ELLIPSE
  5
134
330
75
100
AcDbEntity
  8
4221039_0__SIEB_
  6
Continuous
 62
     7
100
AcDbEllipse
 10
50.1082244262
 20
562.6999689265
 30
0.0
 11
0.0866025403784311
 21
-0.08660254037845538
 31
0.0
210
0.0
220
0.0
230
1.0
 40
0.5773502692
 41
3.665191429188669
 42
5.235987755983828
  0
ELLIPSE
  5
135
330
75
100
AcDbEntity
  8
4221039_0__SIEB_
  6
Continuous
 62
     7
100
AcDbEllipse
 10
50.1082244262
 20
562.6999689265
 30
0.0
 11
0.08660254037842546
 21
0.08660254037851089
 31
0.0
210
0.0
220
0.0
230
1.0
 40
0.5773502692
 41
3.665191429187654
 42
4.188790204786413
  0
ELLIPSE
  5
136
330
75
100
AcDbEntity
  8
4221039_0__SIEB_
  6
Continuous
 62
     7
100
AcDbEllipse
 10
50.1082244262
 20
562.6999689265
 30
0.0
 11
-0.08660254037843718
 21
0.08660254037848315
 31
0.0
210
0.0
220
0.0
230
1.0
 40
0.5773502692
 41
2.094395102393332
 42
2.617993877991551
  0
ELLIPSE
  5
137
330
75
100
AcDbEntity
  8
4221039_0__SIEB_
  6
Continuous
 62
     7
100
AcDbEllipse
 10
50.1082244262
 20
562.6999689265
 30
0.0
 11
-0.08660254037845236
 21
-0.0866025403784554
 31
0.0
210
0.0
220
0.0
230
1.0
 40
0.5773502692
 41
1.047197551196231
 42
2.617993877992088
  0
ELLIPSE
  5
138
330
75
100
AcDbEntity
  8
4221039_0__SIEB_
  6
Continuous
 62
     7
100
AcDbEllipse
 10
51.643938712
 20
562.6999689265
 30
0.0
 11
0.08660254037843086
 21
-0.08660254037845537
 31
0.0
210
0.0
220
0.0
230
1.0
 40
0.5773502692
 41
3.665191429188668
 42
5.235987755983877
  0
ELLIPSE
  5
139
330
75
100
AcDbEntity
  8
4221039_0__SIEB_
  6
Continuous
 62
     7
100
AcDbEllipse
 10
51.643938712
 20
562.6999689265
 30
0.0
 11
0.08660254037844541
 21
0.08660254037845538
 31
0.0
210
0.0
220
0.0
230
1.0
 40
0.5773502692
 41
3.665191429187878
 42
4.188790204786025
  0
ELLIPSE
  5
13A
330
75
100
AcDbEntity
  8
4221039_0__SIEB_
  6
Continuous
 62
     7
100
AcDbEllipse
 10
51.643938712
 20
562.6999689265
 30
0.0
 11
-0.08660254037843673
 21
0.08660254037848314
 31
0.0
210
0.0
220
0.0
230
1.0
 40
0.5773502692
 41
2.094395102393287
 42
2.617993877991886
  0
ELLIPSE
  5
13B
330
75
100
AcDbEntity
  8
4221039_0__SIEB_
  6
Continuous
 62
     7
100
AcDbEllipse
 10
51.643938712
 20
562.6999689265
 30
0.0
 11
-0.08660254037845061
 21
-0.08660254037845538
 31
0.0
210
0.0
220
0.0
230
1.0
 40
0.5773502692
 41
1.047197551195746
 42
2.617993877990787
  0
ELLIPSE
  5
13C
330
75
100
AcDbEntity
  8
4221039_0__SIEB_
  6
Continuous
 62
     7
100
AcDbEllipse
 10
53.1796529977
 20
562.6999689265
 30
0.0
 11
0.08660254037843847
 21
-0.08660254037845538
 31
0.0
210
0.0
220
0.0
230
0.9999999999999998
 40
0.5773502692
 41
3.665191429187405
 42
5.235987755983211
  0
ELLIPSE
  5
13D
330
75
100
AcDbEntity
  8
4221039_0__SIEB_
  6
Continuous
 62
     7
100
AcDbEllipse
 10
53.1796529977
 20
562.6999689265
 30
0.0
 11
0.08660254037843132
 21
0.08660254037848314
 31
0.0
210
0.0
220
0.0
230
1.0
 40
0.5773502692
 41
3.665191429187136
 42
4.188790204786121
  0
ELLIPSE
  5
13E
330
75
100
AcDbEntity
  8
4221039_0__SIEB_
  6
Continuous
 62
     7
100
AcDbEllipse
 10
53.1796529977
 20
562.6999689265
 30
0.0
 11
-0.08660254037843841
 21
0.08660254037845538
 31
0.0
210
0.0
220
0.0
230
0.9999999999999998
 40
0.5773502692
 41
2.094395102393466
 42
2.617993877990572
  0
ELLIPSE
  5
13F
330
75
100
AcDbEntity
  8
4221039_0__SIEB_
  6
Continuous
 62
     7
100
AcDbEllipse
 10
53.1796529977
 20
562.6999689265
 30
0.0
 11
-0.08660254037843663
 21
-0.0866025403784554
 31
0.0
210
0.0
220
0.0
230
0.9999999999999998
 40
0.5773502692
 41
1.047197551195842
 42
2.617993877990962
  0
ELLIPSE
  5
140
330
75
100
AcDbEntity
  8
4221039_0__SIEB_
  6
Continuous
 62
     7
100
AcDbEllipse
 10
54.7153672834
 20
562.6999689265
 30
0.0
 11
0.08660254037843086
 21
-0.08660254037845537
 31
0.0
210
0.0
220
0.0
230
1.0
 40
0.5773502692
 41
3.665191429188668
 42
5.235987755983877
  0
ELLIPSE
  5
141
330
75
100
AcDbEntity
  8
4221039_0__SIEB_
  6
Continuous
 62
     7
100
AcDbEllipse
 10
54.7153672834
 20
562.6999689265
 30
0.0
 11
0.08660254037843805
 21
0.0866025403784554
 31
0.0
210
0.0
220
0.0
230
1.0
 40
0.5773502692
 41
3.665191429187533
 42
4.188790204786071
  0
ELLIPSE
  5
142
330
75
100
AcDbEntity
  8
4221039_0__SIEB_
  6
Continuous
 62
     7
100
AcDbEllipse
 10
54.7153672834
 20
562.6999689265
 30
0.0
 11
-0.08660254037843695
 21
0.08660254037848314
 31
0.0
210
0.0
220
0.0
230
1.0
 40
0.5773502692
 41
2.094395102393286
 42
2.617993877991883
  0
ELLIPSE
  5
143
330
75
100
AcDbEntity
  8
4221039_0__SIEB_
  6
Continuous
 62
     7
100
AcDbEllipse
 10
54.7153672834
 20
562.6999689265
 30
0.0
 11
-0.08660254037843826
 21
-0.08660254037845538
 31
0.0
210
0.0
220
0.0
230
1.0
 40
0.5773502692
 41
1.047197551196279
 42
2.61799387799087
  0
ELLIPSE
  5
144
330
75
100
AcDbEntity
  8
4221039_0__SIEB_
  6
Continuous
 62
     7
100
AcDbEllipse
 10
56.2510815691
 20
562.6999689265
 30
0.0
 11
0.08660254037843847
 21
-0.08660254037845538
 31
0.0
210
0.0
220
0.0
230
1.0
 40
0.5773502692
 41
3.665191429187324
 42
5.235987755983211
  0
ELLIPSE
  5
145
330
75
100
AcDbEntity
  8
4221039_0__SIEB_
  6
Continuous
 62
     7
100
AcDbEllipse
 10
56.2510815691
 20
562.6999689265
 30
0.0
 11
0.08660254037843153
 21
0.08660254037848314
 31
0.0
210
0.0
220
0.0
230
1.0
 40
0.5773502692
 41
3.665191429187221
 42
4.188790204786122
  0
ELLIPSE
  5
146
330
75
100
AcDbEntity
  8
4221039_0__SIEB_
  6
Continuous
 62
     7
100
AcDbEllipse
 10
56.2510815691
 20
562.6999689265
 30
0.0
 11
-0.08660254037843847
 21
0.08660254037845538
 31
0.0
210
0.0
220
0.0
230
0.9999999999999998
 40
0.5773502692
 41
2.094395102393418
 42
2.617993877990406
  0
ELLIPSE
  5
147
330
75
100
AcDbEntity
  8
4221039_0__SIEB_
  6
Continuous
 62
     7
100
AcDbEllipse
 10
56.2510815691
 20
562.6999689265
 30
0.0
 11
-0.08660254037843587
 21
-0.08660254037845538
 31
0.0
210
0.0
220
0.0
230
1.0
 40
0.5773502692
 41
1.04719755119579
 42
2.617993877990803
  0
ELLIPSE
  5
148
330
75
100
AcDbEntity
  8
4221039_0__SIEB_
  6
Continuous
 62
     7
100
AcDbEllipse
 10
57.7867958548
 20
562.6999689265
 30
0.0
 11
0.08660254037843194
 21
-0.08660254037845537
 31
0.0
210
0.0
220
0.0
230
1.0
 40
0.5773502692
 41
3.665191429188674
 42
5.235987755983823
  0
ELLIPSE
  5
149
330
75
100
AcDbEntity
  8
4221039_0__SIEB_
  6
Continuous
 62
     7
100
AcDbEllipse
 10
57.7867958548
 20
562.6999689265
 30
0.0
 11
0.08660254037842414
 21
0.08660254037851088
 31
0.0
210
0.0
220
0.0
230
1.0
 40
0.5773502692
 41
3.665191429187636
 42
4.188790204786405
  0
ELLIPSE
  5
14A
330
75
100
AcDbEntity
  8
4221039_0__SIEB_
  6
Continuous
 62
     7
100
AcDbEllipse
 10
57.7867958548
 20
562.6999689265
 30
0.0
 11
-0.08660254037843718
 21
0.08660254037845538
 31
0.0
210
0.0
220
0.0
230
1.0
 40
0.5773502692
 41
2.094395102394137
 42
2.617993877992228
  0
ELLIPSE
  5
14B
330
75
100
AcDbEntity
  8
4221039_0__SIEB_
  6
Continuous
 62
     7
100
AcDbEllipse
 10
57.7867958548
 20
562.6999689265
 30
0.0
 11
-0.08660254037845191
 21
-0.08660254037845538
 31
0.0
210
0.0
220
0.0
230
1.0
 40
0.5773502692
 41
1.047197551196228
 42
2.617993877992091
  0
ELLIPSE
  5
14C
330
75
100
AcDbEntity
  8
4221039_0__SIEB_
  6
Continuous
 62
     7
100
AcDbEllipse
 10
59.3225101405
 20
562.6999689265
 30
0.0
 11
0.0866025403784389
 21
-0.08660254037845538
 31
0.0
210
0.0
220
0.0
230
1.0
 40
0.5773502692
 41
3.665191429187408
 42
5.235987755983255
  0
ELLIPSE
  5
14D
330
75
100
AcDbEntity
  8
4221039_0__SIEB_
  6
Continuous
 62
     7
100
AcDbEllipse
 10
59.3225101405
 20
562.6999689265
 30
0.0
 11
0.08660254037844584
 21
0.08660254037845538
 31
0.0
210
0.0
220
0.0
230
1.0
 40
0.5773502692
 41
3.665191429187884
 42
4.188790204786028
  0
ELLIPSE
  5
14E
330
75
100
AcDbEntity
  8
4221039_0__SIEB_
  6
Continuous
 62
     7
100
AcDbEllipse
 10
59.3225101405
 20
562.6999689265
 30
0.0
 11
-0.08660254037843805
 21
0.0866025403784554
 31
0.0
210
0.0
220
0.0
230
1.0
 40
0.5773502692
 41
2.094395102393468
 42
2.61799387799074
  0
ELLIPSE
  5
14F
330
75
100
AcDbEntity
  8
4221039_0__SIEB_
  6
Continuous
 62
     7
100
AcDbEllipse
 10
59.3225101405
 20
562.6999689265
 30
0.0
 11
-0.08660254037845105
 21
-0.08660254037845538
 31
0.0
210
0.0
220
0.0
230
1.0
 40
0.5773502692
 41
1.047197551196175
 42
2.617993877990784
  0
ELLIPSE
  5
150
330
75
100
AcDbEntity
  8
4221039_0__SIEB_
  6
Continuous
 62
     7
100
AcDbEllipse
 10
60.8582244262
 20
562.6999689265
 30
0.0
 11
0.08660254037844498
 21
-0.08660254037845538
 31
0.0
210
0.0
220
0.0
230
1.0
 40
0.5773502692
 41
3.665191429187449
 42
5.235987755983404
  0
ELLIPSE
  5
151
330
75
100
AcDbEntity
  8
4221039_0__SIEB_
  6
Continuous
 62
     7
100
AcDbEllipse
 10
60.8582244262
 20
562.6999689265
 30
0.0
 11
0.08660254037842414
 21
0.08660254037851088
 31
0.0
210
0.0
220
0.0
230
1.0
 40
0.5773502692
 41
3.6651914291878
 42
4.188790204786405
  0
ELLIPSE
  5
152
330
75
100
AcDbEntity
  8
4221039_0__SIEB_
  6
Continuous
 62
     7
100
AcDbEllipse
 10
60.8582244262
 20
562.6999689265
 30
0.0
 11
-0.0866025403784363
 21
0.08660254037845538
 31
0.0
210
0.0
220
0.0
230
1.0
 40
0.5773502692
 41
2.094395102393669
 42
2.617993877990928
  0
ELLIPSE
  5
153
330
75
100
AcDbEntity
  8
4221039_0__SIEB_
  6
Continuous
 62
     7
100
AcDbEllipse
 10
60.8582244262
 20
562.6999689265
 30
0.0
 11
-0.08660254037845365
 21
-0.08660254037845538
 31
0.0
210
0.0
220
0.0
230
1.0
 40
0.5773502692
 41
1.04719755119624
 42
2.617993877992162
  0
ELLIPSE
  5
154
330
75
100
AcDbEntity
  8
4221039_0__SIEB_
  6
Continuous
 62
     7
100
AcDbEllipse
 10
60.8582244262
 20
561.9321117837
 30
0.0
 11
-0.08660254037845191
 21
0.08660254037845538
 31
0.0
210
0.0
220
0.0
230
1.0
 40
0.5773502692
 41
2.094395102393565
 42
2.617993877991212
  0
ELLIPSE
  5
155
330
75
100
AcDbEntity
  8
4221039_0__SIEB_
  6
Continuous
 62
     7
100
AcDbEllipse
 10
60.8582244262
 20
561.9321117837
 30
0.0
 11
-0.0866025403784363
 21
-0.08660254037845538
 31
0.0
210
0.0
220
0.0
230
1.0
 40
0.5773502692
 41
1.047197551196266
 42
2.617993877990965
  0
ELLIPSE
  5
156
330
75
100
AcDbEntity
  8
4221039_0__SIEB_
  6
Continuous
 62
     7
100
AcDbEllipse
 10
59.3225101405
 20
561.9321117837
 30
0.0
 11
-0.08660254037843371
 21
0.08660254037848314
 31
0.0
210
0.0
220
0.0
230
1.0
 40
0.5773502692
 41
2.094395102393355
 42
2.617993877990367
  0
ELLIPSE
  5
157
330
75
100
AcDbEntity
  8
4221039_0__SIEB_
  6
Continuous
 62
     7
100
AcDbEllipse
 10
59.3225101405
 20
561.9321117837
 30
0.0
 11
-0.08660254037843718
 21
-0.08660254037845538
 31
0.0
210
0.0
220
0.0
230
1.0
 40
0.5773502692
 41
1.04719755119632
 42
2.617993877990795
  0
ELLIPSE
  5
158
330
75
100
AcDbEntity
  8
4221039_0__SIEB_
  6
Continuous
 62
     7
100
AcDbEllipse
 10
60.8582244262
 20
561.9321117837
 30
0.0
 11
0.08660254037842414
 21
-0.08660254037851088
 31
0.0
210
0.0
220
0.0
230
1.0
 40
0.5773502692
 41
3.665191429188051
 42
5.235987755982975
  0
ELLIPSE
  5
159
330
75
100
AcDbEntity
  8
4221039_0__SIEB_
  6
Continuous
 62
     7
100
AcDbEllipse
 10
60.8582244262
 20
561.9321117837
 30
0.0
 11
0.08660254037844498
 21
0.08660254037845538
 31
0.0
210
0.0
220
0.0
230
1.0
 40
0.5773502692
 41
3.665191429186723
 42
4.18879020478607
  0
ELLIPSE
  5
15A
330
75
100
AcDbEntity
  8
4221039_0__SIEB_
  6
Continuous
 62
     7
100
AcDbEllipse
 10
57.7867958548
 20
561.9321117837
 30
0.0
 11
-0.08660254037845279
 21
0.0866025403784554
 31
0.0
210
0.0
220
0.0
230
0.9999999999999998
 40
0.5773502692
 41
2.094395102393559
 42
2.617993877991037
  0
ELLIPSE
  5
15B
330
75
100
AcDbEntity
  8
4221039_0__SIEB_
  6
Continuous
 62
     7
100
AcDbEllipse
 10
57.7867958548
 20
561.9321117837
 30
0.0
 11
-0.08660254037844324
 21
-0.08660254037842763
 31
0.0
210
0.0
220
0.0
230
1.0
 40
0.5773502692
 41
1.047197551197118
 42
2.617993877989894
  0
ELLIPSE
  5
15C
330
75
100
AcDbEntity
  8
4221039_0__SIEB_
  6
Continuous
 62
     7
100
AcDbEllipse
 10
59.3225101405
 20
561.9321117837
 30
0.0
 11
0.08660254037844324
 21
-0.08660254037842763
 31
0.0
210
0.0
220
0.0
230
1.0
 40
0.5773502692
 41
3.665191429187149
 42
5.235987755982468
  0
ELLIPSE
  5
15D
330
75
100
AcDbEntity
  8
4221039_0__SIEB_
  6
Continuous
 62
     7
100
AcDbEllipse
 10
59.3225101405
 20
561.9321117837
 30
0.0
 11
0.08660254037843977
 21
0.08660254037845538
 31
0.0
210
0.0
220
0.0
230
1.0
 40
0.5773502692
 41
3.665191429186982
 42
4.18879020478613
  0
ELLIPSE
  5
15E
330
75
100
AcDbEntity
  8
4221039_0__SIEB_
  6
Continuous
 62
     7
100
AcDbEllipse
 10
56.2510815691
 20
561.9321117837
 30
0.0
 11
-0.08660254037843153
 21
0.08660254037848314
 31
0.0
210
0.0
220
0.0
230
1.0
 40
0.5773502692
 41
2.094395102393417
 42
2.617993877991791
  0
ELLIPSE
  5
15F
330
75
100
AcDbEntity
  8
4221039_0__SIEB_
  6
Continuous
 62
     7
100
AcDbEllipse
 10
56.2510815691
 20
561.9321117837
 30
0.0
 11
-0.08660254037844366
 21
-0.08660254037842761
 31
0.0
210
0.0
220
0.0
230
1.0
 40
0.5773502692
 41
1.047197551197121
 42
2.617993877989891
  0
ELLIPSE
  5
160
330
75
100
AcDbEntity
  8
4221039_0__SIEB_
  6
Continuous
 62
     7
100
AcDbEllipse
 10
57.7867958548
 20
561.9321117837
 30
0.0
 11
0.08660254037842502
 21
-0.08660254037851089
 31
0.0
210
0.0
220
0.0
230
0.9999999999999998
 40
0.5773502692
 41
3.665191429188056
 42
5.235987755982921
  0
ELLIPSE
  5
161
330
75
100
AcDbEntity
  8
4221039_0__SIEB_
  6
Continuous
 62
     7
100
AcDbEllipse
 10
57.7867958548
 20
561.9321117837
 30
0.0
 11
0.08660254037843371
 21
0.08660254037848314
 31
0.0
210
0.0
220
0.0
230
1.0
 40
0.5773502692
 41
3.66519142918725
 42
4.188790204786232
  0
ELLIPSE
  5
162
330
75
100
AcDbEntity
  8
4221039_0__SIEB_
  6
Continuous
 62
     7
100
AcDbEllipse
 10
54.7153672834
 20
561.9321117837
 30
0.0
 11
-0.08660254037843847
 21
0.08660254037845538
 31
0.0
210
0.0
220
0.0
230
0.9999999999999998
 40
0.5773502692
 41
2.094395102393939
 42
2.617993877990242
  0
ELLIPSE
  5
163
330
75
100
AcDbEntity
  8
4221039_0__SIEB_
  6
Continuous
 62
     7
100
AcDbEllipse
 10
54.7153672834
 20
561.9321117837
 30
0.0
 11
-0.08660254037842459
 21
-0.08660254037851089
 31
0.0
210
0.0
220
0.0
230
1.0
 40
0.5773502692
 41
1.047197551196614
 42
2.617993877990221
  0
ELLIPSE
  5
164
330
75
100
AcDbEntity
  8
4221039_0__SIEB_
  6
Continuous
 62
     7
100
AcDbEllipse
 10
56.2510815691
 20
561.9321117837
 30
0.0
 11
0.08660254037843587
 21
-0.08660254037845538
 31
0.0
210
0.0
220
0.0
230
1.0
 40
0.5773502692
 41
3.665191429187388
 42
5.235987755983323
  0
ELLIPSE
  5
165
330
75
100
AcDbEntity
  8
4221039_0__SIEB_
  6
Continuous
 62
     7
100
AcDbEllipse
 10
56.2510815691
 20
561.9321117837
 30
0.0
 11
0.08660254037843285
 21
0.08660254037848315
 31
0.0
210
0.0
220
0.0
230
1.0
 40
0.5773502692
 41
3.66519142918732
 42
4.18879020478613
  0
ELLIPSE
  5
166
330
75
100
AcDbEntity
  8
4221039_0__SIEB_
  6
Continuous
 62
     7
100
AcDbEllipse
 10
53.1796529977
 20
561.9321117837
 30
0.0
 11
-0.08660254037843304
 21
0.08660254037848315
 31
0.0
210
0.0
220
0.0
230
1.0
 40
0.5773502692
 41
2.09439510239336
 42
2.617993877990376
  0
ELLIPSE
  5
167
330
75
100
AcDbEntity
  8
4221039_0__SIEB_
  6
Continuous
 62
     7
100
AcDbEllipse
 10
53.1796529977
 20
561.9321117837
 30
0.0
 11
-0.08660254037843663
 21
-0.0866025403784554
 31
0.0
210
0.0
220
0.0
230
0.9999999999999998
 40
0.5773502692
 41
1.047197551196269
 42
2.617993877990962
  0
ELLIPSE
  5
168
330
75
100
AcDbEntity
  8
4221039_0__SIEB_
  6
Continuous
 62
     7
100
AcDbEllipse
 10
54.7153672834
 20
561.9321117837
 30
0.0
 11
0.08660254037843847
 21
-0.08660254037845538
 31
0.0
210
0.0
220
0.0
230
1.0
 40
0.5773502692
 41
3.665191429187405
 42
5.235987755983732
  0
ELLIPSE
  5
169
330
75
100
AcDbEntity
  8
4221039_0__SIEB_
  6
Continuous
 62
     7
100
AcDbEllipse
 10
54.7153672834
 20
561.9321117837
 30
0.0
 11
0.08660254037845236
 21
0.0866025403784554
 31
0.0
210
0.0
220
0.0
230
1.0
 40
0.5773502692
 41
3.665191429186739
 42
4.188790204786024
  0
ELLIPSE
  5
16A
330
75
100
AcDbEntity
  8
4221039_0__SIEB_
  6
Continuous
 62
     7
100
AcDbEllipse
 10
51.643938712
 20
561.9321117837
 30
0.0
 11
-0.0866025403784311
 21
0.08660254037848314
 31
0.0
210
0.0
220
0.0
230
1.0
 40
0.5773502692
 41
2.09439510239342
 42
2.617993877990238
  0
ELLIPSE
  5
16B
330
75
100
AcDbEntity
  8
4221039_0__SIEB_
  6
Continuous
 62
     7
100
AcDbEllipse
 10
51.643938712
 20
561.9321117837
 30
0.0
 11
-0.08660254037843847
 21
-0.08660254037845538
 31
0.0
210
0.0
220
0.0
230
0.9999999999999998
 40
0.5773502692
 41
1.047197551196328
 42
2.617993877990868
  0
ELLIPSE
  5
16C
330
75
100
AcDbEntity
  8
4221039_0__SIEB_
  6
Continuous
 62
     7
100
AcDbEllipse
 10
53.1796529977
 20
561.9321117837
 30
0.0
 11
0.08660254037844375
 21
-0.08660254037842763
 31
0.0
210
0.0
220
0.0
230
0.9999999999999998
 40
0.5773502692
 41
3.665191429187152
 42
5.235987755982465
  0
ELLIPSE
  5
16D
330
75
100
AcDbEntity
  8
4221039_0__SIEB_
  6
Continuous
 62
     7
100
AcDbEllipse
 10
53.1796529977
 20
561.9321117837
 30
0.0
 11
0.08660254037844509
 21
0.08660254037845538
 31
0.0
210
0.0
220
0.0
230
1.0
 40
0.5773502692
 41
3.665191429186724
 42
4.188790204786023
  0
ELLIPSE
  5
16E
330
75
100
AcDbEntity
  8
4221039_0__SIEB_
  6
Continuous
 62
     7
100
AcDbEllipse
 10
50.1082244262
 20
561.9321117837
 30
0.0
 11
-0.08660254037845236
 21
0.0866025403784554
 31
0.0
210
0.0
220
0.0
230
1.0
 40
0.5773502692
 41
2.094395102393562
 42
2.617993877991206
  0
ELLIPSE
  5
16F
330
75
100
AcDbEntity
  8
4221039_0__SIEB_
  6
Continuous
 62
     7
100
AcDbEllipse
 10
50.1082244262
 20
561.9321117837
 30
0.0
 11
-0.0866025403784441
 21
-0.08660254037842761
 31
0.0
210
0.0
220
0.0
230
1.0
 40
0.5773502692
 41
1.047197551197076
 42
2.617993877989888
  0
ELLIPSE
  5
170
330
75
100
AcDbEntity
  8
4221039_0__SIEB_
  6
Continuous
 62
     7
100
AcDbEllipse
 10
51.643938712
 20
561.9321117837
 30
0.0
 11
0.08660254037843673
 21
-0.08660254037845538
 31
0.0
210
0.0
220
0.0
230
1.0
 40
0.5773502692
 41
3.665191429187476
 42
5.235987755983317
  0
ELLIPSE
  5
171
330
75
100
AcDbEntity
  8
4221039_0__SIEB_
  6
Continuous
 62
     7
100
AcDbEllipse
 10
51.643938712
 20
561.9321117837
 30
0.0
 11
0.08660254037843847
 21
0.08660254037845538
 31
0.0
210
0.0
220
0.0
230
0.9999999999999998
 40
0.5773502692
 41
3.6651914291868
 42
4.188790204786121
  0
ELLIPSE
  5
172
330
75
100
AcDbEntity
  8
4221039_0__SIEB_
  6
Continuous
 62
     7
100
AcDbEllipse
 10
48.5725101405
 20
561.9321117837
 30
0.0
 11
-0.08660254037842589
 21
0.08660254037851089
 31
0.0
210
0.0
220
0.0
230
1.0
 40
0.5773502692
 41
2.094395102393123
 42
2.617993877991188
  0
ELLIPSE
  5
173
330
75
100
AcDbEntity
  8
4221039_0__SIEB_
  6
Continuous
 62
     7
100
AcDbEllipse
 10
48.5725101405
 20
561.9321117837
 30
0.0
 11
-0.0866025403784389
 21
-0.08660254037845538
 31
0.0
210
0.0
220
0.0
230
1.0
 40
0.5773502692
 41
1.047197551196331
 42
2.617993877990866
  0
ELLIPSE
  5
174
330
75
100
AcDbEntity
  8
4221039_0__SIEB_
  6
Continuous
 62
     7
100
AcDbEllipse
 10
50.1082244262
 20
561.9321117837
 30
0.0
 11
0.08660254037842459
 21
-0.08660254037851089
 31
0.0
210
0.0
220
0.0
230
1.0
 40
0.5773502692
 41
3.665191429188052
 42
5.235987755982924
  0
ELLIPSE
  5
175
330
75
100
AcDbEntity
  8
4221039_0__SIEB_
  6
Continuous
 62
     7
100
AcDbEllipse
 10
50.1082244262
 20
561.9321117837
 30
0.0
 11
0.08660254037843285
 21
0.08660254037848315
 31
0.0
210
0.0
220
0.0
230
1.0
 40
0.5773502692
 41
3.665191429187238
 42
4.18879020478613
  0
ELLIPSE
  5
176
330
75
100
AcDbEntity
  8
4221039_0__SIEB_
  6
Continuous
 62
     7
100
AcDbEllipse
 10
47.0367958548
 20
561.9321117837
 30
0.0
 11
-0.08660254037845105
 21
0.08660254037845538
 31
0.0
210
0.0
220
0.0
230
1.0
 40
0.5773502692
 41
2.094395102393571
 42
2.617993877990895
  0
ELLIPSE
  5
177
330
75
100
AcDbEntity
  8
4221039_0__SIEB_
  6
Continuous
 62
     7
100
AcDbEllipse
 10
47.0367958548
 20
561.9321117837
 30
0.0
 11
-0.0866025403784389
 21
-0.08660254037845538
 31
0.0
210
0.0
220
0.0
230
1.0
 40
0.5773502692
 41
1.047197551196283
 42
2.617993877990866
  0
ELLIPSE
  5
178
330
75
100
AcDbEntity
  8
4221039_0__SIEB_
  6
Continuous
 62
     7
100
AcDbEllipse
 10
48.5725101405
 20
561.9321117837
 30
0.0
 11
0.08660254037842763
 21
-0.08660254037845538
 31
0.0
210
0.0
220
0.0
230
1.0
 40
0.5773502692
 41
3.665191429187251
 42
5.235987755982288
  0
ELLIPSE
  5
179
330
75
100
AcDbEntity
  8
4221039_0__SIEB_
  6
Continuous
 62
     7
100
AcDbEllipse
 10
48.5725101405
 20
561.9321117837
 30
0.0
 11
0.0866025403784389
 21
0.08660254037845538
 31
0.0
210
0.0
220
0.0
230
1.0
 40
0.5773502692
 41
3.66519142918656
 42
4.188790204786124
  0
ELLIPSE
  5
17A
330
75
100
AcDbEntity
  8
4221039_0__SIEB_
  6
Continuous
 62
     7
100
AcDbEllipse
 10
45.5010815691
 20
561.9321117837
 30
0.0
 11
-0.08660254037843196
 21
0.08660254037848314
 31
0.0
210
0.0
220
0.0
230
0.9999999999999998
 40
0.5773502692
 41
2.094395102393367
 42
2.617993877990308
  0
ELLIPSE
  5
17B
330
75
100
AcDbEntity
  8
4221039_0__SIEB_
  6
Continuous
 62
     7
100
AcDbEllipse
 10
45.5010815691
 20
561.9321117837
 30
0.0
 11
-0.08660254037845712
 21
-0.08660254037842763
 31
0.0
210
0.0
220
0.0
230
1.0
 40
0.5773502692
 41
1.047197551197115
 42
2.617993877991196
  0
ELLIPSE
  5
17C
330
75
100
AcDbEntity
  8
4221039_0__SIEB_
  6
Continuous
 62
     7
100
AcDbEllipse
 10
47.0367958548
 20
561.9321117837
 30
0.0
 11
0.08660254037842502
 21
-0.08660254037851089
 31
0.0
210
0.0
220
0.0
230
0.9999999999999998
 40
0.5773502692
 41
3.665191429188056
 42
5.235987755982921
  0
ELLIPSE
  5
17D
330
75
100
AcDbEntity
  8
4221039_0__SIEB_
  6
Continuous
 62
     7
100
AcDbEllipse
 10
47.0367958548
 20
561.9321117837
 30
0.0
 11
0.08660254037843977
 21
0.08660254037845538
 31
0.0
210
0.0
220
0.0
230
1.0
 40
0.5773502692
 41
3.665191429186736
 42
4.188790204786082
  0
ELLIPSE
  5
17E
330
75
100
AcDbEntity
  8
4221039_0__SIEB_
  6
Continuous
 62
     7
100
AcDbEllipse
 10
45.5010815691
 20
561.9321117837
 30
0.0
 11
0.08660254037844324
 21
-0.08660254037842763
 31
0.0
210
0.0
220
0.0
230
1.0
 40
0.5773502692
 41
3.665191429187149
 42
5.235987755982468
  0
ELLIPSE
  5
17F
330
75
100
AcDbEntity
  8
4221039_0__SIEB_
  6
Continuous
 62
     7
100
AcDbEllipse
 10
45.5010815691
 20
561.9321117837
 30
0.0
 11
0.08660254037844758
 21
0.08660254037842763
 31
0.0
210
0.0
220
0.0
230
0.9999999999999998
 40
0.5773502692
 41
3.665191429187393
 42
4.188790204786892
  0
ELLIPSE
  5
180
330
75
100
AcDbEntity
  8
4221039_0__SIEB_
  6
Continuous
 62
     7
100
AcDbEllipse
 10
45.5010815691
 20
561.1642546408
 30
0.0
 11
0.0866025403784389
 21
-0.08660254037845538
 31
0.0
210
0.0
220
0.0
230
1.0
 40
0.5773502692
 41
3.665191429187408
 42
5.235987755983729
  0
ELLIPSE
  5
181
330
75
100
AcDbEntity
  8
4221039_0__SIEB_
  6
Continuous
 62
     7
100
AcDbEllipse
 10
45.5010815691
 20
561.1642546408
 30
0.0
 11
0.08660254037843805
 21
0.0866025403784554
 31
0.0
210
0.0
220
0.0
230
1.0
 40
0.5773502692
 41
3.66519142918663
 42
4.188790204786118
  0
ELLIPSE
  5
182
330
75
100
AcDbEntity
  8
4221039_0__SIEB_
  6
Continuous
 62
     7
100
AcDbEllipse
 10
45.5010815691
 20
561.1642546408
 30
0.0
 11
-0.08660254037842328
 21
0.08660254037851088
 31
0.0
210
0.0
220
0.0
230
1.0
 40
0.5773502692
 41
2.094395102393187
 42
2.617993877991224
  0
ELLIPSE
  5
183
330
75
100
AcDbEntity
  8
4221039_0__SIEB_
  6
Continuous
 62
     7
100
AcDbEllipse
 10
45.5010815691
 20
561.1642546408
 30
0.0
 11
-0.08660254037843977
 21
-0.08660254037845538
 31
0.0
210
0.0
220
0.0
230
1.0
 40
0.5773502692
 41
1.047197551196337
 42
2.617993877990942
  0
ELLIPSE
  5
184
330
75
100
AcDbEntity
  8
4221039_0__SIEB_
  6
Continuous
 62
     7
100
AcDbEllipse
 10
47.0367958548
 20
561.1642546408
 30
0.0
 11
0.08660254037844584
 21
-0.08660254037845538
 31
0.0
210
0.0
220
0.0
230
1.0
 40
0.5773502692
 41
3.665191429188767
 42
5.23598775598392
  0
ELLIPSE
  5
185
330
75
100
AcDbEntity
  8
4221039_0__SIEB_
  6
Continuous
 62
     7
100
AcDbEllipse
 10
47.0367958548
 20
561.1642546408
 30
0.0
 11
0.08660254037843805
 21
0.0866025403784554
 31
0.0
210
0.0
220
0.0
230
1.0
 40
0.5773502692
 41
3.665191429187533
 42
4.188790204786071
  0
ELLIPSE
  5
186
330
75
100
AcDbEntity
  8
4221039_0__SIEB_
  6
Continuous
 62
     7
100
AcDbEllipse
 10
47.0367958548
 20
561.1642546408
 30
0.0
 11
-0.08660254037843805
 21
0.0866025403784554
 31
0.0
210
0.0
220
0.0
230
1.0
 40
0.5773502692
 41
2.094395102394131
 42
2.617993877991069
  0
ELLIPSE
  5
187
330
75
100
AcDbEntity
  8
4221039_0__SIEB_
  6
Continuous
 62
     7
100
AcDbEllipse
 10
47.0367958548
 20
561.1642546408
 30
0.0
 11
-0.0866025403784389
 21
-0.08660254037845538
 31
0.0
210
0.0
220
0.0
230
1.0
 40
0.5773502692
 41
1.047197551196283
 42
2.617993877990866
  0
ELLIPSE
  5
188
330
75
100
AcDbEntity
  8
4221039_0__SIEB_
  6
Continuous
 62
     7
100
AcDbEllipse
 10
48.5725101405
 20
561.1642546408
 30
0.0
 11
0.0866025403784389
 21
-0.08660254037845538
 31
0.0
210
0.0
220
0.0
230
1.0
 40
0.5773502692
 41
3.665191429187326
 42
5.235987755983255
  0
ELLIPSE
  5
189
330
75
100
AcDbEntity
  8
4221039_0__SIEB_
  6
Continuous
 62
     7
100
AcDbEllipse
 10
48.5725101405
 20
561.1642546408
 30
0.0
 11
0.08660254037843718
 21
0.08660254037845538
 31
0.0
210
0.0
220
0.0
230
1.0
 40
0.5773502692
 41
3.665191429187194
 42
4.188790204785922
  0
ELLIPSE
  5
18A
330
75
100
AcDbEntity
  8
4221039_0__SIEB_
  6
Continuous
 62
     7
100
AcDbEllipse
 10
48.5725101405
 20
561.1642546408
 30
0.0
 11
-0.08660254037843805
 21
0.0866025403784554
 31
0.0
210
0.0
220
0.0
230
1.0
 40
0.5773502692
 41
2.094395102393468
 42
2.617993877992546
  0
ELLIPSE
  5
18B
330
75
100
AcDbEntity
  8
4221039_0__SIEB_
  6
Continuous
 62
     7
100
AcDbEllipse
 10
48.5725101405
 20
561.1642546408
 30
0.0
 11
-0.08660254037844499
 21
-0.08660254037842764
 31
0.0
210
0.0
220
0.0
230
1.0
 40
0.5773502692
 41
1.047197551196135
 42
2.6179938779898
  0
ELLIPSE
  5
18C
330
75
100
AcDbEntity
  8
4221039_0__SIEB_
  6
Continuous
 62
     7
100
AcDbEllipse
 10
50.1082244262
 20
561.1642546408
 30
0.0
 11
0.08660254037843847
 21
-0.08660254037845538
 31
0.0
210
0.0
220
0.0
230
1.0
 40
0.5773502692
 41
3.665191429187405
 42
5.235987755983211
  0
ELLIPSE
  5
18D
330
75
100
AcDbEntity
  8
4221039_0__SIEB_
  6
Continuous
 62
     7
100
AcDbEllipse
 10
50.1082244262
 20
561.1642546408
 30
0.0
 11
0.08660254037843934
 21
0.08660254037845538
 31
0.0
210
0.0
220
0.0
230
1.0
 40
0.5773502692
 41
3.665191429187715
 42
4.188790204786127
  0
ELLIPSE
  5
18E
330
75
100
AcDbEntity
  8
4221039_0__SIEB_
  6
Continuous
 62
     7
100
AcDbEllipse
 10
50.1082244262
 20
561.1642546408
 30
0.0
 11
-0.08660254037843847
 21
0.08660254037845538
 31
0.0
210
0.0
220
0.0
230
0.9999999999999998
 40
0.5773502692
 41
2.094395102393418
 42
2.617993877992704
  0
ELLIPSE
  5
18F
330
75
100
AcDbEntity
  8
4221039_0__SIEB_
  6
Continuous
 62
     7
100
AcDbEllipse
 10
50.1082244262
 20
561.1642546408
 30
0.0
 11
-0.08660254037843847
 21
-0.08660254037845538
 31
0.0
210
0.0
220
0.0
230
0.9999999999999998
 40
0.5773502692
 41
1.047197551196328
 42
2.617993877990868
  0
ELLIPSE
  5
190
330
75
100
AcDbEntity
  8
4221039_0__SIEB_
  6
Continuous
 62
     7
100
AcDbEllipse
 10
51.643938712
 20
561.1642546408
 30
0.0
 11
0.08660254037843847
 21
-0.08660254037845538
 31
0.0
210
0.0
220
0.0
230
1.0
 40
0.5773502692
 41
3.665191429188718
 42
5.235987755983732
  0
ELLIPSE
  5
191
330
75
100
AcDbEntity
  8
4221039_0__SIEB_
  6
Continuous
 62
     7
100
AcDbEllipse
 10
51.643938712
 20
561.1642546408
 30
0.0
 11
0.08660254037844541
 21
0.08660254037845538
 31
0.0
210
0.0
220
0.0
230
1.0
 40
0.5773502692
 41
3.665191429187878
 42
4.188790204786025
  0
ELLIPSE
  5
192
330
75
100
AcDbEntity
  8
4221039_0__SIEB_
  6
Continuous
 62
     7
100
AcDbEllipse
 10
51.643938712
 20
561.1642546408
 30
0.0
 11
-0.08660254037842459
 21
0.08660254037851089
 31
0.0
210
0.0
220
0.0
230
1.0
 40
0.5773502692
 41
2.094395102393131
 42
2.617993877991535
  0
ELLIPSE
  5
193
330
75
100
AcDbEntity
  8
4221039_0__SIEB_
  6
Continuous
 62
     7
100
AcDbEllipse
 10
51.643938712
 20
561.1642546408
 30
0.0
 11
-0.08660254037843673
 21
-0.08660254037845538
 31
0.0
210
0.0
220
0.0
230
1.0
 40
0.5773502692
 41
1.047197551196269
 42
2.61799387799088
  0
ELLIPSE
  5
194
330
75
100
AcDbEntity
  8
4221039_0__SIEB_
  6
Continuous
 62
     7
100
AcDbEllipse
 10
53.1796529977
 20
561.1642546408
 30
0.0
 11
0.08660254037843652
 21
-0.08660254037845538
 31
0.0
210
0.0
220
0.0
230
1.0
 40
0.5773502692
 41
3.665191429187475
 42
5.235987755983792
  0
ELLIPSE
  5
195
330
75
100
AcDbEntity
  8
4221039_0__SIEB_
  6
Continuous
 62
     7
100
AcDbEllipse
 10
53.1796529977
 20
561.1642546408
 30
0.0
 11
0.08660254037843844
 21
0.08660254037845538
 31
0.0
210
0.0
220
0.0
230
0.9999999999999998
 40
0.5773502692
 41
3.665191429187949
 42
4.188790204786121
  0
ELLIPSE
  5
196
330
75
100
AcDbEntity
  8
4221039_0__SIEB_
  6
Continuous
 62
     7
100
AcDbEllipse
 10
53.1796529977
 20
561.1642546408
 30
0.0
 11
-0.08660254037844509
 21
0.08660254037842763
 31
0.0
210
0.0
220
0.0
230
0.9999999999999998
 40
0.5773502692
 41
2.094395102392758
 42
2.617993877991488
  0
ELLIPSE
  5
197
330
75
100
AcDbEntity
  8
4221039_0__SIEB_
  6
Continuous
 62
     7
100
AcDbEllipse
 10
53.1796529977
 20
561.1642546408
 30
0.0
 11
-0.08660254037843847
 21
-0.08660254037845538
 31
0.0
210
0.0
220
0.0
230
0.9999999999999998
 40
0.5773502692
 41
1.047197551196328
 42
2.61799387799095
  0
ELLIPSE
  5
198
330
75
100
AcDbEntity
  8
4221039_0__SIEB_
  6
Continuous
 62
     7
100
AcDbEllipse
 10
54.7153672834
 20
561.1642546408
 30
0.0
 11
0.08660254037843847
 21
-0.08660254037845538
 31
0.0
210
0.0
220
0.0
230
1.0
 40
0.5773502692
 41
3.665191429187405
 42
5.235987755983258
  0
ELLIPSE
  5
199
330
75
100
AcDbEntity
  8
4221039_0__SIEB_
  6
Continuous
 62
     7
100
AcDbEllipse
 10
54.7153672834
 20
561.1642546408
 30
0.0
 11
0.08660254037843805
 21
0.0866025403784554
 31
0.0
210
0.0
220
0.0
230
1.0
 40
0.5773502692
 41
3.665191429187533
 42
4.188790204786071
  0
ELLIPSE
  5
19A
330
75
100
AcDbEntity
  8
4221039_0__SIEB_
  6
Continuous
 62
     7
100
AcDbEllipse
 10
54.7153672834
 20
561.1642546408
 30
0.0
 11
-0.08660254037843847
 21
0.08660254037845538
 31
0.0
210
0.0
220
0.0
230
0.9999999999999998
 40
0.5773502692
 41
2.094395102393465
 42
2.617993877992704
  0
ELLIPSE
  5
19B
330
75
100
AcDbEntity
  8
4221039_0__SIEB_
  6
Continuous
 62
     7
100
AcDbEllipse
 10
54.7153672834
 20
561.1642546408
 30
0.0
 11
-0.08660254037843826
 21
-0.08660254037845538
 31
0.0
210
0.0
220
0.0
230
1.0
 40
0.5773502692
 41
1.047197551196279
 42
2.61799387799087
  0
ELLIPSE
  5
19C
330
75
100
AcDbEntity
  8
4221039_0__SIEB_
  6
Continuous
 62
     7
100
AcDbEllipse
 10
56.2510815691
 20
561.1642546408
 30
0.0
 11
0.08660254037843847
 21
-0.08660254037845538
 31
0.0
210
0.0
220
0.0
230
1.0
 40
0.5773502692
 41
3.665191429188636
 42
5.235987755983732
  0
ELLIPSE
  5
19D
330
75
100
AcDbEntity
  8
4221039_0__SIEB_
  6
Continuous
 62
     7
100
AcDbEllipse
 10
56.2510815691
 20
561.1642546408
 30
0.0
 11
0.08660254037844541
 21
0.08660254037842763
 31
0.0
210
0.0
220
0.0
230
1.0
 40
0.5773502692
 41
3.665191429187364
 42
4.18879020478683
  0
ELLIPSE
  5
19E
330
75
100
AcDbEntity
  8
4221039_0__SIEB_
  6
Continuous
 62
     7
100
AcDbEllipse
 10
56.2510815691
 20
561.1642546408
 30
0.0
 11
-0.08660254037842459
 21
0.08660254037851089
 31
0.0
210
0.0
220
0.0
230
1.0
 40
0.5773502692
 41
2.094395102393131
 42
2.617993877991535
  0
ELLIPSE
  5
19F
330
75
100
AcDbEntity
  8
4221039_0__SIEB_
  6
Continuous
 62
     7
100
AcDbEllipse
 10
56.2510815691
 20
561.1642546408
 30
0.0
 11
-0.08660254037843587
 21
-0.08660254037845538
 31
0.0
210
0.0
220
0.0
230
1.0
 40
0.5773502692
 41
1.047197551196263
 42
2.617993877990803
  0
ELLIPSE
  5
1A0
330
75
100
AcDbEntity
  8
4221039_0__SIEB_
  6
Continuous
 62
     7
100
AcDbEllipse
 10
57.7867958548
 20
561.1642546408
 30
0.0
 11
0.08660254037843718
 21
-0.08660254037845538
 31
0.0
210
0.0
220
0.0
230
1.0
 40
0.5773502692
 41
3.665191429187479
 42
5.235987755983787
  0
ELLIPSE
  5
1A1
330
75
100
AcDbEntity
  8
4221039_0__SIEB_
  6
Continuous
 62
     7
100
AcDbEllipse
 10
57.7867958548
 20
561.1642546408
 30
0.0
 11
0.08660254037843805
 21
0.0866025403784554
 31
0.0
210
0.0
220
0.0
230
1.0
 40
0.5773502692
 41
3.665191429187697
 42
4.188790204786118
  0
ELLIPSE
  5
1A2
330
75
100
AcDbEntity
  8
4221039_0__SIEB_
  6
Continuous
 62
     7
100
AcDbEllipse
 10
57.7867958548
 20
561.1642546408
 30
0.0
 11
-0.08660254037844584
 21
0.08660254037845538
 31
0.0
210
0.0
220
0.0
230
1.0
 40
0.5773502692
 41
2.094395102393984
 42
2.617993877990965
  0
ELLIPSE
  5
1A3
330
75
100
AcDbEntity
  8
4221039_0__SIEB_
  6
Continuous
 62
     7
100
AcDbEllipse
 10
57.7867958548
 20
561.1642546408
 30
0.0
 11
-0.0866025403784389
 21
-0.08660254037845538
 31
0.0
210
0.0
220
0.0
230
1.0
 40
0.5773502692
 41
1.047197551196331
 42
2.617993877990866
  0
ELLIPSE
  5
1A4
330
75
100
AcDbEntity
  8
4221039_0__SIEB_
  6
Continuous
 62
     7
100
AcDbEllipse
 10
59.3225101405
 20
561.1642546408
 30
0.0
 11
0.0866025403784389
 21
-0.08660254037845538
 31
0.0
210
0.0
220
0.0
230
1.0
 40
0.5773502692
 41
3.665191429188721
 42
5.235987755983729
  0
ELLIPSE
  5
1A5
330
75
100
AcDbEntity
  8
4221039_0__SIEB_
  6
Continuous
 62
     7
100
AcDbEllipse
 10
59.3225101405
 20
561.1642546408
 30
0.0
 11
0.08660254037843977
 21
0.08660254037845538
 31
0.0
210
0.0
220
0.0
230
1.0
 40
0.5773502692
 41
3.665191429187967
 42
4.18879020478613
  0
ELLIPSE
  5
1A6
330
75
100
AcDbEntity
  8
4221039_0__SIEB_
  6
Continuous
 62
     7
100
AcDbEllipse
 10
59.3225101405
 20
561.1642546408
 30
0.0
 11
-0.08660254037842414
 21
0.08660254037851088
 31
0.0
210
0.0
220
0.0
230
1.0
 40
0.5773502692
 41
2.094395102393134
 42
2.61799387799154
  0
ELLIPSE
  5
1A7
330
75
100
AcDbEntity
  8
4221039_0__SIEB_
  6
Continuous
 62
     7
100
AcDbEllipse
 10
59.3225101405
 20
561.1642546408
 30
0.0
 11
-0.08660254037843718
 21
-0.08660254037845538
 31
0.0
210
0.0
220
0.0
230
1.0
 40
0.5773502692
 41
1.04719755119632
 42
2.617993877990795
  0
ELLIPSE
  5
1A8
330
75
100
AcDbEntity
  8
4221039_0__SIEB_
  6
Continuous
 62
     7
100
AcDbEllipse
 10
60.8582244262
 20
561.1642546408
 30
0.0
 11
0.0866025403784311
 21
-0.08660254037848314
 31
0.0
210
0.0
220
0.0
230
1.0
 40
0.5773502692
 41
3.665191429189039
 42
5.235987755983118
  0
ELLIPSE
  5
1A9
330
75
100
AcDbEntity
  8
4221039_0__SIEB_
  6
Continuous
 62
     7
100
AcDbEllipse
 10
60.8582244262
 20
561.1642546408
 30
0.0
 11
0.08660254037843805
 21
0.0866025403784554
 31
0.0
210
0.0
220
0.0
230
1.0
 40
0.5773502692
 41
3.665191429187615
 42
4.188790204786118
  0
ELLIPSE
  5
1AA
330
75
100
AcDbEntity
  8
4221039_0__SIEB_
  6
Continuous
 62
     7
100
AcDbEllipse
 10
60.8582244262
 20
561.1642546408
 30
0.0
 11
-0.0866025403784363
 21
0.08660254037845538
 31
0.0
210
0.0
220
0.0
230
1.0
 40
0.5773502692
 41
2.094395102393669
 42
2.617993877992897
  0
ELLIPSE
  5
1AB
330
75
100
AcDbEntity
  8
4221039_0__SIEB_
  6
Continuous
 62
     7
100
AcDbEllipse
 10
60.8582244262
 20
561.1642546408
 30
0.0
 11
-0.0866025403784363
 21
-0.08660254037845538
 31
0.0
210
0.0
220
0.0
230
1.0
 40
0.5773502692
 41
1.047197551196314
 42
2.617993877990965
  0
ELLIPSE
  5
1AC
330
75
100
AcDbEntity
  8
4221039_0__SIEB_
  6
Continuous
 62
     7
100
AcDbEllipse
 10
60.8582244262
 20
560.396397498
 30
0.0
 11
-0.08660254037843805
 21
0.0866025403784554
 31
0.0
210
0.0
220
0.0
230
1.0
 40
0.5773502692
 41
2.094395102393942
 42
2.617993877991151
  0
ELLIPSE
  5
1AD
330
75
100
AcDbEntity
  8
4221039_0__SIEB_
  6
Continuous
 62
     7
100
AcDbEllipse
 10
60.8582244262
 20
560.396397498
 30
0.0
 11
-0.08660254037842589
 21
-0.08660254037851089
 31
0.0
210
0.0
220
0.0
230
1.0
 40
0.5773502692
 41
1.04719755119667
 42
2.617993877988899
  0
ELLIPSE
  5
1AE
330
75
100
AcDbEntity
  8
4221039_0__SIEB_
  6
Continuous
 62
     7
100
AcDbEllipse
 10
59.3225101405
 20
560.396397498
 30
0.0
 11
-0.0866025403784311
 21
0.08660254037848314
 31
0.0
210
0.0
220
0.0
230
1.0
 40
0.5773502692
 41
2.09439510239394
 42
2.617993877991633
  0
ELLIPSE
  5
1AF
330
75
100
AcDbEntity
  8
4221039_0__SIEB_
  6
Continuous
 62
     7
100
AcDbEllipse
 10
59.3225101405
 20
560.396397498
 30
0.0
 11
-0.08660254037843718
 21
-0.08660254037845538
 31
0.0
210
0.0
220
0.0
230
1.0
 40
0.5773502692
 41
1.047197551195798
 42
2.617993877990876
  0
ELLIPSE
  5
1B0
330
75
100
AcDbEntity
  8
4221039_0__SIEB_
  6
Continuous
 62
     7
100
AcDbEllipse
 10
60.8582244262
 20
560.396397498
 30
0.0
 11
0.08660254037843805
 21
-0.0866025403784554
 31
0.0
210
0.0
220
0.0
230
1.0
 40
0.5773502692
 41
3.665191429188715
 42
5.235987755983782
  0
ELLIPSE
  5
1B1
330
75
100
AcDbEntity
  8
4221039_0__SIEB_
  6
Continuous
 62
     7
100
AcDbEllipse
 10
60.8582244262
 20
560.396397498
 30
0.0
 11
0.08660254037843805
 21
0.0866025403784554
 31
0.0
210
0.0
220
0.0
230
0.9999999999999998
 40
0.5773502692
 41
3.665191429187861
 42
4.188790204785597
  0
ELLIPSE
  5
1B2
330
75
100
AcDbEntity
  8
4221039_0__SIEB_
  6
Continuous
 62
     7
100
AcDbEllipse
 10
57.7867958548
 20
560.396397498
 30
0.0
 11
-0.08660254037845279
 21
0.0866025403784554
 31
0.0
210
0.0
220
0.0
230
0.9999999999999998
 40
0.5773502692
 41
2.09439510239408
 42
2.617993877991037
  0
ELLIPSE
  5
1B3
330
75
100
AcDbEntity
  8
4221039_0__SIEB_
  6
Continuous
 62
     7
100
AcDbEllipse
 10
57.7867958548
 20
560.396397498
 30
0.0
 11
-0.08660254037843718
 21
-0.08660254037845538
 31
0.0
210
0.0
220
0.0
230
1.0
 40
0.5773502692
 41
1.047197551195798
 42
2.617993877989564
  0
ELLIPSE
  5
1B4
330
75
100
AcDbEntity
  8
4221039_0__SIEB_
  6
Continuous
 62
     7
100
AcDbEllipse
 10
59.3225101405
 20
560.396397498
 30
0.0
 11
0.08660254037843718
 21
-0.08660254037845538
 31
0.0
210
0.0
220
0.0
230
1.0
 40
0.5773502692
 41
3.665191429188792
 42
5.235987755983787
  0
ELLIPSE
  5
1B5
330
75
100
AcDbEntity
  8
4221039_0__SIEB_
  6
Continuous
 62
     7
100
AcDbEllipse
 10
59.3225101405
 20
560.396397498
 30
0.0
 11
0.08660254037843977
 21
0.08660254037845538
 31
0.0
210
0.0
220
0.0
230
1.0
 40
0.5773502692
 41
3.665191429187967
 42
4.188790204785609
  0
ELLIPSE
  5
1B6
330
75
100
AcDbEntity
  8
4221039_0__SIEB_
  6
Continuous
 62
     7
100
AcDbEllipse
 10
56.2510815691
 20
560.396397498
 30
0.0
 11
-0.0866025403784311
 21
0.08660254037845538
 31
0.0
210
0.0
220
0.0
230
1.0
 40
0.5773502692
 41
2.094395102393988
 42
2.617993877991899
  0
ELLIPSE
  5
1B7
330
75
100
AcDbEntity
  8
4221039_0__SIEB_
  6
Continuous
 62
     7
100
AcDbEllipse
 10
56.2510815691
 20
560.396397498
 30
0.0
 11
-0.0866025403784363
 21
-0.08660254037845538
 31
0.0
210
0.0
220
0.0
230
1.0
 40
0.5773502692
 41
1.047197551195792
 42
2.61799387798957
  0
ELLIPSE
  5
1B8
330
75
100
AcDbEntity
  8
4221039_0__SIEB_
  6
Continuous
 62
     7
100
AcDbEllipse
 10
57.7867958548
 20
560.396397498
 30
0.0
 11
0.08660254037843805
 21
-0.0866025403784554
 31
0.0
210
0.0
220
0.0
230
1.0
 40
0.5773502692
 41
3.665191429188715
 42
5.235987755983782
  0
ELLIPSE
  5
1B9
330
75
100
AcDbEntity
  8
4221039_0__SIEB_
  6
Continuous
 62
     7
100
AcDbEllipse
 10
57.7867958548
 20
560.396397498
 30
0.0
 11
0.08660254037844584
 21
0.08660254037845538
 31
0.0
210
0.0
220
0.0
230
1.0
 40
0.5773502692
 41
3.665191429186817
 42
4.188790204785555
  0
ELLIPSE
  5
1BA
330
75
100
AcDbEntity
  8
4221039_0__SIEB_
  6
Continuous
 62
     7
100
AcDbEllipse
 10
54.7153672834
 20
560.396397498
 30
0.0
 11
-0.08660254037843847
 21
0.08660254037845538
 31
0.0
210
0.0
220
0.0
230
0.9999999999999998
 40
0.5773502692
 41
2.094395102393939
 42
2.617993877990898
  0
ELLIPSE
  5
1BB
330
75
100
AcDbEntity
  8
4221039_0__SIEB_
  6
Continuous
 62
     7
100
AcDbEllipse
 10
54.7153672834
 20
560.396397498
 30
0.0
 11
-0.08660254037843847
 21
-0.08660254037845538
 31
0.0
210
0.0
220
0.0
230
0.9999999999999998
 40
0.5773502692
 41
1.047197551195807
 42
2.617993877989555
  0
ELLIPSE
  5
1BC
330
75
100
AcDbEntity
  8
4221039_0__SIEB_
  6
Continuous
 62
     7
100
AcDbEllipse
 10
56.2510815691
 20
560.396397498
 30
0.0
 11
0.08660254037843587
 21
-0.08660254037845538
 31
0.0
210
0.0
220
0.0
230
1.0
 40
0.5773502692
 41
3.665191429188701
 42
5.235987755983796
  0
ELLIPSE
  5
1BD
330
75
100
AcDbEntity
  8
4221039_0__SIEB_
  6
Continuous
 62
     7
100
AcDbEllipse
 10
56.2510815691
 20
560.396397498
 30
0.0
 11
0.08660254037844541
 21
0.08660254037845538
 31
0.0
210
0.0
220
0.0
230
1.0
 40
0.5773502692
 41
3.665191429186811
 42
4.188790204785551
  0
ELLIPSE
  5
1BE
330
75
100
AcDbEntity
  8
4221039_0__SIEB_
  6
Continuous
 62
     7
100
AcDbEllipse
 10
53.1796529977
 20
560.396397498
 30
0.0
 11
-0.08660254037843121
 21
0.08660254037848314
 31
0.0
210
0.0
220
0.0
230
1.0
 40
0.5773502692
 41
2.09439510239394
 42
2.617993877991713
  0
ELLIPSE
  5
1BF
330
75
100
AcDbEntity
  8
4221039_0__SIEB_
  6
Continuous
 62
     7
100
AcDbEllipse
 10
53.1796529977
 20
560.396397498
 30
0.0
 11
-0.08660254037843663
 21
-0.0866025403784554
 31
0.0
210
0.0
220
0.0
230
0.9999999999999998
 40
0.5773502692
 41
1.047197551195842
 42
2.617993877989649
  0
ELLIPSE
  5
1C0
330
75
100
AcDbEntity
  8
4221039_0__SIEB_
  6
Continuous
 62
     7
100
AcDbEllipse
 10
54.7153672834
 20
560.396397498
 30
0.0
 11
0.08660254037843847
 21
-0.08660254037845538
 31
0.0
210
0.0
220
0.0
230
1.0
 40
0.5773502692
 41
3.665191429188718
 42
5.235987755983732
  0
ELLIPSE
  5
1C1
330
75
100
AcDbEntity
  8
4221039_0__SIEB_
  6
Continuous
 62
     7
100
AcDbEllipse
 10
54.7153672834
 20
560.396397498
 30
0.0
 11
0.08660254037843847
 21
0.08660254037845538
 31
0.0
210
0.0
220
0.0
230
0.9999999999999998
 40
0.5773502692
 41
3.665191429187703
 42
4.1887902047856
  0
ELLIPSE
  5
1C2
330
75
100
AcDbEntity
  8
4221039_0__SIEB_
  6
Continuous
 62
     7
100
AcDbEllipse
 10
51.643938712
 20
560.396397498
 30
0.0
 11
-0.08660254037843132
 21
0.08660254037845538
 31
0.0
210
0.0
220
0.0
230
0.9999999999999998
 40
0.5773502692
 41
2.094395102394034
 42
2.617993877990502
  0
ELLIPSE
  5
1C3
330
75
100
AcDbEntity
  8
4221039_0__SIEB_
  6
Continuous
 62
     7
100
AcDbEllipse
 10
51.643938712
 20
560.396397498
 30
0.0
 11
-0.08660254037843847
 21
-0.08660254037845538
 31
0.0
210
0.0
220
0.0
230
0.9999999999999998
 40
0.5773502692
 41
1.047197551195807
 42
2.617993877989555
  0
ELLIPSE
  5
1C4
330
75
100
AcDbEntity
  8
4221039_0__SIEB_
  6
Continuous
 62
     7
100
AcDbEllipse
 10
53.1796529977
 20
560.396397498
 30
0.0
 11
0.08660254037843652
 21
-0.08660254037845538
 31
0.0
210
0.0
220
0.0
230
1.0
 40
0.5773502692
 41
3.665191429188787
 42
5.235987755983792
  0
ELLIPSE
  5
1C5
330
75
100
AcDbEntity
  8
4221039_0__SIEB_
  6
Continuous
 62
     7
100
AcDbEllipse
 10
53.1796529977
 20
560.396397498
 30
0.0
 11
0.08660254037844509
 21
0.08660254037845538
 31
0.0
210
0.0
220
0.0
230
1.0
 40
0.5773502692
 41
3.665191429186724
 42
4.188790204785644
  0
ELLIPSE
  5
1C6
330
75
100
AcDbEntity
  8
4221039_0__SIEB_
  6
Continuous
 62
     7
100
AcDbEllipse
 10
50.1082244262
 20
560.396397498
 30
0.0
 11
-0.08660254037843847
 21
0.08660254037845538
 31
0.0
210
0.0
220
0.0
230
0.9999999999999998
 40
0.5773502692
 41
2.094395102393939
 42
2.617993877992539
  0
ELLIPSE
  5
1C7
330
75
100
AcDbEntity
  8
4221039_0__SIEB_
  6
Continuous
 62
     7
100
AcDbEllipse
 10
50.1082244262
 20
560.396397498
 30
0.0
 11
-0.0866025403784363
 21
-0.08660254037845538
 31
0.0
210
0.0
220
0.0
230
1.0
 40
0.5773502692
 41
1.047197551195792
 42
2.61799387798957
  0
ELLIPSE
  5
1C8
330
75
100
AcDbEntity
  8
4221039_0__SIEB_
  6
Continuous
 62
     7
100
AcDbEllipse
 10
51.643938712
 20
560.396397498
 30
0.0
 11
0.08660254037843673
 21
-0.08660254037845538
 31
0.0
210
0.0
220
0.0
230
1.0
 40
0.5773502692
 41
3.665191429188789
 42
5.235987755983791
  0
ELLIPSE
  5
1C9
330
75
100
AcDbEntity
  8
4221039_0__SIEB_
  6
Continuous
 62
     7
100
AcDbEllipse
 10
51.643938712
 20
560.396397498
 30
0.0
 11
0.08660254037843847
 21
0.08660254037845538
 31
0.0
210
0.0
220
0.0
230
0.9999999999999998
 40
0.5773502692
 41
3.6651914291868
 42
4.1887902047856
  0
ELLIPSE
  5
1CA
330
75
100
AcDbEntity
  8
4221039_0__SIEB_
  6
Continuous
 62
     7
100
AcDbEllipse
 10
48.5725101405
 20
560.396397498
 30
0.0
 11
-0.08660254037843718
 21
0.08660254037845538
 31
0.0
210
0.0
220
0.0
230
1.0
 40
0.5773502692
 41
2.094395102393474
 42
2.617993877989931
  0
ELLIPSE
  5
1CB
330
75
100
AcDbEntity
  8
4221039_0__SIEB_
  6
Continuous
 62
     7
100
AcDbEllipse
 10
48.5725101405
 20
560.396397498
 30
0.0
 11
-0.0866025403784389
 21
-0.08660254037845538
 31
0.0
210
0.0
220
0.0
230
1.0
 40
0.5773502692
 41
1.04719755119581
 42
2.617993877989553
  0
ELLIPSE
  5
1CC
330
75
100
AcDbEntity
  8
4221039_0__SIEB_
  6
Continuous
 62
     7
100
AcDbEllipse
 10
50.1082244262
 20
560.396397498
 30
0.0
 11
0.08660254037843847
 21
-0.08660254037845538
 31
0.0
210
0.0
220
0.0
230
1.0
 40
0.5773502692
 41
3.665191429188718
 42
5.235987755983732
  0
ELLIPSE
  5
1CD
330
75
100
AcDbEntity
  8
4221039_0__SIEB_
  6
Continuous
 62
     7
100
AcDbEllipse
 10
50.1082244262
 20
560.396397498
 30
0.0
 11
0.08660254037844541
 21
0.08660254037845538
 31
0.0
210
0.0
220
0.0
230
1.0
 40
0.5773502692
 41
3.665191429186647
 42
4.188790204785551
  0
ELLIPSE
  5
1CE
330
75
100
AcDbEntity
  8
4221039_0__SIEB_
  6
Continuous
 62
     7
100
AcDbEllipse
 10
47.0367958548
 20
560.396397498
 30
0.0
 11
-0.08660254037843977
 21
0.08660254037845538
 31
0.0
210
0.0
220
0.0
230
1.0
 40
0.5773502692
 41
2.09439510239393
 42
2.617993877991045
  0
ELLIPSE
  5
1CF
330
75
100
AcDbEntity
  8
4221039_0__SIEB_
  6
Continuous
 62
     7
100
AcDbEllipse
 10
47.0367958548
 20
560.396397498
 30
0.0
 11
-0.0866025403784389
 21
-0.08660254037845538
 31
0.0
210
0.0
220
0.0
230
1.0
 40
0.5773502692
 41
1.04719755119581
 42
2.617993877989553
  0
ELLIPSE
  5
1D0
330
75
100
AcDbEntity
  8
4221039_0__SIEB_
  6
Continuous
 62
     7
100
AcDbEllipse
 10
48.5725101405
 20
560.396397498
 30
0.0
 11
0.08660254037844843
 21
-0.08660254037845537
 31
0.0
210
0.0
220
0.0
230
1.0
 40
0.5773502692
 41
3.665191429186159
 42
5.235987755983333
  0
ELLIPSE
  5
1D1
330
75
100
AcDbEntity
  8
4221039_0__SIEB_
  6
Continuous
 62
     7
100
AcDbEllipse
 10
48.5725101405
 20
560.396397498
 30
0.0
 11
0.08660254037843805
 21
0.0866025403784554
 31
0.0
210
0.0
220
0.0
230
1.0
 40
0.5773502692
 41
3.665191429187533
 42
4.188790204785597
  0
ELLIPSE
  5
1D2
330
75
100
AcDbEntity
  8
4221039_0__SIEB_
  6
Continuous
 62
     7
100
AcDbEllipse
 10
45.5010815691
 20
560.396397498
 30
0.0
 11
-0.0866025403784311
 21
0.08660254037848314
 31
0.0
210
0.0
220
0.0
230
1.0
 40
0.5773502692
 41
2.09439510239394
 42
2.617993877991633
  0
ELLIPSE
  5
1D3
330
75
100
AcDbEntity
  8
4221039_0__SIEB_
  6
Continuous
 62
     7
100
AcDbEllipse
 10
45.5010815691
 20
560.396397498
 30
0.0
 11
-0.08660254037843718
 21
-0.08660254037845538
 31
0.0
210
0.0
220
0.0
230
1.0
 40
0.5773502692
 41
1.047197551195846
 42
2.617993877989646
  0
ELLIPSE
  5
1D4
330
75
100
AcDbEntity
  8
4221039_0__SIEB_
  6
Continuous
 62
     7
100
AcDbEllipse
 10
47.0367958548
 20
560.396397498
 30
0.0
 11
0.0866025403784389
 21
-0.08660254037845538
 31
0.0
210
0.0
220
0.0
230
1.0
 40
0.5773502692
 41
3.665191429188721
 42
5.235987755983729
  0
ELLIPSE
  5
1D5
330
75
100
AcDbEntity
  8
4221039_0__SIEB_
  6
Continuous
 62
     7
100
AcDbEllipse
 10
47.0367958548
 20
560.396397498
 30
0.0
 11
0.08660254037843977
 21
0.08660254037845538
 31
0.0
210
0.0
220
0.0
230
1.0
 40
0.5773502692
 41
3.665191429187721
 42
4.188790204785609
  0
ELLIPSE
  5
1D6
330
75
100
AcDbEntity
  8
4221039_0__SIEB_
  6
Continuous
 62
     7
100
AcDbEllipse
 10
45.5010815691
 20
560.396397498
 30
0.0
 11
0.08660254037843718
 21
-0.08660254037845538
 31
0.0
210
0.0
220
0.0
230
1.0
 40
0.5773502692
 41
3.665191429188792
 42
5.235987755983787
  0
ELLIPSE
  5
1D7
330
75
100
AcDbEntity
  8
4221039_0__SIEB_
  6
Continuous
 62
     7
100
AcDbEllipse
 10
45.5010815691
 20
560.396397498
 30
0.0
 11
0.08660254037844584
 21
0.08660254037845538
 31
0.0
210
0.0
220
0.0
230
1.0
 40
0.5773502692
 41
3.665191429186735
 42
4.188790204785602
  0
ELLIPSE
  5
1D8
330
75
100
AcDbEntity
  8
4221039_0__SIEB_
  6
Continuous
 62
     7
100
AcDbEllipse
 10
47.0367958548
 20
559.6285403551
 30
0.0
 11
0.08660254037844324
 21
-0.08660254037845538
 31
0.0
210
0.0
220
0.0
230
1.0
 40
0.5773502692
 41
3.66519142918875
 42
5.235987755983463
  0
ELLIPSE
  5
1D9
330
75
100
AcDbEntity
  8
4221039_0__SIEB_
  6
Continuous
 62
     7
100
AcDbEllipse
 10
47.0367958548
 20
559.6285403551
 30
0.0
 11
0.08660254037844671
 21
0.08660254037845538
 31
0.0
210
0.0
220
0.0
230
0.9999999999999998
 40
0.5773502692
 41
3.665191429187731
 42
4.188790204785608
  0
ELLIPSE
  5
1DA
330
75
100
AcDbEntity
  8
4221039_0__SIEB_
  6
Continuous
 62
     7
100
AcDbEllipse
 10
47.0367958548
 20
559.6285403551
 30
0.0
 11
-0.08660254037842936
 21
0.08660254037851089
 31
0.0
210
0.0
220
0.0
230
1.0
 40
0.5773502692
 41
2.094395102393289
 42
2.61799387799147
  0
ELLIPSE
  5
1DB
330
75
100
AcDbEntity
  8
4221039_0__SIEB_
  6
Continuous
 62
     7
100
AcDbEllipse
 10
47.0367958548
 20
559.6285403551
 30
0.0
 11
-0.08660254037843805
 21
-0.0866025403784554
 31
0.0
210
0.0
220
0.0
230
1.0
 40
0.5773502692
 41
1.047197551195804
 42
2.617993877989558
  0
ELLIPSE
  5
1DC
330
75
100
AcDbEntity
  8
4221039_0__SIEB_
  6
Continuous
 62
     7
100
AcDbEllipse
 10
48.5725101405
 20
559.6285403551
 30
0.0
 11
0.0866025403784389
 21
-0.08660254037845538
 31
0.0
210
0.0
220
0.0
230
1.0
 40
0.5773502692
 41
3.665191429188639
 42
5.235987755983255
  0
ELLIPSE
  5
1DD
330
75
100
AcDbEntity
  8
4221039_0__SIEB_
  6
Continuous
 62
     7
100
AcDbEllipse
 10
48.5725101405
 20
559.6285403551
 30
0.0
 11
0.08660254037843805
 21
0.0866025403784554
 31
0.0
210
0.0
220
0.0
230
1.0
 40
0.5773502692
 41
3.665191429186302
 42
4.188790204785597
  0
ELLIPSE
  5
1DE
330
75
100
AcDbEntity
  8
4221039_0__SIEB_
  6
Continuous
 62
     7
100
AcDbEllipse
 10
48.5725101405
 20
559.6285403551
 30
0.0
 11
-0.08660254037842414
 21
0.08660254037851088
 31
0.0
210
0.0
220
0.0
230
1.0
 40
0.5773502692
 41
2.094395102393134
 42
2.617993877991458
  0
ELLIPSE
  5
1DF
330
75
100
AcDbEntity
  8
4221039_0__SIEB_
  6
Continuous
 62
     7
100
AcDbEllipse
 10
48.5725101405
 20
559.6285403551
 30
0.0
 11
-0.0866025403784389
 21
-0.08660254037845538
 31
0.0
210
0.0
220
0.0
230
1.0
 40
0.5773502692
 41
1.04719755119581
 42
2.617993877989553
  0
ELLIPSE
  5
1E0
330
75
100
AcDbEntity
  8
4221039_0__SIEB_
  6
Continuous
 62
     7
100
AcDbEllipse
 10
50.1082244262
 20
559.6285403551
 30
0.0
 11
0.08660254037843718
 21
-0.08660254037845538
 31
0.0
210
0.0
220
0.0
230
1.0
 40
0.5773502692
 41
3.665191429187479
 42
5.235987755983314
  0
ELLIPSE
  5
1E1
330
75
100
AcDbEntity
  8
4221039_0__SIEB_
  6
Continuous
 62
     7
100
AcDbEllipse
 10
50.1082244262
 20
559.6285403551
 30
0.0
 11
0.08660254037843934
 21
0.08660254037845538
 31
0.0
210
0.0
220
0.0
230
1.0
 40
0.5773502692
 41
3.665191429187468
 42
4.188790204785606
  0
ELLIPSE
  5
1E2
330
75
100
AcDbEntity
  8
4221039_0__SIEB_
  6
Continuous
 62
     7
100
AcDbEllipse
 10
50.1082244262
 20
559.6285403551
 30
0.0
 11
-0.08660254037844541
 21
0.08660254037842763
 31
0.0
210
0.0
220
0.0
230
1.0
 40
0.5773502692
 41
2.094395102392756
 42
2.617993877991319
  0
ELLIPSE
  5
1E3
330
75
100
AcDbEntity
  8
4221039_0__SIEB_
  6
Continuous
 62
     7
100
AcDbEllipse
 10
50.1082244262
 20
559.6285403551
 30
0.0
 11
-0.08660254037843847
 21
-0.08660254037845538
 31
0.0
210
0.0
220
0.0
230
0.9999999999999998
 40
0.5773502692
 41
1.047197551195807
 42
2.617993877989555
  0
ELLIPSE
  5
1E4
330
75
100
AcDbEntity
  8
4221039_0__SIEB_
  6
Continuous
 62
     7
100
AcDbEllipse
 10
51.643938712
 20
559.6285403551
 30
0.0
 11
0.08660254037844498
 21
-0.08660254037845538
 31
0.0
210
0.0
220
0.0
230
1.0
 40
0.5773502692
 41
3.665191429188762
 42
5.235987755983357
  0
ELLIPSE
  5
1E5
330
75
100
AcDbEntity
  8
4221039_0__SIEB_
  6
Continuous
 62
     7
100
AcDbEllipse
 10
51.643938712
 20
559.6285403551
 30
0.0
 11
0.08660254037844541
 21
0.08660254037845538
 31
0.0
210
0.0
220
0.0
230
1.0
 40
0.5773502692
 41
3.665191429186893
 42
4.188790204786025
  0
ELLIPSE
  5
1E6
330
75
100
AcDbEntity
  8
4221039_0__SIEB_
  6
Continuous
 62
     7
100
AcDbEllipse
 10
51.643938712
 20
559.6285403551
 30
0.0
 11
-0.08660254037843673
 21
0.08660254037845538
 31
0.0
210
0.0
220
0.0
230
1.0
 40
0.5773502692
 41
2.094395102393619
 42
2.617993877992645
  0
ELLIPSE
  5
1E7
330
75
100
AcDbEntity
  8
4221039_0__SIEB_
  6
Continuous
 62
     7
100
AcDbEllipse
 10
51.643938712
 20
559.6285403551
 30
0.0
 11
-0.08660254037843673
 21
-0.08660254037848314
 31
0.0
210
0.0
220
0.0
230
1.0
 40
0.5773502692
 41
1.047197551196411
 42
2.61799387799051
  0
ELLIPSE
  5
1E8
330
75
100
AcDbEntity
  8
4221039_0__SIEB_
  6
Continuous
 62
     7
100
AcDbEllipse
 10
53.1796529977
 20
559.6285403551
 30
0.0
 11
0.08660254037843847
 21
-0.08660254037845538
 31
0.0
210
0.0
220
0.0
230
0.9999999999999998
 40
0.5773502692
 41
3.665191429187405
 42
5.235987755983211
  0
ELLIPSE
  5
1E9
330
75
100
AcDbEntity
  8
4221039_0__SIEB_
  6
Continuous
 62
     7
100
AcDbEllipse
 10
53.1796529977
 20
559.6285403551
 30
0.0
 11
0.08660254037843844
 21
0.08660254037845538
 31
0.0
210
0.0
220
0.0
230
0.9999999999999998
 40
0.5773502692
 41
3.665191429187785
 42
4.188790204785647
  0
ELLIPSE
  5
1EA
330
75
100
AcDbEntity
  8
4221039_0__SIEB_
  6
Continuous
 62
     7
100
AcDbEllipse
 10
53.1796529977
 20
559.6285403551
 30
0.0
 11
-0.08660254037842453
 21
0.08660254037851089
 31
0.0
210
0.0
220
0.0
230
1.0
 40
0.5773502692
 41
2.094395102393179
 42
2.617993877991371
  0
ELLIPSE
  5
1EB
330
75
100
AcDbEntity
  8
4221039_0__SIEB_
  6
Continuous
 62
     7
100
AcDbEllipse
 10
53.1796529977
 20
559.6285403551
 30
0.0
 11
-0.08660254037843847
 21
-0.08660254037845538
 31
0.0
210
0.0
220
0.0
230
0.9999999999999998
 40
0.5773502692
 41
1.047197551195854
 42
2.617993877989637
  0
ELLIPSE
  5
1EC
330
75
100
AcDbEntity
  8
4221039_0__SIEB_
  6
Continuous
 62
     7
100
AcDbEllipse
 10
54.7153672834
 20
559.6285403551
 30
0.0
 11
0.0866025403784363
 21
-0.08660254037845538
 31
0.0
210
0.0
220
0.0
230
1.0
 40
0.5773502692
 41
3.665191429187473
 42
5.235987755983367
  0
ELLIPSE
  5
1ED
330
75
100
AcDbEntity
  8
4221039_0__SIEB_
  6
Continuous
 62
     7
100
AcDbEllipse
 10
54.7153672834
 20
559.6285403551
 30
0.0
 11
0.08660254037844541
 21
0.08660254037845538
 31
0.0
210
0.0
220
0.0
230
1.0
 40
0.5773502692
 41
3.665191429187796
 42
4.188790204785551
  0
ELLIPSE
  5
1EE
330
75
100
AcDbEntity
  8
4221039_0__SIEB_
  6
Continuous
 62
     7
100
AcDbEllipse
 10
54.7153672834
 20
559.6285403551
 30
0.0
 11
-0.08660254037844499
 21
0.08660254037842764
 31
0.0
210
0.0
220
0.0
230
1.0
 40
0.5773502692
 41
2.094395102392759
 42
2.617993877991571
  0
ELLIPSE
  5
1EF
330
75
100
AcDbEntity
  8
4221039_0__SIEB_
  6
Continuous
 62
     7
100
AcDbEllipse
 10
54.7153672834
 20
559.6285403551
 30
0.0
 11
-0.08660254037843673
 21
-0.08660254037845538
 31
0.0
210
0.0
220
0.0
230
1.0
 40
0.5773502692
 41
1.047197551195795
 42
2.617993877989567
  0
ELLIPSE
  5
1F0
330
75
100
AcDbEntity
  8
4221039_0__SIEB_
  6
Continuous
 62
     7
100
AcDbEllipse
 10
56.2510815691
 20
559.6285403551
 30
0.0
 11
0.08660254037843847
 21
-0.08660254037845538
 31
0.0
210
0.0
220
0.0
230
1.0
 40
0.5773502692
 41
3.665191429188636
 42
5.235987755983211
  0
ELLIPSE
  5
1F1
330
75
100
AcDbEntity
  8
4221039_0__SIEB_
  6
Continuous
 62
     7
100
AcDbEllipse
 10
56.2510815691
 20
559.6285403551
 30
0.0
 11
0.08660254037843847
 21
0.08660254037845538
 31
0.0
210
0.0
220
0.0
230
0.9999999999999998
 40
0.5773502692
 41
3.665191429187539
 42
4.1887902047856
  0
ELLIPSE
  5
1F2
330
75
100
AcDbEntity
  8
4221039_0__SIEB_
  6
Continuous
 62
     7
100
AcDbEllipse
 10
56.2510815691
 20
559.6285403551
 30
0.0
 11
-0.08660254037842459
 21
0.08660254037851089
 31
0.0
210
0.0
220
0.0
230
1.0
 40
0.5773502692
 41
2.094395102393131
 42
2.617993877991453
  0
ELLIPSE
  5
1F3
330
75
100
AcDbEntity
  8
4221039_0__SIEB_
  6
Continuous
 62
     7
100
AcDbEllipse
 10
56.2510815691
 20
559.6285403551
 30
0.0
 11
-0.08660254037843934
 21
-0.08660254037845538
 31
0.0
210
0.0
220
0.0
230
1.0
 40
0.5773502692
 41
1.047197551195813
 42
2.617993877989549
  0
ELLIPSE
  5
1F4
330
75
100
AcDbEntity
  8
4221039_0__SIEB_
  6
Continuous
 62
     7
100
AcDbEllipse
 10
57.7867958548
 20
559.6285403551
 30
0.0
 11
0.08660254037843718
 21
-0.08660254037845538
 31
0.0
210
0.0
220
0.0
230
1.0
 40
0.5773502692
 41
3.665191429187479
 42
5.235987755983314
  0
ELLIPSE
  5
1F5
330
75
100
AcDbEntity
  8
4221039_0__SIEB_
  6
Continuous
 62
     7
100
AcDbEllipse
 10
57.7867958548
 20
559.6285403551
 30
0.0
 11
0.08660254037843805
 21
0.0866025403784554
 31
0.0
210
0.0
220
0.0
230
1.0
 40
0.5773502692
 41
3.665191429187451
 42
4.188790204785597
  0
ELLIPSE
  5
1F6
330
75
100
AcDbEntity
  8
4221039_0__SIEB_
  6
Continuous
 62
     7
100
AcDbEllipse
 10
57.7867958548
 20
559.6285403551
 30
0.0
 11
-0.08660254037844584
 21
0.08660254037845538
 31
0.0
210
0.0
220
0.0
230
1.0
 40
0.5773502692
 41
2.094395102393463
 42
2.6179938779908
  0
ELLIPSE
  5
1F7
330
75
100
AcDbEntity
  8
4221039_0__SIEB_
  6
Continuous
 62
     7
100
AcDbEllipse
 10
57.7867958548
 20
559.6285403551
 30
0.0
 11
-0.0866025403784389
 21
-0.08660254037845538
 31
0.0
210
0.0
220
0.0
230
1.0
 40
0.5773502692
 41
1.04719755119581
 42
2.617993877989553
  0
ELLIPSE
  5
1F8
330
75
100
AcDbEntity
  8
4221039_0__SIEB_
  6
Continuous
 62
     7
100
AcDbEllipse
 10
59.3225101405
 20
559.6285403551
 30
0.0
 11
0.0866025403784389
 21
-0.08660254037845538
 31
0.0
210
0.0
220
0.0
230
1.0
 40
0.5773502692
 41
3.665191429188721
 42
5.235987755983255
  0
ELLIPSE
  5
1F9
330
75
100
AcDbEntity
  8
4221039_0__SIEB_
  6
Continuous
 62
     7
100
AcDbEllipse
 10
59.3225101405
 20
559.6285403551
 30
0.0
 11
0.08660254037844584
 21
0.08660254037845538
 31
0.0
210
0.0
220
0.0
230
1.0
 40
0.5773502692
 41
3.665191429186571
 42
4.188790204785555
  0
ELLIPSE
  5
1FA
330
75
100
AcDbEntity
  8
4221039_0__SIEB_
  6
Continuous
 62
     7
100
AcDbEllipse
 10
59.3225101405
 20
559.6285403551
 30
0.0
 11
-0.08660254037842589
 21
0.08660254037851089
 31
0.0
210
0.0
220
0.0
230
1.0
 40
0.5773502692
 41
2.094395102393123
 42
2.617993877991681
  0
ELLIPSE
  5
1FB
330
75
100
AcDbEntity
  8
4221039_0__SIEB_
  6
Continuous
 62
     7
100
AcDbEllipse
 10
59.3225101405
 20
559.6285403551
 30
0.0
 11
-0.08660254037843718
 21
-0.08660254037845538
 31
0.0
210
0.0
220
0.0
230
1.0
 40
0.5773502692
 41
1.047197551195798
 42
2.617993877989564
  0
ELLIPSE
  5
1FC
330
75
100
AcDbEntity
  8
4221039_0__SIEB_
  6
Continuous
 62
     7
100
AcDbEllipse
 10
57.7867958548
 20
558.8606832122
 30
0.0
 11
-0.08660254037844584
 21
0.08660254037845538
 31
0.0
210
0.0
220
0.0
230
1.0
 40
0.5773502692
 41
2.094395102393984
 42
2.617993877990636
  0
ELLIPSE
  5
1FD
330
75
100
AcDbEntity
  8
4221039_0__SIEB_
  6
Continuous
 62
     7
100
AcDbEllipse
 10
57.7867958548
 20
558.8606832122
 30
0.0
 11
-0.0866025403784389
 21
-0.08660254037845538
 31
0.0
210
0.0
220
0.0
230
1.0
 40
0.5773502692
 41
1.047197551196331
 42
2.617993877992178
  0
ELLIPSE
  5
1FE
330
75
100
AcDbEntity
  8
4221039_0__SIEB_
  6
Continuous
 62
     7
100
AcDbEllipse
 10
56.2510815691
 20
558.8606832122
 30
0.0
 11
-0.08660254037844541
 21
0.08660254037842763
 31
0.0
210
0.0
220
0.0
230
1.0
 40
0.5773502692
 41
2.094395102392756
 42
2.617993877991073
  0
ELLIPSE
  5
1FF
330
75
100
AcDbEntity
  8
4221039_0__SIEB_
  6
Continuous
 62
     7
100
AcDbEllipse
 10
56.2510815691
 20
558.8606832122
 30
0.0
 11
-0.0866025403784363
 21
-0.08660254037845538
 31
0.0
210
0.0
220
0.0
230
1.0
 40
0.5773502692
 41
1.047197551196266
 42
2.617993877992195
  0
ELLIPSE
  5
200
330
75
100
AcDbEntity
  8
4221039_0__SIEB_
  6
Continuous
 62
     7
100
AcDbEllipse
 10
57.7867958548
 20
558.8606832122
 30
0.0
 11
0.08660254037843718
 21
-0.08660254037845538
 31
0.0
210
0.0
220
0.0
230
1.0
 40
0.5773502692
 41
3.665191429187479
 42
5.235987755983787
  0
ELLIPSE
  5
201
330
75
100
AcDbEntity
  8
4221039_0__SIEB_
  6
Continuous
 62
     7
100
AcDbEllipse
 10
57.7867958548
 20
558.8606832122
 30
0.0
 11
0.0866025403784389
 21
0.08660254037845538
 31
0.0
210
0.0
220
0.0
230
1.0
 40
0.5773502692
 41
3.665191429188037
 42
4.188790204786124
  0
ELLIPSE
  5
202
330
75
100
AcDbEntity
  8
4221039_0__SIEB_
  6
Continuous
 62
     7
100
AcDbEllipse
 10
54.7153672834
 20
558.8606832122
 30
0.0
 11
-0.08660254037845236
 21
0.0866025403784554
 31
0.0
210
0.0
220
0.0
230
1.0
 40
0.5773502692
 41
2.094395102393562
 42
2.617993877990878
  0
ELLIPSE
  5
203
330
75
100
AcDbEntity
  8
4221039_0__SIEB_
  6
Continuous
 62
     7
100
AcDbEllipse
 10
54.7153672834
 20
558.8606832122
 30
0.0
 11
-0.08660254037843826
 21
-0.08660254037845538
 31
0.0
210
0.0
220
0.0
230
1.0
 40
0.5773502692
 41
1.047197551196279
 42
2.617993877992182
  0
ELLIPSE
  5
204
330
75
100
AcDbEntity
  8
4221039_0__SIEB_
  6
Continuous
 62
     7
100
AcDbEllipse
 10
56.2510815691
 20
558.8606832122
 30
0.0
 11
0.0866025403784363
 21
-0.08660254037845538
 31
0.0
210
0.0
220
0.0
230
1.0
 40
0.5773502692
 41
3.665191429187391
 42
5.235987755983746
  0
ELLIPSE
  5
205
330
75
100
AcDbEntity
  8
4221039_0__SIEB_
  6
Continuous
 62
     7
100
AcDbEllipse
 10
56.2510815691
 20
558.8606832122
 30
0.0
 11
0.08660254037844541
 21
0.08660254037845538
 31
0.0
210
0.0
220
0.0
230
1.0
 40
0.5773502692
 41
3.665191429188124
 42
4.188790204786025
  0
ELLIPSE
  5
206
330
75
100
AcDbEntity
  8
4221039_0__SIEB_
  6
Continuous
 62
     7
100
AcDbEllipse
 10
53.1796529977
 20
558.8606832122
 30
0.0
 11
-0.08660254037843977
 21
0.08660254037845538
 31
0.0
210
0.0
220
0.0
230
1.0
 40
0.5773502692
 41
2.094395102393551
 42
2.617993877990799
  0
ELLIPSE
  5
207
330
75
100
AcDbEntity
  8
4221039_0__SIEB_
  6
Continuous
 62
     7
100
AcDbEllipse
 10
53.1796529977
 20
558.8606832122
 30
0.0
 11
-0.08660254037843138
 21
-0.08660254037848314
 31
0.0
210
0.0
220
0.0
230
1.0
 40
0.5773502692
 41
1.04719755119647
 42
2.617993877991858
  0
ELLIPSE
  5
208
330
75
100
AcDbEntity
  8
4221039_0__SIEB_
  6
Continuous
 62
     7
100
AcDbEllipse
 10
54.7153672834
 20
558.8606832122
 30
0.0
 11
0.08660254037843847
 21
-0.08660254037845538
 31
0.0
210
0.0
220
0.0
230
0.9999999999999998
 40
0.5773502692
 41
3.665191429187405
 42
5.235987755983732
  0
ELLIPSE
  5
209
330
75
100
AcDbEntity
  8
4221039_0__SIEB_
  6
Continuous
 62
     7
100
AcDbEllipse
 10
54.7153672834
 20
558.8606832122
 30
0.0
 11
0.0866025403784387
 21
0.0866025403784554
 31
0.0
210
0.0
220
0.0
230
1.0
 40
0.5773502692
 41
3.66519142918787
 42
4.188790204786075
  0
ELLIPSE
  5
20A
330
75
100
AcDbEntity
  8
4221039_0__SIEB_
  6
Continuous
 62
     7
100
AcDbEllipse
 10
51.643938712
 20
558.8606832122
 30
0.0
 11
-0.08660254037845236
 21
0.0866025403784554
 31
0.0
210
0.0
220
0.0
230
1.0
 40
0.5773502692
 41
2.094395102393562
 42
2.617993877990714
  0
ELLIPSE
  5
20B
330
75
100
AcDbEntity
  8
4221039_0__SIEB_
  6
Continuous
 62
     7
100
AcDbEllipse
 10
51.643938712
 20
558.8606832122
 30
0.0
 11
-0.08660254037843847
 21
-0.08660254037845538
 31
0.0
210
0.0
220
0.0
230
0.9999999999999998
 40
0.5773502692
 41
1.047197551196328
 42
2.617993877992181
  0
ELLIPSE
  5
20C
330
75
100
AcDbEntity
  8
4221039_0__SIEB_
  6
Continuous
 62
     7
100
AcDbEllipse
 10
53.1796529977
 20
558.8606832122
 30
0.0
 11
0.08660254037844188
 21
-0.08660254037842763
 31
0.0
210
0.0
220
0.0
230
0.9999999999999998
 40
0.5773502692
 41
3.665191429185827
 42
5.235987755982477
  0
ELLIPSE
  5
20D
330
75
100
AcDbEntity
  8
4221039_0__SIEB_
  6
Continuous
 62
     7
100
AcDbEllipse
 10
53.1796529977
 20
558.8606832122
 30
0.0
 11
0.08660254037843663
 21
0.0866025403784554
 31
0.0
210
0.0
220
0.0
230
0.9999999999999998
 40
0.5773502692
 41
3.665191429188007
 42
4.188790204785919
  0
ELLIPSE
  5
20E
330
75
100
AcDbEntity
  8
4221039_0__SIEB_
  6
Continuous
 62
     7
100
AcDbEllipse
 10
50.1082244262
 20
558.8606832122
 30
0.0
 11
-0.08660254037844671
 21
0.08660254037842763
 31
0.0
210
0.0
220
0.0
230
1.0
 40
0.5773502692
 41
2.0943951023927
 42
2.61799387799122
  0
ELLIPSE
  5
20F
330
75
100
AcDbEntity
  8
4221039_0__SIEB_
  6
Continuous
 62
     7
100
AcDbEllipse
 10
50.1082244262
 20
558.8606832122
 30
0.0
 11
-0.08660254037842459
 21
-0.08660254037851089
 31
0.0
210
0.0
220
0.0
230
1.0
 40
0.5773502692
 41
1.047197551196378
 42
2.617993877992846
  0
ELLIPSE
  5
210
330
75
100
AcDbEntity
  8
4221039_0__SIEB_
  6
Continuous
 62
     7
100
AcDbEllipse
 10
51.643938712
 20
558.8606832122
 30
0.0
 11
0.08660254037843847
 21
-0.08660254037845538
 31
0.0
210
0.0
220
0.0
230
0.9999999999999998
 40
0.5773502692
 41
3.665191429187405
 42
5.235987755983732
  0
ELLIPSE
  5
211
330
75
100
AcDbEntity
  8
4221039_0__SIEB_
  6
Continuous
 62
     7
100
AcDbEllipse
 10
51.643938712
 20
558.8606832122
 30
0.0
 11
0.08660254037843847
 21
0.08660254037845538
 31
0.0
210
0.0
220
0.0
230
0.9999999999999998
 40
0.5773502692
 41
3.665191429187949
 42
4.188790204786121
  0
ELLIPSE
  5
212
330
75
100
AcDbEntity
  8
4221039_0__SIEB_
  6
Continuous
 62
     7
100
AcDbEllipse
 10
48.5725101405
 20
558.8606832122
 30
0.0
 11
-0.08660254037844584
 21
0.08660254037845538
 31
0.0
210
0.0
220
0.0
230
1.0
 40
0.5773502692
 41
2.094395102393937
 42
2.617993877991539
  0
ELLIPSE
  5
213
330
75
100
AcDbEntity
  8
4221039_0__SIEB_
  6
Continuous
 62
     7
100
AcDbEllipse
 10
48.5725101405
 20
558.8606832122
 30
0.0
 11
-0.0866025403784311
 21
-0.08660254037848314
 31
0.0
210
0.0
220
0.0
230
1.0
 40
0.5773502692
 41
1.047197551196421
 42
2.617993877991778
  0
ELLIPSE
  5
214
330
75
100
AcDbEntity
  8
4221039_0__SIEB_
  6
Continuous
 62
     7
100
AcDbEllipse
 10
50.1082244262
 20
558.8606832122
 30
0.0
 11
0.08660254037844455
 21
-0.08660254037842763
 31
0.0
210
0.0
220
0.0
230
0.9999999999999998
 40
0.5773502692
 41
3.665191429185845
 42
5.235987755982459
  0
ELLIPSE
  5
215
330
75
100
AcDbEntity
  8
4221039_0__SIEB_
  6
Continuous
 62
     7
100
AcDbEllipse
 10
50.1082244262
 20
558.8606832122
 30
0.0
 11
0.08660254037845236
 21
0.0866025403784554
 31
0.0
210
0.0
220
0.0
230
1.0
 40
0.5773502692
 41
3.665191429188052
 42
4.188790204786024
  0
ELLIPSE
  5
216
330
75
100
AcDbEntity
  8
4221039_0__SIEB_
  6
Continuous
 62
     7
100
AcDbEllipse
 10
48.5725101405
 20
558.8606832122
 30
0.0
 11
0.08660254037843718
 21
-0.08660254037845538
 31
0.0
210
0.0
220
0.0
230
1.0
 40
0.5773502692
 41
3.665191429186085
 42
5.23598775598374
  0
ELLIPSE
  5
217
330
75
100
AcDbEntity
  8
4221039_0__SIEB_
  6
Continuous
 62
     7
100
AcDbEllipse
 10
48.5725101405
 20
558.8606832122
 30
0.0
 11
0.08660254037843718
 21
0.08660254037845538
 31
0.0
210
0.0
220
0.0
230
1.0
 40
0.5773502692
 41
3.665191429187686
 42
4.188790204785922
  0
ELLIPSE
  5
218
330
75
100
AcDbEntity
  8
4221039_0__SIEB_
  6
Continuous
 62
     7
100
AcDbEllipse
 10
50.1082244262
 20
558.0928260694
 30
0.0
 11
0.08660254037843718
 21
-0.08660254037845538
 31
0.0
210
0.0
220
0.0
230
1.0
 40
0.5773502692
 41
3.665191429187479
 42
5.235987755983787
  0
ELLIPSE
  5
219
330
75
100
AcDbEntity
  8
4221039_0__SIEB_
  6
Continuous
 62
     7
100
AcDbEllipse
 10
50.1082244262
 20
558.0928260694
 30
0.0
 11
0.08660254037843934
 21
0.08660254037845538
 31
0.0
210
0.0
220
0.0
230
1.0
 40
0.5773502692
 41
3.665191429189027
 42
4.188790204786127
  0
ELLIPSE
  5
21A
330
75
100
AcDbEntity
  8
4221039_0__SIEB_
  6
Continuous
 62
     7
100
AcDbEllipse
 10
50.1082244262
 20
558.0928260694
 30
0.0
 11
-0.08660254037844541
 21
0.08660254037842763
 31
0.0
210
0.0
220
0.0
230
1.0
 40
0.5773502692
 41
2.094395102392756
 42
2.617993877990007
  0
ELLIPSE
  5
21B
330
75
100
AcDbEntity
  8
4221039_0__SIEB_
  6
Continuous
 62
     7
100
AcDbEllipse
 10
50.1082244262
 20
558.0928260694
 30
0.0
 11
-0.08660254037843847
 21
-0.08660254037845538
 31
0.0
210
0.0
220
0.0
230
0.9999999999999998
 40
0.5773502692
 41
1.047197551196328
 42
2.617993877992181
  0
ELLIPSE
  5
21C
330
75
100
AcDbEntity
  8
4221039_0__SIEB_
  6
Continuous
 62
     7
100
AcDbEllipse
 10
51.643938712
 20
558.0928260694
 30
0.0
 11
0.0866025403784452
 21
-0.08660254037842763
 31
0.0
210
0.0
220
0.0
230
0.9999999999999998
 40
0.5773502692
 41
3.66519142918585
 42
5.235987755983403
  0
ELLIPSE
  5
21D
330
75
100
AcDbEntity
  8
4221039_0__SIEB_
  6
Continuous
 62
     7
100
AcDbEllipse
 10
51.643938712
 20
558.0928260694
 30
0.0
 11
0.08660254037844541
 21
0.08660254037845538
 31
0.0
210
0.0
220
0.0
230
1.0
 40
0.5773502692
 41
3.665191429188206
 42
4.188790204785551
  0
ELLIPSE
  5
21E
330
75
100
AcDbEntity
  8
4221039_0__SIEB_
  6
Continuous
 62
     7
100
AcDbEllipse
 10
51.643938712
 20
558.0928260694
 30
0.0
 11
-0.08660254037843673
 21
0.08660254037845538
 31
0.0
210
0.0
220
0.0
230
1.0
 40
0.5773502692
 41
2.094395102393619
 42
2.617993877989527
  0
ELLIPSE
  5
21F
330
75
100
AcDbEntity
  8
4221039_0__SIEB_
  6
Continuous
 62
     7
100
AcDbEllipse
 10
51.643938712
 20
558.0928260694
 30
0.0
 11
-0.08660254037843673
 21
-0.08660254037845538
 31
0.0
210
0.0
220
0.0
230
1.0
 40
0.5773502692
 41
1.047197551195795
 42
2.617993877992193
  0
ELLIPSE
  5
220
330
75
100
AcDbEntity
  8
4221039_0__SIEB_
  6
Continuous
 62
     7
100
AcDbEllipse
 10
53.1796529977
 20
558.0928260694
 30
0.0
 11
0.08660254037843847
 21
-0.08660254037845538
 31
0.0
210
0.0
220
0.0
230
0.9999999999999998
 40
0.5773502692
 41
3.665191429186093
 42
5.235987755983211
  0
ELLIPSE
  5
221
330
75
100
AcDbEntity
  8
4221039_0__SIEB_
  6
Continuous
 62
     7
100
AcDbEllipse
 10
53.1796529977
 20
558.0928260694
 30
0.0
 11
0.08660254037843844
 21
0.08660254037845538
 31
0.0
210
0.0
220
0.0
230
0.9999999999999998
 40
0.5773502692
 41
3.665191429188113
 42
4.188790204785647
  0
ELLIPSE
  5
222
330
75
100
AcDbEntity
  8
4221039_0__SIEB_
  6
Continuous
 62
     7
100
AcDbEllipse
 10
53.1796529977
 20
558.0928260694
 30
0.0
 11
-0.08660254037842453
 21
0.08660254037851089
 31
0.0
210
0.0
220
0.0
230
1.0
 40
0.5773502692
 41
2.094395102393179
 42
2.617993877991043
  0
ELLIPSE
  5
223
330
75
100
AcDbEntity
  8
4221039_0__SIEB_
  6
Continuous
 62
     7
100
AcDbEllipse
 10
53.1796529977
 20
558.0928260694
 30
0.0
 11
-0.08660254037843847
 21
-0.08660254037845538
 31
0.0
210
0.0
220
0.0
230
0.9999999999999998
 40
0.5773502692
 41
1.047197551195854
 42
2.617993877992263
  0
ELLIPSE
  5
224
330
75
100
AcDbEntity
  8
4221039_0__SIEB_
  6
Continuous
 62
     7
100
AcDbEllipse
 10
54.7153672834
 20
558.0928260694
 30
0.0
 11
0.08660254037843652
 21
-0.08660254037845538
 31
0.0
210
0.0
220
0.0
230
1.0
 40
0.5773502692
 41
3.665191429187475
 42
5.235987755983792
  0
ELLIPSE
  5
225
330
75
100
AcDbEntity
  8
4221039_0__SIEB_
  6
Continuous
 62
     7
100
AcDbEllipse
 10
54.7153672834
 20
558.0928260694
 30
0.0
 11
0.08660254037845928
 21
0.08660254037845538
 31
0.0
210
0.0
220
0.0
230
1.0
 40
0.5773502692
 41
3.665191429188637
 42
4.188790204786923
  0
ELLIPSE
  5
226
330
75
100
AcDbEntity
  8
4221039_0__SIEB_
  6
Continuous
 62
     7
100
AcDbEllipse
 10
54.7153672834
 20
558.0928260694
 30
0.0
 11
-0.08660254037844499
 21
0.08660254037842764
 31
0.0
210
0.0
220
0.0
230
1.0
 40
0.5773502692
 41
2.094395102392759
 42
2.617993877990094
  0
ELLIPSE
  5
227
330
75
100
AcDbEntity
  8
4221039_0__SIEB_
  6
Continuous
 62
     7
100
AcDbEllipse
 10
54.7153672834
 20
558.0928260694
 30
0.0
 11
-0.08660254037845061
 21
-0.08660254037845538
 31
0.0
210
0.0
220
0.0
230
1.0
 40
0.5773502692
 41
1.047197551195746
 42
2.6179938779921
  0
ELLIPSE
  5
228
330
75
100
AcDbEntity
  8
4221039_0__SIEB_
  6
Continuous
 62
     7
100
AcDbEllipse
 10
56.2510815691
 20
558.0928260694
 30
0.0
 11
0.08660254037843847
 21
-0.08660254037845538
 31
0.0
210
0.0
220
0.0
230
1.0
 40
0.5773502692
 41
3.665191429187324
 42
5.235987755983732
  0
ELLIPSE
  5
229
330
75
100
AcDbEntity
  8
4221039_0__SIEB_
  6
Continuous
 62
     7
100
AcDbEllipse
 10
56.2510815691
 20
558.0928260694
 30
0.0
 11
0.08660254037843847
 21
0.08660254037845538
 31
0.0
210
0.0
220
0.0
230
0.9999999999999998
 40
0.5773502692
 41
3.665191429188195
 42
4.1887902047856
  0
ELLIPSE
  5
22A
330
75
100
AcDbEntity
  8
4221039_0__SIEB_
  6
Continuous
 62
     7
100
AcDbEllipse
 10
56.2510815691
 20
558.0928260694
 30
0.0
 11
-0.08660254037843847
 21
0.08660254037845538
 31
0.0
210
0.0
220
0.0
230
0.9999999999999998
 40
0.5773502692
 41
2.094395102393939
 42
2.617993877990981
  0
ELLIPSE
  5
22B
330
75
100
AcDbEntity
  8
4221039_0__SIEB_
  6
Continuous
 62
     7
100
AcDbEllipse
 10
56.2510815691
 20
558.0928260694
 30
0.0
 11
-0.08660254037843934
 21
-0.08660254037845538
 31
0.0
210
0.0
220
0.0
230
1.0
 40
0.5773502692
 41
1.047197551195813
 42
2.617993877992175
  0
ELLIPSE
  5
22C
330
75
100
AcDbEntity
  8
4221039_0__SIEB_
  6
Continuous
 62
     7
100
AcDbEllipse
 10
52.9653672834
 20
563.2311498893
 30
0.0
 11
8.800000000000001
 21
0.0
 31
0.0
210
0.0
220
0.0
230
1.0
 40
0.5
 41
-0.4316439169581487
 42
-0.3235804276802083
  0
ELLIPSE
  5
22D
330
75
100
AcDbEntity
  8
4221039_0__SIEB_
  6
Continuous
 62
     7
100
AcDbEllipse
 10
52.9653672834
 20
563.2311498893
 30
0.0
 11
8.800000000000001
 21
0.0
 31
0.0
210
0.0
220
0.0
230
1.0
 40
0.5
 41
-0.6707001587858441
 42
-0.5135264243543505
  0
ELLIPSE
  5
22E
330
75
100
AcDbEntity
  8
4221039_0__SIEB_
  6
Continuous
 62
     7
100
AcDbEllipse
 10
52.9653672834
 20
563.2311498893
 30
0.0
 11
8.800000000000001
 21
0.0
 31
0.0
210
0.0
220
0.0
230
1.0
 40
0.5
 41
-0.7469473901161647
 42
-0.7301604368596468
  0
ELLIPSE
  5
22F
330
75
100
AcDbEntity
  8
4221039_0__SIEB_
  6
Continuous
 62
     7
100
AcDbEllipse
 10
52.9653672834
 20
563.2311498893
 30
0.0
 11
8.800000000000001
 21
0.0
 31
0.0
210
0.0
220
0.0
230
1.0
 40
0.5
 41
-0.9207365506557839
 42
-0.7798216436719851
  0
ELLIPSE
  5
230
330
75
100
AcDbEntity
  8
4221039_0__SIEB_
  6
Continuous
 62
     7
100
AcDbEllipse
 10
52.9653672834
 20
563.2311498893
 30
0.0
 11
8.800000000000001
 21
0.0
 31
0.0
210
0.0
220
0.0
230
1.0
 40
0.5
 41
-1.175869921896508
 42
-1.004481341900691
  0
ELLIPSE
  5
231
330
75
100
AcDbEntity
  8
4221039_0__SIEB_
  6
Continuous
 62
     7
100
AcDbEllipse
 10
52.9653672834
 20
563.2311498893
 30
0.0
 11
8.800000000000001
 21
0.0
 31
0.0
210
0.0
220
0.0
230
1.0
 40
0.5
 41
-1.32754755420489
 42
-1.200369880072013
  0
ELLIPSE
  5
232
330
75
100
AcDbEntity
  8
4221039_0__SIEB_
  6
Continuous
 62
     7
100
AcDbEllipse
 10
52.9653672834
 20
563.2311498893
 30
0.0
 11
8.800000000000001
 21
0.0
 31
0.0
210
0.0
220
0.0
230
1.0
 40
0.5
 41
4.393710673498928
 42
4.469140207794684
  0
ELLIPSE
  5
233
330
75
100
AcDbEntity
  8
4221039_0__SIEB_
  6
Continuous
 62
     7
100
AcDbEllipse
 10
52.9653672834
 20
563.2311498893
 30
0.0
 11
8.800000000000001
 21
0.0
 31
0.0
210
0.0
220
0.0
230
1.0
 40
0.5
 41
4.202792915028164
 42
4.369680858116705
  0
ELLIPSE
  5
234
330
75
100
AcDbEntity
  8
4221039_0__SIEB_
  6
Continuous
 62
     7
100
AcDbEllipse
 10
52.9653672834
 20
563.2311498893
 30
0.0
 11
8.800000000000001
 21
0.0
 31
0.0
210
0.0
220
0.0
230
1.0
 40
0.5
 41
4.141650368442797
 42
4.176562398022498
  0
ELLIPSE
  5
235
330
75
100
AcDbEntity
  8
4221039_0__SIEB_
  6
Continuous
 62
     7
100
AcDbEllipse
 10
52.9653672834
 20
563.2311498893
 30
0.0
 11
8.800000000000001
 21
0.0
 31
0.0
210
0.0
220
0.0
230
1.0
 40
0.5
 41
3.988454317434635
 42
4.062329204245578
  0
ELLIPSE
  5
236
330
75
100
AcDbEntity
  8
4221039_0__SIEB_
  6
Continuous
 62
     7
100
AcDbEllipse
 10
52.9653672834
 20
563.2311498893
 30
0.0
 11
8.800000000000001
 21
0.0
 31
0.0
210
0.0
220
0.0
230
1.0
 40
0.5
 41
3.871753090449439
 42
3.957696147771663
  0
ELLIPSE
  5
237
330
75
100
AcDbEntity
  8
4221039_0__SIEB_
  6
Continuous
 62
     7
100
AcDbEllipse
 10
52.9653672834
 20
563.2311498893
 30
0.0
 11
8.800000000000001
 21
0.0
 31
0.0
210
0.0
220
0.0
230
1.0
 40
0.5
 41
3.720884273332252
 42
3.812292812375639
  0
ELLIPSE
  5
238
330
75
100
AcDbEntity
  8
4221039_0__SIEB_
  6
Continuous
 62
     7
100
AcDbEllipse
 10
52.9653672834
 20
563.2311498893
 30
0.0
 11
8.800000000000001
 21
0.0
 31
0.0
210
0.0
220
0.0
230
1.0
 40
0.5
 41
3.655119077944145
 42
3.67794585921088
  0
ELLIPSE
  5
239
330
75
100
AcDbEntity
  8
4221039_0__SIEB_
  6
Continuous
 62
     7
100
AcDbEllipse
 10
52.9653672834
 20
563.2311498893
 30
0.0
 11
8.800000000000001
 21
0.0
 31
0.0
210
0.0
220
0.0
230
1.0
 40
0.5
 41
3.465173081270007
 42
3.605025669595006
  0
LINE
  5
23A
330
75
100
AcDbEntity
  8
4221039_0__SIEB_
  6
Continuous
 62
     7
100
AcDbLine
 10
54.6153672834
 20
565.8414617513
 30
0.0
 11
54.6153672834
 21
565.821397498
 31
0.0
  0
LINE
  5
23B
330
75
100
AcDbEntity
  8
4221039_0__SIEB_
  6
Continuous
 62
     7
100
AcDbLine
 10
53.0796529977
 20
565.9219199915
 30
0.0
 11
53.0796529977
 21
565.821397498
 31
0.0
  0
LINE
  5
23C
330
75
100
AcDbEntity
  8
4221039_0__SIEB_
  6
Continuous
 62
     7
100
AcDbLine
 10
53.2796529977
 20
565.821397498
 30
0.0
 11
53.2796529977
 21
565.9193980069
 31
0.0
  0
LINE
  5
23D
330
75
100
AcDbEntity
  8
4221039_0__SIEB_
  6
Continuous
 62
     7
100
AcDbLine
 10
51.543938712
 20
565.8624575254
 30
0.0
 11
51.543938712
 21
565.821397498
 31
0.0
  0
LINE
  5
23E
330
75
100
AcDbEntity
  8
4221039_0__SIEB_
  6
Continuous
 62
     7
100
AcDbLine
 10
51.743938712
 20
565.821397498
 30
0.0
 11
51.743938712
 21
565.8781962274
 31
0.0
  0
LINE
  5
23F
330
75
100
AcDbEntity
  8
4221039_0__SIEB_
  6
Continuous
 62
     7
100
AcDbLine
 10
50.1582244262
 20
565.671397498
 30
0.0
 11
51.593938712
 21
565.671397498
 31
0.0
  0
LINE
  5
240
330
75
100
AcDbEntity
  8
4221039_0__SIEB_
  6
Continuous
 62
     7
100
AcDbLine
 10
51.693938712
 20
565.671397498
 30
0.0
 11
53.1296529977
 21
565.671397498
 31
0.0
  0
LINE
  5
241
330
75
100
AcDbEntity
  8
4221039_0__SIEB_
  6
Continuous
 62
     7
100
AcDbLine
 10
53.0796529977
 20
565.871397498
 30
0.0
 11
51.743938712
 21
565.871397498
 31
0.0
  0
LINE
  5
242
330
75
100
AcDbEntity
  8
4221039_0__SIEB_
  6
Continuous
 62
     7
100
AcDbLine
 10
53.2296529977
 20
565.671397498
 30
0.0
 11
54.6653672834
 21
565.671397498
 31
0.0
  0
LINE
  5
243
330
75
100
AcDbEntity
  8
4221039_0__SIEB_
  6
Continuous
 62
     7
100
AcDbLine
 10
54.2770305945
 20
565.871397498
 30
0.0
 11
53.2796529977
 21
565.871397498
 31
0.0
  0
LINE
  5
244
330
75
100
AcDbEntity
  8
4221039_0__SIEB_
  6
Continuous
 62
     7
100
AcDbLine
 10
54.7653672834
 20
565.671397498
 30
0.0
 11
55.8426941641
 21
565.671397498
 31
0.0
  0
LINE
  5
245
330
75
100
AcDbEntity
  8
4221039_0__SIEB_
  6
Continuous
 62
     7
100
AcDbLine
 10
48.4725101405
 20
565.280081688
 30
0.0
 11
48.4725101405
 21
565.0535403551
 31
0.0
  0
LINE
  5
246
330
75
100
AcDbEntity
  8
4221039_0__SIEB_
  6
Continuous
 62
     7
100
AcDbLine
 10
48.6725101405
 20
565.0535403551
 30
0.0
 11
48.6725101405
 21
565.340456884
 31
0.0
  0
LINE
  5
247
330
75
100
AcDbEntity
  8
4221039_0__SIEB_
  6
Continuous
 62
     7
100
AcDbLine
 10
50.0082244262
 20
565.6568149895
 30
0.0
 11
50.0082244262
 21
565.0535403551
 31
0.0
  0
LINE
  5
248
330
75
100
AcDbEntity
  8
4221039_0__SIEB_
  6
Continuous
 62
     7
100
AcDbLine
 10
50.2082244262
 20
565.0535403551
 30
0.0
 11
50.2082244262
 21
565.671397498
 31
0.0
  0
LINE
  5
249
330
75
100
AcDbEntity
  8
4221039_0__SIEB_
  6
Continuous
 62
     7
100
AcDbLine
 10
51.543938712
 20
565.671397498
 30
0.0
 11
51.543938712
 21
565.0535403551
 31
0.0
  0
LINE
  5
24A
330
75
100
AcDbEntity
  8
4221039_0__SIEB_
  6
Continuous
 62
     7
100
AcDbLine
 10
51.743938712
 20
565.0535403551
 30
0.0
 11
51.743938712
 21
565.671397498
 31
0.0
  0
LINE
  5
24B
330
75
100
AcDbEntity
  8
4221039_0__SIEB_
  6
Continuous
 62
     7
100
AcDbLine
 10
53.0796529977
 20
565.671397498
 30
0.0
 11
53.0796529977
 21
565.0535403551
 31
0.0
  0
LINE
  5
24C
330
75
100
AcDbEntity
  8
4221039_0__SIEB_
  6
Continuous
 62
     7
100
AcDbLine
 10
53.2796529977
 20
565.0535403551
 30
0.0
 11
53.2796529977
 21
565.671397498
 31
0.0
  0
LINE
  5
24D
330
75
100
AcDbEntity
  8
4221039_0__SIEB_
  6
Continuous
 62
     7
100
AcDbLine
 10
54.6153672834
 20
565.671397498
 30
0.0
 11
54.6153672834
 21
565.0535403551
 31
0.0
  0
LINE
  5
24E
330
75
100
AcDbEntity
  8
4221039_0__SIEB_
  6
Continuous
 62
     7
100
AcDbLine
 10
54.8153672834
 20
565.0535403551
 30
0.0
 11
54.8153672834
 21
565.671397498
 31
0.0
  0
LINE
  5
24F
330
75
100
AcDbEntity
  8
4221039_0__SIEB_
  6
Continuous
 62
     7
100
AcDbLine
 10
56.1510815691
 20
565.6125206696
 30
0.0
 11
56.1510815691
 21
565.0535403551
 31
0.0
  0
LINE
  5
250
330
75
100
AcDbEntity
  8
4221039_0__SIEB_
  6
Continuous
 62
     7
100
AcDbLine
 10
56.3510815691
 20
565.0535403551
 30
0.0
 11
56.3510815691
 21
565.5706031113
 31
0.0
  0
LINE
  5
251
330
75
100
AcDbEntity
  8
4221039_0__SIEB_
  6
Continuous
 62
     7
100
AcDbLine
 10
57.6867958548
 20
565.2063568024
 30
0.0
 11
57.6867958548
 21
565.0535403551
 31
0.0
  0
LINE
  5
252
330
75
100
AcDbEntity
  8
4221039_0__SIEB_
  6
Continuous
 62
     7
100
AcDbLine
 10
57.8867958548
 20
565.0535403551
 30
0.0
 11
57.8867958548
 21
565.1374715761
 31
0.0
  0
LINE
  5
253
330
75
100
AcDbEntity
  8
4221039_0__SIEB_
  6
Continuous
 62
     7
100
AcDbLine
 10
57.8367958548
 20
564.9035403551
 30
0.0
 11
58.4868209571
 21
564.9035403551
 31
0.0
  0
LINE
  5
254
330
75
100
AcDbEntity
  8
4221039_0__SIEB_
  6
Continuous
 62
     7
100
AcDbLine
 10
57.9809901523
 20
565.1035403551
 30
0.0
 11
57.8867958548
 21
565.1035403551
 31
0.0
  0
LINE
  5
255
330
75
100
AcDbEntity
  8
4221039_0__SIEB_
  6
Continuous
 62
     7
100
AcDbLine
 10
56.3010815691
 20
564.9035403551
 30
0.0
 11
57.7367958548
 21
564.9035403551
 31
0.0
  0
LINE
  5
256
330
75
100
AcDbEntity
  8
4221039_0__SIEB_
  6
Continuous
 62
     7
100
AcDbLine
 10
57.6867958548
 20
565.1035403551
 30
0.0
 11
56.3510815691
 21
565.1035403551
 31
0.0
  0
LINE
  5
257
330
75
100
AcDbEntity
  8
4221039_0__SIEB_
  6
Continuous
 62
     7
100
AcDbLine
 10
54.7653672834
 20
564.9035403551
 30
0.0
 11
56.2010815691
 21
564.9035403551
 31
0.0
  0
LINE
  5
258
330
75
100
AcDbEntity
  8
4221039_0__SIEB_
  6
Continuous
 62
     7
100
AcDbLine
 10
56.1510815691
 20
565.1035403551
 30
0.0
 11
54.8153672834
 21
565.1035403551
 31
0.0
  0
LINE
  5
259
330
75
100
AcDbEntity
  8
4221039_0__SIEB_
  6
Continuous
 62
     7
100
AcDbLine
 10
53.2296529977
 20
564.9035403551
 30
0.0
 11
54.6653672834
 21
564.9035403551
 31
0.0
  0
LINE
  5
25A
330
75
100
AcDbEntity
  8
4221039_0__SIEB_
  6
Continuous
 62
     7
100
AcDbLine
 10
54.6153672834
 20
565.1035403551
 30
0.0
 11
53.2796529977
 21
565.1035403551
 31
0.0
  0
LINE
  5
25B
330
75
100
AcDbEntity
  8
4221039_0__SIEB_
  6
Continuous
 62
     7
100
AcDbLine
 10
51.693938712
 20
564.9035403551
 30
0.0
 11
53.1296529977
 21
564.9035403551
 31
0.0
  0
LINE
  5
25C
330
75
100
AcDbEntity
  8
4221039_0__SIEB_
  6
Continuous
 62
     7
100
AcDbLine
 10
53.0796529977
 20
565.1035403551
 30
0.0
 11
51.743938712
 21
565.1035403551
 31
0.0
  0
LINE
  5
25D
330
75
100
AcDbEntity
  8
4221039_0__SIEB_
  6
Continuous
 62
     7
100
AcDbLine
 10
50.1582244262
 20
564.9035403551
 30
0.0
 11
51.593938712
 21
564.9035403551
 31
0.0
  0
LINE
  5
25E
330
75
100
AcDbEntity
  8
4221039_0__SIEB_
  6
Continuous
 62
     7
100
AcDbLine
 10
51.543938712
 20
565.1035403551
 30
0.0
 11
50.2082244262
 21
565.1035403551
 31
0.0
  0
LINE
  5
25F
330
75
100
AcDbEntity
  8
4221039_0__SIEB_
  6
Continuous
 62
     7
100
AcDbLine
 10
48.6225101405
 20
564.9035403551
 30
0.0
 11
50.0582244262
 21
564.9035403551
 31
0.0
  0
LINE
  5
260
330
75
100
AcDbEntity
  8
4221039_0__SIEB_
  6
Continuous
 62
     7
100
AcDbLine
 10
50.0082244262
 20
565.1035403551
 30
0.0
 11
48.6725101405
 21
565.1035403551
 31
0.0
  0
LINE
  5
261
330
75
100
AcDbEntity
  8
4221039_0__SIEB_
  6
Continuous
 62
     7
100
AcDbLine
 10
47.4439136096
 20
564.9035403551
 30
0.0
 11
48.5225101405
 21
564.9035403551
 31
0.0
  0
LINE
  5
262
330
75
100
AcDbEntity
  8
4221039_0__SIEB_
  6
Continuous
 62
     7
100
AcDbLine
 10
48.4725101405
 20
565.1035403551
 30
0.0
 11
47.9497444144
 21
565.1035403551
 31
0.0
  0
LINE
  5
263
330
75
100
AcDbEntity
  8
4221039_0__SIEB_
  6
Continuous
 62
     7
100
AcDbLine
 10
59.2225101405
 20
564.5488543214
 30
0.0
 11
59.2225101405
 21
564.2856832122
 31
0.0
  0
LINE
  5
264
330
75
100
AcDbEntity
  8
4221039_0__SIEB_
  6
Continuous
 62
     7
100
AcDbLine
 10
59.4225101405
 20
564.2856832122
 30
0.0
 11
59.4225101405
 21
564.4361468734
 31
0.0
  0
LINE
  5
265
330
75
100
AcDbEntity
  8
4221039_0__SIEB_
  6
Continuous
 62
     7
100
AcDbLine
 10
57.6867958548
 20
564.9035403551
 30
0.0
 11
57.6867958548
 21
564.2856832122
 31
0.0
  0
LINE
  5
266
330
75
100
AcDbEntity
  8
4221039_0__SIEB_
  6
Continuous
 62
     7
100
AcDbLine
 10
57.8867958548
 20
564.2856832122
 30
0.0
 11
57.8867958548
 21
564.9035403551
 31
0.0
  0
LINE
  5
267
330
75
100
AcDbEntity
  8
4221039_0__SIEB_
  6
Continuous
 62
     7
100
AcDbLine
 10
56.1510815691
 20
564.9035403551
 30
0.0
 11
56.1510815691
 21
564.2856832122
 31
0.0
  0
LINE
  5
268
330
75
100
AcDbEntity
  8
4221039_0__SIEB_
  6
Continuous
 62
     7
100
AcDbLine
 10
56.3510815691
 20
564.2856832122
 30
0.0
 11
56.3510815691
 21
564.9035403551
 31
0.0
  0
LINE
  5
269
330
75
100
AcDbEntity
  8
4221039_0__SIEB_
  6
Continuous
 62
     7
100
AcDbLine
 10
54.6153672834
 20
564.9035403551
 30
0.0
 11
54.6153672834
 21
564.2856832122
 31
0.0
  0
LINE
  5
26A
330
75
100
AcDbEntity
  8
4221039_0__SIEB_
  6
Continuous
 62
     7
100
AcDbLine
 10
54.8153672834
 20
564.2856832122
 30
0.0
 11
54.8153672834
 21
564.9035403551
 31
0.0
  0
LINE
  5
26B
330
75
100
AcDbEntity
  8
4221039_0__SIEB_
  6
Continuous
 62
     7
100
AcDbLine
 10
53.0796529977
 20
564.9035403551
 30
0.0
 11
53.0796529977
 21
564.2856832122
 31
0.0
  0
LINE
  5
26C
330
75
100
AcDbEntity
  8
4221039_0__SIEB_
  6
Continuous
 62
     7
100
AcDbLine
 10
53.2796529977
 20
564.2856832122
 30
0.0
 11
53.2796529977
 21
564.9035403551
 31
0.0
  0
LINE
  5
26D
330
75
100
AcDbEntity
  8
4221039_0__SIEB_
  6
Continuous
 62
     7
100
AcDbLine
 10
51.543938712
 20
564.9035403551
 30
0.0
 11
51.543938712
 21
564.2856832122
 31
0.0
  0
LINE
  5
26E
330
75
100
AcDbEntity
  8
4221039_0__SIEB_
  6
Continuous
 62
     7
100
AcDbLine
 10
51.743938712
 20
564.2856832122
 30
0.0
 11
51.743938712
 21
564.9035403551
 31
0.0
  0
LINE
  5
26F
330
75
100
AcDbEntity
  8
4221039_0__SIEB_
  6
Continuous
 62
     7
100
AcDbLine
 10
50.0082244262
 20
564.9035403551
 30
0.0
 11
50.0082244262
 21
564.2856832122
 31
0.0
  0
LINE
  5
270
330
75
100
AcDbEntity
  8
4221039_0__SIEB_
  6
Continuous
 62
     7
100
AcDbLine
 10
50.2082244262
 20
564.2856832122
 30
0.0
 11
50.2082244262
 21
564.9035403551
 31
0.0
  0
LINE
  5
271
330
75
100
AcDbEntity
  8
4221039_0__SIEB_
  6
Continuous
 62
     7
100
AcDbLine
 10
48.4725101405
 20
564.9035403551
 30
0.0
 11
48.4725101405
 21
564.2856832122
 31
0.0
  0
LINE
  5
272
330
75
100
AcDbEntity
  8
4221039_0__SIEB_
  6
Continuous
 62
     7
100
AcDbLine
 10
48.6725101405
 20
564.2856832122
 30
0.0
 11
48.6725101405
 21
564.9035403551
 31
0.0
  0
LINE
  5
273
330
75
100
AcDbEntity
  8
4221039_0__SIEB_
  6
Continuous
 62
     7
100
AcDbLine
 10
46.9367958548
 20
564.668398559
 30
0.0
 11
46.9367958548
 21
564.2856832122
 31
0.0
  0
LINE
  5
274
330
75
100
AcDbEntity
  8
4221039_0__SIEB_
  6
Continuous
 62
     7
100
AcDbLine
 10
47.1367958548
 20
564.2856832122
 30
0.0
 11
47.1367958548
 21
564.7657551118
 31
0.0
  0
LINE
  5
275
330
75
100
AcDbEntity
  8
4221039_0__SIEB_
  6
Continuous
 62
     7
100
AcDbLine
 10
46.0388201905
 20
564.1356832122
 30
0.0
 11
46.9867958548
 21
564.1356832122
 31
0.0
  0
LINE
  5
276
330
75
100
AcDbEntity
  8
4221039_0__SIEB_
  6
Continuous
 62
     7
100
AcDbLine
 10
46.9367958548
 20
564.3356832122
 30
0.0
 11
46.3414977081
 21
564.3356832122
 31
0.0
  0
LINE
  5
277
330
75
100
AcDbEntity
  8
4221039_0__SIEB_
  6
Continuous
 62
     7
100
AcDbLine
 10
47.0867958548
 20
564.1356832122
 30
0.0
 11
48.5225101405
 21
564.1356832122
 31
0.0
  0
LINE
  5
278
330
75
100
AcDbEntity
  8
4221039_0__SIEB_
  6
Continuous
 62
     7
100
AcDbLine
 10
48.4725101405
 20
564.3356832122
 30
0.0
 11
47.1367958548
 21
564.3356832122
 31
0.0
  0
LINE
  5
279
330
75
100
AcDbEntity
  8
4221039_0__SIEB_
  6
Continuous
 62
     7
100
AcDbLine
 10
48.6225101405
 20
564.1356832122
 30
0.0
 11
50.0582244262
 21
564.1356832122
 31
0.0
  0
LINE
  5
27A
330
75
100
AcDbEntity
  8
4221039_0__SIEB_
  6
Continuous
 62
     7
100
AcDbLine
 10
50.0082244262
 20
564.3356832122
 30
0.0
 11
48.6725101405
 21
564.3356832122
 31
0.0
  0
LINE
  5
27B
330
75
100
AcDbEntity
  8
4221039_0__SIEB_
  6
Continuous
 62
     7
100
AcDbLine
 10
50.1582244262
 20
564.1356832122
 30
0.0
 11
51.593938712
 21
564.1356832122
 31
0.0
  0
LINE
  5
27C
330
75
100
AcDbEntity
  8
4221039_0__SIEB_
  6
Continuous
 62
     7
100
AcDbLine
 10
51.543938712
 20
564.3356832122
 30
0.0
 11
50.2082244262
 21
564.3356832122
 31
0.0
  0
LINE
  5
27D
330
75
100
AcDbEntity
  8
4221039_0__SIEB_
  6
Continuous
 62
     7
100
AcDbLine
 10
51.693938712
 20
564.1356832122
 30
0.0
 11
53.1296529977
 21
564.1356832122
 31
0.0
  0
LINE
  5
27E
330
75
100
AcDbEntity
  8
4221039_0__SIEB_
  6
Continuous
 62
     7
100
AcDbLine
 10
53.0796529977
 20
564.3356832122
 30
0.0
 11
51.743938712
 21
564.3356832122
 31
0.0
  0
LINE
  5
27F
330
75
100
AcDbEntity
  8
4221039_0__SIEB_
  6
Continuous
 62
     7
100
AcDbLine
 10
53.2296529977
 20
564.1356832122
 30
0.0
 11
54.6653672834
 21
564.1356832122
 31
0.0
  0
LINE
  5
280
330
75
100
AcDbEntity
  8
4221039_0__SIEB_
  6
Continuous
 62
     7
100
AcDbLine
 10
54.6153672834
 20
564.3356832122
 30
0.0
 11
53.2796529977
 21
564.3356832122
 31
0.0
  0
LINE
  5
281
330
75
100
AcDbEntity
  8
4221039_0__SIEB_
  6
Continuous
 62
     7
100
AcDbLine
 10
54.7653672834
 20
564.1356832122
 30
0.0
 11
56.2010815691
 21
564.1356832122
 31
0.0
  0
LINE
  5
282
330
75
100
AcDbEntity
  8
4221039_0__SIEB_
  6
Continuous
 62
     7
100
AcDbLine
 10
56.1510815691
 20
564.3356832122
 30
0.0
 11
54.8153672834
 21
564.3356832122
 31
0.0
  0
LINE
  5
283
330
75
100
AcDbEntity
  8
4221039_0__SIEB_
  6
Continuous
 62
     7
100
AcDbLine
 10
56.3010815691
 20
564.1356832122
 30
0.0
 11
57.7367958548
 21
564.1356832122
 31
0.0
  0
LINE
  5
284
330
75
100
AcDbEntity
  8
4221039_0__SIEB_
  6
Continuous
 62
     7
100
AcDbLine
 10
57.6867958548
 20
564.3356832122
 30
0.0
 11
56.3510815691
 21
564.3356832122
 31
0.0
  0
LINE
  5
285
330
75
100
AcDbEntity
  8
4221039_0__SIEB_
  6
Continuous
 62
     7
100
AcDbLine
 10
57.8367958548
 20
564.1356832122
 30
0.0
 11
59.2725101405
 21
564.1356832122
 31
0.0
  0
LINE
  5
286
330
75
100
AcDbEntity
  8
4221039_0__SIEB_
  6
Continuous
 62
     7
100
AcDbLine
 10
59.2225101405
 20
564.3356832122
 30
0.0
 11
57.8867958548
 21
564.3356832122
 31
0.0
  0
LINE
  5
287
330
75
100
AcDbEntity
  8
4221039_0__SIEB_
  6
Continuous
 62
     7
100
AcDbLine
 10
59.3725101405
 20
564.1356832122
 30
0.0
 11
59.8919143763
 21
564.1356832122
 31
0.0
  0
LINE
  5
288
330
75
100
AcDbEntity
  8
4221039_0__SIEB_
  6
Continuous
 62
     7
100
AcDbLine
 10
59.5892368587
 20
564.3356832122
 30
0.0
 11
59.4225101405
 21
564.3356832122
 31
0.0
  0
LINE
  5
289
330
75
100
AcDbEntity
  8
4221039_0__SIEB_
  6
Continuous
 62
     7
100
AcDbLine
 10
45.4010815691
 20
563.6108333494
 30
0.0
 11
45.4010815691
 21
563.5178260694
 31
0.0
  0
LINE
  5
28A
330
75
100
AcDbEntity
  8
4221039_0__SIEB_
  6
Continuous
 62
     7
100
AcDbLine
 10
45.6010815691
 20
563.5178260694
 30
0.0
 11
45.6010815691
 21
563.7946434331
 31
0.0
  0
LINE
  5
28B
330
75
100
AcDbEntity
  8
4221039_0__SIEB_
  6
Continuous
 62
     7
100
AcDbLine
 10
46.9367958548
 20
564.1356832122
 30
0.0
 11
46.9367958548
 21
563.5178260694
 31
0.0
  0
LINE
  5
28C
330
75
100
AcDbEntity
  8
4221039_0__SIEB_
  6
Continuous
 62
     7
100
AcDbLine
 10
47.1367958548
 20
563.5178260694
 30
0.0
 11
47.1367958548
 21
564.1356832122
 31
0.0
  0
LINE
  5
28D
330
75
100
AcDbEntity
  8
4221039_0__SIEB_
  6
Continuous
 62
     7
100
AcDbLine
 10
48.4725101405
 20
564.1356832122
 30
0.0
 11
48.4725101405
 21
563.5178260694
 31
0.0
  0
LINE
  5
28E
330
75
100
AcDbEntity
  8
4221039_0__SIEB_
  6
Continuous
 62
     7
100
AcDbLine
 10
48.6725101405
 20
563.5178260694
 30
0.0
 11
48.6725101405
 21
564.1356832122
 31
0.0
  0
LINE
  5
28F
330
75
100
AcDbEntity
  8
4221039_0__SIEB_
  6
Continuous
 62
     7
100
AcDbLine
 10
50.0082244262
 20
564.1356832122
 30
0.0
 11
50.0082244262
 21
563.5178260694
 31
0.0
  0
LINE
  5
290
330
75
100
AcDbEntity
  8
4221039_0__SIEB_
  6
Continuous
 62
     7
100
AcDbLine
 10
50.2082244262
 20
563.5178260694
 30
0.0
 11
50.2082244262
 21
564.1356832122
 31
0.0
  0
LINE
  5
291
330
75
100
AcDbEntity
  8
4221039_0__SIEB_
  6
Continuous
 62
     7
100
AcDbLine
 10
51.543938712
 20
564.1356832122
 30
0.0
 11
51.543938712
 21
563.5178260694
 31
0.0
  0
LINE
  5
292
330
75
100
AcDbEntity
  8
4221039_0__SIEB_
  6
Continuous
 62
     7
100
AcDbLine
 10
51.743938712
 20
563.5178260694
 30
0.0
 11
51.743938712
 21
564.1356832122
 31
0.0
  0
LINE
  5
293
330
75
100
AcDbEntity
  8
4221039_0__SIEB_
  6
Continuous
 62
     7
100
AcDbLine
 10
53.0796529977
 20
564.1356832122
 30
0.0
 11
53.0796529977
 21
563.5178260694
 31
0.0
  0
LINE
  5
294
330
75
100
AcDbEntity
  8
4221039_0__SIEB_
  6
Continuous
 62
     7
100
AcDbLine
 10
53.2796529977
 20
563.5178260694
 30
0.0
 11
53.2796529977
 21
564.1356832122
 31
0.0
  0
LINE
  5
295
330
75
100
AcDbEntity
  8
4221039_0__SIEB_
  6
Continuous
 62
     7
100
AcDbLine
 10
54.6153672834
 20
564.1356832122
 30
0.0
 11
54.6153672834
 21
563.5178260694
 31
0.0
  0
LINE
  5
296
330
75
100
AcDbEntity
  8
4221039_0__SIEB_
  6
Continuous
 62
     7
100
AcDbLine
 10
54.8153672834
 20
563.5178260694
 30
0.0
 11
54.8153672834
 21
564.1356832122
 31
0.0
  0
LINE
  5
297
330
75
100
AcDbEntity
  8
4221039_0__SIEB_
  6
Continuous
 62
     7
100
AcDbLine
 10
56.1510815691
 20
564.1356832122
 30
0.0
 11
56.1510815691
 21
563.5178260694
 31
0.0
  0
LINE
  5
298
330
75
100
AcDbEntity
  8
4221039_0__SIEB_
  6
Continuous
 62
     7
100
AcDbLine
 10
56.3510815691
 20
563.5178260694
 30
0.0
 11
56.3510815691
 21
564.1356832122
 31
0.0
  0
LINE
  5
299
330
75
100
AcDbEntity
  8
4221039_0__SIEB_
  6
Continuous
 62
     7
100
AcDbLine
 10
57.6867958548
 20
564.1356832122
 30
0.0
 11
57.6867958548
 21
563.5178260694
 31
0.0
  0
LINE
  5
29A
330
75
100
AcDbEntity
  8
4221039_0__SIEB_
  6
Continuous
 62
     7
100
AcDbLine
 10
57.8867958548
 20
563.5178260694
 30
0.0
 11
57.8867958548
 21
564.1356832122
 31
0.0
  0
LINE
  5
29B
330
75
100
AcDbEntity
  8
4221039_0__SIEB_
  6
Continuous
 62
     7
100
AcDbLine
 10
59.2225101405
 20
564.1356832122
 30
0.0
 11
59.2225101405
 21
563.5178260694
 31
0.0
  0
LINE
  5
29C
330
75
100
AcDbEntity
  8
4221039_0__SIEB_
  6
Continuous
 62
     7
100
AcDbLine
 10
59.4225101405
 20
563.5178260694
 30
0.0
 11
59.4225101405
 21
564.1356832122
 31
0.0
  0
LINE
  5
29D
330
75
100
AcDbEntity
  8
4221039_0__SIEB_
  6
Continuous
 62
     7
100
AcDbLine
 10
59.3725101405
 20
563.3678260694
 30
0.0
 11
60.7596486392
 21
563.3678260694
 31
0.0
  0
LINE
  5
29E
330
75
100
AcDbEntity
  8
4221039_0__SIEB_
  6
Continuous
 62
     7
100
AcDbLine
 10
60.573125613
 20
563.5678260694
 30
0.0
 11
59.4225101405
 21
563.5678260694
 31
0.0
  0
LINE
  5
29F
330
75
100
AcDbEntity
  8
4221039_0__SIEB_
  6
Continuous
 62
     7
100
AcDbLine
 10
57.8367958548
 20
563.3678260694
 30
0.0
 11
59.2725101405
 21
563.3678260694
 31
0.0
  0
LINE
  5
2A0
330
75
100
AcDbEntity
  8
4221039_0__SIEB_
  6
Continuous
 62
     7
100
AcDbLine
 10
59.2225101405
 20
563.5678260694
 30
0.0
 11
57.8867958548
 21
563.5678260694
 31
0.0
  0
LINE
  5
2A1
330
75
100
AcDbEntity
  8
4221039_0__SIEB_
  6
Continuous
 62
     7
100
AcDbLine
 10
56.3010815691
 20
563.3678260694
 30
0.0
 11
57.7367958548
 21
563.3678260694
 31
0.0
  0
LINE
  5
2A2
330
75
100
AcDbEntity
  8
4221039_0__SIEB_
  6
Continuous
 62
     7
100
AcDbLine
 10
57.6867958548
 20
563.5678260694
 30
0.0
 11
56.3510815691
 21
563.5678260694
 31
0.0
  0
LINE
  5
2A3
330
75
100
AcDbEntity
  8
4221039_0__SIEB_
  6
Continuous
 62
     7
100
AcDbLine
 10
54.7653672834
 20
563.3678260694
 30
0.0
 11
56.2010815691
 21
563.3678260694
 31
0.0
  0
LINE
  5
2A4
330
75
100
AcDbEntity
  8
4221039_0__SIEB_
  6
Continuous
 62
     7
100
AcDbLine
 10
56.1510815691
 20
563.5678260694
 30
0.0
 11
54.8153672834
 21
563.5678260694
 31
0.0
  0
LINE
  5
2A5
330
75
100
AcDbEntity
  8
4221039_0__SIEB_
  6
Continuous
 62
     7
100
AcDbLine
 10
53.2296529977
 20
563.3678260694
 30
0.0
 11
54.6653672834
 21
563.3678260694
 31
0.0
  0
LINE
  5
2A6
330
75
100
AcDbEntity
  8
4221039_0__SIEB_
  6
Continuous
 62
     7
100
AcDbLine
 10
54.6153672834
 20
563.5678260694
 30
0.0
 11
53.2796529977
 21
563.5678260694
 31
0.0
  0
LINE
  5
2A7
330
75
100
AcDbEntity
  8
4221039_0__SIEB_
  6
Continuous
 62
     7
100
AcDbLine
 10
51.693938712
 20
563.3678260694
 30
0.0
 11
53.1296529977
 21
563.3678260694
 31
0.0
  0
LINE
  5
2A8
330
75
100
AcDbEntity
  8
4221039_0__SIEB_
  6
Continuous
 62
     7
100
AcDbLine
 10
53.0796529977
 20
563.5678260694
 30
0.0
 11
51.743938712
 21
563.5678260694
 31
0.0
  0
LINE
  5
2A9
330
75
100
AcDbEntity
  8
4221039_0__SIEB_
  6
Continuous
 62
     7
100
AcDbLine
 10
50.1582244262
 20
563.3678260694
 30
0.0
 11
51.593938712
 21
563.3678260694
 31
0.0
  0
LINE
  5
2AA
330
75
100
AcDbEntity
  8
4221039_0__SIEB_
  6
Continuous
 62
     7
100
AcDbLine
 10
51.543938712
 20
563.5678260694
 30
0.0
 11
50.2082244262
 21
563.5678260694
 31
0.0
  0
LINE
  5
2AB
330
75
100
AcDbEntity
  8
4221039_0__SIEB_
  6
Continuous
 62
     7
100
AcDbLine
 10
48.6225101405
 20
563.3678260694
 30
0.0
 11
50.0582244262
 21
563.3678260694
 31
0.0
  0
LINE
  5
2AC
330
75
100
AcDbEntity
  8
4221039_0__SIEB_
  6
Continuous
 62
     7
100
AcDbLine
 10
50.0082244262
 20
563.5678260694
 30
0.0
 11
48.6725101405
 21
563.5678260694
 31
0.0
  0
LINE
  5
2AD
330
75
100
AcDbEntity
  8
4221039_0__SIEB_
  6
Continuous
 62
     7
100
AcDbLine
 10
47.0867958548
 20
563.3678260694
 30
0.0
 11
48.5225101405
 21
563.3678260694
 31
0.0
  0
LINE
  5
2AE
330
75
100
AcDbEntity
  8
4221039_0__SIEB_
  6
Continuous
 62
     7
100
AcDbLine
 10
48.4725101405
 20
563.5678260694
 30
0.0
 11
47.1367958548
 21
563.5678260694
 31
0.0
  0
LINE
  5
2AF
330
75
100
AcDbEntity
  8
4221039_0__SIEB_
  6
Continuous
 62
     7
100
AcDbLine
 10
45.5510815691
 20
563.3678260694
 30
0.0
 11
46.9867958548
 21
563.3678260694
 31
0.0
  0
LINE
  5
2B0
330
75
100
AcDbEntity
  8
4221039_0__SIEB_
  6
Continuous
 62
     7
100
AcDbLine
 10
46.9367958548
 20
563.5678260694
 30
0.0
 11
45.6010815691
 21
563.5678260694
 31
0.0
  0
LINE
  5
2B1
330
75
100
AcDbEntity
  8
4221039_0__SIEB_
  6
Continuous
 62
     7
100
AcDbLine
 10
45.1710859276
 20
563.3678260694
 30
0.0
 11
45.4510815691
 21
563.3678260694
 31
0.0
  0
LINE
  5
2B2
330
75
100
AcDbEntity
  8
4221039_0__SIEB_
  6
Continuous
 62
     7
100
AcDbLine
 10
45.4010815691
 20
563.5678260694
 30
0.0
 11
45.3576089537
 21
563.5678260694
 31
0.0
  0
LINE
  5
2B3
330
75
100
AcDbEntity
  8
4221039_0__SIEB_
  6
Continuous
 62
     7
100
AcDbLine
 10
60.7582244262
 20
563.3678260694
 30
0.0
 11
60.7582244262
 21
562.7499689265
 31
0.0
  0
LINE
  5
2B4
330
75
100
AcDbEntity
  8
4221039_0__SIEB_
  6
Continuous
 62
     7
100
AcDbLine
 10
60.9582244262
 20
562.7499689265
 30
0.0
 11
60.9582244262
 21
563.1183534955
 31
0.0
  0
LINE
  5
2B5
330
75
100
AcDbEntity
  8
4221039_0__SIEB_
  6
Continuous
 62
     7
100
AcDbLine
 10
59.2225101405
 20
563.3678260694
 30
0.0
 11
59.2225101405
 21
562.7499689265
 31
0.0
  0
LINE
  5
2B6
330
75
100
AcDbEntity
  8
4221039_0__SIEB_
  6
Continuous
 62
     7
100
AcDbLine
 10
59.4225101405
 20
562.7499689265
 30
0.0
 11
59.4225101405
 21
563.3678260694
 31
0.0
  0
LINE
  5
2B7
330
75
100
AcDbEntity
  8
4221039_0__SIEB_
  6
Continuous
 62
     7
100
AcDbLine
 10
57.6867958548
 20
563.3678260694
 30
0.0
 11
57.6867958548
 21
562.7499689265
 31
0.0
  0
LINE
  5
2B8
330
75
100
AcDbEntity
  8
4221039_0__SIEB_
  6
Continuous
 62
     7
100
AcDbLine
 10
57.8867958548
 20
562.7499689265
 30
0.0
 11
57.8867958548
 21
563.3678260694
 31
0.0
  0
LINE
  5
2B9
330
75
100
AcDbEntity
  8
4221039_0__SIEB_
  6
Continuous
 62
     7
100
AcDbLine
 10
56.1510815691
 20
563.3678260694
 30
0.0
 11
56.1510815691
 21
562.7499689265
 31
0.0
  0
LINE
  5
2BA
330
75
100
AcDbEntity
  8
4221039_0__SIEB_
  6
Continuous
 62
     7
100
AcDbLine
 10
56.3510815691
 20
562.7499689265
 30
0.0
 11
56.3510815691
 21
563.3678260694
 31
0.0
  0
LINE
  5
2BB
330
75
100
AcDbEntity
  8
4221039_0__SIEB_
  6
Continuous
 62
     7
100
AcDbLine
 10
54.6153672834
 20
563.3678260694
 30
0.0
 11
54.6153672834
 21
562.7499689265
 31
0.0
  0
LINE
  5
2BC
330
75
100
AcDbEntity
  8
4221039_0__SIEB_
  6
Continuous
 62
     7
100
AcDbLine
 10
54.8153672834
 20
562.7499689265
 30
0.0
 11
54.8153672834
 21
563.3678260694
 31
0.0
  0
LINE
  5
2BD
330
75
100
AcDbEntity
  8
4221039_0__SIEB_
  6
Continuous
 62
     7
100
AcDbLine
 10
53.0796529977
 20
563.3678260694
 30
0.0
 11
53.0796529977
 21
562.7499689265
 31
0.0
  0
LINE
  5
2BE
330
75
100
AcDbEntity
  8
4221039_0__SIEB_
  6
Continuous
 62
     7
100
AcDbLine
 10
53.2796529977
 20
562.7499689265
 30
0.0
 11
53.2796529977
 21
563.3678260694
 31
0.0
  0
LINE
  5
2BF
330
75
100
AcDbEntity
  8
4221039_0__SIEB_
  6
Continuous
 62
     7
100
AcDbLine
 10
51.543938712
 20
563.3678260694
 30
0.0
 11
51.543938712
 21
562.7499689265
 31
0.0
  0
LINE
  5
2C0
330
75
100
AcDbEntity
  8
4221039_0__SIEB_
  6
Continuous
 62
     7
100
AcDbLine
 10
51.743938712
 20
562.7499689265
 30
0.0
 11
51.743938712
 21
563.3678260694
 31
0.0
  0
LINE
  5
2C1
330
75
100
AcDbEntity
  8
4221039_0__SIEB_
  6
Continuous
 62
     7
100
AcDbLine
 10
50.0082244262
 20
563.3678260694
 30
0.0
 11
50.0082244262
 21
562.7499689265
 31
0.0
  0
LINE
  5
2C2
330
75
100
AcDbEntity
  8
4221039_0__SIEB_
  6
Continuous
 62
     7
100
AcDbLine
 10
50.2082244262
 20
562.7499689265
 30
0.0
 11
50.2082244262
 21
563.3678260694
 31
0.0
  0
LINE
  5
2C3
330
75
100
AcDbEntity
  8
4221039_0__SIEB_
  6
Continuous
 62
     7
100
AcDbLine
 10
48.4725101405
 20
563.3678260694
 30
0.0
 11
48.4725101405
 21
562.7499689265
 31
0.0
  0
LINE
  5
2C4
330
75
100
AcDbEntity
  8
4221039_0__SIEB_
  6
Continuous
 62
     7
100
AcDbLine
 10
48.6725101405
 20
562.7499689265
 30
0.0
 11
48.6725101405
 21
563.3678260694
 31
0.0
  0
LINE
  5
2C5
330
75
100
AcDbEntity
  8
4221039_0__SIEB_
  6
Continuous
 62
     7
100
AcDbLine
 10
46.9367958548
 20
563.3678260694
 30
0.0
 11
46.9367958548
 21
562.7499689265
 31
0.0
  0
LINE
  5
2C6
330
75
100
AcDbEntity
  8
4221039_0__SIEB_
  6
Continuous
 62
     7
100
AcDbLine
 10
47.1367958548
 20
562.7499689265
 30
0.0
 11
47.1367958548
 21
563.3678260694
 31
0.0
  0
LINE
  5
2C7
330
75
100
AcDbEntity
  8
4221039_0__SIEB_
  6
Continuous
 62
     7
100
AcDbLine
 10
45.4010815691
 20
563.3678260694
 30
0.0
 11
45.4010815691
 21
562.7499689265
 31
0.0
  0
LINE
  5
2C8
330
75
100
AcDbEntity
  8
4221039_0__SIEB_
  6
Continuous
 62
     7
100
AcDbLine
 10
45.6010815691
 20
562.7499689265
 30
0.0
 11
45.6010815691
 21
563.3678260694
 31
0.0
  0
LINE
  5
2C9
330
75
100
AcDbEntity
  8
4221039_0__SIEB_
  6
Continuous
 62
     7
100
AcDbLine
 10
44.6703234413
 20
562.5999689265
 30
0.0
 11
45.4510815691
 21
562.5999689265
 31
0.0
  0
LINE
  5
2CA
330
75
100
AcDbEntity
  8
4221039_0__SIEB_
  6
Continuous
 62
     7
100
AcDbLine
 10
45.4010815691
 20
562.7999689265
 30
0.0
 11
44.7700339332
 21
562.7999689265
 31
0.0
  0
LINE
  5
2CB
330
75
100
AcDbEntity
  8
4221039_0__SIEB_
  6
Continuous
 62
     7
100
AcDbLine
 10
45.5510815691
 20
562.5999689265
 30
0.0
 11
46.9867958548
 21
562.5999689265
 31
0.0
  0
LINE
  5
2CC
330
75
100
AcDbEntity
  8
4221039_0__SIEB_
  6
Continuous
 62
     7
100
AcDbLine
 10
46.9367958548
 20
562.7999689265
 30
0.0
 11
45.6010815691
 21
562.7999689265
 31
0.0
  0
LINE
  5
2CD
330
75
100
AcDbEntity
  8
4221039_0__SIEB_
  6
Continuous
 62
     7
100
AcDbLine
 10
47.0867958548
 20
562.5999689265
 30
0.0
 11
48.5225101405
 21
562.5999689265
 31
0.0
  0
LINE
  5
2CE
330
75
100
AcDbEntity
  8
4221039_0__SIEB_
  6
Continuous
 62
     7
100
AcDbLine
 10
48.4725101405
 20
562.7999689265
 30
0.0
 11
47.1367958548
 21
562.7999689265
 31
0.0
  0
LINE
  5
2CF
330
75
100
AcDbEntity
  8
4221039_0__SIEB_
  6
Continuous
 62
     7
100
AcDbLine
 10
48.6225101405
 20
562.5999689265
 30
0.0
 11
50.0582244262
 21
562.5999689265
 31
0.0
  0
LINE
  5
2D0
330
75
100
AcDbEntity
  8
4221039_0__SIEB_
  6
Continuous
 62
     7
100
AcDbLine
 10
50.0082244262
 20
562.7999689265
 30
0.0
 11
48.6725101405
 21
562.7999689265
 31
0.0
  0
LINE
  5
2D1
330
75
100
AcDbEntity
  8
4221039_0__SIEB_
  6
Continuous
 62
     7
100
AcDbLine
 10
50.1582244262
 20
562.5999689265
 30
0.0
 11
51.593938712
 21
562.5999689265
 31
0.0
  0
LINE
  5
2D2
330
75
100
AcDbEntity
  8
4221039_0__SIEB_
  6
Continuous
 62
     7
100
AcDbLine
 10
51.543938712
 20
562.7999689265
 30
0.0
 11
50.2082244262
 21
562.7999689265
 31
0.0
  0
LINE
  5
2D3
330
75
100
AcDbEntity
  8
4221039_0__SIEB_
  6
Continuous
 62
     7
100
AcDbLine
 10
51.693938712
 20
562.5999689265
 30
0.0
 11
53.1296529977
 21
562.5999689265
 31
0.0
  0
LINE
  5
2D4
330
75
100
AcDbEntity
  8
4221039_0__SIEB_
  6
Continuous
 62
     7
100
AcDbLine
 10
53.0796529977
 20
562.7999689265
 30
0.0
 11
51.743938712
 21
562.7999689265
 31
0.0
  0
LINE
  5
2D5
330
75
100
AcDbEntity
  8
4221039_0__SIEB_
  6
Continuous
 62
     7
100
AcDbLine
 10
53.2296529977
 20
562.5999689265
 30
0.0
 11
54.6653672834
 21
562.5999689265
 31
0.0
  0
LINE
  5
2D6
330
75
100
AcDbEntity
  8
4221039_0__SIEB_
  6
Continuous
 62
     7
100
AcDbLine
 10
54.6153672834
 20
562.7999689265
 30
0.0
 11
53.2796529977
 21
562.7999689265
 31
0.0
  0
LINE
  5
2D7
330
75
100
AcDbEntity
  8
4221039_0__SIEB_
  6
Continuous
 62
     7
100
AcDbLine
 10
54.7653672834
 20
562.5999689265
 30
0.0
 11
56.2010815691
 21
562.5999689265
 31
0.0
  0
LINE
  5
2D8
330
75
100
AcDbEntity
  8
4221039_0__SIEB_
  6
Continuous
 62
     7
100
AcDbLine
 10
56.1510815691
 20
562.7999689265
 30
0.0
 11
54.8153672834
 21
562.7999689265
 31
0.0
  0
LINE
  5
2D9
330
75
100
AcDbEntity
  8
4221039_0__SIEB_
  6
Continuous
 62
     7
100
AcDbLine
 10
56.3010815691
 20
562.5999689265
 30
0.0
 11
57.7367958548
 21
562.5999689265
 31
0.0
  0
LINE
  5
2DA
330
75
100
AcDbEntity
  8
4221039_0__SIEB_
  6
Continuous
 62
     7
100
AcDbLine
 10
57.6867958548
 20
562.7999689265
 30
0.0
 11
56.3510815691
 21
562.7999689265
 31
0.0
  0
LINE
  5
2DB
330
75
100
AcDbEntity
  8
4221039_0__SIEB_
  6
Continuous
 62
     7
100
AcDbLine
 10
57.8367958548
 20
562.5999689265
 30
0.0
 11
59.2725101405
 21
562.5999689265
 31
0.0
  0
LINE
  5
2DC
330
75
100
AcDbEntity
  8
4221039_0__SIEB_
  6
Continuous
 62
     7
100
AcDbLine
 10
59.2225101405
 20
562.7999689265
 30
0.0
 11
57.8867958548
 21
562.7999689265
 31
0.0
  0
LINE
  5
2DD
330
75
100
AcDbEntity
  8
4221039_0__SIEB_
  6
Continuous
 62
     7
100
AcDbLine
 10
59.3725101405
 20
562.5999689265
 30
0.0
 11
60.8082244262
 21
562.5999689265
 31
0.0
  0
LINE
  5
2DE
330
75
100
AcDbEntity
  8
4221039_0__SIEB_
  6
Continuous
 62
     7
100
AcDbLine
 10
60.7582244262
 20
562.7999689265
 30
0.0
 11
59.4225101405
 21
562.7999689265
 31
0.0
  0
LINE
  5
2DF
330
75
100
AcDbEntity
  8
4221039_0__SIEB_
  6
Continuous
 62
     7
100
AcDbLine
 10
60.9082244262
 20
562.5999689265
 30
0.0
 11
61.2604111255
 21
562.5999689265
 31
0.0
  0
LINE
  5
2E0
330
75
100
AcDbEntity
  8
4221039_0__SIEB_
  6
Continuous
 62
     7
100
AcDbLine
 10
61.1607006335
 20
562.7999689265
 30
0.0
 11
60.9582244262
 21
562.7999689265
 31
0.0
  0
LINE
  5
2E1
330
75
100
AcDbEntity
  8
4221039_0__SIEB_
  6
Continuous
 62
     7
100
AcDbLine
 10
45.4010815691
 20
562.5999689265
 30
0.0
 11
45.4010815691
 21
561.9821117837
 31
0.0
  0
LINE
  5
2E2
330
75
100
AcDbEntity
  8
4221039_0__SIEB_
  6
Continuous
 62
     7
100
AcDbLine
 10
45.6010815691
 20
561.9821117837
 30
0.0
 11
45.6010815691
 21
562.5999689265
 31
0.0
  0
LINE
  5
2E3
330
75
100
AcDbEntity
  8
4221039_0__SIEB_
  6
Continuous
 62
     7
100
AcDbLine
 10
46.9367958548
 20
562.5999689265
 30
0.0
 11
46.9367958548
 21
561.9821117837
 31
0.0
  0
LINE
  5
2E4
330
75
100
AcDbEntity
  8
4221039_0__SIEB_
  6
Continuous
 62
     7
100
AcDbLine
 10
47.1367958548
 20
561.9821117837
 30
0.0
 11
47.1367958548
 21
562.5999689265
 31
0.0
  0
LINE
  5
2E5
330
75
100
AcDbEntity
  8
4221039_0__SIEB_
  6
Continuous
 62
     7
100
AcDbLine
 10
48.4725101405
 20
562.5999689265
 30
0.0
 11
48.4725101405
 21
561.9821117837
 31
0.0
  0
LINE
  5
2E6
330
75
100
AcDbEntity
  8
4221039_0__SIEB_
  6
Continuous
 62
     7
100
AcDbLine
 10
48.6725101405
 20
561.9821117837
 30
0.0
 11
48.6725101405
 21
562.5999689265
 31
0.0
  0
LINE
  5
2E7
330
75
100
AcDbEntity
  8
4221039_0__SIEB_
  6
Continuous
 62
     7
100
AcDbLine
 10
50.0082244262
 20
562.5999689265
 30
0.0
 11
50.0082244262
 21
561.9821117837
 31
0.0
  0
LINE
  5
2E8
330
75
100
AcDbEntity
  8
4221039_0__SIEB_
  6
Continuous
 62
     7
100
AcDbLine
 10
50.2082244262
 20
561.9821117837
 30
0.0
 11
50.2082244262
 21
562.5999689265
 31
0.0
  0
LINE
  5
2E9
330
75
100
AcDbEntity
  8
4221039_0__SIEB_
  6
Continuous
 62
     7
100
AcDbLine
 10
51.543938712
 20
562.5999689265
 30
0.0
 11
51.543938712
 21
561.9821117837
 31
0.0
  0
LINE
  5
2EA
330
75
100
AcDbEntity
  8
4221039_0__SIEB_
  6
Continuous
 62
     7
100
AcDbLine
 10
51.743938712
 20
561.9821117837
 30
0.0
 11
51.743938712
 21
562.5999689265
 31
0.0
  0
LINE
  5
2EB
330
75
100
AcDbEntity
  8
4221039_0__SIEB_
  6
Continuous
 62
     7
100
AcDbLine
 10
53.0796529977
 20
562.5999689265
 30
0.0
 11
53.0796529977
 21
561.9821117837
 31
0.0
  0
LINE
  5
2EC
330
75
100
AcDbEntity
  8
4221039_0__SIEB_
  6
Continuous
 62
     7
100
AcDbLine
 10
53.2796529977
 20
561.9821117837
 30
0.0
 11
53.2796529977
 21
562.5999689265
 31
0.0
  0
LINE
  5
2ED
330
75
100
AcDbEntity
  8
4221039_0__SIEB_
  6
Continuous
 62
     7
100
AcDbLine
 10
54.6153672834
 20
562.5999689265
 30
0.0
 11
54.6153672834
 21
561.9821117837
 31
0.0
  0
LINE
  5
2EE
330
75
100
AcDbEntity
  8
4221039_0__SIEB_
  6
Continuous
 62
     7
100
AcDbLine
 10
54.8153672834
 20
561.9821117837
 30
0.0
 11
54.8153672834
 21
562.5999689265
 31
0.0
  0
LINE
  5
2EF
330
75
100
AcDbEntity
  8
4221039_0__SIEB_
  6
Continuous
 62
     7
100
AcDbLine
 10
56.1510815691
 20
562.5999689265
 30
0.0
 11
56.1510815691
 21
561.9821117837
 31
0.0
  0
LINE
  5
2F0
330
75
100
AcDbEntity
  8
4221039_0__SIEB_
  6
Continuous
 62
     7
100
AcDbLine
 10
56.3510815691
 20
561.9821117837
 30
0.0
 11
56.3510815691
 21
562.5999689265
 31
0.0
  0
LINE
  5
2F1
330
75
100
AcDbEntity
  8
4221039_0__SIEB_
  6
Continuous
 62
     7
100
AcDbLine
 10
57.6867958548
 20
562.5999689265
 30
0.0
 11
57.6867958548
 21
561.9821117837
 31
0.0
  0
LINE
  5
2F2
330
75
100
AcDbEntity
  8
4221039_0__SIEB_
  6
Continuous
 62
     7
100
AcDbLine
 10
57.8867958548
 20
561.9821117837
 30
0.0
 11
57.8867958548
 21
562.5999689265
 31
0.0
  0
LINE
  5
2F3
330
75
100
AcDbEntity
  8
4221039_0__SIEB_
  6
Continuous
 62
     7
100
AcDbLine
 10
59.2225101405
 20
562.5999689265
 30
0.0
 11
59.2225101405
 21
561.9821117837
 31
0.0
  0
LINE
  5
2F4
330
75
100
AcDbEntity
  8
4221039_0__SIEB_
  6
Continuous
 62
     7
100
AcDbLine
 10
59.4225101405
 20
561.9821117837
 30
0.0
 11
59.4225101405
 21
562.5999689265
 31
0.0
  0
LINE
  5
2F5
330
75
100
AcDbEntity
  8
4221039_0__SIEB_
  6
Continuous
 62
     7
100
AcDbLine
 10
60.7582244262
 20
562.5999689265
 30
0.0
 11
60.7582244262
 21
561.9821117837
 31
0.0
  0
LINE
  5
2F6
330
75
100
AcDbEntity
  8
4221039_0__SIEB_
  6
Continuous
 62
     7
100
AcDbLine
 10
60.9582244262
 20
561.9821117837
 30
0.0
 11
60.9582244262
 21
562.5999689265
 31
0.0
  0
LINE
  5
2F7
330
75
100
AcDbEntity
  8
4221039_0__SIEB_
  6
Continuous
 62
     7
100
AcDbLine
 10
60.9082244262
 20
561.8321117837
 30
0.0
 11
61.4593561047
 21
561.8321117837
 31
0.0
  0
LINE
  5
2F8
330
75
100
AcDbEntity
  8
4221039_0__SIEB_
  6
Continuous
 62
     7
100
AcDbLine
 10
61.4348509691
 20
562.0321117837
 30
0.0
 11
60.9582244262
 21
562.0321117837
 31
0.0
  0
LINE
  5
2F9
330
75
100
AcDbEntity
  8
4221039_0__SIEB_
  6
Continuous
 62
     7
100
AcDbLine
 10
59.3725101405
 20
561.8321117837
 30
0.0
 11
60.8082244262
 21
561.8321117837
 31
0.0
  0
LINE
  5
2FA
330
75
100
AcDbEntity
  8
4221039_0__SIEB_
  6
Continuous
 62
     7
100
AcDbLine
 10
60.7582244262
 20
562.0321117837
 30
0.0
 11
59.4225101405
 21
562.0321117837
 31
0.0
  0
LINE
  5
2FB
330
75
100
AcDbEntity
  8
4221039_0__SIEB_
  6
Continuous
 62
     7
100
AcDbLine
 10
57.8367958548
 20
561.8321117837
 30
0.0
 11
59.2725101405
 21
561.8321117837
 31
0.0
  0
LINE
  5
2FC
330
75
100
AcDbEntity
  8
4221039_0__SIEB_
  6
Continuous
 62
     7
100
AcDbLine
 10
59.2225101405
 20
562.0321117837
 30
0.0
 11
57.8867958548
 21
562.0321117837
 31
0.0
  0
LINE
  5
2FD
330
75
100
AcDbEntity
  8
4221039_0__SIEB_
  6
Continuous
 62
     7
100
AcDbLine
 10
56.3010815691
 20
561.8321117837
 30
0.0
 11
57.7367958548
 21
561.8321117837
 31
0.0
  0
LINE
  5
2FE
330
75
100
AcDbEntity
  8
4221039_0__SIEB_
  6
Continuous
 62
     7
100
AcDbLine
 10
57.6867958548
 20
562.0321117837
 30
0.0
 11
56.3510815691
 21
562.0321117837
 31
0.0
  0
LINE
  5
2FF
330
75
100
AcDbEntity
  8
4221039_0__SIEB_
  6
Continuous
 62
     7
100
AcDbLine
 10
54.7653672834
 20
561.8321117837
 30
0.0
 11
56.2010815691
 21
561.8321117837
 31
0.0
  0
LINE
  5
300
330
75
100
AcDbEntity
  8
4221039_0__SIEB_
  6
Continuous
 62
     7
100
AcDbLine
 10
56.1510815691
 20
562.0321117837
 30
0.0
 11
54.8153672834
 21
562.0321117837
 31
0.0
  0
LINE
  5
301
330
75
100
AcDbEntity
  8
4221039_0__SIEB_
  6
Continuous
 62
     7
100
AcDbLine
 10
53.2296529977
 20
561.8321117837
 30
0.0
 11
54.6653672834
 21
561.8321117837
 31
0.0
  0
LINE
  5
302
330
75
100
AcDbEntity
  8
4221039_0__SIEB_
  6
Continuous
 62
     7
100
AcDbLine
 10
54.6153672834
 20
562.0321117837
 30
0.0
 11
53.2796529977
 21
562.0321117837
 31
0.0
  0
LINE
  5
303
330
75
100
AcDbEntity
  8
4221039_0__SIEB_
  6
Continuous
 62
     7
100
AcDbLine
 10
51.693938712
 20
561.8321117837
 30
0.0
 11
53.1296529977
 21
561.8321117837
 31
0.0
  0
LINE
  5
304
330
75
100
AcDbEntity
  8
4221039_0__SIEB_
  6
Continuous
 62
     7
100
AcDbLine
 10
53.0796529977
 20
562.0321117837
 30
0.0
 11
51.743938712
 21
562.0321117837
 31
0.0
  0
LINE
  5
305
330
75
100
AcDbEntity
  8
4221039_0__SIEB_
  6
Continuous
 62
     7
100
AcDbLine
 10
50.1582244262
 20
561.8321117837
 30
0.0
 11
51.593938712
 21
561.8321117837
 31
0.0
  0
LINE
  5
306
330
75
100
AcDbEntity
  8
4221039_0__SIEB_
  6
Continuous
 62
     7
100
AcDbLine
 10
51.543938712
 20
562.0321117837
 30
0.0
 11
50.2082244262
 21
562.0321117837
 31
0.0
  0
LINE
  5
307
330
75
100
AcDbEntity
  8
4221039_0__SIEB_
  6
Continuous
 62
     7
100
AcDbLine
 10
48.6225101405
 20
561.8321117837
 30
0.0
 11
50.0582244262
 21
561.8321117837
 31
0.0
  0
LINE
  5
308
330
75
100
AcDbEntity
  8
4221039_0__SIEB_
  6
Continuous
 62
     7
100
AcDbLine
 10
50.0082244262
 20
562.0321117837
 30
0.0
 11
48.6725101405
 21
562.0321117837
 31
0.0
  0
LINE
  5
309
330
75
100
AcDbEntity
  8
4221039_0__SIEB_
  6
Continuous
 62
     7
100
AcDbLine
 10
47.0867958548
 20
561.8321117837
 30
0.0
 11
48.5225101405
 21
561.8321117837
 31
0.0
  0
LINE
  5
30A
330
75
100
AcDbEntity
  8
4221039_0__SIEB_
  6
Continuous
 62
     7
100
AcDbLine
 10
48.4725101405
 20
562.0321117837
 30
0.0
 11
47.1367958548
 21
562.0321117837
 31
0.0
  0
LINE
  5
30B
330
75
100
AcDbEntity
  8
4221039_0__SIEB_
  6
Continuous
 62
     7
100
AcDbLine
 10
45.5510815691
 20
561.8321117837
 30
0.0
 11
46.9867958548
 21
561.8321117837
 31
0.0
  0
LINE
  5
30C
330
75
100
AcDbEntity
  8
4221039_0__SIEB_
  6
Continuous
 62
     7
100
AcDbLine
 10
46.9367958548
 20
562.0321117837
 30
0.0
 11
45.6010815691
 21
562.0321117837
 31
0.0
  0
LINE
  5
30D
330
75
100
AcDbEntity
  8
4221039_0__SIEB_
  6
Continuous
 62
     7
100
AcDbLine
 10
44.471378462
 20
561.8321117837
 30
0.0
 11
45.4510815691
 21
561.8321117837
 31
0.0
  0
LINE
  5
30E
330
75
100
AcDbEntity
  8
4221039_0__SIEB_
  6
Continuous
 62
     7
100
AcDbLine
 10
45.4010815691
 20
562.0321117837
 30
0.0
 11
44.4958835976
 21
562.0321117837
 31
0.0
  0
LINE
  5
30F
330
75
100
AcDbEntity
  8
4221039_0__SIEB_
  6
Continuous
 62
     7
100
AcDbLine
 10
60.7582244262
 20
561.8321117837
 30
0.0
 11
60.7582244262
 21
561.2142546408
 31
0.0
  0
LINE
  5
310
330
75
100
AcDbEntity
  8
4221039_0__SIEB_
  6
Continuous
 62
     7
100
AcDbLine
 10
60.9582244262
 20
561.2142546408
 30
0.0
 11
60.9582244262
 21
561.8321117837
 31
0.0
  0
LINE
  5
311
330
75
100
AcDbEntity
  8
4221039_0__SIEB_
  6
Continuous
 62
     7
100
AcDbLine
 10
59.2225101405
 20
561.8321117837
 30
0.0
 11
59.2225101405
 21
561.2142546408
 31
0.0
  0
LINE
  5
312
330
75
100
AcDbEntity
  8
4221039_0__SIEB_
  6
Continuous
 62
     7
100
AcDbLine
 10
59.4225101405
 20
561.2142546408
 30
0.0
 11
59.4225101405
 21
561.8321117837
 31
0.0
  0
LINE
  5
313
330
75
100
AcDbEntity
  8
4221039_0__SIEB_
  6
Continuous
 62
     7
100
AcDbLine
 10
57.6867958548
 20
561.8321117837
 30
0.0
 11
57.6867958548
 21
561.2142546408
 31
0.0
  0
LINE
  5
314
330
75
100
AcDbEntity
  8
4221039_0__SIEB_
  6
Continuous
 62
     7
100
AcDbLine
 10
57.8867958548
 20
561.2142546408
 30
0.0
 11
57.8867958548
 21
561.8321117837
 31
0.0
  0
LINE
  5
315
330
75
100
AcDbEntity
  8
4221039_0__SIEB_
  6
Continuous
 62
     7
100
AcDbLine
 10
56.1510815691
 20
561.8321117837
 30
0.0
 11
56.1510815691
 21
561.2142546408
 31
0.0
  0
LINE
  5
316
330
75
100
AcDbEntity
  8
4221039_0__SIEB_
  6
Continuous
 62
     7
100
AcDbLine
 10
56.3510815691
 20
561.2142546408
 30
0.0
 11
56.3510815691
 21
561.8321117837
 31
0.0
  0
LINE
  5
317
330
75
100
AcDbEntity
  8
4221039_0__SIEB_
  6
Continuous
 62
     7
100
AcDbLine
 10
54.6153672834
 20
561.8321117837
 30
0.0
 11
54.6153672834
 21
561.2142546408
 31
0.0
  0
LINE
  5
318
330
75
100
AcDbEntity
  8
4221039_0__SIEB_
  6
Continuous
 62
     7
100
AcDbLine
 10
54.8153672834
 20
561.2142546408
 30
0.0
 11
54.8153672834
 21
561.8321117837
 31
0.0
  0
LINE
  5
319
330
75
100
AcDbEntity
  8
4221039_0__SIEB_
  6
Continuous
 62
     7
100
AcDbLine
 10
53.0796529977
 20
561.8321117837
 30
0.0
 11
53.0796529977
 21
561.2142546408
 31
0.0
  0
LINE
  5
31A
330
75
100
AcDbEntity
  8
4221039_0__SIEB_
  6
Continuous
 62
     7
100
AcDbLine
 10
53.2796529977
 20
561.2142546408
 30
0.0
 11
53.2796529977
 21
561.8321117837
 31
0.0
  0
LINE
  5
31B
330
75
100
AcDbEntity
  8
4221039_0__SIEB_
  6
Continuous
 62
     7
100
AcDbLine
 10
51.543938712
 20
561.8321117837
 30
0.0
 11
51.543938712
 21
561.2142546408
 31
0.0
  0
LINE
  5
31C
330
75
100
AcDbEntity
  8
4221039_0__SIEB_
  6
Continuous
 62
     7
100
AcDbLine
 10
51.743938712
 20
561.2142546408
 30
0.0
 11
51.743938712
 21
561.8321117837
 31
0.0
  0
LINE
  5
31D
330
75
100
AcDbEntity
  8
4221039_0__SIEB_
  6
Continuous
 62
     7
100
AcDbLine
 10
50.0082244262
 20
561.8321117837
 30
0.0
 11
50.0082244262
 21
561.2142546408
 31
0.0
  0
LINE
  5
31E
330
75
100
AcDbEntity
  8
4221039_0__SIEB_
  6
Continuous
 62
     7
100
AcDbLine
 10
50.2082244262
 20
561.2142546408
 30
0.0
 11
50.2082244262
 21
561.8321117837
 31
0.0
  0
LINE
  5
31F
330
75
100
AcDbEntity
  8
4221039_0__SIEB_
  6
Continuous
 62
     7
100
AcDbLine
 10
48.4725101405
 20
561.8321117837
 30
0.0
 11
48.4725101405
 21
561.2142546408
 31
0.0
  0
LINE
  5
320
330
75
100
AcDbEntity
  8
4221039_0__SIEB_
  6
Continuous
 62
     7
100
AcDbLine
 10
48.6725101405
 20
561.2142546408
 30
0.0
 11
48.6725101405
 21
561.8321117837
 31
0.0
  0
LINE
  5
321
330
75
100
AcDbEntity
  8
4221039_0__SIEB_
  6
Continuous
 62
     7
100
AcDbLine
 10
46.9367958548
 20
561.8321117837
 30
0.0
 11
46.9367958548
 21
561.2142546408
 31
0.0
  0
LINE
  5
322
330
75
100
AcDbEntity
  8
4221039_0__SIEB_
  6
Continuous
 62
     7
100
AcDbLine
 10
47.1367958548
 20
561.2142546408
 30
0.0
 11
47.1367958548
 21
561.8321117837
 31
0.0
  0
LINE
  5
323
330
75
100
AcDbEntity
  8
4221039_0__SIEB_
  6
Continuous
 62
     7
100
AcDbLine
 10
45.4010815691
 20
561.8321117837
 30
0.0
 11
45.4010815691
 21
561.2142546408
 31
0.0
  0
LINE
  5
324
330
75
100
AcDbEntity
  8
4221039_0__SIEB_
  6
Continuous
 62
     7
100
AcDbLine
 10
45.6010815691
 20
561.2142546408
 30
0.0
 11
45.6010815691
 21
561.8321117837
 31
0.0
  0
LINE
  5
325
330
75
100
AcDbEntity
  8
4221039_0__SIEB_
  6
Continuous
 62
     7
100
AcDbLine
 10
44.1061383925
 20
561.0642546408
 30
0.0
 11
45.4510815691
 21
561.0642546408
 31
0.0
  0
LINE
  5
326
330
75
100
AcDbEntity
  8
4221039_0__SIEB_
  6
Continuous
 62
     7
100
AcDbLine
 10
45.4010815691
 20
561.2642546408
 30
0.0
 11
44.5709722875
 21
561.2642546408
 31
0.0
  0
LINE
  5
327
330
75
100
AcDbEntity
  8
4221039_0__SIEB_
  6
Continuous
 62
     7
100
AcDbLine
 10
45.5510815691
 20
561.0642546408
 30
0.0
 11
46.9867958548
 21
561.0642546408
 31
0.0
  0
LINE
  5
328
330
75
100
AcDbEntity
  8
4221039_0__SIEB_
  6
Continuous
 62
     7
100
AcDbLine
 10
46.9367958548
 20
561.2642546408
 30
0.0
 11
45.6010815691
 21
561.2642546408
 31
0.0
  0
LINE
  5
329
330
75
100
AcDbEntity
  8
4221039_0__SIEB_
  6
Continuous
 62
     7
100
AcDbLine
 10
47.0867958548
 20
561.0642546408
 30
0.0
 11
48.5225101405
 21
561.0642546408
 31
0.0
  0
LINE
  5
32A
330
75
100
AcDbEntity
  8
4221039_0__SIEB_
  6
Continuous
 62
     7
100
AcDbLine
 10
48.4725101405
 20
561.2642546408
 30
0.0
 11
47.1367958548
 21
561.2642546408
 31
0.0
  0
LINE
  5
32B
330
75
100
AcDbEntity
  8
4221039_0__SIEB_
  6
Continuous
 62
     7
100
AcDbLine
 10
48.6225101405
 20
561.0642546408
 30
0.0
 11
50.0582244262
 21
561.0642546408
 31
0.0
  0
LINE
  5
32C
330
75
100
AcDbEntity
  8
4221039_0__SIEB_
  6
Continuous
 62
     7
100
AcDbLine
 10
50.0082244262
 20
561.2642546408
 30
0.0
 11
48.6725101405
 21
561.2642546408
 31
0.0
  0
LINE
  5
32D
330
75
100
AcDbEntity
  8
4221039_0__SIEB_
  6
Continuous
 62
     7
100
AcDbLine
 10
50.1582244262
 20
561.0642546408
 30
0.0
 11
51.593938712
 21
561.0642546408
 31
0.0
  0
LINE
  5
32E
330
75
100
AcDbEntity
  8
4221039_0__SIEB_
  6
Continuous
 62
     7
100
AcDbLine
 10
51.543938712
 20
561.2642546408
 30
0.0
 11
50.2082244262
 21
561.2642546408
 31
0.0
  0
LINE
  5
32F
330
75
100
AcDbEntity
  8
4221039_0__SIEB_
  6
Continuous
 62
     7
100
AcDbLine
 10
51.693938712
 20
561.0642546408
 30
0.0
 11
53.1296529977
 21
561.0642546408
 31
0.0
  0
LINE
  5
330
330
75
100
AcDbEntity
  8
4221039_0__SIEB_
  6
Continuous
 62
     7
100
AcDbLine
 10
53.0796529977
 20
561.2642546408
 30
0.0
 11
51.743938712
 21
561.2642546408
 31
0.0
  0
LINE
  5
331
330
75
100
AcDbEntity
  8
4221039_0__SIEB_
  6
Continuous
 62
     7
100
AcDbLine
 10
53.2296529977
 20
561.0642546408
 30
0.0
 11
54.6653672834
 21
561.0642546408
 31
0.0
  0
LINE
  5
332
330
75
100
AcDbEntity
  8
4221039_0__SIEB_
  6
Continuous
 62
     7
100
AcDbLine
 10
54.6153672834
 20
561.2642546408
 30
0.0
 11
53.2796529977
 21
561.2642546408
 31
0.0
  0
LINE
  5
333
330
75
100
AcDbEntity
  8
4221039_0__SIEB_
  6
Continuous
 62
     7
100
AcDbLine
 10
54.7653672834
 20
561.0642546408
 30
0.0
 11
56.2010815691
 21
561.0642546408
 31
0.0
  0
LINE
  5
334
330
75
100
AcDbEntity
  8
4221039_0__SIEB_
  6
Continuous
 62
     7
100
AcDbLine
 10
56.1510815691
 20
561.2642546408
 30
0.0
 11
54.8153672834
 21
561.2642546408
 31
0.0
  0
LINE
  5
335
330
75
100
AcDbEntity
  8
4221039_0__SIEB_
  6
Continuous
 62
     7
100
AcDbLine
 10
56.3010815691
 20
561.0642546408
 30
0.0
 11
57.7367958548
 21
561.0642546408
 31
0.0
  0
LINE
  5
336
330
75
100
AcDbEntity
  8
4221039_0__SIEB_
  6
Continuous
 62
     7
100
AcDbLine
 10
57.6867958548
 20
561.2642546408
 30
0.0
 11
56.3510815691
 21
561.2642546408
 31
0.0
  0
LINE
  5
337
330
75
100
AcDbEntity
  8
4221039_0__SIEB_
  6
Continuous
 62
     7
100
AcDbLine
 10
57.8367958548
 20
561.0642546408
 30
0.0
 11
59.2725101405
 21
561.0642546408
 31
0.0
  0
LINE
  5
338
330
75
100
AcDbEntity
  8
4221039_0__SIEB_
  6
Continuous
 62
     7
100
AcDbLine
 10
59.2225101405
 20
561.2642546408
 30
0.0
 11
57.8867958548
 21
561.2642546408
 31
0.0
  0
LINE
  5
339
330
75
100
AcDbEntity
  8
4221039_0__SIEB_
  6
Continuous
 62
     7
100
AcDbLine
 10
59.3725101405
 20
561.0642546408
 30
0.0
 11
60.8082244262
 21
561.0642546408
 31
0.0
  0
LINE
  5
33A
330
75
100
AcDbEntity
  8
4221039_0__SIEB_
  6
Continuous
 62
     7
100
AcDbLine
 10
60.7582244262
 20
561.2642546408
 30
0.0
 11
59.4225101405
 21
561.2642546408
 31
0.0
  0
LINE
  5
33B
330
75
100
AcDbEntity
  8
4221039_0__SIEB_
  6
Continuous
 62
     7
100
AcDbLine
 10
60.9082244262
 20
561.0642546408
 30
0.0
 11
61.82468737
 21
561.0642546408
 31
0.0
  0
LINE
  5
33C
330
75
100
AcDbEntity
  8
4221039_0__SIEB_
  6
Continuous
 62
     7
100
AcDbLine
 10
61.3597622793
 20
561.2642546408
 30
0.0
 11
60.9582244262
 21
561.2642546408
 31
0.0
  0
LINE
  5
33D
330
75
100
AcDbEntity
  8
4221039_0__SIEB_
  6
Continuous
 62
     7
100
AcDbLine
 10
45.4010815691
 20
561.0642546408
 30
0.0
 11
45.4010815691
 21
560.446397498
 31
0.0
  0
LINE
  5
33E
330
75
100
AcDbEntity
  8
4221039_0__SIEB_
  6
Continuous
 62
     7
100
AcDbLine
 10
45.6010815691
 20
560.446397498
 30
0.0
 11
45.6010815691
 21
561.0642546408
 31
0.0
  0
LINE
  5
33F
330
75
100
AcDbEntity
  8
4221039_0__SIEB_
  6
Continuous
 62
     7
100
AcDbLine
 10
46.9367958548
 20
561.0642546408
 30
0.0
 11
46.9367958548
 21
560.446397498
 31
0.0
  0
LINE
  5
340
330
75
100
AcDbEntity
  8
4221039_0__SIEB_
  6
Continuous
 62
     7
100
AcDbLine
 10
47.1367958548
 20
560.446397498
 30
0.0
 11
47.1367958548
 21
561.0642546408
 31
0.0
  0
LINE
  5
341
330
75
100
AcDbEntity
  8
4221039_0__SIEB_
  6
Continuous
 62
     7
100
AcDbLine
 10
48.4725101405
 20
561.0642546408
 30
0.0
 11
48.4725101405
 21
560.446397498
 31
0.0
  0
LINE
  5
342
330
75
100
AcDbEntity
  8
4221039_0__SIEB_
  6
Continuous
 62
     7
100
AcDbLine
 10
48.6725101405
 20
560.446397498
 30
0.0
 11
48.6725101405
 21
561.0642546408
 31
0.0
  0
LINE
  5
343
330
75
100
AcDbEntity
  8
4221039_0__SIEB_
  6
Continuous
 62
     7
100
AcDbLine
 10
50.0082244262
 20
561.0642546408
 30
0.0
 11
50.0082244262
 21
560.446397498
 31
0.0
  0
LINE
  5
344
330
75
100
AcDbEntity
  8
4221039_0__SIEB_
  6
Continuous
 62
     7
100
AcDbLine
 10
50.2082244262
 20
560.446397498
 30
0.0
 11
50.2082244262
 21
561.0642546408
 31
0.0
  0
LINE
  5
345
330
75
100
AcDbEntity
  8
4221039_0__SIEB_
  6
Continuous
 62
     7
100
AcDbLine
 10
51.543938712
 20
561.0642546408
 30
0.0
 11
51.543938712
 21
560.446397498
 31
0.0
  0
LINE
  5
346
330
75
100
AcDbEntity
  8
4221039_0__SIEB_
  6
Continuous
 62
     7
100
AcDbLine
 10
51.743938712
 20
560.446397498
 30
0.0
 11
51.743938712
 21
561.0642546408
 31
0.0
  0
LINE
  5
347
330
75
100
AcDbEntity
  8
4221039_0__SIEB_
  6
Continuous
 62
     7
100
AcDbLine
 10
53.0796529977
 20
561.0642546408
 30
0.0
 11
53.0796529977
 21
560.446397498
 31
0.0
  0
LINE
  5
348
330
75
100
AcDbEntity
  8
4221039_0__SIEB_
  6
Continuous
 62
     7
100
AcDbLine
 10
53.2796529977
 20
560.446397498
 30
0.0
 11
53.2796529977
 21
561.0642546408
 31
0.0
  0
LINE
  5
349
330
75
100
AcDbEntity
  8
4221039_0__SIEB_
  6
Continuous
 62
     7
100
AcDbLine
 10
54.6153672834
 20
561.0642546408
 30
0.0
 11
54.6153672834
 21
560.446397498
 31
0.0
  0
LINE
  5
34A
330
75
100
AcDbEntity
  8
4221039_0__SIEB_
  6
Continuous
 62
     7
100
AcDbLine
 10
54.8153672834
 20
560.446397498
 30
0.0
 11
54.8153672834
 21
561.0642546408
 31
0.0
  0
LINE
  5
34B
330
75
100
AcDbEntity
  8
4221039_0__SIEB_
  6
Continuous
 62
     7
100
AcDbLine
 10
56.1510815691
 20
561.0642546408
 30
0.0
 11
56.1510815691
 21
560.446397498
 31
0.0
  0
LINE
  5
34C
330
75
100
AcDbEntity
  8
4221039_0__SIEB_
  6
Continuous
 62
     7
100
AcDbLine
 10
56.3510815691
 20
560.446397498
 30
0.0
 11
56.3510815691
 21
561.0642546408
 31
0.0
  0
LINE
  5
34D
330
75
100
AcDbEntity
  8
4221039_0__SIEB_
  6
Continuous
 62
     7
100
AcDbLine
 10
57.6867958548
 20
561.0642546408
 30
0.0
 11
57.6867958548
 21
560.446397498
 31
0.0
  0
LINE
  5
34E
330
75
100
AcDbEntity
  8
4221039_0__SIEB_
  6
Continuous
 62
     7
100
AcDbLine
 10
57.8867958548
 20
560.446397498
 30
0.0
 11
57.8867958548
 21
561.0642546408
 31
0.0
  0
LINE
  5
34F
330
75
100
AcDbEntity
  8
4221039_0__SIEB_
  6
Continuous
 62
     7
100
AcDbLine
 10
59.2225101405
 20
561.0642546408
 30
0.0
 11
59.2225101405
 21
560.446397498
 31
0.0
  0
LINE
  5
350
330
75
100
AcDbEntity
  8
4221039_0__SIEB_
  6
Continuous
 62
     7
100
AcDbLine
 10
59.4225101405
 20
560.446397498
 30
0.0
 11
59.4225101405
 21
561.0642546408
 31
0.0
  0
LINE
  5
351
330
75
100
AcDbEntity
  8
4221039_0__SIEB_
  6
Continuous
 62
     7
100
AcDbLine
 10
60.7582244262
 20
561.0642546408
 30
0.0
 11
60.7582244262
 21
560.446397498
 31
0.0
  0
LINE
  5
352
330
75
100
AcDbEntity
  8
4221039_0__SIEB_
  6
Continuous
 62
     7
100
AcDbLine
 10
60.9582244262
 20
560.4860624507
 30
0.0
 11
60.9582244262
 21
561.0642546408
 31
0.0
  0
LINE
  5
353
330
75
100
AcDbEntity
  8
4221039_0__SIEB_
  6
Continuous
 62
     7
100
AcDbLine
 10
60.9656734
 20
560.496397498
 30
0.0
 11
60.9582244262
 21
560.496397498
 31
0.0
  0
LINE
  5
354
330
75
100
AcDbEntity
  8
4221039_0__SIEB_
  6
Continuous
 62
     7
100
AcDbLine
 10
59.3725101405
 20
560.296397498
 30
0.0
 11
60.8082244262
 21
560.296397498
 31
0.0
  0
LINE
  5
355
330
75
100
AcDbEntity
  8
4221039_0__SIEB_
  6
Continuous
 62
     7
100
AcDbLine
 10
60.7582244262
 20
560.496397498
 30
0.0
 11
59.4225101405
 21
560.496397498
 31
0.0
  0
LINE
  5
356
330
75
100
AcDbEntity
  8
4221039_0__SIEB_
  6
Continuous
 62
     7
100
AcDbLine
 10
57.8367958548
 20
560.296397498
 30
0.0
 11
59.2725101405
 21
560.296397498
 31
0.0
  0
LINE
  5
357
330
75
100
AcDbEntity
  8
4221039_0__SIEB_
  6
Continuous
 62
     7
100
AcDbLine
 10
59.2225101405
 20
560.496397498
 30
0.0
 11
57.8867958548
 21
560.496397498
 31
0.0
  0
LINE
  5
358
330
75
100
AcDbEntity
  8
4221039_0__SIEB_
  6
Continuous
 62
     7
100
AcDbLine
 10
56.3010815691
 20
560.296397498
 30
0.0
 11
57.7367958548
 21
560.296397498
 31
0.0
  0
LINE
  5
359
330
75
100
AcDbEntity
  8
4221039_0__SIEB_
  6
Continuous
 62
     7
100
AcDbLine
 10
57.6867958548
 20
560.496397498
 30
0.0
 11
56.3510815691
 21
560.496397498
 31
0.0
  0
LINE
  5
35A
330
75
100
AcDbEntity
  8
4221039_0__SIEB_
  6
Continuous
 62
     7
100
AcDbLine
 10
54.7653672834
 20
560.296397498
 30
0.0
 11
56.2010815691
 21
560.296397498
 31
0.0
  0
LINE
  5
35B
330
75
100
AcDbEntity
  8
4221039_0__SIEB_
  6
Continuous
 62
     7
100
AcDbLine
 10
56.1510815691
 20
560.496397498
 30
0.0
 11
54.8153672834
 21
560.496397498
 31
0.0
  0
LINE
  5
35C
330
75
100
AcDbEntity
  8
4221039_0__SIEB_
  6
Continuous
 62
     7
100
AcDbLine
 10
53.2296529977
 20
560.296397498
 30
0.0
 11
54.6653672834
 21
560.296397498
 31
0.0
  0
LINE
  5
35D
330
75
100
AcDbEntity
  8
4221039_0__SIEB_
  6
Continuous
 62
     7
100
AcDbLine
 10
54.6153672834
 20
560.496397498
 30
0.0
 11
53.2796529977
 21
560.496397498
 31
0.0
  0
LINE
  5
35E
330
75
100
AcDbEntity
  8
4221039_0__SIEB_
  6
Continuous
 62
     7
100
AcDbLine
 10
51.693938712
 20
560.296397498
 30
0.0
 11
53.1296529977
 21
560.296397498
 31
0.0
  0
LINE
  5
35F
330
75
100
AcDbEntity
  8
4221039_0__SIEB_
  6
Continuous
 62
     7
100
AcDbLine
 10
53.0796529977
 20
560.496397498
 30
0.0
 11
51.743938712
 21
560.496397498
 31
0.0
  0
LINE
  5
360
330
75
100
AcDbEntity
  8
4221039_0__SIEB_
  6
Continuous
 62
     7
100
AcDbLine
 10
50.1582244262
 20
560.296397498
 30
0.0
 11
51.593938712
 21
560.296397498
 31
0.0
  0
LINE
  5
361
330
75
100
AcDbEntity
  8
4221039_0__SIEB_
  6
Continuous
 62
     7
100
AcDbLine
 10
51.543938712
 20
560.496397498
 30
0.0
 11
50.2082244262
 21
560.496397498
 31
0.0
  0
LINE
  5
362
330
75
100
AcDbEntity
  8
4221039_0__SIEB_
  6
Continuous
 62
     7
100
AcDbLine
 10
48.6225101405
 20
560.296397498
 30
0.0
 11
50.0582244262
 21
560.296397498
 31
0.0
  0
LINE
  5
363
330
75
100
AcDbEntity
  8
4221039_0__SIEB_
  6
Continuous
 62
     7
100
AcDbLine
 10
50.0082244262
 20
560.496397498
 30
0.0
 11
48.6725101405
 21
560.496397498
 31
0.0
  0
LINE
  5
364
330
75
100
AcDbEntity
  8
4221039_0__SIEB_
  6
Continuous
 62
     7
100
AcDbLine
 10
47.0867958548
 20
560.296397498
 30
0.0
 11
48.5225101405
 21
560.296397498
 31
0.0
  0
LINE
  5
365
330
75
100
AcDbEntity
  8
4221039_0__SIEB_
  6
Continuous
 62
     7
100
AcDbLine
 10
48.4725101405
 20
560.496397498
 30
0.0
 11
47.1367958548
 21
560.496397498
 31
0.0
  0
LINE
  5
366
330
75
100
AcDbEntity
  8
4221039_0__SIEB_
  6
Continuous
 62
     7
100
AcDbLine
 10
45.5510815691
 20
560.296397498
 30
0.0
 11
46.9867958548
 21
560.296397498
 31
0.0
  0
LINE
  5
367
330
75
100
AcDbEntity
  8
4221039_0__SIEB_
  6
Continuous
 62
     7
100
AcDbLine
 10
46.9367958548
 20
560.496397498
 30
0.0
 11
45.6010815691
 21
560.496397498
 31
0.0
  0
LINE
  5
368
330
75
100
AcDbEntity
  8
4221039_0__SIEB_
  6
Continuous
 62
     7
100
AcDbLine
 10
44.5239441204
 20
560.296397498
 30
0.0
 11
45.4510815691
 21
560.296397498
 31
0.0
  0
LINE
  5
369
330
75
100
AcDbEntity
  8
4221039_0__SIEB_
  6
Continuous
 62
     7
100
AcDbLine
 10
45.4010815691
 20
560.496397498
 30
0.0
 11
44.9650611668
 21
560.496397498
 31
0.0
  0
LINE
  5
36A
330
75
100
AcDbEntity
  8
4221039_0__SIEB_
  6
Continuous
 62
     7
100
AcDbLine
 10
60.7582244262
 20
560.296397498
 30
0.0
 11
60.7582244262
 21
560.2349540456
 31
0.0
  0
LINE
  5
36B
330
75
100
AcDbEntity
  8
4221039_0__SIEB_
  6
Continuous
 62
     7
100
AcDbLine
 10
59.2225101405
 20
560.296397498
 30
0.0
 11
59.2225101405
 21
559.6785403551
 31
0.0
  0
LINE
  5
36C
330
75
100
AcDbEntity
  8
4221039_0__SIEB_
  6
Continuous
 62
     7
100
AcDbLine
 10
59.4225101405
 20
559.6785403551
 30
0.0
 11
59.4225101405
 21
560.296397498
 31
0.0
  0
LINE
  5
36D
330
75
100
AcDbEntity
  8
4221039_0__SIEB_
  6
Continuous
 62
     7
100
AcDbLine
 10
57.6867958548
 20
560.296397498
 30
0.0
 11
57.6867958548
 21
559.6785403551
 31
0.0
  0
LINE
  5
36E
330
75
100
AcDbEntity
  8
4221039_0__SIEB_
  6
Continuous
 62
     7
100
AcDbLine
 10
57.8867958548
 20
559.6785403551
 30
0.0
 11
57.8867958548
 21
560.296397498
 31
0.0
  0
LINE
  5
36F
330
75
100
AcDbEntity
  8
4221039_0__SIEB_
  6
Continuous
 62
     7
100
AcDbLine
 10
56.1510815691
 20
560.296397498
 30
0.0
 11
56.1510815691
 21
559.6785403551
 31
0.0
  0
LINE
  5
370
330
75
100
AcDbEntity
  8
4221039_0__SIEB_
  6
Continuous
 62
     7
100
AcDbLine
 10
56.3510815691
 20
559.6785403551
 30
0.0
 11
56.3510815691
 21
560.296397498
 31
0.0
  0
LINE
  5
371
330
75
100
AcDbEntity
  8
4221039_0__SIEB_
  6
Continuous
 62
     7
100
AcDbLine
 10
54.6153672834
 20
560.296397498
 30
0.0
 11
54.6153672834
 21
559.6785403551
 31
0.0
  0
LINE
  5
372
330
75
100
AcDbEntity
  8
4221039_0__SIEB_
  6
Continuous
 62
     7
100
AcDbLine
 10
54.8153672834
 20
559.6785403551
 30
0.0
 11
54.8153672834
 21
560.296397498
 31
0.0
  0
LINE
  5
373
330
75
100
AcDbEntity
  8
4221039_0__SIEB_
  6
Continuous
 62
     7
100
AcDbLine
 10
53.0796529977
 20
560.296397498
 30
0.0
 11
53.0796529977
 21
559.6785403551
 31
0.0
  0
LINE
  5
374
330
75
100
AcDbEntity
  8
4221039_0__SIEB_
  6
Continuous
 62
     7
100
AcDbLine
 10
53.2796529977
 20
559.6785403551
 30
0.0
 11
53.2796529977
 21
560.296397498
 31
0.0
  0
LINE
  5
375
330
75
100
AcDbEntity
  8
4221039_0__SIEB_
  6
Continuous
 62
     7
100
AcDbLine
 10
51.543938712
 20
560.296397498
 30
0.0
 11
51.543938712
 21
559.6785403551
 31
0.0
  0
LINE
  5
376
330
75
100
AcDbEntity
  8
4221039_0__SIEB_
  6
Continuous
 62
     7
100
AcDbLine
 10
51.743938712
 20
559.6785403551
 30
0.0
 11
51.743938712
 21
560.296397498
 31
0.0
  0
LINE
  5
377
330
75
100
AcDbEntity
  8
4221039_0__SIEB_
  6
Continuous
 62
     7
100
AcDbLine
 10
50.0082244262
 20
560.296397498
 30
0.0
 11
50.0082244262
 21
559.6785403551
 31
0.0
  0
LINE
  5
378
330
75
100
AcDbEntity
  8
4221039_0__SIEB_
  6
Continuous
 62
     7
100
AcDbLine
 10
50.2082244262
 20
559.6785403551
 30
0.0
 11
50.2082244262
 21
560.296397498
 31
0.0
  0
LINE
  5
379
330
75
100
AcDbEntity
  8
4221039_0__SIEB_
  6
Continuous
 62
     7
100
AcDbLine
 10
48.4725101405
 20
560.296397498
 30
0.0
 11
48.4725101405
 21
559.6785403551
 31
0.0
  0
LINE
  5
37A
330
75
100
AcDbEntity
  8
4221039_0__SIEB_
  6
Continuous
 62
     7
100
AcDbLine
 10
48.6725101405
 20
559.6785403551
 30
0.0
 11
48.6725101405
 21
560.296397498
 31
0.0
  0
LINE
  5
37B
330
75
100
AcDbEntity
  8
4221039_0__SIEB_
  6
Continuous
 62
     7
100
AcDbLine
 10
46.9367958548
 20
560.296397498
 30
0.0
 11
46.9367958548
 21
559.6785403551
 31
0.0
  0
LINE
  5
37C
330
75
100
AcDbEntity
  8
4221039_0__SIEB_
  6
Continuous
 62
     7
100
AcDbLine
 10
47.1367958548
 20
559.6785403551
 30
0.0
 11
47.1367958548
 21
560.296397498
 31
0.0
  0
LINE
  5
37D
330
75
100
AcDbEntity
  8
4221039_0__SIEB_
  6
Continuous
 62
     7
100
AcDbLine
 10
45.4010815691
 20
560.296397498
 30
0.0
 11
45.4010815691
 21
559.9935825968
 31
0.0
  0
LINE
  5
37E
330
75
100
AcDbEntity
  8
4221039_0__SIEB_
  6
Continuous
 62
     7
100
AcDbLine
 10
45.6010815691
 20
559.8097725131
 30
0.0
 11
45.6010815691
 21
560.296397498
 31
0.0
  0
LINE
  5
37F
330
75
100
AcDbEntity
  8
4221039_0__SIEB_
  6
Continuous
 62
     7
100
AcDbLine
 10
45.5510815691
 20
559.5285403551
 30
0.0
 11
46.9867958548
 21
559.5285403551
 31
0.0
  0
LINE
  5
380
330
75
100
AcDbEntity
  8
4221039_0__SIEB_
  6
Continuous
 62
     7
100
AcDbLine
 10
46.9367958548
 20
559.7285403551
 30
0.0
 11
45.697142477
 21
559.7285403551
 31
0.0
  0
LINE
  5
381
330
75
100
AcDbEntity
  8
4221039_0__SIEB_
  6
Continuous
 62
     7
100
AcDbLine
 10
47.0867958548
 20
559.5285403551
 30
0.0
 11
48.5225101405
 21
559.5285403551
 31
0.0
  0
LINE
  5
382
330
75
100
AcDbEntity
  8
4221039_0__SIEB_
  6
Continuous
 62
     7
100
AcDbLine
 10
48.4725101405
 20
559.7285403551
 30
0.0
 11
47.1367958548
 21
559.7285403551
 31
0.0
  0
LINE
  5
383
330
75
100
AcDbEntity
  8
4221039_0__SIEB_
  6
Continuous
 62
     7
100
AcDbLine
 10
48.6225101405
 20
559.5285403551
 30
0.0
 11
50.0582244262
 21
559.5285403551
 31
0.0
  0
LINE
  5
384
330
75
100
AcDbEntity
  8
4221039_0__SIEB_
  6
Continuous
 62
     7
100
AcDbLine
 10
50.0082244262
 20
559.7285403551
 30
0.0
 11
48.6725101405
 21
559.7285403551
 31
0.0
  0
LINE
  5
385
330
75
100
AcDbEntity
  8
4221039_0__SIEB_
  6
Continuous
 62
     7
100
AcDbLine
 10
50.1582244262
 20
559.5285403551
 30
0.0
 11
51.593938712
 21
559.5285403551
 31
0.0
  0
LINE
  5
386
330
75
100
AcDbEntity
  8
4221039_0__SIEB_
  6
Continuous
 62
     7
100
AcDbLine
 10
51.543938712
 20
559.7285403551
 30
0.0
 11
50.2082244262
 21
559.7285403551
 31
0.0
  0
LINE
  5
387
330
75
100
AcDbEntity
  8
4221039_0__SIEB_
  6
Continuous
 62
     7
100
AcDbLine
 10
51.693938712
 20
559.5285403551
 30
0.0
 11
53.1296529977
 21
559.5285403551
 31
0.0
  0
LINE
  5
388
330
75
100
AcDbEntity
  8
4221039_0__SIEB_
  6
Continuous
 62
     7
100
AcDbLine
 10
53.0796529977
 20
559.7285403551
 30
0.0
 11
51.743938712
 21
559.7285403551
 31
0.0
  0
LINE
  5
389
330
75
100
AcDbEntity
  8
4221039_0__SIEB_
  6
Continuous
 62
     7
100
AcDbLine
 10
53.2296529977
 20
559.5285403551
 30
0.0
 11
54.6653672834
 21
559.5285403551
 31
0.0
  0
LINE
  5
38A
330
75
100
AcDbEntity
  8
4221039_0__SIEB_
  6
Continuous
 62
     7
100
AcDbLine
 10
54.6153672834
 20
559.7285403551
 30
0.0
 11
53.2796529977
 21
559.7285403551
 31
0.0
  0
LINE
  5
38B
330
75
100
AcDbEntity
  8
4221039_0__SIEB_
  6
Continuous
 62
     7
100
AcDbLine
 10
54.7653672834
 20
559.5285403551
 30
0.0
 11
56.2010815691
 21
559.5285403551
 31
0.0
  0
LINE
  5
38C
330
75
100
AcDbEntity
  8
4221039_0__SIEB_
  6
Continuous
 62
     7
100
AcDbLine
 10
56.1510815691
 20
559.7285403551
 30
0.0
 11
54.8153672834
 21
559.7285403551
 31
0.0
  0
LINE
  5
38D
330
75
100
AcDbEntity
  8
4221039_0__SIEB_
  6
Continuous
 62
     7
100
AcDbLine
 10
56.3010815691
 20
559.5285403551
 30
0.0
 11
57.7367958548
 21
559.5285403551
 31
0.0
  0
LINE
  5
38E
330
75
100
AcDbEntity
  8
4221039_0__SIEB_
  6
Continuous
 62
     7
100
AcDbLine
 10
57.6867958548
 20
559.7285403551
 30
0.0
 11
56.3510815691
 21
559.7285403551
 31
0.0
  0
LINE
  5
38F
330
75
100
AcDbEntity
  8
4221039_0__SIEB_
  6
Continuous
 62
     7
100
AcDbLine
 10
57.8367958548
 20
559.5285403551
 30
0.0
 11
59.2725101405
 21
559.5285403551
 31
0.0
  0
LINE
  5
390
330
75
100
AcDbEntity
  8
4221039_0__SIEB_
  6
Continuous
 62
     7
100
AcDbLine
 10
59.2225101405
 20
559.7285403551
 30
0.0
 11
57.8867958548
 21
559.7285403551
 31
0.0
  0
LINE
  5
391
330
75
100
AcDbEntity
  8
4221039_0__SIEB_
  6
Continuous
 62
     7
100
AcDbLine
 10
59.3725101405
 20
559.5285403551
 30
0.0
 11
60.6671909008
 21
559.5285403551
 31
0.0
  0
LINE
  5
392
330
75
100
AcDbEntity
  8
4221039_0__SIEB_
  6
Continuous
 62
     7
100
AcDbLine
 10
60.2335920898
 20
559.7285403551
 30
0.0
 11
59.4225101405
 21
559.7285403551
 31
0.0
  0
LINE
  5
393
330
75
100
AcDbEntity
  8
4221039_0__SIEB_
  6
Continuous
 62
     7
100
AcDbLine
 10
46.9367958548
 20
559.5285403551
 30
0.0
 11
46.9367958548
 21
558.9360173872
 31
0.0
  0
LINE
  5
394
330
75
100
AcDbEntity
  8
4221039_0__SIEB_
  6
Continuous
 62
     7
100
AcDbLine
 10
47.1367958548
 20
558.9106832122
 30
0.0
 11
47.1367958548
 21
559.5285403551
 31
0.0
  0
LINE
  5
395
330
75
100
AcDbEntity
  8
4221039_0__SIEB_
  6
Continuous
 62
     7
100
AcDbLine
 10
48.4725101405
 20
559.5285403551
 30
0.0
 11
48.4725101405
 21
558.9106832122
 31
0.0
  0
LINE
  5
396
330
75
100
AcDbEntity
  8
4221039_0__SIEB_
  6
Continuous
 62
     7
100
AcDbLine
 10
48.6725101405
 20
558.9106832122
 30
0.0
 11
48.6725101405
 21
559.5285403551
 31
0.0
  0
LINE
  5
397
330
75
100
AcDbEntity
  8
4221039_0__SIEB_
  6
Continuous
 62
     7
100
AcDbLine
 10
50.0082244262
 20
559.5285403551
 30
0.0
 11
50.0082244262
 21
558.9106832122
 31
0.0
  0
LINE
  5
398
330
75
100
AcDbEntity
  8
4221039_0__SIEB_
  6
Continuous
 62
     7
100
AcDbLine
 10
50.2082244262
 20
558.9106832122
 30
0.0
 11
50.2082244262
 21
559.5285403551
 31
0.0
  0
LINE
  5
399
330
75
100
AcDbEntity
  8
4221039_0__SIEB_
  6
Continuous
 62
     7
100
AcDbLine
 10
51.543938712
 20
559.5285403551
 30
0.0
 11
51.543938712
 21
558.9106832122
 31
0.0
  0
LINE
  5
39A
330
75
100
AcDbEntity
  8
4221039_0__SIEB_
  6
Continuous
 62
     7
100
AcDbLine
 10
51.743938712
 20
558.9106832122
 30
0.0
 11
51.743938712
 21
559.5285403551
 31
0.0
  0
LINE
  5
39B
330
75
100
AcDbEntity
  8
4221039_0__SIEB_
  6
Continuous
 62
     7
100
AcDbLine
 10
53.0796529977
 20
559.5285403551
 30
0.0
 11
53.0796529977
 21
558.9106832122
 31
0.0
  0
LINE
  5
39C
330
75
100
AcDbEntity
  8
4221039_0__SIEB_
  6
Continuous
 62
     7
100
AcDbLine
 10
53.2796529977
 20
558.9106832122
 30
0.0
 11
53.2796529977
 21
559.5285403551
 31
0.0
  0
LINE
  5
39D
330
75
100
AcDbEntity
  8
4221039_0__SIEB_
  6
Continuous
 62
     7
100
AcDbLine
 10
54.6153672834
 20
559.5285403551
 30
0.0
 11
54.6153672834
 21
558.9106832122
 31
0.0
  0
LINE
  5
39E
330
75
100
AcDbEntity
  8
4221039_0__SIEB_
  6
Continuous
 62
     7
100
AcDbLine
 10
54.8153672834
 20
558.9106832122
 30
0.0
 11
54.8153672834
 21
559.5285403551
 31
0.0
  0
LINE
  5
39F
330
75
100
AcDbEntity
  8
4221039_0__SIEB_
  6
Continuous
 62
     7
100
AcDbLine
 10
56.1510815691
 20
559.5285403551
 30
0.0
 11
56.1510815691
 21
558.9106832122
 31
0.0
  0
LINE
  5
3A0
330
75
100
AcDbEntity
  8
4221039_0__SIEB_
  6
Continuous
 62
     7
100
AcDbLine
 10
56.3510815691
 20
558.9106832122
 30
0.0
 11
56.3510815691
 21
559.5285403551
 31
0.0
  0
LINE
  5
3A1
330
75
100
AcDbEntity
  8
4221039_0__SIEB_
  6
Continuous
 62
     7
100
AcDbLine
 10
57.6867958548
 20
559.5285403551
 30
0.0
 11
57.6867958548
 21
558.9106832122
 31
0.0
  0
LINE
  5
3A2
330
75
100
AcDbEntity
  8
4221039_0__SIEB_
  6
Continuous
 62
     7
100
AcDbLine
 10
57.8867958548
 20
558.9106832122
 30
0.0
 11
57.8867958548
 21
559.5285403551
 31
0.0
  0
LINE
  5
3A3
330
75
100
AcDbEntity
  8
4221039_0__SIEB_
  6
Continuous
 62
     7
100
AcDbLine
 10
59.2225101405
 20
559.5285403551
 30
0.0
 11
59.2225101405
 21
559.0555616248
 31
0.0
  0
LINE
  5
3A4
330
75
100
AcDbEntity
  8
4221039_0__SIEB_
  6
Continuous
 62
     7
100
AcDbLine
 10
59.4225101405
 20
559.1682690728
 30
0.0
 11
59.4225101405
 21
559.5285403551
 31
0.0
  0
LINE
  5
3A5
330
75
100
AcDbEntity
  8
4221039_0__SIEB_
  6
Continuous
 62
     7
100
AcDbLine
 10
57.8367958548
 20
558.7606832122
 30
0.0
 11
59.2725101405
 21
558.7606832122
 31
0.0
  0
LINE
  5
3A6
330
75
100
AcDbEntity
  8
4221039_0__SIEB_
  6
Continuous
 62
     7
100
AcDbLine
 10
59.0425746173
 20
558.9606832122
 30
0.0
 11
57.8867958548
 21
558.9606832122
 31
0.0
  0
LINE
  5
3A7
330
75
100
AcDbEntity
  8
4221039_0__SIEB_
  6
Continuous
 62
     7
100
AcDbLine
 10
56.3010815691
 20
558.7606832122
 30
0.0
 11
57.7367958548
 21
558.7606832122
 31
0.0
  0
LINE
  5
3A8
330
75
100
AcDbEntity
  8
4221039_0__SIEB_
  6
Continuous
 62
     7
100
AcDbLine
 10
57.6867958548
 20
558.9606832122
 30
0.0
 11
56.3510815691
 21
558.9606832122
 31
0.0
  0
LINE
  5
3A9
330
75
100
AcDbEntity
  8
4221039_0__SIEB_
  6
Continuous
 62
     7
100
AcDbLine
 10
54.7653672834
 20
558.7606832122
 30
0.0
 11
56.2010815691
 21
558.7606832122
 31
0.0
  0
LINE
  5
3AA
330
75
100
AcDbEntity
  8
4221039_0__SIEB_
  6
Continuous
 62
     7
100
AcDbLine
 10
56.1510815691
 20
558.9606832122
 30
0.0
 11
54.8153672834
 21
558.9606832122
 31
0.0
  0
LINE
  5
3AB
330
75
100
AcDbEntity
  8
4221039_0__SIEB_
  6
Continuous
 62
     7
100
AcDbLine
 10
53.2296529977
 20
558.7606832122
 30
0.0
 11
54.6653672834
 21
558.7606832122
 31
0.0
  0
LINE
  5
3AC
330
75
100
AcDbEntity
  8
4221039_0__SIEB_
  6
Continuous
 62
     7
100
AcDbLine
 10
54.6153672834
 20
558.9606832122
 30
0.0
 11
53.2796529977
 21
558.9606832122
 31
0.0
  0
LINE
  5
3AD
330
75
100
AcDbEntity
  8
4221039_0__SIEB_
  6
Continuous
 62
     7
100
AcDbLine
 10
51.693938712
 20
558.7606832122
 30
0.0
 11
53.1296529977
 21
558.7606832122
 31
0.0
  0
LINE
  5
3AE
330
75
100
AcDbEntity
  8
4221039_0__SIEB_
  6
Continuous
 62
     7
100
AcDbLine
 10
53.0796529977
 20
558.9606832122
 30
0.0
 11
51.743938712
 21
558.9606832122
 31
0.0
  0
LINE
  5
3AF
330
75
100
AcDbEntity
  8
4221039_0__SIEB_
  6
Continuous
 62
     7
100
AcDbLine
 10
50.1582244262
 20
558.7606832122
 30
0.0
 11
51.593938712
 21
558.7606832122
 31
0.0
  0
LINE
  5
3B0
330
75
100
AcDbEntity
  8
4221039_0__SIEB_
  6
Continuous
 62
     7
100
AcDbLine
 10
51.543938712
 20
558.9606832122
 30
0.0
 11
50.2082244262
 21
558.9606832122
 31
0.0
  0
LINE
  5
3B1
330
75
100
AcDbEntity
  8
4221039_0__SIEB_
  6
Continuous
 62
     7
100
AcDbLine
 10
48.6225101405
 20
558.7606832122
 30
0.0
 11
50.0582244262
 21
558.7606832122
 31
0.0
  0
LINE
  5
3B2
330
75
100
AcDbEntity
  8
4221039_0__SIEB_
  6
Continuous
 62
     7
100
AcDbLine
 10
50.0082244262
 20
558.9606832122
 30
0.0
 11
48.6725101405
 21
558.9606832122
 31
0.0
  0
LINE
  5
3B3
330
75
100
AcDbEntity
  8
4221039_0__SIEB_
  6
Continuous
 62
     7
100
AcDbLine
 10
47.0867958548
 20
558.7606832122
 30
0.0
 11
48.5225101405
 21
558.7606832122
 31
0.0
  0
LINE
  5
3B4
330
75
100
AcDbEntity
  8
4221039_0__SIEB_
  6
Continuous
 62
     7
100
AcDbLine
 10
48.4725101405
 20
558.9606832122
 30
0.0
 11
47.1367958548
 21
558.9606832122
 31
0.0
  0
LINE
  5
3B5
330
75
100
AcDbEntity
  8
4221039_0__SIEB_
  6
Continuous
 62
     7
100
AcDbLine
 10
46.9367958548
 20
558.9606832122
 30
0.0
 11
46.8881599494
 21
558.9606832122
 31
0.0
  0
LINE
  5
3B6
330
75
100
AcDbEntity
  8
4221039_0__SIEB_
  6
Continuous
 62
     7
100
AcDbLine
 10
57.6867958548
 20
558.7606832122
 30
0.0
 11
57.6867958548
 21
558.3980591438
 31
0.0
  0
LINE
  5
3B7
330
75
100
AcDbEntity
  8
4221039_0__SIEB_
  6
Continuous
 62
     7
100
AcDbLine
 10
57.8867958548
 20
558.4669443701
 30
0.0
 11
57.8867958548
 21
558.7606832122
 31
0.0
  0
LINE
  5
3B8
330
75
100
AcDbEntity
  8
4221039_0__SIEB_
  6
Continuous
 62
     7
100
AcDbLine
 10
56.1510815691
 20
558.7606832122
 30
0.0
 11
56.1510815691
 21
558.1428260694
 31
0.0
  0
LINE
  5
3B9
330
75
100
AcDbEntity
  8
4221039_0__SIEB_
  6
Continuous
 62
     7
100
AcDbLine
 10
56.3510815691
 20
558.1428260694
 30
0.0
 11
56.3510815691
 21
558.7606832122
 31
0.0
  0
LINE
  5
3BA
330
75
100
AcDbEntity
  8
4221039_0__SIEB_
  6
Continuous
 62
     7
100
AcDbLine
 10
54.6153672834
 20
558.7606832122
 30
0.0
 11
54.6153672834
 21
558.1428260694
 31
0.0
  0
LINE
  5
3BB
330
75
100
AcDbEntity
  8
4221039_0__SIEB_
  6
Continuous
 62
     7
100
AcDbLine
 10
54.8153672834
 20
558.1428260694
 30
0.0
 11
54.8153672834
 21
558.7606832122
 31
0.0
  0
LINE
  5
3BC
330
75
100
AcDbEntity
  8
4221039_0__SIEB_
  6
Continuous
 62
     7
100
AcDbLine
 10
53.0796529977
 20
558.7606832122
 30
0.0
 11
53.0796529977
 21
558.1428260694
 31
0.0
  0
LINE
  5
3BD
330
75
100
AcDbEntity
  8
4221039_0__SIEB_
  6
Continuous
 62
     7
100
AcDbLine
 10
53.2796529977
 20
558.1428260694
 30
0.0
 11
53.2796529977
 21
558.7606832122
 31
0.0
  0
LINE
  5
3BE
330
75
100
AcDbEntity
  8
4221039_0__SIEB_
  6
Continuous
 62
     7
100
AcDbLine
 10
51.543938712
 20
558.7606832122
 30
0.0
 11
51.543938712
 21
558.1428260694
 31
0.0
  0
LINE
  5
3BF
330
75
100
AcDbEntity
  8
4221039_0__SIEB_
  6
Continuous
 62
     7
100
AcDbLine
 10
51.743938712
 20
558.1428260694
 30
0.0
 11
51.743938712
 21
558.7606832122
 31
0.0
  0
LINE
  5
3C0
330
75
100
AcDbEntity
  8
4221039_0__SIEB_
  6
Continuous
 62
     7
100
AcDbLine
 10
50.0082244262
 20
558.7606832122
 30
0.0
 11
50.0082244262
 21
558.1428260694
 31
0.0
  0
LINE
  5
3C1
330
75
100
AcDbEntity
  8
4221039_0__SIEB_
  6
Continuous
 62
     7
100
AcDbLine
 10
50.2082244262
 20
558.1428260694
 30
0.0
 11
50.2082244262
 21
558.7606832122
 31
0.0
  0
LINE
  5
3C2
330
75
100
AcDbEntity
  8
4221039_0__SIEB_
  6
Continuous
 62
     7
100
AcDbLine
 10
48.4725101405
 20
558.7606832122
 30
0.0
 11
48.4725101405
 21
558.3243342582
 31
0.0
  0
LINE
  5
3C3
330
75
100
AcDbEntity
  8
4221039_0__SIEB_
  6
Continuous
 62
     7
100
AcDbLine
 10
48.6725101405
 20
558.2639590622
 30
0.0
 11
48.6725101405
 21
558.7606832122
 31
0.0
  0
LINE
  5
3C4
330
75
100
AcDbEntity
  8
4221039_0__SIEB_
  6
Continuous
 62
     7
100
AcDbLine
 10
50.0082244262
 20
558.1928260694
 30
0.0
 11
48.9254453302
 21
558.1928260694
 31
0.0
  0
LINE
  5
3C5
330
75
100
AcDbEntity
  8
4221039_0__SIEB_
  6
Continuous
 62
     7
100
AcDbLine
 10
50.1582244262
 20
557.9928260694
 30
0.0
 11
51.593938712
 21
557.9928260694
 31
0.0
  0
LINE
  5
3C6
330
75
100
AcDbEntity
  8
4221039_0__SIEB_
  6
Continuous
 62
     7
100
AcDbLine
 10
51.543938712
 20
558.1928260694
 30
0.0
 11
50.2082244262
 21
558.1928260694
 31
0.0
  0
LINE
  5
3C7
330
75
100
AcDbEntity
  8
4221039_0__SIEB_
  6
Continuous
 62
     7
100
AcDbLine
 10
51.693938712
 20
557.9928260694
 30
0.0
 11
53.1296529977
 21
557.9928260694
 31
0.0
  0
LINE
  5
3C8
330
75
100
AcDbEntity
  8
4221039_0__SIEB_
  6
Continuous
 62
     7
100
AcDbLine
 10
53.0796529977
 20
558.1928260694
 30
0.0
 11
51.743938712
 21
558.1928260694
 31
0.0
  0
LINE
  5
3C9
330
75
100
AcDbEntity
  8
4221039_0__SIEB_
  6
Continuous
 62
     7
100
AcDbLine
 10
53.2296529977
 20
557.9928260694
 30
0.0
 11
54.6653672834
 21
557.9928260694
 31
0.0
  0
LINE
  5
3CA
330
75
100
AcDbEntity
  8
4221039_0__SIEB_
  6
Continuous
 62
     7
100
AcDbLine
 10
54.6153672834
 20
558.1928260694
 30
0.0
 11
53.2796529977
 21
558.1928260694
 31
0.0
  0
LINE
  5
3CB
330
75
100
AcDbEntity
  8
4221039_0__SIEB_
  6
Continuous
 62
     7
100
AcDbLine
 10
54.7653672834
 20
557.9928260694
 30
0.0
 11
56.2010815691
 21
557.9928260694
 31
0.0
  0
LINE
  5
3CC
330
75
100
AcDbEntity
  8
4221039_0__SIEB_
  6
Continuous
 62
     7
100
AcDbLine
 10
56.1510815691
 20
558.1928260694
 30
0.0
 11
54.8153672834
 21
558.1928260694
 31
0.0
  0
LINE
  5
3CD
330
75
100
AcDbEntity
  8
4221039_0__SIEB_
  6
Continuous
 62
     7
100
AcDbLine
 10
57.0052892366
 20
558.1928260694
 30
0.0
 11
56.3510815691
 21
558.1928260694
 31
0.0
  0
LINE
  5
3CE
330
75
100
AcDbEntity
  8
4221039_0__SIEB_
  6
Continuous
 62
     7
100
AcDbLine
 10
50.0082244262
 20
557.9928260694
 30
0.0
 11
50.0082244262
 21
557.9476009567
 31
0.0
  0
LINE
  5
3CF
330
75
100
AcDbEntity
  8
4221039_0__SIEB_
  6
Continuous
 62
     7
100
AcDbLine
 10
50.2082244262
 20
557.9119077072
 30
0.0
 11
50.2082244262
 21
557.9928260694
 31
0.0
  0
LINE
  5
3D0
330
75
100
AcDbEntity
  8
4221039_0__SIEB_
  6
Continuous
 62
     7
100
AcDbLine
 10
51.543938712
 20
557.9928260694
 30
0.0
 11
51.543938712
 21
557.7419584208
 31
0.0
  0
LINE
  5
3D1
330
75
100
AcDbEntity
  8
4221039_0__SIEB_
  6
Continuous
 62
     7
100
AcDbLine
 10
51.743938712
 20
557.7262197188
 30
0.0
 11
51.743938712
 21
557.9928260694
 31
0.0
  0
LINE
  5
3D2
330
75
100
AcDbEntity
  8
4221039_0__SIEB_
  6
Continuous
 62
     7
100
AcDbLine
 10
53.0796529977
 20
557.9928260694
 30
0.0
 11
53.0796529977
 21
557.6824959547
 31
0.0
  0
LINE
  5
3D3
330
75
100
AcDbEntity
  8
4221039_0__SIEB_
  6
Continuous
 62
     7
100
AcDbLine
 10
53.2796529977
 20
557.6850179393
 30
0.0
 11
53.2796529977
 21
557.9928260694
 31
0.0
  0
LINE
  5
3D4
330
75
100
AcDbEntity
  8
4221039_0__SIEB_
  6
Continuous
 62
     7
100
AcDbLine
 10
54.6153672834
 20
557.9928260694
 30
0.0
 11
54.6153672834
 21
557.7629541949
 31
0.0
  0
LINE
  5
3D5
330
75
100
AcDbEntity
  8
4221039_0__SIEB_
  6
Continuous
 62
     7
100
AcDbLine
 10
54.8153672834
 20
557.783994741
 30
0.0
 11
54.8153672834
 21
557.9928260694
 31
0.0
  0
LINE
  5
3D6
330
75
100
AcDbEntity
  8
4221039_0__SIEB_
  6
Continuous
 62
     7
100
AcDbLine
 10
56.1510815691
 20
557.9928260694
 30
0.0
 11
56.1510815691
 21
557.9918952766
 31
0.0
  0
ARC
  5
3D8
330
75
100
AcDbEntity
  8
$DDT_AUDIT_GENERATED_(3D7)
  6
Continuous
 62
     7
100
AcDbCircle
 10
52.9653672834
 20
613.26964165
 30
0.0
 40
24.5
100
AcDbArc
 50
159.9952608346
 51
164.8572685595
  0
ARC
  5
3D9
330
75
100
AcDbEntity
  8
$DDT_AUDIT_GENERATED_(3D7)
  6
Continuous
 62
     7
100
AcDbCircle
 10
52.9653672834
 20
613.26964165
 30
0.0
 40
24.50000000000001
100
AcDbArc
 50
15.1427314405
 51
20.0047391655
  0
SPLINE
  5
3DB
330
75
100
AcDbEntity
  8
09146038_NABE
  6
Continuous
 62
     7
100
AcDbSpline
210
0.0
220
0.0
230
1.0
 70
     8
 71
     3
 72
    22
 73
    18
 74
     0
 42
0.0000000000792286
 43
0.0000000001
 40
0.0
 40
0.0
 40
0.0
 40
0.0
 40
0.0312499999999999
 40
0.0312499999999999
 40
0.0624999999999999
 40
0.0624999999999999
 40
0.0937499999999998
 40
0.0937499999999998
 40
0.1249999999999998
 40
0.1249999999999998
 40
0.1562499999999997
 40
0.1562499999999997
 40
0.1874999999999997
 40
0.1874999999999997
 40
0.2187499999999997
 40
0.2187499999999997
 40
0.2295157251585795
 40
0.2295157251585795
 40
0.2295157251585795
 40
0.2295157251585795
 10
49.0305695759512
 20
638.9824964113477
 30
0.0
 10
47.27970334221524
 20
639.1883193863505
 30
0.0
 10
45.61699649888016
 20
639.5227605755598
 30
0.0
 10
42.44702964963886
 20
640.4166499183553
 30
0.0
 10
40.93352825567355
 20
640.982872919445
 30
0.0
 10
38.19005161089299
 20
642.2674235906468
 30
0.0
 10
36.93283572502916
 20
642.9951501699627
 30
0.0
 10
34.6733834236782
 20
644.5745829591926
 30
0.0
 10
33.6851606884733
 20
645.4144389291154
 30
0.0
 10
31.95957515218611
 20
647.1807885125648
 30
0.0
 10
31.22155675771226
 20
648.1122257210343
 30
0.0
 10
30.02469982361065
 20
650.000267289453
 30
0.0
 10
29.55866420440281
 20
650.9630249926711
 30
0.0
 10
28.88126346637219
 20
652.9235565405821
 30
0.0
 10
28.67238832238213
 20
653.9223837235389
 30
0.0
 10
28.56991098630573
 20
655.2479930450958
 30
0.0
 10
28.55900352016651
 20
655.5870377118241
 30
0.0
 10
28.56355303545144
 20
655.9254682344806
 30
0.0
  0
SPLINE
  5
3DC
330
75
100
AcDbEntity
  8
09146038_NABE
  6
Continuous
 62
     7
100
AcDbSpline
210
0.0
220
0.0
230
1.0
 70
     8
 71
     3
 72
     8
 73
     4
 74
     0
 42
0.0000000001060312
 43
0.0000000001
 40
0.2295157251585795
 40
0.2295157251585795
 40
0.2295157251585795
 40
0.2295157251585795
 40
0.2299681471603243
 40
0.2299681471603243
 40
0.2299681471603243
 40
0.2299681471603243
 10
28.56355303545144
 20
655.9254682344806
 30
0.0
 10
28.56374422562041
 20
655.9396905383437
 30
0.0
 10
28.56396271345705
 20
655.9539117576029
 30
0.0
 10
28.56420850687226
 20
655.9681318924956
 30
0.0
  0
SPLINE
  5
3DD
330
75
100
AcDbEntity
  8
09146038_NABE
  6
Continuous
 62
     7
100
AcDbSpline
210
0.0
220
0.0
230
1.0
 70
     8
 71
     3
 72
     8
 73
     4
 74
     0
 42
0.0000000001049764
 43
0.0000000001
 40
0.7233122283049018
 40
0.7233122283049018
 40
0.7233122283049018
 40
0.7233122283049018
 40
0.723641408354396
 40
0.723641408354396
 40
0.723641408354396
 40
0.723641408354396
 10
77.36567061869285
 20
655.9998276033168
 30
0.0
 10
77.36587877967975
 20
655.9893781062374
 30
0.0
 10
77.36607219469961
 20
655.9789273778249
 30
0.0
 10
77.36625086843682
 20
655.9684754581425
 30
0.0
  0
SPLINE
  5
3DE
330
75
100
AcDbEntity
  8
09146038_NABE
  6
Continuous
 62
     7
100
AcDbSpline
210
0.0
220
0.0
230
1.0
 70
     8
 71
     3
 72
    24
 73
    20
 74
     0
 42
0.0000000000748776
 43
0.0000000001
 40
0.723641408354396
 40
0.723641408354396
 40
0.723641408354396
 40
0.723641408354396
 40
0.7499999999999996
 40
0.7499999999999996
 40
0.7812499999999997
 40
0.7812499999999997
 40
0.8124999999999997
 40
0.8124999999999997
 40
0.8437499999999998
 40
0.8437499999999998
 40
0.8749999999999998
 40
0.8749999999999998
 40
0.9062499999999999
 40
0.9062499999999999
 40
0.9374999999999999
 40
0.9374999999999999
 40
0.96875
 40
0.96875
 40
1.0
 40
1.0
 40
1.0
 40
1.0
 10
77.36625086843682
 20
655.9684754581423
 30
0.0
 10
77.38055789610787
 20
655.1315538912121
 30
0.0
 10
77.3003473282723
 20
654.2869941832859
 30
0.0
 10
76.92372276596076
 20
652.4694089057049
 30
0.0
 10
76.59146320730395
 20
651.4941757326416
 30
0.0
 10
75.66391387879347
 20
649.5664347271097
 30
0.0
 10
75.06070703792147
 20
648.6049551155247
 30
0.0
 10
73.60480507323933
 20
646.7668451727318
 30
0.0
 10
72.75448502131754
 20
645.8880120256044
 30
0.0
 10
70.79196566118648
 20
644.2185387043887
 30
0.0
 10
69.67076925376014
 20
643.4221627916879
 30
0.0
 10
67.15590479005797
 20
641.9630506184378
 30
0.0
 10
65.78933310837147
 20
641.3140590274204
 30
0.0
 10
62.81332024044861
 20
640.1983400221104
 30
0.0
 10
61.19282507672851
 20
639.7332344963705
 30
0.0
 10
57.86493337158373
 20
639.0656267834884
 30
0.0
 10
56.12373242971093
 20
638.8530697766126
 30
0.0
 10
52.55849951103585
 20
638.7081091500132
 30
0.0
 10
50.78143580968717
 20
638.776673436345
 30
0.0
 10
49.0305695759512
 20
638.9824964113477
 30
0.0
  0
SPLINE
  5
3DF
330
75
100
AcDbEntity
  8
09146038_NABE
  6
Continuous
 62
     7
100
AcDbSpline
210
0.0
220
0.0
230
1.0
 70
     8
 71
     3
 72
    12
 73
     8
 74
     0
 42
0.0000000309925169
 43
0.0000000001
 40
0.3291880361227752
 40
0.3291880361227752
 40
0.3291880361227752
 40
0.3291880361227752
 40
0.5
 40
0.5
 40
0.75
 40
0.75
 40
1.0
 40
1.0
 40
1.0
 40
1.0
 10
27.96900477873362
 20
621.8595229581127
 30
0.0
 10
27.96839422215441
 20
621.8248330110208
 30
0.0
 10
27.96832381982359
 20
621.7943228305929
 30
0.0
 10
27.96961258505252
 20
621.7293736240632
 30
0.0
 10
27.97168183032049
 20
621.6998823567557
 30
0.0
 10
27.97852491073581
 20
621.6608701390354
 30
0.0
 10
27.98329490925112
 20
621.6510394141892
 30
0.0
 10
27.98947207993052
 20
621.6510394141892
 30
0.0
  0
LINE
  5
3E0
330
75
100
AcDbEntity
  8
09146038_NABE
  6
Continuous
 62
     7
100
AcDbLine
 10
77.9412624868
 20
621.6510394142
 30
0.0
 11
27.9894720799
 21
621.6510394142
 31
0.0
  0
SPLINE
  5
3E1
330
75
100
AcDbEntity
  8
09146038_NABE
  6
Continuous
 62
     7
100
AcDbSpline
210
0.0
220
0.0
230
1.0
 70
     8
 71
     3
 72
    10
 73
     6
 74
     0
 42
0.0000000302931651
 43
0.0000000001
 40
0.0
 40
0.0
 40
0.0
 40
0.0
 40
0.5
 40
0.5
 40
0.6742821685775886
 40
0.6742821685775886
 40
0.6742821685775886
 40
0.6742821685775886
 10
77.94126248681316
 20
621.6510394142293
 30
0.0
 10
77.95361686326902
 20
621.6510394142293
 30
0.0
 10
77.96026157632951
 20
621.6897951961384
 30
0.0
 10
77.96241409206743
 20
621.7932211034915
 30
0.0
 10
77.96234479275972
 20
621.8247658530553
 30
0.0
 10
77.96170513332275
 20
621.8606769518491
 30
0.0
  0
LINE
  5
3E2
330
75
100
AcDbEntity
  8
09146038_NABE
  6
Continuous
 62
     7
100
AcDbLine
 10
77.9615245937
 20
621.8711868635
 30
0.0
 11
77.3663580141
 21
655.9682427532
 31
0.0
  0
LINE
  5
3E3
330
75
100
AcDbEntity
  8
09146038_NABE
  6
Continuous
 62
     7
100
AcDbLine
 10
28.5643679873
 20
655.9677520519
 30
0.0
 11
27.9690762526
 21
621.8635260303
 31
0.0
  0
SPLINE
  5
3E4
330
75
100
AcDbEntity
  8
09146038_NABE
  6
Continuous
 62
     7
100
AcDbSpline
210
0.0
220
0.0
230
1.0
 70
     8
 71
     3
 72
    41
 73
    37
 74
     0
 42
0.0000000001605853
 43
0.0000000001
 40
0.0
 40
0.0
 40
0.0
 40
0.0
 40
0.0103634256426743
 40
0.0241066550804285
 40
0.0377745938870568
 40
0.0513883521196531
 40
0.0649957440187412
 40
0.0786309067336648
 40
0.0922607189888516
 40
0.1058552218919007
 40
0.1193907170945152
 40
0.132844958405738
 40
0.1461975450404289
 40
0.1594302567255926
 40
0.1725219717277575
 40
0.1856621265841372
 40
0.1986582622250638
 40
0.2115620456166952
 40
0.2243999505087867
 40
0.2372207216005437
 40
0.2497978699792414
 40
0.2623687673311259
 40
0.27479474508156
 40
0.2870181400230458
 40
0.2990115908013992
 40
0.3108546013994056
 40
0.322679771647734
 40
0.3344431487819901
 40
0.3461257790921325
 40
0.3577112814408449
 40
0.3691860150591665
 40
0.3805392152578922
 40
0.3917630595043216
 40
0.4028526677368059
 40
0.4138060443075917
 40
0.4217624350871594
 40
0.4217624350871594
 40
0.4217624350871594
 40
0.4217624350871594
 10
77.3611830587043
 20
656.0019321463787
 30
0.0
 10
77.35704576026265
 20
656.1940193323027
 30
0.0
 10
77.34769642703478
 20
656.571901399263
 30
0.0
 10
77.28775600822182
 20
657.2208467382993
 30
0.0
 10
77.18908297616638
 20
657.9038911198578
 30
0.0
 10
77.05091608992525
 20
658.5862851544238
 30
0.0
 10
76.87519107415964
 20
659.2616739226414
 30
0.0
 10
76.66153367942243
 20
659.9320552885996
 30
0.0
 10
76.4103699476631
 20
660.5956634860223
 30
0.0
 10
76.12245794849393
 20
661.2504859804161
 30
0.0
 10
75.79873695575299
 20
661.8945503928184
 30
0.0
 10
75.44023131578581
 20
662.5261424933263
 30
0.0
 10
75.04812987198501
 20
663.1436093361649
 30
0.0
 10
74.62361456971482
 20
663.7455647345255
 30
0.0
 10
74.16619516944117
 20
664.333054331377
 30
0.0
 10
73.67717232119337
 20
664.9056344296206
 30
0.0
 10
73.156078161847
 20
665.4633416593962
 30
0.0
 10
72.60535248070235
 20
666.0038989328591
 30
0.0
 10
72.0243829691623
 20
666.5283845478195
 30
0.0
 10
71.41555548653778
 20
667.0346681599017
 30
0.0
 10
70.77936984150836
 20
667.522348175875
 30
0.0
 10
70.11948985098728
 20
667.98990841096
 30
0.0
 10
69.43614922869124
 20
668.4375024238013
 30
0.0
 10
68.73474315905607
 20
668.8621755895272
 30
0.0
 10
68.01636741095044
 20
669.2635366399379
 30
0.0
 10
67.27944532341621
 20
669.643094130987
 30
0.0
 10
66.52216341195363
 20
670.0026957265063
 30
0.0
 10
65.74426690451124
 20
670.342682677753
 30
0.0
 10
64.9488053492165
 20
670.6619734487584
 30
0.0
 10
64.13828361448141
 20
670.9598420626236
 30
0.0
 10
63.31512417414068
 20
671.2357027063994
 30
0.0
 10
62.48163492376824
 20
671.4890987567863
 30
0.0
 10
61.63999200041309
 20
671.7197008663354
 30
0.0
 10
60.79219928104978
 20
671.9272776284475
 30
0.0
 10
60.01435227523012
 20
672.0956861610052
 30
0.0
 10
59.51735244689033
 20
672.1912014137602
 30
0.0
 10
59.30714772992064
 20
672.2294479517825
 30
0.0
  0
SPLINE
  5
3E5
330
75
100
AcDbEntity
  8
09146038_NABE
  6
Continuous
 62
     7
100
AcDbSpline
210
0.0
220
0.0
230
1.0
 70
     8
 71
     3
 72
    42
 73
    38
 74
     0
 42
0.0000000001606647
 43
0.0000000001
 40
0.5764006647578538
 40
0.5764006647578538
 40
0.5764006647578538
 40
0.5764006647578538
 40
0.585153051526001
 40
0.5960645097711069
 40
0.6070844642446297
 40
0.6182053749513619
 40
0.6294173687579045
 40
0.6407083468970808
 40
0.6520641537965512
 40
0.663468807063133
 40
0.6749018026683478
 40
0.6863335128463458
 40
0.6980214189626665
 40
0.7098462508210109
 40
0.7218103067404439
 40
0.73391254936431
 40
0.746149379183647
 40
0.75851445890404
 40
0.7709985644684879
 40
0.7835894664095051
 40
0.7962718552487197
 40
0.8090335236111837
 40
0.821863039939519
 40
0.834861704185186
 40
0.8479609203398611
 40
0.8611540215245651
 40
0.8744324330227343
 40
0.8877861372078717
 40
0.9012038544440256
 40
0.9146732524339886
 40
0.9281811720910651
 40
0.9417255337947534
 40
0.9553498910508686
 40
0.9690094767904112
 40
0.9827007480745903
 40
0.9964200445022614
 40
1.0
 40
1.0
 40
1.0
 40
1.0
 10
46.64360453594996
 20
672.2312762621569
 30
0.0
 10
46.41251395834602
 20
672.1890025028454
 30
0.0
 10
45.89617928520726
 20
672.0889916632257
 30
0.0
 10
45.10135236949274
 20
671.9157270199773
 30
0.0
 10
44.25944419252167
 20
671.7090655928213
 30
0.0
 10
43.42559439270453
 20
671.4807575768986
 30
0.0
 10
42.6020950837204
 20
671.2310967614573
 30
0.0
 10
41.79134728898066
 20
670.9604805241588
 30
0.0
 10
40.99586092010861
 20
670.6693996633003
 30
0.0
 10
40.2181946302095
 20
670.3585217211041
 30
0.0
 10
39.46145258324782
 20
670.0285670176104
 30
0.0
 10
38.72191901670821
 20
669.6786358321046
 30
0.0
 10
37.99819244100265
 20
669.3078714145624
 30
0.0
 10
37.28902660317974
 20
668.914911495526
 30
0.0
 10
36.59816885777502
 20
668.5012659604696
 30
0.0
 10
35.92696872005713
 20
668.067234453361
 30
0.0
 10
35.27688662354029
 20
667.6132281394895
 30
0.0
 10
34.64948079523642
 20
667.1397779935511
 30
0.0
 10
34.04638501300018
 20
666.6475354153946
 30
0.0
 10
33.46932283589334
 20
666.1373313641839
 30
0.0
 10
32.9198917909612
 20
665.6099259233076
 30
0.0
 10
32.39992209610764
 20
665.0666142672962
 30
0.0
 10
31.90871018201958
 20
664.5068131030843
 30
0.0
 10
31.44700525930438
 20
663.93067106743
 30
0.0
 10
31.015496143733
 20
663.3382838711163
 30
0.0
 10
30.61597503456212
 20
662.7314506463815
 30
0.0
 10
30.24945074740461
 20
662.1111444599383
 30
0.0
 10
29.91689104835177
 20
661.4784474820309
 30
0.0
 10
29.61920940107036
 20
660.8345463136615
 30
0.0
 10
29.35721482708376
 20
660.1807063151731
 30
0.0
 10
29.13166460522031
 20
659.5181363540295
 30
0.0
 10
28.94265498295621
 20
658.8472721392044
 30
0.0
 10
28.79078335852743
 20
658.1693919146766
 30
0.0
 10
28.67554407294573
 20
657.4831875403659
 30
0.0
 10
28.60106020723477
 20
656.7992349220314
 30
0.0
 10
28.56537792335944
 20
656.2619108365783
 30
0.0
 10
28.56640416007918
 20
655.9873937540405
 30
0.0
 10
28.5667278757482
 20
655.9209718650218
 30
0.0
  0
SPLINE
  5
3E7
330
75
100
AcDbEntity
  8
09155038_GRIFF
  6
Continuous
 62
     7
100
AcDbSpline
210
0.0
220
0.0
230
1.0
 70
     8
 71
     3
 72
    10
 73
     6
 74
     0
 42
0.0000000001805801
 43
0.0000000001
 40
0.0952422870492395
 40
0.0952422870492395
 40
0.0952422870492395
 40
0.0952422870492395
 40
0.125
 40
0.125
 40
0.1406695521306613
 40
0.1406695521306613
 40
0.1406695521306613
 40
0.1406695521306613
 10
62.06342894786844
 20
655.3692627759777
 30
0.0
 10
62.13651745293956
 20
654.8249565309121
 30
0.0
 10
62.1571408080634
 20
654.2742870961134
 30
0.0
 10
62.11160388859618
 20
653.4392711029345
 30
0.0
 10
62.08068736520117
 20
653.1513962704103
 30
0.0
 10
62.03493617142534
 20
652.8654372464067
 30
0.0
  0
SPLINE
  5
3E8
330
75
100
AcDbEntity
  8
09155038_GRIFF
  6
Continuous
 62
     7
100
AcDbSpline
210
0.0
220
0.0
230
1.0
 70
     8
 71
     3
 72
    10
 73
     6
 74
     0
 42
0.0000000001805712
 43
0.0000000001
 40
0.5904123888950831
 40
0.5904123888950831
 40
0.5904123888950831
 40
0.5904123888950831
 40
0.625
 40
0.625
 40
0.6368547371159381
 40
0.6368547371159381
 40
0.6368547371159381
 40
0.6368547371159381
 10
43.91271428480419
 20
652.7831155303417
 30
0.0
 10
43.80490278241464
 20
653.4130360545037
 30
0.0
 10
43.76759004900408
 20
654.0547368438343
 30
0.0
 10
43.81653785141573
 20
654.9067817709891
 30
0.0
 10
43.83749046009539
 20
655.1240535998595
 30
0.0
 10
43.86680249299659
 20
655.3404526495387
 30
0.0
  0
SPLINE
  5
3E9
330
75
100
AcDbEntity
  8
09155038_GRIFF
  6
Continuous
 62
     7
100
AcDbSpline
210
0.0
220
0.0
230
1.0
 70
     8
 71
     3
 72
    10
 73
     6
 74
     0
 42
0.0000000002321561
 43
0.0000000001
 40
0.205944981364094
 40
0.205944981364094
 40
0.205944981364094
 40
0.205944981364094
 40
0.2500000000000001
 40
0.2500000000000001
 40
0.2556253172141379
 40
0.2556253172141379
 40
0.2556253172141379
 40
0.2556253172141379
 10
43.65153808941668
 20
661.6633069068065
 30
0.0
 10
43.4929870924718
 20
662.2894913565938
 30
0.0
 10
43.42132717699071
 20
662.914962307822
 30
0.0
 10
43.43204743105388
 20
663.619587327364
 30
0.0
 10
43.43455639574007
 20
663.6993928533361
 30
0.0
 10
43.43838226661063
 20
663.7791953877496
 30
0.0
  0
SPLINE
  5
3EA
330
75
100
AcDbEntity
  8
09155038_GRIFF
  6
Continuous
 62
     7
100
AcDbSpline
210
0.0
220
0.0
230
1.0
 70
     8
 71
     3
 72
    10
 73
     6
 74
     0
 42
0.0000000002311859
 43
0.0000000001
 40
0.7380108426126661
 40
0.7380108426126661
 40
0.7380108426126661
 40
0.7380108426126661
 40
0.7500000000000002
 40
0.7500000000000002
 40
0.7861440525233274
 40
0.7861440525233274
 40
0.7861440525233274
 40
0.7861440525233274
 10
62.49432608110987
 20
663.7310838267105
 30
0.0
 10
62.50152670510089
 20
663.5603058796097
 30
0.0
 10
62.50255879324988
 20
663.3894872857569
 30
0.0
 10
62.48237316585428
 20
662.7046865042805
 30
0.0
 10
62.41169637055371
 20
662.1860373063746
 30
0.0
 10
62.2827101576513
 20
661.6701985128833
 30
0.0
  0
SPLINE
  5
3EB
330
75
100
AcDbEntity
  8
09155038_GRIFF
  6
Continuous
 62
     7
100
AcDbSpline
210
0.0
220
0.0
230
1.0
 70
     8
 71
     3
 72
    78
 73
    74
 74
     0
 42
0.0000000003061484
 43
0.0000000001
 40
0.0
 40
0.0
 40
0.0
 40
0.0
 40
0.0073048656007789
 40
0.0397455652922893
 40
0.0704473354939293
 40
0.0994057224306842
 40
0.1266167697595514
 40
0.1520769709684184
 40
0.175783186106578
 40
0.1977326375446595
 40
0.2179229498536301
 40
0.2363521437329427
 40
0.2530186474147073
 40
0.2679213401251032
 40
0.2810596510768744
 40
0.2888383865291309
 40
0.2961612519512347
 40
0.303613065698762
 40
0.3113020279607399
 40
0.31932722942132
 40
0.3277847978919703
 40
0.3367660986982825
 40
0.3462920008477312
 40
0.3557615490220177
 40
0.3650601834139903
 40
0.3742414238050928
 40
0.3833561331882996
 40
0.3924521691379498
 40
0.4015744119679106
 40
0.4107655815722422
 40
0.4200635531666456
 40
0.4294805052202602
 40
0.4388111034737719
 40
0.4524591991753706
 40
0.4656044505237085
 40
0.4782377679144305
 40
0.490417407868689
 40
0.5023286894960348
 40
0.5141645986167298
 40
0.5261302113645835
 40
0.5385656369786547
 40
0.551575963186906
 40
0.5651311273974436
 40
0.5791459826458725
 40
0.5935403508896121
 40
0.6033183363794009
 40
0.6132161669665421
 40
0.6231231070894029
 40
0.6322027124008227
 40
0.6403286464374808
 40
0.6476351121372885
 40
0.6526853331971579
 40
0.6574620261310876
 40
0.6620615235400128
 40
0.6665857804587576
 40
0.6728159779203815
 40
0.6798547849388697
 40
0.6877564403890364
 40
0.6997430095022105
 40
0.7133033370969624
 40
0.7284415739575447
 40
0.745160025432594
 40
0.7634597436111574
 40
0.7829719886732589
 40
0.8040091516850377
 40
0.826570174881901
 40
0.8506535299366627
 40
0.8767368369825856
 40
0.9043938256113797
 40
0.9336216100861449
 40
0.9644168607411983
 40
0.9967757800179146
 40
1.0
 40
1.0
 40
1.0
 40
1.0
 10
62.49453113182679
 20
663.7308338640548
 30
0.0
 10
62.49364711901134
 20
663.7595825433779
 30
0.0
 10
62.48952685542639
 20
663.8933930223624
 30
0.0
 10
62.48146726265693
 20
664.1339240086847
 30
0.0
 10
62.47113288871724
 20
664.4246448724526
 30
0.0
 10
62.46096865860771
 20
664.6861876556566
 30
0.0
 10
62.45101794919468
 20
664.9197442815856
 30
0.0
 10
62.44116620194411
 20
665.129023035304
 30
0.0
 10
62.43134927350693
 20
665.3169102516172
 30
0.0
 10
62.42150292547323
 20
665.4862579232968
 30
0.0
 10
62.41155777483453
 20
665.6397179842699
 30
0.0
 10
62.40146496025068
 20
665.7795586101284
 30
0.0
 10
62.39110882338164
 20
665.9084184316465
 30
0.0
 10
62.38058832631648
 20
666.0268369939884
 30
0.0
 10
62.37035967529328
 20
666.1306032459826
 30
0.0
 10
62.36176167038322
 20
666.2117016000196
 30
0.0
 10
62.35152191684141
 20
666.3019904932612
 30
0.0
 10
62.32986151334369
 20
666.4714588370449
 30
0.0
 10
62.29479479846384
 20
666.7073641676703
 30
0.0
 10
62.24059526325047
 20
667.0140768286102
 30
0.0
 10
62.16029621321503
 20
667.3906220465996
 30
0.0
 10
62.04492720448656
 20
667.8357811883064
 30
0.0
 10
61.88783488278376
 20
668.3336864646672
 30
0.0
 10
61.68572787464078
 20
668.8631467864344
 30
0.0
 10
61.43775511929375
 20
669.407890348067
 30
0.0
 10
61.14270313403426
 20
669.9600267760366
 30
0.0
 10
60.79795229798582
 20
670.5143562998298
 30
0.0
 10
60.40113052026815
 20
671.0645339417996
 30
0.0
 10
59.95015883603545
 20
671.6032853455351
 30
0.0
 10
59.44278835058156
 20
672.1216645007323
 30
0.0
 10
58.87983194233102
 20
672.6106283659087
 30
0.0
 10
58.2701943794162
 20
673.0604338460998
 30
0.0
 10
57.5275833733675
 20
673.5232872999928
 30
0.0
 10
56.65200547877936
 20
673.959321044382
 30
0.0
 10
55.64648294006209
 20
674.319772405281
 30
0.0
 10
54.64491115834456
 20
674.5555081607149
 30
0.0
 10
53.65659883243212
 20
674.678191743663
 30
0.0
 10
52.68230286682181
 20
674.697986593011
 30
0.0
 10
51.71652228153037
 20
674.6218053817009
 30
0.0
 10
50.74973554284295
 20
674.4431364322534
 30
0.0
 10
49.77814542341333
 20
674.1547027684676
 30
0.0
 10
48.80925090137913
 20
673.7428981269153
 30
0.0
 10
47.86050676511358
 20
673.2063630785029
 30
0.0
 10
46.95378680894488
 20
672.5483229140955
 30
0.0
 10
46.21108237980299
 20
671.85997051596
 30
0.0
 10
45.62173240790336
 20
671.1851642051871
 30
0.0
 10
45.16219164572331
 20
670.5640795720444
 30
0.0
 10
44.76472916362469
 20
669.9260059968976
 30
0.0
 10
44.44656770476301
 20
669.3166331555055
 30
0.0
 10
44.20785983324494
 20
668.7730326815928
 30
0.0
 10
44.04795452826388
 20
668.341207586949
 30
0.0
 10
43.94167758200471
 20
668.012605781707
 30
0.0
 10
43.87063304670312
 20
667.7682718644637
 30
0.0
 10
43.81887212195428
 20
667.5726238577921
 30
0.0
 10
43.77888824221298
 20
667.4085521073858
 30
0.0
 10
43.7531799346426
 20
667.2940540695135
 30
0.0
 10
43.72540474733899
 20
667.1634593552086
 30
0.0
 10
43.6971532166621
 20
667.0198005170095
 30
0.0
 10
43.66847166188493
 20
666.860409471921
 30
0.0
 10
43.64062344324336
 20
666.6877377889738
 30
0.0
 10
43.61531853160096
 20
666.5117181092206
 30
0.0
 10
43.59234645807272
 20
666.3310067814327
 30
0.0
 10
43.57157241326023
 20
666.145026845061
 30
0.0
 10
43.55269430887479
 20
665.9518652575005
 30
0.0
 10
43.53544477289616
 20
665.7495516392402
 30
0.0
 10
43.51951055235211
 20
665.5348700051723
 30
0.0
 10
43.50459131587657
 20
665.303958488936
 30
0.0
 10
43.49052382569212
 20
665.0540181510835
 30
0.0
 10
43.47714357019592
 20
664.7822003878402
 30
0.0
 10
43.46427566923679
 20
664.4862018317564
 30
0.0
 10
43.4519357506061
 20
664.1658569692263
 30
0.0
 10
43.44314916362185
 20
663.9198710519286
 30
0.0
 10
43.43906084262325
 20
663.7921139375295
 30
0.0
 10
43.43863038329691
 20
663.7786501169047
 30
0.0
  0
SPLINE
  5
3EC
330
75
100
AcDbEntity
  8
09155038_GRIFF
  6
Continuous
 62
     7
100
AcDbSpline
210
0.0
220
0.0
230
1.0
 70
     8
 71
     3
 72
    24
 73
    20
 74
     0
 42
0.0000000003525453
 43
0.0000000001
 40
0.0
 40
0.0
 40
0.0
 40
0.0
 40
0.0371827705706962
 40
0.0754333429841813
 40
0.1100389044641053
 40
0.1410629478906095
 40
0.1690788001494545
 40
0.1939696783623596
 40
0.2154235450445331
 40
0.2334317273124315
 40
0.2457776266365028
 40
0.2557345079477785
 40
0.2638314589321931
 40
0.2783929942953985
 40
0.2935666634462058
 40
0.3083795915316183
 40
0.3234006590789454
 40
0.3394303582112578
 40
0.3558200269460442
 40
0.3558200269460442
 40
0.3558200269460442
 40
0.3558200269460442
 10
62.13916448767251
 20
654.0607452821041
 30
0.0
 10
62.15010180399236
 20
654.7250861532461
 30
0.0
 10
62.16781944329458
 20
655.8112223424723
 30
0.0
 10
62.19402485927338
 20
657.4374304860154
 30
0.0
 10
62.21554268530882
 20
658.7535567628781
 30
0.0
 10
62.2343448845917
 20
659.8667427853759
 30
0.0
 10
62.25015289252652
 20
660.7527047257021
 30
0.0
 10
62.26392364750375
 20
661.4751550894256
 30
0.0
 10
62.27546053321988
 20
662.0386669464402
 30
0.0
 10
62.28461007870223
 20
662.4564867643131
 30
0.0
 10
62.29157687383795
 20
662.7559216989544
 30
0.0
 10
62.29677547898869
 20
662.9690140161446
 30
0.0
 10
62.30221060060587
 20
663.1827874557006
 30
0.0
 10
62.30831806133413
 20
663.4097485402854
 30
0.0
 10
62.31516088553028
 20
663.6452459297992
 30
0.0
 10
62.32195218271716
 20
663.8587145488714
 30
0.0
 10
62.32846012503629
 20
664.0424777382707
 30
0.0
 10
62.33183230084101
 20
664.1315734534303
 30
0.0
 10
62.33153614124353
 20
664.150687466374
 30
0.0
 10
62.33068326725975
 20
664.1511939193558
 30
0.0
  0
SPLINE
  5
3ED
330
75
100
AcDbEntity
  8
09155038_GRIFF
  6
Continuous
 62
     7
100
AcDbSpline
210
0.0
220
0.0
230
1.0
 70
     8
 71
     3
 72
    18
 73
    14
 74
     0
 42
0.0000000003579575
 43
0.0000000001
 40
0.635373771993922
 40
0.635373771993922
 40
0.635373771993922
 40
0.635373771993922
 40
0.6409743758890352
 40
0.6586054213198582
 40
0.682373391004273
 40
0.7133973194312859
 40
0.7477226497062153
 40
0.7817809014165763
 40
0.8185415728093973
 40
0.8579851767590052
 40
0.9022624236404448
 40
0.9517555283873964
 40
1.0
 40
1.0
 40
1.0
 40
1.0
 10
43.59582331940025
 20
664.251811485108
 30
0.0
 10
43.59558172484915
 20
664.2521326485194
 30
0.0
 10
43.59547061846506
 20
664.2407655377596
 30
0.0
 10
43.60132946266895
 20
664.1145493095387
 30
0.0
 10
43.61028839170074
 20
663.8635846136342
 30
0.0
 10
43.62307463853833
 20
663.4445209555665
 30
0.0
 10
43.63823656583059
 20
662.8497124999006
 30
0.0
 10
43.65557463589479
 20
662.0685085435191
 30
0.0
 10
43.67455059572671
 20
661.1108828586624
 30
0.0
 10
43.69691140891621
 20
659.8592458318675
 30
0.0
 10
43.72262201918091
 20
658.3167531616904
 30
0.0
 10
43.75483062333811
 20
656.3149806229821
 30
0.0
 10
43.77741734052826
 20
654.9261599791123
 30
0.0
 10
43.7915328718232
 20
654.068273949632
 30
0.0
  0
ARC
  5
3EE
330
75
100
AcDbEntity
  8
09155038_GRIFF
  6
Continuous
 62
     7
100
AcDbCircle
 10
52.5780579137
 20
654.2927407783
 30
0.0
 40
8.792978603579941
100
AcDbArc
 50
189.9570859976
 51
228.8446789614
  0
ARC
  5
3EF
330
75
100
AcDbEntity
  8
09155038_GRIFF
  6
Continuous
 62
     7
100
AcDbCircle
 10
52.9258253446
 20
654.6135594044
 30
0.0
 40
9.263537471229048
100
AcDbArc
 50
228.5310168277
 51
349.0601451539
  0
ENDBLK
  5
3F1
330
75
100
AcDbEntity
  8
0
100
AcDbBlockEnd
  0
BLOCK
  5
449
330
3F2
100
AcDbEntity
  8
0
100
AcDbBlockBegin
  2
SE1
 70
     0
 10
0.0
 20
0.0
 30
0.0
  3
SE1
  1

  0
LINE
  5
3F4
330
3F2
100
AcDbEntity
  8
$DDT_AUDIT_GENERATED_(77)
  6
Continuous
 62
     7
100
AcDbLine
 10
119.7171150325
 20
331.66964165
 30
0.0
 11
169.7171150325
 21
331.66964165
 31
0.0
  0
LINE
  5
3F5
330
3F2
100
AcDbEntity
  8
$DDT_AUDIT_GENERATED_(77)
  6
Continuous
 62
     7
100
AcDbLine
 10
169.7171150325
 20
511.66964165
 30
0.0
 11
119.7171150325
 21
511.66964165
 31
0.0
  0
LINE
  5
3F6
330
3F2
100
AcDbEntity
  8
$DDT_AUDIT_GENERATED_(77)
  6
Continuous
 62
     7
100
AcDbLine
 10
119.7171150325
 20
511.66964165
 30
0.0
 11
119.7171150325
 21
331.66964165
 31
0.0
  0
LINE
  5
3F7
330
3F2
100
AcDbEntity
  8
$DDT_AUDIT_GENERATED_(77)
  6
Continuous
 62
     7
100
AcDbLine
 10
169.7171150325
 20
331.66964165
 30
0.0
 11
169.7171150325
 21
511.66964165
 31
0.0
  0
LINE
  5
3F8
330
3F2
100
AcDbEntity
  8
$DDT_AUDIT_GENERATED_(7C)
  6
Continuous
 62
     7
100
AcDbLine
 10
169.7171150325
 20
619.66964165
 30
0.0
 11
119.7171150325
 21
619.66964165
 31
0.0
  0
LINE
  5
3F9
330
3F2
100
AcDbEntity
  8
$DDT_AUDIT_GENERATED_(7C)
  6
Continuous
 62
     7
100
AcDbLine
 10
169.7171150325
 20
511.66964165
 30
0.0
 11
119.7171150325
 21
511.66964165
 31
0.0
  0
LINE
  5
3FA
330
3F2
100
AcDbEntity
  8
$DDT_AUDIT_GENERATED_(7C)
  6
Continuous
 62
     7
100
AcDbLine
 10
119.7171150325
 20
619.66964165
 30
0.0
 11
119.7171150325
 21
511.66964165
 31
0.0
  0
LINE
  5
3FB
330
3F2
100
AcDbEntity
  8
$DDT_AUDIT_GENERATED_(7C)
  6
Continuous
 62
     7
100
AcDbLine
 10
169.7171150325
 20
605.66964165
 30
0.0
 11
169.7171150325
 21
619.66964165
 31
0.0
  0
LINE
  5
3FC
330
3F2
100
AcDbEntity
  8
$DDT_AUDIT_GENERATED_(7C)
  6
Continuous
 62
     7
100
AcDbLine
 10
169.7171150325
 20
511.66964165
 30
0.0
 11
169.7171150325
 21
577.66964165
 31
0.0
  0
ARC
  5
3FD
330
3F2
100
AcDbEntity
  8
$DDT_AUDIT_GENERATED_(81)
  6
Continuous
 62
     7
100
AcDbCircle
 10
190.4500896025
 20
591.66964165
 30
0.0
 40
25.01711882936392
100
AcDbArc
 50
145.9706989055
 51
214.0293010945
  0
LINE
  5
3FE
330
3F2
100
AcDbEntity
  8
$DDT_AUDIT_GENERATED_(81)
  6
Continuous
 62
     7
100
AcDbLine
 10
266.3200318392
 20
558.8882731329
 30
0.0
 11
292.9488565198
 21
574.2624322304
 31
0.0
  0
ARC
  5
3FF
330
3F2
100
AcDbEntity
  8
$DDT_AUDIT_GENERATED_(81)
  6
Continuous
 62
     7
100
AcDbCircle
 10
181.9894581963
 20
563.155325085
 30
0.0
 40
14.53157841436276
100
AcDbArc
 50
74.2840057072
 51
79.9025113357
  0
ARC
  5
400
330
3F2
100
AcDbEntity
  8
$DDT_AUDIT_GENERATED_(81)
  6
Continuous
 62
     7
100
AcDbCircle
 10
182.2229002992
 20
561.6298397137
 30
0.0
 40
16.00023691246738
100
AcDbArc
 50
81.683524005
 51
98.31647007
  0
ARC
  5
401
330
3F2
100
AcDbEntity
  8
$DDT_AUDIT_GENERATED_(81)
  6
Continuous
 62
     7
100
AcDbCircle
 10
169.7171150325
 20
327.66964165
 30
0.0
 40
250.0
100
AcDbArc
 50
67.5948750934
 51
86.2856898867
  0
ARC
  5
402
330
3F2
100
AcDbEntity
  8
$DDT_AUDIT_GENERATED_(81)
  6
Continuous
 62
     7
100
AcDbCircle
 10
169.7171150325
 20
327.66964165
 30
0.0
 40
250.0
100
AcDbArc
 50
87.6557888161
 51
90.0
  0
ARC
  5
403
330
3F2
100
AcDbEntity
  8
$DDT_AUDIT_GENERATED_(81)
  6
Continuous
 62
     7
100
AcDbCircle
 10
169.7171150325
 20
327.66964165
 30
0.0
 40
278.0
100
AcDbArc
 50
63.7084069039
 51
90.0
  0
ARC
  5
404
330
3F2
100
AcDbEntity
  8
$DDT_AUDIT_GENERATED_(81)
  6
Continuous
 62
     7
100
AcDbCircle
 10
292.198860416
 20
575.5614715493
 30
0.0
 40
1.500021057758402
100
AcDbArc
 50
299.98685754
 51
63.9911123698
  0
ELLIPSE
  5
405
330
3F2
100
AcDbEntity
  8
$DDT_AUDIT_GENERATED_(81)
  6
Continuous
 62
     7
100
AcDbEllipse
 10
265.5703934919
 20
560.1875200388
 30
0.0
 11
-0.7500000000741913
 21
1.29903810563084
 31
0.0
210
0.0
220
0.0
230
1.0
 40
0.9999582593
 41
2.229619800188862
 42
3.142143870023885
  0
LINE
  5
406
330
3F2
100
AcDbEntity
  8
$DDT_AUDIT_GENERATED_(8E)
  6
Continuous
 62
     7
100
AcDbLine
 10
290.5268881232
 20
567.0906054327
 30
0.0
 11
271.9073419418
 21
556.3406054327
 31
0.0
  0
SPLINE
  5
407
330
3F2
100
AcDbEntity
  8
$DDT_AUDIT_GENERATED_(8E)
  6
Continuous
 62
     7
100
AcDbSpline
210
0.0
220
0.0
230
1.0
 70
     8
 71
     3
 72
    10
 73
     6
 74
     0
 42
0.0000000019260148
 43
0.0000000001
 40
0.0
 40
0.0
 40
0.0
 40
0.0
 40
0.5
 40
0.5
 40
1.0
 40
1.0
 40
1.0
 40
1.0
 10
283.2983213869185
 20
563.2838571483596
 30
0.0
 10
282.6085131699884
 20
562.7540103292653
 30
0.0
 10
281.891416974141
 20
562.2715688306504
 30
0.0
 10
280.3980884311805
 20
561.4094185499467
 30
0.0
 10
279.6218568806346
 20
561.0297083840427
 30
0.0
 10
278.818366029998
 20
560.6973537170841
 30
0.0
  0
LINE
  5
408
330
3F2
100
AcDbEntity
  8
$DDT_AUDIT_GENERATED_(8E)
  6
Continuous
 62
     7
100
AcDbLine
 10
283.4157634343
 20
566.4490972945
 30
0.0
 11
276.0184666307
 21
562.1782659937
 31
0.0
  0
LINE
  5
409
330
3F2
100
AcDbEntity
  8
$DDT_AUDIT_GENERATED_(8E)
  6
Continuous
 62
     7
100
AcDbLine
 10
283.4157634343
 20
566.4490972945
 30
0.0
 11
284.3239794083
 21
564.8760210831
 31
0.0
  0
SPLINE
  5
40A
330
3F2
100
AcDbEntity
  8
$DDT_AUDIT_GENERATED_(8E)
  6
Continuous
 62
     7
100
AcDbSpline
210
0.0
220
0.0
230
1.0
 70
     8
 71
     3
 72
    14
 73
    10
 74
     0
 42
0.0000000049320844
 43
0.0000000001
 40
0.0
 40
0.0
 40
0.0
 40
0.0
 40
0.1249999999999997
 40
0.1249999999999997
 40
0.2499999999999994
 40
0.2499999999999994
 40
0.4999999999999996
 40
0.4999999999999996
 40
1.0
 40
1.0
 40
1.0
 40
1.0
 10
284.3239794083474
 20
564.8760210831282
 30
0.0
 10
284.36619200383
 20
564.802906723033
 30
0.0
 10
284.3803486393188
 20
564.7140365762799
 30
0.0
 10
284.3669558570421
 20
564.5455936056837
 30
0.0
 10
284.3417798064037
 20
564.4629071737028
 30
0.0
 10
284.2420996952849
 20
564.2308673728983
 30
0.0
 10
284.1427052914382
 20
564.091047742717
 30
0.0
 10
283.8206640263773
 20
563.7072532434584
 30
0.0
 10
283.56324983208
 20
563.4873506564265
 30
0.0
 10
283.2983213869185
 20
563.2838571483596
 30
0.0
  0
SPLINE
  5
40B
330
3F2
100
AcDbEntity
  8
$DDT_AUDIT_GENERATED_(8E)
  6
Continuous
 62
     7
100
AcDbSpline
210
0.0
220
0.0
230
1.0
 70
     8
 71
     3
 72
    14
 73
    10
 74
     0
 42
0.0000000049319876
 43
0.0000000001
 40
0.0
 40
0.0
 40
0.0
 40
0.0
 40
0.4999999999999996
 40
0.4999999999999996
 40
0.7499999999999993
 40
0.7499999999999993
 40
0.8749999999999997
 40
0.8749999999999997
 40
1.0
 40
1.0
 40
1.0
 40
1.0
 10
278.818366029998
 20
560.6973537170841
 30
0.0
 10
278.5083466713064
 20
560.56911780671
 30
0.0
 10
278.1917675127507
 20
560.456854284562
 30
0.0
 10
277.6958584058386
 20
560.3694950230217
 30
0.0
 10
277.5264614442403
 20
560.3536939005594
 30
0.0
 10
277.2772718727028
 20
560.3829216893774
 30
0.0
 10
277.1926353116414
 20
560.4023035258061
 30
0.0
 10
277.039192134169
 20
560.4750296567597
 30
0.0
 10
276.9690953514612
 20
560.5317287501786
 30
0.0
 10
276.9266826047846
 20
560.6051897823156
 30
0.0
  0
LINE
  5
40C
330
3F2
100
AcDbEntity
  8
$DDT_AUDIT_GENERATED_(8E)
  6
Continuous
 62
     7
100
AcDbLine
 10
276.9266826048
 20
560.6051897823
 30
0.0
 11
276.0184666307
 21
562.1782659937
 31
0.0
  0
LINE
  5
40D
330
3F2
100
AcDbEntity
  8
$DDT_AUDIT_GENERATED_(8E)
  6
Continuous
 62
     7
100
AcDbLine
 10
271.2722566457
 20
556.3406054327
 30
0.0
 11
271.9073419418
 21
556.3406054327
 31
0.0
  0
LINE
  5
40E
330
3F2
100
AcDbEntity
  8
$DDT_AUDIT_GENERATED_(8E)
  6
Continuous
 62
     7
100
AcDbLine
 10
290.5268881232
 20
567.0906054327
 30
0.0
 11
290.8444307712
 21
567.6406054327
 31
0.0
  0
ARC
  5
40F
330
3F2
100
AcDbEntity
  8
$DDT_AUDIT_GENERATED_(8E)
  6
Continuous
 62
     7
100
AcDbCircle
 10
289.9784053674
 20
568.1406054327
 30
0.0
 40
1.000000000000004
100
AcDbArc
 50
330.0
 51
30.0
  0
ARC
  5
410
330
3F2
100
AcDbEntity
  8
$DDT_AUDIT_GENERATED_(8E)
  6
Continuous
 62
     7
100
AcDbCircle
 10
271.2722566457
 20
557.3406054327
 30
0.0
 40
1.000000000000004
100
AcDbArc
 50
210.0
 51
270.0
  0
LINE
  5
411
330
3F2
100
AcDbEntity
  8
$DDT_AUDIT_GENERATED_(8E)
  6
Continuous
 62
     7
100
AcDbLine
 10
268.4980152678
 20
560.1457324516
 30
0.0
 11
270.4062312419
 21
556.8406054327
 31
0.0
  0
LINE
  5
412
330
3F2
100
AcDbEntity
  8
$DDT_AUDIT_GENERATED_(8E)
  6
Continuous
 62
     7
100
AcDbLine
 10
290.8444307712
 20
568.6406054327
 30
0.0
 11
288.9362147971
 21
571.9457324516
 31
0.0
  0
LINE
  5
413
330
3F2
100
AcDbEntity
  8
4221035_0__HUELS
  6
Continuous
 62
     7
100
AcDbLine
 10
273.1014762369
 20
556.9723041625
 30
0.0
 11
289.3827538281
 21
566.3723041625
 31
0.0
  0
LINE
  5
414
330
3F2
100
AcDbEntity
  8
4221035_0__HUELS
  6
Continuous
 62
     7
100
AcDbLine
 10
289.3827538281
 20
566.3723041625
 30
0.0
 11
289.3577538281
 21
566.4156054327
 31
0.0
  0
LINE
  5
415
330
3F2
100
AcDbEntity
  8
4221035_0__HUELS
  6
Continuous
 62
     7
100
AcDbLine
 10
273.0764762369
 20
557.0156054327
 30
0.0
 11
273.1014762369
 21
556.9723041625
 31
0.0
  0
ARC
  5
416
330
3F2
100
AcDbEntity
  8
$DDT_AUDIT_GENERATED_(3D7)
  6
Continuous
 62
     7
100
AcDbCircle
 10
144.7171150325
 20
613.26964165
 30
0.0
 40
24.5
100
AcDbArc
 50
130.8275421067
 51
164.8572685595
  0
ARC
  5
417
330
3F2
100
AcDbEntity
  8
$DDT_AUDIT_GENERATED_(3D7)
  6
Continuous
 62
     7
100
AcDbCircle
 10
144.7171150325
 20
613.26964165
 30
0.0
 40
24.50000000000001
100
AcDbArc
 50
15.1427314405
 51
20.0047391654
  0
ARC
  5
418
330
3F2
100
AcDbEntity
  8
09146038_NABE
  6
Continuous
 62
     7
100
AcDbCircle
 10
-459.6638087158
 20
-201.126039867
 30
0.0
 40
1049.738031453969
100
AcDbArc
 50
53.2273429295
 51
56.344372899
  0
ARC
  5
419
330
3F2
100
AcDbEntity
  8
09146038_NABE
  6
Continuous
 62
     7
100
AcDbCircle
 10
145.8146845231
 20
624.6510394142
 30
0.0
 40
2.99999999999994
100
AcDbArc
 50
238.0
 51
270.0
  0
LINE
  5
41A
330
3F2
100
AcDbEntity
  8
09146038_NABE
  6
Continuous
 62
     7
100
AcDbLine
 10
169.7171150325
 20
621.6510394142
 30
0.0
 11
145.8146845231
 21
621.6510394142
 31
0.0
  0
LINE
  5
41B
330
3F2
100
AcDbEntity
  8
09146038_NABE
  6
Continuous
 62
     7
100
AcDbLine
 10
119.989412172
 20
637.250925401
 30
0.0
 11
144.2249267304
 21
622.1068951257
 31
0.0
  0
ARC
  5
41C
330
3F2
100
AcDbEntity
  8
09146038_NABE
  6
Continuous
 62
     7
100
AcDbCircle
 10
147.9324241564
 20
696.6792065606
 30
0.0
 40
33.97606005086828
100
AcDbArc
 50
237.1983783452
 51
238.464925692
  0
ARC
  5
41D
330
3F2
100
AcDbEntity
  8
09146038_NABE
  6
Continuous
 62
     7
100
AcDbCircle
 10
147.9324241564
 20
696.6792065606
 30
0.0
 40
33.97606005086828
100
AcDbArc
 50
236.7335768909
 51
236.9245624811
  0
ELLIPSE
  5
41E
330
3F2
100
AcDbEntity
  8
09146038_NABE
  6
Continuous
 62
     7
100
AcDbEllipse
 10
-55.6117642001
 20
371.1383725891
 30
0.0
 11
349.999824538227
 21
-0.001150660036884632
 31
0.0
210
0.0
220
0.0
230
0.9999999999999999
 40
0.9998476945
 41
0.977201667589699
 42
0.9776195315997906
  0
ELLIPSE
  5
41F
330
3F2
100
AcDbEntity
  8
09146038_NABE
  6
Continuous
 62
     7
100
AcDbEllipse
 10
-55.6117642001
 20
371.1383725891
 30
0.0
 11
349.999824538227
 21
-0.001150660036884632
 31
0.0
210
0.0
220
0.0
230
0.9999999999999999
 40
0.9998476945
 41
1.010084297174264
 42
1.011275233776428
  0
ARC
  5
420
330
3F2
100
AcDbEntity
  8
09146038_NABE
  6
Continuous
 62
     7
100
AcDbCircle
 10
161.2924441677
 20
688.3615587539
 30
0.0
 40
34.3267208357333
100
AcDbArc
 50
235.1718209523
 51
236.7248266527
  0
ARC
  5
421
330
3F2
100
AcDbEntity
  8
09146038_NABE
  6
Continuous
 62
     7
100
AcDbCircle
 10
95.3204756224
 20
647.0844286666
 30
0.0
 40
25.05282447372609
100
AcDbArc
 50
353.271834758
 51
5.6504074657
  0
LINE
  5
422
330
3F2
100
AcDbEntity
  8
09146038_NABE
  6
Continuous
 62
     7
100
AcDbLine
 10
169.7171150325
 20
621.6510394142
 30
0.0
 11
169.4181056851
 21
638.781266108
 31
0.0
  0
LINE
  5
423
330
3F2
100
AcDbEntity
  8
09146038_NABE
  6
Continuous
 62
     7
100
AcDbLine
 10
120.0944516814
 20
643.2686322857
 30
0.0
 11
119.989412172
 21
637.250925401
 31
0.0
  0
LINE
  5
424
330
3F2
100
AcDbEntity
  8
09146038_NABE
  6
Continuous
 62
     7
100
AcDbLine
 10
120.592636662
 20
671.809618477
 30
0.0
 11
120.2125320041
 21
650.0334465427
 31
0.0
  0
ARC
  5
425
330
3F2
100
AcDbEntity
  8
09146038_NABE
  6
Continuous
 62
     7
100
AcDbCircle
 10
121.5967147629
 20
671.8038461053
 30
0.0
 40
0.9885740589363481
100
AcDbArc
 50
66.7308567056
 51
179.6607909764
  0
ARC
  5
426
330
3F2
100
AcDbEntity
  8
09146038_NABE
  6
Continuous
 62
     7
100
AcDbCircle
 10
168.4454559297
 20
638.7618664505
 30
0.0
 40
0.9625511674951341
100
AcDbArc
 50
1.3019576111
 51
51.8035434391
  0
ARC
  5
427
330
3F2
100
AcDbEntity
  8
09146038_NABE
  6
Continuous
 62
     7
100
AcDbCircle
 10
-55.6117646656
 20
371.1322649155
 30
0.0
 40
349.9999999999999
100
AcDbArc
 50
58.1370913598
 51
59.4830868518
  0
ARC
  5
428
330
3F2
100
AcDbEntity
  8
09146038_NABE
  6
Continuous
 62
     7
100
AcDbCircle
 10
-55.6117646656
 20
371.1322649155
 30
0.0
 40
350.0
100
AcDbArc
 50
50.0689722276
 51
54.767025029
  0
ARC
  5
429
330
3F2
100
AcDbEntity
  8
09146038_NABE
  6
Continuous
 62
     7
100
AcDbCircle
 10
128.8853109341
 20
667.9673691319
 30
0.0
 40
0.4999999999999958
100
AcDbArc
 50
42.078275415
 51
58.1370913598
  0
SPLINE
  5
42A
330
3F2
100
AcDbEntity
  8
09146038_NABE
  6
Continuous
 62
     7
100
AcDbSpline
210
0.0
220
0.0
230
1.0
 70
     8
 71
     3
 72
    12
 73
     8
 74
     0
 42
0.0000000388243535
 43
0.0000000001
 40
0.0
 40
0.0
 40
0.0
 40
0.0
 40
0.3541593462627202
 40
0.5683142932606654
 40
0.6284225552763721
 40
0.6760199375960162
 40
0.6819198408982168
 40
0.6819198408982168
 40
0.6819198408982168
 40
0.6819198408982168
 10
129.3037867481657
 20
668.2640264301393
 30
0.0
 10
129.2616345386957
 20
668.2914478630921
 30
0.0
 10
129.2087081102906
 20
668.3256207158768
 30
0.0
 10
129.1819577025529
 20
668.3442847223355
 30
0.0
 10
129.1893469519251
 20
668.339081370782
 30
0.0
 10
129.1987049816535
 20
668.3319117792363
 30
0.0
 10
129.204903241552
 20
668.326851394855
 30
0.0
 10
129.205606424617
 20
668.3262738956286
 30
0.0
  0
SPLINE
  5
42B
330
3F2
100
AcDbEntity
  8
09146038_NABE
  6
Continuous
 62
     7
100
AcDbSpline
210
0.0
220
0.0
230
1.0
 70
     8
 71
     3
 72
    11
 73
     7
 74
     0
 42
0.00000002692333
 43
0.0000000001
 40
0.3954710264669622
 40
0.3954710264669622
 40
0.3954710264669622
 40
0.3954710264669622
 40
0.4103482584800365
 40
0.5103538145206067
 40
0.7047197984065958
 40
1.0
 40
1.0
 40
1.0
 40
1.0
 10
142.6399926815501
 20
659.5432410029575
 30
0.0
 10
142.6399885861703
 20
659.5432427920531
 30
0.0
 10
142.6392837059922
 20
659.5436609259937
 30
0.0
 10
142.626616543674
 20
659.5515260519559
 30
0.0
 10
142.572768278983
 20
659.5863735669353
 30
0.0
 10
142.5032749522026
 20
659.6326060215057
 30
0.0
 10
142.4523301022627
 20
659.6665102753784
 30
0.0
  0
ARC
  5
42C
330
3F2
100
AcDbEntity
  8
09146038_NABE
  6
Continuous
 62
     7
100
AcDbCircle
 10
142.394692442
 20
659.1317318311
 30
0.0
 40
0.4999999999999865
100
AcDbArc
 50
55.4905552085
 51
71.6135693993
  0
ARC
  5
42D
330
3F2
100
AcDbEntity
  8
09155038_GRIFF
  6
Continuous
 62
     7
100
AcDbCircle
 10
115.3016043035
 20
653.5418303958
 30
0.0
 40
20.00527150285788
100
AcDbArc
 50
57.795831247
 51
60.1828280351
  0
ARC
  5
42E
330
3F2
100
AcDbEntity
  8
09155038_GRIFF
  6
Continuous
 62
     7
100
AcDbCircle
 10
-188.8579785812
 20
168.7682783157
 30
0.0
 40
592.2751285681364
100
AcDbArc
 50
55.1831401409
 51
58.0358835255
  0
ARC
  5
42F
330
3F2
100
AcDbEntity
  8
09155038_GRIFF
  6
Continuous
 62
     7
100
AcDbCircle
 10
-190.1485780437
 20
172.3702132058
 30
0.0
 40
590.0859514865011
100
AcDbArc
 50
54.8749309831
 51
57.7508876501
  0
ARC
  5
430
330
3F2
100
AcDbEntity
  8
09155038_GRIFF
  6
Continuous
 62
     7
100
AcDbCircle
 10
-55.4538301316
 20
371.1594522121
 30
0.0
 40
349.9979432181125
100
AcDbArc
 50
58.517198884
 51
58.7792109332
  0
LINE
  5
431
330
3F2
100
AcDbEntity
  8
09155038_GRIFF
  6
Continuous
 62
     7
100
AcDbLine
 10
127.3301251829
 20
669.6367248107
 30
0.0
 11
127.502265637
 21
669.6608732
 31
0.0
  0
LINE
  5
432
330
3F2
100
AcDbEntity
  8
09155038_GRIFF
  6
Continuous
 62
     7
100
AcDbLine
 10
125.2319077681
 20
670.8969896953
 30
0.0
 11
125.5144446776
 21
670.9259719329
 31
0.0
  0
LINE
  5
433
330
3F2
100
AcDbEntity
  8
09155038_GRIFF
  6
Continuous
 62
     7
100
AcDbLine
 10
125.2339605184
 20
670.8957596534
 30
0.0
 11
125.2319077284
 21
670.8969897191
 31
0.0
  0
LINE
  5
434
330
3F2
100
AcDbEntity
  8
09155038_GRIFF
  6
Continuous
 62
     7
100
AcDbLine
 10
148.9960144505
 20
655.2201535411
 30
0.0
 11
148.9958407907
 21
655.2210147646
 31
0.0
  0
ARC
  5
435
330
3F2
100
AcDbEntity
  8
09155038_GRIFF
  6
Continuous
 62
     7
100
AcDbCircle
 10
202.7667646856
 20
667.8390694494
 30
0.0
 40
50.00000000000004
100
AcDbArc
 50
334.046320092
 51
343.6225115084
  0
ARC
  5
436
330
3F2
100
AcDbEntity
  8
09155038_GRIFF
  6
Continuous
 62
     7
100
AcDbCircle
 10
202.6799450075
 20
667.5402181888
 30
0.0
 40
50.00000000000001
100
AcDbArc
 50
343.9791289186
 51
353.5711328696
  0
ARC
  5
437
330
3F2
100
AcDbEntity
  8
09155038_GRIFF
  6
Continuous
 62
     7
100
AcDbCircle
 10
170.8383490235
 20
375.4550462544
 30
0.0
 40
280.3626652976481
100
AcDbArc
 50
74.3343997953
 51
94.395016151
  0
ARC
  5
438
330
3F2
100
AcDbEntity
  8
09155038_GRIFF
  6
Continuous
 62
     7
100
AcDbCircle
 10
168.854764003
 20
375.3175408311
 30
0.0
 40
299.3705397744671
100
AcDbArc
 50
73.9453527496
 51
98.4765752481
  0
SPLINE
  5
439
330
3F2
100
AcDbEntity
  8
09155038_GRIFF
  6
Continuous
 62
     7
100
AcDbSpline
210
0.0
220
0.0
230
1.0
 70
     8
 71
     3
 72
    14
 73
    10
 74
     0
 42
0.0000000069915984
 43
0.0000000001
 40
0.0
 40
0.0
 40
0.0
 40
0.0
 40
0.0899636213012007
 40
0.3212458758198368
 40
0.5106273104484356
 40
0.6725631744356185
 40
0.8101296367540427
 40
0.9229295965414531
 40
1.0
 40
1.0
 40
1.0
 40
1.0
 10
246.5467986708223
 20
645.4214607084509
 30
0.0
 10
246.5904073333921
 20
645.4048753575044
 30
0.0
 10
246.7246909536331
 20
645.3552421937206
 30
0.0
 10
246.9805090925583
 20
645.3724237931144
 30
0.0
 10
247.2415934896982
 20
645.4554483255457
 30
0.0
 10
247.438836867507
 20
645.5811369170129
 30
0.0
 10
247.5770587211061
 20
645.7173375975954
 30
0.0
 10
247.6692880360607
 20
645.8464663751754
 30
0.0
 10
247.7060249267483
 20
645.9214845811697
 30
0.0
 10
247.7232722041573
 20
645.9575268275362
 30
0.0
  0
ARC
  5
43A
330
3F2
100
AcDbEntity
  8
09155038_GRIFF
  6
Continuous
 62
     7
100
AcDbCircle
 10
251.3804086662
 20
662.0626677411
 30
0.0
 40
0.9882059070141279
100
AcDbArc
 50
352.9756202945
 51
74.1226237157
  0
ARC
  5
43B
330
3F2
100
AcDbEntity
  8
09155038_GRIFF
  6
Continuous
 62
     7
100
AcDbCircle
 10
124.7366928183
 20
671.328379184
 30
0.0
 40
0.1000000051870014
100
AcDbArc
 50
57.8884402748
 51
242.207120154
  0
ARC
  5
43C
330
3F2
100
AcDbEntity
  8
09155038_GRIFF
  6
Continuous
 62
     7
100
AcDbCircle
 10
-188.4801412211
 20
169.2035475117
 30
0.0
 40
591.6485624379588
100
AcDbArc
 50
55.5403849792
 51
57.7472400597
  0
ARC
  5
43D
330
3F2
100
AcDbEntity
  8
09155038_GRIFF
  6
Continuous
 62
     7
100
AcDbCircle
 10
167.3476308651
 20
387.8810987432
 30
0.0
 40
284.5103217473405
100
AcDbArc
 50
98.0305416549
 51
98.1003344875
  0
LINE
  5
43F
330
3F2
100
AcDbEntity
  8
09161031_SCHRAUB
  6
Continuous
 62
     7
100
AcDbLine
 10
133.6149345704
 20
665.5510394142
 30
0.0
 11
133.5829749176
 21
665.5510394142
 31
0.0
  0
LINE
  5
440
330
3F2
100
AcDbEntity
  8
09161031_SCHRAUB
  6
Continuous
 62
     7
100
AcDbLine
 10
138.7171150325
 20
662.1979011249
 30
0.0
 11
138.7171150325
 21
662.2090164638
 31
0.0
  0
LINE
  5
441
330
3F2
100
AcDbEntity
  8
09161031_SCHRAUB
  6
Continuous
 62
     7
100
AcDbLine
 10
138.1021150325
 20
662.2090164638
 30
0.0
 11
138.1021150325
 21
662.1979011249
 31
0.0
  0
LINE
  5
443
330
3F2
100
AcDbEntity
  8
$DDT_AUDIT_GENERATED_(442)
  6
Continuous
 62
     7
100
AcDbLine
 10
120.0788345798
 20
643.2711057916
 30
0.0
 11
119.7203499232
 21
650.1114005261
 31
0.0
  0
LINE
  5
444
330
3F2
100
AcDbEntity
  8
$DDT_AUDIT_GENERATED_(442)
  6
Continuous
 62
     7
100
AcDbLine
 10
120.4497671544
 20
645.7469519394
 30
0.0
 11
120.225226866
 21
650.0314358741
 31
0.0
  0
LINE
  5
445
330
3F2
100
AcDbEntity
  8
$DDT_AUDIT_GENERATED_(442)
  6
Continuous
 62
     7
100
AcDbLine
 10
120.2125320041
 20
650.0334465427
 30
0.0
 11
119.7203499232
 21
650.1114005261
 31
0.0
  0
LINE
  5
446
330
3F2
100
AcDbEntity
  8
$DDT_AUDIT_GENERATED_(442)
  6
Continuous
 62
     7
100
AcDbLine
 10
120.0788345798
 20
643.2711057916
 30
0.0
 11
120.0944516814
 21
643.2686322857
 31
0.0
  0
LINE
  5
448
330
3F2
100
AcDbEntity
  8
$DDT_AUDIT_GENERATED_(447)
  6
Continuous
 62
     7
100
AcDbLine
 10
181.2781982271
 20
577.6018219274
 30
0.0
 11
183.0133410084
 21
577.6018219274
 31
0.0
  0
ENDBLK
  5
44A
330
3F2
100
AcDbEntity
  8
0
100
AcDbBlockEnd
  0
BLOCK
  5
46E
330
44B
100
AcDbEntity
  8
0
100
AcDbBlockBegin
  2
SE2
 70
     0
 10
0.0
 20
0.0
 30
0.0
  3
SE2
  1

  0
ARC
  5
44D
330
44B
100
AcDbEntity
  8
$DDT_AUDIT_GENERATED_(7C)
  6
Continuous
 62
     7
100
AcDbCircle
 10
52.9653672834
 20
255.3331892935
 30
0.0
 40
25.0
100
AcDbArc
 50
0.2112110942
 51
82.2992012802
  0
ARC
  5
44E
330
44B
100
AcDbEntity
  8
$DDT_AUDIT_GENERATED_(7C)
  6
Continuous
 62
     7
100
AcDbCircle
 10
52.9653672834
 20
255.3331892935
 30
0.0
 40
25.0
100
AcDbArc
 50
88.8083754416
 51
91.1916245583
  0
ARC
  5
44F
330
44B
100
AcDbEntity
  8
$DDT_AUDIT_GENERATED_(7C)
  6
Continuous
 62
     7
100
AcDbCircle
 10
52.9653672834
 20
255.3331892935
 30
0.0
 40
25.0
100
AcDbArc
 50
97.7007987199
 51
179.0153007084
  0
ARC
  5
450
330
44B
100
AcDbEntity
  8
$DDT_AUDIT_GENERATED_(7C)
  6
Continuous
 62
     7
100
AcDbCircle
 10
52.9653672834
 20
255.3331892935
 30
0.0
 40
25.0
100
AcDbArc
 50
179.7816540243
 51
182.5162527502
  0
ARC
  5
451
330
44B
100
AcDbEntity
  8
$DDT_AUDIT_GENERATED_(81)
  6
Continuous
 62
     7
100
AcDbCircle
 10
52.964981135
 20
121.0954818318
 30
0.0
 40
13.95899176472775
100
AcDbArc
 50
180.2992605852
 51
180.4334944197
  0
ARC
  5
452
330
44B
100
AcDbEntity
  8
$DDT_AUDIT_GENERATED_(81)
  6
Continuous
 62
     7
100
AcDbCircle
 10
52.964981135
 20
121.0954818318
 30
0.0
 40
13.95899176472775
100
AcDbArc
 50
359.6407293385
 51
359.7208425697
  0
LINE
  5
453
330
44B
100
AcDbEntity
  8
$DDT_AUDIT_GENERATED_(81)
  6
Continuous
 62
     7
100
AcDbLine
 10
66.9653672834
 20
121.0062841578
 30
0.0
 11
66.9653672834
 21
230.3331892935
 31
0.0
  0
LINE
  5
454
330
44B
100
AcDbEntity
  8
$DDT_AUDIT_GENERATED_(81)
  6
Continuous
 62
     7
100
AcDbLine
 10
38.9653672834
 20
230.3331892935
 30
0.0
 11
38.9653672834
 21
121.0148582997
 31
0.0
  0
LINE
  5
455
330
44B
100
AcDbEntity
  8
$DDT_AUDIT_GENERATED_(81)
  6
Continuous
 62
     7
100
AcDbLine
 10
38.9653672834
 20
234.6179436543
 30
0.0
 11
38.9653672834
 21
230.3331892935
 31
0.0
  0
LINE
  5
456
330
44B
100
AcDbEntity
  8
$DDT_AUDIT_GENERATED_(81)
  6
Continuous
 62
     7
100
AcDbLine
 10
66.9653672834
 20
230.3331892935
 30
0.0
 11
66.9653672834
 21
234.6207660892
 31
0.0
  0
SPLINE
  5
457
330
44B
100
AcDbEntity
  8
$DDT_AUDIT_GENERATED_(81)
  6
Continuous
 62
     7
100
AcDbSpline
210
0.0
220
0.0
230
1.0
 70
     8
 71
     3
 72
    70
 73
    66
 74
     0
 42
0.0000000002216549
 43
0.0000000001
 40
0.0
 40
0.0
 40
0.0
 40
0.0
 40
0.0066865046605294
 40
0.0249352820885403
 40
0.0431087179195548
 40
0.0611875400444109
 40
0.0791549749536339
 40
0.096997205754907
 40
0.1147037113374747
 40
0.1322674889118956
 40
0.1496851632081392
 40
0.1669569924886065
 40
0.1840867866214622
 40
0.2010817555194986
 40
0.2179523073365443
 40
0.2348270289097262
 40
0.2510209241772324
 40
0.2672980066665193
 40
0.2834547972852692
 40
0.2994267558842195
 40
0.3151634676524063
 40
0.330628627469644
 40
0.3457996292059206
 40
0.3606529995499899
 40
0.3755114254392146
 40
0.3903149645290995
 40
0.4050433869353467
 40
0.4196809543717729
 40
0.4342169300992392
 40
0.448645775680421
 40
0.4629671403045624
 40
0.4771876736890083
 40
0.4912070177444163
 40
0.5051737459549466
 40
0.5192420797030803
 40
0.533403219063294
 40
0.547645393893425
 40
0.5619532514783763
 40
0.5763083821888184
 40
0.5906900090935665
 40
0.6050619587110102
 40
0.6193503542038185
 40
0.6338750922303977
 40
0.6485740807764533
 40
0.6634539435917259
 40
0.6785155711154769
 40
0.6937543537204376
 40
0.7091598992997286
 40
0.7247159083721723
 40
0.740349696538683
 40
0.7560937792908083
 40
0.7722039160488162
 40
0.7884579200098863
 40
0.804873349543794
 40
0.8214629185882306
 40
0.8382357531845169
 40
0.8551969754924686
 40
0.8723473101918137
 40
0.8896827276897538
 40
0.9071941556866228
 40
0.9248672943980589
 40
0.9426825724149104
 40
0.960615278672666
 40
0.9786359003421352
 40
0.9837016502360528
 40
0.9837016502360528
 40
0.9837016502360528
 40
0.9837016502360528
 10
38.96946445843201
 20
120.9891731955227
 30
0.0
 10
38.96811262306878
 20
120.8847817273504
 30
0.0
 10
38.96429615203265
 20
120.552783633854
 30
0.0
 10
38.99626359888863
 20
119.9240196427185
 30
0.0
 10
39.06628685813419
 20
119.1583089152865
 30
0.0
 10
39.1766914239452
 20
118.392725312437
 30
0.0
 10
39.32400880288745
 20
117.6386979373661
 30
0.0
 10
39.50843678945609
 20
116.8958480821704
 30
0.0
 10
39.72905629369616
 20
116.1667526661437
 30
0.0
 10
39.98513015536575
 20
115.4530061766131
 30
0.0
 10
40.27578344555648
 20
114.7562574273901
 30
0.0
 10
40.60013063839884
 20
114.077928331339
 30
0.0
 10
40.95721773607091
 20
113.4193091240197
 30
0.0
 10
41.34625239842978
 20
112.7814816973775
 30
0.0
 10
41.76682054066983
 20
112.1641763865236
 30
0.0
 10
42.21479436380908
 20
111.5747544658615
 30
0.0
 10
42.68985672172137
 20
111.0134534570192
 30
0.0
 10
43.18820738082373
 20
110.4815639861024
 30
0.0
 10
43.71360525281427
 20
109.974915168751
 30
0.0
 10
44.26119394208573
 20
109.4979710772183
 30
0.0
 10
44.82757452373073
 20
109.053232645551
 30
0.0
 10
45.40953940020685
 20
108.6425883215294
 30
0.0
 10
46.00410091212574
 20
108.2675030699088
 30
0.0
 10
46.61252371331178
 20
107.9264890742649
 30
0.0
 10
47.23557476656433
 20
107.6177691437788
 30
0.0
 10
47.87478536317903
 20
107.3404427804724
 30
0.0
 10
48.52685560665811
 20
107.0958793332008
 30
0.0
 10
49.18908650690943
 20
106.8849702446549
 30
0.0
 10
49.85890492002751
 20
106.7083789638016
 30
0.0
 10
50.53390240884512
 20
106.5665585945108
 30
0.0
 10
51.21188632532294
 20
106.4597974173231
 30
0.0
 10
51.88911793189635
 20
106.3883552500675
 30
0.0
 10
52.56417578275153
 20
106.3521838778323
 30
0.0
 10
53.2379961801562
 20
106.35
 30
0.0
 10
53.91316933415781
 20
106.3814010909819
 30
0.0
 10
54.58971852600509
 20
106.4465655840576
 30
0.0
 10
55.26494803482618
 20
106.5455413641634
 30
0.0
 10
55.93601365287463
 20
106.6782104827505
 30
0.0
 10
56.59993718436657
 20
106.8442943415265
 30
0.0
 10
57.25347094304031
 20
107.0431810679982
 30
0.0
 10
57.89251537603342
 20
107.2740184673221
 30
0.0
 10
58.51835297856238
 20
107.5364809648213
 30
0.0
 10
59.13215054262204
 20
107.8304708029674
 30
0.0
 10
59.73561314322098
 20
108.1573388814278
 30
0.0
 10
60.32605998764174
 20
108.5161454893148
 30
0.0
 10
60.90164158087542
 20
108.9063023316325
 30
0.0
 10
61.46034741664898
 20
109.3270208176027
 30
0.0
 10
61.99999402789145
 20
109.7772542583376
 30
0.0
 10
62.51779487753139
 20
110.2552966272792
 30
0.0
 10
63.01132598359987
 20
110.7592608307157
 30
0.0
 10
63.48248883283288
 20
111.2898233648282
 30
0.0
 10
63.93004497181875
 20
111.8471827553852
 30
0.0
 10
64.35271143269111
 20
112.430999582032
 30
0.0
 10
64.7474377895894
 20
113.0378627670052
 30
0.0
 10
65.11335226290424
 20
113.667015836073
 30
0.0
 10
65.44950658645355
 20
114.3175501866905
 30
0.0
 10
65.7549054884594
 20
114.9883945767121
 30
0.0
 10
66.02851864857836
 20
115.6782887603742
 30
0.0
 10
66.26930904353722
 20
116.3857827181225
 30
0.0
 10
66.47622335988909
 20
117.1091394245937
 30
0.0
 10
66.64834496830807
 20
117.8466236266436
 30
0.0
 10
66.78445072249674
 20
118.5953562402976
 30
0.0
 10
66.88483383523511
 20
119.3556204381007
 30
0.0
 10
66.93020792421986
 20
119.9319041310452
 30
0.0
 10
66.94878840914781
 20
120.2648787698024
 30
0.0
 10
66.95232422439356
 20
120.3378199200207
 30
0.0
  0
SPLINE
  5
458
330
44B
100
AcDbEntity
  8
$DDT_AUDIT_GENERATED_(81)
  6
Continuous
 62
     7
100
AcDbSpline
210
0.0
220
0.0
230
1.0
 70
     8
 71
     3
 72
     9
 73
     5
 74
     0
 42
0.0000000002367852
 43
0.0000000001
 40
0.9863585286517136
 40
0.9863585286517136
 40
0.9863585286517136
 40
0.9863585286517136
 40
0.9966883124759971
 40
1.0
 40
1.0
 40
1.0
 40
1.0
 10
66.95741120852978
 20
120.4524098153187
 30
0.0
 10
66.9633478722526
 20
120.6005843380045
 30
0.0
 10
66.96762180354779
 20
120.7940438283855
 30
0.0
 10
66.96413645474485
 20
120.9766220040857
 30
0.0
 10
66.96311385895318
 20
121.0283119404228
 30
0.0
  0
ARC
  5
459
330
44B
100
AcDbEntity
  8
09146038_NABE
  6
Continuous
 62
     7
100
AcDbCircle
 10
49.4188396996
 20
255.1828696566
 30
0.0
 40
21.45029321158666
100
AcDbArc
 50
178.2835432666
 51
182.5310178152
  0
ARC
  5
45A
330
44B
100
AcDbEntity
  8
09146038_NABE
  6
Continuous
 62
     7
100
AcDbCircle
 10
52.9653672834
 20
255.3331892935
 30
0.0
 40
25.0
100
AcDbArc
 50
292.1955872992
 51
357.4837472498
  0
ARC
  5
45B
330
44B
100
AcDbEntity
  8
09146038_NABE
  6
Continuous
 62
     7
100
AcDbCircle
 10
52.9653672834
 20
255.3331892935
 30
0.0
 40
25.0
100
AcDbArc
 50
182.5162527502
 51
247.8041438887
  0
ELLIPSE
  5
45C
330
44B
100
AcDbEntity
  8
09146038_NABE
  6
Continuous
 62
     7
100
AcDbEllipse
 10
52.9653672834
 20
255.0605065936
 30
0.0
 11
1.053059300342260E-7
 21
-25.00038556052094
 31
0.0
210
0.0
220
0.0
230
1.0
 40
0.9999405154
 41
1.601395465637764
 42
3.007182398214407
  0
ELLIPSE
  5
45D
330
44B
100
AcDbEntity
  8
09146038_NABE
  6
Continuous
 62
     7
100
AcDbEllipse
 10
52.9653672834
 20
255.0605065936
 30
0.0
 11
1.053059300342260E-7
 21
-25.00038556052094
 31
0.0
210
0.0
220
0.0
230
1.0
 40
0.9999405154
 41
3.276002900541945
 42
4.681789833117979
  0
ARC
  5
45E
330
44B
100
AcDbEntity
  8
09146038_NABE
  6
Continuous
 62
     7
100
AcDbCircle
 10
56.5834275962
 20
255.1823611658
 30
0.0
 40
21.37880797476855
100
AcDbArc
 50
357.4618776832
 51
1.7235612351
  0
ARC
  5
45F
330
44B
100
AcDbEntity
  8
09146038_NABE
  6
Continuous
 62
     7
100
AcDbCircle
 10
52.9644759315
 20
261.314957425
 30
0.0
 40
18.6517157449847
100
AcDbArc
 50
80.1323979172
 51
86.0474403934
  0
ARC
  5
460
330
44B
100
AcDbEntity
  8
09146038_NABE
  6
Continuous
 62
     7
100
AcDbCircle
 10
52.9644759315
 20
261.314957425
 30
0.0
 40
18.6517157449847
100
AcDbArc
 50
93.9380206736
 51
99.8261631776
  0
SPLINE
  5
461
330
44B
100
AcDbEntity
  8
09155038_GRIFF
  6
Continuous
 62
     7
100
AcDbSpline
210
0.0
220
0.0
230
1.0
 70
     8
 71
     3
 72
     8
 73
     4
 74
     0
 42
0.0000000006240773
 43
0.0000000001
 40
0.1154719914713123
 40
0.1154719914713123
 40
0.1154719914713123
 40
0.1154719914713123
 40
0.116065240858282
 40
0.116065240858282
 40
0.116065240858282
 40
0.116065240858282
 10
62.14038106381533
 20
150.9426824994122
 30
0.0
 10
62.1404345997755
 20
150.9458508342942
 30
0.0
 10
62.14046782748364
 20
150.9490192975645
 30
0.0
 10
62.14048076288368
 20
150.9521878709809
 30
0.0
  0
SPLINE
  5
462
330
44B
100
AcDbEntity
  8
09155038_GRIFF
  6
Continuous
 62
     7
100
AcDbSpline
210
0.0
220
0.0
230
1.0
 70
     8
 71
     3
 72
    10
 73
     6
 74
     0
 42
0.0000000001543963
 43
0.0000000001
 40
0.2465217135843365
 40
0.2465217135843365
 40
0.2465217135843365
 40
0.2465217135843365
 40
0.2500000000000001
 40
0.2500000000000001
 40
0.3099843569933544
 40
0.3099843569933544
 40
0.3099843569933544
 40
0.3099843569933544
 10
43.43010258733629
 20
262.9389664936773
 30
0.0
 10
43.4298384117258
 20
263.0130118051637
 30
0.0
 10
43.43008301309792
 20
263.0870852491429
 30
0.0
 10
43.4437772776238
 20
264.4390933018318
 30
0.0
 10
43.60398200626
 20
265.7326478868534
 30
0.0
 10
43.93787805821622
 20
266.9960087970119
 30
0.0
  0
SPLINE
  5
463
330
44B
100
AcDbEntity
  8
09155038_GRIFF
  6
Continuous
 62
     7
100
AcDbSpline
210
0.0
220
0.0
230
1.0
 70
     8
 71
     3
 72
    10
 73
     6
 74
     0
 42
0.0000000001542918
 43
0.0000000001
 40
0.6826150524717088
 40
0.6826150524717088
 40
0.6826150524717088
 40
0.6826150524717088
 40
0.6875000000000002
 40
0.6875000000000002
 40
0.7460398940430149
 40
0.7460398940430149
 40
0.7460398940430149
 40
0.7460398940430149
 10
61.98872922584034
 20
266.9908078100506
 30
0.0
 10
62.01583921937491
 20
266.8884228772683
 30
0.0
 10
62.0418324212407
 20
266.7858373420716
 30
0.0
 10
62.36508404837625
 20
265.4515150745422
 30
0.0
 10
62.50547068464773
 20
264.1844802619785
 30
0.0
 10
62.50052575243883
 20
262.9332320334022
 30
0.0
  0
ARC
  5
464
330
44B
100
AcDbEntity
  8
09155038_GRIFF
  6
Continuous
 62
     7
100
AcDbCircle
 10
42393.7480130638
 20
343.2038267663
 30
0.0
 40
42350.39400067931
100
AcDbArc
 50
180.1085896659
 51
180.2600966968
  0
ARC
  5
465
330
44B
100
AcDbEntity
  8
09155038_GRIFF
  6
Continuous
 62
     7
100
AcDbCircle
 10
-42760.3541899448
 20
344.716460205
 30
0.0
 40
42822.93293512596
100
AcDbArc
 50
359.7407484336
 51
359.8905768131
  0
SPLINE
  5
466
330
44B
100
AcDbEntity
  8
09155038_GRIFF
  6
Continuous
 62
     7
100
AcDbSpline
210
0.0
220
0.0
230
1.0
 70
     8
 71
     3
 72
    57
 73
    53
 74
     0
 42
0.0000000004788212
 43
0.0000000001
 40
0.0
 40
0.0
 40
0.0
 40
0.0
 40
0.0074860060695626
 40
0.0222271727337841
 40
0.037086294710595
 40
0.0523876064472911
 40
0.0684859343151125
 40
0.0857729442127643
 40
0.1046402326950605
 40
0.1253415081175555
 40
0.1477194421958441
 40
0.1710592844327227
 40
0.1943853743444557
 40
0.2172311487246279
 40
0.2395181494829324
 40
0.2612535603669199
 40
0.2829944777120212
 40
0.3046736916409619
 40
0.326315002225544
 40
0.3479213639380433
 40
0.369480929328302
 40
0.3909725569204847
 40
0.4123709307352213
 40
0.4336511193067899
 40
0.454792458116354
 40
0.4757816593013605
 40
0.4965925874630858
 40
0.5172761038037033
 40
0.5382499508408323
 40
0.5593496460306013
 40
0.580567303048804
 40
0.6018887659361782
 40
0.6232965574253233
 40
0.6447725516116103
 40
0.6663010681198919
 40
0.6878722987532442
 40
0.7094859862425287
 40
0.7311549941366201
 40
0.7528152188741567
 40
0.7744731470283389
 40
0.7965073524614642
 40
0.8189760120816484
 40
0.8419417584086697
 40
0.8654306490178432
 40
0.8892896295615502
 40
0.9092196876296272
 40
0.9273343751775274
 40
0.9439359857005137
 40
0.9594312314504599
 40
0.974183648712613
 40
0.9900740771558583
 40
1.0
 40
1.0
 40
1.0
 40
1.0
 10
43.79547959297439
 20
150.9559354587857
 30
0.0
 10
43.79452590688086
 20
150.9099565785666
 30
0.0
 10
43.79272504773915
 20
150.7940688905653
 30
0.0
 10
43.82981959113668
 20
150.5864125726413
 30
0.0
 10
43.9013293503211
 20
150.3558929470978
 30
0.0
 10
44.00633555712283
 20
150.1344042054073
 30
0.0
 10
44.14172312338301
 20
149.9231350706736
 30
0.0
 10
44.30997377304207
 20
149.7188302155947
 30
0.0
 10
44.51499625370366
 20
149.519212186185
 30
0.0
 10
44.76173896534124
 20
149.3231719972427
 30
0.0
 10
45.05262749443872
 20
149.1323174987961
 30
0.0
 10
45.38448852418502
 20
148.9505843740326
 30
0.0
 10
45.74973490740268
 20
148.7817456277566
 30
0.0
 10
46.140388562024
 20
148.6276976683411
 30
0.0
 10
46.55181385830274
 20
148.4882637683714
 30
0.0
 10
46.98452311573753
 20
148.361808542395
 30
0.0
 10
47.43873926298461
 20
148.2467877326093
 30
0.0
 10
47.91619247643909
 20
148.1419802921856
 30
0.0
 10
48.41453015051176
 20
148.047430568396
 30
0.0
 10
48.93176508074057
 20
147.9631757723983
 30
0.0
 10
49.46546459120657
 20
147.8893795169124
 30
0.0
 10
50.01286875443579
 20
147.8262541184787
 30
0.0
 10
50.57099827775709
 20
147.7740136453231
 30
0.0
 10
51.13677431752595
 20
147.7328390281898
 30
0.0
 10
51.70713135611841
 20
147.7028669550706
 30
0.0
 10
52.27891972025156
 20
147.6841627925265
 30
0.0
 10
52.84956909620902
 20
147.6767921786293
 30
0.0
 10
53.4204293245228
 20
147.6803627453451
 30
0.0
 10
53.99184322892353
 20
147.694829315483
 30
0.0
 10
54.56352483704619
 20
147.7203373399969
 30
0.0
 10
55.13128356787974
 20
147.7568397324241
 30
0.0
 10
55.69228058184804
 20
147.8042866230767
 30
0.0
 10
56.24361635376657
 20
147.8625854042042
 30
0.0
 10
56.7824233901726
 20
147.9316099598259
 30
0.0
 10
57.30595850063208
 20
148.0112177300777
 30
0.0
 10
57.81170564424186
 20
148.1012824029669
 30
0.0
 10
58.29743729678567
 20
148.2017284878406
 30
0.0
 10
58.76072648848105
 20
148.3124732794143
 30
0.0
 10
59.19915130743332
 20
148.4333867966969
 30
0.0
 10
59.61355732482409
 20
148.5649261390037
 30
0.0
 10
60.00541621060333
 20
148.7083546126707
 30
0.0
 10
60.37597450089942
 20
148.8657715738789
 30
0.0
 10
60.72437466683411
 20
149.0394303020136
 30
0.0
 10
61.04889677437701
 20
149.2324379480129
 30
0.0
 10
61.32989774036041
 20
149.4367834788034
 30
0.0
 10
61.56287500088448
 20
149.6473012591529
 30
0.0
 10
61.7469437210757
 20
149.8554138795865
 30
0.0
 10
61.89398552042504
 20
150.0688769849594
 30
0.0
 10
62.0073667494299
 20
150.2896998272063
 30
0.0
 10
62.0889916748636
 20
150.5237171499617
 30
0.0
 10
62.13485143776812
 20
150.7496390657356
 30
0.0
 10
62.13552596346923
 20
150.8824012119198
 30
0.0
 10
62.13541258678408
 20
150.9427252817214
 30
0.0
  0
ARC
  5
467
330
44B
100
AcDbEntity
  8
09155038_GRIFF
  6
Continuous
 62
     7
100
AcDbCircle
 10
51.430459532
 20
264.948559312
 30
0.0
 40
10.76039025184115
100
AcDbArc
 50
11.0610856925
 51
72.8183331129
  0
SPLINE
  5
468
330
44B
100
AcDbEntity
  8
09155038_GRIFF
  6
Continuous
 62
     7
100
AcDbSpline
210
0.0
220
0.0
230
1.0
 70
     8
 71
     3
 72
    34
 73
    30
 74
     0
 42
0.0000000006702532
 43
0.0000000001
 40
0.0
 40
0.0
 40
0.0
 40
0.0
 40
0.0158138320935912
 40
0.0456831317794357
 40
0.0757178395367132
 40
0.1060617381149657
 40
0.136733806878483
 40
0.1677315325889594
 40
0.1990308022227021
 40
0.2305878764407961
 40
0.2623427996517659
 40
0.2942242102840406
 40
0.3260675568100574
 40
0.3587059311995784
 40
0.3931860597069171
 40
0.4286589480428725
 40
0.4652965987669109
 40
0.5032328753965687
 40
0.5425766483088047
 40
0.5834033088050592
 40
0.6257594665727597
 40
0.6699798441617884
 40
0.7160012287147884
 40
0.7629821619732149
 40
0.8110398965294855
 40
0.8602664356742619
 40
0.910738759725114
 40
0.9625154929335271
 40
1.0
 40
1.0
 40
1.0
 40
1.0
 10
54.60910433018793
 20
275.2287448949083
 30
0.0
 10
54.51860572664133
 20
275.2484840473625
 30
0.0
 10
54.29629794243464
 20
275.2962170462359
 30
0.0
 10
53.88565179042397
 20
275.3595789523802
 30
0.0
 10
53.40630020105302
 20
275.4014183008767
 30
0.0
 10
52.91611364880124
 20
275.4122215974132
 30
0.0
 10
52.42235099578935
 20
275.3909640458738
 30
0.0
 10
51.92648119860898
 20
275.3375495755412
 30
0.0
 10
51.43213694225197
 20
275.2518565798175
 30
0.0
 10
50.9427487109714
 20
275.1340786332424
 30
0.0
 10
50.46209964357847
 20
274.984722621758
 30
0.0
 10
49.99446303008553
 20
274.8047022024937
 30
0.0
 10
49.5397933203556
 20
274.5937457013075
 30
0.0
 10
49.09023186384546
 20
274.3522136857152
 30
0.0
 10
48.64431325644559
 20
274.0766597571538
 30
0.0
 10
48.20333940745275
 20
273.7661429643873
 30
0.0
 10
47.77203599252217
 20
273.4226784302404
 30
0.0
 10
47.35097984289926
 20
273.0456849857762
 30
0.0
 10
46.94116248930793
 20
272.6348065592341
 30
0.0
 10
46.54386551689378
 20
272.1899525377428
 30
0.0
 10
46.15978219548877
 20
271.7101867830518
 30
0.0
 10
45.78937650130043
 20
271.1952924197172
 30
0.0
 10
45.43770607182996
 20
270.647437169254
 30
0.0
 10
45.10908215223891
 20
270.0703882093579
 30
0.0
 10
44.80678269889193
 20
269.4681765959031
 30
0.0
 10
44.53077948371634
 20
268.8391820367315
 30
0.0
 10
44.28498524178626
 20
268.1896637584643
 30
0.0
 10
44.0815133497704
 20
267.5661906072013
 30
0.0
 10
43.98570621609908
 20
267.1995165092607
 30
0.0
 10
43.93869990479546
 20
267.0174764699112
 30
0.0
  0
ELLIPSE
  5
469
330
44B
100
AcDbEntity
  8
$DDT_AUDIT_GENERATED_(442)
  6
Continuous
 62
     7
100
AcDbEllipse
 10
52.9653672834
 20
280.1507120745
 30
0.0
 11
3.349999999999999
 21
-1.457167719820518E-13
 31
0.0
210
0.0
220
0.0
230
1.0
 40
0.0535051726
 41
0.0
 42
3.141592653589655
  0
ELLIPSE
  5
46A
330
44B
100
AcDbEntity
  8
$DDT_AUDIT_GENERATED_(442)
  6
Continuous
 62
     7
100
AcDbEllipse
 10
52.9653672834
 20
279.6458351317
 30
0.0
 11
3.350000000000001
 21
-1.457167719820518E-13
 31
0.0
210
0.0
220
0.0
230
1.0
 40
0.0535051726
 41
0.0
 42
1.177790007990118
  0
ELLIPSE
  5
46B
330
44B
100
AcDbEntity
  8
$DDT_AUDIT_GENERATED_(442)
  6
Continuous
 62
     7
100
AcDbEllipse
 10
52.9653672834
 20
279.6458351317
 30
0.0
 11
3.350000000000001
 21
-1.457167719820518E-13
 31
0.0
210
0.0
220
0.0
230
1.0
 40
0.0535051726
 41
1.962369551285244
 42
3.141592653589793
  0
LINE
  5
46C
330
44B
100
AcDbEntity
  8
$DDT_AUDIT_GENERATED_(442)
  6
Continuous
 62
     7
100
AcDbLine
 10
56.3153672834
 20
279.6458351317
 30
0.0
 11
56.3153672834
 21
280.1507120745
 31
0.0
  0
LINE
  5
46D
330
44B
100
AcDbEntity
  8
$DDT_AUDIT_GENERATED_(442)
  6
Continuous
 62
     7
100
AcDbLine
 10
49.6153672834
 20
280.1507120745
 30
0.0
 11
49.6153672834
 21
279.6458351317
 31
0.0
  0
ENDBLK
  5
46F
330
44B
100
AcDbEntity
  8
0
100
AcDbBlockEnd
  0
ENDSEC
  0
SECTION
  2
ENTITIES
  0
INSERT
  5
5F
330
1F
100
AcDbEntity
  8
Default
100
AcDbBlockReference
  2
SEANNOT_GROUP
 10
0.0
 20
0.0
 30
0.0
  0
INSERT
  5
6A
330
1F
100
AcDbEntity
  8
Default
100
AcDbBlockReference
  2
SEANNOT_GROUP1
 10
0.0
 20
0.0
 30
0.0
  0
INSERT
  5
70
330
1F
100
AcDbEntity
  8
Default
100
AcDbBlockReference
  2
SEANNOT_GROUP2
 10
0.0
 20
0.0
 30
0.0
  0
INSERT
  5
76
330
1F
100
AcDbEntity
  8
Default
100
AcDbBlockReference
  2
SE
 10
0.0
 20
0.0
 30
0.0
  0
INSERT
  5
3F3
330
1F
100
AcDbEntity
  8
Default
100
AcDbBlockReference
  2
SE1
 10
0.0
 20
0.0
 30
0.0
  0
INSERT
  5
44C
330
1F
100
AcDbEntity
  8
Default
100
AcDbBlockReference
  2
SE2
 10
0.0
 20
0.0
 30
0.0
  0
TEXT
  5
471
330
1F
100
AcDbEntity
  8
Default
  6
Continuous
 62
     7
100
AcDbText
 10
5.9362635081
 20
53.4225120485
 30
0.0
 40
10.0
  1
Grohe AG^J
  7
SEACAD_seiso_ttf
 11
5.9362635081
 21
63.4225120485
 31
0.0
100
AcDbText
 73
     3
  0
TEXT
  5
472
330
1F
100
AcDbEntity
  8
Default
  6
Continuous
 62
     7
100
AcDbText
 10
5.9362635081
 20
37.0588756849
 30
0.0
 40
10.0
  1
 
  7
SEACAD_seiso_ttf
 11
5.9362635081
 21
47.0588756849
 31
0.0
100
AcDbText
 73
     3
  0
TEXT
  5
473
330
1F
100
AcDbEntity
  8
Default
  6
Continuous
 62
     7
100
AcDbText
 10
5.9362635081
 20
20.6952393213
 30
0.0
 40
10.0
  1
ecn: 
  7
SEACAD_seiso_ttf
 11
5.9362635081
 21
30.6952393213
 31
0.0
100
AcDbText
 73
     3
  0
TEXT
  5
474
330
1F
100
AcDbEntity
  8
Default
  6
Continuous
 62
     7
100
AcDbText
 10
5.9362635081
 20
4.3316029576
 30
0.0
 40
10.0
  1
unit: mm
  7
SEACAD_seiso_ttf
 11
5.9362635081
 21
14.3316029576
 31
0.0
100
AcDbText
 73
     3
  0
LINE
  5
475
330
1F
100
AcDbEntity
  8
Default
  6
Continuous
 62
     7
100
AcDbLine
 10
0.0
 20
0.0
 30
0.0
 11
100.0
 21
0.0
 31
0.0
  0
LINE
  5
476
330
1F
100
AcDbEntity
  8
Default
  6
Continuous
 62
     7
100
AcDbLine
 10
0.0
 20
0.0
 30
0.0
 11
0.0
 21
100.0
 31
0.0
  0
TEXT
  5
477
330
1F
100
AcDbEntity
  8
Default
  6
Continuous
 62
     7
100
AcDbText
 10
24.3923665681
 20
-18.2375342018
 30
0.0
 40
10.0
  1
100 mm
  7
SEACAD_seiso_ttf
 11
24.3923665681
 21
-8.2375342018
 31
0.0
100
AcDbText
 73
     3
  0
TEXT
  5
478
330
1F
100
AcDbEntity
  8
Default
  6
Continuous
 62
     7
100
AcDbText
 10
-7.6150308803
 20
24.6231930421
 30
0.0
 40
10.0
  1
100 mm
 50
90.0
  7
SEACAD_seiso_ttf
 11
-17.6150308803
 21
24.6231930421
 31
0.0
100
AcDbText
 73
     3
  0
TEXT
  5
479
330
1F
100
AcDbEntity
  8
Default
  6
Continuous
 62
     7
100
AcDbText
 10
28.4878128572
 20
20.0907663715
 30
0.0
 40
10.0
  1
217934
  7
SEACAD_seiso_ttf
 11
28.4878128572
 21
30.0907663715
 31
0.0
100
AcDbText
 73
     3
  0
TEXT
  5
47A
330
1F
100
AcDbEntity
  8
Default
  6
Continuous
 62
     7
100
AcDbText
 10
5.9012241913
 20
36.7242780188
 30
0.0
 40
10.0
  1
32425000
  7
SEACAD_seiso_ttf
 11
5.9012241913
 21
46.7242780188
 31
0.0
100
AcDbText
 73
     3
  0
ENDSEC
  0
SECTION
  2
OBJECTS
  0
DICTIONARY
  5
C
330
0
100
AcDbDictionary
281
     1
  3
ACAD_GROUP
350
D
  3
ACAD_LAYOUT
350
1A
  3
ACAD_MLEADERSTYLE
350
47E
  3
ACAD_MLINESTYLE
350
17
  3
ACAD_PLOTSETTINGS
350
19
  3
ACAD_PLOTSTYLENAME
350
E
  3
ACAD_SCALELIST
350
3B
  3
ACAD_TABLESTYLE
350
47D
  3
ACAD_VISUALSTYLE
350
2A
  3
AcDbVariableDictionary
350
47B
  0
DICTIONARY
  5
D
102
{ACAD_REACTORS
330
C
102
}
330
C
100
AcDbDictionary
281
     1
  0
DICTIONARY
  5
1A
102
{ACAD_REACTORS
330
C
102
}
330
C
100
AcDbDictionary
281
     1
  3
Layout1
350
1E
  3
Model
350
22
  0
DICTIONARY
  5
47E
102
{ACAD_REACTORS
330
C
102
}
330
C
100
AcDbDictionary
281
     1
  0
DICTIONARY
  5
17
102
{ACAD_REACTORS
330
C
102
}
330
C
100
AcDbDictionary
281
     1
  3
Standard
350
18
  0
DICTIONARY
  5
19
102
{ACAD_REACTORS
330
C
102
}
330
C
100
AcDbDictionary
281
     1
  0
ACDBDICTIONARYWDFLT
  5
E
102
{ACAD_REACTORS
330
C
102
}
330
C
100
AcDbDictionary
281
     1
  3
Normal
350
F
100
AcDbDictionaryWithDefault
340
F
  0
DICTIONARY
  5
3B
102
{ACAD_REACTORS
330
C
102
}
330
C
100
AcDbDictionary
281
     1
  3
A0
350
3C
  3
A1
350
3D
  3
A2
350
3E
  3
A3
350
3F
  3
A4
350
40
  3
A5
350
41
  3
A6
350
42
  3
A7
350
43
  3
A8
350
44
  3
A9
350
45
  3
B0
350
46
  3
B1
350
47
  3
B2
350
48
  3
B3
350
49
  3
B4
350
4A
  3
B5
350
4B
  3
B6
350
4C
  3
B7
350
4D
  3
B8
350
4E
  3
B9
350
4F
  3
C0
350
50
  3
C1
350
51
  3
C2
350
52
  3
C3
350
53
  3
C4
350
54
  3
C5
350
55
  3
C6
350
56
  3
C7
350
57
  3
C8
350
58
  3
C9
350
59
  3
D0
350
5A
  3
D1
350
5B
  3
D2
350
5C
  0
DICTIONARY
  5
47D
102
{ACAD_REACTORS
330
C
102
}
330
C
100
AcDbDictionary
281
     1
  0
DICTIONARY
  5
2A
102
{ACAD_REACTORS
330
C
102
}
330
C
100
AcDbDictionary
281
     1
  3
2dWireframe
350
2F
  3
3D Hidden
350
31
  3
3dWireframe
350
30
  3
Basic
350
32
  3
Brighten
350
36
  3
ColorChange
350
3A
  3
Conceptual
350
34
  3
Dim
350
35
  3
Facepattern
350
39
  3
Flat
350
2B
  3
FlatWithEdges
350
2C
  3
Gouraud
350
2D
  3
GouraudWithEdges
350
2E
  3
Linepattern
350
38
  3
Realistic
350
33
  3
Thicken
350
37
  0
DICTIONARY
  5
47B
102
{ACAD_REACTORS
330
C
102
}
330
C
100
AcDbDictionary
281
     1
  3
CANNOSCALE
350
47C
  3
PSOLHEIGHT
350
480
  3
PSOLWIDTH
350
47F
  0
LAYOUT
  5
1E
102
{ACAD_REACTORS
330
1A
102
}
330
1A
100
AcDbPlotSettings
  1

  2
none_device
  4

  6

 40
0.0
 41
0.0
 42
0.0
 43
0.0
 44
0.0
 45
0.0
 46
0.0
 47
0.0
 48
0.0
 49
0.0
140
0.0
141
0.0
142
1.0
143
1.0
 70
   688
 72
     0
 73
     0
 74
     5
  7

 75
    16
147
1.0
148
0.0
149
0.0
100
AcDbLayout
  1
Layout1
 70
     1
 71
     1
 10
0.0
 20
0.0
 11
1682.0
 21
2378.0
 12
0.0
 22
0.0
 32
0.0
 14
0.0
 24
0.0
 34
0.0
 15
1682.0
 25
2378.0
 35
0.0
146
0.0
 13
0.0
 23
0.0
 33
0.0
 16
1.0
 26
0.0
 36
0.0
 17
0.0
 27
1.0
 37
0.0
 76
     0
330
1B
  0
LAYOUT
  5
22
102
{ACAD_REACTORS
330
1A
102
}
330
1A
100
AcDbPlotSettings
  1

  2
none_device
  4

  6

 40
0.0
 41
0.0
 42
0.0
 43
0.0
 44
0.0
 45
0.0
 46
0.0
 47
0.0
 48
0.0
 49
0.0
140
0.0
141
0.0
142
1.0
143
1.0
 70
  1712
 72
     0
 73
     0
 74
     0
  7

 75
     0
147
1.0
148
0.0
149
0.0
100
AcDbLayout
  1
Model
 70
     1
 71
     0
 10
0.0
 20
0.0
 11
1682.0
 21
2378.0
 12
0.0
 22
0.0
 32
0.0
 14
0.0
 24
0.0
 34
0.0
 15
1682.0
 25
2378.0
 35
0.0
146
0.0
 13
0.0
 23
0.0
 33
0.0
 16
1.0
 26
0.0
 36
0.0
 17
0.0
 27
1.0
 37
0.0
 76
     0
330
1F
331
29
  0
MLINESTYLE
  5
18
102
{ACAD_REACTORS
330
17
102
}
330
17
100
AcDbMlineStyle
  2
Standard
 70
     0
  3

 62
   256
 51
90.0
 52
90.0
 71
     2
 49
0.5
 62
   256
  6
BYLAYER
 49
-0.5
 62
   256
  6
BYLAYER
  0
ACDBPLACEHOLDER
  5
F
102
{ACAD_REACTORS
330
E
102
}
330
E
  0
SCALE
  5
3C
102
{ACAD_REACTORS
330
3B
102
}
330
3B
100
AcDbScale
 70
     0
300
1:1
140
1.0
141
1.0
290
     1
  0
SCALE
  5
3D
102
{ACAD_REACTORS
330
3B
102
}
330
3B
100
AcDbScale
 70
     0
300
1:2
140
1.0
141
2.0
290
     0
  0
SCALE
  5
3E
102
{ACAD_REACTORS
330
3B
102
}
330
3B
100
AcDbScale
 70
     0
300
1:4
140
1.0
141
4.0
290
     0
  0
SCALE
  5
3F
102
{ACAD_REACTORS
330
3B
102
}
330
3B
100
AcDbScale
 70
     0
300
1:5
140
1.0
141
5.0
290
     0
  0
SCALE
  5
40
102
{ACAD_REACTORS
330
3B
102
}
330
3B
100
AcDbScale
 70
     0
300
1:8
140
1.0
141
8.0
290
     0
  0
SCALE
  5
41
102
{ACAD_REACTORS
330
3B
102
}
330
3B
100
AcDbScale
 70
     0
300
1:10
140
1.0
141
10.0
290
     0
  0
SCALE
  5
42
102
{ACAD_REACTORS
330
3B
102
}
330
3B
100
AcDbScale
 70
     0
300
1:16
140
1.0
141
16.0
290
     0
  0
SCALE
  5
43
102
{ACAD_REACTORS
330
3B
102
}
330
3B
100
AcDbScale
 70
     0
300
1:20
140
1.0
141
20.0
290
     0
  0
SCALE
  5
44
102
{ACAD_REACTORS
330
3B
102
}
330
3B
100
AcDbScale
 70
     0
300
1:30
140
1.0
141
30.0
290
     0
  0
SCALE
  5
45
102
{ACAD_REACTORS
330
3B
102
}
330
3B
100
AcDbScale
 70
     0
300
1:40
140
1.0
141
40.0
290
     0
  0
SCALE
  5
46
102
{ACAD_REACTORS
330
3B
102
}
330
3B
100
AcDbScale
 70
     0
300
1:50
140
1.0
141
50.0
290
     0
  0
SCALE
  5
47
102
{ACAD_REACTORS
330
3B
102
}
330
3B
100
AcDbScale
 70
     0
300
1:100
140
1.0
141
100.0
290
     0
  0
SCALE
  5
48
102
{ACAD_REACTORS
330
3B
102
}
330
3B
100
AcDbScale
 70
     0
300
2:1
140
2.0
141
1.0
290
     0
  0
SCALE
  5
49
102
{ACAD_REACTORS
330
3B
102
}
330
3B
100
AcDbScale
 70
     0
300
4:1
140
4.0
141
1.0
290
     0
  0
SCALE
  5
4A
102
{ACAD_REACTORS
330
3B
102
}
330
3B
100
AcDbScale
 70
     0
300
8:1
140
8.0
141
1.0
290
     0
  0
SCALE
  5
4B
102
{ACAD_REACTORS
330
3B
102
}
330
3B
100
AcDbScale
 70
     0
300
10:1
140
10.0
141
1.0
290
     0
  0
SCALE
  5
4C
102
{ACAD_REACTORS
330
3B
102
}
330
3B
100
AcDbScale
 70
     0
300
100:1
140
100.0
141
1.0
290
     0
  0
SCALE
  5
4D
102
{ACAD_REACTORS
330
3B
102
}
330
3B
100
AcDbScale
 70
     0
300
1/128" = 1'-0"
140
0.0078125
141
12.0
290
     0
  0
SCALE
  5
4E
102
{ACAD_REACTORS
330
3B
102
}
330
3B
100
AcDbScale
 70
     0
300
1/64" = 1'-0"
140
0.015625
141
12.0
290
     0
  0
SCALE
  5
4F
102
{ACAD_REACTORS
330
3B
102
}
330
3B
100
AcDbScale
 70
     0
300
1/32" = 1'-0"
140
0.03125
141
12.0
290
     0
  0
SCALE
  5
50
102
{ACAD_REACTORS
330
3B
102
}
330
3B
100
AcDbScale
 70
     0
300
1/16" = 1'-0"
140
0.0625
141
12.0
290
     0
  0
SCALE
  5
51
102
{ACAD_REACTORS
330
3B
102
}
330
3B
100
AcDbScale
 70
     0
300
3/32" = 1'-0"
140
0.09375
141
12.0
290
     0
  0
SCALE
  5
52
102
{ACAD_REACTORS
330
3B
102
}
330
3B
100
AcDbScale
 70
     0
300
1/8" = 1'-0"
140
0.125
141
12.0
290
     0
  0
SCALE
  5
53
102
{ACAD_REACTORS
330
3B
102
}
330
3B
100
AcDbScale
 70
     0
300
3/16" = 1'-0"
140
0.1875
141
12.0
290
     0
  0
SCALE
  5
54
102
{ACAD_REACTORS
330
3B
102
}
330
3B
100
AcDbScale
 70
     0
300
1/4" = 1'-0"
140
0.25
141
12.0
290
     0
  0
SCALE
  5
55
102
{ACAD_REACTORS
330
3B
102
}
330
3B
100
AcDbScale
 70
     0
300
3/8" = 1'-0"
140
0.375
141
12.0
290
     0
  0
SCALE
  5
56
102
{ACAD_REACTORS
330
3B
102
}
330
3B
100
AcDbScale
 70
     0
300
1/2" = 1'-0"
140
0.5
141
12.0
290
     0
  0
SCALE
  5
57
102
{ACAD_REACTORS
330
3B
102
}
330
3B
100
AcDbScale
 70
     0
300
3/4" = 1'-0"
140
0.75
141
12.0
290
     0
  0
SCALE
  5
58
102
{ACAD_REACTORS
330
3B
102
}
330
3B
100
AcDbScale
 70
     0
300
1" = 1'-0"
140
1.0
141
12.0
290
     0
  0
SCALE
  5
59
102
{ACAD_REACTORS
330
3B
102
}
330
3B
100
AcDbScale
 70
     0
300
1-1/2" = 1'-0"
140
1.5
141
12.0
290
     0
  0
SCALE
  5
5A
102
{ACAD_REACTORS
330
3B
102
}
330
3B
100
AcDbScale
 70
     0
300
3" = 1'-0"
140
3.0
141
12.0
290
     0
  0
SCALE
  5
5B
102
{ACAD_REACTORS
330
3B
102
}
330
3B
100
AcDbScale
 70
     0
300
6" = 1'-0"
140
6.0
141
12.0
290
     0
  0
SCALE
  5
5C
102
{ACAD_REACTORS
330
3B
102
}
330
3B
100
AcDbScale
 70
     0
300
1'-0" = 1'-0"
140
12.0
141
12.0
290
     0
  0
VISUALSTYLE
  5
2F
102
{ACAD_REACTORS
330
2A
102
}
330
2A
100
AcDbVisualStyle
  2
2dWireframe
 70
     4
 71
     0
 72
     2
 73
     0
 90
        0
 40
-0.6
 41
-30.0
 62
     5
 63
     7
 74
     1
 91
        4
 64
     7
 65
   257
 75
     1
175
     1
 42
1.0
 92
        0
 66
   257
 43
1.0
 76
     1
 77
     6
 78
     2
 67
     7
 79
     5
170
     0
171
     0
290
     0
174
     0
 93
        1
 44
0.0
173
     0
291
     0
 45
0.0
1001
ACAD
1000
AcDbSavedByObjectVersion
1070
     0
  0
VISUALSTYLE
  5
31
102
{ACAD_REACTORS
330
2A
102
}
330
2A
100
AcDbVisualStyle
  2
3D Hidden
 70
     6
 71
     1
 72
     2
 73
     2
 90
        0
 40
-0.6
 41
-30.0
 62
     5
 63
     7
 74
     2
 91
        2
 64
     7
 65
   257
 75
     2
175
     1
 42
40.0
 92
        0
 66
   257
 43
1.0
 76
     1
 77
     6
 78
     2
 67
     7
 79
     3
170
     0
171
     0
290
     0
174
     0
 93
        1
 44
0.0
173
     0
291
     0
 45
0.0
1001
ACAD
1000
AcDbSavedByObjectVersion
1070
     0
  0
VISUALSTYLE
  5
30
102
{ACAD_REACTORS
330
2A
102
}
330
2A
100
AcDbVisualStyle
  2
3dWireframe
 70
     5
 71
     0
 72
     2
 73
     0
 90
        0
 40
-0.6
 41
-30.0
 62
     5
 63
     7
 74
     1
 91
        4
 64
     7
 65
   257
 75
     1
175
     1
 42
1.0
 92
        0
 66
   257
 43
1.0
 76
     1
 77
     6
 78
     2
 67
     7
 79
     5
170
     0
171
     0
290
     0
174
     0
 93
        1
 44
0.0
173
     0
291
     0
 45
0.0
1001
ACAD
1000
AcDbSavedByObjectVersion
1070
     0
  0
VISUALSTYLE
  5
32
102
{ACAD_REACTORS
330
2A
102
}
330
2A
100
AcDbVisualStyle
  2
Basic
 70
     7
 71
     1
 72
     0
 73
     1
 90
        0
 40
-0.6
 41
-30.0
 62
     5
 63
     7
 74
     0
 91
        4
 64
     7
 65
   257
 75
     1
175
     1
 42
1.0
 92
        8
 66
     7
 43
1.0
 76
     1
 77
     6
 78
     2
 67
     7
 79
     5
170
     0
171
     0
290
     0
174
     0
 93
        1
 44
0.0
173
     0
291
     1
 45
0.0
1001
ACAD
1000
AcDbSavedByObjectVersion
1070
     0
  0
VISUALSTYLE
  5
36
102
{ACAD_REACTORS
330
2A
102
}
330
2A
100
AcDbVisualStyle
  2
Brighten
 70
    12
 71
     2
 72
     2
 73
     0
 90
        0
 40
-0.6
 41
-30.0
 62
     5
 63
     7
 74
     1
 91
        4
 64
     7
 65
   257
 75
     1
175
     1
 42
1.0
 92
        8
 66
     7
 43
1.0
 76
     1
 77
     6
 78
     2
 67
     7
 79
     5
170
     0
171
     0
290
     0
174
     0
 93
        1
 44
50.0
173
     0
291
     1
 45
0.0
1001
ACAD
1000
AcDbSavedByObjectVersion
1070
     0
  0
VISUALSTYLE
  5
3A
102
{ACAD_REACTORS
330
2A
102
}
330
2A
100
AcDbVisualStyle
  2
ColorChange
 70
    16
 71
     2
 72
     2
 73
     3
 90
        0
 40
-0.6
 41
-30.0
 62
     5
 63
     8
 74
     1
 91
        4
 64
     7
 65
   257
 75
     1
175
     1
 42
1.0
 92
        8
 66
     8
 43
1.0
 76
     1
 77
     6
 78
     2
 67
     7
 79
     5
170
     0
171
     0
290
     0
174
     0
 93
        1
 44
0.0
173
     0
291
     1
 45
0.0
1001
ACAD
1000
AcDbSavedByObjectVersion
1070
     0
  0
VISUALSTYLE
  5
34
102
{ACAD_REACTORS
330
2A
102
}
330
2A
100
AcDbVisualStyle
  2
Conceptual
 70
     9
 71
     3
 72
     2
 73
     0
 90
        0
 40
-0.6
 41
-30.0
 62
     5
 63
     7
 74
     2
 91
        2
 64
     7
 65
   257
 75
     1
175
     1
 42
40.0
 92
        8
 66
     7
 43
1.0
 76
     1
 77
     6
 78
     2
 67
     7
 79
     3
170
     0
171
     0
290
     0
174
     0
 93
        1
 44
0.0
173
     0
291
     0
 45
0.0
1001
ACAD
1000
AcDbSavedByObjectVersion
1070
     0
  0
VISUALSTYLE
  5
35
102
{ACAD_REACTORS
330
2A
102
}
330
2A
100
AcDbVisualStyle
  2
Dim
 70
    11
 71
     2
 72
     2
 73
     0
 90
        0
 40
-0.6
 41
-30.0
 62
     5
 63
     7
 74
     1
 91
        4
 64
     7
 65
   257
 75
     1
175
     1
 42
1.0
 92
        8
 66
     7
 43
1.0
 76
     1
 77
     6
 78
     2
 67
     7
 79
     5
170
     0
171
     0
290
     0
174
     0
 93
        1
 44
-50.0
173
     0
291
     1
 45
0.0
1001
ACAD
1000
AcDbSavedByObjectVersion
1070
     0
  0
VISUALSTYLE
  5
39
102
{ACAD_REACTORS
330
2A
102
}
330
2A
100
AcDbVisualStyle
  2
Facepattern
 70
    15
 71
     2
 72
     2
 73
     0
 90
        0
 40
-0.6
 41
-30.0
 62
     5
 63
     7
 74
     1
 91
        4
 64
     7
 65
   257
 75
     1
175
     1
 42
1.0
 92
        8
 66
     7
 43
1.0
 76
     1
 77
     6
 78
     2
 67
     7
 79
     5
170
     0
171
     0
290
     0
174
     0
 93
        1
 44
0.0
173
     0
291
     1
 45
0.0
1001
ACAD
1000
AcDbSavedByObjectVersion
1070
     0
  0
VISUALSTYLE
  5
2B
102
{ACAD_REACTORS
330
2A
102
}
330
2A
100
AcDbVisualStyle
  2
Flat
 70
     0
 71
     2
 72
     1
 73
     1
 90
        2
 40
-0.6
 41
30.0
 62
     5
 63
     7
 74
     0
 91
        4
 64
     7
 65
   257
 75
     1
175
     1
 42
1.0
 92
        8
 66
     7
 43
1.0
 76
     1
 77
     6
 78
     2
 67
     7
 79
     5
170
     0
171
     0
290
     0
174
     0
 93
       13
 44
0.0
173
     0
291
     1
 45
0.0
1001
ACAD
1000
AcDbSavedByObjectVersion
1070
     0
  0
VISUALSTYLE
  5
2C
102
{ACAD_REACTORS
330
2A
102
}
330
2A
100
AcDbVisualStyle
  2
FlatWithEdges
 70
     1
 71
     2
 72
     1
 73
     1
 90
        2
 40
-0.6
 41
30.0
 62
     5
 63
     7
 74
     1
 91
        4
 64
     7
 65
   257
 75
     1
175
     1
 42
1.0
 92
        0
 66
   257
 43
1.0
 76
     1
 77
     6
 78
     2
 67
     7
 79
     5
170
     0
171
     0
290
     0
174
     0
 93
       13
 44
0.0
173
     0
291
     1
 45
0.0
1001
ACAD
1000
AcDbSavedByObjectVersion
1070
     0
  0
VISUALSTYLE
  5
2D
102
{ACAD_REACTORS
330
2A
102
}
330
2A
100
AcDbVisualStyle
  2
Gouraud
 70
     2
 71
     2
 72
     2
 73
     1
 90
        2
 40
-0.6
 41
30.0
 62
     5
 63
     7
 74
     0
 91
        4
 64
     7
 65
   257
 75
     1
175
     1
 42
1.0
 92
        0
 66
     7
 43
1.0
 76
     1
 77
     6
 78
     2
 67
     7
 79
     5
170
     0
171
     0
290
     0
174
     0
 93
       13
 44
0.0
173
     0
291
     1
 45
0.0
1001
ACAD
1000
AcDbSavedByObjectVersion
1070
     0
  0
VISUALSTYLE
  5
2E
102
{ACAD_REACTORS
330
2A
102
}
330
2A
100
AcDbVisualStyle
  2
GouraudWithEdges
 70
     3
 71
     2
 72
     2
 73
     1
 90
        2
 40
-0.6
 41
30.0
 62
     5
 63
     7
 74
     1
 91
        4
 64
     7
 65
   257
 75
     1
175
     1
 42
1.0
 92
        0
 66
   257
 43
1.0
 76
     1
 77
     6
 78
     2
 67
     7
 79
     5
170
     0
171
     0
290
     0
174
     0
 93
       13
 44
0.0
173
     0
291
     1
 45
0.0
1001
ACAD
1000
AcDbSavedByObjectVersion
1070
     0
  0
VISUALSTYLE
  5
38
102
{ACAD_REACTORS
330
2A
102
}
330
2A
100
AcDbVisualStyle
  2
Linepattern
 70
    14
 71
     2
 72
     2
 73
     0
 90
        0
 40
-0.6
 41
-30.0
 62
     5
 63
     7
 74
     1
 91
        4
 64
     7
 65
   257
 75
     7
175
     7
 42
1.0
 92
        8
 66
     7
 43
1.0
 76
     1
 77
     6
 78
     2
 67
     7
 79
     5
170
     0
171
     0
290
     0
174
     0
 93
        1
 44
0.0
173
     0
291
     1
 45
0.0
1001
ACAD
1000
AcDbSavedByObjectVersion
1070
     0
  0
VISUALSTYLE
  5
33
102
{ACAD_REACTORS
330
2A
102
}
330
2A
100
AcDbVisualStyle
  2
Realistic
 70
     8
 71
     2
 72
     2
 73
     0
 90
        0
 40
-0.6
 41
-30.0
 62
     5
 63
     7
 74
     1
 91
        0
 64
     7
 65
   257
 75
     1
175
     1
 42
1.0
 92
        8
 66
     8
 43
1.0
 76
     1
 77
     6
 78
     2
 67
     7
 79
     5
170
     0
171
     0
290
     0
174
     0
 93
       13
 44
0.0
173
     0
291
     0
 45
0.0
1001
ACAD
1000
AcDbSavedByObjectVersion
1070
     0
  0
VISUALSTYLE
  5
37
102
{ACAD_REACTORS
330
2A
102
}
330
2A
100
AcDbVisualStyle
  2
Thicken
 70
    13
 71
     2
 72
     2
 73
     0
 90
        0
 40
-0.6
 41
-30.0
 62
     5
 63
     7
 74
     1
 91
        4
 64
     7
 65
   257
 75
     1
175
     1
 42
1.0
 92
       12
 66
     7
 43
1.0
 76
     1
 77
     6
 78
     2
 67
     7
 79
     5
170
     0
171
     0
290
     0
174
     0
 93
        1
 44
0.0
173
     0
291
     1
 45
0.0
1001
ACAD
1000
AcDbSavedByObjectVersion
1070
     0
  0
DICTIONARYVAR
  5
47C
102
{ACAD_REACTORS
330
47B
102
}
330
47B
100
DictionaryVariables
280
     0
  1
1:1
  0
DICTIONARYVAR
  5
480
102
{ACAD_REACTORS
330
47B
102
}
330
47B
100
DictionaryVariables
280
     0
  1
80.000000
  0
DICTIONARYVAR
  5
47F
102
{ACAD_REACTORS
330
47B
102
}
330
47B
100
DictionaryVariables
280
     0
  1
5.000000
  0
ENDSEC
  0
EOF
