  0
SECTION
  2
HEADER
  9
$ACADVER
  1
AC1027
  9
$ACADMAINTVER
 70
   105
  9
$DWGCODEPAGE
  3
ANSI_1252
  9
$LASTSAVEDBY
  1
mariapalcon
  9
$REQUIREDVERSIONS
160
                 0
  9
$INSBASE
 10
0.0
 20
0.0
 30
0.0
  9
$EXTMIN
 10
-11.22386668880532
 20
-7.237500000000331
 30
0.0
  9
$EXTMAX
 10
7.237499999999736
 20
5.987499999999668
 30
0.0
  9
$LIMMIN
 10
0.0
 20
0.0
  9
$LIMMAX
 10
12.0
 20
9.0
  9
$ORTHOMODE
 70
     0
  9
$REGENMODE
 70
     1
  9
$FILLMODE
 70
     1
  9
$QTEXTMODE
 70
     0
  9
$MIRRTEXT
 70
     0
  9
$LTSCALE
 40
1.0
  9
$ATTMODE
 70
     1
  9
$TEXTSIZE
 40
0.2
  9
$TRACEWID
 40
0.05
  9
$TEXTSTYLE
  7
Standard
  9
$CLAYER
  8
0
  9
$CELTYPE
  6
ByLayer
  9
$CECOLOR
 62
   256
  9
$CELTSCALE
 40
1.0
  9
$DISPSILH
 70
     0
  9
$DIMSCALE
 40
1.0
  9
$DIMASZ
 40
0.18
  9
$DIMEXO
 40
0.0625
  9
$DIMDLI
 40
0.38
  9
$DIMRND
 40
0.0
  9
$DIMDLE
 40
0.0
  9
$DIMEXE
 40
0.18
  9
$DIMTP
 40
0.0
  9
$DIMTM
 40
0.0
  9
$DIMTXT
 40
0.18
  9
$DIMCEN
 40
0.09
  9
$DIMTSZ
 40
0.0
  9
$DIMTOL
 70
     0
  9
$DIMLIM
 70
     0
  9
$DIMTIH
 70
     1
  9
$DIMTOH
 70
     1
  9
$DIMSE1
 70
     0
  9
$DIMSE2
 70
     0
  9
$DIMTAD
 70
     0
  9
$DIMZIN
 70
     0
  9
$DIMBLK
  1

  9
$DIMASO
 70
     1
  9
$DIMSHO
 70
     1
  9
$DIMPOST
  1

  9
$DIMAPOST
  1

  9
$DIMALT
 70
     0
  9
$DIMALTD
 70
     2
  9
$DIMALTF
 40
25.4
  9
$DIMLFAC
 40
1.0
  9
$DIMTOFL
 70
     0
  9
$DIMTVP
 40
0.0
  9
$DIMTIX
 70
     0
  9
$DIMSOXD
 70
     0
  9
$DIMSAH
 70
     0
  9
$DIMBLK1
  1

  9
$DIMBLK2
  1

  9
$DIMSTYLE
  2
Standard
  9
$DIMCLRD
 70
     0
  9
$DIMCLRE
 70
     0
  9
$DIMCLRT
 70
     0
  9
$DIMTFAC
 40
1.0
  9
$DIMGAP
 40
0.09
  9
$DIMJUST
 70
     0
  9
$DIMSD1
 70
     0
  9
$DIMSD2
 70
     0
  9
$DIMTOLJ
 70
     1
  9
$DIMTZIN
 70
     0
  9
$DIMALTZ
 70
     0
  9
$DIMALTTZ
 70
     0
  9
$DIMUPT
 70
     0
  9
$DIMDEC
 70
     4
  9
$DIMTDEC
 70
     4
  9
$DIMALTU
 70
     4
  9
$DIMALTTD
 70
     2
  9
$DIMTXSTY
  7
Standard
  9
$DIMAUNIT
 70
     0
  9
$DIMADEC
 70
     0
  9
$DIMALTRND
 40
0.0
  9
$DIMAZIN
 70
     0
  9
$DIMDSEP
 70
    46
  9
$DIMATFIT
 70
     3
  9
$DIMFRAC
 70
     0
  9
$DIMLDRBLK
  1

  9
$DIMLUNIT
 70
     4
  9
$DIMLWD
 70
    -2
  9
$DIMLWE
 70
    -2
  9
$DIMTMOVE
 70
     0
  9
$DIMFXL
 40
1.0
  9
$DIMFXLON
 70
     0
  9
$DIMJOGANG
 40
0.7853981633974483
  9
$DIMTFILL
 70
     0
  9
$DIMTFILLCLR
 70
     0
  9
$DIMARCSYM
 70
     0
  9
$DIMLTYPE
  6

  9
$DIMLTEX1
  6

  9
$DIMLTEX2
  6

  9
$DIMTXTDIRECTION
 70
     0
  9
$LUNITS
 70
     4
  9
$LUPREC
 70
     4
  9
$SKETCHINC
 40
0.1
  9
$FILLETRAD
 40
0.0
  9
$AUNITS
 70
     0
  9
$AUPREC
 70
     0
  9
$MENU
  1
.
  9
$ELEVATION
 40
0.0
  9
$PELEVATION
 40
0.0
  9
$THICKNESS
 40
0.0
  9
$LIMCHECK
 70
     0
  9
$CHAMFERA
 40
0.0
  9
$CHAMFERB
 40
0.0
  9
$CHAMFERC
 40
0.0
  9
$CHAMFERD
 40
0.0
  9
$SKPOLY
 70
     0
  9
$TDCREATE
 40
2458932.450011933
  9
$TDUCREATE
 40
2458932.616678600
  9
$TDUPDATE
 40
2458932.463390440
  9
$TDUUPDATE
 40
2458932.630057106
  9
$TDINDWG
 40
0.0128338889
  9
$TDUSRTIMER
 40
0.0128338889
  9
$USRTIMER
 70
     1
  9
$ANGBASE
 50
0.0
  9
$ANGDIR
 70
     0
  9
$PDMODE
 70
     0
  9
$PDSIZE
 40
0.0
  9
$PLINEWID
 40
0.0
  9
$SPLFRAME
 70
     0
  9
$SPLINETYPE
 70
     6
  9
$SPLINESEGS
 70
     8
  9
$HANDSEED
  5
35A
  9
$SURFTAB1
 70
     6
  9
$SURFTAB2
 70
     6
  9
$SURFTYPE
 70
     6
  9
$SURFU
 70
     6
  9
$SURFV
 70
     6
  9
$UCSBASE
  2

  9
$UCSNAME
  2

  9
$UCSORG
 10
0.0
 20
0.0
 30
0.0
  9
$UCSXDIR
 10
1.0
 20
0.0
 30
0.0
  9
$UCSYDIR
 10
0.0
 20
1.0
 30
0.0
  9
$UCSORTHOREF
  2

  9
$UCSORTHOVIEW
 70
     0
  9
$UCSORGTOP
 10
0.0
 20
0.0
 30
0.0
  9
$UCSORGBOTTOM
 10
0.0
 20
0.0
 30
0.0
  9
$UCSORGLEFT
 10
0.0
 20
0.0
 30
0.0
  9
$UCSORGRIGHT
 10
0.0
 20
0.0
 30
0.0
  9
$UCSORGFRONT
 10
0.0
 20
0.0
 30
0.0
  9
$UCSORGBACK
 10
0.0
 20
0.0
 30
0.0
  9
$PUCSBASE
  2

  9
$PUCSNAME
  2

  9
$PUCSORG
 10
0.0
 20
0.0
 30
0.0
  9
$PUCSXDIR
 10
1.0
 20
0.0
 30
0.0
  9
$PUCSYDIR
 10
0.0
 20
1.0
 30
0.0
  9
$PUCSORTHOREF
  2

  9
$PUCSORTHOVIEW
 70
     0
  9
$PUCSORGTOP
 10
0.0
 20
0.0
 30
0.0
  9
$PUCSORGBOTTOM
 10
0.0
 20
0.0
 30
0.0
  9
$PUCSORGLEFT
 10
0.0
 20
0.0
 30
0.0
  9
$PUCSORGRIGHT
 10
0.0
 20
0.0
 30
0.0
  9
$PUCSORGFRONT
 10
0.0
 20
0.0
 30
0.0
  9
$PUCSORGBACK
 10
0.0
 20
0.0
 30
0.0
  9
$USERI1
 70
     0
  9
$USERI2
 70
     0
  9
$USERI3
 70
     0
  9
$USERI4
 70
     0
  9
$USERI5
 70
     0
  9
$USERR1
 40
0.0
  9
$USERR2
 40
0.0
  9
$USERR3
 40
0.0
  9
$USERR4
 40
0.0
  9
$USERR5
 40
0.0
  9
$WORLDVIEW
 70
     1
  9
$SHADEDGE
 70
     3
  9
$SHADEDIF
 70
    70
  9
$TILEMODE
 70
     1
  9
$MAXACTVP
 70
    64
  9
$PINSBASE
 10
0.0
 20
0.0
 30
0.0
  9
$PLIMCHECK
 70
     0
  9
$PEXTMIN
 10
1.000000000000000E+20
 20
1.000000000000000E+20
 30
1.000000000000000E+20
  9
$PEXTMAX
 10
-1.000000000000000E+20
 20
-1.000000000000000E+20
 30
-1.000000000000000E+20
  9
$PLIMMIN
 10
0.0
 20
0.0
  9
$PLIMMAX
 10
12.0
 20
9.0
  9
$UNITMODE
 70
     0
  9
$VISRETAIN
 70
     1
  9
$PLINEGEN
 70
     0
  9
$PSLTSCALE
 70
     1
  9
$TREEDEPTH
 70
  3020
  9
$CMLSTYLE
  2
Standard
  9
$CMLJUST
 70
     0
  9
$CMLSCALE
 40
1.0
  9
$PROXYGRAPHICS
 70
     1
  9
$MEASUREMENT
 70
     0
  9
$CELWEIGHT
370
    -1
  9
$ENDCAPS
280
     0
  9
$JOINSTYLE
280
     0
  9
$LWDISPLAY
290
     0
  9
$INSUNITS
 70
     1
  9
$HYPERLINKBASE
  1

  9
$STYLESHEET
  1

  9
$XEDIT
290
     1
  9
$CEPSNTYPE
380
     0
  9
$PSTYLEMODE
290
     1
  9
$FINGERPRINTGUID
  2
{667929CF-CE37-4E10-82EB-85FC7E10DA7E}
  9
$VERSIONGUID
  2
{96685343-650A-4F87-BD27-0E190591C556}
  9
$EXTNAMES
290
     1
  9
$PSVPSCALE
 40
0.0
  9
$OLESTARTUP
290
     0
  9
$SORTENTS
280
   127
  9
$INDEXCTL
280
     0
  9
$HIDETEXT
280
     1
  9
$XCLIPFRAME
280
     2
  9
$HALOGAP
280
     0
  9
$OBSCOLOR
 70
   257
  9
$OBSLTYPE
280
     0
  9
$INTERSECTIONDISPLAY
280
     0
  9
$INTERSECTIONCOLOR
 70
   257
  9
$DIMASSOC
280
     2
  9
$PROJECTNAME
  1

  9
$CAMERADISPLAY
290
     0
  9
$LENSLENGTH
 40
50.0
  9
$CAMERAHEIGHT
 40
0.0
  9
$STEPSPERSEC
 40
2.0
  9
$STEPSIZE
 40
6.0
  9
$3DDWFPREC
 40
2.0
  9
$PSOLWIDTH
 40
0.25
  9
$PSOLHEIGHT
 40
4.0
  9
$LOFTANG1
 40
1.570796326794896
  9
$LOFTANG2
 40
1.570796326794896
  9
$LOFTMAG1
 40
0.0
  9
$LOFTMAG2
 40
0.0
  9
$LOFTPARAM
 70
     7
  9
$LOFTNORMALS
280
     1
  9
$LATITUDE
 40
0.0
  9
$LONGITUDE
 40
0.0
  9
$NORTHDIRECTION
 40
0.0
  9
$TIMEZONE
 70
     0
  9
$LIGHTGLYPHDISPLAY
280
     1
  9
$TILEMODELIGHTSYNCH
280
     1
  9
$CMATERIAL
347
11
  9
$SOLIDHIST
280
     0
  9
$SHOWHIST
280
     1
  9
$DWFFRAME
280
     2
  9
$DGNFRAME
280
     0
  9
$REALWORLDSCALE
290
     1
  9
$INTERFERECOLOR
 62
     1
  9
$INTERFEREOBJVS
345
33
  9
$INTERFEREVPVS
346
30
  9
$CSHADOW
280
     0
  9
$SHADOWPLANELOCATION
 40
0.0
  0
ENDSEC
  0
SECTION
  2
CLASSES
  0
CLASS
  1
ACDBDICTIONARYWDFLT
  2
AcDbDictionaryWithDefault
  3
ObjectDBX Classes
 90
        0
 91
        1
280
     0
281
     0
  0
CLASS
  1
MATERIAL
  2
AcDbMaterial
  3
ObjectDBX Classes
 90
     1153
 91
        3
280
     0
281
     0
  0
CLASS
  1
VISUALSTYLE
  2
AcDbVisualStyle
  3
ObjectDBX Classes
 90
     4095
 91
       24
280
     0
281
     0
  0
CLASS
  1
SCALE
  2
AcDbScale
  3
ObjectDBX Classes
 90
     1153
 91
       17
280
     0
281
     0
  0
CLASS
  1
TABLESTYLE
  2
AcDbTableStyle
  3
ObjectDBX Classes
 90
     4095
 91
        1
280
     0
281
     0
  0
CLASS
  1
MLEADERSTYLE
  2
AcDbMLeaderStyle
  3
ACDB_MLEADERSTYLE_CLASS
 90
     4095
 91
        1
280
     0
281
     0
  0
CLASS
  1
ACDBSECTIONVIEWSTYLE
  2
AcDbSectionViewStyle
  3
ObjectDBX Classes
 90
     1025
 91
        1
280
     0
281
     0
  0
CLASS
  1
ACDBDETAILVIEWSTYLE
  2
AcDbDetailViewStyle
  3
ObjectDBX Classes
 90
     1025
 91
        1
280
     0
281
     0
  0
CLASS
  1
RASTERVARIABLES
  2
AcDbRasterVariables
  3
ISM
 90
        0
 91
        1
280
     0
281
     0
  0
CLASS
  1
DICTIONARYVAR
  2
AcDbDictionaryVar
  3
ObjectDBX Classes
 90
        0
 91
        5
280
     0
281
     0
  0
CLASS
  1
SORTENTSTABLE
  2
AcDbSortentsTable
  3
ObjectDBX Classes
 90
        0
 91
        3
280
     0
281
     0
  0
CLASS
  1
CELLSTYLEMAP
  2
AcDbCellStyleMap
  3
ObjectDBX Classes
 90
     1152
 91
        1
280
     0
281
     0
  0
ENDSEC
  0
SECTION
  2
TABLES
  0
TABLE
  2
VPORT
  5
8
330
0
100
AcDbSymbolTable
 70
     1
  0
VPORT
  5
57
330
8
100
AcDbSymbolTableRecord
100
AcDbViewportTableRecord
  2
*Active
 70
     0
 10
0.0
 20
0.0
 11
1.0
 21
1.0
 12
-1.203607664423813
 22
1.800545981322201
 13
0.0
 23
0.0
 14
1.0
 24
1.0
 15
0.0
 25
0.0
 16
0.0
 26
0.0
 36
1.0
 17
0.0
 27
0.0
 37
0.0
 40
15.38100574921699
 41
2.292712066905615
 42
50.0
 43
0.0
 44
0.0
 50
0.0
 51
0.0
 71
     0
 72
  1000
 73
     1
 74
     1
 75
     0
 76
     0
 77
     0
 78
     0
281
     0
 65
     1
110
0.0
120
0.0
130
0.0
111
1.0
121
0.0
131
0.0
112
0.0
122
1.0
132
0.0
 79
     0
146
0.0
348
2F
 60
     3
 61
     5
292
     1
282
     1
141
0.0
142
0.0
 63
   250
421
  3355443
1001
ACAD_NAV_VCDISPLAY
1070
     3
  0
ENDTAB
  0
TABLE
  2
LTYPE
  5
5
330
0
100
AcDbSymbolTable
 70
     2
  0
LTYPE
  5
5B
330
5
100
AcDbSymbolTableRecord
100
AcDbLinetypeTableRecord
  2
ByBlock
 70
     0
  3

 72
    65
 73
     0
 40
0.0
  0
LTYPE
  5
5C
330
5
100
AcDbSymbolTableRecord
100
AcDbLinetypeTableRecord
  2
ByLayer
 70
     0
  3

 72
    65
 73
     0
 40
0.0
  0
LTYPE
  5
5D
330
5
100
AcDbSymbolTableRecord
100
AcDbLinetypeTableRecord
  2
Continuous
 70
     0
  3
Solid line
 72
    65
 73
     0
 40
0.0
  0
ENDTAB
  0
TABLE
  2
LAYER
  5
2
102
{ACAD_XDICTIONARY
360
34C
102
}
330
0
100
AcDbSymbolTable
 70
     4
  0
LAYER
  5
54
330
2
100
AcDbSymbolTableRecord
100
AcDbLayerTableRecord
  2
0
 70
     0
 62
     7
  6
Continuous
370
    -3
390
F
347
21
348
0
  0
LAYER
  5
266
330
2
100
AcDbSymbolTableRecord
100
AcDbLayerTableRecord
  2
Pressure_Balance_Rough_Valve-GROHE-35111000
 70
     2
 62
     7
  6
Continuous
370
    -3
390
F
347
21
348
0
1001
AcAecLayerStandard
1000

1000

1001
AcCmTransparency
1071
        0
  0
ENDTAB
  0
TABLE
  2
STYLE
  5
3
330
0
100
AcDbSymbolTable
 70
     3
  0
STYLE
  5
55
330
3
100
AcDbSymbolTableRecord
100
AcDbTextStyleTableRecord
  2
Standard
 70
     0
 40
0.0
 41
1.0
 50
0.0
 71
     0
 42
0.2
  3
txt
  4

  0
ENDTAB
  0
TABLE
  2
VIEW
  5
6
330
0
100
AcDbSymbolTable
 70
     1
  0
ENDTAB
  0
TABLE
  2
UCS
  5
7
330
0
100
AcDbSymbolTable
 70
     0
  0
ENDTAB
  0
TABLE
  2
APPID
  5
9
330
0
100
AcDbSymbolTable
 70
     7
  0
APPID
  5
56
330
9
100
AcDbSymbolTableRecord
100
AcDbRegAppTableRecord
  2
ACAD
 70
     0
  0
APPID
  5
5E
330
9
100
AcDbSymbolTableRecord
100
AcDbRegAppTableRecord
  2
AcadAnnotative
 70
     0
  0
APPID
  5
78
330
9
100
AcDbSymbolTableRecord
100
AcDbRegAppTableRecord
  2
REVIT
 70
     0
  0
APPID
  5
189
330
9
100
AcDbSymbolTableRecord
100
AcDbRegAppTableRecord
  2
ACAD_NAV_VCDISPLAY
 70
     0
  0
APPID
  5
1EC
330
9
100
AcDbSymbolTableRecord
100
AcDbRegAppTableRecord
  2
ACAD_EXEMPT_FROM_CAD_STANDARDS
 70
     0
  0
APPID
  5
267
330
9
100
AcDbSymbolTableRecord
100
AcDbRegAppTableRecord
  2
AcAecLayerStandard
 70
     0
  0
APPID
  5
268
330
9
100
AcDbSymbolTableRecord
100
AcDbRegAppTableRecord
  2
AcCmTransparency
 70
     0
  0
ENDTAB
  0
TABLE
  2
DIMSTYLE
  5
A
330
0
100
AcDbSymbolTable
 70
     3
100
AcDbDimStyleTable
 71
     1
340
58
  0
DIMSTYLE
105
58
330
A
100
AcDbSymbolTableRecord
100
AcDbDimStyleTableRecord
  2
Standard
 70
     0
340
55
  0
ENDTAB
  0
TABLE
  2
BLOCK_RECORD
  5
1
330
0
100
AcDbSymbolTable
 70
     8
  0
BLOCK_RECORD
  5
70
102
{ACAD_XDICTIONARY
360
174
102
}
330
1
100
AcDbSymbolTableRecord
100
AcDbBlockTableRecord
  2
*Model_Space
340
73
 70
     0
280
     1
281
     0
  0
BLOCK_RECORD
  5
6C
330
1
100
AcDbSymbolTableRecord
100
AcDbBlockTableRecord
  2
*Paper_Space
340
6F
 70
     0
280
     1
281
     0
  0
BLOCK_RECORD
  5
74
330
1
100
AcDbSymbolTableRecord
100
AcDbBlockTableRecord
  2
*Paper_Space0
340
77
 70
     0
280
     1
281
     0
  0
BLOCK_RECORD
  5
27B
330
1
100
AcDbSymbolTableRecord
100
AcDbBlockTableRecord
  2
Pressure_Balance_Rough_Valve-GROHE-35111000-Top
340
0
310
28000000200000002000000001002000000000000010000001000000010000000000000000000000302821FF302821FF302821FF302821FF302821FF302821FF302821FF302821FF302821FF302821FF302821FF302821FF302821FF302821FF302821FF302821FF302821FF302821FF302821FF302821FF302821FF302821
310
FF302821FF302821FF302821FF302821FF302821FF302821FF302821FF302821FF302821FF302821FF302821FF302821FF302821FF302821FF302821FF302821FF302821FF302821FF302821FF302821FF302821FF302821FF302821FF302821FF302821FF302821FF302821FF302821FF302821FF302821FF302821FF3028
310
21FF302821FF302821FF302821FF302821FF302821FF302821FF302821FF302821FF302821FF302821FF302821FF302821FF302821FF302821FF302821FF302821FF302821FF302821FF302821FF302821FF302821FF302821FF302821FF302821FF302821FF302821FF302821FF302821FF302821FF302821FF302821FF30
310
2821FF302821FF302821FF302821FF302821FF302821FF302821FF302821FF302821FF302821FF302821FF302821FF302821FF302821FF302821FF302821FF302821FF302821FF302821FF302821FF302821FF302821FF302821FF302821FF302821FF302821FF302821FF302821FF302821FF302821FF302821FF302821FF
310
302821FF302821FF302821FF302821FF302821FF302821FF302821FF302821FF302821FF302821FF302821FF302821FF302821FF302821FF302821FF302821FF302821FF302821FF302821FF302821FF302821FF302821FF302821FF302821FF302821FF302821FF302821FF302821FF302821FF302821FF302821FF302821
310
FF302821FF302821FF302821FF302821FF302821FF302821FF302821FF302821FF302821FF302821FF302821FF302821FF302821FF302821FF302821FF302821FF302821FF302821FF302821FF302821FF302821FF302821FF302821FF302821FF302821FF302821FF302821FF302821FF302821FF302821FF302821FF3028
310
21FF302821FF302821FF302821FF302821FF302821FF302821FF302821FF302821FF302821FF302821FF302821FF302821FF302821FF302821FF302821FF302821FF302821FF302821FF302821FF302821FF302821FF302821FF302821FF302821FF302821FF302821FF302821FF302821FF302821FF302821FF302821FF30
310
2821FF302821FF302821FF302821FF302821FF302821FF302821FF302821FF302821FF302821FF302821FF302821FF302821FF302821FF302821FF302821FF302821FF302821FF302821FF302821FF302821FF302821FF302821FF302821FF302821FF302821FF302821FF302821FF302821FF302821FF302821FF302821FF
310
302821FF302821FF302821FF302821FF302821FF302821FF302821FF302821FF302821FF302821FF302821FF302821FF302821FF302821FF302821FF302821FF302821FF302821FF302821FF302821FF302821FF302821FF302821FF302821FF302821FF302821FF302821FF302821FF302821FF302821FF302821FF302821
310
FF302821FF302821FF302821FF302821FF302821FF302821FF302821FF302821FF302821FF302821FF302821FF302821FF302821FF302821FF302821FF302821FF302821FF302821FF302821FF302821FF302821FF302821FFFFFFFFFFFFFFFFFFFFFFFFFFFFFFFFFFFFFFFFFFFFFFFFFFFFFFFFFFFFFFFFFFFFFFFFFFFFFF
310
FFFFFFFFFFFFFFFFFFFF302821FF302821FF302821FF302821FF302821FF302821FF302821FF302821FF302821FF302821FF302821FF302821FF302821FF302821FF302821FF302821FF302821FF302821FF302821FF302821FFFFFFFFFF302821FF302821FF302821FF302821FF302821FF302821FF302821FF302821FF30
310
2821FF302821FFFFFFFFFF302821FF302821FF302821FF302821FF302821FF302821FF302821FF302821FF302821FF302821FF302821FF302821FF302821FF302821FF302821FF302821FF302821FF302821FF302821FF302821FFFFFFFFFF302821FF302821FF302821FF302821FF302821FF302821FF302821FF302821FF
310
302821FF302821FFFFFFFFFF302821FF302821FF302821FF302821FF302821FF302821FF302821FF302821FF302821FF302821FF302821FF302821FF302821FF302821FF302821FFFFFFFFFFFFFFFFFFFFFFFFFFFFFFFFFFFFFFFFFFFFFFFFFF302821FF302821FF302821FF302821FFFFFFFFFFFFFFFFFF302821FF302821
310
FF302821FF302821FFFFFFFFFFFFFFFFFFFFFFFFFFFFFFFFFFFFFFFFFFFFFFFFFF302821FF302821FF302821FF302821FF302821FF302821FFFFFFFFFFFFFFFFFFFFFFFFFFFFFFFFFFFFFFFFFF302821FF302821FF302821FF302821FF302821FF302821FF302821FF302821FFFFFFFFFFFFFFFFFFFFFFFFFFFFFFFFFF3028
310
21FF302821FF302821FF302821FF302821FF302821FF302821FF302821FFFFFFFFFFFFFFFFFFFFFFFFFFFFFFFFFFFFFFFFFF302821FF302821FFFFFFFFFF302821FF302821FF302821FFFFFFFFFF302821FF302821FF302821FF302821FF302821FF302821FF302821FFFFFFFFFFFFFFFFFFFFFFFFFF302821FFFFFFFFFFFF
310
FFFFFF302821FF302821FF302821FF302821FF302821FF302821FF302821FFFFFFFFFF302821FF302821FF302821FFFFFFFFFF302821FF302821FFFFFFFFFF302821FF302821FF302821FFFFFFFFFF302821FF302821FF302821FF302821FF302821FF302821FF302821FFFFFFFFFFFFFFFFFF302821FF302821FFFFFFFFFF
310
FFFFFFFF302821FF302821FF302821FF302821FF302821FF302821FF302821FFFFFFFFFF302821FF302821FF302821FFFFFFFFFF302821FF302821FFFFFFFFFFFFFFFFFFFFFFFFFFFFFFFFFFFFFFFFFF302821FF302821FF302821FF302821FF302821FF302821FF302821FF302821FFFFFFFFFFFFFFFFFFFFFFFFFFFFFFFF
310
FF302821FF302821FF302821FF302821FF302821FF302821FF302821FF302821FFFFFFFFFFFFFFFFFFFFFFFFFFFFFFFFFFFFFFFFFF302821FF302821FF302821FF302821FF302821FF302821FFFFFFFFFF302821FF302821FF302821FF302821FF302821FF302821FF302821FF302821FF302821FFFFFFFFFFFFFFFFFF3028
310
21FF302821FF302821FF302821FF302821FF302821FF302821FF302821FF302821FFFFFFFFFF302821FF302821FF302821FF302821FF302821FF302821FF302821FF302821FF302821FF302821FFFFFFFFFFFFFFFFFFFFFFFFFFFFFFFFFFFFFFFFFFFFFFFFFFFFFFFFFFFFFFFFFFFFFFFFFFFFFFFFFFFFFFFFFFFFFFFFFFFF
310
FFFFFFFFFFFFFFFFFFFFFFFFFFFFFFFFFFFFFFFFFFFFFFFFFFFFFFFFFFFFFFFFFFFFFFFFFFFFFF302821FF302821FF302821FF302821FF302821FF302821FF302821FF302821FF302821FF302821FF302821FF302821FF302821FF302821FFFFFFFFFF302821FF302821FF302821FF302821FF302821FF302821FF302821FF
310
302821FF302821FF302821FF302821FF302821FFFFFFFFFF302821FF302821FF302821FF302821FF302821FF302821FF302821FF302821FF302821FF302821FF302821FF302821FF302821FF302821FF302821FF302821FF302821FF302821FFFFFFFFFFFFFFFFFFFFFFFFFFFFFFFFFFFFFFFFFFFFFFFFFFFFFFFFFFFFFFFF
310
FFFFFFFFFFFFFFFFFFFFFFFFFFFFFFFFFFFFFFFFFFFFFFFFFF302821FF302821FF302821FF302821FF302821FF302821FF302821FF302821FF302821FF302821FF302821FF302821FF302821FF302821FF302821FF302821FF302821FF302821FF302821FF302821FF302821FFFFFFFFFFFFFFFFFF302821FF302821FF3028
310
21FF302821FFFFFFFFFFFFFFFFFF302821FF302821FF302821FF302821FF302821FF302821FF302821FF302821FF302821FF302821FF302821FF302821FF302821FF302821FF302821FF302821FF302821FF302821FF302821FF302821FF302821FF302821FF302821FF302821FF302821FF302821FFFFFFFFFFFFFFFFFFFF
310
FFFFFFFFFFFFFF302821FF302821FF302821FF302821FF302821FF302821FF302821FF302821FF302821FF302821FF302821FF302821FF302821FF302821FF302821FF302821FF302821FF302821FF302821FF302821FF302821FF302821FF302821FF302821FF302821FF302821FF302821FF302821FF302821FF302821FF
310
302821FF302821FF302821FF302821FF302821FF302821FF302821FF302821FF302821FF302821FF302821FF302821FF302821FF302821FF302821FF302821FF302821FF302821FF302821FF302821FF302821FF302821FF302821FF302821FF302821FF302821FF302821FF302821FF302821FF302821FF302821FF302821
310
FF302821FF302821FF302821FF302821FF302821FF302821FF302821FF302821FF302821FF302821FF302821FF302821FF302821FF302821FF302821FF302821FF302821FF302821FF302821FF302821FF302821FF302821FF302821FF302821FF302821FF302821FF302821FF302821FF302821FF302821FF302821FF3028
310
21FF302821FF302821FF302821FF302821FF302821FF302821FF302821FF302821FF302821FF302821FF302821FF302821FF302821FF302821FF302821FF302821FF302821FF302821FF302821FF302821FF302821FF302821FF302821FF302821FF302821FF302821FF302821FF302821FF302821FF302821FF302821FF30
310
2821FF302821FF302821FF302821FF302821FF302821FF302821FF302821FF302821FF302821FF302821FF302821FF302821FF302821FF302821FF302821FF302821FF302821FF302821FF302821FF302821FF302821FF302821FF302821FF302821FF302821FF302821FF302821FF302821FF302821FF302821FF302821FF
310
302821FF302821FF302821FF302821FF302821FF302821FF302821FF302821FF302821FF302821FF302821FF302821FF302821FF302821FF302821FF302821FF302821FF302821FF302821FF302821FF302821FF302821FF302821FF302821FF302821FF302821FF302821FF302821FF302821FF302821FF302821FF302821
310
FF302821FF302821FF302821FF302821FF302821FF302821FF302821FF302821FF302821FF302821FF302821FF302821FF302821FF302821FF302821FF302821FF302821FF302821FF302821FF302821FF302821FF302821FF302821FF302821FF302821FF302821FF302821FF302821FF302821FF302821FF302821FF3028
310
21FF302821FF302821FF302821FF302821FF302821FF302821FF302821FF302821FF302821FF302821FF302821FF302821FF302821FF302821FF302821FF302821FF302821FF302821FF302821FF302821FF302821FF302821FF302821FF302821FF302821FF302821FF302821FF302821FF302821FF302821FF302821FF30
310
2821FF302821FF302821FF302821FF302821FF302821FF302821FF302821FF302821FF302821FF302821FF302821FF302821FF302821FF302821FF302821FF302821FF302821FF302821FF302821FF302821FF302821FF302821FF302821FF302821FF302821FF302821FF302821FF302821FF302821FF302821FF302821FF
310
302821FF302821FF302821FF302821FF302821FF302821FF302821FF302821FF302821FF302821FF302821FF302821FF302821FF302821FF302821FF302821FF302821FF302821FF
102
{BLKREFS
331
2A1
102
}
 70
     1
280
     1
281
     0
  0
BLOCK_RECORD
  5
2A2
330
1
100
AcDbSymbolTableRecord
100
AcDbBlockTableRecord
  2
Pressure_Balance_Rough_Valve-GROHE-35111000- Left
340
0
310
28000000200000002000000001002000000000000010000001000000010000000000000000000000302821FF302821FF302821FF302821FF302821FF302821FF302821FF302821FF302821FF302821FF302821FF302821FF302821FF302821FF302821FF302821FF302821FF302821FF302821FF302821FF302821FF302821
310
FF302821FF302821FF302821FF302821FF302821FF302821FF302821FF302821FF302821FF302821FF302821FF302821FF302821FF302821FF302821FF302821FF302821FF302821FF302821FF302821FF302821FF302821FF302821FF302821FF302821FF302821FF302821FF302821FF302821FF302821FF302821FF3028
310
21FF302821FF302821FF302821FF302821FF302821FF302821FF302821FF302821FF302821FF302821FF302821FF302821FF302821FF302821FF302821FF302821FF302821FF302821FF302821FF302821FF302821FF302821FF302821FF302821FF302821FF302821FF302821FF302821FF302821FF302821FF302821FF30
310
2821FF302821FF302821FF302821FF302821FF302821FF302821FF302821FF302821FF302821FF302821FF302821FF302821FF302821FF302821FF302821FF302821FF302821FF302821FF302821FF302821FF302821FF302821FF302821FF302821FF302821FF302821FF302821FF302821FF302821FF302821FF302821FF
310
302821FF302821FF302821FF302821FF302821FF302821FF302821FF302821FF302821FF302821FF302821FF302821FF302821FF302821FF302821FF302821FF302821FF302821FF302821FF302821FF302821FF302821FF302821FF302821FF302821FF302821FF302821FF302821FF302821FF302821FF302821FF302821
310
FF302821FF302821FF302821FF302821FF302821FF302821FF302821FF302821FF302821FF302821FF302821FF302821FF302821FF302821FF302821FF302821FF302821FF302821FF302821FF302821FF302821FF302821FF302821FF302821FF302821FF302821FF302821FF302821FF302821FF302821FF302821FF3028
310
21FF302821FF302821FF302821FF302821FF302821FF302821FF302821FF302821FF302821FF302821FF302821FF302821FF302821FF302821FF302821FF302821FF302821FF302821FF302821FF302821FF302821FF302821FF302821FF302821FF302821FF302821FF302821FF302821FF302821FF302821FF302821FF30
310
2821FF302821FF302821FF302821FF302821FF302821FF302821FF302821FF302821FF302821FF302821FF302821FF302821FF302821FF302821FF302821FF302821FF302821FF302821FFFFFFFFFFFFFFFFFFFFFFFFFFFFFFFFFFFFFFFFFFFFFFFFFFFFFFFFFFFFFFFFFFFFFFFFFFFFFFFFFFFFFFFFFFFFFFFFFFFFFFFFFF
310
FFFFFFFFFFFFFFFFFFFFFFFFFFFFFFFFFFFFFFFF302821FF302821FF302821FF302821FF302821FF302821FF302821FF302821FF302821FF302821FF302821FF302821FF302821FF302821FFFFFFFFFF302821FF302821FF302821FF302821FF302821FF302821FF302821FF302821FF302821FF302821FF302821FF302821
310
FF302821FF302821FF302821FF302821FFFFFFFFFF302821FF302821FF302821FF302821FF302821FF302821FF302821FF302821FF302821FF302821FF302821FF302821FF302821FF302821FFFFFFFFFF302821FF302821FF302821FF302821FF302821FF302821FF302821FF302821FF302821FF302821FF302821FF3028
310
21FF302821FF302821FF302821FF302821FFFFFFFFFF302821FF302821FF302821FF302821FF302821FF302821FF302821FF302821FF302821FF302821FF302821FF302821FF302821FFFFFFFFFFFFFFFFFF302821FF302821FF302821FF302821FF302821FF302821FF302821FFFFFFFFFFFFFFFFFF302821FF302821FF30
310
2821FF302821FF302821FF302821FF302821FFFFFFFFFFFFFFFFFF302821FF302821FF302821FF302821FF302821FF302821FF302821FFFFFFFFFFFFFFFFFFFFFFFFFFFFFFFFFFFFFFFFFFFFFFFFFF302821FF302821FF302821FF302821FF302821FF302821FFFFFFFFFFFFFFFFFFFFFFFFFFFFFFFFFFFFFFFFFFFFFFFFFF
310
302821FF302821FF302821FF302821FF302821FF302821FFFFFFFFFFFFFFFFFFFFFFFFFFFFFFFFFFFFFFFFFFFFFFFFFF302821FF302821FFFFFFFFFF302821FF302821FF302821FF302821FF302821FF302821FF302821FF302821FF302821FF302821FFFFFFFFFFFFFFFFFFFFFFFFFFFFFFFFFFFFFFFFFFFFFFFFFFFFFFFF
310
FFFFFFFFFF302821FF302821FF302821FF302821FF302821FF302821FF302821FF302821FF302821FF302821FFFFFFFFFF302821FF302821FFFFFFFFFF302821FF302821FF302821FF302821FF302821FF302821FF302821FF302821FF302821FF302821FFFFFFFFFFFFFFFFFFFFFFFFFFFFFFFFFFFFFFFFFFFFFFFFFFFFFF
310
FFFFFFFFFFFF302821FF302821FF302821FF302821FF302821FF302821FF302821FF302821FF302821FF302821FFFFFFFFFF302821FF302821FFFFFFFFFF302821FF302821FF302821FF302821FF302821FF302821FF302821FF302821FF302821FF302821FFFFFFFFFFFFFFFFFFFFFFFFFF302821FFFFFFFFFFFFFFFFFFFF
310
FFFFFFFFFFFFFF302821FF302821FF302821FF302821FF302821FF302821FF302821FF302821FF302821FF302821FFFFFFFFFF302821FF302821FFFFFFFFFF302821FF302821FF302821FF302821FF302821FF302821FF302821FF302821FF302821FF302821FFFFFFFFFFFFFFFFFFFFFFFFFF302821FF302821FFFFFFFFFF
310
FFFFFFFFFFFFFFFF302821FF302821FF302821FF302821FF302821FF302821FF302821FF302821FF302821FF302821FFFFFFFFFF302821FF302821FFFFFFFFFF302821FF302821FF302821FF302821FF302821FF302821FF302821FF302821FF302821FF302821FFFFFFFFFFFFFFFFFFFFFFFFFFFFFFFFFFFFFFFFFFFFFFFF
310
FFFFFFFFFFFFFFFFFF302821FF302821FF302821FF302821FF302821FF302821FF302821FF302821FF302821FF302821FFFFFFFFFF302821FF302821FFFFFFFFFF302821FF302821FF302821FF302821FF302821FF302821FF302821FF302821FF302821FF302821FFFFFFFFFFFFFFFFFFFFFFFFFFFFFFFFFFFFFFFFFFFFFF
310
FFFFFFFFFFFF302821FF302821FF302821FF302821FF302821FF302821FF302821FF302821FF302821FF302821FF302821FFFFFFFFFF302821FF302821FFFFFFFFFFFFFFFFFFFFFFFFFFFFFFFFFFFFFFFFFFFFFFFFFFFFFFFFFF302821FF302821FF302821FF302821FF302821FF302821FFFFFFFFFFFFFFFFFFFFFFFFFFFF
310
FFFFFF302821FF302821FF302821FF302821FF302821FF302821FFFFFFFFFFFFFFFFFFFFFFFFFFFFFFFFFFFFFFFFFFFFFFFFFFFFFFFFFF302821FF302821FF302821FF302821FF302821FF302821FF302821FF302821FFFFFFFFFFFFFFFFFFFFFFFFFFFFFFFFFFFFFFFFFFFFFFFFFFFFFFFFFFFFFFFFFFFFFFFFFFFFFFFFFF
310
FFFFFFFFFFFFFFFFFFFFFFFFFFFFFFFFFFFFFFFFFFFFFFFFFFFFFFFFFFFFFFFF302821FF302821FF302821FF302821FF302821FF302821FF302821FF302821FF302821FF302821FF302821FF302821FF302821FF302821FFFFFFFFFF302821FF302821FF302821FF302821FF302821FF302821FF302821FF302821FF302821
310
FF302821FF302821FF302821FF302821FF302821FF302821FF302821FFFFFFFFFF302821FF302821FF302821FF302821FF302821FF302821FF302821FF302821FF302821FF302821FF302821FF302821FF302821FF302821FFFFFFFFFF302821FF302821FF302821FF302821FF302821FF302821FF302821FF302821FF3028
310
21FF302821FF302821FF302821FF302821FF302821FF302821FF302821FFFFFFFFFF302821FF302821FF302821FF302821FF302821FF302821FF302821FF302821FF302821FF302821FF302821FF302821FF302821FF302821FFFFFFFFFFFFFFFFFFFFFFFFFFFFFFFFFFFFFFFFFFFFFFFFFFFFFFFFFFFFFFFFFFFFFFFFFFFF
310
FFFFFFFFFFFFFFFFFFFFFFFFFFFFFFFFFFFFFFFFFFFFFFFFFFFFFFFFFFFFFFFFFFFFFF302821FF302821FF302821FF302821FF302821FF302821FF302821FF302821FF302821FF302821FF302821FF302821FF302821FF302821FF302821FF302821FF302821FF302821FF302821FF302821FF302821FF302821FFFFFFFFFF
310
FFFFFFFF302821FF302821FF302821FF302821FF302821FF302821FF302821FF302821FF302821FF302821FF302821FF302821FF302821FF302821FF302821FF302821FF302821FF302821FF302821FF302821FF302821FF302821FF302821FF302821FF302821FF302821FF302821FF302821FF302821FF302821FFFFFFFF
310
FFFFFFFFFF302821FF302821FF302821FF302821FF302821FF302821FF302821FF302821FF302821FF302821FF302821FF302821FF302821FF302821FF302821FF302821FF302821FF302821FF302821FF302821FF302821FF302821FF302821FF302821FF302821FF302821FF302821FF302821FF302821FF302821FF3028
310
21FF302821FF302821FF302821FF302821FF302821FF302821FF302821FF302821FF302821FF302821FF302821FF302821FF302821FF302821FF302821FF302821FF302821FF302821FF302821FF302821FF302821FF302821FF302821FF302821FF302821FF302821FF302821FF302821FF302821FF302821FF302821FF30
310
2821FF302821FF302821FF302821FF302821FF302821FF302821FF302821FF302821FF302821FF302821FF302821FF302821FF302821FF302821FF302821FF302821FF302821FF302821FF302821FF302821FF302821FF302821FF302821FF302821FF302821FF302821FF302821FF302821FF302821FF302821FF302821FF
310
302821FF302821FF302821FF302821FF302821FF302821FF302821FF302821FF302821FF302821FF302821FF302821FF302821FF302821FF302821FF302821FF302821FF302821FF302821FF302821FF302821FF302821FF302821FF302821FF302821FF302821FF302821FF302821FF302821FF302821FF302821FF302821
310
FF302821FF302821FF302821FF302821FF302821FF302821FF302821FF302821FF302821FF302821FF302821FF302821FF302821FF302821FF302821FF302821FF302821FF302821FF302821FF302821FF302821FF302821FF302821FF302821FF302821FF302821FF302821FF302821FF302821FF302821FF302821FF3028
310
21FF302821FF302821FF302821FF302821FF302821FF302821FF302821FF302821FF302821FF302821FF302821FF302821FF302821FF302821FF302821FF302821FF302821FF302821FF302821FF302821FF302821FF302821FF302821FF302821FF302821FF302821FF302821FF302821FF302821FF302821FF302821FF30
310
2821FF302821FF302821FF302821FF302821FF302821FF302821FF302821FF302821FF302821FF302821FF302821FF302821FF302821FF302821FF302821FF302821FF302821FF302821FF302821FF302821FF302821FF302821FF302821FF302821FF302821FF302821FF302821FF302821FF302821FF302821FF302821FF
310
302821FF302821FF302821FF302821FF302821FF302821FF302821FF302821FF302821FF302821FF302821FF302821FF302821FF302821FF302821FF302821FF302821FF302821FF
102
{BLKREFS
331
2C4
102
}
 70
     1
280
     1
281
     0
  0
BLOCK_RECORD
  5
2C5
330
1
100
AcDbSymbolTableRecord
100
AcDbBlockTableRecord
  2
Pressure_Balance_Rough_Valve-GROHE-35111000- Front
340
0
310
28000000200000002000000001002000000000000010000001000000010000000000000000000000302821FF302821FF302821FF302821FF302821FF302821FF302821FF302821FF302821FF302821FF302821FF302821FF302821FF302821FF302821FF302821FF302821FF302821FF302821FF302821FF302821FF302821
310
FF302821FF302821FF302821FF302821FF302821FF302821FF302821FF302821FF302821FF302821FF302821FF302821FF302821FF302821FF302821FF302821FF302821FF302821FF302821FF302821FF302821FF302821FF302821FF302821FF302821FF302821FF302821FF302821FF302821FF302821FF302821FF3028
310
21FF302821FF302821FF302821FF302821FF302821FF302821FF302821FF302821FF302821FF302821FF302821FF302821FF302821FF302821FF302821FF302821FF302821FF302821FF302821FF302821FF302821FF302821FF302821FF302821FF302821FF302821FF302821FF302821FF302821FF302821FF302821FF30
310
2821FF302821FF302821FF302821FF302821FF302821FF302821FF302821FF302821FF302821FF302821FF302821FF302821FF302821FF302821FF302821FF302821FF302821FF302821FF302821FF302821FF302821FF302821FF302821FF302821FF302821FF302821FF302821FF302821FF302821FF302821FF302821FF
310
302821FF302821FF302821FF302821FF302821FF302821FF302821FF302821FF302821FF302821FF302821FF302821FF302821FF302821FF302821FF302821FF302821FF302821FF302821FF302821FF302821FF302821FF302821FF302821FF302821FF302821FF302821FF302821FF302821FF302821FF302821FF302821
310
FF302821FF302821FF302821FF302821FF302821FF302821FF302821FF302821FF302821FF302821FF302821FF302821FF302821FF302821FF302821FF302821FF302821FF302821FF302821FF302821FF302821FF302821FF302821FF302821FFFFFFFFFFFFFFFFFFFFFFFFFFFFFFFFFFFFFFFFFFFFFFFFFF302821FF3028
310
21FF302821FF302821FF302821FF302821FF302821FF302821FF302821FF302821FF302821FF302821FF302821FF302821FF302821FF302821FF302821FF302821FF302821FF302821FF302821FF302821FF302821FF302821FF302821FF302821FFFFFFFFFFFFFFFFFFFFFFFFFFFFFFFFFFFFFFFFFFFFFFFFFF302821FF30
310
2821FF302821FF302821FF302821FF302821FF302821FF302821FF302821FF302821FF302821FF302821FF302821FF302821FF302821FF302821FF302821FF302821FF302821FF302821FF302821FF302821FF302821FF302821FF302821FF302821FFFFFFFFFFFFFFFFFFFFFFFFFFFFFFFFFFFFFFFFFFFFFFFFFF302821FF
310
302821FF302821FF302821FF302821FF302821FF302821FF302821FF302821FF302821FF302821FF302821FF302821FF302821FF302821FF302821FF302821FF302821FF302821FF302821FFFFFFFFFFFFFFFFFF302821FF302821FF302821FF302821FFFFFFFFFF302821FF302821FF302821FF302821FFFFFFFFFF302821
310
FF302821FFFFFFFFFFFFFFFFFF302821FF302821FF302821FF302821FF302821FF302821FF302821FF302821FF302821FF302821FF302821FF302821FF302821FF302821FF302821FF302821FFFFFFFFFFFFFFFFFF302821FF302821FF302821FF302821FFFFFFFFFFFFFFFFFFFFFFFFFFFFFFFFFFFFFFFFFFFFFFFFFF3028
310
21FF302821FFFFFFFFFFFFFFFFFF302821FF302821FF302821FF302821FF302821FF302821FF302821FF302821FF302821FF302821FF302821FF302821FF302821FF302821FF302821FF302821FFFFFFFFFFFFFFFFFF302821FF302821FF302821FFFFFFFFFFFFFFFFFFFFFFFFFFFFFFFFFFFFFFFFFFFFFFFFFFFFFFFFFFFF
310
FFFFFF302821FFFFFFFFFFFFFFFFFF302821FF302821FF302821FF302821FF302821FF302821FF302821FF302821FF302821FF302821FF302821FF302821FF302821FF302821FF302821FF302821FFFFFFFFFF302821FFFFFFFFFFFFFFFFFFFFFFFFFFFFFFFFFFFFFFFFFF302821FF302821FF302821FF302821FF302821FF
310
FFFFFFFFFFFFFFFFFFFFFFFF302821FFFFFFFFFF302821FF302821FF302821FF302821FF302821FF302821FF302821FF302821FF302821FF302821FF302821FF302821FF302821FF302821FF302821FFFFFFFFFF302821FFFFFFFFFFFFFFFFFFFFFFFFFF302821FF302821FF302821FF302821FF302821FF302821FF302821
310
FF302821FFFFFFFFFFFFFFFFFF302821FFFFFFFFFF302821FF302821FF302821FF302821FF302821FF302821FF302821FF302821FF302821FF302821FF302821FF302821FF302821FFFFFFFFFFFFFFFFFFFFFFFFFFFFFFFFFFFFFFFFFFFFFFFFFFFFFFFFFF302821FF302821FF302821FF302821FF302821FF302821FF3028
310
21FF302821FF302821FFFFFFFFFFFFFFFFFFFFFFFFFFFFFFFFFFFFFFFFFFFFFFFFFF302821FF302821FF302821FF302821FF302821FF302821FFFFFFFFFFFFFFFFFFFFFFFFFFFFFFFFFFFFFFFFFFFFFFFFFFFFFFFFFFFFFFFFFFFFFFFFFFFFFFFFFF302821FF302821FF302821FF302821FF302821FF302821FF302821FF30
310
2821FF302821FF302821FFFFFFFFFFFFFFFFFFFFFFFFFFFFFFFFFFFFFFFFFFFFFFFFFFFFFFFFFFFFFFFFFFFFFFFFFFFFFFFFFF302821FF302821FFFFFFFFFFFFFFFFFFFFFFFFFF302821FFFFFFFFFFFFFFFFFFFFFFFFFFFFFFFFFFFFFFFFFFFFFFFFFFFFFFFFFFFFFFFFFFFFFFFFFFFFFFFFFFFFFFFFFFFFFFFFFFFFFFFFFF
310
FFFFFFFFFFFFFFFFFFFFFFFFFFFFFFFFFFFFFFFFFFFFFFFFFFFFFFFFFFFFFFFFFFFFFFFF302821FFFFFFFFFFFFFFFFFFFFFFFFFF302821FF302821FFFFFFFFFFFFFFFFFFFFFFFFFF302821FFFFFFFFFFFFFFFFFFFFFFFFFFFFFFFFFFFFFFFFFFFFFFFFFFFFFFFFFFFFFFFFFFFFFFFFFFFFFFFFFFFFFFFFFFFFFFFFFFFFFFFF
310
FFFFFFFFFFFFFFFFFFFFFFFFFFFFFFFFFFFFFFFFFFFFFFFFFFFFFFFFFFFFFFFFFFFFFFFFFF302821FFFFFFFFFFFFFFFFFFFFFFFFFF302821FF302821FFFFFFFFFFFFFFFFFFFFFFFFFFFFFFFFFFFFFFFFFFFFFFFFFFFFFFFFFFFFFFFFFFFFFFFFFFFFFFFFFF302821FF302821FF302821FF302821FF302821FF302821FF3028
310
21FF302821FF302821FF302821FFFFFFFFFFFFFFFFFFFFFFFFFFFFFFFFFFFFFFFFFFFFFFFFFFFFFFFFFFFFFFFFFFFFFFFFFFFFFFFFFF302821FF302821FF302821FF302821FF302821FF302821FFFFFFFFFFFFFFFFFFFFFFFFFFFFFFFFFFFFFFFFFFFFFFFFFFFFFFFFFF302821FF302821FF302821FF302821FF302821FF30
310
2821FF302821FF302821FF302821FFFFFFFFFFFFFFFFFFFFFFFFFFFFFFFFFFFFFFFFFFFFFFFFFF302821FF302821FF302821FF302821FF302821FF302821FF302821FF302821FF302821FF302821FF302821FF302821FF302821FFFFFFFFFF302821FFFFFFFFFFFFFFFFFF302821FF302821FF302821FF302821FF302821FF
310
302821FF302821FF302821FFFFFFFFFFFFFFFFFFFFFFFFFF302821FF302821FFFFFFFFFF302821FF302821FF302821FF302821FF302821FF302821FF302821FF302821FF302821FF302821FF302821FF302821FF302821FF302821FF302821FFFFFFFFFFFFFFFFFFFFFFFFFFFFFFFFFFFFFFFFFF302821FF302821FF302821
310
FF302821FF302821FFFFFFFFFFFFFFFFFF302821FF302821FFFFFFFFFF302821FFFFFFFFFF302821FF302821FF302821FF302821FF302821FF302821FF302821FF302821FF302821FF302821FF302821FF302821FF302821FF302821FF302821FFFFFFFFFFFFFFFFFF302821FFFFFFFFFFFFFFFFFFFFFFFFFFFFFFFFFFFFFF
310
FFFFFFFFFFFFFFFFFFFFFFFFFFFF302821FF302821FF302821FFFFFFFFFFFFFFFFFF302821FF302821FF302821FF302821FF302821FF302821FF302821FF302821FF302821FF302821FF302821FF302821FF302821FF302821FF302821FF302821FFFFFFFFFFFFFFFFFF302821FF302821FFFFFFFFFFFFFFFFFFFFFFFFFFFF
310
FFFFFFFFFFFFFFFFFFFFFF302821FF302821FF302821FF302821FFFFFFFFFFFFFFFFFF302821FF302821FF302821FF302821FF302821FF302821FF302821FF302821FF302821FF302821FF302821FF302821FF302821FF302821FF302821FF302821FFFFFFFFFFFFFFFFFF302821FF302821FFFFFFFFFF302821FF302821FF
310
302821FF302821FFFFFFFFFF302821FF302821FF302821FF302821FFFFFFFFFFFFFFFFFF302821FF302821FF302821FF302821FF302821FF302821FF302821FF302821FF302821FF302821FF302821FF302821FF302821FF302821FF302821FF302821FF302821FF302821FF302821FF302821FFFFFFFFFFFFFFFFFFFFFFFF
310
FFFFFFFFFFFFFFFFFFFFFFFFFF302821FF302821FF302821FF302821FF302821FF302821FF302821FF302821FF302821FF302821FF302821FF302821FF302821FF302821FF302821FF302821FF302821FF302821FF302821FF302821FF302821FF302821FF302821FF302821FF302821FF302821FFFFFFFFFFFFFFFFFFFFFF
310
FFFFFFFFFFFFFFFFFFFFFFFFFFFF302821FF302821FF302821FF302821FF302821FF302821FF302821FF302821FF302821FF302821FF302821FF302821FF302821FF302821FF302821FF302821FF302821FF302821FF302821FF302821FF302821FF302821FF302821FF302821FF302821FF302821FFFFFFFFFFFFFFFFFFFF
310
FFFFFFFFFFFFFFFFFFFFFFFFFFFFFF302821FF302821FF302821FF302821FF302821FF302821FF302821FF302821FF302821FF302821FF302821FF302821FF302821FF302821FF302821FF302821FF302821FF302821FF302821FF302821FF302821FF302821FF302821FF302821FF302821FF302821FF302821FF302821FF
310
302821FF302821FF302821FF302821FF302821FF302821FF302821FF302821FF302821FF302821FF302821FF302821FF302821FF302821FF302821FF302821FF302821FF302821FF302821FF302821FF302821FF302821FF302821FF302821FF302821FF302821FF302821FF302821FF302821FF302821FF302821FF302821
310
FF302821FF302821FF302821FF302821FF302821FF302821FF302821FF302821FF302821FF302821FF302821FF302821FF302821FF302821FF302821FF302821FF302821FF302821FF302821FF302821FF302821FF302821FF302821FF302821FF302821FF302821FF302821FF302821FF302821FF302821FF302821FF3028
310
21FF302821FF302821FF302821FF302821FF302821FF302821FF302821FF302821FF302821FF302821FF302821FF302821FF302821FF302821FF302821FF302821FF302821FF302821FF302821FF302821FF302821FF302821FF302821FF302821FF302821FF302821FF302821FF302821FF302821FF302821FF302821FF30
310
2821FF302821FF302821FF302821FF302821FF302821FF302821FF302821FF302821FF302821FF302821FF302821FF302821FF302821FF302821FF302821FF302821FF302821FF302821FF302821FF302821FF302821FF302821FF302821FF302821FF302821FF302821FF302821FF302821FF302821FF302821FF302821FF
310
302821FF302821FF302821FF302821FF302821FF302821FF302821FF302821FF302821FF302821FF302821FF302821FF302821FF302821FF302821FF302821FF302821FF302821FF
102
{BLKREFS
331
348
102
}
 70
     1
280
     1
281
     0
  0
ENDTAB
  0
ENDSEC
  0
SECTION
  2
BLOCKS
  0
BLOCK
  5
71
330
70
100
AcDbEntity
  8
0
100
AcDbBlockBegin
  2
*Model_Space
 70
     0
 10
0.0
 20
0.0
 30
0.0
  3
*Model_Space
  1

  0
ENDBLK
  5
72
330
70
100
AcDbEntity
  8
0
100
AcDbBlockEnd
  0
BLOCK
  5
6D
330
6C
100
AcDbEntity
 67
     1
  8
0
100
AcDbBlockBegin
  2
*Paper_Space
 70
     0
 10
0.0
 20
0.0
 30
0.0
  3
*Paper_Space
  1

  0
ENDBLK
  5
6E
330
6C
100
AcDbEntity
 67
     1
  8
0
100
AcDbBlockEnd
  0
BLOCK
  5
75
330
74
100
AcDbEntity
 67
     1
  8
0
100
AcDbBlockBegin
  2
*Paper_Space0
 70
     0
 10
0.0
 20
0.0
 30
0.0
  3
*Paper_Space0
  1

  0
ENDBLK
  5
76
330
74
100
AcDbEntity
 67
     1
  8
0
100
AcDbBlockEnd
  0
BLOCK
  5
27C
330
27B
100
AcDbEntity
  8
0
100
AcDbBlockBegin
  2
Pressure_Balance_Rough_Valve-GROHE-35111000-Top
 70
     0
 10
0.0
 20
0.0
 30
0.0
  3
Pressure_Balance_Rough_Valve-GROHE-35111000-Top
  1

  0
LINE
  5
27E
330
27B
100
AcDbEntity
  8
Pressure_Balance_Rough_Valve-GROHE-35111000
100
AcDbLine
 10
0.2962913294865863
 20
0.2649925174918621
 30
0.0
 11
0.8645696171312085
 21
-0.0000000000000009
 31
0.0
1001
REVIT
1002
{
1070
     1
1000
178424
1002
}
1002
{
1070
     2
1000
-2001160
1002
}
  0
LINE
  5
27F
330
27B
100
AcDbEntity
  8
Pressure_Balance_Rough_Valve-GROHE-35111000
100
AcDbLine
 10
1.129596651779345
 20
0.0
 30
0.0
 11
1.129596651779346
 21
-0.4549363560029783
 31
0.0
1001
REVIT
1002
{
1070
     1
1000
178424
1002
}
1002
{
1070
     2
1000
-2001160
1002
}
  0
LINE
  5
280
330
27B
100
AcDbEntity
  8
Pressure_Balance_Rough_Valve-GROHE-35111000
100
AcDbLine
 10
1.031250000000229
 20
-0.45493635600298
 30
0.0
 11
1.031250000000218
 21
-0.5002659187439989
 31
0.0
1001
REVIT
1002
{
1070
     1
1000
178424
1002
}
1002
{
1070
     2
1000
-2001160
1002
}
  0
LINE
  5
281
330
27B
100
AcDbEntity
  8
Pressure_Balance_Rough_Valve-GROHE-35111000
100
AcDbLine
 10
1.031250000000218
 20
-0.5002659187439989
 30
0.0
 11
1.238062506538119
 21
-0.5002659187440513
 31
0.0
1001
REVIT
1002
{
1070
     1
1000
178424
1002
}
1002
{
1070
     2
1000
-2001160
1002
}
  0
LINE
  5
282
330
27B
100
AcDbEntity
  8
Pressure_Balance_Rough_Valve-GROHE-35111000
100
AcDbLine
 10
1.238062506538119
 20
-0.5002659187440513
 30
0.0
 11
1.238062506538153
 21
-0.3673813153463463
 31
0.0
1001
REVIT
1002
{
1070
     1
1000
178424
1002
}
1002
{
1070
     2
1000
-2001160
1002
}
  0
LINE
  5
283
330
27B
100
AcDbEntity
  8
Pressure_Balance_Rough_Valve-GROHE-35111000
100
AcDbLine
 10
1.238062506538121
 20
-0.3673813153463392
 30
0.0
 11
1.63582805066555
 21
-0.3673813153463392
 31
0.0
1001
REVIT
1002
{
1070
     1
1000
178424
1002
}
1002
{
1070
     2
1000
-2001160
1002
}
  0
LINE
  5
284
330
27B
100
AcDbEntity
  8
Pressure_Balance_Rough_Valve-GROHE-35111000
100
AcDbLine
 10
1.63582805066555
 20
-0.3673813153463392
 30
0.0
 11
1.63582805066555
 21
-0.5002659187441969
 31
0.0
1001
REVIT
1002
{
1070
     1
1000
178424
1002
}
1002
{
1070
     2
1000
-2001160
1002
}
  0
LINE
  5
285
330
27B
100
AcDbEntity
  8
Pressure_Balance_Rough_Valve-GROHE-35111000
100
AcDbLine
 10
1.63582805066555
 20
-0.5002659187441969
 30
0.0
 11
1.812500000000011
 21
-0.5002659187441969
 31
0.0
1001
REVIT
1002
{
1070
     1
1000
178424
1002
}
1002
{
1070
     2
1000
-2001160
1002
}
  0
LINE
  5
286
330
27B
100
AcDbEntity
  8
Pressure_Balance_Rough_Valve-GROHE-35111000
100
AcDbLine
 10
1.812500000000011
 20
-0.7312383169780619
 30
0.0
 11
2.437499999999512
 21
-0.7312383169780619
 31
0.0
1001
REVIT
1002
{
1070
     1
1000
178424
1002
}
1002
{
1070
     2
1000
-2001160
1002
}
  0
LINE
  5
287
330
27B
100
AcDbEntity
  8
Pressure_Balance_Rough_Valve-GROHE-35111000
100
AcDbLine
 10
2.437499999999512
 20
-0.7312383169780619
 30
0.0
 11
2.437499999999512
 21
-1.268761683021866
 31
0.0
1001
REVIT
1002
{
1070
     1
1000
178424
1002
}
1002
{
1070
     2
1000
-2001160
1002
}
  0
LINE
  5
288
330
27B
100
AcDbEntity
  8
Pressure_Balance_Rough_Valve-GROHE-35111000
100
AcDbLine
 10
2.437499999999512
 20
-1.268761683021866
 30
0.0
 11
1.812500000000029
 21
-1.268761683021866
 31
0.0
1001
REVIT
1002
{
1070
     1
1000
178424
1002
}
1002
{
1070
     2
1000
-2001160
1002
}
  0
LINE
  5
289
330
27B
100
AcDbEntity
  8
Pressure_Balance_Rough_Valve-GROHE-35111000
100
AcDbLine
 10
1.812500000000011
 20
-0.5002659187441969
 30
0.0
 11
1.812500000000029
 21
-1.499734081255803
 31
0.0
1001
REVIT
1002
{
1070
     1
1000
178424
1002
}
1002
{
1070
     2
1000
-2001160
1002
}
  0
LINE
  5
28A
330
27B
100
AcDbEntity
  8
Pressure_Balance_Rough_Valve-GROHE-35111000
100
AcDbLine
 10
1.812500000000029
 20
-1.499734081255803
 30
0.0
 11
1.03125000000025
 21
-1.499734081255803
 31
0.0
1001
REVIT
1002
{
1070
     1
1000
178424
1002
}
1002
{
1070
     2
1000
-2001160
1002
}
  0
LINE
  5
28B
330
27B
100
AcDbEntity
  8
Pressure_Balance_Rough_Valve-GROHE-35111000
100
AcDbLine
 10
1.031250000000237
 20
-1.499734081256017
 30
0.0
 11
1.031250000000246
 21
-1.99999999999752
 31
0.0
1001
REVIT
1002
{
1070
     1
1000
178424
1002
}
1002
{
1070
     2
1000
-2001160
1002
}
  0
LINE
  5
28C
330
27B
100
AcDbEntity
  8
Pressure_Balance_Rough_Valve-GROHE-35111000
100
AcDbLine
 10
1.031250000000246
 20
-1.99999999999752
 30
0.0
 11
-1.031250000000204
 21
-1.999999999997527
 31
0.0
1001
REVIT
1002
{
1070
     1
1000
178424
1002
}
1002
{
1070
     2
1000
-2001160
1002
}
  0
LINE
  5
28D
330
27B
100
AcDbEntity
  8
Pressure_Balance_Rough_Valve-GROHE-35111000
100
AcDbLine
 10
-1.031250000000204
 20
-1.999999999997527
 30
0.0
 11
-1.031250000000205
 21
-1.499734081256038
 31
0.0
1001
REVIT
1002
{
1070
     1
1000
178424
1002
}
1002
{
1070
     2
1000
-2001160
1002
}
  0
LINE
  5
28E
330
27B
100
AcDbEntity
  8
Pressure_Balance_Rough_Valve-GROHE-35111000
100
AcDbLine
 10
-1.031250000000205
 20
-1.499734081255822
 30
0.0
 11
-1.812500000000022
 21
-1.499734081255822
 31
0.0
1001
REVIT
1002
{
1070
     1
1000
178424
1002
}
1002
{
1070
     2
1000
-2001160
1002
}
  0
LINE
  5
28F
330
27B
100
AcDbEntity
  8
Pressure_Balance_Rough_Valve-GROHE-35111000
100
AcDbLine
 10
-1.812500000000022
 20
-1.268761683021903
 30
0.0
 11
-2.437499999999496
 21
-1.268761683021903
 31
0.0
1001
REVIT
1002
{
1070
     1
1000
178424
1002
}
1002
{
1070
     2
1000
-2001160
1002
}
  0
LINE
  5
290
330
27B
100
AcDbEntity
  8
Pressure_Balance_Rough_Valve-GROHE-35111000
100
AcDbLine
 10
-2.437499999999496
 20
-1.268761683021903
 30
0.0
 11
-2.437499999999496
 21
-0.7312383169780992
 31
0.0
1001
REVIT
1002
{
1070
     1
1000
178424
1002
}
1002
{
1070
     2
1000
-2001160
1002
}
  0
LINE
  5
291
330
27B
100
AcDbEntity
  8
Pressure_Balance_Rough_Valve-GROHE-35111000
100
AcDbLine
 10
-2.437499999999496
 20
-0.7312383169780992
 30
0.0
 11
-1.812500000000021
 21
-0.7312383169780992
 31
0.0
1001
REVIT
1002
{
1070
     1
1000
178424
1002
}
1002
{
1070
     2
1000
-2001160
1002
}
  0
LINE
  5
292
330
27B
100
AcDbEntity
  8
Pressure_Balance_Rough_Valve-GROHE-35111000
100
AcDbLine
 10
-1.812500000000021
 20
-0.5002659187442458
 30
0.0
 11
-1.63582805066556
 21
-0.5002659187442458
 31
0.0
1001
REVIT
1002
{
1070
     1
1000
178424
1002
}
1002
{
1070
     2
1000
-2001160
1002
}
  0
LINE
  5
293
330
27B
100
AcDbEntity
  8
Pressure_Balance_Rough_Valve-GROHE-35111000
100
AcDbLine
 10
-1.63582805066556
 20
-0.5002659187442458
 30
0.0
 11
-1.63582805066556
 21
-0.3673813153463836
 31
0.0
1001
REVIT
1002
{
1070
     1
1000
178424
1002
}
1002
{
1070
     2
1000
-2001160
1002
}
  0
LINE
  5
294
330
27B
100
AcDbEntity
  8
Pressure_Balance_Rough_Valve-GROHE-35111000
100
AcDbLine
 10
-1.63582805066556
 20
-0.3673813153463836
 30
0.0
 11
-1.238062506538106
 21
-0.3673813153463836
 31
0.0
1001
REVIT
1002
{
1070
     1
1000
178424
1002
}
1002
{
1070
     2
1000
-2001160
1002
}
  0
LINE
  5
295
330
27B
100
AcDbEntity
  8
Pressure_Balance_Rough_Valve-GROHE-35111000
100
AcDbLine
 10
-1.238062506538145
 20
-0.3673813153463721
 30
0.0
 11
-1.238062506538109
 21
-0.500265918744077
 31
0.0
1001
REVIT
1002
{
1070
     1
1000
178424
1002
}
1002
{
1070
     2
1000
-2001160
1002
}
  0
LINE
  5
296
330
27B
100
AcDbEntity
  8
Pressure_Balance_Rough_Valve-GROHE-35111000
100
AcDbLine
 10
-1.238062506538109
 20
-0.500265918744077
 30
0.0
 11
-1.031250000000207
 21
-0.5002659187440202
 31
0.0
1001
REVIT
1002
{
1070
     1
1000
178424
1002
}
1002
{
1070
     2
1000
-2001160
1002
}
  0
LINE
  5
297
330
27B
100
AcDbEntity
  8
Pressure_Balance_Rough_Valve-GROHE-35111000
100
AcDbLine
 10
-1.031250000000207
 20
-0.5002659187440202
 30
0.0
 11
-1.031250000000219
 21
-0.4549363560030013
 31
0.0
1001
REVIT
1002
{
1070
     1
1000
178424
1002
}
1002
{
1070
     2
1000
-2001160
1002
}
  0
LINE
  5
298
330
27B
100
AcDbEntity
  8
Pressure_Balance_Rough_Valve-GROHE-35111000
100
AcDbLine
 10
-1.129596651779344
 20
-0.4549363560030013
 30
0.0
 11
-1.129596651779345
 21
0.0
 31
0.0
1001
REVIT
1002
{
1070
     1
1000
178424
1002
}
1002
{
1070
     2
1000
-2001160
1002
}
  0
LINE
  5
299
330
27B
100
AcDbEntity
  8
Pressure_Balance_Rough_Valve-GROHE-35111000
100
AcDbLine
 10
-1.129596651779345
 20
0.0
 30
0.0
 11
1.129596651779345
 21
0.0
 31
0.0
1001
REVIT
1002
{
1070
     1
1000
178424
1002
}
1002
{
1070
     2
1000
-2001160
1002
}
  0
LINE
  5
29A
330
27B
100
AcDbEntity
  8
Pressure_Balance_Rough_Valve-GROHE-35111000
100
AcDbLine
 10
-0.8645696171311795
 20
0.0
 30
0.0
 11
-0.2962913294867444
 21
0.2649925174918142
 31
0.0
1001
REVIT
1002
{
1070
     1
1000
178424
1002
}
1002
{
1070
     2
1000
-2001160
1002
}
  0
ARC
  5
29B
330
27B
100
AcDbEntity
  8
Pressure_Balance_Rough_Valve-GROHE-35111000
100
AcDbCircle
 10
0.0000000000000033
 20
-0.749312539079976
 30
0.0
 40
1.056694515797316
100
AcDbArc
 50
73.71624894759598
 51
106.2837510524133
1001
REVIT
1002
{
1070
     1
1000
178424
1002
}
1002
{
1070
     2
1000
-2001160
1002
}
  0
LINE
  5
29C
330
27B
100
AcDbEntity
  8
Pressure_Balance_Rough_Valve-GROHE-35111000
100
AcDbLine
 10
-1.12959665177934
 20
-0.4549363560030013
 30
0.0
 11
1.12959665177935
 21
-0.4549363560029783
 31
0.0
1001
REVIT
1002
{
1070
     1
1000
154011
1002
}
1002
{
1070
     2
1000
-2001160
1002
}
  0
CIRCLE
  5
29D
330
27B
100
AcDbEntity
  8
Pressure_Balance_Rough_Valve-GROHE-35111000
100
AcDbCircle
 10
-0.0000000000004892
 20
-0.9999999999987716
 30
0.0
 40
0.3125000000165307
1001
REVIT
1002
{
1070
     1
1000
169644
1002
}
1002
{
1070
     2
1000
-2001160
1002
}
  0
CIRCLE
  5
29E
330
27B
100
AcDbEntity
  8
Pressure_Balance_Rough_Valve-GROHE-35111000
100
AcDbCircle
 10
-0.0000000000004892
 20
-0.9999999999987716
 30
0.0
 40
0.2500000000165309
1001
REVIT
1002
{
1070
     1
1000
169662
1002
}
1002
{
1070
     2
1000
-2001160
1002
}
  0
CIRCLE
  5
29F
330
27B
100
AcDbEntity
  8
Pressure_Balance_Rough_Valve-GROHE-35111000
100
AcDbCircle
 10
-0.0000000000004892
 20
-0.9999999999987716
 30
0.0
 40
0.375000000016531
1001
REVIT
1002
{
1070
     1
1000
169811
1002
}
1002
{
1070
     2
1000
-2001160
1002
}
  0
LINE
  5
2A0
330
27B
100
AcDbEntity
  8
Pressure_Balance_Rough_Valve-GROHE-35111000
100
AcDbLine
 10
-1.81250000000002
 20
-0.4999999999585861
 30
0.0
 11
-1.81250000000002
 21
-1.500000000036704
 31
0.0
1001
REVIT
1002
{
1070
     1
1000
180419
1002
}
1002
{
1070
     2
1000
-2001160
1002
}
  0
ENDBLK
  5
27D
330
27B
100
AcDbEntity
  8
0
100
AcDbBlockEnd
  0
BLOCK
  5
2A3
330
2A2
100
AcDbEntity
  8
0
100
AcDbBlockBegin
  2
Pressure_Balance_Rough_Valve-GROHE-35111000- Left
 70
     0
 10
0.0
 20
0.0
 30
0.0
  3
Pressure_Balance_Rough_Valve-GROHE-35111000- Left
  1

  0
LINE
  5
2A5
330
2A2
100
AcDbEntity
  8
Pressure_Balance_Rough_Valve-GROHE-35111000
100
AcDbLine
 10
-0.0312499999993401
 20
0.0000000000024849
 30
0.0
 11
-0.0312499999993401
 21
0.3073819767086772
 31
0.0
1001
REVIT
1002
{
1070
     1
1000
171467
1002
}
1002
{
1070
     2
1000
-2001160
1002
}
  0
LINE
  5
2A6
330
2A2
100
AcDbEntity
  8
Pressure_Balance_Rough_Valve-GROHE-35111000
100
AcDbLine
 10
-0.0312499999993401
 20
0.3073819767086772
 30
0.0
 11
0.0312500000006599
 21
0.3073819767086772
 31
0.0
1001
REVIT
1002
{
1070
     1
1000
171467
1002
}
1002
{
1070
     2
1000
-2001160
1002
}
  0
LINE
  5
2A7
330
2A2
100
AcDbEntity
  8
Pressure_Balance_Rough_Valve-GROHE-35111000
100
AcDbLine
 10
0.0312500000006599
 20
0.3073819767086772
 30
0.0
 11
0.0312500000006599
 21
-0.0000000000024849
 31
0.0
1001
REVIT
1002
{
1070
     1
1000
171467
1002
}
1002
{
1070
     2
1000
-2001160
1002
}
  0
LINE
  5
2A8
330
2A2
100
AcDbEntity
  8
Pressure_Balance_Rough_Valve-GROHE-35111000
100
AcDbLine
 10
1.129596651779345
 20
-0.0000000000024849
 30
0.0
 11
1.129596651779345
 21
-0.454936356001741
 31
0.0
1001
REVIT
1002
{
1070
     1
1000
171467
1002
}
1002
{
1070
     2
1000
-2001160
1002
}
  0
LINE
  5
2A9
330
2A2
100
AcDbEntity
  8
Pressure_Balance_Rough_Valve-GROHE-35111000
100
AcDbLine
 10
1.031250000000217
 20
-0.4549363560017572
 30
0.0
 11
1.031250000000217
 21
-0.5076531731851225
 31
0.0
1001
REVIT
1002
{
1070
     1
1000
171467
1002
}
1002
{
1070
     2
1000
-2001160
1002
}
  0
LINE
  5
2AA
330
2A2
100
AcDbEntity
  8
Pressure_Balance_Rough_Valve-GROHE-35111000
100
AcDbLine
 10
1.031250000000217
 20
-0.5076531731851225
 30
0.0
 11
1.17692055056463
 21
-0.5076531731851219
 31
0.0
1001
REVIT
1002
{
1070
     1
1000
171467
1002
}
1002
{
1070
     2
1000
-2001160
1002
}
  0
LINE
  5
2AB
330
2A2
100
AcDbEntity
  8
Pressure_Balance_Rough_Valve-GROHE-35111000
100
AcDbLine
 10
1.17692055056463
 20
-0.5076531731851219
 30
0.0
 11
1.17692055056463
 21
-0.5789475311934867
 31
0.0
1001
REVIT
1002
{
1070
     1
1000
171467
1002
}
1002
{
1070
     2
1000
-2001160
1002
}
  0
LINE
  5
2AC
330
2A2
100
AcDbEntity
  8
Pressure_Balance_Rough_Valve-GROHE-35111000
100
AcDbLine
 10
1.17692055056463
 20
-0.5789475311934867
 30
0.0
 11
1.812500000000663
 21
-0.5789475311934867
 31
0.0
1001
REVIT
1002
{
1070
     1
1000
171467
1002
}
1002
{
1070
     2
1000
-2001160
1002
}
  0
LINE
  5
2AD
330
2A2
100
AcDbEntity
  8
Pressure_Balance_Rough_Valve-GROHE-35111000
100
AcDbLine
 10
1.812500000000663
 20
-0.5789475311934867
 30
0.0
 11
1.812500000000663
 21
-1.421052468804002
 31
0.0
1001
REVIT
1002
{
1070
     1
1000
171467
1002
}
1002
{
1070
     2
1000
-2001160
1002
}
  0
LINE
  5
2AE
330
2A2
100
AcDbEntity
  8
Pressure_Balance_Rough_Valve-GROHE-35111000
100
AcDbLine
 10
1.812500000000663
 20
-1.421052468804002
 30
0.0
 11
1.176920550564484
 21
-1.421052468804002
 31
0.0
1001
REVIT
1002
{
1070
     1
1000
171467
1002
}
1002
{
1070
     2
1000
-2001160
1002
}
  0
LINE
  5
2AF
330
2A2
100
AcDbEntity
  8
Pressure_Balance_Rough_Valve-GROHE-35111000
100
AcDbLine
 10
1.176920550564484
 20
-1.421052468804002
 30
0.0
 11
1.176920550564484
 21
-1.492346826812418
 31
0.0
1001
REVIT
1002
{
1070
     1
1000
171467
1002
}
1002
{
1070
     2
1000
-2001160
1002
}
  0
LINE
  5
2B0
330
2A2
100
AcDbEntity
  8
Pressure_Balance_Rough_Valve-GROHE-35111000
100
AcDbLine
 10
1.176920550564484
 20
-1.492346826812418
 30
0.0
 11
1.031250000000217
 21
-1.492346826812418
 31
0.0
1001
REVIT
1002
{
1070
     1
1000
171467
1002
}
1002
{
1070
     2
1000
-2001160
1002
}
  0
LINE
  5
2B1
330
2A2
100
AcDbEntity
  8
Pressure_Balance_Rough_Valve-GROHE-35111000
100
AcDbLine
 10
1.031250000000217
 20
-1.492346826812418
 30
0.0
 11
1.031250000000217
 21
-1.999999999997508
 31
0.0
1001
REVIT
1002
{
1070
     1
1000
171467
1002
}
1002
{
1070
     2
1000
-2001160
1002
}
  0
LINE
  5
2B2
330
2A2
100
AcDbEntity
  8
Pressure_Balance_Rough_Valve-GROHE-35111000
100
AcDbLine
 10
1.031250000000205
 20
-1.999999999997537
 30
0.0
 11
-1.031250000000253
 21
-1.999999999997508
 31
0.0
1001
REVIT
1002
{
1070
     1
1000
171467
1002
}
1002
{
1070
     2
1000
-2001160
1002
}
  0
LINE
  5
2B3
330
2A2
100
AcDbEntity
  8
Pressure_Balance_Rough_Valve-GROHE-35111000
100
AcDbLine
 10
-1.031250000000231
 20
-1.999999999997508
 30
0.0
 11
-1.031250000000231
 21
-1.492346826812417
 31
0.0
1001
REVIT
1002
{
1070
     1
1000
171467
1002
}
1002
{
1070
     2
1000
-2001160
1002
}
  0
LINE
  5
2B4
330
2A2
100
AcDbEntity
  8
Pressure_Balance_Rough_Valve-GROHE-35111000
100
AcDbLine
 10
-1.031250000000231
 20
-1.492346826812417
 30
0.0
 11
-1.176920550563433
 21
-1.492346826812418
 31
0.0
1001
REVIT
1002
{
1070
     1
1000
171467
1002
}
1002
{
1070
     2
1000
-2001160
1002
}
  0
LINE
  5
2B5
330
2A2
100
AcDbEntity
  8
Pressure_Balance_Rough_Valve-GROHE-35111000
100
AcDbLine
 10
-1.176920550563433
 20
-1.492346826812418
 30
0.0
 11
-1.176920550563434
 21
-1.421052468804002
 31
0.0
1001
REVIT
1002
{
1070
     1
1000
171467
1002
}
1002
{
1070
     2
1000
-2001160
1002
}
  0
LINE
  5
2B6
330
2A2
100
AcDbEntity
  8
Pressure_Balance_Rough_Valve-GROHE-35111000
100
AcDbLine
 10
-1.176920550563434
 20
-1.421052468804002
 30
0.0
 11
-1.8125
 21
-1.421052468804002
 31
0.0
1001
REVIT
1002
{
1070
     1
1000
171467
1002
}
1002
{
1070
     2
1000
-2001160
1002
}
  0
LINE
  5
2B7
330
2A2
100
AcDbEntity
  8
Pressure_Balance_Rough_Valve-GROHE-35111000
100
AcDbLine
 10
-1.8125
 20
-1.421052468804002
 30
0.0
 11
-1.812499999999999
 21
-0.5789475311934867
 31
0.0
1001
REVIT
1002
{
1070
     1
1000
171467
1002
}
1002
{
1070
     2
1000
-2001160
1002
}
  0
LINE
  5
2B8
330
2A2
100
AcDbEntity
  8
Pressure_Balance_Rough_Valve-GROHE-35111000
100
AcDbLine
 10
-1.812499999999999
 20
-0.5789475311934867
 30
0.0
 11
-1.176920550564635
 21
-0.5789475311934867
 31
0.0
1001
REVIT
1002
{
1070
     1
1000
171467
1002
}
1002
{
1070
     2
1000
-2001160
1002
}
  0
LINE
  5
2B9
330
2A2
100
AcDbEntity
  8
Pressure_Balance_Rough_Valve-GROHE-35111000
100
AcDbLine
 10
-1.176920550564635
 20
-0.5789475311934867
 30
0.0
 11
-1.176920550564635
 21
-0.5076531731851038
 31
0.0
1001
REVIT
1002
{
1070
     1
1000
171467
1002
}
1002
{
1070
     2
1000
-2001160
1002
}
  0
LINE
  5
2BA
330
2A2
100
AcDbEntity
  8
Pressure_Balance_Rough_Valve-GROHE-35111000
100
AcDbLine
 10
-1.176920550564633
 20
-0.5076531731851219
 30
0.0
 11
-1.031250000000231
 21
-0.5076531731851216
 31
0.0
1001
REVIT
1002
{
1070
     1
1000
171467
1002
}
1002
{
1070
     2
1000
-2001160
1002
}
  0
LINE
  5
2BB
330
2A2
100
AcDbEntity
  8
Pressure_Balance_Rough_Valve-GROHE-35111000
100
AcDbLine
 10
-1.031250000000231
 20
-0.5076531731851216
 30
0.0
 11
-1.031250000000231
 21
-0.4549363560017286
 31
0.0
1001
REVIT
1002
{
1070
     1
1000
171467
1002
}
1002
{
1070
     2
1000
-2001160
1002
}
  0
LINE
  5
2BC
330
2A2
100
AcDbEntity
  8
Pressure_Balance_Rough_Valve-GROHE-35111000
100
AcDbLine
 10
-1.129596651779345
 20
-0.454936356001727
 30
0.0
 11
-1.129596651779345
 21
0.0000000000024849
 31
0.0
1001
REVIT
1002
{
1070
     1
1000
171467
1002
}
1002
{
1070
     2
1000
-2001160
1002
}
  0
LINE
  5
2BD
330
2A2
100
AcDbEntity
  8
Pressure_Balance_Rough_Valve-GROHE-35111000
100
AcDbLine
 10
-1.129596651779345
 20
0.0000000000024849
 30
0.0
 11
1.129596651779345
 21
-0.0000000000024849
 31
0.0
1001
REVIT
1002
{
1070
     1
1000
171467
1002
}
1002
{
1070
     2
1000
-2001160
1002
}
  0
LINE
  5
2BE
330
2A2
100
AcDbEntity
  8
Pressure_Balance_Rough_Valve-GROHE-35111000
100
AcDbLine
 10
-1.129596651779352
 20
-0.454936356001727
 30
0.0
 11
1.129596651779338
 21
-0.4549363560017588
 31
0.0
1001
REVIT
1002
{
1070
     1
1000
172981
1002
}
1002
{
1070
     2
1000
-2001160
1002
}
  0
CIRCLE
  5
2BF
330
2A2
100
AcDbEntity
  8
Pressure_Balance_Rough_Valve-GROHE-35111000
100
AcDbCircle
 10
-0.0000000000000062
 20
-0.9999999999950521
 30
0.0
 40
0.4154093313488539
1001
REVIT
1002
{
1070
     1
1000
172988
1002
}
1002
{
1070
     2
1000
-2001160
1002
}
  0
CIRCLE
  5
2C0
330
2A2
100
AcDbEntity
  8
Pressure_Balance_Rough_Valve-GROHE-35111000
100
AcDbCircle
 10
-0.0000000000000062
 20
-0.9999999999950521
 30
0.0
 40
0.2500000000303518
1001
REVIT
1002
{
1070
     1
1000
172995
1002
}
1002
{
1070
     2
1000
-2001160
1002
}
  0
CIRCLE
  5
2C1
330
2A2
100
AcDbEntity
  8
Pressure_Balance_Rough_Valve-GROHE-35111000
100
AcDbCircle
 10
-0.0000000000000151
 20
-0.9999999999962563
 30
0.0
 40
0.5000000000390172
1001
REVIT
1002
{
1070
     1
1000
173002
1002
}
1002
{
1070
     2
1000
-2001160
1002
}
  0
CIRCLE
  5
2C2
330
2A2
100
AcDbEntity
  8
Pressure_Balance_Rough_Valve-GROHE-35111000
100
AcDbCircle
 10
0.0000000000003402
 20
-0.9999999999950521
 30
0.0
 40
0.3125000000000002
1001
REVIT
1002
{
1070
     1
1000
173032
1002
}
1002
{
1070
     2
1000
-2001160
1002
}
  0
LINE
  5
2C3
330
2A2
100
AcDbEntity
  8
Pressure_Balance_Rough_Valve-GROHE-35111000
100
AcDbLine
 10
-0.0000000000000151
 20
-0.9999999999962563
 30
0.0
 11
-0.0000000000000151
 21
-0.9999999999962563
 31
0.0
1001
REVIT
1002
{
1070
     1
1000
203860
1002
}
1002
{
1070
     2
1000
-2007000
1002
}
  0
ENDBLK
  5
2A4
330
2A2
100
AcDbEntity
  8
0
100
AcDbBlockEnd
  0
BLOCK
  5
2C6
330
2C5
100
AcDbEntity
  8
0
100
AcDbBlockBegin
  2
Pressure_Balance_Rough_Valve-GROHE-35111000- Front
 70
     0
 10
0.0
 20
0.0
 30
0.0
  3
Pressure_Balance_Rough_Valve-GROHE-35111000- Front
  1

  0
LINE
  5
2C8
330
2C5
100
AcDbEntity
  8
Pressure_Balance_Rough_Valve-GROHE-35111000
100
AcDbLine
 10
-1.550846371265454
 20
-0.5000000000386643
 30
0.0
 11
-1.484683023224778
 21
-1.176920550564156
 31
0.0
1001
REVIT
1002
{
1070
     1
1000
122706
1002
}
1002
{
1070
     2
1000
-2000051
1002
}
1002
{
1070
     3
1000
-2000287
1002
}
  0
ARC
  5
2C9
330
2C5
100
AcDbEntity
  8
Pressure_Balance_Rough_Valve-GROHE-35111000
100
AcDbCircle
 10
-1.349102328922803
 20
-1.163668666487458
 30
0.0
 40
0.1362267855415661
100
AcDbArc
 50
185.5824532876381
 51
354.4175467123595
1001
REVIT
1002
{
1070
     1
1000
122706
1002
}
1002
{
1070
     2
1000
-2000051
1002
}
1002
{
1070
     3
1000
-2000287
1002
}
  0
LINE
  5
2CA
330
2C5
100
AcDbEntity
  8
Pressure_Balance_Rough_Valve-GROHE-35111000
100
AcDbLine
 10
-1.213521634620827
 20
-1.176920550564155
 30
0.0
 11
-1.147358286580154
 21
-0.5000000000386641
 31
0.0
1001
REVIT
1002
{
1070
     1
1000
122706
1002
}
1002
{
1070
     2
1000
-2000051
1002
}
1002
{
1070
     3
1000
-2000287
1002
}
  0
LINE
  5
2CB
330
2C5
100
AcDbEntity
  8
Pressure_Balance_Rough_Valve-GROHE-35111000
100
AcDbLine
 10
1.613346371266926
 20
0.5000000000393515
 30
0.0
 11
1.547183023226374
 21
1.176920550563764
 31
0.0
1001
REVIT
1002
{
1070
     1
1000
122706
1002
}
1002
{
1070
     2
1000
-2000051
1002
}
1002
{
1070
     3
1000
-2000287
1002
}
  0
ARC
  5
2CC
330
2C5
100
AcDbEntity
  8
Pressure_Balance_Rough_Valve-GROHE-35111000
100
AcDbCircle
 10
1.411602328924399
 20
1.16366866648707
 30
0.0
 40
0.1362267855415659
100
AcDbArc
 50
5.582453287637932
 51
174.417546712362
1001
REVIT
1002
{
1070
     1
1000
122706
1002
}
1002
{
1070
     2
1000
-2000051
1002
}
1002
{
1070
     3
1000
-2000287
1002
}
  0
LINE
  5
2CD
330
2C5
100
AcDbEntity
  8
Pressure_Balance_Rough_Valve-GROHE-35111000
100
AcDbLine
 10
1.276021634622425
 20
1.176920550563762
 30
0.0
 11
1.20985828658188
 21
0.5000000000393515
 31
0.0
1001
REVIT
1002
{
1070
     1
1000
122706
1002
}
1002
{
1070
     2
1000
-2000051
1002
}
1002
{
1070
     3
1000
-2000287
1002
}
  0
ARC
  5
2CE
330
2C5
100
AcDbEntity
  8
Pressure_Balance_Rough_Valve-GROHE-35111000
100
AcDbCircle
 10
-1.442852328922808
 20
0.0000000000003321
 30
0.0
 40
0.2285958673326125
100
AcDbArc
 50
311.1123012345891
 51
228.8877186132535
1001
REVIT
1002
{
1070
     1
1000
130422
1002
}
1002
{
1070
     2
1000
-2000051
1002
}
1002
{
1070
     3
1000
-2000287
1002
}
  0
ARC
  5
2CF
330
2C5
100
AcDbEntity
  8
Pressure_Balance_Rough_Valve-GROHE-35111000
100
AcDbCircle
 10
-1.442852328922808
 20
0.0000000000003322
 30
0.0
 40
0.2285958673326128
100
AcDbArc
 50
228.8876912649824
 51
311.1123012345891
1001
REVIT
1002
{
1070
     1
1000
130422
1002
}
1002
{
1070
     2
1000
-2000051
1002
}
1002
{
1070
     3
1000
-2000287
1002
}
  0
ARC
  5
2D0
330
2C5
100
AcDbEntity
  8
Pressure_Balance_Rough_Valve-GROHE-35111000
100
AcDbCircle
 10
1.442852328924406
 20
0.0000000000003437
 30
0.0
 40
0.2337996174480111
100
AcDbArc
 50
219.9984487419916
 51
320.0015695387053
1001
REVIT
1002
{
1070
     1
1000
131792
1002
}
1002
{
1070
     2
1000
-2000051
1002
}
1002
{
1070
     3
1000
-2000287
1002
}
  0
ARC
  5
2D1
330
2C5
100
AcDbEntity
  8
Pressure_Balance_Rough_Valve-GROHE-35111000
100
AcDbCircle
 10
1.442852328924407
 20
0.0000000000003435
 30
0.0
 40
0.2337996174480106
100
AcDbArc
 50
320.0015695387053
 51
219.9984503091374
1001
REVIT
1002
{
1070
     1
1000
131792
1002
}
1002
{
1070
     2
1000
-2000051
1002
}
1002
{
1070
     3
1000
-2000287
1002
}
  0
LINE
  5
2D2
330
2C5
100
AcDbEntity
  8
Pressure_Balance_Rough_Valve-GROHE-35111000
100
AcDbLine
 10
1.812500000000327
 20
0.5000000000393516
 30
0.0
 11
1.01291095150201
 21
0.5000000000393517
 31
0.0
1001
REVIT
1002
{
1070
     1
1000
158160
1002
}
1002
{
1070
     2
1000
-2000051
1002
}
1002
{
1070
     3
1000
-2000287
1002
}
  0
LINE
  5
2D3
330
2C5
100
AcDbEntity
  8
Pressure_Balance_Rough_Valve-GROHE-35111000
100
AcDbLine
 10
-1.012910951501398
 20
0.5000000000393517
 30
0.0
 11
-1.812499999999734
 21
0.5000000000393516
 31
0.0
1001
REVIT
1002
{
1070
     1
1000
158160
1002
}
1002
{
1070
     2
1000
-2000051
1002
}
1002
{
1070
     3
1000
-2000287
1002
}
  0
LINE
  5
2D4
330
2C5
100
AcDbEntity
  8
Pressure_Balance_Rough_Valve-GROHE-35111000
100
AcDbLine
 10
-1.812499999999734
 20
-0.500000000038665
 30
0.0
 11
-1.012910951501411
 21
-0.5000000000386652
 31
0.0
1001
REVIT
1002
{
1070
     1
1000
158160
1002
}
1002
{
1070
     2
1000
-2000051
1002
}
1002
{
1070
     3
1000
-2000287
1002
}
  0
LINE
  5
2D5
330
2C5
100
AcDbEntity
  8
Pressure_Balance_Rough_Valve-GROHE-35111000
100
AcDbLine
 10
1.012910951502024
 20
-0.5000000000386652
 30
0.0
 11
1.812500000000327
 21
-0.500000000038665
 31
0.0
1001
REVIT
1002
{
1070
     1
1000
158160
1002
}
1002
{
1070
     2
1000
-2000051
1002
}
1002
{
1070
     3
1000
-2000287
1002
}
  0
LINE
  5
2D6
330
2C5
100
AcDbEntity
  8
Pressure_Balance_Rough_Valve-GROHE-35111000
100
AcDbLine
 10
-2.371263375908119
 20
0.2312194618311154
 30
0.0
 11
-2.437499999999202
 21
0.2312194618311154
 31
0.0
1001
REVIT
1002
{
1070
     1
1000
158160
1002
}
1002
{
1070
     2
1000
-2000051
1002
}
1002
{
1070
     3
1000
-2000287
1002
}
  0
LINE
  5
2D7
330
2C5
100
AcDbEntity
  8
Pressure_Balance_Rough_Valve-GROHE-35111000
100
AcDbLine
 10
-2.437499999999202
 20
-0.2312194618304288
 30
0.0
 11
-2.371263375908119
 21
-0.2312194618304288
 31
0.0
1001
REVIT
1002
{
1070
     1
1000
158160
1002
}
1002
{
1070
     2
1000
-2000051
1002
}
1002
{
1070
     3
1000
-2000287
1002
}
  0
LINE
  5
2D8
330
2C5
100
AcDbEntity
  8
Pressure_Balance_Rough_Valve-GROHE-35111000
100
AcDbLine
 10
-1.812499999999734
 20
0.2312194618311154
 30
0.0
 11
-2.077019561696869
 21
0.2312194618311154
 31
0.0
1001
REVIT
1002
{
1070
     1
1000
158160
1002
}
1002
{
1070
     2
1000
-2000051
1002
}
1002
{
1070
     3
1000
-2000287
1002
}
  0
LINE
  5
2D9
330
2C5
100
AcDbEntity
  8
Pressure_Balance_Rough_Valve-GROHE-35111000
100
AcDbLine
 10
-2.077019561696869
 20
-0.2312194618304288
 30
0.0
 11
-1.812499999999734
 21
-0.2312194618304288
 31
0.0
1001
REVIT
1002
{
1070
     1
1000
158160
1002
}
1002
{
1070
     2
1000
-2000051
1002
}
1002
{
1070
     3
1000
-2000287
1002
}
  0
LINE
  5
2DA
330
2C5
100
AcDbEntity
  8
Pressure_Balance_Rough_Valve-GROHE-35111000
100
AcDbLine
 10
-2.077019561696869
 20
0.2681734926309848
 30
0.0
 11
-2.121566433967895
 21
0.2681734926309848
 31
0.0
1001
REVIT
1002
{
1070
     1
1000
158160
1002
}
1002
{
1070
     2
1000
-2000051
1002
}
1002
{
1070
     3
1000
-2000287
1002
}
  0
LINE
  5
2DB
330
2C5
100
AcDbEntity
  8
Pressure_Balance_Rough_Valve-GROHE-35111000
100
AcDbLine
 10
-2.121566433967895
 20
-0.2681734926302983
 30
0.0
 11
-2.077019561696869
 21
-0.2681734926302983
 31
0.0
1001
REVIT
1002
{
1070
     1
1000
158160
1002
}
1002
{
1070
     2
1000
-2000051
1002
}
1002
{
1070
     3
1000
-2000287
1002
}
  0
LINE
  5
2DC
330
2C5
100
AcDbEntity
  8
Pressure_Balance_Rough_Valve-GROHE-35111000
100
AcDbLine
 10
-2.121566433967895
 20
0.2312194618311154
 30
0.0
 11
-2.202454175723179
 21
0.2312194618311154
 31
0.0
1001
REVIT
1002
{
1070
     1
1000
158160
1002
}
1002
{
1070
     2
1000
-2000051
1002
}
1002
{
1070
     3
1000
-2000287
1002
}
  0
LINE
  5
2DD
330
2C5
100
AcDbEntity
  8
Pressure_Balance_Rough_Valve-GROHE-35111000
100
AcDbLine
 10
-2.202454175723179
 20
-0.2312194618304288
 30
0.0
 11
-2.121566433967895
 21
-0.2312194618304288
 31
0.0
1001
REVIT
1002
{
1070
     1
1000
158160
1002
}
1002
{
1070
     2
1000
-2000051
1002
}
1002
{
1070
     3
1000
-2000287
1002
}
  0
LINE
  5
2DE
330
2C5
100
AcDbEntity
  8
Pressure_Balance_Rough_Valve-GROHE-35111000
100
AcDbLine
 10
-2.202454175723179
 20
0.2681734926309848
 30
0.0
 11
-2.247001047994205
 21
0.2681734926309848
 31
0.0
1001
REVIT
1002
{
1070
     1
1000
158160
1002
}
1002
{
1070
     2
1000
-2000051
1002
}
1002
{
1070
     3
1000
-2000287
1002
}
  0
LINE
  5
2DF
330
2C5
100
AcDbEntity
  8
Pressure_Balance_Rough_Valve-GROHE-35111000
100
AcDbLine
 10
-2.247001047994205
 20
-0.2681734926302983
 30
0.0
 11
-2.202454175723179
 21
-0.2681734926302983
 31
0.0
1001
REVIT
1002
{
1070
     1
1000
158160
1002
}
1002
{
1070
     2
1000
-2000051
1002
}
1002
{
1070
     3
1000
-2000287
1002
}
  0
LINE
  5
2E0
330
2C5
100
AcDbEntity
  8
Pressure_Balance_Rough_Valve-GROHE-35111000
100
AcDbLine
 10
-2.247001047994205
 20
0.2312194618311154
 30
0.0
 11
-2.326716503637093
 21
0.2312194618311154
 31
0.0
1001
REVIT
1002
{
1070
     1
1000
158160
1002
}
1002
{
1070
     2
1000
-2000051
1002
}
1002
{
1070
     3
1000
-2000287
1002
}
  0
LINE
  5
2E1
330
2C5
100
AcDbEntity
  8
Pressure_Balance_Rough_Valve-GROHE-35111000
100
AcDbLine
 10
-2.326716503637093
 20
-0.2312194618304288
 30
0.0
 11
-2.247001047994205
 21
-0.2312194618304288
 31
0.0
1001
REVIT
1002
{
1070
     1
1000
158160
1002
}
1002
{
1070
     2
1000
-2000051
1002
}
1002
{
1070
     3
1000
-2000287
1002
}
  0
LINE
  5
2E2
330
2C5
100
AcDbEntity
  8
Pressure_Balance_Rough_Valve-GROHE-35111000
100
AcDbLine
 10
-2.326716503637093
 20
0.2681734926309848
 30
0.0
 11
-2.371263375908119
 21
0.2681734926309848
 31
0.0
1001
REVIT
1002
{
1070
     1
1000
158160
1002
}
1002
{
1070
     2
1000
-2000051
1002
}
1002
{
1070
     3
1000
-2000287
1002
}
  0
LINE
  5
2E3
330
2C5
100
AcDbEntity
  8
Pressure_Balance_Rough_Valve-GROHE-35111000
100
AcDbLine
 10
-2.371263375908119
 20
-0.2681734926302983
 30
0.0
 11
-2.326716503637093
 21
-0.2681734926302983
 31
0.0
1001
REVIT
1002
{
1070
     1
1000
158160
1002
}
1002
{
1070
     2
1000
-2000051
1002
}
1002
{
1070
     3
1000
-2000287
1002
}
  0
LINE
  5
2E4
330
2C5
100
AcDbEntity
  8
Pressure_Balance_Rough_Valve-GROHE-35111000
100
AcDbLine
 10
2.437499999999798
 20
0.2312194618311154
 30
0.0
 11
2.371263375908714
 21
0.2312194618311154
 31
0.0
1001
REVIT
1002
{
1070
     1
1000
158160
1002
}
1002
{
1070
     2
1000
-2000051
1002
}
1002
{
1070
     3
1000
-2000287
1002
}
  0
LINE
  5
2E5
330
2C5
100
AcDbEntity
  8
Pressure_Balance_Rough_Valve-GROHE-35111000
100
AcDbLine
 10
2.371263375908714
 20
-0.2312194618304302
 30
0.0
 11
2.437499999999798
 21
-0.2312194618304302
 31
0.0
1001
REVIT
1002
{
1070
     1
1000
158160
1002
}
1002
{
1070
     2
1000
-2000051
1002
}
1002
{
1070
     3
1000
-2000287
1002
}
  0
LINE
  5
2E6
330
2C5
100
AcDbEntity
  8
Pressure_Balance_Rough_Valve-GROHE-35111000
100
AcDbLine
 10
2.371263375908714
 20
0.2681734926309835
 30
0.0
 11
2.326716503637688
 21
0.2681734926309835
 31
0.0
1001
REVIT
1002
{
1070
     1
1000
158160
1002
}
1002
{
1070
     2
1000
-2000051
1002
}
1002
{
1070
     3
1000
-2000287
1002
}
  0
LINE
  5
2E7
330
2C5
100
AcDbEntity
  8
Pressure_Balance_Rough_Valve-GROHE-35111000
100
AcDbLine
 10
2.326716503637688
 20
-0.2681734926302957
 30
0.0
 11
2.371263375908714
 21
-0.2681734926302957
 31
0.0
1001
REVIT
1002
{
1070
     1
1000
158160
1002
}
1002
{
1070
     2
1000
-2000051
1002
}
1002
{
1070
     3
1000
-2000287
1002
}
  0
LINE
  5
2E8
330
2C5
100
AcDbEntity
  8
Pressure_Balance_Rough_Valve-GROHE-35111000
100
AcDbLine
 10
2.326716503637688
 20
0.231219461831114
 30
0.0
 11
2.2470010479948
 21
0.231219461831114
 31
0.0
1001
REVIT
1002
{
1070
     1
1000
158160
1002
}
1002
{
1070
     2
1000
-2000051
1002
}
1002
{
1070
     3
1000
-2000287
1002
}
  0
LINE
  5
2E9
330
2C5
100
AcDbEntity
  8
Pressure_Balance_Rough_Valve-GROHE-35111000
100
AcDbLine
 10
2.2470010479948
 20
-0.2312194618304275
 30
0.0
 11
2.326716503637688
 21
-0.2312194618304275
 31
0.0
1001
REVIT
1002
{
1070
     1
1000
158160
1002
}
1002
{
1070
     2
1000
-2000051
1002
}
1002
{
1070
     3
1000
-2000287
1002
}
  0
LINE
  5
2EA
330
2C5
100
AcDbEntity
  8
Pressure_Balance_Rough_Valve-GROHE-35111000
100
AcDbLine
 10
2.2470010479948
 20
0.2681734926210754
 30
0.0
 11
2.202454175723774
 21
0.2681734926210754
 31
0.0
1001
REVIT
1002
{
1070
     1
1000
158160
1002
}
1002
{
1070
     2
1000
-2000051
1002
}
1002
{
1070
     3
1000
-2000287
1002
}
  0
LINE
  5
2EB
330
2C5
100
AcDbEntity
  8
Pressure_Balance_Rough_Valve-GROHE-35111000
100
AcDbLine
 10
2.202454175723774
 20
-0.2681734926203889
 30
0.0
 11
2.2470010479948
 21
-0.2681734926203889
 31
0.0
1001
REVIT
1002
{
1070
     1
1000
158160
1002
}
1002
{
1070
     2
1000
-2000051
1002
}
1002
{
1070
     3
1000
-2000287
1002
}
  0
LINE
  5
2EC
330
2C5
100
AcDbEntity
  8
Pressure_Balance_Rough_Valve-GROHE-35111000
100
AcDbLine
 10
2.202454175723774
 20
0.2312194618212073
 30
0.0
 11
2.121566433968493
 21
0.2312194618212073
 31
0.0
1001
REVIT
1002
{
1070
     1
1000
158160
1002
}
1002
{
1070
     2
1000
-2000051
1002
}
1002
{
1070
     3
1000
-2000287
1002
}
  0
LINE
  5
2ED
330
2C5
100
AcDbEntity
  8
Pressure_Balance_Rough_Valve-GROHE-35111000
100
AcDbLine
 10
2.121566433968493
 20
-0.2312194618205194
 30
0.0
 11
2.202454175723774
 21
-0.2312194618205194
 31
0.0
1001
REVIT
1002
{
1070
     1
1000
158160
1002
}
1002
{
1070
     2
1000
-2000051
1002
}
1002
{
1070
     3
1000
-2000287
1002
}
  0
LINE
  5
2EE
330
2C5
100
AcDbEntity
  8
Pressure_Balance_Rough_Valve-GROHE-35111000
100
AcDbLine
 10
2.121566433968493
 20
0.2681734926309555
 30
0.0
 11
2.077019561697467
 21
0.2681734926309555
 31
0.0
1001
REVIT
1002
{
1070
     1
1000
158160
1002
}
1002
{
1070
     2
1000
-2000051
1002
}
1002
{
1070
     3
1000
-2000287
1002
}
  0
LINE
  5
2EF
330
2C5
100
AcDbEntity
  8
Pressure_Balance_Rough_Valve-GROHE-35111000
100
AcDbLine
 10
2.077019561697467
 20
-0.268173492630269
 30
0.0
 11
2.121566433968493
 21
-0.268173492630269
 31
0.0
1001
REVIT
1002
{
1070
     1
1000
158160
1002
}
1002
{
1070
     2
1000
-2000051
1002
}
1002
{
1070
     3
1000
-2000287
1002
}
  0
LINE
  5
2F0
330
2C5
100
AcDbEntity
  8
Pressure_Balance_Rough_Valve-GROHE-35111000
100
AcDbLine
 10
2.077019561697467
 20
0.2312194618261393
 30
0.0
 11
1.812500000000327
 21
0.2312194618261393
 31
0.0
1001
REVIT
1002
{
1070
     1
1000
158160
1002
}
1002
{
1070
     2
1000
-2000051
1002
}
1002
{
1070
     3
1000
-2000287
1002
}
  0
LINE
  5
2F1
330
2C5
100
AcDbEntity
  8
Pressure_Balance_Rough_Valve-GROHE-35111000
100
AcDbLine
 10
1.812500000000327
 20
-0.2312194618254528
 30
0.0
 11
2.077019561697467
 21
-0.2312194618254528
 31
0.0
1001
REVIT
1002
{
1070
     1
1000
158160
1002
}
1002
{
1070
     2
1000
-2000051
1002
}
1002
{
1070
     3
1000
-2000287
1002
}
  0
LINE
  5
2F2
330
2C5
100
AcDbEntity
  8
Pressure_Balance_Rough_Valve-GROHE-35111000
100
AcDbLine
 10
1.812500000000327
 20
-0.5000000000386641
 30
0.0
 11
1.812500000000327
 21
0.5000000000393513
 31
0.0
1001
REVIT
1002
{
1070
     1
1000
158160
1002
}
1002
{
1070
     2
1000
-2000051
1002
}
1002
{
1070
     3
1000
-2000287
1002
}
  0
LINE
  5
2F3
330
2C5
100
AcDbEntity
  8
Pressure_Balance_Rough_Valve-GROHE-35111000
100
AcDbLine
 10
-1.812499999999732
 20
0.5000000000393513
 30
0.0
 11
-1.812499999999732
 21
-0.5000000000386641
 31
0.0
1001
REVIT
1002
{
1070
     1
1000
158160
1002
}
1002
{
1070
     2
1000
-2000051
1002
}
1002
{
1070
     3
1000
-2000287
1002
}
  0
LINE
  5
2F4
330
2C5
100
AcDbEntity
  8
Pressure_Balance_Rough_Valve-GROHE-35111000
100
AcDbLine
 10
-2.437499999999201
 20
0.2312194618311159
 30
0.0
 11
-2.437499999999201
 21
-0.2312194618304286
 31
0.0
1001
REVIT
1002
{
1070
     1
1000
158160
1002
}
1002
{
1070
     2
1000
-2000051
1002
}
1002
{
1070
     3
1000
-2000287
1002
}
  0
LINE
  5
2F5
330
2C5
100
AcDbEntity
  8
Pressure_Balance_Rough_Valve-GROHE-35111000
100
AcDbLine
 10
-2.077019561696868
 20
0.2681734926309848
 30
0.0
 11
-2.077019561696868
 21
-0.2681734926302977
 31
0.0
1001
REVIT
1002
{
1070
     1
1000
158160
1002
}
1002
{
1070
     2
1000
-2000051
1002
}
1002
{
1070
     3
1000
-2000287
1002
}
  0
LINE
  5
2F6
330
2C5
100
AcDbEntity
  8
Pressure_Balance_Rough_Valve-GROHE-35111000
100
AcDbLine
 10
-2.121566433967894
 20
0.2681734926309848
 30
0.0
 11
-2.121566433967894
 21
-0.2681734926302977
 31
0.0
1001
REVIT
1002
{
1070
     1
1000
158160
1002
}
1002
{
1070
     2
1000
-2000051
1002
}
1002
{
1070
     3
1000
-2000287
1002
}
  0
LINE
  5
2F7
330
2C5
100
AcDbEntity
  8
Pressure_Balance_Rough_Valve-GROHE-35111000
100
AcDbLine
 10
-2.202454175723177
 20
0.2681734926309848
 30
0.0
 11
-2.202454175723177
 21
-0.2681734926302977
 31
0.0
1001
REVIT
1002
{
1070
     1
1000
158160
1002
}
1002
{
1070
     2
1000
-2000051
1002
}
1002
{
1070
     3
1000
-2000287
1002
}
  0
LINE
  5
2F8
330
2C5
100
AcDbEntity
  8
Pressure_Balance_Rough_Valve-GROHE-35111000
100
AcDbLine
 10
-2.247001047994202
 20
0.2681734926309848
 30
0.0
 11
-2.247001047994202
 21
-0.2681734926302977
 31
0.0
1001
REVIT
1002
{
1070
     1
1000
158160
1002
}
1002
{
1070
     2
1000
-2000051
1002
}
1002
{
1070
     3
1000
-2000287
1002
}
  0
LINE
  5
2F9
330
2C5
100
AcDbEntity
  8
Pressure_Balance_Rough_Valve-GROHE-35111000
100
AcDbLine
 10
-2.32671650363709
 20
0.2681734926309848
 30
0.0
 11
-2.32671650363709
 21
-0.2681734926302977
 31
0.0
1001
REVIT
1002
{
1070
     1
1000
158160
1002
}
1002
{
1070
     2
1000
-2000051
1002
}
1002
{
1070
     3
1000
-2000287
1002
}
  0
LINE
  5
2FA
330
2C5
100
AcDbEntity
  8
Pressure_Balance_Rough_Valve-GROHE-35111000
100
AcDbLine
 10
-2.371263375908116
 20
0.2681734926309848
 30
0.0
 11
-2.371263375908116
 21
-0.2681734926302977
 31
0.0
1001
REVIT
1002
{
1070
     1
1000
158160
1002
}
1002
{
1070
     2
1000
-2000051
1002
}
1002
{
1070
     3
1000
-2000287
1002
}
  0
LINE
  5
2FB
330
2C5
100
AcDbEntity
  8
Pressure_Balance_Rough_Valve-GROHE-35111000
100
AcDbLine
 10
2.437499999999796
 20
0.2312194618311167
 30
0.0
 11
2.437499999999796
 21
-0.2312194618304295
 31
0.0
1001
REVIT
1002
{
1070
     1
1000
158160
1002
}
1002
{
1070
     2
1000
-2000051
1002
}
1002
{
1070
     3
1000
-2000287
1002
}
  0
LINE
  5
2FC
330
2C5
100
AcDbEntity
  8
Pressure_Balance_Rough_Valve-GROHE-35111000
100
AcDbLine
 10
2.371263375908712
 20
0.2681734926309825
 30
0.0
 11
2.371263375908712
 21
-0.2681734926302953
 31
0.0
1001
REVIT
1002
{
1070
     1
1000
158160
1002
}
1002
{
1070
     2
1000
-2000051
1002
}
1002
{
1070
     3
1000
-2000287
1002
}
  0
LINE
  5
2FD
330
2C5
100
AcDbEntity
  8
Pressure_Balance_Rough_Valve-GROHE-35111000
100
AcDbLine
 10
2.326716503637687
 20
0.2681734926309825
 30
0.0
 11
2.326716503637687
 21
-0.2681734926302953
 31
0.0
1001
REVIT
1002
{
1070
     1
1000
158160
1002
}
1002
{
1070
     2
1000
-2000051
1002
}
1002
{
1070
     3
1000
-2000287
1002
}
  0
LINE
  5
2FE
330
2C5
100
AcDbEntity
  8
Pressure_Balance_Rough_Valve-GROHE-35111000
100
AcDbLine
 10
2.247001047994799
 20
0.2681734926210754
 30
0.0
 11
2.247001047994799
 21
-0.2681734926203882
 31
0.0
1001
REVIT
1002
{
1070
     1
1000
158160
1002
}
1002
{
1070
     2
1000
-2000051
1002
}
1002
{
1070
     3
1000
-2000287
1002
}
  0
LINE
  5
2FF
330
2C5
100
AcDbEntity
  8
Pressure_Balance_Rough_Valve-GROHE-35111000
100
AcDbLine
 10
2.202454175723773
 20
0.2681734926210754
 30
0.0
 11
2.202454175723773
 21
-0.2681734926203882
 31
0.0
1001
REVIT
1002
{
1070
     1
1000
158160
1002
}
1002
{
1070
     2
1000
-2000051
1002
}
1002
{
1070
     3
1000
-2000287
1002
}
  0
LINE
  5
300
330
2C5
100
AcDbEntity
  8
Pressure_Balance_Rough_Valve-GROHE-35111000
100
AcDbLine
 10
2.12156643396849
 20
0.2681734926309554
 30
0.0
 11
2.12156643396849
 21
-0.2681734926302683
 31
0.0
1001
REVIT
1002
{
1070
     1
1000
158160
1002
}
1002
{
1070
     2
1000
-2000051
1002
}
1002
{
1070
     3
1000
-2000287
1002
}
  0
LINE
  5
301
330
2C5
100
AcDbEntity
  8
Pressure_Balance_Rough_Valve-GROHE-35111000
100
AcDbLine
 10
2.077019561697464
 20
0.2681734926309554
 30
0.0
 11
2.077019561697464
 21
-0.2681734926302683
 31
0.0
1001
REVIT
1002
{
1070
     1
1000
158160
1002
}
1002
{
1070
     2
1000
-2000051
1002
}
1002
{
1070
     3
1000
-2000287
1002
}
  0
LINE
  5
302
330
2C5
100
AcDbEntity
  8
Pressure_Balance_Rough_Valve-GROHE-35111000
100
AcDbLine
 10
-0.3750000000158107
 20
1.812500000000317
 30
0.0
 11
-0.3750000000158107
 21
1.740204454768798
 31
0.0
1001
REVIT
1002
{
1070
     1
1000
160299
1002
}
1002
{
1070
     2
1000
-2000051
1002
}
1002
{
1070
     3
1000
-2000287
1002
}
  0
LINE
  5
303
330
2C5
100
AcDbEntity
  8
Pressure_Balance_Rough_Valve-GROHE-35111000
100
AcDbLine
 10
0.3750000000174133
 20
1.740204454768797
 30
0.0
 11
0.3750000000174146
 21
1.812500000000315
 31
0.0
1001
REVIT
1002
{
1070
     1
1000
160299
1002
}
1002
{
1070
     2
1000
-2000051
1002
}
1002
{
1070
     3
1000
-2000287
1002
}
  0
LINE
  5
304
330
2C5
100
AcDbEntity
  8
Pressure_Balance_Rough_Valve-GROHE-35111000
100
AcDbLine
 10
-0.4923468268128478
 20
1.176920550564964
 30
0.0
 11
-0.4923468268128478
 21
1.016652938735141
 31
0.0
1001
REVIT
1002
{
1070
     1
1000
160299
1002
}
1002
{
1070
     2
1000
-2000051
1002
}
1002
{
1070
     3
1000
-2000287
1002
}
  0
LINE
  5
305
330
2C5
100
AcDbEntity
  8
Pressure_Balance_Rough_Valve-GROHE-35111000
100
AcDbLine
 10
-0.4923468268128517
 20
-1.012943945857666
 30
0.0
 11
-0.4923468268128517
 21
-1.176920550564304
 31
0.0
1001
REVIT
1002
{
1070
     1
1000
160299
1002
}
1002
{
1070
     2
1000
-2000051
1002
}
1002
{
1070
     3
1000
-2000287
1002
}
  0
LINE
  5
306
330
2C5
100
AcDbEntity
  8
Pressure_Balance_Rough_Valve-GROHE-35111000
100
AcDbLine
 10
0.492346826814445
 20
-1.176920550564305
 30
0.0
 11
0.492346826814445
 21
-1.016652938734004
 31
0.0
1001
REVIT
1002
{
1070
     1
1000
160299
1002
}
1002
{
1070
     2
1000
-2000051
1002
}
1002
{
1070
     3
1000
-2000287
1002
}
  0
LINE
  5
307
330
2C5
100
AcDbEntity
  8
Pressure_Balance_Rough_Valve-GROHE-35111000
100
AcDbLine
 10
0.492346826814449
 20
1.016652938734662
 30
0.0
 11
0.492346826814449
 21
1.176920550564962
 31
0.0
1001
REVIT
1002
{
1070
     1
1000
160299
1002
}
1002
{
1070
     2
1000
-2000051
1002
}
1002
{
1070
     3
1000
-2000287
1002
}
  0
LINE
  5
308
330
2C5
100
AcDbEntity
  8
Pressure_Balance_Rough_Valve-GROHE-35111000
100
AcDbLine
 10
-0.3750000000157854
 20
-1.176920550564299
 30
0.0
 11
-0.3750000000157867
 21
-1.493975448465828
 31
0.0
1001
REVIT
1002
{
1070
     1
1000
160299
1002
}
1002
{
1070
     2
1000
-2000051
1002
}
1002
{
1070
     3
1000
-2000287
1002
}
  0
LINE
  5
309
330
2C5
100
AcDbEntity
  8
Pressure_Balance_Rough_Valve-GROHE-35111000
100
AcDbLine
 10
0.37500000001738
 20
-1.493975448465829
 30
0.0
 11
0.37500000001738
 21
-1.1769205505643
 31
0.0
1001
REVIT
1002
{
1070
     1
1000
160299
1002
}
1002
{
1070
     2
1000
-2000051
1002
}
1002
{
1070
     3
1000
-2000287
1002
}
  0
LINE
  5
30A
330
2C5
100
AcDbEntity
  8
Pressure_Balance_Rough_Valve-GROHE-35111000
100
AcDbLine
 10
-0.4117688685142634
 20
1.740204454768798
 30
0.0
 11
-0.4117688685142634
 21
1.685942261341281
 31
0.0
1001
REVIT
1002
{
1070
     1
1000
160299
1002
}
1002
{
1070
     2
1000
-2000051
1002
}
1002
{
1070
     3
1000
-2000287
1002
}
  0
LINE
  5
30B
330
2C5
100
AcDbEntity
  8
Pressure_Balance_Rough_Valve-GROHE-35111000
100
AcDbLine
 10
0.4117688685158673
 20
1.685942261341281
 30
0.0
 11
0.4117688685158673
 21
1.740204454768797
 31
0.0
1001
REVIT
1002
{
1070
     1
1000
160299
1002
}
1002
{
1070
     2
1000
-2000051
1002
}
1002
{
1070
     3
1000
-2000287
1002
}
  0
LINE
  5
30C
330
2C5
100
AcDbEntity
  8
Pressure_Balance_Rough_Valve-GROHE-35111000
100
AcDbLine
 10
-0.3750000000158107
 20
1.685942261341281
 30
0.0
 11
-0.3750000000158107
 21
1.644709329581401
 31
0.0
1001
REVIT
1002
{
1070
     1
1000
160299
1002
}
1002
{
1070
     2
1000
-2000051
1002
}
1002
{
1070
     3
1000
-2000287
1002
}
  0
LINE
  5
30D
330
2C5
100
AcDbEntity
  8
Pressure_Balance_Rough_Valve-GROHE-35111000
100
AcDbLine
 10
0.3750000000174133
 20
1.6447093295814
 30
0.0
 11
0.3750000000174133
 21
1.685942261341281
 31
0.0
1001
REVIT
1002
{
1070
     1
1000
160299
1002
}
1002
{
1070
     2
1000
-2000051
1002
}
1002
{
1070
     3
1000
-2000287
1002
}
  0
LINE
  5
30E
330
2C5
100
AcDbEntity
  8
Pressure_Balance_Rough_Valve-GROHE-35111000
100
AcDbLine
 10
-0.4117688685142634
 20
1.644709329581401
 30
0.0
 11
-0.4117688685142634
 21
1.590447136153885
 31
0.0
1001
REVIT
1002
{
1070
     1
1000
160299
1002
}
1002
{
1070
     2
1000
-2000051
1002
}
1002
{
1070
     3
1000
-2000287
1002
}
  0
LINE
  5
30F
330
2C5
100
AcDbEntity
  8
Pressure_Balance_Rough_Valve-GROHE-35111000
100
AcDbLine
 10
0.4117688685158673
 20
1.590447136153885
 30
0.0
 11
0.4117688685158673
 21
1.6447093295814
 31
0.0
1001
REVIT
1002
{
1070
     1
1000
160299
1002
}
1002
{
1070
     2
1000
-2000051
1002
}
1002
{
1070
     3
1000
-2000287
1002
}
  0
LINE
  5
310
330
2C5
100
AcDbEntity
  8
Pressure_Balance_Rough_Valve-GROHE-35111000
100
AcDbLine
 10
-0.3750000000158107
 20
1.590447136153885
 30
0.0
 11
-0.3750000000158107
 21
1.548237641894006
 31
0.0
1001
REVIT
1002
{
1070
     1
1000
160299
1002
}
1002
{
1070
     2
1000
-2000051
1002
}
1002
{
1070
     3
1000
-2000287
1002
}
  0
LINE
  5
311
330
2C5
100
AcDbEntity
  8
Pressure_Balance_Rough_Valve-GROHE-35111000
100
AcDbLine
 10
0.3750000000174133
 20
1.548237641894003
 30
0.0
 11
0.3750000000174133
 21
1.590447136153885
 31
0.0
1001
REVIT
1002
{
1070
     1
1000
160299
1002
}
1002
{
1070
     2
1000
-2000051
1002
}
1002
{
1070
     3
1000
-2000287
1002
}
  0
LINE
  5
312
330
2C5
100
AcDbEntity
  8
Pressure_Balance_Rough_Valve-GROHE-35111000
100
AcDbLine
 10
-0.4117688685142634
 20
1.548237641894006
 30
0.0
 11
-0.4117688685142634
 21
1.493975448466489
 31
0.0
1001
REVIT
1002
{
1070
     1
1000
160299
1002
}
1002
{
1070
     2
1000
-2000051
1002
}
1002
{
1070
     3
1000
-2000287
1002
}
  0
LINE
  5
313
330
2C5
100
AcDbEntity
  8
Pressure_Balance_Rough_Valve-GROHE-35111000
100
AcDbLine
 10
0.4117688685158673
 20
1.493975448466488
 30
0.0
 11
0.4117688685158673
 21
1.548237641894003
 31
0.0
1001
REVIT
1002
{
1070
     1
1000
160299
1002
}
1002
{
1070
     2
1000
-2000051
1002
}
1002
{
1070
     3
1000
-2000287
1002
}
  0
LINE
  5
314
330
2C5
100
AcDbEntity
  8
Pressure_Balance_Rough_Valve-GROHE-35111000
100
AcDbLine
 10
-0.3750000000158107
 20
1.493975448466489
 30
0.0
 11
-0.375000000015812
 21
1.176920550564964
 31
0.0
1001
REVIT
1002
{
1070
     1
1000
160299
1002
}
1002
{
1070
     2
1000
-2000051
1002
}
1002
{
1070
     3
1000
-2000287
1002
}
  0
LINE
  5
315
330
2C5
100
AcDbEntity
  8
Pressure_Balance_Rough_Valve-GROHE-35111000
100
AcDbLine
 10
0.3750000000174133
 20
1.176920550564962
 30
0.0
 11
0.3750000000174133
 21
1.493975448466488
 31
0.0
1001
REVIT
1002
{
1070
     1
1000
160299
1002
}
1002
{
1070
     2
1000
-2000051
1002
}
1002
{
1070
     3
1000
-2000287
1002
}
  0
LINE
  5
316
330
2C5
100
AcDbEntity
  8
Pressure_Balance_Rough_Valve-GROHE-35111000
100
AcDbLine
 10
-0.4117688685142687
 20
-1.493975448465829
 30
0.0
 11
-0.4117688685142687
 21
-1.548237641893343
 31
0.0
1001
REVIT
1002
{
1070
     1
1000
160299
1002
}
1002
{
1070
     2
1000
-2000051
1002
}
1002
{
1070
     3
1000
-2000287
1002
}
  0
LINE
  5
317
330
2C5
100
AcDbEntity
  8
Pressure_Balance_Rough_Valve-GROHE-35111000
100
AcDbLine
 10
0.4117688685158619
 20
-1.548237641893345
 30
0.0
 11
0.4117688685158619
 21
-1.49397544846583
 31
0.0
1001
REVIT
1002
{
1070
     1
1000
160299
1002
}
1002
{
1070
     2
1000
-2000051
1002
}
1002
{
1070
     3
1000
-2000287
1002
}
  0
LINE
  5
318
330
2C5
100
AcDbEntity
  8
Pressure_Balance_Rough_Valve-GROHE-35111000
100
AcDbLine
 10
-0.3750000000157867
 20
-1.548237641893343
 30
0.0
 11
-0.3750000000157867
 21
-1.590447136153225
 31
0.0
1001
REVIT
1002
{
1070
     1
1000
160299
1002
}
1002
{
1070
     2
1000
-2000051
1002
}
1002
{
1070
     3
1000
-2000287
1002
}
  0
LINE
  5
319
330
2C5
100
AcDbEntity
  8
Pressure_Balance_Rough_Valve-GROHE-35111000
100
AcDbLine
 10
0.37500000001738
 20
-1.590447136153226
 30
0.0
 11
0.37500000001738
 21
-1.548237641893345
 31
0.0
1001
REVIT
1002
{
1070
     1
1000
160299
1002
}
1002
{
1070
     2
1000
-2000051
1002
}
1002
{
1070
     3
1000
-2000287
1002
}
  0
LINE
  5
31A
330
2C5
100
AcDbEntity
  8
Pressure_Balance_Rough_Valve-GROHE-35111000
100
AcDbLine
 10
-0.4117688685142687
 20
-1.590447136153225
 30
0.0
 11
-0.4117688685142687
 21
-1.644709329580742
 31
0.0
1001
REVIT
1002
{
1070
     1
1000
160299
1002
}
1002
{
1070
     2
1000
-2000051
1002
}
1002
{
1070
     3
1000
-2000287
1002
}
  0
LINE
  5
31B
330
2C5
100
AcDbEntity
  8
Pressure_Balance_Rough_Valve-GROHE-35111000
100
AcDbLine
 10
0.4117688685158619
 20
-1.644709329580742
 30
0.0
 11
0.4117688685158619
 21
-1.590447136153226
 31
0.0
1001
REVIT
1002
{
1070
     1
1000
160299
1002
}
1002
{
1070
     2
1000
-2000051
1002
}
1002
{
1070
     3
1000
-2000287
1002
}
  0
LINE
  5
31C
330
2C5
100
AcDbEntity
  8
Pressure_Balance_Rough_Valve-GROHE-35111000
100
AcDbLine
 10
-0.3750000000157867
 20
-1.644709329580742
 30
0.0
 11
-0.3750000000157867
 21
-1.685942261340621
 31
0.0
1001
REVIT
1002
{
1070
     1
1000
160299
1002
}
1002
{
1070
     2
1000
-2000051
1002
}
1002
{
1070
     3
1000
-2000287
1002
}
  0
LINE
  5
31D
330
2C5
100
AcDbEntity
  8
Pressure_Balance_Rough_Valve-GROHE-35111000
100
AcDbLine
 10
0.37500000001738
 20
-1.685942261340624
 30
0.0
 11
0.37500000001738
 21
-1.644709329580742
 31
0.0
1001
REVIT
1002
{
1070
     1
1000
160299
1002
}
1002
{
1070
     2
1000
-2000051
1002
}
1002
{
1070
     3
1000
-2000287
1002
}
  0
LINE
  5
31E
330
2C5
100
AcDbEntity
  8
Pressure_Balance_Rough_Valve-GROHE-35111000
100
AcDbLine
 10
-0.4117688685142687
 20
-1.685942261340621
 30
0.0
 11
-0.4117688685142687
 21
-1.740204454768138
 31
0.0
1001
REVIT
1002
{
1070
     1
1000
160299
1002
}
1002
{
1070
     2
1000
-2000051
1002
}
1002
{
1070
     3
1000
-2000287
1002
}
  0
LINE
  5
31F
330
2C5
100
AcDbEntity
  8
Pressure_Balance_Rough_Valve-GROHE-35111000
100
AcDbLine
 10
0.4117688685158619
 20
-1.740204454768139
 30
0.0
 11
0.4117688685158619
 21
-1.685942261340624
 31
0.0
1001
REVIT
1002
{
1070
     1
1000
160299
1002
}
1002
{
1070
     2
1000
-2000051
1002
}
1002
{
1070
     3
1000
-2000287
1002
}
  0
LINE
  5
320
330
2C5
100
AcDbEntity
  8
Pressure_Balance_Rough_Valve-GROHE-35111000
100
AcDbLine
 10
-0.3750000000157867
 20
-1.740204454768138
 30
0.0
 11
-0.3750000000157867
 21
-1.812499999999671
 31
0.0
1001
REVIT
1002
{
1070
     1
1000
160299
1002
}
1002
{
1070
     2
1000
-2000051
1002
}
1002
{
1070
     3
1000
-2000287
1002
}
  0
LINE
  5
321
330
2C5
100
AcDbEntity
  8
Pressure_Balance_Rough_Valve-GROHE-35111000
100
AcDbLine
 10
0.37500000001738
 20
-1.812499999999671
 30
0.0
 11
0.37500000001738
 21
-1.740204454768139
 31
0.0
1001
REVIT
1002
{
1070
     1
1000
160299
1002
}
1002
{
1070
     2
1000
-2000051
1002
}
1002
{
1070
     3
1000
-2000287
1002
}
  0
LINE
  5
322
330
2C5
100
AcDbEntity
  8
Pressure_Balance_Rough_Valve-GROHE-35111000
100
AcDbLine
 10
-0.3750000000158107
 20
1.812500000000315
 30
0.0
 11
0.3750000000174146
 21
1.812500000000314
 31
0.0
1001
REVIT
1002
{
1070
     1
1000
160299
1002
}
1002
{
1070
     2
1000
-2000051
1002
}
1002
{
1070
     3
1000
-2000287
1002
}
  0
LINE
  5
323
330
2C5
100
AcDbEntity
  8
Pressure_Balance_Rough_Valve-GROHE-35111000
100
AcDbLine
 10
0.37500000001738
 20
-1.812499999999671
 30
0.0
 11
-0.3750000000157867
 21
-1.812499999999669
 31
0.0
1001
REVIT
1002
{
1070
     1
1000
160299
1002
}
1002
{
1070
     2
1000
-2000051
1002
}
1002
{
1070
     3
1000
-2000287
1002
}
  0
LINE
  5
324
330
2C5
100
AcDbEntity
  8
Pressure_Balance_Rough_Valve-GROHE-35111000
100
AcDbLine
 10
-0.4923468268128471
 20
1.176920550564963
 30
0.0
 11
0.4923468268144489
 21
1.176920550564962
 31
0.0
1001
REVIT
1002
{
1070
     1
1000
160299
1002
}
1002
{
1070
     2
1000
-2000051
1002
}
1002
{
1070
     3
1000
-2000287
1002
}
  0
LINE
  5
325
330
2C5
100
AcDbEntity
  8
Pressure_Balance_Rough_Valve-GROHE-35111000
100
AcDbLine
 10
-0.4923468268128508
 20
-1.176920550564302
 30
0.0
 11
0.492346826814445
 21
-1.176920550564303
 31
0.0
1001
REVIT
1002
{
1070
     1
1000
160299
1002
}
1002
{
1070
     2
1000
-2000051
1002
}
1002
{
1070
     3
1000
-2000287
1002
}
  0
LINE
  5
326
330
2C5
100
AcDbEntity
  8
Pressure_Balance_Rough_Valve-GROHE-35111000
100
AcDbLine
 10
-0.4117688685142634
 20
1.740204454768797
 30
0.0
 11
0.4117688685158674
 21
1.740204454768795
 31
0.0
1001
REVIT
1002
{
1070
     1
1000
160299
1002
}
1002
{
1070
     2
1000
-2000051
1002
}
1002
{
1070
     3
1000
-2000287
1002
}
  0
LINE
  5
327
330
2C5
100
AcDbEntity
  8
Pressure_Balance_Rough_Valve-GROHE-35111000
100
AcDbLine
 10
-0.4117688685142634
 20
1.685942261341281
 30
0.0
 11
0.4117688685158674
 21
1.68594226134128
 31
0.0
1001
REVIT
1002
{
1070
     1
1000
160299
1002
}
1002
{
1070
     2
1000
-2000051
1002
}
1002
{
1070
     3
1000
-2000287
1002
}
  0
LINE
  5
328
330
2C5
100
AcDbEntity
  8
Pressure_Balance_Rough_Valve-GROHE-35111000
100
AcDbLine
 10
-0.4117688685142634
 20
1.6447093295814
 30
0.0
 11
0.4117688685158674
 21
1.644709329581399
 31
0.0
1001
REVIT
1002
{
1070
     1
1000
160299
1002
}
1002
{
1070
     2
1000
-2000051
1002
}
1002
{
1070
     3
1000
-2000287
1002
}
  0
LINE
  5
329
330
2C5
100
AcDbEntity
  8
Pressure_Balance_Rough_Valve-GROHE-35111000
100
AcDbLine
 10
-0.4117688685142634
 20
1.590447136153885
 30
0.0
 11
0.4117688685158673
 21
1.590447136153883
 31
0.0
1001
REVIT
1002
{
1070
     1
1000
160299
1002
}
1002
{
1070
     2
1000
-2000051
1002
}
1002
{
1070
     3
1000
-2000287
1002
}
  0
LINE
  5
32A
330
2C5
100
AcDbEntity
  8
Pressure_Balance_Rough_Valve-GROHE-35111000
100
AcDbLine
 10
-0.4117688685142632
 20
1.548237641894004
 30
0.0
 11
0.4117688685158673
 21
1.548237641894002
 31
0.0
1001
REVIT
1002
{
1070
     1
1000
160299
1002
}
1002
{
1070
     2
1000
-2000051
1002
}
1002
{
1070
     3
1000
-2000287
1002
}
  0
LINE
  5
32B
330
2C5
100
AcDbEntity
  8
Pressure_Balance_Rough_Valve-GROHE-35111000
100
AcDbLine
 10
-0.4117688685142634
 20
1.493975448466488
 30
0.0
 11
0.4117688685158673
 21
1.493975448466487
 31
0.0
1001
REVIT
1002
{
1070
     1
1000
160299
1002
}
1002
{
1070
     2
1000
-2000051
1002
}
1002
{
1070
     3
1000
-2000287
1002
}
  0
LINE
  5
32C
330
2C5
100
AcDbEntity
  8
Pressure_Balance_Rough_Valve-GROHE-35111000
100
AcDbLine
 10
-0.4117688685142687
 20
-1.493975448465827
 30
0.0
 11
0.4117688685158619
 21
-1.493975448465828
 31
0.0
1001
REVIT
1002
{
1070
     1
1000
160299
1002
}
1002
{
1070
     2
1000
-2000051
1002
}
1002
{
1070
     3
1000
-2000287
1002
}
  0
LINE
  5
32D
330
2C5
100
AcDbEntity
  8
Pressure_Balance_Rough_Valve-GROHE-35111000
100
AcDbLine
 10
-0.4117688685142687
 20
-1.548237641893342
 30
0.0
 11
0.4117688685158621
 21
-1.548237641893344
 31
0.0
1001
REVIT
1002
{
1070
     1
1000
160299
1002
}
1002
{
1070
     2
1000
-2000051
1002
}
1002
{
1070
     3
1000
-2000287
1002
}
  0
LINE
  5
32E
330
2C5
100
AcDbEntity
  8
Pressure_Balance_Rough_Valve-GROHE-35111000
100
AcDbLine
 10
-0.4117688685142685
 20
-1.590447136153224
 30
0.0
 11
0.4117688685158619
 21
-1.590447136153224
 31
0.0
1001
REVIT
1002
{
1070
     1
1000
160299
1002
}
1002
{
1070
     2
1000
-2000051
1002
}
1002
{
1070
     3
1000
-2000287
1002
}
  0
LINE
  5
32F
330
2C5
100
AcDbEntity
  8
Pressure_Balance_Rough_Valve-GROHE-35111000
100
AcDbLine
 10
-0.4117688685142687
 20
-1.644709329580738
 30
0.0
 11
0.4117688685158619
 21
-1.64470932958074
 31
0.0
1001
REVIT
1002
{
1070
     1
1000
160299
1002
}
1002
{
1070
     2
1000
-2000051
1002
}
1002
{
1070
     3
1000
-2000287
1002
}
  0
LINE
  5
330
330
2C5
100
AcDbEntity
  8
Pressure_Balance_Rough_Valve-GROHE-35111000
100
AcDbLine
 10
-0.4117688685142687
 20
-1.68594226134062
 30
0.0
 11
0.4117688685158619
 21
-1.685942261340621
 31
0.0
1001
REVIT
1002
{
1070
     1
1000
160299
1002
}
1002
{
1070
     2
1000
-2000051
1002
}
1002
{
1070
     3
1000
-2000287
1002
}
  0
LINE
  5
331
330
2C5
100
AcDbEntity
  8
Pressure_Balance_Rough_Valve-GROHE-35111000
100
AcDbLine
 10
-0.4117688685142687
 20
-1.740204454768136
 30
0.0
 11
0.4117688685158619
 21
-1.740204454768136
 31
0.0
1001
REVIT
1002
{
1070
     1
1000
160299
1002
}
1002
{
1070
     2
1000
-2000051
1002
}
1002
{
1070
     3
1000
-2000287
1002
}
  0
LINE
  5
332
330
2C5
100
AcDbEntity
  8
Pressure_Balance_Rough_Valve-GROHE-35111000
100
AcDbLine
 10
-0.8857560263554312
 20
0.701017016545296
 30
0.0
 11
-0.9322716346208309
 21
1.176920550563765
 31
0.0
1001
REVIT
1002
{
1070
     1
1000
122706
1002
}
1002
{
1070
     2
1000
-2000051
1002
}
1002
{
1070
     3
1000
-2000287
1002
}
  0
ARC
  5
333
330
2C5
100
AcDbEntity
  8
Pressure_Balance_Rough_Valve-GROHE-35111000
100
AcDbCircle
 10
-1.067852328922806
 20
1.16366866648707
 30
0.0
 40
0.1362267855415659
100
AcDbArc
 50
5.582453287637932
 51
174.417546712362
1001
REVIT
1002
{
1070
     1
1000
122706
1002
}
1002
{
1070
     2
1000
-2000051
1002
}
1002
{
1070
     3
1000
-2000287
1002
}
  0
LINE
  5
334
330
2C5
100
AcDbEntity
  8
Pressure_Balance_Rough_Valve-GROHE-35111000
100
AcDbLine
 10
-1.203433023224779
 20
1.176920550563762
 30
0.0
 11
-1.269596371265325
 21
0.5000000000393516
 31
0.0
1001
REVIT
1002
{
1070
     1
1000
122706
1002
}
1002
{
1070
     2
1000
-2000051
1002
}
1002
{
1070
     3
1000
-2000287
1002
}
  0
LINE
  5
335
330
2C5
100
AcDbEntity
  8
Pressure_Balance_Rough_Valve-GROHE-35111000
100
AcDbLine
 10
0.8857560263568037
 20
-0.7010170165436743
 30
0.0
 11
0.9322716346224284
 21
-1.176920550564302
 31
0.0
1001
REVIT
1002
{
1070
     1
1000
122706
1002
}
1002
{
1070
     2
1000
-2000051
1002
}
1002
{
1070
     3
1000
-2000287
1002
}
  0
ARC
  5
336
330
2C5
100
AcDbEntity
  8
Pressure_Balance_Rough_Valve-GROHE-35111000
100
AcDbCircle
 10
1.067852328924403
 20
-1.163668666487605
 30
0.0
 40
0.1362267855415661
100
AcDbArc
 50
185.5824532876381
 51
354.4175467123595
1001
REVIT
1002
{
1070
     1
1000
122706
1002
}
1002
{
1070
     2
1000
-2000051
1002
}
1002
{
1070
     3
1000
-2000287
1002
}
  0
LINE
  5
337
330
2C5
100
AcDbEntity
  8
Pressure_Balance_Rough_Valve-GROHE-35111000
100
AcDbLine
 10
1.203433023226378
 20
-1.176920550564301
 30
0.0
 11
1.269596371267052
 21
-0.5000000000388107
 31
0.0
1001
REVIT
1002
{
1070
     1
1000
122706
1002
}
1002
{
1070
     2
1000
-2000051
1002
}
1002
{
1070
     3
1000
-2000287
1002
}
  0
LINE
  5
338
330
2C5
100
AcDbEntity
  8
Pressure_Balance_Rough_Valve-GROHE-35111000
100
AcDbLine
 10
-0.9634430861379351
 20
0.0312499999996639
 30
0.0
 11
0.9634430861385469
 21
0.0312499999996639
 31
0.0
  0
LINE
  5
339
330
2C5
100
AcDbEntity
  8
Pressure_Balance_Rough_Valve-GROHE-35111000
100
AcDbLine
 10
-0.963443086137935
 20
-0.0312500000003361
 30
0.0
 11
0.9682458365523661
 21
-0.0312500000003486
 31
0.0
  0
LINE
  5
33A
330
2C5
100
AcDbEntity
  8
Pressure_Balance_Rough_Valve-GROHE-35111000
100
AcDbLine
 10
-0.2962913294862863
 20
0.0312499999996596
 30
0.0
 11
-0.2962913294862794
 21
-0.0312500000003404
 31
0.0
  0
LINE
  5
33B
330
2C5
100
AcDbEntity
  8
Pressure_Balance_Rough_Valve-GROHE-35111000
100
AcDbLine
 10
0.2962913294865013
 20
0.0312499999996596
 30
0.0
 11
0.2962913294865012
 21
-0.0312500000003443
 31
0.0
  0
CIRCLE
  5
33C
330
2C5
100
AcDbEntity
  8
Pressure_Balance_Rough_Valve-GROHE-35111000
100
AcDbCircle
 10
-1.442852328922808
 20
0.0000000000003322
 30
0.0
 40
0.0646378204679522
  0
CIRCLE
  5
33D
330
2C5
100
AcDbEntity
  8
Pressure_Balance_Rough_Valve-GROHE-35111000
100
AcDbCircle
 10
1.442852328924406
 20
0.0000000000003437
 30
0.0
 40
0.0646378204674457
  0
CIRCLE
  5
33E
330
2C5
100
AcDbEntity
  8
Pressure_Balance_Rough_Valve-GROHE-35111000
100
AcDbCircle
 10
-1.349102328922803
 20
-1.163668666487458
 30
0.0
 40
0.0651849087048404
  0
CIRCLE
  5
33F
330
2C5
100
AcDbEntity
  8
Pressure_Balance_Rough_Valve-GROHE-35111000
100
AcDbCircle
 10
-1.067852328922806
 20
1.16366866648707
 30
0.0
 40
0.06518490870484
  0
CIRCLE
  5
340
330
2C5
100
AcDbEntity
  8
Pressure_Balance_Rough_Valve-GROHE-35111000
100
AcDbCircle
 10
1.067852328924403
 20
-1.163668666487605
 30
0.0
 40
0.0651849087048404
  0
CIRCLE
  5
341
330
2C5
100
AcDbEntity
  8
Pressure_Balance_Rough_Valve-GROHE-35111000
100
AcDbCircle
 10
1.411602328924399
 20
1.16366866648707
 30
0.0
 40
0.06518490870484
  0
CIRCLE
  5
342
330
2C5
100
AcDbEntity
  8
Pressure_Balance_Rough_Valve-GROHE-35111000
100
AcDbCircle
 10
-1.442852328922808
 20
0.0000000000003322
 30
0.0
 40
0.1133306631455051
  0
CIRCLE
  5
343
330
2C5
100
AcDbEntity
  8
Pressure_Balance_Rough_Valve-GROHE-35111000
100
AcDbCircle
 10
1.442852328924406
 20
0.0000000000003437
 30
0.0
 40
0.1185344132609033
  0
CIRCLE
  5
344
330
2C5
100
AcDbEntity
  8
Pressure_Balance_Rough_Valve-GROHE-35111000
100
AcDbCircle
 10
-1.442852328922808
 20
0.0000000000003322
 30
0.0
 40
0.1570812215897355
  0
CIRCLE
  5
345
330
2C5
100
AcDbEntity
  8
Pressure_Balance_Rough_Valve-GROHE-35111000
100
AcDbCircle
 10
1.442852328924406
 20
0.0000000000003437
 30
0.0
 40
0.1622849717051338
  0
CIRCLE
  5
346
330
2C5
100
AcDbEntity
  8
Pressure_Balance_Rough_Valve-GROHE-35111000
100
AcDbCircle
 10
0.0000000000003059
 20
0.0000000000003298
 30
0.0
 40
0.968750000000228
  0
CIRCLE
  5
347
330
2C5
100
AcDbEntity
  8
Pressure_Balance_Rough_Valve-GROHE-35111000
100
AcDbCircle
 10
0.0000000000003059
 20
0.0000000000003298
 30
0.0
 40
1.129596651779346
  0
ENDBLK
  5
2C7
330
2C5
100
AcDbEntity
  8
0
100
AcDbBlockEnd
  0
ENDSEC
  0
SECTION
  2
ENTITIES
  0
INSERT
  5
2A1
330
70
100
AcDbEntity
  8
0
100
AcDbBlockReference
  2
Pressure_Balance_Rough_Valve-GROHE-35111000-Top
 10
0.0000000000007275
 20
5.230540469996395
 30
0.0
  0
INSERT
  5
2C4
330
70
100
AcDbEntity
  8
0
100
AcDbBlockReference
  2
Pressure_Balance_Rough_Valve-GROHE-35111000- Left
 10
-5.549380028855902
 20
0.3749999999984247
 30
0.0
  0
INSERT
  5
348
330
70
100
AcDbEntity
  8
0
100
AcDbBlockReference
  2
Pressure_Balance_Rough_Valve-GROHE-35111000- Front
 10
-0.0000000000000593
 20
-0.6250000000006608
 30
0.0
  0
ENDSEC
  0
SECTION
  2
OBJECTS
  0
DICTIONARY
  5
C
330
0
100
AcDbDictionary
281
     1
  3
ACAD_CIP_PREVIOUS_PRODUCT_INFO
350
79
  3
ACAD_COLOR
350
63
  3
ACAD_DETAILVIEWSTYLE
350
6A
  3
ACAD_GROUP
350
D
  3
ACAD_IMAGE_VARS
350
7A
  3
ACAD_LAYOUT
350
62
  3
ACAD_MATERIAL
350
10
  3
ACAD_MLEADERSTYLE
350
66
  3
ACAD_MLINESTYLE
350
5F
  3
ACAD_PLOTSETTINGS
350
61
  3
ACAD_PLOTSTYLENAME
350
E
  3
ACAD_SCALELIST
350
42
  3
ACAD_SECTIONVIEWSTYLE
350
68
  3
ACAD_TABLESTYLE
350
64
  3
ACAD_VISUALSTYLE
350
29
  3
ACDB_RECOMPOSE_DATA
350
359
  3
AcDbVariableDictionary
350
17C
  3
REVIT_DICTIONARY
350
170
  0
DICTIONARY
  5
34C
330
2
100
AcDbDictionary
280
     1
281
     1
  3
ACAD_LAYERSTATES
360
34D
  0
DICTIONARY
  5
174
330
70
100
AcDbDictionary
280
     1
281
     1
  3
ACAD_SORTENTS
360
175
  0
XRECORD
  5
79
102
{ACAD_REACTORS
330
C
102
}
330
C
100
AcDbXrecord
280
     1
300
ACD
300
2016
300
86445ACD_2016_0F
  0
DICTIONARY
  5
63
102
{ACAD_REACTORS
330
C
102
}
330
C
100
AcDbDictionary
281
     1
  0
DICTIONARY
  5
6A
102
{ACAD_REACTORS
330
C
102
}
330
C
100
AcDbDictionary
281
     1
  3
Imperial24
350
6B
  0
DICTIONARY
  5
D
102
{ACAD_REACTORS
330
C
102
}
330
C
100
AcDbDictionary
281
     1
  0
RASTERVARIABLES
  5
7A
102
{ACAD_REACTORS
330
C
102
}
330
C
100
AcDbRasterVariables
 90
        0
 70
     0
 71
     1
 72
     5
  0
DICTIONARY
  5
62
102
{ACAD_REACTORS
330
C
102
}
330
C
100
AcDbDictionary
281
     1
  3
Layout1
350
6F
  3
Layout2
350
77
  3
Model
350
73
  0
DICTIONARY
  5
10
102
{ACAD_REACTORS
330
C
102
}
330
C
100
AcDbDictionary
281
     1
  3
ByBlock
350
19
  3
ByLayer
350
11
  3
Global
350
21
  0
DICTIONARY
  5
66
102
{ACAD_REACTORS
330
C
102
}
330
C
100
AcDbDictionary
281
     1
  3
Standard
350
67
  0
DICTIONARY
  5
5F
102
{ACAD_REACTORS
330
C
102
}
330
C
100
AcDbDictionary
281
     1
  3
Standard
350
60
  0
DICTIONARY
  5
61
102
{ACAD_REACTORS
330
C
102
}
330
C
100
AcDbDictionary
281
     1
  0
ACDBDICTIONARYWDFLT
  5
E
102
{ACAD_REACTORS
330
C
102
}
330
C
100
AcDbDictionary
281
     1
  3
Normal
350
F
100
AcDbDictionaryWithDefault
340
F
  0
DICTIONARY
  5
42
102
{ACAD_REACTORS
330
C
102
}
330
C
100
AcDbDictionary
281
     1
  3
A0
350
43
  3
A1
350
44
  3
A2
350
45
  3
A3
350
46
  3
A4
350
47
  3
A5
350
48
  3
A6
350
49
  3
A7
350
4A
  3
A8
350
4B
  3
A9
350
4C
  3
B0
350
4D
  3
B1
350
4E
  3
B2
350
4F
  3
B3
350
50
  3
B4
350
51
  3
B5
350
52
  3
B6
350
53
  0
DICTIONARY
  5
68
102
{ACAD_REACTORS
330
C
102
}
330
C
100
AcDbDictionary
281
     1
  3
Imperial24
350
69
  0
DICTIONARY
  5
64
102
{ACAD_REACTORS
330
C
102
}
330
C
100
AcDbDictionary
281
     1
  3
Standard
350
65
  0
DICTIONARY
  5
29
102
{ACAD_REACTORS
330
C
102
}
330
C
100
AcDbDictionary
281
     1
  3
2dWireframe
350
2F
  3
Basic
350
2E
  3
Brighten
350
35
  3
ColorChange
350
39
  3
Conceptual
350
32
  3
Dim
350
34
  3
EdgeColorOff
350
41
  3
Facepattern
350
38
  3
Flat
350
2A
  3
FlatWithEdges
350
2B
  3
Gouraud
350
2C
  3
GouraudWithEdges
350
2D
  3
Hidden
350
31
  3
JitterOff
350
3F
  3
Linepattern
350
37
  3
OverhangOff
350
40
  3
Realistic
350
33
  3
Shaded
350
3E
  3
Shaded with edges
350
3D
  3
Shades of Gray
350
3A
  3
Sketchy
350
3B
  3
Thicken
350
36
  3
Wireframe
350
30
  3
X-Ray
350
3C
  0
XRECORD
  5
359
102
{ACAD_REACTORS
330
C
102
}
330
C
100
AcDbXrecord
280
     1
 90
        1
330
65
330
69
330
6B
  0
DICTIONARY
  5
17C
102
{ACAD_REACTORS
330
C
102
}
330
C
100
AcDbDictionary
281
     1
  3
CANNOSCALE
350
181
  3
CMLEADERSTYLE
350
17E
  3
CTABLESTYLE
350
17D
  3
CVIEWDETAILSTYLE
350
17F
  3
CVIEWSECTIONSTYLE
350
180
  0
DICTIONARY
  5
170
102
{ACAD_REACTORS
330
C
102
}
330
C
100
AcDbDictionary
281
     1
  3
DRAWING_TOOL
350
173
  3
REVIT_CATEGORY_MAPPING
350
171
  3
REVIT_SUB_CATEGORY_MAPPING
350
172
  0
DICTIONARY
  5
34D
102
{ACAD_REACTORS
330
34C
102
}
330
34C
100
AcDbDictionary
281
     1
  0
SORTENTSTABLE
  5
175
102
{ACAD_REACTORS
330
174
102
}
330
174
100
AcDbSortentsTable
330
70
  0
ACDBDETAILVIEWSTYLE
  5
6B
102
{ACAD_XDICTIONARY
360
179
102
}
102
{ACAD_REACTORS
330
6A
102
}
330
6A
100
AcDbModelDocViewStyle
 70
     0
  3
Imperial24
290
     0
100
AcDbDetailViewStyle
 70
     0
 71
     0
 90
        3
 71
     1
340
55
 62
   256
 40
0.24
340
0
 62
   256
 40
0.24
300

 40
0.36
280
     3
 71
     2
340
5D
 90
       25
 62
   256
 71
     3
340
55
 62
   256
 40
0.24
 90
        1
 40
0.75
 90
        1
300
%<\AcVar ViewType \f "%tc1">% %<\AcVar ViewDetailId>%\PSCALE %<\AcVar ViewScale \f "%sn">%
 71
     4
340
5D
 90
       25
 62
   256
340
5D
 90
       25
 62
   256
280
     0
  0
LAYOUT
  5
6F
102
{ACAD_REACTORS
330
62
102
}
330
62
100
AcDbPlotSettings
  1

  2

  4

  6

 40
0.0
 41
0.0
 42
0.0
 43
0.0
 44
0.0
 45
0.0
 46
0.0
 47
0.0
 48
0.0
 49
0.0
140
0.0
141
0.0
142
1.0
143
1.0
 70
   688
 72
     0
 73
     0
 74
     5
  7

 75
    16
147
1.0
 76
     0
 77
     2
 78
   300
148
0.0
149
0.0
100
AcDbLayout
  1
Layout1
 70
     1
 71
     1
 10
0.0
 20
0.0
 11
12.0
 21
9.0
 12
0.0
 22
0.0
 32
0.0
 14
1.000000000000000E+20
 24
1.000000000000000E+20
 34
1.000000000000000E+20
 15
-1.000000000000000E+20
 25
-1.000000000000000E+20
 35
-1.000000000000000E+20
146
0.0
 13
0.0
 23
0.0
 33
0.0
 16
1.0
 26
0.0
 36
0.0
 17
0.0
 27
1.0
 37
0.0
 76
     0
330
6C
  0
LAYOUT
  5
77
102
{ACAD_REACTORS
330
62
102
}
330
62
100
AcDbPlotSettings
  1

  2

  4

  6

 40
0.0
 41
0.0
 42
0.0
 43
0.0
 44
0.0
 45
0.0
 46
0.0
 47
0.0
 48
0.0
 49
0.0
140
0.0
141
0.0
142
1.0
143
1.0
 70
   688
 72
     0
 73
     0
 74
     5
  7

 75
    16
147
1.0
 76
     0
 77
     2
 78
   300
148
0.0
149
0.0
100
AcDbLayout
  1
Layout2
 70
     1
 71
     2
 10
0.0
 20
0.0
 11
12.0
 21
9.0
 12
0.0
 22
0.0
 32
0.0
 14
0.0
 24
0.0
 34
0.0
 15
0.0
 25
0.0
 35
0.0
146
0.0
 13
0.0
 23
0.0
 33
0.0
 16
1.0
 26
0.0
 36
0.0
 17
0.0
 27
1.0
 37
0.0
 76
     0
330
74
  0
LAYOUT
  5
73
102
{ACAD_REACTORS
330
62
102
}
330
62
100
AcDbPlotSettings
  1

  2

  4

  6

 40
0.0
 41
0.0
 42
0.0
 43
0.0
 44
0.0
 45
0.0
 46
0.0
 47
0.0
 48
0.0
 49
0.0
140
0.0
141
0.0
142
1.0
143
1.0
 70
  1712
 72
     0
 73
     0
 74
     0
  7

 75
     0
147
1.0
 76
     0
 77
     2
 78
   300
148
0.0
149
0.0
100
AcDbLayout
  1
Model
 70
     1
 71
     0
 10
0.0
 20
0.0
 11
12.0
 21
9.0
 12
0.0
 22
0.0
 32
0.0
 14
0.0
 24
0.0
 34
0.0
 15
0.0
 25
0.0
 35
0.0
146
0.0
 13
0.0
 23
0.0
 33
0.0
 16
1.0
 26
0.0
 36
0.0
 17
0.0
 27
1.0
 37
0.0
 76
     0
330
70
331
57
  0
MATERIAL
  5
19
102
{ACAD_XDICTIONARY
360
1A
102
}
102
{ACAD_REACTORS
330
10
102
}
330
10
100
AcDbMaterial
  1
ByBlock
 72
     0
 43
0.0208333333333333
 43
0.0
 43
0.0
 43
0.0
 43
0.0
 43
0.0208333333333333
 43
0.0
 43
0.0
 43
0.0
 43
0.0
 43
1.0
 43
0.0
 43
0.0
 43
0.0
 43
0.0
 43
1.0
 77
     0
 47
0.0208333333333333
 47
0.0
 47
0.0
 47
0.0
 47
0.0
 47
0.0208333333333333
 47
0.0
 47
0.0
 47
0.0
 47
0.0
 47
1.0
 47
0.0
 47
0.0
 47
0.0
 47
0.0
 47
1.0
171
     0
 49
0.0208333333333333
 49
0.0
 49
0.0
 49
0.0
 49
0.0
 49
0.0208333333333333
 49
0.0
 49
0.0
 49
0.0
 49
0.0
 49
1.0
 49
0.0
 49
0.0
 49
0.0
 49
0.0
 49
1.0
175
     0
142
0.0208333333333333
142
0.0
142
0.0
142
0.0
142
0.0
142
0.0208333333333333
142
0.0
142
0.0
142
0.0
142
0.0
142
1.0
142
0.0
142
0.0
142
0.0
142
0.0
142
1.0
179
     0
144
0.0208333333333333
144
0.0
144
0.0
144
0.0
144
0.0
144
0.0208333333333333
144
0.0
144
0.0
144
0.0
144
0.0
144
1.0
144
0.0
144
0.0
144
0.0
144
0.0
144
1.0
147
0.0208333333333333
147
0.0
147
0.0
147
0.0
147
0.0
147
0.0208333333333333
147
0.0
147
0.0
147
0.0
147
0.0
147
1.0
147
0.0
147
0.0
147
0.0
147
0.0
147
1.0
  0
MATERIAL
  5
11
102
{ACAD_XDICTIONARY
360
12
102
}
102
{ACAD_REACTORS
330
10
102
}
330
10
100
AcDbMaterial
  1
ByLayer
 72
     0
 43
0.0208333333333333
 43
0.0
 43
0.0
 43
0.0
 43
0.0
 43
0.0208333333333333
 43
0.0
 43
0.0
 43
0.0
 43
0.0
 43
1.0
 43
0.0
 43
0.0
 43
0.0
 43
0.0
 43
1.0
 77
     0
 47
0.0208333333333333
 47
0.0
 47
0.0
 47
0.0
 47
0.0
 47
0.0208333333333333
 47
0.0
 47
0.0
 47
0.0
 47
0.0
 47
1.0
 47
0.0
 47
0.0
 47
0.0
 47
0.0
 47
1.0
171
     0
 49
0.0208333333333333
 49
0.0
 49
0.0
 49
0.0
 49
0.0
 49
0.0208333333333333
 49
0.0
 49
0.0
 49
0.0
 49
0.0
 49
1.0
 49
0.0
 49
0.0
 49
0.0
 49
0.0
 49
1.0
175
     0
142
0.0208333333333333
142
0.0
142
0.0
142
0.0
142
0.0
142
0.0208333333333333
142
0.0
142
0.0
142
0.0
142
0.0
142
1.0
142
0.0
142
0.0
142
0.0
142
0.0
142
1.0
179
     0
144
0.0208333333333333
144
0.0
144
0.0
144
0.0
144
0.0
144
0.0208333333333333
144
0.0
144
0.0
144
0.0
144
0.0
144
1.0
144
0.0
144
0.0
144
0.0
144
0.0
144
1.0
147
0.0208333333333333
147
0.0
147
0.0
147
0.0
147
0.0
147
0.0208333333333333
147
0.0
147
0.0
147
0.0
147
0.0
147
1.0
147
0.0
147
0.0
147
0.0
147
0.0
147
1.0
  0
MATERIAL
  5
21
102
{ACAD_XDICTIONARY
360
22
102
}
102
{ACAD_REACTORS
330
10
102
}
330
10
100
AcDbMaterial
  1
Global
 72
     0
 43
0.0208333333333333
 43
0.0
 43
0.0
 43
0.0
 43
0.0
 43
0.0208333333333333
 43
0.0
 43
0.0
 43
0.0
 43
0.0
 43
1.0
 43
0.0
 43
0.0
 43
0.0
 43
0.0
 43
1.0
 77
     0
 47
0.0208333333333333
 47
0.0
 47
0.0
 47
0.0
 47
0.0
 47
0.0208333333333333
 47
0.0
 47
0.0
 47
0.0
 47
0.0
 47
1.0
 47
0.0
 47
0.0
 47
0.0
 47
0.0
 47
1.0
171
     0
 49
0.0208333333333333
 49
0.0
 49
0.0
 49
0.0
 49
0.0
 49
0.0208333333333333
 49
0.0
 49
0.0
 49
0.0
 49
0.0
 49
1.0
 49
0.0
 49
0.0
 49
0.0
 49
0.0
 49
1.0
175
     0
142
0.0208333333333333
142
0.0
142
0.0
142
0.0
142
0.0
142
0.0208333333333333
142
0.0
142
0.0
142
0.0
142
0.0
142
1.0
142
0.0
142
0.0
142
0.0
142
0.0
142
1.0
179
     0
144
0.0208333333333333
144
0.0
144
0.0
144
0.0
144
0.0
144
0.0208333333333333
144
0.0
144
0.0
144
0.0
144
0.0
144
1.0
144
0.0
144
0.0
144
0.0
144
0.0
144
1.0
147
0.0208333333333333
147
0.0
147
0.0
147
0.0
147
0.0
147
0.0208333333333333
147
0.0
147
0.0
147
0.0
147
0.0
147
1.0
147
0.0
147
0.0
147
0.0
147
0.0
147
1.0
  0
MLEADERSTYLE
  5
67
102
{ACAD_REACTORS
330
66
102
}
330
66
100
AcDbMLeaderStyle
179
     2
170
     2
171
     1
172
     0
 90
        2
 40
0.0
 41
0.0
173
     1
 91
-1056964608
340
5B
 92
       -2
290
     1
 42
0.09
291
     1
 43
0.36
  3
Standard
 44
0.18
300

342
55
174
     1
178
     6
175
     1
176
     0
 93
-1056964608
 45
0.18
292
     0
297
     0
 46
0.18
 94
-1056964608
 47
1.0
 49
1.0
140
1.0
293
     1
141
0.0
294
     1
177
     0
142
1.0
295
     1
296
     0
143
0.125
271
     0
272
     9
273
     9
298
     1
  0
MLINESTYLE
  5
60
102
{ACAD_REACTORS
330
5F
102
}
330
5F
100
AcDbMlineStyle
  2
STANDARD
 70
     0
  3

 62
   256
 51
90.0
 52
90.0
 71
     2
 49
0.5
 62
   256
  6
BYLAYER
 49
-0.5
 62
   256
  6
BYLAYER
  0
ACDBPLACEHOLDER
  5
F
102
{ACAD_REACTORS
330
E
102
}
330
E
  0
SCALE
  5
43
102
{ACAD_REACTORS
330
42
102
}
330
42
100
AcDbScale
 70
     0
300
1:1
140
1.0
141
1.0
290
     1
  0
SCALE
  5
44
102
{ACAD_REACTORS
330
42
102
}
330
42
100
AcDbScale
 70
     0
300
1/128" = 1'-0"
140
0.0078125
141
12.0
290
     0
  0
SCALE
  5
45
102
{ACAD_REACTORS
330
42
102
}
330
42
100
AcDbScale
 70
     0
300
1/64" = 1'-0"
140
0.015625
141
12.0
290
     0
  0
SCALE
  5
46
102
{ACAD_REACTORS
330
42
102
}
330
42
100
AcDbScale
 70
     0
300
1/32" = 1'-0"
140
0.03125
141
12.0
290
     0
  0
SCALE
  5
47
102
{ACAD_REACTORS
330
42
102
}
330
42
100
AcDbScale
 70
     0
300
1/16" = 1'-0"
140
0.0625
141
12.0
290
     0
  0
SCALE
  5
48
102
{ACAD_REACTORS
330
42
102
}
330
42
100
AcDbScale
 70
     0
300
3/32" = 1'-0"
140
0.09375
141
12.0
290
     0
  0
SCALE
  5
49
102
{ACAD_REACTORS
330
42
102
}
330
42
100
AcDbScale
 70
     0
300
1/8" = 1'-0"
140
0.125
141
12.0
290
     0
  0
SCALE
  5
4A
102
{ACAD_REACTORS
330
42
102
}
330
42
100
AcDbScale
 70
     0
300
3/16" = 1'-0"
140
0.1875
141
12.0
290
     0
  0
SCALE
  5
4B
102
{ACAD_REACTORS
330
42
102
}
330
42
100
AcDbScale
 70
     0
300
1/4" = 1'-0"
140
0.25
141
12.0
290
     0
  0
SCALE
  5
4C
102
{ACAD_REACTORS
330
42
102
}
330
42
100
AcDbScale
 70
     0
300
3/8" = 1'-0"
140
0.375
141
12.0
290
     0
  0
SCALE
  5
4D
102
{ACAD_REACTORS
330
42
102
}
330
42
100
AcDbScale
 70
     0
300
1/2" = 1'-0"
140
0.5
141
12.0
290
     0
  0
SCALE
  5
4E
102
{ACAD_REACTORS
330
42
102
}
330
42
100
AcDbScale
 70
     0
300
3/4" = 1'-0"
140
0.75
141
12.0
290
     0
  0
SCALE
  5
4F
102
{ACAD_REACTORS
330
42
102
}
330
42
100
AcDbScale
 70
     0
300
1" = 1'-0"
140
1.0
141
12.0
290
     0
  0
SCALE
  5
50
102
{ACAD_REACTORS
330
42
102
}
330
42
100
AcDbScale
 70
     0
300
1-1/2" = 1'-0"
140
1.5
141
12.0
290
     0
  0
SCALE
  5
51
102
{ACAD_REACTORS
330
42
102
}
330
42
100
AcDbScale
 70
     0
300
3" = 1'-0"
140
3.0
141
12.0
290
     0
  0
SCALE
  5
52
102
{ACAD_REACTORS
330
42
102
}
330
42
100
AcDbScale
 70
     0
300
6" = 1'-0"
140
6.0
141
12.0
290
     0
  0
SCALE
  5
53
102
{ACAD_REACTORS
330
42
102
}
330
42
100
AcDbScale
 70
     0
300
1'-0" = 1'-0"
140
12.0
141
12.0
290
     0
  0
ACDBSECTIONVIEWSTYLE
  5
69
102
{ACAD_XDICTIONARY
360
177
102
}
102
{ACAD_REACTORS
330
68
102
}
330
68
100
AcDbModelDocViewStyle
 70
     0
  3
Imperial24
290
     0
100
AcDbSectionViewStyle
 70
     0
 71
     0
 90
       78
 71
     1
340
55
 62
   256
 40
0.24
340
0
340
0
 62
   256
 40
0.24
300
I, O, Q, S, X, Z
 40
0.48
 90
        3
 40
0.18
 90
        1
 71
     2
340
5D
 90
       25
 62
   256
340
5D
 90
       50
 62
   256
 40
0.24
 40
0.0
 40
0.24
 71
     3
340
55
 62
   256
 40
0.24
 90
        1
 40
0.75
 90
        1
300
%<\AcVar ViewType \f "%tc1">% %<\AcVar ViewSectionStartId>%-%<\AcVar ViewSectionEndId>%\PSCALE %<\AcVar ViewScale \f "%sn">%
 71
     4
 62
   256
 62
   257
300
ANSI31
 40
1.0
 90
        0
290
     0
290
     0
 90
        6
 40
0.0
 40
1.570796326794896
 40
0.2617993877991494
 40
1.308996938995747
 40
-0.2617993877991494
 40
1.832595714594046
  0
TABLESTYLE
  5
65
102
{ACAD_XDICTIONARY
360
355
102
}
102
{ACAD_REACTORS
330
64
102
}
330
64
100
AcDbTableStyle
280
     0
  3
Standard
 70
     0
 71
     0
 40
0.06
 41
0.06
280
     0
281
     0
  7
Standard
140
0.18
170
     2
 62
     0
 63
     7
283
     0
 90
      512
 91
        0
  1

274
    -2
284
     1
 64
     0
275
    -2
285
     1
 65
     0
276
    -2
286
     1
 66
     0
277
    -2
287
     1
 67
     0
278
    -2
288
     1
 68
     0
279
    -2
289
     1
 69
     0
  7
Standard
140
0.25
170
     5
 62
     0
 63
     7
283
     0
 90
      512
 91
        0
  1

274
    -2
284
     1
 64
     0
275
    -2
285
     1
 65
     0
276
    -2
286
     1
 66
     0
277
    -2
287
     1
 67
     0
278
    -2
288
     1
 68
     0
279
    -2
289
     1
 69
     0
  7
Standard
140
0.18
170
     5
 62
     0
 63
     7
283
     0
 90
      512
 91
        0
  1

274
    -2
284
     1
 64
     0
275
    -2
285
     1
 65
     0
276
    -2
286
     1
 66
     0
277
    -2
287
     1
 67
     0
278
    -2
288
     1
 68
     0
279
    -2
289
     1
 69
     0
  0
VISUALSTYLE
  5
2F
102
{ACAD_REACTORS
330
29
102
}
330
29
100
AcDbVisualStyle
  2
2dWireframe
 70
     4
177
     3
291
     0
 70
    58
 90
        0
176
     1
 90
        2
176
     1
 90
        0
176
     1
 90
        0
176
     1
 40
0.6
176
     1
 40
30.0
176
     1
 62
     7
420
 16777215
176
     1
 90
        1
176
     1
 90
        4
176
     1
 62
     7
176
     1
 62
   257
176
     1
 90
        1
176
     1
 90
        1
176
     1
 40
1.0
176
     1
 90
        0
176
     1
 62
   257
176
     1
 40
1.0
176
     1
 90
        1
176
     1
 90
        6
176
     1
 90
        2
176
     1
 62
     7
176
     1
 90
        5
176
     1
 90
        0
176
     1
 90
        0
176
     1
290
     0
176
     1
 90
        1
176
     1
 40
0.0
176
     1
 90
        0
176
     1
290
     1
176
     1
290
     1
176
     1
290
     0
176
     1
290
     0
176
     1
290
     0
176
     1
290
     0
176
     1
290
     0
176
     1
290
     0
176
     1
290
     0
176
     1
 90
       50
176
     1
 40
0.0
176
     1
 40
1.0
176
     1
 90
        0
176
     1
 62
    18
420
        0
176
     1
 90
       50
176
     1
 90
        3
176
     1
 62
     5
420
      255
176
     1
290
     0
176
     1
 90
       50
176
     1
 90
       50
176
     1
 90
       50
176
     1
290
     0
176
     1
 90
       50
176
     1
 62
   256
176
     0
 40
1.0
176
     0
 90
        2
176
     1
  1
strokes_ogs.tif
176
     1
290
     0
176
     1
 40
1.0
176
     1
 40
1.0
176
     1
  0
VISUALSTYLE
  5
2E
102
{ACAD_REACTORS
330
29
102
}
330
29
100
AcDbVisualStyle
  2
Basic
 70
     7
177
     3
291
     1
 70
    58
 90
        1
176
     1
 90
        0
176
     1
 90
        1
176
     1
 90
        0
176
     1
 40
0.6
176
     1
 40
30.0
176
     1
 62
     7
420
 16777215
176
     1
 90
        0
176
     1
 90
        4
176
     1
 62
     7
176
     1
 62
   257
176
     1
 90
        1
176
     1
 90
        1
176
     1
 40
1.0
176
     1
 90
        8
176
     1
 62
     7
176
     1
 40
1.0
176
     1
 90
        1
176
     1
 90
        6
176
     1
 90
        2
176
     1
 62
     7
176
     1
 90
        5
176
     1
 90
        0
176
     1
 90
        0
176
     1
290
     0
176
     1
 90
        1
176
     1
 40
0.0
176
     1
 90
        0
176
     1
290
     0
176
     1
290
     1
176
     1
290
     1
176
     1
290
     0
176
     1
290
     0
176
     1
290
     0
176
     1
290
     0
176
     1
290
     0
176
     1
290
     0
176
     1
 90
       50
176
     1
 40
0.0
176
     1
 40
1.0
176
     1
 90
        0
176
     1
 62
    18
420
        0
176
     1
 90
       50
176
     1
 90
        3
176
     1
 62
     5
420
      255
176
     1
290
     0
176
     1
 90
       50
176
     1
 90
       50
176
     1
 90
       50
176
     1
290
     0
176
     1
 90
       50
176
     1
 62
   256
176
     0
 40
1.0
176
     0
 90
        2
176
     1
  1
strokes_ogs.tif
176
     1
290
     0
176
     1
 40
1.0
176
     1
 40
1.0
176
     1
  0
VISUALSTYLE
  5
35
102
{ACAD_REACTORS
330
29
102
}
330
29
100
AcDbVisualStyle
  2
Brighten
 70
    12
177
     3
291
     1
 70
    58
 90
        2
176
     1
 90
        2
176
     1
 90
        0
176
     1
 90
        0
176
     1
 40
0.6
176
     1
 40
30.0
176
     1
 62
     7
420
 16777215
176
     1
 90
        1
176
     1
 90
        4
176
     1
 62
     7
176
     1
 62
   257
176
     1
 90
        1
176
     1
 90
        1
176
     1
 40
1.0
176
     1
 90
        8
176
     1
 62
     7
176
     1
 40
1.0
176
     1
 90
        1
176
     1
 90
        6
176
     1
 90
        2
176
     1
 62
     7
176
     1
 90
        5
176
     1
 90
        0
176
     1
 90
        0
176
     1
290
     0
176
     1
 90
        1
176
     1
 40
50.0
176
     1
 90
        0
176
     1
290
     0
176
     1
290
     1
176
     1
290
     1
176
     1
290
     0
176
     1
290
     0
176
     1
290
     0
176
     1
290
     0
176
     1
290
     0
176
     1
290
     0
176
     1
 90
       50
176
     1
 40
0.0
176
     1
 40
1.0
176
     1
 90
        0
176
     1
 62
    18
420
        0
176
     1
 90
       50
176
     1
 90
        3
176
     1
 62
     5
420
      255
176
     1
290
     0
176
     1
 90
       50
176
     1
 90
       50
176
     1
 90
       50
176
     1
290
     0
176
     1
 90
       50
176
     1
 62
   256
176
     0
 40
1.0
176
     0
 90
        2
176
     1
  1
strokes_ogs.tif
176
     1
290
     0
176
     1
 40
1.0
176
     1
 40
1.0
176
     1
  0
VISUALSTYLE
  5
39
102
{ACAD_REACTORS
330
29
102
}
330
29
100
AcDbVisualStyle
  2
ColorChange
 70
    16
177
     3
291
     1
 70
    58
 90
        2
176
     1
 90
        2
176
     1
 90
        3
176
     1
 90
        0
176
     1
 40
0.6
176
     1
 40
30.0
176
     1
 62
     8
420
  8421504
176
     1
 90
        1
176
     1
 90
        4
176
     1
 62
     7
176
     1
 62
   257
176
     1
 90
        1
176
     1
 90
        1
176
     1
 40
1.0
176
     1
 90
        8
176
     1
 62
     8
420
  8421504
176
     1
 40
1.0
176
     1
 90
        1
176
     1
 90
        6
176
     1
 90
        2
176
     1
 62
     7
176
     1
 90
        5
176
     1
 90
        0
176
     1
 90
        0
176
     1
290
     0
176
     1
 90
        1
176
     1
 40
0.0
176
     1
 90
        0
176
     1
290
     0
176
     1
290
     1
176
     1
290
     1
176
     1
290
     0
176
     1
290
     0
176
     1
290
     0
176
     1
290
     0
176
     1
290
     0
176
     1
290
     0
176
     1
 90
       50
176
     1
 40
0.0
176
     1
 40
1.0
176
     1
 90
        0
176
     1
 62
    18
420
        0
176
     1
 90
       50
176
     1
 90
        3
176
     1
 62
     5
420
      255
176
     1
290
     0
176
     1
 90
       50
176
     1
 90
       50
176
     1
 90
       50
176
     1
290
     0
176
     1
 90
       50
176
     1
 62
   256
176
     0
 40
1.0
176
     0
 90
        2
176
     1
  1
strokes_ogs.tif
176
     1
290
     0
176
     1
 40
1.0
176
     1
 40
1.0
176
     1
  0
VISUALSTYLE
  5
32
102
{ACAD_REACTORS
330
29
102
}
330
29
100
AcDbVisualStyle
  2
Conceptual
 70
     9
177
     3
291
     0
 70
    58
 90
        3
176
     1
 90
        2
176
     1
 90
        0
176
     1
 90
        0
176
     1
 40
0.6
176
     1
 40
30.0
176
     1
 62
     7
420
 16777215
176
     1
 90
        2
176
     1
 90
        2
176
     1
 62
     7
176
     1
 62
   257
176
     1
 90
        1
176
     1
 90
        1
176
     1
 40
179.0
176
     1
 90
        8
176
     1
 62
     7
176
     1
 40
1.0
176
     1
 90
        1
176
     1
 90
        6
176
     1
 90
        2
176
     1
 62
     7
176
     1
 90
        3
176
     1
 90
        0
176
     1
 90
        0
176
     1
290
     0
176
     1
 90
        1
176
     1
 40
0.0
176
     1
 90
        0
176
     1
290
     0
176
     1
290
     1
176
     1
290
     1
176
     1
290
     0
176
     1
290
     0
176
     1
290
     0
176
     1
290
     0
176
     1
290
     0
176
     1
290
     0
176
     1
 90
       50
176
     1
 40
0.0
176
     1
 40
1.0
176
     1
 90
        0
176
     1
 62
    18
420
        0
176
     1
 90
       50
176
     1
 90
        3
176
     1
 62
     5
420
      255
176
     1
290
     0
176
     1
 90
       50
176
     1
 90
       50
176
     1
 90
       50
176
     1
290
     0
176
     1
 90
       50
176
     1
 62
   256
176
     0
 40
1.0
176
     0
 90
        2
176
     1
  1
strokes_ogs.tif
176
     1
290
     0
176
     1
 40
1.0
176
     1
 40
1.0
176
     1
  0
VISUALSTYLE
  5
34
102
{ACAD_REACTORS
330
29
102
}
330
29
100
AcDbVisualStyle
  2
Dim
 70
    11
177
     3
291
     1
 70
    58
 90
        2
176
     1
 90
        2
176
     1
 90
        0
176
     1
 90
        0
176
     1
 40
0.6
176
     1
 40
30.0
176
     1
 62
     7
420
 16777215
176
     1
 90
        1
176
     1
 90
        4
176
     1
 62
     7
176
     1
 62
   257
176
     1
 90
        1
176
     1
 90
        1
176
     1
 40
1.0
176
     1
 90
        8
176
     1
 62
     7
176
     1
 40
1.0
176
     1
 90
        1
176
     1
 90
        6
176
     1
 90
        2
176
     1
 62
     7
176
     1
 90
        5
176
     1
 90
        0
176
     1
 90
        0
176
     1
290
     0
176
     1
 90
        1
176
     1
 40
-50.0
176
     1
 90
        0
176
     1
290
     0
176
     1
290
     1
176
     1
290
     1
176
     1
290
     0
176
     1
290
     0
176
     1
290
     0
176
     1
290
     0
176
     1
290
     0
176
     1
290
     0
176
     1
 90
       50
176
     1
 40
0.0
176
     1
 40
1.0
176
     1
 90
        0
176
     1
 62
    18
420
        0
176
     1
 90
       50
176
     1
 90
        3
176
     1
 62
     5
420
      255
176
     1
290
     0
176
     1
 90
       50
176
     1
 90
       50
176
     1
 90
       50
176
     1
290
     0
176
     1
 90
       50
176
     1
 62
   256
176
     0
 40
1.0
176
     0
 90
        2
176
     1
  1
strokes_ogs.tif
176
     1
290
     0
176
     1
 40
1.0
176
     1
 40
1.0
176
     1
  0
VISUALSTYLE
  5
41
102
{ACAD_REACTORS
330
29
102
}
330
29
100
AcDbVisualStyle
  2
EdgeColorOff
 70
    22
177
     3
291
     1
 70
    58
 90
        2
176
     0
 90
        2
176
     0
 90
        0
176
     0
 90
        0
176
     0
 40
0.6
176
     0
 40
30.0
176
     0
 62
     7
420
 16777215
176
     0
 90
        1
176
     0
 90
        4
176
     0
 62
     7
176
     0
 62
   257
176
     0
 90
        1
176
     0
 90
        1
176
     0
 40
1.0
176
     0
 90
        8
176
     2
 62
     7
176
     0
 40
1.0
176
     0
 90
        1
176
     0
 90
        6
176
     0
 90
        2
176
     0
 62
     7
176
     0
 90
        5
176
     0
 90
        0
176
     0
 90
        0
176
     0
290
     0
176
     0
 90
        1
176
     0
 40
0.0
176
     0
 90
        0
176
     0
290
     0
176
     0
290
     1
176
     0
290
     1
176
     0
290
     0
176
     0
290
     0
176
     0
290
     0
176
     0
290
     0
176
     0
290
     0
176
     0
290
     0
176
     0
 90
       50
176
     0
 40
0.0
176
     0
 40
1.0
176
     0
 90
        0
176
     0
 62
    18
420
        0
176
     0
 90
       50
176
     0
 90
        3
176
     0
 62
     5
420
      255
176
     0
290
     0
176
     0
 90
       50
176
     0
 90
       50
176
     0
 90
       50
176
     0
290
     0
176
     0
 90
       50
176
     0
 62
   256
176
     0
 40
1.0
176
     0
 90
        2
176
     0
  1
strokes_ogs.tif
176
     0
290
     0
176
     0
 40
1.0
176
     0
 40
1.0
176
     0
  0
VISUALSTYLE
  5
38
102
{ACAD_REACTORS
330
29
102
}
330
29
100
AcDbVisualStyle
  2
Facepattern
 70
    15
177
     3
291
     1
 70
    58
 90
        2
176
     1
 90
        2
176
     1
 90
        0
176
     1
 90
        0
176
     1
 40
0.6
176
     1
 40
30.0
176
     1
 62
     7
420
 16777215
176
     1
 90
        1
176
     1
 90
        4
176
     1
 62
     7
176
     1
 62
   257
176
     1
 90
        1
176
     1
 90
        1
176
     1
 40
1.0
176
     1
 90
        8
176
     1
 62
     7
176
     1
 40
1.0
176
     1
 90
        1
176
     1
 90
        6
176
     1
 90
        2
176
     1
 62
     7
176
     1
 90
        5
176
     1
 90
        0
176
     1
 90
        0
176
     1
290
     0
176
     1
 90
        1
176
     1
 40
0.0
176
     1
 90
        0
176
     1
290
     0
176
     1
290
     1
176
     1
290
     1
176
     1
290
     0
176
     1
290
     0
176
     1
290
     0
176
     1
290
     0
176
     1
290
     0
176
     1
290
     0
176
     1
 90
       50
176
     1
 40
0.0
176
     1
 40
1.0
176
     1
 90
        0
176
     1
 62
    18
420
        0
176
     1
 90
       50
176
     1
 90
        3
176
     1
 62
     5
420
      255
176
     1
290
     0
176
     1
 90
       50
176
     1
 90
       50
176
     1
 90
       50
176
     1
290
     0
176
     1
 90
       50
176
     1
 62
   256
176
     0
 40
1.0
176
     0
 90
        2
176
     1
  1
strokes_ogs.tif
176
     1
290
     0
176
     1
 40
1.0
176
     1
 40
1.0
176
     1
  0
VISUALSTYLE
  5
2A
102
{ACAD_REACTORS
330
29
102
}
330
29
100
AcDbVisualStyle
  2
Flat
 70
     0
177
     3
291
     1
 70
    58
 90
        2
176
     1
 90
        1
176
     1
 90
        1
176
     1
 90
        2
176
     1
 40
0.6
176
     1
 40
30.0
176
     1
 62
     7
420
 16777215
176
     1
 90
        0
176
     1
 90
        0
176
     1
 62
     7
176
     1
 62
   257
176
     1
 90
        1
176
     1
 90
        1
176
     1
 40
1.0
176
     1
 90
        8
176
     1
 62
     7
176
     1
 40
1.0
176
     1
 90
        1
176
     1
 90
        6
176
     1
 90
        2
176
     1
 62
     7
176
     1
 90
        5
176
     1
 90
        0
176
     1
 90
        0
176
     1
290
     0
176
     1
 90
       13
176
     1
 40
0.0
176
     1
 90
        0
176
     1
290
     0
176
     1
290
     1
176
     1
290
     1
176
     1
290
     0
176
     1
290
     0
176
     1
290
     0
176
     1
290
     0
176
     1
290
     0
176
     1
290
     0
176
     1
 90
       50
176
     1
 40
0.0
176
     1
 40
1.0
176
     1
 90
        0
176
     1
 62
    18
420
        0
176
     1
 90
       50
176
     1
 90
        3
176
     1
 62
     5
420
      255
176
     1
290
     0
176
     1
 90
       50
176
     1
 90
       50
176
     1
 90
       50
176
     1
290
     0
176
     1
 90
       50
176
     1
 62
   256
176
     0
 40
1.0
176
     0
 90
        2
176
     1
  1
strokes_ogs.tif
176
     1
290
     0
176
     1
 40
1.0
176
     1
 40
1.0
176
     1
  0
VISUALSTYLE
  5
2B
102
{ACAD_REACTORS
330
29
102
}
330
29
100
AcDbVisualStyle
  2
FlatWithEdges
 70
     1
177
     3
291
     1
 70
    58
 90
        2
176
     1
 90
        1
176
     1
 90
        1
176
     1
 90
        2
176
     1
 40
0.6
176
     1
 40
30.0
176
     1
 62
     7
420
 16777215
176
     1
 90
        1
176
     1
 90
        0
176
     1
 62
     7
176
     1
 62
   257
176
     1
 90
        1
176
     1
 90
        1
176
     1
 40
1.0
176
     1
 90
        0
176
     1
 62
   257
176
     1
 40
1.0
176
     1
 90
        1
176
     1
 90
        6
176
     1
 90
        2
176
     1
 62
     7
176
     1
 90
        5
176
     1
 90
        0
176
     1
 90
        0
176
     1
290
     0
176
     1
 90
       13
176
     1
 40
0.0
176
     1
 90
        0
176
     1
290
     0
176
     1
290
     1
176
     1
290
     1
176
     1
290
     0
176
     1
290
     0
176
     1
290
     0
176
     1
290
     0
176
     1
290
     0
176
     1
290
     0
176
     1
 90
       50
176
     1
 40
0.0
176
     1
 40
1.0
176
     1
 90
        0
176
     1
 62
    18
420
        0
176
     1
 90
       50
176
     1
 90
        3
176
     1
 62
     5
420
      255
176
     1
290
     0
176
     1
 90
       50
176
     1
 90
       50
176
     1
 90
       50
176
     1
290
     0
176
     1
 90
       50
176
     1
 62
   256
176
     0
 40
1.0
176
     0
 90
        2
176
     1
  1
strokes_ogs.tif
176
     1
290
     0
176
     1
 40
1.0
176
     1
 40
1.0
176
     1
  0
VISUALSTYLE
  5
2C
102
{ACAD_REACTORS
330
29
102
}
330
29
100
AcDbVisualStyle
  2
Gouraud
 70
     2
177
     3
291
     1
 70
    58
 90
        2
176
     1
 90
        2
176
     1
 90
        1
176
     1
 90
        2
176
     1
 40
0.6
176
     1
 40
30.0
176
     1
 62
     7
420
 16777215
176
     1
 90
        0
176
     1
 90
        0
176
     1
 62
     7
176
     1
 62
   257
176
     1
 90
        1
176
     1
 90
        1
176
     1
 40
1.0
176
     1
 90
        0
176
     1
 62
     7
176
     1
 40
1.0
176
     1
 90
        1
176
     1
 90
        6
176
     1
 90
        2
176
     1
 62
     7
176
     1
 90
        5
176
     1
 90
        0
176
     1
 90
        0
176
     1
290
     0
176
     1
 90
       13
176
     1
 40
0.0
176
     1
 90
        0
176
     1
290
     0
176
     1
290
     1
176
     1
290
     1
176
     1
290
     0
176
     1
290
     0
176
     1
290
     0
176
     1
290
     0
176
     1
290
     0
176
     1
290
     0
176
     1
 90
       50
176
     1
 40
0.0
176
     1
 40
1.0
176
     1
 90
        0
176
     1
 62
    18
420
        0
176
     1
 90
       50
176
     1
 90
        3
176
     1
 62
     5
420
      255
176
     1
290
     0
176
     1
 90
       50
176
     1
 90
       50
176
     1
 90
       50
176
     1
290
     0
176
     1
 90
       50
176
     1
 62
   256
176
     0
 40
1.0
176
     0
 90
        2
176
     1
  1
strokes_ogs.tif
176
     1
290
     0
176
     1
 40
1.0
176
     1
 40
1.0
176
     1
  0
VISUALSTYLE
  5
2D
102
{ACAD_REACTORS
330
29
102
}
330
29
100
AcDbVisualStyle
  2
GouraudWithEdges
 70
     3
177
     3
291
     1
 70
    58
 90
        2
176
     1
 90
        2
176
     1
 90
        1
176
     1
 90
        2
176
     1
 40
0.6
176
     1
 40
30.0
176
     1
 62
     7
420
 16777215
176
     1
 90
        1
176
     1
 90
        0
176
     1
 62
     7
176
     1
 62
   257
176
     1
 90
        1
176
     1
 90
        1
176
     1
 40
1.0
176
     1
 90
        0
176
     1
 62
   257
176
     1
 40
1.0
176
     1
 90
        1
176
     1
 90
        6
176
     1
 90
        2
176
     1
 62
     7
176
     1
 90
        5
176
     1
 90
        0
176
     1
 90
        0
176
     1
290
     0
176
     1
 90
       13
176
     1
 40
0.0
176
     1
 90
        0
176
     1
290
     0
176
     1
290
     1
176
     1
290
     1
176
     1
290
     0
176
     1
290
     0
176
     1
290
     0
176
     1
290
     0
176
     1
290
     0
176
     1
290
     0
176
     1
 90
       50
176
     1
 40
0.0
176
     1
 40
1.0
176
     1
 90
        0
176
     1
 62
    18
420
        0
176
     1
 90
       50
176
     1
 90
        3
176
     1
 62
     5
420
      255
176
     1
290
     0
176
     1
 90
       50
176
     1
 90
       50
176
     1
 90
       50
176
     1
290
     0
176
     1
 90
       50
176
     1
 62
   256
176
     0
 40
1.0
176
     0
 90
        2
176
     1
  1
strokes_ogs.tif
176
     1
290
     0
176
     1
 40
1.0
176
     1
 40
1.0
176
     1
  0
VISUALSTYLE
  5
31
102
{ACAD_REACTORS
330
29
102
}
330
29
100
AcDbVisualStyle
  2
Hidden
 70
     6
177
     3
291
     0
 70
    58
 90
        1
176
     1
 90
        2
176
     1
 90
        2
176
     1
 90
        0
176
     1
 40
0.6
176
     1
 40
30.0
176
     1
 62
     7
420
 16777215
176
     1
 90
        2
176
     1
 90
        2
176
     1
 62
     7
176
     1
 62
   257
176
     1
 90
        2
176
     1
 90
        1
176
     1
 40
40.0
176
     1
 90
        0
176
     1
 62
   257
176
     1
 40
1.0
176
     1
 90
        1
176
     1
 90
        6
176
     1
 90
        2
176
     1
 62
     7
176
     1
 90
        3
176
     1
 90
        0
176
     1
 90
        0
176
     1
290
     0
176
     1
 90
        1
176
     1
 40
0.0
176
     1
 90
        0
176
     1
290
     0
176
     1
290
     1
176
     1
290
     1
176
     1
290
     0
176
     1
290
     0
176
     1
290
     0
176
     1
290
     0
176
     1
290
     0
176
     1
290
     0
176
     1
 90
       50
176
     1
 40
0.0
176
     1
 40
1.0
176
     1
 90
        0
176
     1
 62
    18
420
        0
176
     1
 90
       50
176
     1
 90
        3
176
     1
 62
     5
420
      255
176
     1
290
     0
176
     1
 90
       50
176
     1
 90
       50
176
     1
 90
       50
176
     1
290
     0
176
     1
 90
       50
176
     1
 62
   256
176
     0
 40
1.0
176
     0
 90
        2
176
     1
  1
strokes_ogs.tif
176
     1
290
     0
176
     1
 40
1.0
176
     1
 40
1.0
176
     1
  0
VISUALSTYLE
  5
3F
102
{ACAD_REACTORS
330
29
102
}
330
29
100
AcDbVisualStyle
  2
JitterOff
 70
    20
177
     3
291
     1
 70
    58
 90
        2
176
     0
 90
        2
176
     0
 90
        0
176
     0
 90
        0
176
     0
 40
0.6
176
     0
 40
30.0
176
     0
 62
     7
420
 16777215
176
     0
 90
        1
176
     0
 90
        4
176
     0
 62
     7
176
     0
 62
   257
176
     0
 90
        1
176
     0
 90
        1
176
     0
 40
1.0
176
     0
 90
       10
176
     2
 62
     7
176
     0
 40
1.0
176
     0
 90
        1
176
     0
 90
        6
176
     0
 90
        2
176
     0
 62
     7
176
     0
 90
        5
176
     0
 90
        0
176
     0
 90
        0
176
     0
290
     0
176
     0
 90
        1
176
     0
 40
0.0
176
     0
 90
        0
176
     0
290
     0
176
     0
290
     1
176
     0
290
     1
176
     0
290
     0
176
     0
290
     0
176
     0
290
     0
176
     0
290
     0
176
     0
290
     0
176
     0
290
     0
176
     0
 90
       50
176
     0
 40
0.0
176
     0
 40
1.0
176
     0
 90
        0
176
     0
 62
    18
420
        0
176
     0
 90
       50
176
     0
 90
        3
176
     0
 62
     5
420
      255
176
     0
290
     0
176
     0
 90
       50
176
     0
 90
       50
176
     0
 90
       50
176
     0
290
     0
176
     0
 90
       50
176
     0
 62
   256
176
     0
 40
1.0
176
     0
 90
        2
176
     0
  1
strokes_ogs.tif
176
     0
290
     0
176
     0
 40
1.0
176
     0
 40
1.0
176
     0
  0
VISUALSTYLE
  5
37
102
{ACAD_REACTORS
330
29
102
}
330
29
100
AcDbVisualStyle
  2
Linepattern
 70
    14
177
     3
291
     1
 70
    58
 90
        2
176
     1
 90
        2
176
     1
 90
        0
176
     1
 90
        0
176
     1
 40
0.6
176
     1
 40
30.0
176
     1
 62
     7
420
 16777215
176
     1
 90
        1
176
     1
 90
        4
176
     1
 62
     7
176
     1
 62
   257
176
     1
 90
        7
176
     1
 90
        7
176
     1
 40
1.0
176
     1
 90
        8
176
     1
 62
     7
176
     1
 40
1.0
176
     1
 90
        1
176
     1
 90
        6
176
     1
 90
        2
176
     1
 62
     7
176
     1
 90
        5
176
     1
 90
        0
176
     1
 90
        0
176
     1
290
     0
176
     1
 90
        1
176
     1
 40
0.0
176
     1
 90
        0
176
     1
290
     0
176
     1
290
     1
176
     1
290
     1
176
     1
290
     0
176
     1
290
     0
176
     1
290
     0
176
     1
290
     0
176
     1
290
     0
176
     1
290
     0
176
     1
 90
       50
176
     1
 40
0.0
176
     1
 40
1.0
176
     1
 90
        0
176
     1
 62
    18
420
        0
176
     1
 90
       50
176
     1
 90
        3
176
     1
 62
     5
420
      255
176
     1
290
     0
176
     1
 90
       50
176
     1
 90
       50
176
     1
 90
       50
176
     1
290
     0
176
     1
 90
       50
176
     1
 62
   256
176
     0
 40
1.0
176
     0
 90
        2
176
     1
  1
strokes_ogs.tif
176
     1
290
     0
176
     1
 40
1.0
176
     1
 40
1.0
176
     1
  0
VISUALSTYLE
  5
40
102
{ACAD_REACTORS
330
29
102
}
330
29
100
AcDbVisualStyle
  2
OverhangOff
 70
    21
177
     3
291
     1
 70
    58
 90
        2
176
     0
 90
        2
176
     0
 90
        0
176
     0
 90
        0
176
     0
 40
0.6
176
     0
 40
30.0
176
     0
 62
     7
420
 16777215
176
     0
 90
        1
176
     0
 90
        4
176
     0
 62
     7
176
     0
 62
   257
176
     0
 90
        1
176
     0
 90
        1
176
     0
 40
1.0
176
     0
 90
        9
176
     2
 62
     7
176
     0
 40
1.0
176
     0
 90
        1
176
     0
 90
        6
176
     0
 90
        2
176
     0
 62
     7
176
     0
 90
        5
176
     0
 90
        0
176
     0
 90
        0
176
     0
290
     0
176
     0
 90
        1
176
     0
 40
0.0
176
     0
 90
        0
176
     0
290
     0
176
     0
290
     1
176
     0
290
     1
176
     0
290
     0
176
     0
290
     0
176
     0
290
     0
176
     0
290
     0
176
     0
290
     0
176
     0
290
     0
176
     0
 90
       50
176
     0
 40
0.0
176
     0
 40
1.0
176
     0
 90
        0
176
     0
 62
    18
420
        0
176
     0
 90
       50
176
     0
 90
        3
176
     0
 62
     5
420
      255
176
     0
290
     0
176
     0
 90
       50
176
     0
 90
       50
176
     0
 90
       50
176
     0
290
     0
176
     0
 90
       50
176
     0
 62
   256
176
     0
 40
1.0
176
     0
 90
        2
176
     0
  1
strokes_ogs.tif
176
     0
290
     0
176
     0
 40
1.0
176
     0
 40
1.0
176
     0
  0
VISUALSTYLE
  5
33
102
{ACAD_REACTORS
330
29
102
}
330
29
100
AcDbVisualStyle
  2
Realistic
 70
     8
177
     3
291
     0
 70
    58
 90
        2
176
     1
 90
        3
176
     1
 90
        0
176
     1
 90
        2
176
     1
 40
0.6
176
     1
 40
30.0
176
     1
 62
     7
420
 16777215
176
     1
 90
        0
176
     1
 90
        0
176
     1
 62
     7
176
     1
 62
   257
176
     1
 90
        1
176
     1
 90
        1
176
     1
 40
1.0
176
     1
 90
        8
176
     1
 62
   257
176
     1
 40
1.0
176
     1
 90
        1
176
     1
 90
        6
176
     1
 90
        2
176
     1
 62
     7
176
     1
 90
        3
176
     1
 90
        0
176
     1
 90
        0
176
     1
290
     0
176
     1
 90
       13
176
     1
 40
0.0
176
     1
 90
        0
176
     1
290
     0
176
     1
290
     1
176
     1
290
     1
176
     1
290
     0
176
     1
290
     0
176
     1
290
     0
176
     1
290
     0
176
     1
290
     0
176
     1
290
     0
176
     1
 90
       50
176
     1
 40
0.0
176
     1
 40
1.0
176
     1
 90
        0
176
     1
 62
    18
420
        0
176
     1
 90
       50
176
     1
 90
        3
176
     1
 62
     5
420
      255
176
     1
290
     0
176
     1
 90
       50
176
     1
 90
       50
176
     1
 90
       50
176
     1
290
     0
176
     1
 90
       50
176
     1
 62
   256
176
     0
 40
1.0
176
     0
 90
        2
176
     1
  1
strokes_ogs.tif
176
     1
290
     0
176
     1
 40
1.0
176
     1
 40
1.0
176
     1
  0
VISUALSTYLE
  5
3E
102
{ACAD_REACTORS
330
29
102
}
330
29
100
AcDbVisualStyle
  2
Shaded
 70
    27
177
     3
291
     0
 70
    58
 90
        2
176
     1
 90
        2
176
     1
 90
        1
176
     1
 90
        2
176
     1
 40
0.6
176
     1
 40
30.0
176
     1
 62
     7
420
 16777215
176
     1
 90
        0
176
     1
 90
        4
176
     1
 62
     7
176
     1
 62
   257
176
     1
 90
        1
176
     1
 90
        1
176
     1
 40
1.0
176
     1
 90
        8
176
     1
 62
   257
176
     1
 40
1.0
176
     1
 90
        1
176
     1
 90
        6
176
     1
 90
        2
176
     1
 62
     8
420
  7895160
176
     1
 90
        3
176
     1
 90
        0
176
     1
 90
        0
176
     1
290
     0
176
     1
 90
        5
176
     1
 40
0.0
176
     1
 90
        0
176
     1
290
     0
176
     1
290
     1
176
     1
290
     1
176
     1
290
     0
176
     1
290
     0
176
     1
290
     0
176
     1
290
     0
176
     1
290
     0
176
     1
290
     0
176
     1
 90
       50
176
     1
 40
0.0
176
     1
 40
1.0
176
     1
 90
        0
176
     1
 62
    18
420
        0
176
     1
 90
       50
176
     1
 90
        3
176
     1
 62
     5
420
      255
176
     1
290
     0
176
     1
 90
       50
176
     1
 90
       50
176
     1
 90
       50
176
     1
290
     0
176
     1
 90
       50
176
     1
 62
   256
176
     0
 40
1.0
176
     0
 90
        2
176
     1
  1
strokes_ogs.tif
176
     1
290
     0
176
     1
 40
1.0
176
     1
 40
1.0
176
     1
  0
VISUALSTYLE
  5
3D
102
{ACAD_REACTORS
330
29
102
}
330
29
100
AcDbVisualStyle
  2
Shaded with edges
 70
    26
177
     3
291
     0
 70
    58
 90
        2
176
     1
 90
        2
176
     1
 90
        1
176
     1
 90
        2
176
     1
 40
0.6
176
     1
 40
30.0
176
     1
 62
     7
420
 16777215
176
     1
 90
        1
176
     1
 90
       10
176
     1
 62
     7
176
     1
 62
   257
176
     1
 90
        2
176
     1
 90
        1
176
     1
 40
1.0
176
     1
 90
        8
176
     1
 62
   257
176
     1
 40
1.0
176
     1
 90
        1
176
     1
 90
        6
176
     1
 90
        2
176
     1
 62
     7
176
     1
 90
        3
176
     1
 90
        0
176
     1
 90
        0
176
     1
290
     0
176
     1
 90
        5
176
     1
 40
0.0
176
     1
 90
        0
176
     1
290
     0
176
     1
290
     1
176
     1
290
     1
176
     1
290
     0
176
     1
290
     0
176
     1
290
     0
176
     1
290
     0
176
     1
290
     0
176
     1
290
     0
176
     1
 90
       50
176
     1
 40
0.0
176
     1
 40
1.0
176
     1
 90
        0
176
     1
 62
    18
420
        0
176
     1
 90
       50
176
     1
 90
        3
176
     1
 62
     5
420
      255
176
     1
290
     0
176
     1
 90
       50
176
     1
 90
       50
176
     1
 90
       50
176
     1
290
     0
176
     1
 90
       50
176
     1
 62
   256
176
     0
 40
1.0
176
     0
 90
        2
176
     1
  1
strokes_ogs.tif
176
     1
290
     0
176
     1
 40
1.0
176
     1
 40
1.0
176
     1
  0
VISUALSTYLE
  5
3A
102
{ACAD_REACTORS
330
29
102
}
330
29
100
AcDbVisualStyle
  2
Shades of Gray
 70
    23
177
     3
291
     0
 70
    58
 90
        2
176
     1
 90
        2
176
     1
 90
        3
176
     1
 90
        0
176
     1
 40
0.6
176
     1
 40
30.0
176
     1
 62
     7
420
 16777215
176
     1
 90
        2
176
     1
 90
        2
176
     1
 62
     7
176
     1
 62
     7
176
     1
 90
        1
176
     1
 90
        1
176
     1
 40
40.0
176
     1
 90
        8
176
     1
 62
     7
176
     1
 40
1.0
176
     1
 90
        1
176
     1
 90
        6
176
     1
 90
        2
176
     1
 62
     7
176
     1
 90
        3
176
     1
 90
        0
176
     1
 90
        0
176
     1
290
     0
176
     1
 90
        1
176
     1
 40
0.0
176
     1
 90
        0
176
     1
290
     0
176
     1
290
     1
176
     1
290
     1
176
     1
290
     0
176
     1
290
     0
176
     1
290
     0
176
     1
290
     0
176
     1
290
     0
176
     1
290
     0
176
     1
 90
       50
176
     1
 40
0.0
176
     1
 40
1.0
176
     1
 90
        0
176
     1
 62
    18
420
        0
176
     1
 90
       50
176
     1
 90
        3
176
     1
 62
     5
420
      255
176
     1
290
     0
176
     1
 90
       50
176
     1
 90
       50
176
     1
 90
       50
176
     1
290
     0
176
     1
 90
       50
176
     1
 62
   256
176
     0
 40
1.0
176
     0
 90
        2
176
     1
  1
strokes_ogs.tif
176
     1
290
     0
176
     1
 40
1.0
176
     1
 40
1.0
176
     1
  0
VISUALSTYLE
  5
3B
102
{ACAD_REACTORS
330
29
102
}
330
29
100
AcDbVisualStyle
  2
Sketchy
 70
    24
177
     3
291
     0
 70
    58
 90
        1
176
     1
 90
        2
176
     1
 90
        2
176
     1
 90
        0
176
     1
 40
0.6
176
     1
 40
30.0
176
     1
 62
     7
420
 16777215
176
     1
 90
        2
176
     1
 90
        2
176
     1
 62
     7
176
     1
 62
     7
176
     1
 90
        1
176
     1
 90
        1
176
     1
 40
40.0
176
     1
 90
       11
176
     1
 62
     7
176
     1
 40
1.0
176
     1
 90
        1
176
     1
 90
        6
176
     1
 90
        2
176
     1
 62
     7
176
     1
 90
        6
176
     1
 90
        0
176
     1
 90
        0
176
     1
290
     0
176
     1
 90
        1
176
     1
 40
0.0
176
     1
 90
        0
176
     1
290
     0
176
     1
290
     1
176
     1
290
     1
176
     1
290
     0
176
     1
290
     0
176
     1
290
     0
176
     1
290
     0
176
     1
290
     0
176
     1
290
     0
176
     1
 90
       50
176
     1
 40
0.0
176
     1
 40
1.0
176
     1
 90
        0
176
     1
 62
    18
420
        0
176
     1
 90
       50
176
     1
 90
        3
176
     1
 62
     5
420
      255
176
     1
290
     0
176
     1
 90
       50
176
     1
 90
       50
176
     1
 90
       50
176
     1
290
     0
176
     1
 90
       50
176
     1
 62
   256
176
     0
 40
1.0
176
     0
 90
        2
176
     1
  1
strokes_ogs.tif
176
     1
290
     0
176
     1
 40
1.0
176
     1
 40
1.0
176
     1
  0
VISUALSTYLE
  5
36
102
{ACAD_REACTORS
330
29
102
}
330
29
100
AcDbVisualStyle
  2
Thicken
 70
    13
177
     3
291
     1
 70
    58
 90
        2
176
     1
 90
        2
176
     1
 90
        0
176
     1
 90
        0
176
     1
 40
0.6
176
     1
 40
30.0
176
     1
 62
     7
420
 16777215
176
     1
 90
        1
176
     1
 90
        4
176
     1
 62
     7
176
     1
 62
   257
176
     1
 90
        1
176
     1
 90
        1
176
     1
 40
1.0
176
     1
 90
       12
176
     1
 62
     7
176
     1
 40
1.0
176
     1
 90
        1
176
     1
 90
        6
176
     1
 90
        2
176
     1
 62
     7
176
     1
 90
        5
176
     1
 90
        0
176
     1
 90
        0
176
     1
290
     0
176
     1
 90
        1
176
     1
 40
0.0
176
     1
 90
        0
176
     1
290
     0
176
     1
290
     1
176
     1
290
     1
176
     1
290
     0
176
     1
290
     0
176
     1
290
     0
176
     1
290
     0
176
     1
290
     0
176
     1
290
     0
176
     1
 90
       50
176
     1
 40
0.0
176
     1
 40
1.0
176
     1
 90
        0
176
     1
 62
    18
420
        0
176
     1
 90
       50
176
     1
 90
        3
176
     1
 62
     5
420
      255
176
     1
290
     0
176
     1
 90
       50
176
     1
 90
       50
176
     1
 90
       50
176
     1
290
     0
176
     1
 90
       50
176
     1
 62
   256
176
     0
 40
1.0
176
     0
 90
        2
176
     1
  1
strokes_ogs.tif
176
     1
290
     0
176
     1
 40
1.0
176
     1
 40
1.0
176
     1
  0
VISUALSTYLE
  5
30
102
{ACAD_REACTORS
330
29
102
}
330
29
100
AcDbVisualStyle
  2
Wireframe
 70
     5
177
     3
291
     0
 70
    58
 90
        0
176
     1
 90
        2
176
     1
 90
        0
176
     1
 90
        0
176
     1
 40
0.6
176
     1
 40
30.0
176
     1
 62
     7
420
 16777215
176
     1
 90
        1
176
     1
 90
        4
176
     1
 62
     7
176
     1
 62
   257
176
     1
 90
        1
176
     1
 90
        1
176
     1
 40
1.0
176
     1
 90
        0
176
     1
 62
   257
176
     1
 40
1.0
176
     1
 90
        1
176
     1
 90
        6
176
     1
 90
        2
176
     1
 62
     7
176
     1
 90
        3
176
     1
 90
        0
176
     1
 90
        0
176
     1
290
     0
176
     1
 90
        1
176
     1
 40
0.0
176
     1
 90
        0
176
     1
290
     0
176
     1
290
     1
176
     1
290
     1
176
     1
290
     0
176
     1
290
     0
176
     1
290
     0
176
     1
290
     0
176
     1
290
     0
176
     1
290
     0
176
     1
 90
       50
176
     1
 40
0.0
176
     1
 40
1.0
176
     1
 90
        0
176
     1
 62
    18
420
        0
176
     1
 90
       50
176
     1
 90
        3
176
     1
 62
     5
420
      255
176
     1
290
     0
176
     1
 90
       50
176
     1
 90
       50
176
     1
 90
       50
176
     1
290
     0
176
     1
 90
       50
176
     1
 62
   256
176
     0
 40
1.0
176
     0
 90
        2
176
     1
  1
strokes_ogs.tif
176
     1
290
     0
176
     1
 40
1.0
176
     1
 40
1.0
176
     1
  0
VISUALSTYLE
  5
3C
102
{ACAD_REACTORS
330
29
102
}
330
29
100
AcDbVisualStyle
  2
X-Ray
 70
    25
177
     3
291
     0
 70
    58
 90
        2
176
     1
 90
        2
176
     1
 90
        1
176
     1
 90
        1
176
     1
 40
0.5
176
     1
 40
30.0
176
     1
 62
     7
420
 16777215
176
     1
 90
        1
176
     1
 90
        0
176
     1
 62
     7
176
     1
 62
   257
176
     1
 90
        1
176
     1
 90
        1
176
     1
 40
1.0
176
     1
 90
        8
176
     1
 62
     7
176
     1
 40
1.0
176
     1
 90
        1
176
     1
 90
        6
176
     1
 90
        2
176
     1
 62
     7
176
     1
 90
        3
176
     1
 90
        0
176
     1
 90
        0
176
     1
290
     0
176
     1
 90
       13
176
     1
 40
0.0
176
     1
 90
        0
176
     1
290
     0
176
     1
290
     1
176
     1
290
     1
176
     1
290
     0
176
     1
290
     0
176
     1
290
     0
176
     1
290
     0
176
     1
290
     0
176
     1
290
     0
176
     1
 90
       50
176
     1
 40
0.0
176
     1
 40
1.0
176
     1
 90
        0
176
     1
 62
    18
420
        0
176
     1
 90
       50
176
     1
 90
        3
176
     1
 62
     5
420
      255
176
     1
290
     0
176
     1
 90
       50
176
     1
 90
       50
176
     1
 90
       50
176
     1
290
     0
176
     1
 90
       50
176
     1
 62
   256
176
     0
 40
1.0
176
     0
 90
        2
176
     1
  1
strokes_ogs.tif
176
     1
290
     0
176
     1
 40
1.0
176
     1
 40
1.0
176
     1
  0
DICTIONARYVAR
  5
181
102
{ACAD_REACTORS
330
17C
102
}
330
17C
100
DictionaryVariables
280
     0
  1
1:1
  0
DICTIONARYVAR
  5
17E
102
{ACAD_REACTORS
330
17C
102
}
330
17C
100
DictionaryVariables
280
     0
  1
STANDARD
  0
DICTIONARYVAR
  5
17D
102
{ACAD_REACTORS
330
17C
102
}
330
17C
100
DictionaryVariables
280
     0
  1
STANDARD
  0
DICTIONARYVAR
  5
17F
102
{ACAD_REACTORS
330
17C
102
}
330
17C
100
DictionaryVariables
280
     0
  1
Imperial24
  0
DICTIONARYVAR
  5
180
102
{ACAD_REACTORS
330
17C
102
}
330
17C
100
DictionaryVariables
280
     0
  1
Imperial24
  0
XRECORD
  5
173
102
{ACAD_REACTORS
330
170
102
}
330
170
100
AcDbXrecord
280
     1
  1
BUILDING_ID
  1
Pressure_Balance_Rough_Valve-GROHE-35111000
  1
FLOOR_ID
  1
1884
  0
XRECORD
  5
171
102
{ACAD_REACTORS
330
170
102
}
330
170
100
AcDbXrecord
280
     1
  1
-2000051
  1
Lines
  1
-2007000
  1
Connector Element
  0
XRECORD
  5
172
102
{ACAD_REACTORS
330
170
102
}
330
170
100
AcDbXrecord
280
     1
  1
-2000287
  1
<Beyond>
  0
DICTIONARY
  5
179
330
6B
100
AcDbDictionary
280
     1
281
     1
  3
ACAD_XREC_ROUNDTRIP
360
358
  0
DICTIONARY
  5
1A
330
19
100
AcDbDictionary
280
     1
281
     1
  3
BUMPTILE
360
1C
  3
DIFFUSETILE
360
1B
  3
OPACITYTILE
360
1F
  3
REFLECTIONTILE
360
1E
  3
REFRACTIONTILE
360
20
  3
SPECULARTILE
360
1D
  0
DICTIONARY
  5
12
330
11
100
AcDbDictionary
280
     1
281
     1
  3
BUMPTILE
360
14
  3
DIFFUSETILE
360
13
  3
OPACITYTILE
360
17
  3
REFLECTIONTILE
360
16
  3
REFRACTIONTILE
360
18
  3
SPECULARTILE
360
15
  0
DICTIONARY
  5
22
330
21
100
AcDbDictionary
280
     1
281
     1
  3
BUMPTILE
360
24
  3
DIFFUSETILE
360
23
  3
OPACITYTILE
360
27
  3
REFLECTIONTILE
360
26
  3
REFRACTIONTILE
360
28
  3
SPECULARTILE
360
25
  0
DICTIONARY
  5
177
330
69
100
AcDbDictionary
280
     1
281
     1
  3
ACAD_XREC_ROUNDTRIP
360
357
  0
DICTIONARY
  5
355
330
65
100
AcDbDictionary
280
     1
281
     1
  3
ACAD_ROUNDTRIP_2008_TABLESTYLE_CELLSTYLEMAP
360
356
  0
XRECORD
  5
358
102
{ACAD_REACTORS
330
179
102
}
330
179
100
AcDbXrecord
280
     1
102
DISPLAYNAME
  1
Imperial24
102
FLAGS
 90
        0
  0
XRECORD
  5
1C
102
{ACAD_REACTORS
330
1A
102
}
330
1A
100
AcDbXrecord
280
     1
270
     1
271
     1
  0
XRECORD
  5
1B
102
{ACAD_REACTORS
330
1A
102
}
330
1A
100
AcDbXrecord
280
     1
270
     1
271
     1
  0
XRECORD
  5
1F
102
{ACAD_REACTORS
330
1A
102
}
330
1A
100
AcDbXrecord
280
     1
270
     1
271
     1
  0
XRECORD
  5
1E
102
{ACAD_REACTORS
330
1A
102
}
330
1A
100
AcDbXrecord
280
     1
270
     1
271
     1
  0
XRECORD
  5
20
102
{ACAD_REACTORS
330
1A
102
}
330
1A
100
AcDbXrecord
280
     1
270
     1
271
     1
  0
XRECORD
  5
1D
102
{ACAD_REACTORS
330
1A
102
}
330
1A
100
AcDbXrecord
280
     1
270
     1
271
     1
  0
XRECORD
  5
14
102
{ACAD_REACTORS
330
12
102
}
330
12
100
AcDbXrecord
280
     1
270
     1
271
     1
  0
XRECORD
  5
13
102
{ACAD_REACTORS
330
12
102
}
330
12
100
AcDbXrecord
280
     1
270
     1
271
     1
  0
XRECORD
  5
17
102
{ACAD_REACTORS
330
12
102
}
330
12
100
AcDbXrecord
280
     1
270
     1
271
     1
  0
XRECORD
  5
16
102
{ACAD_REACTORS
330
12
102
}
330
12
100
AcDbXrecord
280
     1
270
     1
271
     1
  0
XRECORD
  5
18
102
{ACAD_REACTORS
330
12
102
}
330
12
100
AcDbXrecord
280
     1
270
     1
271
     1
  0
XRECORD
  5
15
102
{ACAD_REACTORS
330
12
102
}
330
12
100
AcDbXrecord
280
     1
270
     1
271
     1
  0
XRECORD
  5
24
102
{ACAD_REACTORS
330
22
102
}
330
22
100
AcDbXrecord
280
     1
270
     1
271
     1
  0
XRECORD
  5
23
102
{ACAD_REACTORS
330
22
102
}
330
22
100
AcDbXrecord
280
     1
270
     1
271
     1
  0
XRECORD
  5
27
102
{ACAD_REACTORS
330
22
102
}
330
22
100
AcDbXrecord
280
     1
270
     1
271
     1
  0
XRECORD
  5
26
102
{ACAD_REACTORS
330
22
102
}
330
22
100
AcDbXrecord
280
     1
270
     1
271
     1
  0
XRECORD
  5
28
102
{ACAD_REACTORS
330
22
102
}
330
22
100
AcDbXrecord
280
     1
270
     1
271
     1
  0
XRECORD
  5
25
102
{ACAD_REACTORS
330
22
102
}
330
22
100
AcDbXrecord
280
     1
270
     1
271
     1
  0
XRECORD
  5
357
102
{ACAD_REACTORS
330
177
102
}
330
177
100
AcDbXrecord
280
     1
102
DISPLAYNAME
  1
Imperial24
102
FLAGS
 90
        0
  0
CELLSTYLEMAP
  5
356
102
{ACAD_REACTORS
330
355
102
}
330
355
100
AcDbCellStyleMap
 90
        3
300
CELLSTYLE
  1
TABLEFORMAT_BEGIN
 90
        5
170
     1
 91
        0
 92
    32768
 62
   257
 93
        1
300
CONTENTFORMAT
  1
CONTENTFORMAT_BEGIN
 90
        0
 91
        0
 92
      512
 93
        0
300

 40
0.0
140
1.0
 94
        5
 62
     0
340
55
144
0.25
309
CONTENTFORMAT_END
171
     0
 94
        0
309
TABLEFORMAT_END
  1
CELLSTYLE_BEGIN
 90
        1
 91
        1
300
_TITLE
309
CELLSTYLE_END
300
CELLSTYLE
  1
TABLEFORMAT_BEGIN
 90
        5
170
     1
 91
        0
 92
        0
 62
   257
 93
        1
300
CONTENTFORMAT
  1
CONTENTFORMAT_BEGIN
 90
        0
 91
        0
 92
      512
 93
        0
300

 40
0.0
140
1.0
 94
        5
 62
     0
340
55
144
0.18
309
CONTENTFORMAT_END
171
     0
 94
        0
309
TABLEFORMAT_END
  1
CELLSTYLE_BEGIN
 90
        2
 91
        1
300
_HEADER
309
CELLSTYLE_END
300
CELLSTYLE
  1
TABLEFORMAT_BEGIN
 90
        5
170
     1
 91
        0
 92
        0
 62
   257
 93
        1
300
CONTENTFORMAT
  1
CONTENTFORMAT_BEGIN
 90
        0
 91
        0
 92
      512
 93
        0
300

 40
0.0
140
1.0
 94
        2
 62
     0
340
55
144
0.18
309
CONTENTFORMAT_END
171
     0
 94
        0
309
TABLEFORMAT_END
  1
CELLSTYLE_BEGIN
 90
        3
 91
        2
300
_DATA
309
CELLSTYLE_END
  0
ENDSEC
  0
SECTION
  2
ACDSDATA
 70
     2
 71
     8
  0
ACDSSCHEMA
 90
        0
  1
AcDb_Thumbnail_Schema
  2
AcDbDs::ID
280
    10
 91
        8
  2
Thumbnail_Data
280
    15
 91
        0
101
ACDSRECORD
 95
        0
 90
        1
  2
AcDbDs::TreatedAsObjectData
280
     1
291
     1
101
ACDSRECORD
 95
        0
 90
        2
  2
AcDbDs::Legacy
280
     1
291
     1
101
ACDSRECORD
  1
AcDbDs::ID
 90
        3
  2
AcDs:Indexable
280
     1
291
     1
101
ACDSRECORD
  1
AcDbDs::ID
 90
        4
  2
AcDbDs::HandleAttribute
280
     7
282
     1
  0
ACDSSCHEMA
 90
        1
  1
AcDbDs::TreatedAsObjectDataSchema
  2
AcDbDs::TreatedAsObjectData
280
     1
 91
        0
  0
ACDSSCHEMA
 90
        2
  1
AcDbDs::LegacySchema
  2
AcDbDs::Legacy
280
     1
 91
        0
  0
ACDSSCHEMA
 90
        3
  1
AcDbDs::IndexedPropertySchema
  2
AcDs:Indexable
280
     1
 91
        0
  0
ACDSSCHEMA
 90
        4
  1
AcDbDs::HandleAttributeSchema
  2
AcDbDs::HandleAttribute
280
     7
 91
        1
284
     1
  0
ACDSRECORD
 90
        0
  2
AcDbDs::ID
280
    10
320
73
  2
Thumbnail_Data
280
    15
 94
     1174
310
89504E470D0A1A0A0000000D49484452000001000000006F08030000003479EE6F00000300504C5445212830000000C8C8C80000000000000000000000000000000000000000000000000000330000660000990000CC0000FF0033000033330033660033990033CC0033FF0066000066330066660066990066CC0066FF0099
310
000099330099660099990099CC0099FF00CC0000CC3300CC6600CC9900CCCC00CCFF00FF0000FF3300FF6600FF9900FFCC00FFFF3300003300333300663300993300CC3300FF3333003333333333663333993333CC3333FF3366003366333366663366993366CC3366FF3399003399333399663399993399CC3399FF33CC00
310
33CC3333CC6633CC9933CCCC33CCFF33FF0033FF3333FF6633FF9933FFCC33FFFF6600006600336600666600996600CC6600FF6633006633336633666633996633CC6633FF6666006666336666666666996666CC6666FF6699006699336699666699996699CC6699FF66CC0066CC3366CC6666CC9966CCCC66CCFF66FF0066
310
FF3366FF6666FF9966FFCC66FFFF9900009900339900669900999900CC9900FF9933009933339933669933999933CC9933FF9966009966339966669966999966CC9966FF9999009999339999669999999999CC9999FF99CC0099CC3399CC6699CC9999CCCC99CCFF99FF0099FF3399FF6699FF9999FFCC99FFFFCC0000CC00
310
33CC0066CC0099CC00CCCC00FFCC3300CC3333CC3366CC3399CC33CCCC33FFCC6600CC6633CC6666CC6699CC66CCCC66FFCC9900CC9933CC9966CC9999CC99CCCC99FFCCCC00CCCC33CCCC66CCCC99CCCCCCCCCCFFCCFF00CCFF33CCFF66CCFF99CCFFCCCCFFFFFF0000FF0033FF0066FF0099FF00CCFF00FFFF3300FF3333
310
FF3366FF3399FF33CCFF33FFFF6600FF6633FF6666FF6699FF66CCFF66FFFF9900FF9933FF9966FF9999FF99CCFF99FFFFCC00FFCC33FFCC66FFCC99FFCCCCFFCCFFFFFF00FFFF33FFFF66FFFF99FFFFCCFFFFFF0000000D0D0D1A1A1A2828283535354343435050505D5D5D6B6B6B787878868686939393A1A1A1AEAEAEBB
310
BBBBC9C9C9D6D6D6E4E4E4F1F1F1FFFFFF000000000000000000000000000000000000000000000000000000000000B21171F6000001514944415478DAEDDA410EC3200C4451EE7F5FEF5B89866262276C5A299EFF16911A75C3008624B40600000000000000000000FF636FD2AD1F57C9AE77E402B8F94D00E587FFC6BDBA
310
ED0F4A40BFA937FA7DBF9BDCE85F160081F5C05C3FAF03DFEA0F0302F02D5CA7804000410D684A3560DA05473785B7827A0F4404201F80F8E33000000000E8927F10240002A81B80DDB67DFCC9A63B6A014C43A0CA48D83DFAE2BE91F7C4AC64CFA7011C9F42C6E100AD006C1EF33D8822AFC637A780B5E55C4085007C45FB
310
B42F482188A6C6C7014BD7F7535F9F8AFE28844F0EC1D20EB56886A433E7F901F46ECE02884E888DB69709C037452D80EB1A704450700AF845605E06CE412545B0C23E605D06F3AD42B56530DCFA59BE0F0C1647A500DA3249EA04B0B115EECD75D55FEEBCFC520CD48EC8B90705C1008EB5E17B157D33CA5B6102E0882000
310
00000000000000C0AFBD0071D6815547BF178A0000000049454E44AE426082
  0
ENDSEC
  0
EOF
