  0
SECTION
  2
HEADER
  9
$ACADVER
  1
AC1009
  9
$DWGCODEPAGE
  3
ansi_1252
  9
$INSBASE
 10
0.0
 20
0.0
 30
0.0
  9
$EXTMIN
 10
1.000000000000000E+20
 20
1.000000000000000E+20
 30
1.000000000000000E+20
  9
$EXTMAX
 10
-1.000000000000000E+20
 20
-1.000000000000000E+20
 30
-1.000000000000000E+20
  9
$LIMMIN
 10
0.0
 20
0.0
  9
$LIMMAX
 10
12.0
 20
9.0
  9
$ORTHOMODE
 70
     0
  9
$REGENMODE
 70
     1
  9
$FILLMODE
 70
     1
  9
$QTEXTMODE
 70
     0
  9
$MIRRTEXT
 70
     1
  9
$DRAGMODE
 70
     2
  9
$LTSCALE
 40
1.0
  9
$OSMODE
 70
    37
  9
$ATTMODE
 70
     1
  9
$TEXTSIZE
 40
0.2
  9
$TRACEWID
 40
0.05
  9
$TEXTSTYLE
  7
STANDARD
  9
$CLAYER
  8
0
  9
$CELTYPE
  6
BYLAYER
  9
$CECOLOR
 62
   256
  9
$DIMSCALE
 40
1.0
  9
$DIMASZ
 40
0.18
  9
$DIMEXO
 40
0.0625
  9
$DIMDLI
 40
0.38
  9
$DIMRND
 40
0.0
  9
$DIMDLE
 40
0.0
  9
$DIMEXE
 40
0.18
  9
$DIMTP
 40
0.0
  9
$DIMTM
 40
0.0
  9
$DIMTXT
 40
0.18
  9
$DIMCEN
 40
0.09
  9
$DIMTSZ
 40
0.0
  9
$DIMTOL
 70
     0
  9
$DIMLIM
 70
     0
  9
$DIMTIH
 70
     1
  9
$DIMTOH
 70
     1
  9
$DIMSE1
 70
     0
  9
$DIMSE2
 70
     0
  9
$DIMTAD
 70
     0
  9
$DIMZIN
 70
     0
  9
$DIMBLK
  1

  9
$DIMASO
 70
     1
  9
$DIMSHO
 70
     1
  9
$DIMPOST
  1

  9
$DIMAPOST
  1

  9
$DIMALT
 70
     0
  9
$DIMALTD
 70
     2
  9
$DIMALTF
 40
25.4
  9
$DIMLFAC
 40
1.0
  9
$DIMTOFL
 70
     0
  9
$DIMTVP
 40
0.0
  9
$DIMTIX
 70
     0
  9
$DIMSOXD
 70
     0
  9
$DIMSAH
 70
     0
  9
$DIMBLK1
  1

  9
$DIMBLK2
  1

  9
$DIMSTYLE
  2
STANDARD
  9
$DIMCLRD
 70
     0
  9
$DIMCLRE
 70
     0
  9
$DIMCLRT
 70
     0
  9
$DIMTFAC
 40
1.0
  9
$DIMGAP
 40
0.09
  9
$LUNITS
 70
     2
  9
$LUPREC
 70
     4
  9
$SKETCHINC
 40
0.1
  9
$FILLETRAD
 40
0.5
  9
$AUNITS
 70
     0
  9
$AUPREC
 70
     0
  9
$MENU
  1
.
  9
$ELEVATION
 40
0.0
  9
$PELEVATION
 40
0.0
  9
$THICKNESS
 40
0.0
  9
$LIMCHECK
 70
     0
  9
$CHAMFERA
 40
0.5
  9
$CHAMFERB
 40
0.5
  9
$SKPOLY
 70
     0
  9
$TDCREATE
 40
2455354.619818426
  9
$TDUPDATE
 40
2455354.619818426
  9
$TDINDWG
 40
0.0000000116
  9
$TDUSRTIMER
 40
0.0000000116
  9
$USRTIMER
 70
     1
  9
$ANGBASE
 50
0.0
  9
$ANGDIR
 70
     0
  9
$PDMODE
 70
     0
  9
$PDSIZE
 40
0.0
  9
$PLINEWID
 40
0.0
  9
$COORDS
 70
     1
  9
$SPLFRAME
 70
     0
  9
$SPLINETYPE
 70
     6
  9
$SPLINESEGS
 70
     8
  9
$ATTDIA
 70
     0
  9
$ATTREQ
 70
     1
  9
$HANDLING
 70
     1
  9
$HANDSEED
  5
39B
  9
$SURFTAB1
 70
     6
  9
$SURFTAB2
 70
     6
  9
$SURFTYPE
 70
     6
  9
$SURFU
 70
     6
  9
$SURFV
 70
     6
  9
$UCSNAME
  2

  9
$UCSORG
 10
0.0
 20
0.0
 30
0.0
  9
$UCSXDIR
 10
1.0
 20
0.0
 30
0.0
  9
$UCSYDIR
 10
0.0
 20
1.0
 30
0.0
  9
$PUCSNAME
  2

  9
$PUCSORG
 10
0.0
 20
0.0
 30
0.0
  9
$PUCSXDIR
 10
1.0
 20
0.0
 30
0.0
  9
$PUCSYDIR
 10
0.0
 20
1.0
 30
0.0
  9
$USERI1
 70
     0
  9
$USERI2
 70
     0
  9
$USERI3
 70
     0
  9
$USERI4
 70
     0
  9
$USERI5
 70
     0
  9
$USERR1
 40
0.0
  9
$USERR2
 40
0.0
  9
$USERR3
 40
0.0
  9
$USERR4
 40
0.0
  9
$USERR5
 40
0.0
  9
$WORLDVIEW
 70
     1
  9
$SHADEDGE
 70
     3
  9
$SHADEDIF
 70
    70
  9
$TILEMODE
 70
     1
  9
$MAXACTVP
 70
    64
  9
$PLIMCHECK
 70
     0
  9
$PEXTMIN
 10
1.000000000000000E+20
 20
1.000000000000000E+20
 30
1.000000000000000E+20
  9
$PEXTMAX
 10
-1.000000000000000E+20
 20
-1.000000000000000E+20
 30
-1.000000000000000E+20
  9
$PLIMMIN
 10
0.0
 20
0.0
  9
$PLIMMAX
 10
12.0
 20
9.0
  9
$UNITMODE
 70
     0
  9
$VISRETAIN
 70
     1
  9
$PLINEGEN
 70
     0
  9
$PSLTSCALE
 70
     1
  0
ENDSEC
  0
SECTION
  2
TABLES
  0
TABLE
  2
VPORT
 70
     1
  0
VPORT
  2
*ACTIVE
 70
     0
 10
0.0
 20
0.0
 11
1.0
 21
1.0
 12
0.0
 22
0.0
 13
0.0
 23
0.0
 14
0.5
 24
0.5
 15
0.5
 25
0.5
 16
244.9477233886719
 26
139.9580535888672
 36
244.9477081298828
 17
82.1514892578125
 27
-0.3280029296875
 37
-15.30149841308594
 40
140.6539331810999
 41
1.972972972850329
 42
50.0
 43
0.0
 44
0.0
 50
0.0
 51
0.0
 71
     0
 72
   100
 73
     1
 74
     3
 75
     0
 76
     0
 77
     0
 78
     0
  0
ENDTAB
  0
TABLE
  2
LTYPE
 70
     1
  0
LTYPE
  2
CONTINUOUS
 70
     0
  3
Solid line
 72
    65
 73
     0
 40
0.0
  0
ENDTAB
  0
TABLE
  2
LAYER
 70
     2
  0
LAYER
  2
0
 70
     0
 62
     7
  6
CONTINUOUS
  0
LAYER
  2
LAYER_1
 70
     0
 62
     7
  6
CONTINUOUS
  0
ENDTAB
  0
TABLE
  2
STYLE
 70
     1
  0
STYLE
  2
STANDARD
 70
     0
 40
0.0
 41
1.0
 50
0.0
 71
     0
 42
0.2
  3
txt
  4

  0
ENDTAB
  0
TABLE
  2
VIEW
 70
     0
  0
ENDTAB
  0
TABLE
  2
UCS
 70
     0
  0
ENDTAB
  0
TABLE
  2
APPID
 70
     1
  0
APPID
  2
ACAD
 70
     0
  0
ENDTAB
  0
TABLE
  2
DIMSTYLE
 70
     1
  0
DIMSTYLE
  2
STANDARD
 70
     0
  3

  4

  5

  6

  7

 40
1.0
 41
0.18
 42
0.0625
 43
0.38
 44
0.18
 45
0.0
 46
0.0
 47
0.0
 48
0.0
140
0.18
141
0.09
142
0.0
143
25.4
144
1.0
145
0.0
146
1.0
147
0.09
 71
     0
 72
     0
 73
     1
 74
     1
 75
     0
 76
     0
 77
     0
 78
     0
170
     0
171
     2
172
     0
173
     0
174
     0
175
     0
176
     0
177
     0
178
     0
  0
ENDTAB
  0
ENDSEC
  0
SECTION
  2
BLOCKS
  0
BLOCK
  8
0
  2
$MODEL_SPACE
 70
     0
 10
0.0
 20
0.0
 30
0.0
  3
$MODEL_SPACE
  1

  0
ENDBLK
  5
21
  8
0
  0
BLOCK
 67
     1
  8
0
  2
$PAPER_SPACE
 70
     0
 10
0.0
 20
0.0
 30
0.0
  3
$PAPER_SPACE
  1

  0
ENDBLK
  5
1D
 67
     1
  8
0
  0
BLOCK
  8
0
  2
E3_NODE
 70
     0
 10
0.0
 20
0.0
 30
0.0
  3
E3_NODE
  1

  0
POLYLINE
  5
3C
  8
0
 62
     9
 66
     1
 10
0.0
 20
0.0
 30
0.0
 70
    64
 71
    46
 72
    44
  0
VERTEX
  5
3D
  8
0
 10
0.0
 20
-16.11199951171875
 30
-24.58200073242188
 70
   192
  0
VERTEX
  5
3E
  8
0
 10
0.0
 20
-20.98200035095215
 30
-21.04500007629395
 70
   192
  0
VERTEX
  5
3F
  8
0
 10
0.0
 20
-24.60899925231934
 30
-16.05200004577637
 70
   192
  0
VERTEX
  5
40
  8
0
 10
0.0
 20
-27.4060001373291
 30
-12.20199966430664
 70
   192
  0
VERTEX
  5
41
  8
0
 10
0.0
 20
-27.66300010681152
 30
-10.99400043487549
 70
   192
  0
VERTEX
  5
42
  8
0
 10
0.0
 20
-20.07399940490723
 30
-22.29400062561035
 70
   192
  0
VERTEX
  5
43
  8
0
 10
0.0
 20
-5.400000095367432
 30
-28.93899917602539
 70
   192
  0
VERTEX
  5
44
  8
0
 10
0.0
 20
-9.270999908447266
 30
-28.5319995880127
 70
   192
  0
VERTEX
  5
45
  8
0
 10
0.0
 20
-10.87600040435791
 30
-27.60499954223633
 70
   192
  0
VERTEX
  5
46
  8
0
 10
0.0
 20
-28.86800003051758
 30
-5.324999809265137
 70
   192
  0
VERTEX
  5
47
  8
0
 10
0.0
 20
5.335999965667725
 30
-29.12100028991699
 70
   192
  0
VERTEX
  5
48
  8
0
 10
0.0
 20
3.135999917984009
 30
-29.83600044250488
 70
   192
  0
VERTEX
  5
49
  8
0
 10
0.0
 20
10.85900020599365
 30
-27.32600021362305
 70
   192
  0
VERTEX
  5
4A
  8
0
 10
0.0
 20
20.80200004577637
 30
20.75699996948242
 70
   192
  0
VERTEX
  5
4B
  8
0
 10
0.0
 20
24.86199951171875
 30
16.30599975585938
 70
   192
  0
VERTEX
  5
4C
  8
0
 10
0.0
 20
27.31900024414062
 30
10.78699970245361
 70
   192
  0
VERTEX
  5
4D
  8
0
 10
0.0
 20
27.31900024414062
 30
-10.78699970245361
 70
   192
  0
VERTEX
  5
4E
  8
0
 10
0.0
 20
0.0509999990463257
 30
29.51099967956543
 70
   192
  0
VERTEX
  5
4F
  8
0
 10
0.0
 20
3.135999917984009
 30
29.83600044250488
 70
   192
  0
VERTEX
  5
50
  8
0
 10
0.0
 20
0.0509999990463257
 30
-29.51099967956543
 70
   192
  0
VERTEX
  5
51
  8
0
 10
0.0
 20
29.3439998626709
 30
0.0
 70
   192
  0
VERTEX
  5
52
  8
0
 10
0.0
 20
29.3439998626709
 30
-5.459000110626221
 70
   192
  0
VERTEX
  5
53
  8
0
 10
0.0
 20
29.3439998626709
 30
6.236999988555908
 70
   192
  0
VERTEX
  5
54
  8
0
 10
0.0
 20
29.3439998626709
 30
5.459000110626221
 70
   192
  0
VERTEX
  5
55
  8
0
 10
0.0
 20
24.27099990844727
 30
17.63400077819824
 70
   192
  0
VERTEX
  5
56
  8
0
 10
0.0
 20
10.85900020599365
 30
27.32600021362305
 70
   192
  0
VERTEX
  5
57
  8
0
 10
0.0
 20
15.0
 30
25.98100090026855
 70
   192
  0
VERTEX
  5
58
  8
0
 10
0.0
 20
5.335999965667725
 30
29.12100028991699
 70
   192
  0
VERTEX
  5
59
  8
0
 10
0.0
 20
-30.0
 30
0.0
 70
   192
  0
VERTEX
  5
5A
  8
0
 10
0.0
 20
16.21500015258789
 30
24.88699913024902
 70
   192
  0
VERTEX
  5
5B
  8
0
 10
0.0
 20
-5.400000095367432
 30
28.93899917602539
 70
   192
  0
VERTEX
  5
5C
  8
0
 10
0.0
 20
-28.86800003051758
 30
5.324999809265137
 70
   192
  0
VERTEX
  5
5D
  8
0
 10
0.0
 20
16.21500015258789
 30
-24.88699913024902
 70
   192
  0
VERTEX
  5
5E
  8
0
 10
0.0
 20
15.0
 30
-25.98100090026855
 70
   192
  0
VERTEX
  5
5F
  8
0
 10
0.0
 20
-27.66300010681152
 30
10.99400043487549
 70
   192
  0
VERTEX
  5
60
  8
0
 10
0.0
 20
-27.4060001373291
 30
12.20199966430664
 70
   192
  0
VERTEX
  5
61
  8
0
 10
0.0
 20
-10.87600040435791
 30
27.60499954223633
 70
   192
  0
VERTEX
  5
62
  8
0
 10
0.0
 20
-9.270999908447266
 30
28.5319995880127
 70
   192
  0
VERTEX
  5
63
  8
0
 10
0.0
 20
-20.98200035095215
 30
21.04500007629395
 70
   192
  0
VERTEX
  5
64
  8
0
 10
0.0
 20
-20.07399940490723
 30
22.29400062561035
 70
   192
  0
VERTEX
  5
65
  8
0
 10
0.0
 20
20.80200004577637
 30
-20.75699996948242
 70
   192
  0
VERTEX
  5
66
  8
0
 10
0.0
 20
24.86199951171875
 30
-16.30599975585938
 70
   192
  0
VERTEX
  5
67
  8
0
 10
0.0
 20
24.27099990844727
 30
-17.63400077819824
 70
   192
  0
VERTEX
  5
68
  8
0
 10
0.0
 20
-24.60899925231934
 30
16.05200004577637
 70
   192
  0
VERTEX
  5
69
  8
0
 10
0.0
 20
-16.11199951171875
 30
24.58200073242188
 70
   192
  0
VERTEX
  5
6A
  8
0
 10
0.0
 20
29.3439998626709
 30
-6.236999988555908
 70
   192
  0
VERTEX
  5
6B
  8
0
 62
     9
 10
0.0
 20
0.0
 30
0.0
 70
   128
 71
     3
 72
     2
 73
     1
  0
VERTEX
  5
6C
  8
0
 62
     9
 10
0.0
 20
0.0
 30
0.0
 70
   128
 71
     5
 72
     4
 73
     3
  0
VERTEX
  5
6D
  8
0
 62
     9
 10
0.0
 20
0.0
 30
0.0
 70
   128
 71
     2
 72
     6
 73
     1
  0
VERTEX
  5
6E
  8
0
 62
     9
 10
0.0
 20
0.0
 30
0.0
 70
   128
 71
     9
 72
     8
 73
     7
  0
VERTEX
  5
6F
  8
0
 62
     9
 10
0.0
 20
0.0
 30
0.0
 70
   128
 71
    12
 72
    11
 73
    10
  0
VERTEX
  5
70
  8
0
 62
     9
 10
0.0
 20
0.0
 30
0.0
 70
   128
 71
     1
 72
    10
 73
     3
  0
VERTEX
  5
71
  8
0
 62
     9
 10
0.0
 20
0.0
 30
0.0
 70
   128
 71
     7
 72
    10
 73
     9
  0
VERTEX
  5
72
  8
0
 62
     9
 10
0.0
 20
0.0
 30
0.0
 70
   128
 71
    11
 72
    13
 73
    10
  0
VERTEX
  5
73
  8
0
 62
     9
 10
0.0
 20
0.0
 30
0.0
 70
   128
 71
    16
 72
    15
 73
    14
  0
VERTEX
  5
74
  8
0
 62
     9
 10
0.0
 20
0.0
 30
0.0
 70
   128
 71
    19
 72
    18
 73
    17
  0
VERTEX
  5
75
  8
0
 62
     9
 10
0.0
 20
0.0
 30
0.0
 70
   128
 71
    10
 72
     1
 73
     9
  0
VERTEX
  5
76
  8
0
 62
     9
 10
0.0
 20
0.0
 30
0.0
 70
   128
 71
    10
 72
    20
 73
    12
  0
VERTEX
  5
77
  8
0
 62
     9
 10
0.0
 20
0.0
 30
0.0
 70
   128
 71
    22
 72
    21
 73
    14
  0
VERTEX
  5
78
  8
0
 62
     9
 10
0.0
 20
0.0
 30
0.0
 70
   128
 71
    24
 72
    23
 73
    16
  0
VERTEX
  5
79
  8
0
 62
     9
 10
0.0
 20
0.0
 30
0.0
 70
   128
 71
    15
 72
    25
 73
    14
  0
VERTEX
  5
7A
  8
0
 62
     9
 10
0.0
 20
0.0
 30
0.0
 70
   128
 71
    27
 72
    26
 73
    17
  0
VERTEX
  5
7B
  8
0
 62
     9
 10
0.0
 20
0.0
 30
0.0
 70
   128
 71
    17
 72
    28
 73
    19
  0
VERTEX
  5
7C
  8
0
 62
     9
 10
0.0
 20
0.0
 30
0.0
 70
   128
 71
    29
 72
    10
 73
    13
  0
VERTEX
  5
7D
  8
0
 62
     9
 10
0.0
 20
0.0
 30
0.0
 70
   128
 71
    10
 72
     7
 73
    20
  0
VERTEX
  5
7E
  8
0
 62
     9
 10
0.0
 20
0.0
 30
0.0
 70
   128
 71
    14
 72
    17
 73
    22
  0
VERTEX
  5
7F
  8
0
 62
     9
 10
0.0
 20
0.0
 30
0.0
 70
   128
 71
    14
 72
    21
 73
    16
  0
VERTEX
  5
80
  8
0
 62
     9
 10
0.0
 20
0.0
 30
0.0
 70
   128
 71
    17
 72
    30
 73
    27
  0
VERTEX
  5
81
  8
0
 62
     9
 10
0.0
 20
0.0
 30
0.0
 70
   128
 71
    18
 72
    31
 73
    17
  0
VERTEX
  5
82
  8
0
 62
     9
 10
0.0
 20
0.0
 30
0.0
 70
   128
 71
     3
 72
    10
 73
     5
  0
VERTEX
  5
83
  8
0
 62
     9
 10
0.0
 20
0.0
 30
0.0
 70
   128
 71
    34
 72
    33
 73
    32
  0
VERTEX
  5
84
  8
0
 62
     9
 10
0.0
 20
0.0
 30
0.0
 70
   128
 71
    16
 72
    21
 73
    24
  0
VERTEX
  5
85
  8
0
 62
     9
 10
0.0
 20
0.0
 30
0.0
 70
   128
 71
    17
 72
    26
 73
    28
  0
VERTEX
  5
86
  8
0
 62
     9
 10
0.0
 20
0.0
 30
0.0
 70
   128
 71
    32
 72
    13
 73
    34
  0
VERTEX
  5
87
  8
0
 62
     9
 10
0.0
 20
0.0
 30
0.0
 70
   128
 71
    36
 72
    35
 73
    17
  0
VERTEX
  5
88
  8
0
 62
     9
 10
0.0
 20
0.0
 30
0.0
 70
   128
 71
    17
 72
    14
 73
    30
  0
VERTEX
  5
89
  8
0
 62
     9
 10
0.0
 20
0.0
 30
0.0
 70
   128
 71
    38
 72
    37
 73
    17
  0
VERTEX
  5
8A
  8
0
 62
     9
 10
0.0
 20
0.0
 30
0.0
 70
   128
 71
    40
 72
    39
 73
    17
  0
VERTEX
  5
8B
  8
0
 62
     9
 10
0.0
 20
0.0
 30
0.0
 70
   128
 71
    33
 72
    41
 73
    32
  0
VERTEX
  5
8C
  8
0
 62
     9
 10
0.0
 20
0.0
 30
0.0
 70
   128
 71
    43
 72
    42
 73
    32
  0
VERTEX
  5
8D
  8
0
 62
     9
 10
0.0
 20
0.0
 30
0.0
 70
   128
 71
    17
 72
    44
 73
    36
  0
VERTEX
  5
8E
  8
0
 62
     9
 10
0.0
 20
0.0
 30
0.0
 70
   128
 71
    32
 72
    42
 73
    17
  0
VERTEX
  5
8F
  8
0
 62
     9
 10
0.0
 20
0.0
 30
0.0
 70
   128
 71
    17
 72
    31
 73
    38
  0
VERTEX
  5
90
  8
0
 62
     9
 10
0.0
 20
0.0
 30
0.0
 70
   128
 71
    17
 72
    45
 73
    40
  0
VERTEX
  5
91
  8
0
 62
     9
 10
0.0
 20
0.0
 30
0.0
 70
   128
 71
    32
 72
    41
 73
    43
  0
VERTEX
  5
92
  8
0
 62
     9
 10
0.0
 20
0.0
 30
0.0
 70
   128
 71
    17
 72
    35
 73
    32
  0
VERTEX
  5
93
  8
0
 62
     9
 10
0.0
 20
0.0
 30
0.0
 70
   128
 71
    17
 72
    37
 73
    45
  0
VERTEX
  5
94
  8
0
 62
     9
 10
0.0
 20
0.0
 30
0.0
 70
   128
 71
    17
 72
    39
 73
    44
  0
VERTEX
  5
95
  8
0
 62
     9
 10
0.0
 20
0.0
 30
0.0
 70
   128
 71
    13
 72
    32
 73
    29
  0
VERTEX
  5
96
  8
0
 62
     9
 10
0.0
 20
0.0
 30
0.0
 70
   128
 71
    17
 72
    46
 73
    22
  0
SEQEND
  5
97
  8
0
 62
     9
  0
ENDBLK
  5
9B
  8
0
  0
BLOCK
  8
0
  2
E3_NODE_1_
 70
     0
 10
0.0
 20
0.0
 30
0.0
  3
E3_NODE_1_
  1

  0
POLYLINE
  5
9D
  8
0
 62
     9
 66
     1
 10
0.0
 20
0.0
 30
0.0
 70
    64
 71
   232
 72
   392
  0
VERTEX
  5
9E
  8
0
 10
56.89599990844727
 20
26.0890007019043
 30
-7.644999980926514
 70
   192
  0
VERTEX
  5
9F
  8
0
 10
75.41600036621094
 20
24.95499992370605
 30
-13.30399990081787
 70
   192
  0
VERTEX
  5
A0
  8
0
 10
70.47000122070312
 20
23.20199966430664
 30
-21.04400062561035
 70
   192
  0
VERTEX
  5
A1
  8
0
 10
127.015998840332
 20
22.92300033569336
 30
-38.88000106811523
 70
   192
  0
VERTEX
  5
A2
  8
0
 10
137.0820007324219
 20
22.20899963378906
 30
-51.31800079345703
 70
   192
  0
VERTEX
  5
A3
  8
0
 10
134.4779968261719
 20
20.79299926757812
 30
-52.01599884033203
 70
   192
  0
VERTEX
  5
A4
  8
0
 10
142.3699951171875
 20
22.20899963378906
 30
-49.9010009765625
 70
   192
  0
VERTEX
  5
A5
  8
0
 10
70.60299682617188
 20
-23.71199989318848
 30
-1.986999988555908
 70
   192
  0
VERTEX
  5
A6
  8
0
 10
66.21199798583984
 20
-25.50200080871582
 30
-10.28400039672852
 70
   192
  0
VERTEX
  5
A7
  8
0
 10
75.41500091552734
 20
-24.95499992370605
 30
-13.30399990081787
 70
   192
  0
VERTEX
  5
A8
  8
0
 10
142.7039947509766
 20
-21.25
 30
-41.29999923706055
 70
   192
  0
VERTEX
  5
A9
  8
0
 10
134.8280029296875
 20
-22.85400009155273
 30
-44.25400161743164
 70
   192
  0
VERTEX
  5
AA
  8
0
 10
142.3699951171875
 20
-22.87299919128418
 30
-49.9010009765625
 70
   192
  0
VERTEX
  5
AB
  8
0
 10
47.26800155639648
 20
-9.602999687194824
 30
-29.90900039672852
 70
   192
  0
VERTEX
  5
AC
  8
0
 10
46.54100036621094
 20
0.0
 30
-31.59099960327148
 70
   192
  0
VERTEX
  5
AD
  8
0
 10
61.97900009155273
 20
0.0
 30
-34.33300018310547
 70
   192
  0
VERTEX
  5
AE
  8
0
 10
35.43399810791016
 20
25.42600059509277
 30
-13.25800037384033
 70
   192
  0
VERTEX
  5
AF
  8
0
 10
17.68400001525879
 20
26.65399932861328
 30
-11.45800018310547
 70
   192
  0
VERTEX
  5
B0
  8
0
 10
18.34700012207031
 20
28.1879997253418
 30
-6.164000034332275
 70
   192
  0
VERTEX
  5
B1
  8
0
 10
38.02399826049805
 20
27.34600067138672
 30
-3.530999898910522
 70
   192
  0
VERTEX
  5
B2
  8
0
 10
49.57400131225586
 20
18.44700050354004
 30
-24.57699966430664
 70
   192
  0
VERTEX
  5
B3
  8
0
 10
65.91500091552734
 20
17.64599990844727
 30
-28.17300033569336
 70
   192
  0
VERTEX
  5
B4
  8
0
 10
64.16999816894531
 20
13.65499973297119
 30
-30.90500068664551
 70
   192
  0
VERTEX
  5
B5
  8
0
 10
53.08499908447266
 20
24.25699996948242
 30
-16.45899963378906
 70
   192
  0
VERTEX
  5
B6
  8
0
 10
68.06300354003906
 20
20.88699913024902
 30
-24.81100082397461
 70
   192
  0
VERTEX
  5
B7
  8
0
 10
51.22999954223633
 20
21.83600044250488
 30
-20.74799919128418
 70
   192
  0
VERTEX
  5
B8
  8
0
 10
34.17300033569336
 20
22.88899993896484
 30
-17.99099922180176
 70
   192
  0
VERTEX
  5
B9
  8
0
 10
33.04800033569336
 20
19.33699989318848
 30
-22.21699905395508
 70
   192
  0
VERTEX
  5
BA
  8
0
 10
48.22900009155273
 20
14.27600002288818
 30
-27.6870002746582
 70
   192
  0
VERTEX
  5
BB
  8
0
 10
47.26800155639648
 20
9.602999687194824
 30
-29.90900039672852
 70
   192
  0
VERTEX
  5
BC
  8
0
 10
62.92300033569336
 20
9.185999870300293
 30
-32.85599899291992
 70
   192
  0
VERTEX
  5
BD
  8
0
 10
31.48100090026855
 20
10.06599998474121
 30
-28.10099983215332
 70
   192
  0
VERTEX
  5
BE
  8
0
 10
32.13399887084961
 20
14.96399974822998
 30
-25.64900016784668
 70
   192
  0
VERTEX
  5
BF
  8
0
 10
16.47699928283691
 20
20.27000045776367
 30
-21.10099983215332
 70
   192
  0
VERTEX
  5
C0
  8
0
 10
0.0
 20
29.3439998626709
 30
0.0
 70
   192
  0
VERTEX
  5
C1
  8
0
 10
18.9950008392334
 20
28.66699981689453
 30
-0.9879999756813049
 70
   192
  0
VERTEX
  5
C2
  8
0
 10
17.04599952697754
 20
23.99399948120117
 30
-16.55299949645996
 70
   192
  0
VERTEX
  5
C3
  8
0
 10
0.0
 20
27.31900024414062
 30
-10.78699970245361
 70
   192
  0
VERTEX
  5
C4
  8
0
 10
0.0
 20
29.3439998626709
 30
-6.236999988555908
 70
   192
  0
VERTEX
  5
C5
  8
0
 10
0.0
 20
24.27099990844727
 30
-17.63400077819824
 70
   192
  0
VERTEX
  5
C6
  8
0
 10
0.0
 20
20.80200004577637
 30
-20.75699996948242
 70
   192
  0
VERTEX
  5
C7
  8
0
 10
16.01499938964844
 20
15.6870002746582
 30
-24.79599952697754
 70
   192
  0
VERTEX
  5
C8
  8
0
 10
30.98699951171875
 20
0.0
 30
-29.95599937438965
 70
   192
  0
VERTEX
  5
C9
  8
0
 10
15.49400043487549
 20
5.216000080108643
 30
-28.95800018310547
 70
   192
  0
VERTEX
  5
CA
  8
0
 10
15.43400001525879
 20
0.0
 30
-29.4330005645752
 70
   192
  0
VERTEX
  5
CB
  8
0
 10
0.0
 20
10.85900020599365
 30
-27.32600021362305
 70
   192
  0
VERTEX
  5
CC
  8
0
 10
15.68400001525879
 20
10.55200004577637
 30
-27.43600082397461
 70
   192
  0
VERTEX
  5
CD
  8
0
 10
0.0
 20
15.0
 30
-25.98100090026855
 70
   192
  0
VERTEX
  5
CE
  8
0
 10
0.0
 20
0.0509999990463257
 30
-29.51099967956543
 70
   192
  0
VERTEX
  5
CF
  8
0
 10
0.0
 20
3.135999917984009
 30
-29.83600044250488
 70
   192
  0
VERTEX
  5
D0
  8
0
 10
31.48100090026855
 20
-10.06599998474121
 30
-28.10099983215332
 70
   192
  0
VERTEX
  5
D1
  8
0
 10
15.68400001525879
 20
-10.55200004577637
 30
-27.43600082397461
 70
   192
  0
VERTEX
  5
D2
  8
0
 10
15.49400043487549
 20
-5.216000080108643
 30
-28.95800018310547
 70
   192
  0
VERTEX
  5
D3
  8
0
 10
51.22999954223633
 20
-21.83600044250488
 30
-20.74799919128418
 70
   192
  0
VERTEX
  5
D4
  8
0
 10
49.57400131225586
 20
-18.44700050354004
 30
-24.57699966430664
 70
   192
  0
VERTEX
  5
D5
  8
0
 10
65.91500091552734
 20
-17.64599990844727
 30
-28.17399978637695
 70
   192
  0
VERTEX
  5
D6
  8
0
 10
48.22900009155273
 20
-14.27600002288818
 30
-27.6870002746582
 70
   192
  0
VERTEX
  5
D7
  8
0
 10
62.92300033569336
 20
-9.185999870300293
 30
-32.85599899291992
 70
   192
  0
VERTEX
  5
D8
  8
0
 10
64.16999816894531
 20
-13.65499973297119
 30
-30.90500068664551
 70
   192
  0
VERTEX
  5
D9
  8
0
 10
32.13399887084961
 20
-14.96399974822998
 30
-25.64900016784668
 70
   192
  0
VERTEX
  5
DA
  8
0
 10
33.04800033569336
 20
-19.33699989318848
 30
-22.21699905395508
 70
   192
  0
VERTEX
  5
DB
  8
0
 10
34.17300033569336
 20
-22.88899993896484
 30
-17.99099922180176
 70
   192
  0
VERTEX
  5
DC
  8
0
 10
53.08499908447266
 20
-24.25699996948242
 30
-16.45899963378906
 70
   192
  0
VERTEX
  5
DD
  8
0
 10
70.47000122070312
 20
-23.20199966430664
 30
-21.04400062561035
 70
   192
  0
VERTEX
  5
DE
  8
0
 10
68.06300354003906
 20
-20.88699913024902
 30
-24.81100082397461
 70
   192
  0
VERTEX
  5
DF
  8
0
 10
35.43399810791016
 20
-25.42600059509277
 30
-13.25800037384033
 70
   192
  0
VERTEX
  5
E0
  8
0
 10
47.49200057983398
 20
-26.70599937438965
 30
-5.39300012588501
 70
   192
  0
VERTEX
  5
E1
  8
0
 10
56.89599990844727
 20
-26.0890007019043
 30
-7.644999980926514
 70
   192
  0
VERTEX
  5
E2
  8
0
 10
17.04599952697754
 20
-23.99399948120117
 30
-16.55299949645996
 70
   192
  0
VERTEX
  5
E3
  8
0
 10
16.47699928283691
 20
-20.27000045776367
 30
-21.10199928283691
 70
   192
  0
VERTEX
  5
E4
  8
0
 10
0.0
 20
-5.400000095367432
 30
-28.93899917602539
 70
   192
  0
VERTEX
  5
E5
  8
0
 10
16.01499938964844
 20
-15.6870002746582
 30
-24.79599952697754
 70
   192
  0
VERTEX
  5
E6
  8
0
 10
0.0
 20
-16.11199951171875
 30
-24.58200073242188
 70
   192
  0
VERTEX
  5
E7
  8
0
 10
0.0
 20
-10.87600040435791
 30
-27.60499954223633
 70
   192
  0
VERTEX
  5
E8
  8
0
 10
0.0
 20
-9.270999908447266
 30
-28.5319995880127
 70
   192
  0
VERTEX
  5
E9
  8
0
 10
0.0
 20
-20.07399940490723
 30
-22.29400062561035
 70
   192
  0
VERTEX
  5
EA
  8
0
 10
0.0
 20
-20.98200035095215
 30
-21.04500007629395
 70
   192
  0
VERTEX
  5
EB
  8
0
 10
0.0
 20
-24.60899925231934
 30
-16.05200004577637
 70
   192
  0
VERTEX
  5
EC
  8
0
 10
38.02399826049805
 20
-27.34600067138672
 30
-3.530999898910522
 70
   192
  0
VERTEX
  5
ED
  8
0
 10
18.34700012207031
 20
-28.1879997253418
 30
-6.164000034332275
 70
   192
  0
VERTEX
  5
EE
  8
0
 10
28.51700019836426
 20
-28.00200080871582
 30
-2.063999891281128
 70
   192
  0
VERTEX
  5
EF
  8
0
 10
18.9950008392334
 20
-28.66699981689453
 30
-0.9879999756813049
 70
   192
  0
VERTEX
  5
F0
  8
0
 10
17.68400001525879
 20
-26.65399932861328
 30
-11.45899963378906
 70
   192
  0
VERTEX
  5
F1
  8
0
 10
0.0
 20
-28.86800003051758
 30
-5.324999809265137
 70
   192
  0
VERTEX
  5
F2
  8
0
 10
0.0
 20
-27.66300010681152
 30
-10.99400043487549
 70
   192
  0
VERTEX
  5
F3
  8
0
 10
0.0
 20
-27.4060001373291
 30
-12.20199966430664
 70
   192
  0
VERTEX
  5
F4
  8
0
 10
0.0
 20
-30.0
 30
0.0
 70
   192
  0
VERTEX
  5
F5
  8
0
 10
93.38999938964844
 20
24.00799942016602
 30
-20.45899963378906
 70
   192
  0
VERTEX
  5
F6
  8
0
 10
110.6449966430664
 20
23.3120002746582
 30
-29.02000045776367
 70
   192
  0
VERTEX
  5
F7
  8
0
 10
103.7959976196289
 20
21.67499923706055
 30
-34.18899917602539
 70
   192
  0
VERTEX
  5
F8
  8
0
 10
107.8789978027344
 20
-8.437999725341797
 30
-48.2599983215332
 70
   192
  0
VERTEX
  5
F9
  8
0
 10
106.4339981079102
 20
0.0
 30
-48.96900177001953
 70
   192
  0
VERTEX
  5
FA
  8
0
 10
120.4369964599609
 20
-2.756999969482422
 30
-55.77799987792969
 70
   192
  0
VERTEX
  5
FB
  8
0
 10
120.7529983520508
 20
-0.0599999986588955
 30
-55.69300079345703
 70
   192
  0
VERTEX
  5
FC
  8
0
 10
119.4400024414062
 20
21.31399917602539
 30
-42.59400177001953
 70
   192
  0
VERTEX
  5
FD
  8
0
 10
112.4619979858398
 20
16.20899963378906
 30
-46.01399993896484
 70
   192
  0
VERTEX
  5
FE
  8
0
 10
126.9779968261719
 20
16.00900077819824
 30
-54.02500152587891
 70
   192
  0
VERTEX
  5
FF
  8
0
 10
121.7119979858398
 20
8.111000061035156
 30
-55.43600082397461
 70
   192
  0
VERTEX
  5
100
  8
0
 10
127.7190017700195
 20
17.12100028991699
 30
-53.82699966430664
 70
   192
  0
VERTEX
  5
101
  8
0
 10
107.8789978027344
 20
8.437999725341797
 30
-48.2599983215332
 70
   192
  0
VERTEX
  5
102
  8
0
 10
97.48799896240234
 20
16.48399925231934
 30
-38.95000076293945
 70
   192
  0
VERTEX
  5
103
  8
0
 10
93.34400177001953
 20
8.581000328063965
 30
-42.07699966430664
 70
   192
  0
VERTEX
  5
104
  8
0
 10
93.34400177001953
 20
-8.581000328063965
 30
-42.07699966430664
 70
   192
  0
VERTEX
  5
105
  8
0
 10
92.03800201416016
 20
0.0
 30
-43.0629997253418
 70
   192
  0
VERTEX
  5
106
  8
0
 10
119.4400024414062
 20
-21.31399917602539
 30
-42.59400177001953
 70
   192
  0
VERTEX
  5
107
  8
0
 10
112.4629974365234
 20
-16.20899963378906
 30
-46.01399993896484
 70
   192
  0
VERTEX
  5
108
  8
0
 10
127.1460037231445
 20
-15.70800018310547
 30
-53.97999954223633
 70
   192
  0
VERTEX
  5
109
  8
0
 10
132.1020050048828
 20
-20.25300025939941
 30
-52.65200042724609
 70
   192
  0
VERTEX
  5
10A
  8
0
 10
122.4250030517578
 20
-8.1850004196167
 30
-55.24499893188477
 70
   192
  0
VERTEX
  5
10B
  8
0
 10
124.1869964599609
 20
-12.99300003051758
 30
-54.77299880981445
 70
   192
  0
VERTEX
  5
10C
  8
0
 10
134.3419952392578
 20
-20.82500076293945
 30
-52.05199813842773
 70
   192
  0
VERTEX
  5
10D
  8
0
 10
103.7959976196289
 20
-21.67499923706055
 30
-34.18899917602539
 70
   192
  0
VERTEX
  5
10E
  8
0
 10
97.48799896240234
 20
-16.48399925231934
 30
-38.95000076293945
 70
   192
  0
VERTEX
  5
10F
  8
0
 10
110.6449966430664
 20
-23.3120002746582
 30
-29.02000045776367
 70
   192
  0
VERTEX
  5
110
  8
0
 10
78.32099914550781
 20
-8.836999893188477
 30
-36.92499923706055
 70
   192
  0
VERTEX
  5
111
  8
0
 10
77.18299865722656
 20
0.0
 30
-38.16899871826172
 70
   192
  0
VERTEX
  5
112
  8
0
 10
87.42400360107422
 20
22.32200050354004
 30
-26.97800064086914
 70
   192
  0
VERTEX
  5
113
  8
0
 10
81.93000030517578
 20
16.97599983215332
 30
-32.98199844360352
 70
   192
  0
VERTEX
  5
114
  8
0
 10
78.32099914550781
 20
8.836999893188477
 30
-36.92499923706055
 70
   192
  0
VERTEX
  5
115
  8
0
 10
87.42400360107422
 20
-22.32200050354004
 30
-26.97800064086914
 70
   192
  0
VERTEX
  5
116
  8
0
 10
81.93000030517578
 20
-16.97599983215332
 30
-32.98199844360352
 70
   192
  0
VERTEX
  5
117
  8
0
 10
93.38999938964844
 20
-24.00799942016602
 30
-20.45899963378906
 70
   192
  0
VERTEX
  5
118
  8
0
 10
147.5970001220703
 20
0.0
 30
-28.79100036621094
 70
   192
  0
VERTEX
  5
119
  8
0
 10
163.9859924316406
 20
-0.0599999986588955
 30
-44.10900115966797
 70
   192
  0
VERTEX
  5
11A
  8
0
 10
163.0279998779297
 20
8.111000061035156
 30
-44.36600112915039
 70
   192
  0
VERTEX
  5
11B
  8
0
 10
99.35600280761719
 20
-22.32200050354004
 30
-13.9399995803833
 70
   192
  0
VERTEX
  5
11C
  8
0
 10
146.1519927978516
 20
-8.437999725341797
 30
-29.5
 70
   192
  0
VERTEX
  5
11D
  8
0
 10
141.5690002441406
 20
-16.20899963378906
 30
-31.74600028991699
 70
   192
  0
VERTEX
  5
11E
  8
0
 10
157.593994140625
 20
-15.70800018310547
 30
-45.82199859619141
 70
   192
  0
VERTEX
  5
11F
  8
0
 10
160.5529937744141
 20
-12.99300003051758
 30
-45.02899932861328
 70
   192
  0
VERTEX
  5
120
  8
0
 10
117.4940032958984
 20
-21.67499923706055
 30
-23.85099983215332
 70
   192
  0
VERTEX
  5
121
  8
0
 10
127.015998840332
 20
-22.92300033569336
 30
-38.88000106811523
 70
   192
  0
VERTEX
  5
122
  8
0
 10
152.6369934082031
 20
-20.25300025939941
 30
-47.15000152587891
 70
   192
  0
VERTEX
  5
123
  8
0
 10
150.3970031738281
 20
-20.82500076293945
 30
-47.75
 70
   192
  0
VERTEX
  5
124
  8
0
 10
134.5919952392578
 20
-21.31399917602539
 30
-35.16600036621094
 70
   192
  0
VERTEX
  5
125
  8
0
 10
123.8030014038086
 20
-16.48399925231934
 30
-19.09000015258789
 70
   192
  0
VERTEX
  5
126
  8
0
 10
127.9459991455078
 20
-8.581000328063965
 30
-15.96300029754639
 70
   192
  0
VERTEX
  5
127
  8
0
 10
162.3139953613281
 20
-8.1850004196167
 30
-44.55699920654297
 70
   192
  0
VERTEX
  5
128
  8
0
 10
164.3029937744141
 20
-2.756999969482422
 30
-44.02399826049805
 70
   192
  0
VERTEX
  5
129
  8
0
 10
129.2530059814453
 20
0.0
 30
-14.97700023651123
 70
   192
  0
VERTEX
  5
12A
  8
0
 10
108.4599990844727
 20
-8.836999893188477
 30
-3.992000102996826
 70
   192
  0
VERTEX
  5
12B
  8
0
 10
104.8509979248047
 20
-16.97599983215332
 30
-7.935999870300293
 70
   192
  0
VERTEX
  5
12C
  8
0
 10
80.36100006103516
 20
-23.20199966430664
 30
-5.563000202178955
 70
   192
  0
VERTEX
  5
12D
  8
0
 10
84.91600036621094
 20
-17.64599990844727
 30
1.565999984741211
 70
   192
  0
VERTEX
  5
12E
  8
0
 10
82.76799774169922
 20
-20.88699913024902
 30
-1.797000050544739
 70
   192
  0
VERTEX
  5
12F
  8
0
 10
87.90799713134766
 20
-9.185999870300293
 30
6.249000072479248
 70
   192
  0
VERTEX
  5
130
  8
0
 10
86.66100311279297
 20
-13.65499973297119
 30
4.296999931335449
 70
   192
  0
VERTEX
  5
131
  8
0
 10
109.5979995727539
 20
0.0
 30
-2.747999906539917
 70
   192
  0
VERTEX
  5
132
  8
0
 10
88.85099792480469
 20
0.0
 30
7.724999904632568
 70
   192
  0
VERTEX
  5
133
  8
0
 10
127.9459991455078
 20
8.581000328063965
 30
-15.96300029754639
 70
   192
  0
VERTEX
  5
134
  8
0
 10
141.5690002441406
 20
16.20899963378906
 30
-31.74600028991699
 70
   192
  0
VERTEX
  5
135
  8
0
 10
157.02099609375
 20
17.12100028991699
 30
-45.97499847412109
 70
   192
  0
VERTEX
  5
136
  8
0
 10
150.2619934082031
 20
20.79299926757812
 30
-47.7859992980957
 70
   192
  0
VERTEX
  5
137
  8
0
 10
157.7619934082031
 20
16.00900077819824
 30
-45.77700042724609
 70
   192
  0
VERTEX
  5
138
  8
0
 10
146.1519927978516
 20
8.437999725341797
 30
-29.5
 70
   192
  0
VERTEX
  5
139
  8
0
 10
123.8030014038086
 20
16.48399925231934
 30
-19.09000015258789
 70
   192
  0
VERTEX
  5
13A
  8
0
 10
134.5919952392578
 20
21.31399917602539
 30
-35.16699981689453
 70
   192
  0
VERTEX
  5
13B
  8
0
 10
147.6569976806641
 20
22.20899963378906
 30
-48.48400115966797
 70
   192
  0
VERTEX
  5
13C
  8
0
 10
117.4940032958984
 20
21.67499923706055
 30
-23.85099983215332
 70
   192
  0
VERTEX
  5
13D
  8
0
 10
104.8509979248047
 20
16.97599983215332
 30
-7.935999870300293
 70
   192
  0
VERTEX
  5
13E
  8
0
 10
108.4599990844727
 20
8.836999893188477
 30
-3.992000102996826
 70
   192
  0
VERTEX
  5
13F
  8
0
 10
86.66100311279297
 20
13.65499973297119
 30
4.297999858856201
 70
   192
  0
VERTEX
  5
140
  8
0
 10
84.91600036621094
 20
17.64599990844727
 30
1.565999984741211
 70
   192
  0
VERTEX
  5
141
  8
0
 10
99.35600280761719
 20
22.32200050354004
 30
-13.9399995803833
 70
   192
  0
VERTEX
  5
142
  8
0
 10
82.76799774169922
 20
20.88699913024902
 30
-1.796000003814697
 70
   192
  0
VERTEX
  5
143
  8
0
 10
80.36100006103516
 20
23.20199966430664
 30
-5.563000202178955
 70
   192
  0
VERTEX
  5
144
  8
0
 10
30.47299957275391
 20
-26.0359992980957
 30
8.057000160217285
 70
   192
  0
VERTEX
  5
145
  8
0
 10
67.2509994506836
 20
0.0
 30
16.29999923706055
 70
   192
  0
VERTEX
  5
146
  8
0
 10
87.90799713134766
 20
9.185999870300293
 30
6.249000072479248
 70
   192
  0
VERTEX
  5
147
  8
0
 10
50.70199966430664
 20
-24.83099937438965
 30
3.898999929428101
 70
   192
  0
VERTEX
  5
148
  8
0
 10
65.56300354003906
 20
-14.27600002288818
 30
12.39700031280518
 70
   192
  0
VERTEX
  5
149
  8
0
 10
64.21800231933594
 20
-18.44700050354004
 30
9.286999702453613
 70
   192
  0
VERTEX
  5
14A
  8
0
 10
62.5620002746582
 20
-21.83600044250488
 30
5.458000183105469
 70
   192
  0
VERTEX
  5
14B
  8
0
 10
60.70800018310547
 20
-24.25699996948242
 30
1.169000029563904
 70
   192
  0
VERTEX
  5
14C
  8
0
 10
66.52400207519531
 20
-9.602999687194824
 30
14.61900043487549
 70
   192
  0
VERTEX
  5
14D
  8
0
 10
43.91400146484375
 20
-14.96399974822998
 30
18.58699989318848
 70
   192
  0
VERTEX
  5
14E
  8
0
 10
43.0
 20
-19.33699989318848
 30
15.15499973297119
 70
   192
  0
VERTEX
  5
14F
  8
0
 10
41.875
 20
-22.88899993896484
 30
10.92899990081787
 70
   192
  0
VERTEX
  5
150
  8
0
 10
40.6150016784668
 20
-25.42600059509277
 30
6.196000099182129
 70
   192
  0
VERTEX
  5
151
  8
0
 10
45.0620002746582
 20
0.0
 30
22.89500045776367
 70
   192
  0
VERTEX
  5
152
  8
0
 10
44.56800079345703
 20
-10.06599998474121
 30
21.03899955749512
 70
   192
  0
VERTEX
  5
153
  8
0
 10
66.52400207519531
 20
9.602999687194824
 30
14.61900043487549
 70
   192
  0
VERTEX
  5
154
  8
0
 10
64.21800231933594
 20
18.44700050354004
 30
9.286999702453613
 70
   192
  0
VERTEX
  5
155
  8
0
 10
65.56300354003906
 20
14.27600002288818
 30
12.39700031280518
 70
   192
  0
VERTEX
  5
156
  8
0
 10
60.70800018310547
 20
24.25699996948242
 30
1.169000029563904
 70
   192
  0
VERTEX
  5
157
  8
0
 10
62.5620002746582
 20
21.83600044250488
 30
5.458000183105469
 70
   192
  0
VERTEX
  5
158
  8
0
 10
43.0
 20
19.33699989318848
 30
15.15499973297119
 70
   192
  0
VERTEX
  5
159
  8
0
 10
44.56800079345703
 20
10.06599998474121
 30
21.03899955749512
 70
   192
  0
VERTEX
  5
15A
  8
0
 10
43.91500091552734
 20
14.96399974822998
 30
18.58699989318848
 70
   192
  0
VERTEX
  5
15B
  8
0
 10
40.6150016784668
 20
25.42600059509277
 30
6.196000099182129
 70
   192
  0
VERTEX
  5
15C
  8
0
 10
41.875
 20
22.88899993896484
 30
10.92899990081787
 70
   192
  0
VERTEX
  5
15D
  8
0
 10
22.30500030517578
 20
10.55200004577637
 30
25.45899963378906
 70
   192
  0
VERTEX
  5
15E
  8
0
 10
22.4950008392334
 20
5.216000080108643
 30
26.98200035095215
 70
   192
  0
VERTEX
  5
15F
  8
0
 10
0.0
 20
-28.86800003051758
 30
5.324999809265137
 70
   192
  0
VERTEX
  5
160
  8
0
 10
21.97500038146973
 20
-15.6870002746582
 30
22.81999969482422
 70
   192
  0
VERTEX
  5
161
  8
0
 10
21.51199913024902
 20
-20.27000045776367
 30
19.125
 70
   192
  0
VERTEX
  5
162
  8
0
 10
20.94300079345703
 20
-23.99399948120117
 30
14.57699966430664
 70
   192
  0
VERTEX
  5
163
  8
0
 10
20.30500030517578
 20
-26.65399932861328
 30
9.482000350952148
 70
   192
  0
VERTEX
  5
164
  8
0
 10
19.64200019836426
 20
-28.1879997253418
 30
4.188000202178955
 70
   192
  0
VERTEX
  5
165
  8
0
 10
22.4950008392334
 20
-5.216000080108643
 30
26.98200035095215
 70
   192
  0
VERTEX
  5
166
  8
0
 10
22.55500030517578
 20
0.0
 30
27.45700073242188
 70
   192
  0
VERTEX
  5
167
  8
0
 10
22.30500030517578
 20
-10.55200004577637
 30
25.45899963378906
 70
   192
  0
VERTEX
  5
168
  8
0
 10
0.0
 20
-16.11199951171875
 30
24.58200073242188
 70
   192
  0
VERTEX
  5
169
  8
0
 10
0.0
 20
-20.07399940490723
 30
22.29400062561035
 70
   192
  0
VERTEX
  5
16A
  8
0
 10
0.0
 20
-24.60899925231934
 30
16.05200004577637
 70
   192
  0
VERTEX
  5
16B
  8
0
 10
0.0
 20
-27.4060001373291
 30
12.20199966430664
 70
   192
  0
VERTEX
  5
16C
  8
0
 10
0.0
 20
-27.66300010681152
 30
10.99400043487549
 70
   192
  0
VERTEX
  5
16D
  8
0
 10
0.0
 20
-20.98200035095215
 30
21.04500007629395
 70
   192
  0
VERTEX
  5
16E
  8
0
 10
0.0
 20
-5.400000095367432
 30
28.93899917602539
 70
   192
  0
VERTEX
  5
16F
  8
0
 10
0.0
 20
-9.270999908447266
 30
28.5319995880127
 70
   192
  0
VERTEX
  5
170
  8
0
 10
0.0
 20
-10.87600040435791
 30
27.60499954223633
 70
   192
  0
VERTEX
  5
171
  8
0
 10
0.0
 20
0.0509999990463257
 30
29.51099967956543
 70
   192
  0
VERTEX
  5
172
  8
0
 10
0.0
 20
3.135999917984009
 30
29.83600044250488
 70
   192
  0
VERTEX
  5
173
  8
0
 10
0.0
 20
5.335999965667725
 30
29.12100028991699
 70
   192
  0
VERTEX
  5
174
  8
0
 10
21.51199913024902
 20
20.27000045776367
 30
19.125
 70
   192
  0
VERTEX
  5
175
  8
0
 10
21.97500038146973
 20
15.6870002746582
 30
22.81999969482422
 70
   192
  0
VERTEX
  5
176
  8
0
 10
19.64200019836426
 20
28.1879997253418
 30
4.188000202178955
 70
   192
  0
VERTEX
  5
177
  8
0
 10
20.94300079345703
 20
23.99399948120117
 30
14.57699966430664
 70
   192
  0
VERTEX
  5
178
  8
0
 10
0.0
 20
24.27099990844727
 30
17.63400077819824
 70
   192
  0
VERTEX
  5
179
  8
0
 10
0.0
 20
24.86199951171875
 30
16.30599975585938
 70
   192
  0
VERTEX
  5
17A
  8
0
 10
0.0
 20
15.0
 30
25.98100090026855
 70
   192
  0
VERTEX
  5
17B
  8
0
 10
0.0
 20
16.21500015258789
 30
24.88699913024902
 70
   192
  0
VERTEX
  5
17C
  8
0
 10
20.30500030517578
 20
26.65399932861328
 30
9.482000350952148
 70
   192
  0
VERTEX
  5
17D
  8
0
 10
0.0
 20
29.3439998626709
 30
6.236999988555908
 70
   192
  0
VERTEX
  5
17E
  8
0
 10
0.0
 20
29.3439998626709
 30
5.459000110626221
 70
   192
  0
VERTEX
  5
17F
  8
0
 10
0.0
 20
27.31900024414062
 30
10.78699970245361
 70
   192
  0
VERTEX
  5
180
  8
0
 10
0.0
 20
20.80200004577637
 30
20.75699996948242
 70
   192
  0
VERTEX
  5
181
  8
0
 10
0.0
 20
10.85900020599365
 30
27.32600021362305
 70
   192
  0
VERTEX
  5
182
  8
0
 10
0.0
 20
5.335999965667725
 30
-29.12100028991699
 70
   192
  0
VERTEX
  5
183
  8
0
 10
0.0
 20
16.21500015258789
 30
-24.88699913024902
 70
   192
  0
VERTEX
  5
184
  8
0
 10
0.0
 20
24.86199951171875
 30
-16.30599975585938
 70
   192
  0
VERTEX
  5
185
  8
0
 10
0.0
 20
29.3439998626709
 30
-5.459000110626221
 70
   192
  0
VERTEX
  5
186
  8
0
 62
     9
 10
0.0
 20
0.0
 30
0.0
 70
   128
 71
     3
 72
     2
 73
     1
  0
VERTEX
  5
187
  8
0
 62
     9
 10
0.0
 20
0.0
 30
0.0
 70
   128
 71
     6
 72
     5
 73
     4
  0
VERTEX
  5
188
  8
0
 62
     9
 10
0.0
 20
0.0
 30
0.0
 70
   128
 71
     5
 72
     7
 73
     4
  0
VERTEX
  5
189
  8
0
 62
     9
 10
0.0
 20
0.0
 30
0.0
 70
   128
 71
    10
 72
     9
 73
     8
  0
VERTEX
  5
18A
  8
0
 62
     9
 10
0.0
 20
0.0
 30
0.0
 70
   128
 71
    13
 72
    12
 73
    11
  0
VERTEX
  5
18B
  8
0
 62
     9
 10
0.0
 20
0.0
 30
0.0
 70
   128
 71
    16
 72
    15
 73
    14
  0
VERTEX
  5
18C
  8
0
 62
     9
 10
0.0
 20
0.0
 30
0.0
 70
   128
 71
    19
 72
    18
 73
    17
  0
VERTEX
  5
18D
  8
0
 62
     9
 10
0.0
 20
0.0
 30
0.0
 70
   128
 71
    17
 72
    20
 73
    19
  0
VERTEX
  5
18E
  8
0
 62
     9
 10
0.0
 20
0.0
 30
0.0
 70
   128
 71
    23
 72
    22
 73
    21
  0
VERTEX
  5
18F
  8
0
 62
     9
 10
0.0
 20
0.0
 30
0.0
 70
   128
 71
    24
 72
     1
 73
    20
  0
VERTEX
  5
190
  8
0
 62
     9
 10
0.0
 20
0.0
 30
0.0
 70
   128
 71
    25
 72
     3
 73
    24
  0
VERTEX
  5
191
  8
0
 62
     9
 10
0.0
 20
0.0
 30
0.0
 70
   128
 71
    22
 72
    25
 73
    26
  0
VERTEX
  5
192
  8
0
 62
     9
 10
0.0
 20
0.0
 30
0.0
 70
   128
 71
    26
 72
    24
 73
    17
  0
VERTEX
  5
193
  8
0
 62
     9
 10
0.0
 20
0.0
 30
0.0
 70
   128
 71
    21
 72
    26
 73
    27
  0
VERTEX
  5
194
  8
0
 62
     9
 10
0.0
 20
0.0
 30
0.0
 70
   128
 71
    29
 72
    21
 73
    28
  0
VERTEX
  5
195
  8
0
 62
     9
 10
0.0
 20
0.0
 30
0.0
 70
   128
 71
    16
 72
    31
 73
    30
  0
VERTEX
  5
196
  8
0
 62
     9
 10
0.0
 20
0.0
 30
0.0
 70
   128
 71
    31
 72
    23
 73
    29
  0
VERTEX
  5
197
  8
0
 62
     9
 10
0.0
 20
0.0
 30
0.0
 70
   128
 71
    15
 72
    30
 73
    32
  0
VERTEX
  5
198
  8
0
 62
     9
 10
0.0
 20
0.0
 30
0.0
 70
   128
 71
    30
 72
    29
 73
    33
  0
VERTEX
  5
199
  8
0
 62
     9
 10
0.0
 20
0.0
 30
0.0
 70
   128
 71
    33
 72
    28
 73
    34
  0
VERTEX
  5
19A
  8
0
 62
     9
 10
0.0
 20
0.0
 30
0.0
 70
   128
 71
    19
 72
    36
 73
    35
  0
VERTEX
  5
19B
  8
0
 62
     9
 10
0.0
 20
0.0
 30
0.0
 70
   128
 71
    27
 72
    17
 73
    18
  0
VERTEX
  5
19C
  8
0
 62
     9
 10
0.0
 20
0.0
 30
0.0
 70
   128
 71
    28
 72
    27
 73
    37
  0
VERTEX
  5
19D
  8
0
 62
     9
 10
0.0
 20
0.0
 30
0.0
 70
   128
 71
    37
 72
    18
 73
    38
  0
VERTEX
  5
19E
  8
0
 62
     9
 10
0.0
 20
0.0
 30
0.0
 70
   128
 71
    18
 72
    19
 73
    39
  0
VERTEX
  5
19F
  8
0
 62
     9
 10
0.0
 20
0.0
 30
0.0
 70
   128
 71
    39
 72
    38
 73
    18
  0
VERTEX
  5
1A0
  8
0
 62
     9
 10
0.0
 20
0.0
 30
0.0
 70
   128
 71
    34
 72
    37
 73
    40
  0
VERTEX
  5
1A1
  8
0
 62
     9
 10
0.0
 20
0.0
 30
0.0
 70
   128
 71
    40
 72
    41
 73
    34
  0
VERTEX
  5
1A2
  8
0
 62
     9
 10
0.0
 20
0.0
 30
0.0
 70
   128
 71
    42
 72
    34
 73
    41
  0
VERTEX
  5
1A3
  8
0
 62
     9
 10
0.0
 20
0.0
 30
0.0
 70
   128
 71
    44
 72
    43
 73
    32
  0
VERTEX
  5
1A4
  8
0
 62
     9
 10
0.0
 20
0.0
 30
0.0
 70
   128
 71
    44
 72
    45
 73
    43
  0
VERTEX
  5
1A5
  8
0
 62
     9
 10
0.0
 20
0.0
 30
0.0
 70
   128
 71
    32
 72
    33
 73
    42
  0
VERTEX
  5
1A6
  8
0
 62
     9
 10
0.0
 20
0.0
 30
0.0
 70
   128
 71
    44
 72
    47
 73
    46
  0
VERTEX
  5
1A7
  8
0
 62
     9
 10
0.0
 20
0.0
 30
0.0
 70
   128
 71
    48
 72
    46
 73
    47
  0
VERTEX
  5
1A8
  8
0
 62
     9
 10
0.0
 20
0.0
 30
0.0
 70
   128
 71
    47
 72
    42
 73
    48
  0
VERTEX
  5
1A9
  8
0
 62
     9
 10
0.0
 20
0.0
 30
0.0
 70
   128
 71
    50
 72
    49
 73
    45
  0
VERTEX
  5
1AA
  8
0
 62
     9
 10
0.0
 20
0.0
 30
0.0
 70
   128
 71
    45
 72
    44
 73
    50
  0
VERTEX
  5
1AB
  8
0
 62
     9
 10
0.0
 20
0.0
 30
0.0
 70
   128
 71
    53
 72
    52
 73
    51
  0
VERTEX
  5
1AC
  8
0
 62
     9
 10
0.0
 20
0.0
 30
0.0
 70
   128
 71
    51
 72
    43
 73
    53
  0
VERTEX
  5
1AD
  8
0
 62
     9
 10
0.0
 20
0.0
 30
0.0
 70
   128
 71
    56
 72
    55
 73
    54
  0
VERTEX
  5
1AE
  8
0
 62
     9
 10
0.0
 20
0.0
 30
0.0
 70
   128
 71
    15
 72
    43
 73
    51
  0
VERTEX
  5
1AF
  8
0
 62
     9
 10
0.0
 20
0.0
 30
0.0
 70
   128
 71
    58
 72
    14
 73
    57
  0
VERTEX
  5
1B0
  8
0
 62
     9
 10
0.0
 20
0.0
 30
0.0
 70
   128
 71
    59
 72
    57
 73
    55
  0
VERTEX
  5
1B1
  8
0
 62
     9
 10
0.0
 20
0.0
 30
0.0
 70
   128
 71
    14
 72
    51
 73
    60
  0
VERTEX
  5
1B2
  8
0
 62
     9
 10
0.0
 20
0.0
 30
0.0
 70
   128
 71
    57
 72
    60
 73
    61
  0
VERTEX
  5
1B3
  8
0
 62
     9
 10
0.0
 20
0.0
 30
0.0
 70
   128
 71
    55
 72
    61
 73
    62
  0
VERTEX
  5
1B4
  8
0
 62
     9
 10
0.0
 20
0.0
 30
0.0
 70
   128
 71
     9
 72
    64
 73
    63
  0
VERTEX
  5
1B5
  8
0
 62
     9
 10
0.0
 20
0.0
 30
0.0
 70
   128
 71
     9
 72
    10
 73
    64
  0
VERTEX
  5
1B6
  8
0
 62
     9
 10
0.0
 20
0.0
 30
0.0
 70
   128
 71
    65
 72
    54
 73
    63
  0
VERTEX
  5
1B7
  8
0
 62
     9
 10
0.0
 20
0.0
 30
0.0
 70
   128
 71
    67
 72
    63
 73
    66
  0
VERTEX
  5
1B8
  8
0
 62
     9
 10
0.0
 20
0.0
 30
0.0
 70
   128
 71
    67
 72
    68
 73
    63
  0
VERTEX
  5
1B9
  8
0
 62
     9
 10
0.0
 20
0.0
 30
0.0
 70
   128
 71
    54
 72
    62
 73
    66
  0
VERTEX
  5
1BA
  8
0
 62
     9
 10
0.0
 20
0.0
 30
0.0
 70
   128
 71
    61
 72
    70
 73
    69
  0
VERTEX
  5
1BB
  8
0
 62
     9
 10
0.0
 20
0.0
 30
0.0
 70
   128
 71
    45
 72
    49
 73
    71
  0
VERTEX
  5
1BC
  8
0
 62
     9
 10
0.0
 20
0.0
 30
0.0
 70
   128
 71
    51
 72
    52
 73
    72
  0
VERTEX
  5
1BD
  8
0
 62
     9
 10
0.0
 20
0.0
 30
0.0
 70
   128
 71
    60
 72
    72
 73
    70
  0
VERTEX
  5
1BE
  8
0
 62
     9
 10
0.0
 20
0.0
 30
0.0
 70
   128
 71
    52
 72
    74
 73
    73
  0
VERTEX
  5
1BF
  8
0
 62
     9
 10
0.0
 20
0.0
 30
0.0
 70
   128
 71
    75
 72
    52
 73
    53
  0
VERTEX
  5
1C0
  8
0
 62
     9
 10
0.0
 20
0.0
 30
0.0
 70
   128
 71
    75
 72
    74
 73
    52
  0
VERTEX
  5
1C1
  8
0
 62
     9
 10
0.0
 20
0.0
 30
0.0
 70
   128
 71
    72
 72
    73
 73
    76
  0
VERTEX
  5
1C2
  8
0
 62
     9
 10
0.0
 20
0.0
 30
0.0
 70
   128
 71
    76
 72
    77
 73
    70
  0
VERTEX
  5
1C3
  8
0
 62
     9
 10
0.0
 20
0.0
 30
0.0
 70
   128
 71
    70
 72
    77
 73
    78
  0
VERTEX
  5
1C4
  8
0
 62
     9
 10
0.0
 20
0.0
 30
0.0
 70
   128
 71
    80
 72
    79
 73
    66
  0
VERTEX
  5
1C5
  8
0
 62
     9
 10
0.0
 20
0.0
 30
0.0
 70
   128
 71
    81
 72
    79
 73
    80
  0
VERTEX
  5
1C6
  8
0
 62
     9
 10
0.0
 20
0.0
 30
0.0
 70
   128
 71
    80
 72
    82
 73
    81
  0
VERTEX
  5
1C7
  8
0
 62
     9
 10
0.0
 20
0.0
 30
0.0
 70
   128
 71
    62
 72
    69
 73
    83
  0
VERTEX
  5
1C8
  8
0
 62
     9
 10
0.0
 20
0.0
 30
0.0
 70
   128
 71
    83
 72
    85
 73
    84
  0
VERTEX
  5
1C9
  8
0
 62
     9
 10
0.0
 20
0.0
 30
0.0
 70
   128
 71
    69
 72
    78
 73
    86
  0
VERTEX
  5
1CA
  8
0
 62
     9
 10
0.0
 20
0.0
 30
0.0
 70
   128
 71
    86
 72
    85
 73
    83
  0
VERTEX
  5
1CB
  8
0
 62
     9
 10
0.0
 20
0.0
 30
0.0
 70
   128
 71
    80
 72
    84
 73
    87
  0
VERTEX
  5
1CC
  8
0
 62
     9
 10
0.0
 20
0.0
 30
0.0
 70
   128
 71
    90
 72
    89
 73
    88
  0
VERTEX
  5
1CD
  8
0
 62
     9
 10
0.0
 20
0.0
 30
0.0
 70
   128
 71
    93
 72
    92
 73
    91
  0
VERTEX
  5
1CE
  8
0
 62
     9
 10
0.0
 20
0.0
 30
0.0
 70
   128
 71
    93
 72
    94
 73
    92
  0
VERTEX
  5
1CF
  8
0
 62
     9
 10
0.0
 20
0.0
 30
0.0
 70
   128
 71
    95
 72
     4
 73
    89
  0
VERTEX
  5
1D0
  8
0
 62
     9
 10
0.0
 20
0.0
 30
0.0
 70
   128
 71
    98
 72
    97
 73
    96
  0
VERTEX
  5
1D1
  8
0
 62
     9
 10
0.0
 20
0.0
 30
0.0
 70
   128
 71
    97
 72
    99
 73
    95
  0
VERTEX
  5
1D2
  8
0
 62
     9
 10
0.0
 20
0.0
 30
0.0
 70
   128
 71
    99
 72
     6
 73
    95
  0
VERTEX
  5
1D3
  8
0
 62
     9
 10
0.0
 20
0.0
 30
0.0
 70
   128
 71
   100
 72
    92
 73
    94
  0
VERTEX
  5
1D4
  8
0
 62
     9
 10
0.0
 20
0.0
 30
0.0
 70
   128
 71
   100
 72
    96
 73
   101
  0
VERTEX
  5
1D5
  8
0
 62
     9
 10
0.0
 20
0.0
 30
0.0
 70
   128
 71
    96
 72
    95
 73
    90
  0
VERTEX
  5
1D6
  8
0
 62
     9
 10
0.0
 20
0.0
 30
0.0
 70
   128
 71
    92
 72
   100
 73
   102
  0
VERTEX
  5
1D7
  8
0
 62
     9
 10
0.0
 20
0.0
 30
0.0
 70
   128
 71
    92
 72
   104
 73
   103
  0
VERTEX
  5
1D8
  8
0
 62
     9
 10
0.0
 20
0.0
 30
0.0
 70
   128
 71
   107
 72
   106
 73
   105
  0
VERTEX
  5
1D9
  8
0
 62
     9
 10
0.0
 20
0.0
 30
0.0
 70
   128
 71
   105
 72
   108
 73
   107
  0
VERTEX
  5
1DA
  8
0
 62
     9
 10
0.0
 20
0.0
 30
0.0
 70
   128
 71
   109
 72
    91
 73
   106
  0
VERTEX
  5
1DB
  8
0
 62
     9
 10
0.0
 20
0.0
 30
0.0
 70
   128
 71
   106
 72
   110
 73
   109
  0
VERTEX
  5
1DC
  8
0
 62
     9
 10
0.0
 20
0.0
 30
0.0
 70
   128
 71
    12
 72
   111
 73
   105
  0
VERTEX
  5
1DD
  8
0
 62
     9
 10
0.0
 20
0.0
 30
0.0
 70
   128
 71
    12
 72
    13
 73
   111
  0
VERTEX
  5
1DE
  8
0
 62
     9
 10
0.0
 20
0.0
 30
0.0
 70
   128
 71
   106
 72
   113
 73
   112
  0
VERTEX
  5
1DF
  8
0
 62
     9
 10
0.0
 20
0.0
 30
0.0
 70
   128
 71
    91
 72
   103
 73
   113
  0
VERTEX
  5
1E0
  8
0
 62
     9
 10
0.0
 20
0.0
 30
0.0
 70
   128
 71
   105
 72
   112
 73
   114
  0
VERTEX
  5
1E1
  8
0
 62
     9
 10
0.0
 20
0.0
 30
0.0
 70
   128
 71
   104
 72
   116
 73
   115
  0
VERTEX
  5
1E2
  8
0
 62
     9
 10
0.0
 20
0.0
 30
0.0
 70
   128
 71
   117
 72
    88
 73
     2
  0
VERTEX
  5
1E3
  8
0
 62
     9
 10
0.0
 20
0.0
 30
0.0
 70
   128
 71
   102
 72
   101
 73
   118
  0
VERTEX
  5
1E4
  8
0
 62
     9
 10
0.0
 20
0.0
 30
0.0
 70
   128
 71
   101
 72
    90
 73
   117
  0
VERTEX
  5
1E5
  8
0
 62
     9
 10
0.0
 20
0.0
 30
0.0
 70
   128
 71
   104
 72
   102
 73
   119
  0
VERTEX
  5
1E6
  8
0
 62
     9
 10
0.0
 20
0.0
 30
0.0
 70
   128
 71
    22
 72
    23
 73
   119
  0
VERTEX
  5
1E7
  8
0
 62
     9
 10
0.0
 20
0.0
 30
0.0
 70
   128
 71
    23
 72
    31
 73
   119
  0
VERTEX
  5
1E8
  8
0
 62
     9
 10
0.0
 20
0.0
 30
0.0
 70
   128
 71
     3
 72
    25
 73
   118
  0
VERTEX
  5
1E9
  8
0
 62
     9
 10
0.0
 20
0.0
 30
0.0
 70
   128
 71
    25
 72
    22
 73
   118
  0
VERTEX
  5
1EA
  8
0
 62
     9
 10
0.0
 20
0.0
 30
0.0
 70
   128
 71
   116
 72
   119
 73
    31
  0
VERTEX
  5
1EB
  8
0
 62
     9
 10
0.0
 20
0.0
 30
0.0
 70
   128
 71
   116
 72
    16
 73
    58
  0
VERTEX
  5
1EC
  8
0
 62
     9
 10
0.0
 20
0.0
 30
0.0
 70
   128
 71
   113
 72
   121
 73
   120
  0
VERTEX
  5
1ED
  8
0
 62
     9
 10
0.0
 20
0.0
 30
0.0
 70
   128
 71
   103
 72
   115
 73
   121
  0
VERTEX
  5
1EE
  8
0
 62
     9
 10
0.0
 20
0.0
 30
0.0
 70
   128
 71
   112
 72
   120
 73
   122
  0
VERTEX
  5
1EF
  8
0
 62
     9
 10
0.0
 20
0.0
 30
0.0
 70
   128
 71
    64
 72
   120
 73
   121
  0
VERTEX
  5
1F0
  8
0
 62
     9
 10
0.0
 20
0.0
 30
0.0
 70
   128
 71
   121
 72
    65
 73
    64
  0
VERTEX
  5
1F1
  8
0
 62
     9
 10
0.0
 20
0.0
 30
0.0
 70
   128
 71
    56
 72
   121
 73
   115
  0
VERTEX
  5
1F2
  8
0
 62
     9
 10
0.0
 20
0.0
 30
0.0
 70
   128
 71
   115
 72
    59
 73
    56
  0
VERTEX
  5
1F3
  8
0
 62
     9
 10
0.0
 20
0.0
 30
0.0
 70
   128
 71
   120
 72
    64
 73
    10
  0
VERTEX
  5
1F4
  8
0
 62
     9
 10
0.0
 20
0.0
 30
0.0
 70
   128
 71
   125
 72
   124
 73
   123
  0
VERTEX
  5
1F5
  8
0
 62
     9
 10
0.0
 20
0.0
 30
0.0
 70
   128
 71
   114
 72
   122
 73
   126
  0
VERTEX
  5
1F6
  8
0
 62
     9
 10
0.0
 20
0.0
 30
0.0
 70
   128
 71
   129
 72
   128
 73
   127
  0
VERTEX
  5
1F7
  8
0
 62
     9
 10
0.0
 20
0.0
 30
0.0
 70
   128
 71
   127
 72
   130
 73
   129
  0
VERTEX
  5
1F8
  8
0
 62
     9
 10
0.0
 20
0.0
 30
0.0
 70
   128
 71
   132
 72
   114
 73
   131
  0
VERTEX
  5
1F9
  8
0
 62
     9
 10
0.0
 20
0.0
 30
0.0
 70
   128
 71
    11
 72
   128
 73
   133
  0
VERTEX
  5
1FA
  8
0
 62
     9
 10
0.0
 20
0.0
 30
0.0
 70
   128
 71
   133
 72
   134
 73
    11
  0
VERTEX
  5
1FB
  8
0
 62
     9
 10
0.0
 20
0.0
 30
0.0
 70
   128
 71
    11
 72
   135
 73
   128
  0
VERTEX
  5
1FC
  8
0
 62
     9
 10
0.0
 20
0.0
 30
0.0
 70
   128
 71
    12
 72
   132
 73
   135
  0
VERTEX
  5
1FD
  8
0
 62
     9
 10
0.0
 20
0.0
 30
0.0
 70
   128
 71
   135
 72
   131
 73
   136
  0
VERTEX
  5
1FE
  8
0
 62
     9
 10
0.0
 20
0.0
 30
0.0
 70
   128
 71
   128
 72
   136
 73
   137
  0
VERTEX
  5
1FF
  8
0
 62
     9
 10
0.0
 20
0.0
 30
0.0
 70
   128
 71
   138
 72
   127
 73
   123
  0
VERTEX
  5
200
  8
0
 62
     9
 10
0.0
 20
0.0
 30
0.0
 70
   128
 71
   123
 72
   139
 73
   138
  0
VERTEX
  5
201
  8
0
 62
     9
 10
0.0
 20
0.0
 30
0.0
 70
   128
 71
   127
 72
   137
 73
   140
  0
VERTEX
  5
202
  8
0
 62
     9
 10
0.0
 20
0.0
 30
0.0
 70
   128
 71
   136
 72
   142
 73
   141
  0
VERTEX
  5
203
  8
0
 62
     9
 10
0.0
 20
0.0
 30
0.0
 70
   128
 71
   122
 72
    10
 73
   143
  0
VERTEX
  5
204
  8
0
 62
     9
 10
0.0
 20
0.0
 30
0.0
 70
   128
 71
   131
 72
   126
 73
   142
  0
VERTEX
  5
205
  8
0
 62
     9
 10
0.0
 20
0.0
 30
0.0
 70
   128
 71
   144
 72
   142
 73
   126
  0
VERTEX
  5
206
  8
0
 62
     9
 10
0.0
 20
0.0
 30
0.0
 70
   128
 71
   126
 72
   145
 73
   144
  0
VERTEX
  5
207
  8
0
 62
     9
 10
0.0
 20
0.0
 30
0.0
 70
   128
 71
   147
 72
   146
 73
   141
  0
VERTEX
  5
208
  8
0
 62
     9
 10
0.0
 20
0.0
 30
0.0
 70
   128
 71
   141
 72
   142
 73
   147
  0
VERTEX
  5
209
  8
0
 62
     9
 10
0.0
 20
0.0
 30
0.0
 70
   128
 71
   137
 72
   141
 73
   148
  0
VERTEX
  5
20A
  8
0
 62
     9
 10
0.0
 20
0.0
 30
0.0
 70
   128
 71
   141
 72
   146
 73
   149
  0
VERTEX
  5
20B
  8
0
 62
     9
 10
0.0
 20
0.0
 30
0.0
 70
   128
 71
   150
 72
   140
 73
   148
  0
VERTEX
  5
20C
  8
0
 62
     9
 10
0.0
 20
0.0
 30
0.0
 70
   128
 71
   153
 72
   152
 73
   151
  0
VERTEX
  5
20D
  8
0
 62
     9
 10
0.0
 20
0.0
 30
0.0
 70
   128
 71
   152
 72
   154
 73
   151
  0
VERTEX
  5
20E
  8
0
 62
     9
 10
0.0
 20
0.0
 30
0.0
 70
   128
 71
   155
 72
   123
 73
   140
  0
VERTEX
  5
20F
  8
0
 62
     9
 10
0.0
 20
0.0
 30
0.0
 70
   128
 71
   154
 72
   125
 73
   155
  0
VERTEX
  5
210
  8
0
 62
     9
 10
0.0
 20
0.0
 30
0.0
 70
   128
 71
   151
 72
   155
 73
   150
  0
VERTEX
  5
211
  8
0
 62
     9
 10
0.0
 20
0.0
 30
0.0
 70
   128
 71
   157
 72
   151
 73
   156
  0
VERTEX
  5
212
  8
0
 62
     9
 10
0.0
 20
0.0
 30
0.0
 70
   128
 71
     7
 72
   158
 73
   157
  0
VERTEX
  5
213
  8
0
 62
     9
 10
0.0
 20
0.0
 30
0.0
 70
   128
 71
   158
 72
   153
 73
   157
  0
VERTEX
  5
214
  8
0
 62
     9
 10
0.0
 20
0.0
 30
0.0
 70
   128
 71
     4
 72
   157
 73
   159
  0
VERTEX
  5
215
  8
0
 62
     9
 10
0.0
 20
0.0
 30
0.0
 70
   128
 71
   159
 72
   156
 73
   160
  0
VERTEX
  5
216
  8
0
 62
     9
 10
0.0
 20
0.0
 30
0.0
 70
   128
 71
   161
 72
   148
 73
   149
  0
VERTEX
  5
217
  8
0
 62
     9
 10
0.0
 20
0.0
 30
0.0
 70
   128
 71
   156
 72
   150
 73
   161
  0
VERTEX
  5
218
  8
0
 62
     9
 10
0.0
 20
0.0
 30
0.0
 70
   128
 71
   162
 72
   160
 73
   161
  0
VERTEX
  5
219
  8
0
 62
     9
 10
0.0
 20
0.0
 30
0.0
 70
   128
 71
   162
 72
   163
 73
   160
  0
VERTEX
  5
21A
  8
0
 62
     9
 10
0.0
 20
0.0
 30
0.0
 70
   128
 71
   163
 72
   165
 73
   164
  0
VERTEX
  5
21B
  8
0
 62
     9
 10
0.0
 20
0.0
 30
0.0
 70
   128
 71
   165
 72
   166
 73
   164
  0
VERTEX
  5
21C
  8
0
 62
     9
 10
0.0
 20
0.0
 30
0.0
 70
   128
 71
    89
 72
   159
 73
   164
  0
VERTEX
  5
21D
  8
0
 62
     9
 10
0.0
 20
0.0
 30
0.0
 70
   128
 71
    88
 72
   164
 73
   166
  0
VERTEX
  5
21E
  8
0
 62
     9
 10
0.0
 20
0.0
 30
0.0
 70
   128
 71
    79
 72
    81
 73
   167
  0
VERTEX
  5
21F
  8
0
 62
     9
 10
0.0
 20
0.0
 30
0.0
 70
   128
 71
   169
 72
   149
 73
   168
  0
VERTEX
  5
220
  8
0
 62
     9
 10
0.0
 20
0.0
 30
0.0
 70
   128
 71
    68
 72
    67
 73
   170
  0
VERTEX
  5
221
  8
0
 62
     9
 10
0.0
 20
0.0
 30
0.0
 70
   128
 71
   144
 72
   172
 73
   171
  0
VERTEX
  5
222
  8
0
 62
     9
 10
0.0
 20
0.0
 30
0.0
 70
   128
 71
     8
 72
   173
 73
   145
  0
VERTEX
  5
223
  8
0
 62
     9
 10
0.0
 20
0.0
 30
0.0
 70
   128
 71
     8
 72
   174
 73
   173
  0
VERTEX
  5
224
  8
0
 62
     9
 10
0.0
 20
0.0
 30
0.0
 70
   128
 71
     9
 72
    68
 73
   174
  0
VERTEX
  5
225
  8
0
 62
     9
 10
0.0
 20
0.0
 30
0.0
 70
   128
 71
   145
 72
   173
 73
   172
  0
VERTEX
  5
226
  8
0
 62
     9
 10
0.0
 20
0.0
 30
0.0
 70
   128
 71
   146
 72
   175
 73
   168
  0
VERTEX
  5
227
  8
0
 62
     9
 10
0.0
 20
0.0
 30
0.0
 70
   128
 71
   147
 72
   171
 73
   175
  0
VERTEX
  5
228
  8
0
 62
     9
 10
0.0
 20
0.0
 30
0.0
 70
   128
 71
   172
 72
   177
 73
   176
  0
VERTEX
  5
229
  8
0
 62
     9
 10
0.0
 20
0.0
 30
0.0
 70
   128
 71
   170
 72
   178
 73
   173
  0
VERTEX
  5
22A
  8
0
 62
     9
 10
0.0
 20
0.0
 30
0.0
 70
   128
 71
   170
 72
   179
 73
   178
  0
VERTEX
  5
22B
  8
0
 62
     9
 10
0.0
 20
0.0
 30
0.0
 70
   128
 71
    67
 72
    79
 73
   179
  0
VERTEX
  5
22C
  8
0
 62
     9
 10
0.0
 20
0.0
 30
0.0
 70
   128
 71
   173
 72
   178
 73
   177
  0
VERTEX
  5
22D
  8
0
 62
     9
 10
0.0
 20
0.0
 30
0.0
 70
   128
 71
   175
 72
   181
 73
   180
  0
VERTEX
  5
22E
  8
0
 62
     9
 10
0.0
 20
0.0
 30
0.0
 70
   128
 71
   171
 72
   176
 73
   181
  0
VERTEX
  5
22F
  8
0
 62
     9
 10
0.0
 20
0.0
 30
0.0
 70
   128
 71
   182
 72
   168
 73
   180
  0
VERTEX
  5
230
  8
0
 62
     9
 10
0.0
 20
0.0
 30
0.0
 70
   128
 71
   165
 72
   163
 73
   183
  0
VERTEX
  5
231
  8
0
 62
     9
 10
0.0
 20
0.0
 30
0.0
 70
   128
 71
   162
 72
   169
 73
   182
  0
VERTEX
  5
232
  8
0
 62
     9
 10
0.0
 20
0.0
 30
0.0
 70
   128
 71
   163
 72
   162
 73
   184
  0
VERTEX
  5
233
  8
0
 62
     9
 10
0.0
 20
0.0
 30
0.0
 70
   128
 71
     2
 72
   166
 73
   185
  0
VERTEX
  5
234
  8
0
 62
     9
 10
0.0
 20
0.0
 30
0.0
 70
   128
 71
   166
 72
   165
 73
   186
  0
VERTEX
  5
235
  8
0
 62
     9
 10
0.0
 20
0.0
 30
0.0
 70
   128
 71
   186
 72
   183
 73
   187
  0
VERTEX
  5
236
  8
0
 62
     9
 10
0.0
 20
0.0
 30
0.0
 70
   128
 71
   184
 72
   182
 73
   188
  0
VERTEX
  5
237
  8
0
 62
     9
 10
0.0
 20
0.0
 30
0.0
 70
   128
 71
   183
 72
   184
 73
   189
  0
VERTEX
  5
238
  8
0
 62
     9
 10
0.0
 20
0.0
 30
0.0
 70
   128
 71
     1
 72
   185
 73
   190
  0
VERTEX
  5
239
  8
0
 62
     9
 10
0.0
 20
0.0
 30
0.0
 70
   128
 71
   185
 72
   186
 73
   191
  0
VERTEX
  5
23A
  8
0
 62
     9
 10
0.0
 20
0.0
 30
0.0
 70
   128
 71
   193
 72
   192
 73
   188
  0
VERTEX
  5
23B
  8
0
 62
     9
 10
0.0
 20
0.0
 30
0.0
 70
   128
 71
   188
 72
   180
 73
   193
  0
VERTEX
  5
23C
  8
0
 62
     9
 10
0.0
 20
0.0
 30
0.0
 70
   128
 71
    82
 72
    87
 73
   194
  0
VERTEX
  5
23D
  8
0
 62
     9
 10
0.0
 20
0.0
 30
0.0
 70
   128
 71
   177
 72
   196
 73
   195
  0
VERTEX
  5
23E
  8
0
 62
     9
 10
0.0
 20
0.0
 30
0.0
 70
   128
 71
   167
 72
   197
 73
   178
  0
VERTEX
  5
23F
  8
0
 62
     9
 10
0.0
 20
0.0
 30
0.0
 70
   128
 71
   167
 72
   198
 73
   197
  0
VERTEX
  5
240
  8
0
 62
     9
 10
0.0
 20
0.0
 30
0.0
 70
   128
 71
   199
 72
   198
 73
   167
  0
VERTEX
  5
241
  8
0
 62
     9
 10
0.0
 20
0.0
 30
0.0
 70
   128
 71
   167
 72
    81
 73
   199
  0
VERTEX
  5
242
  8
0
 62
     9
 10
0.0
 20
0.0
 30
0.0
 70
   128
 71
   178
 72
   197
 73
   196
  0
VERTEX
  5
243
  8
0
 62
     9
 10
0.0
 20
0.0
 30
0.0
 70
   128
 71
   200
 72
   180
 73
   181
  0
VERTEX
  5
244
  8
0
 62
     9
 10
0.0
 20
0.0
 30
0.0
 70
   128
 71
   200
 72
   201
 73
   180
  0
VERTEX
  5
245
  8
0
 62
     9
 10
0.0
 20
0.0
 30
0.0
 70
   128
 71
   176
 72
   195
 73
   202
  0
VERTEX
  5
246
  8
0
 62
     9
 10
0.0
 20
0.0
 30
0.0
 70
   128
 71
   204
 72
   203
 73
   195
  0
VERTEX
  5
247
  8
0
 62
     9
 10
0.0
 20
0.0
 30
0.0
 70
   128
 71
   195
 72
   196
 73
   204
  0
VERTEX
  5
248
  8
0
 62
     9
 10
0.0
 20
0.0
 30
0.0
 70
   128
 71
   206
 72
   205
 73
   197
  0
VERTEX
  5
249
  8
0
 62
     9
 10
0.0
 20
0.0
 30
0.0
 70
   128
 71
   197
 72
   198
 73
   206
  0
VERTEX
  5
24A
  8
0
 62
     9
 10
0.0
 20
0.0
 30
0.0
 70
   128
 71
   199
 72
   194
 73
   207
  0
VERTEX
  5
24B
  8
0
 62
     9
 10
0.0
 20
0.0
 30
0.0
 70
   128
 71
   197
 72
   205
 73
   208
  0
VERTEX
  5
24C
  8
0
 62
     9
 10
0.0
 20
0.0
 30
0.0
 70
   128
 71
   210
 72
   209
 73
   200
  0
VERTEX
  5
24D
  8
0
 62
     9
 10
0.0
 20
0.0
 30
0.0
 70
   128
 71
   200
 72
   202
 73
   210
  0
VERTEX
  5
24E
  8
0
 62
     9
 10
0.0
 20
0.0
 30
0.0
 70
   128
 71
   195
 72
   203
 73
   211
  0
VERTEX
  5
24F
  8
0
 62
     9
 10
0.0
 20
0.0
 30
0.0
 70
   128
 71
   200
 72
   209
 73
   212
  0
VERTEX
  5
250
  8
0
 62
     9
 10
0.0
 20
0.0
 30
0.0
 70
   128
 71
   213
 72
   193
 73
   201
  0
VERTEX
  5
251
  8
0
 62
     9
 10
0.0
 20
0.0
 30
0.0
 70
   128
 71
   213
 72
   214
 73
   193
  0
VERTEX
  5
252
  8
0
 62
     9
 10
0.0
 20
0.0
 30
0.0
 70
   128
 71
   191
 72
   187
 73
   215
  0
VERTEX
  5
253
  8
0
 62
     9
 10
0.0
 20
0.0
 30
0.0
 70
   128
 71
   189
 72
   188
 73
   192
  0
VERTEX
  5
254
  8
0
 62
     9
 10
0.0
 20
0.0
 30
0.0
 70
   128
 71
   187
 72
   189
 73
   216
  0
VERTEX
  5
255
  8
0
 62
     9
 10
0.0
 20
0.0
 30
0.0
 70
   128
 71
   217
 72
    36
 73
    20
  0
VERTEX
  5
256
  8
0
 62
     9
 10
0.0
 20
0.0
 30
0.0
 70
   128
 71
    20
 72
   190
 73
   217
  0
VERTEX
  5
257
  8
0
 62
     9
 10
0.0
 20
0.0
 30
0.0
 70
   128
 71
   190
 72
   191
 73
   218
  0
VERTEX
  5
258
  8
0
 62
     9
 10
0.0
 20
0.0
 30
0.0
 70
   128
 71
   219
 72
   218
 73
   215
  0
VERTEX
  5
259
  8
0
 62
     9
 10
0.0
 20
0.0
 30
0.0
 70
   128
 71
   219
 72
   220
 73
   218
  0
VERTEX
  5
25A
  8
0
 62
     9
 10
0.0
 20
0.0
 30
0.0
 70
   128
 71
   221
 72
   216
 73
   192
  0
VERTEX
  5
25B
  8
0
 62
     9
 10
0.0
 20
0.0
 30
0.0
 70
   128
 71
   221
 72
   222
 73
   216
  0
VERTEX
  5
25C
  8
0
 62
     9
 10
0.0
 20
0.0
 30
0.0
 70
   128
 71
   192
 72
   193
 73
   214
  0
VERTEX
  5
25D
  8
0
 62
     9
 10
0.0
 20
0.0
 30
0.0
 70
   128
 71
   215
 72
   216
 73
   222
  0
VERTEX
  5
25E
  8
0
 62
     9
 10
0.0
 20
0.0
 30
0.0
 70
   128
 71
   224
 72
   217
 73
   223
  0
VERTEX
  5
25F
  8
0
 62
     9
 10
0.0
 20
0.0
 30
0.0
 70
   128
 71
   224
 72
   225
 73
   217
  0
VERTEX
  5
260
  8
0
 62
     9
 10
0.0
 20
0.0
 30
0.0
 70
   128
 71
   223
 72
   218
 73
   220
  0
VERTEX
  5
261
  8
0
 62
     9
 10
0.0
 20
0.0
 30
0.0
 70
   128
 71
    36
 72
   217
 73
   225
  0
VERTEX
  5
262
  8
0
 62
     9
 10
0.0
 20
0.0
 30
0.0
 70
   128
 71
   225
 72
    35
 73
    36
  0
VERTEX
  5
263
  8
0
 62
     9
 10
0.0
 20
0.0
 30
0.0
 70
   128
 71
   220
 72
   226
 73
   223
  0
VERTEX
  5
264
  8
0
 62
     9
 10
0.0
 20
0.0
 30
0.0
 70
   128
 71
   223
 72
   226
 73
   224
  0
VERTEX
  5
265
  8
0
 62
     9
 10
0.0
 20
0.0
 30
0.0
 70
   128
 71
   222
 72
   227
 73
   215
  0
VERTEX
  5
266
  8
0
 62
     9
 10
0.0
 20
0.0
 30
0.0
 70
   128
 71
   214
 72
   228
 73
   192
  0
VERTEX
  5
267
  8
0
 62
     9
 10
0.0
 20
0.0
 30
0.0
 70
   128
 71
   192
 72
   228
 73
   221
  0
VERTEX
  5
268
  8
0
 62
     9
 10
0.0
 20
0.0
 30
0.0
 70
   128
 71
   215
 72
   227
 73
   219
  0
VERTEX
  5
269
  8
0
 62
     9
 10
0.0
 20
0.0
 30
0.0
 70
   128
 71
   218
 72
   223
 73
   190
  0
VERTEX
  5
26A
  8
0
 62
     9
 10
0.0
 20
0.0
 30
0.0
 70
   128
 71
   190
 72
   223
 73
   217
  0
VERTEX
  5
26B
  8
0
 62
     9
 10
0.0
 20
0.0
 30
0.0
 70
   128
 71
   216
 72
   215
 73
   187
  0
VERTEX
  5
26C
  8
0
 62
     9
 10
0.0
 20
0.0
 30
0.0
 70
   128
 71
   192
 72
   216
 73
   189
  0
VERTEX
  5
26D
  8
0
 62
     9
 10
0.0
 20
0.0
 30
0.0
 70
   128
 71
   215
 72
   218
 73
   191
  0
VERTEX
  5
26E
  8
0
 62
     9
 10
0.0
 20
0.0
 30
0.0
 70
   128
 71
   201
 72
   212
 73
   213
  0
VERTEX
  5
26F
  8
0
 62
     9
 10
0.0
 20
0.0
 30
0.0
 70
   128
 71
   212
 72
   201
 73
   200
  0
VERTEX
  5
270
  8
0
 62
     9
 10
0.0
 20
0.0
 30
0.0
 70
   128
 71
   211
 72
   202
 73
   195
  0
VERTEX
  5
271
  8
0
 62
     9
 10
0.0
 20
0.0
 30
0.0
 70
   128
 71
   202
 72
   211
 73
   210
  0
VERTEX
  5
272
  8
0
 62
     9
 10
0.0
 20
0.0
 30
0.0
 70
   128
 71
   208
 72
   196
 73
   197
  0
VERTEX
  5
273
  8
0
 62
     9
 10
0.0
 20
0.0
 30
0.0
 70
   128
 71
   207
 72
   198
 73
   199
  0
VERTEX
  5
274
  8
0
 62
     9
 10
0.0
 20
0.0
 30
0.0
 70
   128
 71
   198
 72
   207
 73
   206
  0
VERTEX
  5
275
  8
0
 62
     9
 10
0.0
 20
0.0
 30
0.0
 70
   128
 71
   196
 72
   208
 73
   204
  0
VERTEX
  5
276
  8
0
 62
     9
 10
0.0
 20
0.0
 30
0.0
 70
   128
 71
   202
 72
   181
 73
   176
  0
VERTEX
  5
277
  8
0
 62
     9
 10
0.0
 20
0.0
 30
0.0
 70
   128
 71
   181
 72
   202
 73
   200
  0
VERTEX
  5
278
  8
0
 62
     9
 10
0.0
 20
0.0
 30
0.0
 70
   128
 71
   196
 72
   177
 73
   178
  0
VERTEX
  5
279
  8
0
 62
     9
 10
0.0
 20
0.0
 30
0.0
 70
   128
 71
    81
 72
    82
 73
   199
  0
VERTEX
  5
27A
  8
0
 62
     9
 10
0.0
 20
0.0
 30
0.0
 70
   128
 71
   178
 72
   179
 73
   167
  0
VERTEX
  5
27B
  8
0
 62
     9
 10
0.0
 20
0.0
 30
0.0
 70
   128
 71
   195
 72
   176
 73
   177
  0
VERTEX
  5
27C
  8
0
 62
     9
 10
0.0
 20
0.0
 30
0.0
 70
   128
 71
   194
 72
   199
 73
    82
  0
VERTEX
  5
27D
  8
0
 62
     9
 10
0.0
 20
0.0
 30
0.0
 70
   128
 71
   180
 72
   201
 73
   193
  0
VERTEX
  5
27E
  8
0
 62
     9
 10
0.0
 20
0.0
 30
0.0
 70
   128
 71
   191
 72
   190
 73
   185
  0
VERTEX
  5
27F
  8
0
 62
     9
 10
0.0
 20
0.0
 30
0.0
 70
   128
 71
   190
 72
    20
 73
     1
  0
VERTEX
  5
280
  8
0
 62
     9
 10
0.0
 20
0.0
 30
0.0
 70
   128
 71
   189
 72
   187
 73
   183
  0
VERTEX
  5
281
  8
0
 62
     9
 10
0.0
 20
0.0
 30
0.0
 70
   128
 71
   188
 72
   189
 73
   184
  0
VERTEX
  5
282
  8
0
 62
     9
 10
0.0
 20
0.0
 30
0.0
 70
   128
 71
   187
 72
   191
 73
   186
  0
VERTEX
  5
283
  8
0
 62
     9
 10
0.0
 20
0.0
 30
0.0
 70
   128
 71
   186
 72
   185
 73
   166
  0
VERTEX
  5
284
  8
0
 62
     9
 10
0.0
 20
0.0
 30
0.0
 70
   128
 71
   185
 72
     1
 73
     2
  0
VERTEX
  5
285
  8
0
 62
     9
 10
0.0
 20
0.0
 30
0.0
 70
   128
 71
   184
 72
   183
 73
   163
  0
VERTEX
  5
286
  8
0
 62
     9
 10
0.0
 20
0.0
 30
0.0
 70
   128
 71
   182
 72
   184
 73
   162
  0
VERTEX
  5
287
  8
0
 62
     9
 10
0.0
 20
0.0
 30
0.0
 70
   128
 71
   183
 72
   186
 73
   165
  0
VERTEX
  5
288
  8
0
 62
     9
 10
0.0
 20
0.0
 30
0.0
 70
   128
 71
   180
 72
   188
 73
   182
  0
VERTEX
  5
289
  8
0
 62
     9
 10
0.0
 20
0.0
 30
0.0
 70
   128
 71
   181
 72
   175
 73
   171
  0
VERTEX
  5
28A
  8
0
 62
     9
 10
0.0
 20
0.0
 30
0.0
 70
   128
 71
   180
 72
   168
 73
   175
  0
VERTEX
  5
28B
  8
0
 62
     9
 10
0.0
 20
0.0
 30
0.0
 70
   128
 71
   177
 72
   172
 73
   173
  0
VERTEX
  5
28C
  8
0
 62
     9
 10
0.0
 20
0.0
 30
0.0
 70
   128
 71
   179
 72
   170
 73
    67
  0
VERTEX
  5
28D
  8
0
 62
     9
 10
0.0
 20
0.0
 30
0.0
 70
   128
 71
   173
 72
   174
 73
   170
  0
VERTEX
  5
28E
  8
0
 62
     9
 10
0.0
 20
0.0
 30
0.0
 70
   128
 71
   176
 72
   171
 73
   172
  0
VERTEX
  5
28F
  8
0
 62
     9
 10
0.0
 20
0.0
 30
0.0
 70
   128
 71
   175
 72
   146
 73
   147
  0
VERTEX
  5
290
  8
0
 62
     9
 10
0.0
 20
0.0
 30
0.0
 70
   128
 71
   168
 72
   149
 73
   146
  0
VERTEX
  5
291
  8
0
 62
     9
 10
0.0
 20
0.0
 30
0.0
 70
   128
 71
   172
 72
   144
 73
   145
  0
VERTEX
  5
292
  8
0
 62
     9
 10
0.0
 20
0.0
 30
0.0
 70
   128
 71
   174
 72
     8
 73
     9
  0
VERTEX
  5
293
  8
0
 62
     9
 10
0.0
 20
0.0
 30
0.0
 70
   128
 71
   145
 72
   143
 73
     8
  0
VERTEX
  5
294
  8
0
 62
     9
 10
0.0
 20
0.0
 30
0.0
 70
   128
 71
   171
 72
   147
 73
   144
  0
VERTEX
  5
295
  8
0
 62
     9
 10
0.0
 20
0.0
 30
0.0
 70
   128
 71
   170
 72
   174
 73
    68
  0
VERTEX
  5
296
  8
0
 62
     9
 10
0.0
 20
0.0
 30
0.0
 70
   128
 71
   168
 72
   182
 73
   169
  0
VERTEX
  5
297
  8
0
 62
     9
 10
0.0
 20
0.0
 30
0.0
 70
   128
 71
   167
 72
   179
 73
    79
  0
VERTEX
  5
298
  8
0
 62
     9
 10
0.0
 20
0.0
 30
0.0
 70
   128
 71
   166
 72
     2
 73
    88
  0
VERTEX
  5
299
  8
0
 62
     9
 10
0.0
 20
0.0
 30
0.0
 70
   128
 71
   164
 72
    88
 73
    89
  0
VERTEX
  5
29A
  8
0
 62
     9
 10
0.0
 20
0.0
 30
0.0
 70
   128
 71
   164
 72
   160
 73
   163
  0
VERTEX
  5
29B
  8
0
 62
     9
 10
0.0
 20
0.0
 30
0.0
 70
   128
 71
   161
 72
   169
 73
   162
  0
VERTEX
  5
29C
  8
0
 62
     9
 10
0.0
 20
0.0
 30
0.0
 70
   128
 71
   161
 72
   160
 73
   156
  0
VERTEX
  5
29D
  8
0
 62
     9
 10
0.0
 20
0.0
 30
0.0
 70
   128
 71
   149
 72
   169
 73
   161
  0
VERTEX
  5
29E
  8
0
 62
     9
 10
0.0
 20
0.0
 30
0.0
 70
   128
 71
   160
 72
   164
 73
   159
  0
VERTEX
  5
29F
  8
0
 62
     9
 10
0.0
 20
0.0
 30
0.0
 70
   128
 71
   159
 72
    89
 73
     4
  0
VERTEX
  5
2A0
  8
0
 62
     9
 10
0.0
 20
0.0
 30
0.0
 70
   128
 71
   157
 72
     4
 73
     7
  0
VERTEX
  5
2A1
  8
0
 62
     9
 10
0.0
 20
0.0
 30
0.0
 70
   128
 71
   156
 72
   159
 73
   157
  0
VERTEX
  5
2A2
  8
0
 62
     9
 10
0.0
 20
0.0
 30
0.0
 70
   128
 71
   150
 72
   156
 73
   151
  0
VERTEX
  5
2A3
  8
0
 62
     9
 10
0.0
 20
0.0
 30
0.0
 70
   128
 71
   155
 72
   151
 73
   154
  0
VERTEX
  5
2A4
  8
0
 62
     9
 10
0.0
 20
0.0
 30
0.0
 70
   128
 71
   140
 72
   150
 73
   155
  0
VERTEX
  5
2A5
  8
0
 62
     9
 10
0.0
 20
0.0
 30
0.0
 70
   128
 71
   151
 72
   157
 73
   153
  0
VERTEX
  5
2A6
  8
0
 62
     9
 10
0.0
 20
0.0
 30
0.0
 70
   128
 71
   148
 72
   161
 73
   150
  0
VERTEX
  5
2A7
  8
0
 62
     9
 10
0.0
 20
0.0
 30
0.0
 70
   128
 71
   149
 72
   148
 73
   141
  0
VERTEX
  5
2A8
  8
0
 62
     9
 10
0.0
 20
0.0
 30
0.0
 70
   128
 71
   148
 72
   140
 73
   137
  0
VERTEX
  5
2A9
  8
0
 62
     9
 10
0.0
 20
0.0
 30
0.0
 70
   128
 71
   142
 72
   144
 73
   147
  0
VERTEX
  5
2AA
  8
0
 62
     9
 10
0.0
 20
0.0
 30
0.0
 70
   128
 71
   126
 72
   143
 73
   145
  0
VERTEX
  5
2AB
  8
0
 62
     9
 10
0.0
 20
0.0
 30
0.0
 70
   128
 71
   142
 72
   136
 73
   131
  0
VERTEX
  5
2AC
  8
0
 62
     9
 10
0.0
 20
0.0
 30
0.0
 70
   128
 71
   143
 72
   126
 73
   122
  0
VERTEX
  5
2AD
  8
0
 62
     9
 10
0.0
 20
0.0
 30
0.0
 70
   128
 71
   141
 72
   137
 73
   136
  0
VERTEX
  5
2AE
  8
0
 62
     9
 10
0.0
 20
0.0
 30
0.0
 70
   128
 71
   140
 72
   123
 73
   127
  0
VERTEX
  5
2AF
  8
0
 62
     9
 10
0.0
 20
0.0
 30
0.0
 70
   128
 71
   123
 72
   124
 73
   139
  0
VERTEX
  5
2B0
  8
0
 62
     9
 10
0.0
 20
0.0
 30
0.0
 70
   128
 71
   137
 72
   127
 73
   128
  0
VERTEX
  5
2B1
  8
0
 62
     9
 10
0.0
 20
0.0
 30
0.0
 70
   128
 71
   136
 72
   128
 73
   135
  0
VERTEX
  5
2B2
  8
0
 62
     9
 10
0.0
 20
0.0
 30
0.0
 70
   128
 71
   135
 72
    11
 73
    12
  0
VERTEX
  5
2B3
  8
0
 62
     9
 10
0.0
 20
0.0
 30
0.0
 70
   128
 71
   128
 72
   129
 73
   133
  0
VERTEX
  5
2B4
  8
0
 62
     9
 10
0.0
 20
0.0
 30
0.0
 70
   128
 71
   131
 72
   135
 73
   132
  0
VERTEX
  5
2B5
  8
0
 62
     9
 10
0.0
 20
0.0
 30
0.0
 70
   128
 71
   127
 72
   138
 73
   130
  0
VERTEX
  5
2B6
  8
0
 62
     9
 10
0.0
 20
0.0
 30
0.0
 70
   128
 71
   126
 72
   131
 73
   114
  0
VERTEX
  5
2B7
  8
0
 62
     9
 10
0.0
 20
0.0
 30
0.0
 70
   128
 71
   123
 72
   155
 73
   125
  0
VERTEX
  5
2B8
  8
0
 62
     9
 10
0.0
 20
0.0
 30
0.0
 70
   128
 71
    10
 72
   122
 73
   120
  0
VERTEX
  5
2B9
  8
0
 62
     9
 10
0.0
 20
0.0
 30
0.0
 70
   128
 71
   115
 72
    58
 73
    59
  0
VERTEX
  5
2BA
  8
0
 62
     9
 10
0.0
 20
0.0
 30
0.0
 70
   128
 71
   121
 72
    56
 73
    65
  0
VERTEX
  5
2BB
  8
0
 62
     9
 10
0.0
 20
0.0
 30
0.0
 70
   128
 71
   122
 72
   114
 73
   112
  0
VERTEX
  5
2BC
  8
0
 62
     9
 10
0.0
 20
0.0
 30
0.0
 70
   128
 71
   121
 72
   113
 73
   103
  0
VERTEX
  5
2BD
  8
0
 62
     9
 10
0.0
 20
0.0
 30
0.0
 70
   128
 71
   120
 72
   112
 73
   113
  0
VERTEX
  5
2BE
  8
0
 62
     9
 10
0.0
 20
0.0
 30
0.0
 70
   128
 71
    58
 72
   115
 73
   116
  0
VERTEX
  5
2BF
  8
0
 62
     9
 10
0.0
 20
0.0
 30
0.0
 70
   128
 71
    31
 72
    16
 73
   116
  0
VERTEX
  5
2C0
  8
0
 62
     9
 10
0.0
 20
0.0
 30
0.0
 70
   128
 71
   118
 72
   117
 73
     3
  0
VERTEX
  5
2C1
  8
0
 62
     9
 10
0.0
 20
0.0
 30
0.0
 70
   128
 71
   119
 72
   118
 73
    22
  0
VERTEX
  5
2C2
  8
0
 62
     9
 10
0.0
 20
0.0
 30
0.0
 70
   128
 71
   119
 72
   116
 73
   104
  0
VERTEX
  5
2C3
  8
0
 62
     9
 10
0.0
 20
0.0
 30
0.0
 70
   128
 71
   117
 72
   118
 73
   101
  0
VERTEX
  5
2C4
  8
0
 62
     9
 10
0.0
 20
0.0
 30
0.0
 70
   128
 71
   118
 72
   119
 73
   102
  0
VERTEX
  5
2C5
  8
0
 62
     9
 10
0.0
 20
0.0
 30
0.0
 70
   128
 71
     2
 72
     3
 73
   117
  0
VERTEX
  5
2C6
  8
0
 62
     9
 10
0.0
 20
0.0
 30
0.0
 70
   128
 71
   115
 72
   103
 73
   104
  0
VERTEX
  5
2C7
  8
0
 62
     9
 10
0.0
 20
0.0
 30
0.0
 70
   128
 71
   114
 72
   132
 73
   105
  0
VERTEX
  5
2C8
  8
0
 62
     9
 10
0.0
 20
0.0
 30
0.0
 70
   128
 71
   113
 72
   106
 73
    91
  0
VERTEX
  5
2C9
  8
0
 62
     9
 10
0.0
 20
0.0
 30
0.0
 70
   128
 71
   112
 72
   105
 73
   106
  0
VERTEX
  5
2CA
  8
0
 62
     9
 10
0.0
 20
0.0
 30
0.0
 70
   128
 71
   105
 72
   132
 73
    12
  0
VERTEX
  5
2CB
  8
0
 62
     9
 10
0.0
 20
0.0
 30
0.0
 70
   128
 71
   106
 72
   107
 73
   110
  0
VERTEX
  5
2CC
  8
0
 62
     9
 10
0.0
 20
0.0
 30
0.0
 70
   128
 71
   105
 72
   111
 73
   108
  0
VERTEX
  5
2CD
  8
0
 62
     9
 10
0.0
 20
0.0
 30
0.0
 70
   128
 71
   103
 72
    91
 73
    92
  0
VERTEX
  5
2CE
  8
0
 62
     9
 10
0.0
 20
0.0
 30
0.0
 70
   128
 71
   102
 72
   104
 73
    92
  0
VERTEX
  5
2CF
  8
0
 62
     9
 10
0.0
 20
0.0
 30
0.0
 70
   128
 71
    90
 72
   101
 73
    96
  0
VERTEX
  5
2D0
  8
0
 62
     9
 10
0.0
 20
0.0
 30
0.0
 70
   128
 71
   101
 72
   102
 73
   100
  0
VERTEX
  5
2D1
  8
0
 62
     9
 10
0.0
 20
0.0
 30
0.0
 70
   128
 71
    94
 72
    98
 73
   100
  0
VERTEX
  5
2D2
  8
0
 62
     9
 10
0.0
 20
0.0
 30
0.0
 70
   128
 71
    95
 72
    96
 73
    97
  0
VERTEX
  5
2D3
  8
0
 62
     9
 10
0.0
 20
0.0
 30
0.0
 70
   128
 71
    96
 72
   100
 73
    98
  0
VERTEX
  5
2D4
  8
0
 62
     9
 10
0.0
 20
0.0
 30
0.0
 70
   128
 71
    89
 72
    90
 73
    95
  0
VERTEX
  5
2D5
  8
0
 62
     9
 10
0.0
 20
0.0
 30
0.0
 70
   128
 71
    91
 72
   109
 73
    93
  0
VERTEX
  5
2D6
  8
0
 62
     9
 10
0.0
 20
0.0
 30
0.0
 70
   128
 71
    88
 72
   117
 73
    90
  0
VERTEX
  5
2D7
  8
0
 62
     9
 10
0.0
 20
0.0
 30
0.0
 70
   128
 71
    87
 72
    82
 73
    80
  0
VERTEX
  5
2D8
  8
0
 62
     9
 10
0.0
 20
0.0
 30
0.0
 70
   128
 71
    86
 72
    83
 73
    69
  0
VERTEX
  5
2D9
  8
0
 62
     9
 10
0.0
 20
0.0
 30
0.0
 70
   128
 71
    84
 72
    80
 73
    83
  0
VERTEX
  5
2DA
  8
0
 62
     9
 10
0.0
 20
0.0
 30
0.0
 70
   128
 71
    83
 72
    66
 73
    62
  0
VERTEX
  5
2DB
  8
0
 62
     9
 10
0.0
 20
0.0
 30
0.0
 70
   128
 71
    66
 72
    83
 73
    80
  0
VERTEX
  5
2DC
  8
0
 62
     9
 10
0.0
 20
0.0
 30
0.0
 70
   128
 71
    78
 72
    69
 73
    70
  0
VERTEX
  5
2DD
  8
0
 62
     9
 10
0.0
 20
0.0
 30
0.0
 70
   128
 71
    76
 72
    70
 73
    72
  0
VERTEX
  5
2DE
  8
0
 62
     9
 10
0.0
 20
0.0
 30
0.0
 70
   128
 71
    53
 72
    71
 73
    75
  0
VERTEX
  5
2DF
  8
0
 62
     9
 10
0.0
 20
0.0
 30
0.0
 70
   128
 71
    73
 72
    72
 73
    52
  0
VERTEX
  5
2E0
  8
0
 62
     9
 10
0.0
 20
0.0
 30
0.0
 70
   128
 71
    70
 72
    61
 73
    60
  0
VERTEX
  5
2E1
  8
0
 62
     9
 10
0.0
 20
0.0
 30
0.0
 70
   128
 71
    72
 72
    60
 73
    51
  0
VERTEX
  5
2E2
  8
0
 62
     9
 10
0.0
 20
0.0
 30
0.0
 70
   128
 71
    71
 72
    53
 73
    45
  0
VERTEX
  5
2E3
  8
0
 62
     9
 10
0.0
 20
0.0
 30
0.0
 70
   128
 71
    69
 72
    62
 73
    61
  0
VERTEX
  5
2E4
  8
0
 62
     9
 10
0.0
 20
0.0
 30
0.0
 70
   128
 71
    66
 72
    63
 73
    54
  0
VERTEX
  5
2E5
  8
0
 62
     9
 10
0.0
 20
0.0
 30
0.0
 70
   128
 71
    66
 72
    79
 73
    67
  0
VERTEX
  5
2E6
  8
0
 62
     9
 10
0.0
 20
0.0
 30
0.0
 70
   128
 71
    63
 72
    64
 73
    65
  0
VERTEX
  5
2E7
  8
0
 62
     9
 10
0.0
 20
0.0
 30
0.0
 70
   128
 71
    63
 72
    68
 73
     9
  0
VERTEX
  5
2E8
  8
0
 62
     9
 10
0.0
 20
0.0
 30
0.0
 70
   128
 71
    62
 72
    54
 73
    55
  0
VERTEX
  5
2E9
  8
0
 62
     9
 10
0.0
 20
0.0
 30
0.0
 70
   128
 71
    61
 72
    55
 73
    57
  0
VERTEX
  5
2EA
  8
0
 62
     9
 10
0.0
 20
0.0
 30
0.0
 70
   128
 71
    60
 72
    57
 73
    14
  0
VERTEX
  5
2EB
  8
0
 62
     9
 10
0.0
 20
0.0
 30
0.0
 70
   128
 71
    55
 72
    56
 73
    59
  0
VERTEX
  5
2EC
  8
0
 62
     9
 10
0.0
 20
0.0
 30
0.0
 70
   128
 71
    57
 72
    59
 73
    58
  0
VERTEX
  5
2ED
  8
0
 62
     9
 10
0.0
 20
0.0
 30
0.0
 70
   128
 71
    51
 72
    14
 73
    15
  0
VERTEX
  5
2EE
  8
0
 62
     9
 10
0.0
 20
0.0
 30
0.0
 70
   128
 71
    54
 72
    65
 73
    56
  0
VERTEX
  5
2EF
  8
0
 62
     9
 10
0.0
 20
0.0
 30
0.0
 70
   128
 71
    43
 72
    45
 73
    53
  0
VERTEX
  5
2F0
  8
0
 62
     9
 10
0.0
 20
0.0
 30
0.0
 70
   128
 71
    44
 72
   229
 73
    50
  0
VERTEX
  5
2F1
  8
0
 62
     9
 10
0.0
 20
0.0
 30
0.0
 70
   128
 71
    42
 72
   230
 73
    48
  0
VERTEX
  5
2F2
  8
0
 62
     9
 10
0.0
 20
0.0
 30
0.0
 70
   128
 71
    46
 72
   229
 73
    44
  0
VERTEX
  5
2F3
  8
0
 62
     9
 10
0.0
 20
0.0
 30
0.0
 70
   128
 71
    42
 72
    47
 73
    32
  0
VERTEX
  5
2F4
  8
0
 62
     9
 10
0.0
 20
0.0
 30
0.0
 70
   128
 71
    32
 72
    47
 73
    44
  0
VERTEX
  5
2F5
  8
0
 62
     9
 10
0.0
 20
0.0
 30
0.0
 70
   128
 71
    41
 72
   230
 73
    42
  0
VERTEX
  5
2F6
  8
0
 62
     9
 10
0.0
 20
0.0
 30
0.0
 70
   128
 71
    37
 72
   231
 73
    40
  0
VERTEX
  5
2F7
  8
0
 62
     9
 10
0.0
 20
0.0
 30
0.0
 70
   128
 71
    19
 72
   232
 73
    39
  0
VERTEX
  5
2F8
  8
0
 62
     9
 10
0.0
 20
0.0
 30
0.0
 70
   128
 71
    38
 72
   231
 73
    37
  0
VERTEX
  5
2F9
  8
0
 62
     9
 10
0.0
 20
0.0
 30
0.0
 70
   128
 71
    37
 72
    34
 73
    28
  0
VERTEX
  5
2FA
  8
0
 62
     9
 10
0.0
 20
0.0
 30
0.0
 70
   128
 71
    18
 72
    37
 73
    27
  0
VERTEX
  5
2FB
  8
0
 62
     9
 10
0.0
 20
0.0
 30
0.0
 70
   128
 71
    35
 72
   232
 73
    19
  0
VERTEX
  5
2FC
  8
0
 62
     9
 10
0.0
 20
0.0
 30
0.0
 70
   128
 71
    34
 72
    42
 73
    33
  0
VERTEX
  5
2FD
  8
0
 62
     9
 10
0.0
 20
0.0
 30
0.0
 70
   128
 71
    33
 72
    32
 73
    30
  0
VERTEX
  5
2FE
  8
0
 62
     9
 10
0.0
 20
0.0
 30
0.0
 70
   128
 71
    32
 72
    43
 73
    15
  0
VERTEX
  5
2FF
  8
0
 62
     9
 10
0.0
 20
0.0
 30
0.0
 70
   128
 71
    29
 72
    30
 73
    31
  0
VERTEX
  5
300
  8
0
 62
     9
 10
0.0
 20
0.0
 30
0.0
 70
   128
 71
    30
 72
    15
 73
    16
  0
VERTEX
  5
301
  8
0
 62
     9
 10
0.0
 20
0.0
 30
0.0
 70
   128
 71
    28
 72
    33
 73
    29
  0
VERTEX
  5
302
  8
0
 62
     9
 10
0.0
 20
0.0
 30
0.0
 70
   128
 71
    27
 72
    28
 73
    21
  0
VERTEX
  5
303
  8
0
 62
     9
 10
0.0
 20
0.0
 30
0.0
 70
   128
 71
    17
 72
    27
 73
    26
  0
VERTEX
  5
304
  8
0
 62
     9
 10
0.0
 20
0.0
 30
0.0
 70
   128
 71
    26
 72
    21
 73
    22
  0
VERTEX
  5
305
  8
0
 62
     9
 10
0.0
 20
0.0
 30
0.0
 70
   128
 71
    24
 72
    26
 73
    25
  0
VERTEX
  5
306
  8
0
 62
     9
 10
0.0
 20
0.0
 30
0.0
 70
   128
 71
    20
 72
    17
 73
    24
  0
VERTEX
  5
307
  8
0
 62
     9
 10
0.0
 20
0.0
 30
0.0
 70
   128
 71
    21
 72
    29
 73
    23
  0
VERTEX
  5
308
  8
0
 62
     9
 10
0.0
 20
0.0
 30
0.0
 70
   128
 71
    20
 72
    36
 73
    19
  0
VERTEX
  5
309
  8
0
 62
     9
 10
0.0
 20
0.0
 30
0.0
 70
   128
 71
    14
 72
    58
 73
    16
  0
VERTEX
  5
30A
  8
0
 62
     9
 10
0.0
 20
0.0
 30
0.0
 70
   128
 71
    11
 72
   134
 73
    13
  0
VERTEX
  5
30B
  8
0
 62
     9
 10
0.0
 20
0.0
 30
0.0
 70
   128
 71
     8
 72
   143
 73
    10
  0
VERTEX
  5
30C
  8
0
 62
     9
 10
0.0
 20
0.0
 30
0.0
 70
   128
 71
     4
 72
    95
 73
     6
  0
VERTEX
  5
30D
  8
0
 62
     9
 10
0.0
 20
0.0
 30
0.0
 70
   128
 71
     1
 72
    24
 73
     3
  0
SEQEND
  5
30E
  8
0
 62
     9
  0
ENDBLK
  5
311
  8
0
  0
BLOCK
  8
0
  2
E3_NODE_2_
 70
     0
 10
0.0
 20
0.0
 30
0.0
  3
E3_NODE_2_
  1

  0
POLYLINE
  5
313
  8
0
 62
     9
 66
     1
 10
0.0
 20
0.0
 30
0.0
 70
    64
 71
    34
 72
    34
  0
VERTEX
  5
314
  8
0
 10
164.3029937744141
 20
-2.756999969482422
 30
-44.02399826049805
 70
   192
  0
VERTEX
  5
315
  8
0
 10
162.3139953613281
 20
-8.1850004196167
 30
-44.55699920654297
 70
   192
  0
VERTEX
  5
316
  8
0
 10
151.1179962158203
 20
-4.546000003814697
 30
-47.55699920654297
 70
   192
  0
VERTEX
  5
317
  8
0
 10
144.2519989013672
 20
10.21500015258789
 30
-49.39699935913086
 70
   192
  0
VERTEX
  5
318
  8
0
 10
150.2619934082031
 20
20.79299926757812
 30
-47.7859992980957
 70
   192
  0
VERTEX
  5
319
  8
0
 10
157.02099609375
 20
17.12100028991699
 30
-45.97499847412109
 70
   192
  0
VERTEX
  5
31A
  8
0
 10
152.1199951171875
 20
0.0
 30
-47.28799819946289
 70
   192
  0
VERTEX
  5
31B
  8
0
 10
163.9859924316406
 20
-0.0599999986588955
 30
-44.10900115966797
 70
   192
  0
VERTEX
  5
31C
  8
0
 10
157.7619934082031
 20
16.00900077819824
 30
-45.77700042724609
 70
   192
  0
VERTEX
  5
31D
  8
0
 10
163.0279998779297
 20
8.111000061035156
 30
-44.36600112915039
 70
   192
  0
VERTEX
  5
31E
  8
0
 10
151.1179962158203
 20
4.546000003814697
 30
-47.55699920654297
 70
   192
  0
VERTEX
  5
31F
  8
0
 10
147.6569976806641
 20
22.20899963378906
 30
-48.48400115966797
 70
   192
  0
VERTEX
  5
320
  8
0
 10
144.2519989013672
 20
-10.21500015258789
 30
-49.39699935913086
 70
   192
  0
VERTEX
  5
321
  8
0
 10
157.593994140625
 20
-15.70800018310547
 30
-45.82199859619141
 70
   192
  0
VERTEX
  5
322
  8
0
 10
134.4779968261719
 20
20.79299926757812
 30
-52.01599884033203
 70
   192
  0
VERTEX
  5
323
  8
0
 10
137.0820007324219
 20
22.20899963378906
 30
-51.31800079345703
 70
   192
  0
VERTEX
  5
324
  8
0
 10
135.6900024414062
 20
8.192000389099121
 30
-51.69100189208984
 70
   192
  0
VERTEX
  5
325
  8
0
 10
160.5529937744141
 20
-12.99300003051758
 30
-45.02899932861328
 70
   192
  0
VERTEX
  5
326
  8
0
 10
152.6369934082031
 20
-20.25300025939941
 30
-47.15000152587891
 70
   192
  0
VERTEX
  5
327
  8
0
 10
127.7190017700195
 20
17.12100028991699
 30
-53.82699966430664
 70
   192
  0
VERTEX
  5
328
  8
0
 10
142.3699951171875
 20
-22.87299919128418
 30
-49.9010009765625
 70
   192
  0
VERTEX
  5
329
  8
0
 10
134.3419952392578
 20
-20.82500076293945
 30
-52.05199813842773
 70
   192
  0
VERTEX
  5
32A
  8
0
 10
142.3699951171875
 20
22.20899963378906
 30
-49.9010009765625
 70
   192
  0
VERTEX
  5
32B
  8
0
 10
150.3970031738281
 20
-20.82500076293945
 30
-47.75
 70
   192
  0
VERTEX
  5
32C
  8
0
 10
135.6900024414062
 20
-8.192000389099121
 30
-51.69100189208984
 70
   192
  0
VERTEX
  5
32D
  8
0
 10
132.1020050048828
 20
-20.25300025939941
 30
-52.65200042724609
 70
   192
  0
VERTEX
  5
32E
  8
0
 10
124.1869964599609
 20
-12.99300003051758
 30
-54.77299880981445
 70
   192
  0
VERTEX
  5
32F
  8
0
 10
122.4250030517578
 20
-8.1850004196167
 30
-55.24499893188477
 70
   192
  0
VERTEX
  5
330
  8
0
 10
121.7119979858398
 20
8.111000061035156
 30
-55.43600082397461
 70
   192
  0
VERTEX
  5
331
  8
0
 10
126.9779968261719
 20
16.00900077819824
 30
-54.02500152587891
 70
   192
  0
VERTEX
  5
332
  8
0
 10
131.8800048828125
 20
0.0
 30
-52.71200180053711
 70
   192
  0
VERTEX
  5
333
  8
0
 10
120.4369964599609
 20
-2.756999969482422
 30
-55.77799987792969
 70
   192
  0
VERTEX
  5
334
  8
0
 10
127.1460037231445
 20
-15.70800018310547
 30
-53.97999954223633
 70
   192
  0
VERTEX
  5
335
  8
0
 10
120.7529983520508
 20
-0.0599999986588955
 30
-55.69300079345703
 70
   192
  0
VERTEX
  5
336
  8
0
 62
     9
 10
0.0
 20
0.0
 30
0.0
 70
   128
 71
     3
 72
     2
 73
     1
  0
VERTEX
  5
337
  8
0
 62
     9
 10
0.0
 20
0.0
 30
0.0
 70
   128
 71
     6
 72
     5
 73
     4
  0
VERTEX
  5
338
  8
0
 62
     9
 10
0.0
 20
0.0
 30
0.0
 70
   128
 71
     1
 72
     8
 73
     7
  0
VERTEX
  5
339
  8
0
 62
     9
 10
0.0
 20
0.0
 30
0.0
 70
   128
 71
    11
 72
    10
 73
     9
  0
VERTEX
  5
33A
  8
0
 62
     9
 10
0.0
 20
0.0
 30
0.0
 70
   128
 71
     5
 72
    12
 73
     4
  0
VERTEX
  5
33B
  8
0
 62
     9
 10
0.0
 20
0.0
 30
0.0
 70
   128
 71
     7
 72
     8
 73
    10
  0
VERTEX
  5
33C
  8
0
 62
     9
 10
0.0
 20
0.0
 30
0.0
 70
   128
 71
     1
 72
     7
 73
     3
  0
VERTEX
  5
33D
  8
0
 62
     9
 10
0.0
 20
0.0
 30
0.0
 70
   128
 71
    14
 72
     3
 73
    13
  0
VERTEX
  5
33E
  8
0
 62
     9
 10
0.0
 20
0.0
 30
0.0
 70
   128
 71
    16
 72
    15
 73
     4
  0
VERTEX
  5
33F
  8
0
 62
     9
 10
0.0
 20
0.0
 30
0.0
 70
   128
 71
    17
 72
     4
 73
    15
  0
VERTEX
  5
340
  8
0
 62
     9
 10
0.0
 20
0.0
 30
0.0
 70
   128
 71
     4
 72
     9
 73
     6
  0
VERTEX
  5
341
  8
0
 62
     9
 10
0.0
 20
0.0
 30
0.0
 70
   128
 71
     3
 72
    18
 73
     2
  0
VERTEX
  5
342
  8
0
 62
     9
 10
0.0
 20
0.0
 30
0.0
 70
   128
 71
    13
 72
    19
 73
    14
  0
VERTEX
  5
343
  8
0
 62
     9
 10
0.0
 20
0.0
 30
0.0
 70
   128
 71
    15
 72
    20
 73
    17
  0
VERTEX
  5
344
  8
0
 62
     9
 10
0.0
 20
0.0
 30
0.0
 70
   128
 71
    10
 72
    11
 73
     7
  0
VERTEX
  5
345
  8
0
 62
     9
 10
0.0
 20
0.0
 30
0.0
 70
   128
 71
    14
 72
    18
 73
     3
  0
VERTEX
  5
346
  8
0
 62
     9
 10
0.0
 20
0.0
 30
0.0
 70
   128
 71
    22
 72
    21
 73
    13
  0
VERTEX
  5
347
  8
0
 62
     9
 10
0.0
 20
0.0
 30
0.0
 70
   128
 71
     4
 72
    23
 73
    16
  0
VERTEX
  5
348
  8
0
 62
     9
 10
0.0
 20
0.0
 30
0.0
 70
   128
 71
    13
 72
    24
 73
    19
  0
VERTEX
  5
349
  8
0
 62
     9
 10
0.0
 20
0.0
 30
0.0
 70
   128
 71
    26
 72
    22
 73
    25
  0
VERTEX
  5
34A
  8
0
 62
     9
 10
0.0
 20
0.0
 30
0.0
 70
   128
 71
    21
 72
    24
 73
    13
  0
VERTEX
  5
34B
  8
0
 62
     9
 10
0.0
 20
0.0
 30
0.0
 70
   128
 71
    28
 72
    27
 73
    25
  0
VERTEX
  5
34C
  8
0
 62
     9
 10
0.0
 20
0.0
 30
0.0
 70
   128
 71
    17
 72
    30
 73
    29
  0
VERTEX
  5
34D
  8
0
 62
     9
 10
0.0
 20
0.0
 30
0.0
 70
   128
 71
     9
 72
     4
 73
    11
  0
VERTEX
  5
34E
  8
0
 62
     9
 10
0.0
 20
0.0
 30
0.0
 70
   128
 71
    13
 72
    25
 73
    22
  0
VERTEX
  5
34F
  8
0
 62
     9
 10
0.0
 20
0.0
 30
0.0
 70
   128
 71
    32
 72
    28
 73
    31
  0
VERTEX
  5
350
  8
0
 62
     9
 10
0.0
 20
0.0
 30
0.0
 70
   128
 71
    27
 72
    33
 73
    25
  0
VERTEX
  5
351
  8
0
 62
     9
 10
0.0
 20
0.0
 30
0.0
 70
   128
 71
    29
 72
    34
 73
    31
  0
VERTEX
  5
352
  8
0
 62
     9
 10
0.0
 20
0.0
 30
0.0
 70
   128
 71
    25
 72
    33
 73
    26
  0
VERTEX
  5
353
  8
0
 62
     9
 10
0.0
 20
0.0
 30
0.0
 70
   128
 71
    25
 72
    31
 73
    28
  0
VERTEX
  5
354
  8
0
 62
     9
 10
0.0
 20
0.0
 30
0.0
 70
   128
 71
    29
 72
    31
 73
    17
  0
VERTEX
  5
355
  8
0
 62
     9
 10
0.0
 20
0.0
 30
0.0
 70
   128
 71
    31
 72
    34
 73
    32
  0
VERTEX
  5
356
  8
0
 62
     9
 10
0.0
 20
0.0
 30
0.0
 70
   128
 71
     4
 72
    12
 73
    23
  0
VERTEX
  5
357
  8
0
 62
     9
 10
0.0
 20
0.0
 30
0.0
 70
   128
 71
    17
 72
    20
 73
    30
  0
SEQEND
  5
358
  8
0
 62
     9
  0
ENDBLK
  5
35B
  8
0
  0
BLOCK
  8
0
  2
E3_NODE_3_
 70
     0
 10
0.0
 20
0.0
 30
0.0
  3
E3_NODE_3_
  1

  0
POLYLINE
  5
35D
  8
0
 62
     9
 66
     1
 10
0.0
 20
0.0
 30
0.0
 70
    64
 71
    16
 72
    16
  0
VERTEX
  5
35E
  8
0
 10
137.7610015869141
 20
-8.192000389099121
 30
-59.41799926757812
 70
   192
  0
VERTEX
  5
35F
  8
0
 10
135.6900024414062
 20
-8.192000389099121
 30
-51.69100189208984
 70
   192
  0
VERTEX
  5
360
  8
0
 10
131.8800048828125
 20
0.0
 30
-52.71200180053711
 70
   192
  0
VERTEX
  5
361
  8
0
 10
146.322998046875
 20
-10.21500015258789
 30
-57.12400054931641
 70
   192
  0
VERTEX
  5
362
  8
0
 10
144.2519989013672
 20
-10.21500015258789
 30
-49.39699935913086
 70
   192
  0
VERTEX
  5
363
  8
0
 10
153.1889953613281
 20
-4.546000003814697
 30
-55.28400039672852
 70
   192
  0
VERTEX
  5
364
  8
0
 10
151.1179962158203
 20
-4.546000003814697
 30
-47.55699920654297
 70
   192
  0
VERTEX
  5
365
  8
0
 10
153.1889953613281
 20
4.546000003814697
 30
-55.28400039672852
 70
   192
  0
VERTEX
  5
366
  8
0
 10
152.1199951171875
 20
0.0
 30
-47.28799819946289
 70
   192
  0
VERTEX
  5
367
  8
0
 10
151.1179962158203
 20
4.546000003814697
 30
-47.55699920654297
 70
   192
  0
VERTEX
  5
368
  8
0
 10
144.2519989013672
 20
10.21500015258789
 30
-49.39699935913086
 70
   192
  0
VERTEX
  5
369
  8
0
 10
135.6900024414062
 20
8.192000389099121
 30
-51.69100189208984
 70
   192
  0
VERTEX
  5
36A
  8
0
 10
144.0709991455078
 20
10.47700023651123
 30
-57.72700119018555
 70
   192
  0
VERTEX
  5
36B
  8
0
 10
146.322998046875
 20
10.21500015258789
 30
-57.12400054931641
 70
   192
  0
VERTEX
  5
36C
  8
0
 10
137.7610015869141
 20
8.192000389099121
 30
-59.41799926757812
 70
   192
  0
VERTEX
  5
36D
  8
0
 10
133.9499969482422
 20
0.0
 30
-60.43899917602539
 70
   192
  0
VERTEX
  5
36E
  8
0
 62
     9
 10
0.0
 20
0.0
 30
0.0
 70
   128
 71
     3
 72
     2
 73
     1
  0
VERTEX
  5
36F
  8
0
 62
     9
 10
0.0
 20
0.0
 30
0.0
 70
   128
 71
     2
 72
     5
 73
     4
  0
VERTEX
  5
370
  8
0
 62
     9
 10
0.0
 20
0.0
 30
0.0
 70
   128
 71
     5
 72
     7
 73
     6
  0
VERTEX
  5
371
  8
0
 62
     9
 10
0.0
 20
0.0
 30
0.0
 70
   128
 71
     9
 72
     8
 73
     6
  0
VERTEX
  5
372
  8
0
 62
     9
 10
0.0
 20
0.0
 30
0.0
 70
   128
 71
     9
 72
    10
 73
     8
  0
VERTEX
  5
373
  8
0
 62
     9
 10
0.0
 20
0.0
 30
0.0
 70
   128
 71
     8
 72
    10
 73
    11
  0
VERTEX
  5
374
  8
0
 62
     9
 10
0.0
 20
0.0
 30
0.0
 70
   128
 71
    13
 72
    11
 73
    12
  0
VERTEX
  5
375
  8
0
 62
     9
 10
0.0
 20
0.0
 30
0.0
 70
   128
 71
    13
 72
    14
 73
    11
  0
VERTEX
  5
376
  8
0
 62
     9
 10
0.0
 20
0.0
 30
0.0
 70
   128
 71
    15
 72
    12
 73
     3
  0
VERTEX
  5
377
  8
0
 62
     9
 10
0.0
 20
0.0
 30
0.0
 70
   128
 71
     3
 72
    16
 73
    15
  0
VERTEX
  5
378
  8
0
 62
     9
 10
0.0
 20
0.0
 30
0.0
 70
   128
 71
    12
 72
    15
 73
    13
  0
VERTEX
  5
379
  8
0
 62
     9
 10
0.0
 20
0.0
 30
0.0
 70
   128
 71
    11
 72
    14
 73
     8
  0
VERTEX
  5
37A
  8
0
 62
     9
 10
0.0
 20
0.0
 30
0.0
 70
   128
 71
     6
 72
     7
 73
     9
  0
VERTEX
  5
37B
  8
0
 62
     9
 10
0.0
 20
0.0
 30
0.0
 70
   128
 71
     6
 72
     4
 73
     5
  0
VERTEX
  5
37C
  8
0
 62
     9
 10
0.0
 20
0.0
 30
0.0
 70
   128
 71
     4
 72
     1
 73
     2
  0
VERTEX
  5
37D
  8
0
 62
     9
 10
0.0
 20
0.0
 30
0.0
 70
   128
 71
     1
 72
    16
 73
     3
  0
SEQEND
  5
37E
  8
0
 62
     9
  0
ENDBLK
  5
381
  8
0
  0
BLOCK
  8
0
  2
E3_NODE_4_
 70
     0
 10
0.0
 20
0.0
 30
0.0
  3
E3_NODE_4_
  1

  0
POLYLINE
  5
383
  8
0
 62
     9
 66
     1
 10
0.0
 20
0.0
 30
0.0
 70
    64
 71
     8
 72
     6
  0
VERTEX
  5
384
  8
0
 10
146.322998046875
 20
-10.21500015258789
 30
-57.12400054931641
 70
   192
  0
VERTEX
  5
385
  8
0
 10
146.322998046875
 20
10.21500015258789
 30
-57.12400054931641
 70
   192
  0
VERTEX
  5
386
  8
0
 10
153.1889953613281
 20
4.546000003814697
 30
-55.28400039672852
 70
   192
  0
VERTEX
  5
387
  8
0
 10
137.7610015869141
 20
-8.192000389099121
 30
-59.41799926757812
 70
   192
  0
VERTEX
  5
388
  8
0
 10
133.9499969482422
 20
0.0
 30
-60.43899917602539
 70
   192
  0
VERTEX
  5
389
  8
0
 10
144.0709991455078
 20
10.47700023651123
 30
-57.72700119018555
 70
   192
  0
VERTEX
  5
38A
  8
0
 10
137.7610015869141
 20
8.192000389099121
 30
-59.41799926757812
 70
   192
  0
VERTEX
  5
38B
  8
0
 10
153.1889953613281
 20
-4.546000003814697
 30
-55.28400039672852
 70
   192
  0
VERTEX
  5
38C
  8
0
 62
     9
 10
0.0
 20
0.0
 30
0.0
 70
   128
 71
     3
 72
     2
 73
     1
  0
VERTEX
  5
38D
  8
0
 62
     9
 10
0.0
 20
0.0
 30
0.0
 70
   128
 71
     5
 72
     4
 73
     1
  0
VERTEX
  5
38E
  8
0
 62
     9
 10
0.0
 20
0.0
 30
0.0
 70
   128
 71
     2
 72
     6
 73
     1
  0
VERTEX
  5
38F
  8
0
 62
     9
 10
0.0
 20
0.0
 30
0.0
 70
   128
 71
     1
 72
     7
 73
     5
  0
VERTEX
  5
390
  8
0
 62
     9
 10
0.0
 20
0.0
 30
0.0
 70
   128
 71
     1
 72
     6
 73
     7
  0
VERTEX
  5
391
  8
0
 62
     9
 10
0.0
 20
0.0
 30
0.0
 70
   128
 71
     1
 72
     8
 73
     3
  0
SEQEND
  5
392
  8
0
 62
     9
  0
ENDBLK
  5
395
  8
0
  0
ENDSEC
  0
SECTION
  2
ENTITIES
  0
INSERT
  5
98
  8
LAYER_1
  2
E3_NODE
 10
0.0
 20
0.0
 30
0.0
  0
INSERT
  5
30F
  8
LAYER_1
  2
E3_NODE_1_
 10
0.0
 20
0.0
 30
0.0
  0
INSERT
  5
359
  8
LAYER_1
  2
E3_NODE_2_
 10
0.0
 20
0.0
 30
0.0
  0
INSERT
  5
37F
  8
LAYER_1
  2
E3_NODE_3_
 10
0.0
 20
0.0
 30
0.0
  0
INSERT
  5
393
  8
LAYER_1
  2
E3_NODE_4_
 10
0.0
 20
0.0
 30
0.0
  0
ENDSEC
  0
EOF
