  0
SECTION
  2
HEADER
  9
$ACADVER
  1
AC1015
  9
$ACADMAINTVER
 70
     6
  9
$DWGCODEPAGE
  3
ANSI_1252
  9
$INSBASE
 10
0.0
 20
0.0
 30
0.0
  9
$EXTMIN
 10
0.0
 20
0.0
 30
0.0
  9
$EXTMAX
 10
3000.0
 20
4500.0
 30
0.0
  9
$LIMMIN
 10
0.0
 20
0.0
  9
$LIMMAX
 10
3000.0
 20
4500.0
  9
$ORTHOMODE
 70
     0
  9
$REGENMODE
 70
     1
  9
$FILLMODE
 70
     1
  9
$QTEXTMODE
 70
     0
  9
$MIRRTEXT
 70
     1
  9
$LTSCALE
 40
1.0
  9
$ATTMODE
 70
     1
  9
$TEXTSIZE
 40
2.5
  9
$TRACEWID
 40
1.0
  9
$TEXTSTYLE
  7
Standard
  9
$CLAYER
  8
0
  9
$CELTYPE
  6
ByLayer
  9
$CECOLOR
 62
   256
  9
$CELTSCALE
 40
1.0
  9
$DISPSILH
 70
     0
  9
$DIMSCALE
 40
1.0
  9
$DIMASZ
 40
2.5
  9
$DIMEXO
 40
0.625
  9
$DIMDLI
 40
3.75
  9
$DIMRND
 40
0.0
  9
$DIMDLE
 40
0.0
  9
$DIMEXE
 40
1.25
  9
$DIMTP
 40
0.0
  9
$DIMTM
 40
0.0
  9
$DIMTXT
 40
2.5
  9
$DIMCEN
 40
2.5
  9
$DIMTSZ
 40
0.0
  9
$DIMTOL
 70
     0
  9
$DIMLIM
 70
     0
  9
$DIMTIH
 70
     0
  9
$DIMTOH
 70
     0
  9
$DIMSE1
 70
     0
  9
$DIMSE2
 70
     0
  9
$DIMTAD
 70
     1
  9
$DIMZIN
 70
     8
  9
$DIMBLK
  1

  9
$DIMASO
 70
     1
  9
$DIMSHO
 70
     1
  9
$DIMPOST
  1

  9
$DIMAPOST
  1

  9
$DIMALT
 70
     0
  9
$DIMALTD
 70
     3
  9
$DIMALTF
 40
0.0393700787
  9
$DIMLFAC
 40
1.0
  9
$DIMTOFL
 70
     1
  9
$DIMTVP
 40
0.0
  9
$DIMTIX
 70
     0
  9
$DIMSOXD
 70
     0
  9
$DIMSAH
 70
     0
  9
$DIMBLK1
  1

  9
$DIMBLK2
  1

  9
$DIMSTYLE
  2
ISO-25
  9
$DIMCLRD
 70
     0
  9
$DIMCLRE
 70
     0
  9
$DIMCLRT
 70
     0
  9
$DIMTFAC
 40
1.0
  9
$DIMGAP
 40
0.625
  9
$DIMJUST
 70
     0
  9
$DIMSD1
 70
     0
  9
$DIMSD2
 70
     0
  9
$DIMTOLJ
 70
     0
  9
$DIMTZIN
 70
     8
  9
$DIMALTZ
 70
     0
  9
$DIMALTTZ
 70
     0
  9
$DIMUPT
 70
     0
  9
$DIMDEC
 70
     2
  9
$DIMTDEC
 70
     2
  9
$DIMALTU
 70
     2
  9
$DIMALTTD
 70
     3
  9
$DIMTXSTY
  7
Standard
  9
$DIMAUNIT
 70
     0
  9
$DIMADEC
 70
     0
  9
$DIMALTRND
 40
0.0
  9
$DIMAZIN
 70
     0
  9
$DIMDSEP
 70
    44
  9
$DIMATFIT
 70
     3
  9
$DIMFRAC
 70
     0
  9
$DIMLDRBLK
  1

  9
$DIMLUNIT
 70
     2
  9
$DIMLWD
 70
    -2
  9
$DIMLWE
 70
    -2
  9
$DIMTMOVE
 70
     0
  9
$LUNITS
 70
     2
  9
$LUPREC
 70
     4
  9
$SKETCHINC
 40
1.0
  9
$FILLETRAD
 40
10.0
  9
$AUNITS
 70
     0
  9
$AUPREC
 70
     0
  9
$MENU
  1
.
  9
$ELEVATION
 40
0.0
  9
$PELEVATION
 40
0.0
  9
$THICKNESS
 40
0.0
  9
$LIMCHECK
 70
     0
  9
$CHAMFERA
 40
10.0
  9
$CHAMFERB
 40
10.0
  9
$CHAMFERC
 40
20.0
  9
$CHAMFERD
 40
0.0
  9
$SKPOLY
 70
     0
  9
$TDCREATE
 40
2456595.347977778
  9
$TDUCREATE
 40
2456595.306311111
  9
$TDUPDATE
 40
2456595.34797779
  9
$TDUUPDATE
 40
2456595.306311123
  9
$TDINDWG
 40
0.0000000116
  9
$TDUSRTIMER
 40
0.0000000116
  9
$USRTIMER
 70
     1
  9
$ANGBASE
 50
0.0
  9
$ANGDIR
 70
     0
  9
$PDMODE
 70
     0
  9
$PDSIZE
 40
0.0
  9
$PLINEWID
 40
0.0
  9
$SPLFRAME
 70
     0
  9
$SPLINETYPE
 70
     6
  9
$SPLINESEGS
 70
     8
  9
$HANDSEED
  5
45E
  9
$SURFTAB1
 70
     6
  9
$SURFTAB2
 70
     6
  9
$SURFTYPE
 70
     6
  9
$SURFU
 70
     6
  9
$SURFV
 70
     6
  9
$UCSBASE
  2

  9
$UCSNAME
  2

  9
$UCSORG
 10
0.0
 20
0.0
 30
0.0
  9
$UCSXDIR
 10
1.0
 20
0.0
 30
0.0
  9
$UCSYDIR
 10
0.0
 20
1.0
 30
0.0
  9
$UCSORTHOREF
  2

  9
$UCSORTHOVIEW
 70
     0
  9
$UCSORGTOP
 10
0.0
 20
0.0
 30
0.0
  9
$UCSORGBOTTOM
 10
0.0
 20
0.0
 30
0.0
  9
$UCSORGLEFT
 10
0.0
 20
0.0
 30
0.0
  9
$UCSORGRIGHT
 10
0.0
 20
0.0
 30
0.0
  9
$UCSORGFRONT
 10
0.0
 20
0.0
 30
0.0
  9
$UCSORGBACK
 10
0.0
 20
0.0
 30
0.0
  9
$PUCSBASE
  2

  9
$PUCSNAME
  2

  9
$PUCSORG
 10
0.0
 20
0.0
 30
0.0
  9
$PUCSXDIR
 10
1.0
 20
0.0
 30
0.0
  9
$PUCSYDIR
 10
0.0
 20
1.0
 30
0.0
  9
$PUCSORTHOREF
  2

  9
$PUCSORTHOVIEW
 70
     0
  9
$PUCSORGTOP
 10
0.0
 20
0.0
 30
0.0
  9
$PUCSORGBOTTOM
 10
0.0
 20
0.0
 30
0.0
  9
$PUCSORGLEFT
 10
0.0
 20
0.0
 30
0.0
  9
$PUCSORGRIGHT
 10
0.0
 20
0.0
 30
0.0
  9
$PUCSORGFRONT
 10
0.0
 20
0.0
 30
0.0
  9
$PUCSORGBACK
 10
0.0
 20
0.0
 30
0.0
  9
$USERI1
 70
     0
  9
$USERI2
 70
     0
  9
$USERI3
 70
     0
  9
$USERI4
 70
     0
  9
$USERI5
 70
     0
  9
$USERR1
 40
0.0
  9
$USERR2
 40
0.0
  9
$USERR3
 40
0.0
  9
$USERR4
 40
0.0
  9
$USERR5
 40
0.0
  9
$WORLDVIEW
 70
     1
  9
$SHADEDGE
 70
     3
  9
$SHADEDIF
 70
    70
  9
$TILEMODE
 70
     1
  9
$MAXACTVP
 70
    64
  9
$PINSBASE
 10
0.0
 20
0.0
 30
0.0
  9
$PLIMCHECK
 70
     0
  9
$PEXTMIN
 10
0.0
 20
0.0
 30
0.0
  9
$PEXTMAX
 10
3000.0
 20
4500.0
 30
0.0
  9
$PLIMMIN
 10
0.0
 20
0.0
  9
$PLIMMAX
 10
3000.0
 20
4500.0
  9
$UNITMODE
 70
     0
  9
$VISRETAIN
 70
     1
  9
$PLINEGEN
 70
     0
  9
$PSLTSCALE
 70
     1
  9
$TREEDEPTH
 70
  3020
  9
$CMLSTYLE
  2
Standard
  9
$CMLJUST
 70
     0
  9
$CMLSCALE
 40
20.0
  9
$PROXYGRAPHICS
 70
     1
  9
$MEASUREMENT
 70
     1
  9
$CELWEIGHT
370
    -1
  9
$ENDCAPS
280
     0
  9
$JOINSTYLE
280
     0
  9
$LWDISPLAY
290
     0
  9
$INSUNITS
 70
     4
  9
$HYPERLINKBASE
  1

  9
$STYLESHEET
  1

  9
$XEDIT
290
     1
  9
$CEPSNTYPE
380
     0
  9
$PSTYLEMODE
290
     1
  9
$FINGERPRINTGUID
  2
{54A6F972-B900-4ED2-ADFE-EDF6683446C4}
  9
$VERSIONGUID
  2
{FAEB1C32-E019-11D5-929B-00C0DF256EC4}
  9
$EXTNAMES
290
     1
  9
$PSVPSCALE
 40
0.0
  9
$OLESTARTUP
290
     0
  0
ENDSEC
  0
SECTION
  2
CLASSES
  0
CLASS
  1
ACDBDICTIONARYWDFLT
  2
AcDbDictionaryWithDefault
  3
ObjectDBX Classes
 90
        0
280
     0
281
     0
  0
CLASS
  1
VISUALSTYLE
  2
AcDbVisualStyle
  3
ObjectDBX Classes
 90
     4095
280
     0
281
     0
  0
CLASS
  1
SCALE
  2
AcDbScale
  3
ObjectDBX Classes
 90
     1153
280
     0
281
     0
  0
CLASS
  1
DICTIONARYVAR
  2
AcDbDictionaryVar
  3
ObjectDBX Classes
 90
        0
280
     0
281
     0
  0
CLASS
  1
ACDBPLACEHOLDER
  2
AcDbPlaceHolder
  3
ObjectDBX Classes
 90
        0
280
     0
281
     0
  0
CLASS
  1
LAYOUT
  2
AcDbLayout
  3
ObjectDBX Classes
 90
        0
280
     0
281
     0
  0
ENDSEC
  0
SECTION
  2
TABLES
  0
TABLE
  2
VPORT
  5
8
330
0
100
AcDbSymbolTable
 70
     1
  0
VPORT
  5
29
330
8
100
AcDbSymbolTableRecord
100
AcDbViewportTableRecord
  2
*Active
 70
     0
 10
0.0
 20
0.0
 11
1.0
 21
1.0
 12
344.1869158879
 22
148.5
 13
0.0
 23
0.0
 14
10.0
 24
10.0
 15
10.0
 25
10.0
 16
0.0
 26
0.0
 36
1.0
 17
0.0
 27
0.0
 37
0.0
 40
297.0
 41
1.9729729729
 42
50.0
 43
0.0
 44
0.0
 50
0.0
 51
0.0
 71
     0
 72
   100
 73
     1
 74
     3
 75
     0
 76
     0
 77
     0
 78
     0
281
     0
 65
     1
110
0.0
120
0.0
130
0.0
111
1.0
121
0.0
131
0.0
112
0.0
122
1.0
132
0.0
 79
     0
146
0.0
  0
ENDTAB
  0
TABLE
  2
LTYPE
  5
5
330
0
100
AcDbSymbolTable
 70
     2
  0
LTYPE
  5
14
330
5
100
AcDbSymbolTableRecord
100
AcDbLinetypeTableRecord
  2
ByBlock
 70
     0
  3

 72
    65
 73
     0
 40
0.0
  0
LTYPE
  5
15
330
5
100
AcDbSymbolTableRecord
100
AcDbLinetypeTableRecord
  2
ByLayer
 70
     0
  3

 72
    65
 73
     0
 40
0.0
  0
LTYPE
  5
16
330
5
100
AcDbSymbolTableRecord
100
AcDbLinetypeTableRecord
  2
Continuous
 70
     0
  3
Solid line
 72
    65
 73
     0
 40
0.0
  0
LTYPE
  5
60
330
5
100
AcDbSymbolTableRecord
100
AcDbLinetypeTableRecord
  2
CENTER2
 70
     0
  3
Center (.5x) ___ _ ___ _ ___ _ ___ _ ___ _ ___
 72
    65
 73
     4
 40
28.575
 49
19.05
 74
     4
 75
     0
340
0
 46
0.0
 50
0.0
 44
0.0
 45
0.0
 49
-3.175
 74
     4
 75
     0
340
0
 46
0.0
 50
0.0
 44
0.0
 45
0.0
 49
3.175
 74
     4
 75
     0
340
0
 46
0.0
 50
0.0
 44
0.0
 45
0.0
 49
-3.175
 74
     4
 75
     0
340
0
 46
0.0
 50
0.0
 44
0.0
 45
0.0
  0
ENDTAB
  0
TABLE
  2
LAYER
  5
2
330
0
100
AcDbSymbolTable
 70
     5
  0
LAYER
  5
10
330
2
100
AcDbSymbolTableRecord
100
AcDbLayerTableRecord
  2
0
 70
     0
 62
     7
  6
Continuous
370
    -3
390
F
  0
LAYER
  5
5D
330
2
100
AcDbSymbolTableRecord
100
AcDbLayerTableRecord
  2
Default
 70
     0
 62
     7
  6
Continuous
370
    -3
390
F
  0
LAYER
  5
9F
330
2
100
AcDbSymbolTableRecord
100
AcDbLayerTableRecord
  2
DV1_Default
 70
     0
 62
     7
  6
Continuous
370
    -3
390
F
  0
LAYER
  5
3DC
330
2
100
AcDbSymbolTableRecord
100
AcDbLayerTableRecord
  2
DV2_Default
 70
     0
 62
     7
  6
Continuous
370
    -3
390
F
  0
LAYER
  5
420
330
2
100
AcDbSymbolTableRecord
100
AcDbLayerTableRecord
  2
DV3_Default
 70
     0
 62
     7
  6
Continuous
370
    -3
390
F
  0
ENDTAB
  0
TABLE
  2
STYLE
  5
3
330
0
100
AcDbSymbolTable
 70
     2
  0
STYLE
  5
11
330
3
100
AcDbSymbolTableRecord
100
AcDbTextStyleTableRecord
  2
Standard
 70
     0
 40
0.0
 41
1.0
 50
0.0
 71
     0
 42
2.5
  3
txt
  4

  0
STYLE
  5
44D
330
3
100
AcDbSymbolTableRecord
100
AcDbTextStyleTableRecord
  2
SEACAD_seiso_ttf
 70
     0
 40
0.0
 41
1.0
 50
0.0
 71
     0
 42
0.2
  3
seiso.ttf
  4

  0
ENDTAB
  0
TABLE
  2
VIEW
  5
6
330
0
100
AcDbSymbolTable
 70
     0
  0
ENDTAB
  0
TABLE
  2
UCS
  5
7
330
0
100
AcDbSymbolTable
 70
     0
  0
ENDTAB
  0
TABLE
  2
APPID
  5
9
330
0
100
AcDbSymbolTable
 70
     1
  0
APPID
  5
12
330
9
100
AcDbSymbolTableRecord
100
AcDbRegAppTableRecord
  2
ACAD
 70
     0
  0
ENDTAB
  0
TABLE
  2
DIMSTYLE
  5
A
330
0
100
AcDbSymbolTable
 70
     1
100
AcDbDimStyleTable
  0
DIMSTYLE
105
27
330
A
100
AcDbSymbolTableRecord
100
AcDbDimStyleTableRecord
  2
ISO-25
 70
     0
 41
2.5
 42
0.625
 43
3.75
 44
1.25
 73
     0
 74
     0
 77
     1
 78
     8
140
2.5
141
2.5
143
0.0393700787
147
0.625
171
     3
172
     1
271
     2
272
     2
274
     3
278
    44
283
     0
284
     8
340
11
  0
ENDTAB
  0
TABLE
  2
BLOCK_RECORD
  5
1
330
0
100
AcDbSymbolTable
 70
    14
  0
BLOCK_RECORD
  5
1F
330
1
100
AcDbSymbolTableRecord
100
AcDbBlockTableRecord
  2
*Model_Space
340
22
  0
BLOCK_RECORD
  5
1B
330
1
100
AcDbSymbolTableRecord
100
AcDbBlockTableRecord
  2
*Paper_Space
340
1E
  0
BLOCK_RECORD
  5
5E
330
1
100
AcDbSymbolTableRecord
100
AcDbBlockTableRecord
  2
SEANNOT_GROUP
340
0
102
{BLKREFS
331
5F
102
}
  0
BLOCK_RECORD
  5
65
330
1
100
AcDbSymbolTableRecord
100
AcDbBlockTableRecord
  2
SEANNOT_GROUP1
340
0
102
{BLKREFS
331
66
102
}
  0
BLOCK_RECORD
  5
6C
330
1
100
AcDbSymbolTableRecord
100
AcDbBlockTableRecord
  2
SEANNOT_GROUP2
340
0
102
{BLKREFS
331
6D
102
}
  0
BLOCK_RECORD
  5
72
330
1
100
AcDbSymbolTableRecord
100
AcDbBlockTableRecord
  2
SEANNOT_GROUP3
340
0
102
{BLKREFS
331
73
102
}
  0
BLOCK_RECORD
  5
78
330
1
100
AcDbSymbolTableRecord
100
AcDbBlockTableRecord
  2
SEANNOT_GROUP4
340
0
102
{BLKREFS
331
79
102
}
  0
BLOCK_RECORD
  5
7E
330
1
100
AcDbSymbolTableRecord
100
AcDbBlockTableRecord
  2
SEANNOT_GROUP5
340
0
102
{BLKREFS
331
7F
102
}
  0
BLOCK_RECORD
  5
84
330
1
100
AcDbSymbolTableRecord
100
AcDbBlockTableRecord
  2
SEANNOT_GROUP6
340
0
102
{BLKREFS
331
85
102
}
  0
BLOCK_RECORD
  5
8B
330
1
100
AcDbSymbolTableRecord
100
AcDbBlockTableRecord
  2
SEANNOT_GROUP7
340
0
102
{BLKREFS
331
8C
102
}
  0
BLOCK_RECORD
  5
91
330
1
100
AcDbSymbolTableRecord
100
AcDbBlockTableRecord
  2
SEANNOT_GROUP8
340
0
102
{BLKREFS
331
92
102
}
  0
BLOCK_RECORD
  5
97
330
1
100
AcDbSymbolTableRecord
100
AcDbBlockTableRecord
  2
SEANNOT_GROUP9
340
0
102
{BLKREFS
331
98
102
}
  0
BLOCK_RECORD
  5
9D
330
1
100
AcDbSymbolTableRecord
100
AcDbBlockTableRecord
  2
SE
340
0
102
{BLKREFS
331
9E
102
}
  0
BLOCK_RECORD
  5
3DA
330
1
100
AcDbSymbolTableRecord
100
AcDbBlockTableRecord
  2
SE1
340
0
102
{BLKREFS
331
3DB
102
}
  0
BLOCK_RECORD
  5
41E
330
1
100
AcDbSymbolTableRecord
100
AcDbBlockTableRecord
  2
SE2
340
0
102
{BLKREFS
331
41F
102
}
  0
ENDTAB
  0
ENDSEC
  0
SECTION
  2
BLOCKS
  0
BLOCK
  5
20
330
1F
100
AcDbEntity
  8
0
100
AcDbBlockBegin
  2
*Model_Space
 70
     0
 10
0.0
 20
0.0
 30
0.0
  3
*Model_Space
  1

  0
ENDBLK
  5
21
330
1F
100
AcDbEntity
  8
0
100
AcDbBlockEnd
  0
BLOCK
  5
1C
330
1B
100
AcDbEntity
 67
     1
  8
0
100
AcDbBlockBegin
  2
*Paper_Space
 70
     0
 10
0.0
 20
0.0
 30
0.0
  3
*Paper_Space
  1

  0
ENDBLK
  5
1D
330
1B
100
AcDbEntity
 67
     1
  8
0
100
AcDbBlockEnd
  0
BLOCK
  5
63
330
5E
100
AcDbEntity
  8
0
100
AcDbBlockBegin
  2
SEANNOT_GROUP
 70
     0
 10
0.0
 20
0.0
 30
0.0
  3
SEANNOT_GROUP
  1

  0
LINE
  5
61
330
5E
100
AcDbEntity
  8
Default
  6
CENTER2
 62
     7
100
AcDbLine
 10
109.7396857029
 20
464.372658475
 30
0.0
 11
69.7396865969
 21
464.372658475
 31
0.0
  0
LINE
  5
62
330
5E
100
AcDbEntity
  8
Default
  6
CENTER2
 62
     7
100
AcDbLine
 10
89.7396861499
 20
484.372658028
 30
0.0
 11
89.7396861499
 21
444.372658922
 31
0.0
  0
ENDBLK
  5
64
330
5E
100
AcDbEntity
  8
0
100
AcDbBlockEnd
  0
BLOCK
  5
69
330
65
100
AcDbEntity
  8
0
100
AcDbBlockBegin
  2
SEANNOT_GROUP1
 70
     0
 10
0.0
 20
0.0
 30
0.0
  3
SEANNOT_GROUP1
  1

  0
LINE
  5
67
330
65
100
AcDbEntity
  8
Default
  6
CENTER2
 62
     7
100
AcDbLine
 10
209.7402412733
 20
464.372658472
 30
0.0
 11
169.7402421674
 21
464.372658472
 31
0.0
  0
LINE
  5
68
330
65
100
AcDbEntity
  8
Default
  6
CENTER2
 62
     7
100
AcDbLine
 10
189.7402417204
 20
484.3726580249
 30
0.0
 11
189.7402417204
 21
444.372658919
 31
0.0
  0
ENDBLK
  5
6A
330
65
100
AcDbEntity
  8
0
100
AcDbBlockEnd
  0
BLOCK
  5
70
330
6C
100
AcDbEntity
  8
0
100
AcDbBlockBegin
  2
SEANNOT_GROUP2
 70
     0
 10
0.0
 20
0.0
 30
0.0
  3
SEANNOT_GROUP2
  1

  0
LINE
  5
6E
330
6C
100
AcDbEntity
  8
Default
  6
CENTER2
 62
     7
100
AcDbLine
 10
209.740181069
 20
607.9050037714
 30
0.0
 11
169.7401819631
 21
607.9050037714
 31
0.0
  0
LINE
  5
6F
330
6C
100
AcDbEntity
  8
Default
  6
CENTER2
 62
     7
100
AcDbLine
 10
189.7401815161
 20
627.9050033243
 30
0.0
 11
189.7401815161
 21
587.9050042184
 31
0.0
  0
ENDBLK
  5
71
330
6C
100
AcDbEntity
  8
0
100
AcDbBlockEnd
  0
BLOCK
  5
76
330
72
100
AcDbEntity
  8
0
100
AcDbBlockBegin
  2
SEANNOT_GROUP3
 70
     0
 10
0.0
 20
0.0
 30
0.0
  3
SEANNOT_GROUP3
  1

  0
LINE
  5
74
330
72
100
AcDbEntity
  8
Default
  6
CENTER2
 62
     7
100
AcDbLine
 10
694.5030122059
 20
607.9050037714
 30
0.0
 11
654.5030131
 21
607.9050037714
 31
0.0
  0
LINE
  5
75
330
72
100
AcDbEntity
  8
Default
  6
CENTER2
 62
     7
100
AcDbLine
 10
674.5030126529
 20
627.9050033243
 30
0.0
 11
674.5030126529
 21
587.9050042184
 31
0.0
  0
ENDBLK
  5
77
330
72
100
AcDbEntity
  8
0
100
AcDbBlockEnd
  0
BLOCK
  5
7C
330
78
100
AcDbEntity
  8
0
100
AcDbBlockBegin
  2
SEANNOT_GROUP4
 70
     0
 10
0.0
 20
0.0
 30
0.0
  3
SEANNOT_GROUP4
  1

  0
LINE
  5
7A
330
78
100
AcDbEntity
  8
Default
  6
CENTER2
 62
     7
100
AcDbLine
 10
109.7274757388
 20
304.4396581296
 30
0.0
 11
69.7274766329
 21
304.4396581296
 31
0.0
  0
LINE
  5
7B
330
78
100
AcDbEntity
  8
Default
  6
CENTER2
 62
     7
100
AcDbLine
 10
89.7274761859
 20
324.4396576826
 30
0.0
 11
89.7274761859
 21
284.4396585767
 31
0.0
  0
ENDBLK
  5
7D
330
78
100
AcDbEntity
  8
0
100
AcDbBlockEnd
  0
BLOCK
  5
82
330
7E
100
AcDbEntity
  8
0
100
AcDbBlockBegin
  2
SEANNOT_GROUP5
 70
     0
 10
0.0
 20
0.0
 30
0.0
  3
SEANNOT_GROUP5
  1

  0
LINE
  5
80
330
7E
100
AcDbEntity
  8
Default
  6
CENTER2
 62
     7
100
AcDbLine
 10
309.7332865062
 20
304.4410142779
 30
0.0
 11
269.7332874003
 21
304.4410142779
 31
0.0
  0
LINE
  5
81
330
7E
100
AcDbEntity
  8
Default
  6
CENTER2
 62
     7
100
AcDbLine
 10
289.7332869532
 20
324.4410138308
 30
0.0
 11
289.7332869532
 21
284.4410147249
 31
0.0
  0
ENDBLK
  5
83
330
7E
100
AcDbEntity
  8
0
100
AcDbBlockEnd
  0
BLOCK
  5
88
330
84
100
AcDbEntity
  8
0
100
AcDbBlockBegin
  2
SEANNOT_GROUP6
 70
     0
 10
0.0
 20
0.0
 30
0.0
  3
SEANNOT_GROUP6
  1

  0
LINE
  5
86
330
84
100
AcDbEntity
  8
Default
  6
CENTER2
 62
     7
100
AcDbLine
 10
209.7774907446
 20
304.3816005464
 30
0.0
 11
169.7774916387
 21
304.3816005464
 31
0.0
  0
LINE
  5
87
330
84
100
AcDbEntity
  8
Default
  6
CENTER2
 62
     7
100
AcDbLine
 10
189.7774911917
 20
324.3816000993
 30
0.0
 11
189.7774911917
 21
284.3816009934
 31
0.0
  0
ENDBLK
  5
89
330
84
100
AcDbEntity
  8
0
100
AcDbBlockEnd
  0
BLOCK
  5
8F
330
8B
100
AcDbEntity
  8
0
100
AcDbBlockBegin
  2
SEANNOT_GROUP7
 70
     0
 10
0.0
 20
0.0
 30
0.0
  3
SEANNOT_GROUP7
  1

  0
LINE
  5
8D
330
8B
100
AcDbEntity
  8
Default
  6
CENTER2
 62
     7
100
AcDbLine
 10
209.740189008
 20
132.5168625932
 30
0.0
 11
169.740189902
 21
132.5168625932
 31
0.0
  0
LINE
  5
8E
330
8B
100
AcDbEntity
  8
Default
  6
CENTER2
 62
     7
100
AcDbLine
 10
189.740189455
 20
152.5168621462
 30
0.0
 11
189.740189455
 21
112.5168630402
 31
0.0
  0
ENDBLK
  5
90
330
8B
100
AcDbEntity
  8
0
100
AcDbBlockEnd
  0
BLOCK
  5
95
330
91
100
AcDbEntity
  8
0
100
AcDbBlockBegin
  2
SEANNOT_GROUP8
 70
     0
 10
0.0
 20
0.0
 30
0.0
  3
SEANNOT_GROUP8
  1

  0
LINE
  5
93
330
91
100
AcDbEntity
  8
Default
  6
CENTER2
 62
     7
100
AcDbLine
 10
309.7408156361
 20
464.3727654738
 30
0.0
 11
269.7408165302
 21
464.3727654738
 31
0.0
  0
LINE
  5
94
330
91
100
AcDbEntity
  8
Default
  6
CENTER2
 62
     7
100
AcDbLine
 10
289.7408160831
 20
484.3727650268
 30
0.0
 11
289.7408160831
 21
444.3727659209
 31
0.0
  0
ENDBLK
  5
96
330
91
100
AcDbEntity
  8
0
100
AcDbBlockEnd
  0
BLOCK
  5
9B
330
97
100
AcDbEntity
  8
0
100
AcDbBlockBegin
  2
SEANNOT_GROUP9
 70
     0
 10
0.0
 20
0.0
 30
0.0
  3
SEANNOT_GROUP9
  1

  0
LINE
  5
99
330
97
100
AcDbEntity
  8
Default
  6
CENTER2
 62
     7
100
AcDbLine
 10
522.5280992077
 20
464.372658472
 30
0.0
 11
482.5281001018
 21
464.372658472
 31
0.0
  0
LINE
  5
9A
330
97
100
AcDbEntity
  8
Default
  6
CENTER2
 62
     7
100
AcDbLine
 10
502.5280996548
 20
484.3726580249
 30
0.0
 11
502.5280996548
 21
444.372658919
 31
0.0
  0
ENDBLK
  5
9C
330
97
100
AcDbEntity
  8
0
100
AcDbBlockEnd
  0
BLOCK
  5
3D8
330
9D
100
AcDbEntity
  8
0
100
AcDbBlockBegin
  2
SE
 70
     0
 10
0.0
 20
0.0
 30
0.0
  3
SE
  1

  0
ARC
  5
A0
330
9D
100
AcDbEntity
  8
DV1_Default
  6
Continuous
 62
     7
100
AcDbCircle
 10
7.3649111343
 20
558.3668610001
 30
0.0
 40
1.000097190615759
100
AcDbArc
 50
72.7497166369
 51
215.8540592403
  0
LINE
  5
A1
330
9D
100
AcDbEntity
  8
DV1_Default
  6
Continuous
 62
     7
100
AcDbLine
 10
6.552956654
 20
557.7802924663
 30
0.0
 11
6.5543208165
 21
557.7810814106
 31
0.0
  0
ARC
  5
A2
330
9D
100
AcDbEntity
  8
DV1_Default
  6
Continuous
 62
     7
100
AcDbCircle
 10
7.3621370087
 20
558.3679671268
 30
0.0
 40
1.00006717425278
100
AcDbArc
 50
72.596019821
 51
215.9893728433
  0
SPLINE
  5
A3
330
9D
100
AcDbEntity
  8
DV1_Default
  6
Continuous
 62
     7
100
AcDbSpline
210
0.0
220
0.0
230
1.0
 70
    12
 71
     3
 72
    10
 73
     6
 74
     0
 42
0.0000054089608866
 43
0.0000000001
 40
0.0
 40
0.0
 40
0.0
 40
0.0
 40
0.3333333333333
 40
0.6666666666667
 40
1.0
 40
1.0
 40
1.0
 40
1.0
 10
7.661486253930539
 20
559.3219722968204
 30
0.0
 41
1.0
 10
7.661116320730549
 20
559.3221349597603
 30
0.0
 41
1.0
 10
7.66060632263052
 20
559.3223745247203
 30
0.0
 41
1.0
 10
7.660531541730547
 20
559.3224653839703
 30
0.0
 41
1.0
 10
7.660942843130542
 20
559.3223514999803
 30
0.0
 41
1.0
 10
7.66126418093055
 20
559.3222507784903
 30
0.0
 41
1.0
  0
SPLINE
  5
A4
330
9D
100
AcDbEntity
  8
DV1_Default
  6
Continuous
 62
     7
100
AcDbSpline
210
0.0
220
0.0
230
1.0
 70
     8
 71
     3
 72
    48
 73
    44
 74
     0
 42
0.0000000001183675
 43
0.0000000001
 40
0.0
 40
0.0
 40
0.0
 40
0.0
 40
0.0090092506298837
 40
0.0270275037258473
 40
0.0450457568218109
 40
0.0630640099177746
 40
0.0991005161097018
 40
0.1351370223016291
 40
0.1531552753975927
 40
0.1711735284935563
 40
0.1891917815895199
 40
0.1982009081375017
 40
0.2072100346854836
 40
0.2252282877814472
 40
0.2432465408774108
 40
0.2612647939733744
 40
0.279283047069338
 40
0.2973013001653017
 40
0.3153195532612653
 40
0.3513560594531925
 40
0.3873925656451198
 40
0.423429071837047
 40
0.4955020842209015
 40
0.567575096604756
 40
0.6036116027966834
 40
0.6396481089886106
 40
0.6756846151805378
 40
0.711721121372465
 40
0.7297393744684286
 40
0.7477576275643923
 40
0.7837941337563196
 40
0.8198306399482468
 40
0.8378488930442104
 40
0.855867146140174
 40
0.8648762726881558
 40
0.8738853992361376
 40
0.8919036523321013
 40
0.909921905428065
 40
0.9189310319760468
 40
0.9279401585240286
 40
0.9459584116199922
 40
0.9639766647159558
 40
1.0
 40
1.0
 40
1.0
 40
1.0
 10
6.55432081653054
 20
557.7810814106404
 30
0.0
 10
6.560356587361898
 20
557.7798532466313
 30
0.0
 10
6.623759332423651
 20
557.7552112466718
 30
0.0
 10
6.913991919659606
 20
557.6304776280778
 30
0.0
 10
7.530839321894828
 20
557.334281062913
 30
0.0
 10
8.673815223804754
 20
556.7650000299724
 30
0.0
 10
10.56563392251048
 20
555.8366639597356
 30
0.0
 10
12.83461965806437
 20
554.8416851137641
 30
0.0
 10
14.75674845123873
 20
554.0510323900978
 30
0.0
 10
16.2503253839591
 20
553.4585214620328
 30
0.0
 10
17.50894968187525
 20
552.9795922705795
 30
0.0
 10
18.52068499013995
 20
552.6073875546629
 30
0.0
 10
19.5361192301535
 20
552.2423445895959
 30
0.0
 10
20.81151474679269
 20
551.7998738968315
 30
0.0
 10
22.35098205842342
 20
551.2898713443643
 30
0.0
 10
23.898631386539
 20
550.7998294284171
 30
0.0
 10
25.45390747232187
 20
550.3286745684376
 30
0.0
 10
27.01518804908551
 20
549.875487766919
 30
0.0
 10
29.10270549843405
 20
549.2943971504081
 30
0.0
 10
31.72129258387377
 20
548.609637166233
 30
0.0
 10
34.87196007074522
 20
547.8488476865014
 30
0.0
 10
39.07244412941633
 20
546.9084039924073
 30
0.0
 10
44.3230065664447
 20
545.8561757056606
 30
0.0
 10
49.58260787425942
 20
544.9130588868842
 30
0.0
 10
53.79278330854878
 20
544.1926166418729
 30
0.0
 10
56.94990005349079
 20
543.657835605594
 30
0.0
 10
60.10377243185621
 20
543.1165191424038
 30
0.0
 10
62.72634852877898
 20
542.6491449990498
 30
0.0
 10
64.82130450187765
 20
542.2611260866256
 30
0.0
 10
66.91437667516159
 20
541.8607074492747
 30
0.0
 10
69.52239671781172
 20
541.3260205550749
 30
0.0
 10
72.10954354908804
 20
540.7197956662569
 30
0.0
 10
74.16067293883994
 20
540.1760169789609
 30
0.0
 10
75.4336437635412
 20
539.8084997799778
 30
0.0
 10
76.44586656016011
 20
539.4956222290067
 30
0.0
 10
77.45326159389143
 20
539.1678472810878
 30
0.0
 10
78.70209807345002
 20
538.7268252009227
 30
0.0
 10
79.93358820797594
 20
538.2342736007192
 30
0.0
 10
80.90604045167701
 20
537.8039002293426
 30
0.0
 10
81.86995686021162
 20
537.346275562679
 30
0.0
 10
83.05241782007356
 20
536.7280274672094
 30
0.0
 10
84.85682475800348
 20
535.6115060121745
 30
0.0
 10
86.07541092819615
 20
534.5855115303597
 30
0.0
 10
86.79350626842994
 20
533.779816298394
 30
0.0
  0
SPLINE
  5
A5
330
9D
100
AcDbEntity
  8
DV1_Default
  6
Continuous
 62
     7
100
AcDbSpline
210
0.0
220
0.0
230
1.0
 70
     8
 71
     3
 72
     8
 73
     4
 74
     0
 42
0.0000000010710828
 43
0.0000000001
 40
0.0
 40
0.0
 40
0.0
 40
0.0
 40
1.0
 40
1.0
 40
1.0
 40
1.0
 10
7.66126418093055
 20
559.3222507784903
 30
0.0
 10
10.63124466754242
 20
558.3922977273562
 30
0.0
 10
13.60122514027545
 20
557.4623446319447
 30
0.0
 10
16.5784012969526
 20
556.5562436763244
 30
0.0
  0
SPLINE
  5
A6
330
9D
100
AcDbEntity
  8
DV1_Default
  6
Continuous
 62
     7
100
AcDbSpline
210
0.0
220
0.0
230
1.0
 70
     8
 71
     3
 72
    17
 73
    13
 74
     0
 42
0.0000000002512417
 43
0.0000000001
 40
0.0
 40
0.0
 40
0.0
 40
0.0
 40
0.2114302668719984
 40
0.4872662183638171
 40
0.5769406131242759
 40
0.60687524514937
 40
0.7285680708852319
 40
0.7929030064951084
 40
0.8598978909258995
 40
0.9058947781769989
 40
0.9527095544322222
 40
1.0
 40
1.0
 40
1.0
 40
1.0
 10
74.87768465350034
 20
545.4240952438255
 30
0.0
 10
77.6335399892572
 20
545.110780489174
 30
0.0
 10
83.9771699936209
 20
544.2286126269343
 30
0.0
 10
91.48241725535367
 20
541.9722684410818
 30
0.0
 10
95.47062210801127
 20
538.5476248835487
 30
0.0
 10
97.53347372149044
 20
536.1361975807415
 30
0.0
 10
98.95601461640855
 20
533.6256077382924
 30
0.0
 10
100.0305910824839
 20
530.4736631343238
 30
0.0
 10
100.5431978968605
 20
528.1941968587478
 30
0.0
 10
100.8405835708313
 20
526.113530683203
 30
0.0
 10
101.0021222522466
 20
524.2771668445872
 30
0.0
 10
101.0272307957205
 20
523.0398922645049
 30
0.0
 10
101.0397868609005
 20
522.4181276368404
 30
0.0
  0
ARC
  5
A7
330
9D
100
AcDbEntity
  8
DV1_Default
  6
Continuous
 62
     7
100
AcDbCircle
 10
74.1959100472
 20
524.1565871163
 30
0.0
 40
15.85263291834405
100
AcDbArc
 50
352.9723011116
 51
37.3759953405
  0
SPLINE
  5
A8
330
9D
100
AcDbEntity
  8
DV1_Default
  6
Continuous
 62
     7
100
AcDbSpline
210
0.0
220
0.0
230
1.0
 70
     8
 71
     3
 72
    26
 73
    22
 74
     0
 42
0.00000000011639
 43
0.0000000001
 40
0.0
 40
0.0
 40
0.0
 40
0.0
 40
0.0625000000000004
 40
0.0625000000000004
 40
0.1250000000000008
 40
0.1250000000000008
 40
0.2500000000000007
 40
0.2500000000000007
 40
0.3750000000000006
 40
0.3750000000000006
 40
0.5000000000000004
 40
0.5000000000000004
 40
0.6250000000000003
 40
0.6250000000000003
 40
0.7500000000000002
 40
0.7500000000000002
 40
0.8750000000000001
 40
0.8750000000000001
 40
0.9375
 40
0.9375
 40
1.0
 40
1.0
 40
1.0
 40
1.0
 10
78.43614838863053
 20
522.4123059604404
 30
0.0
 10
78.41374017356218
 20
523.3607185964972
 30
0.0
 10
78.33481291213815
 20
524.3890312885503
 30
0.0
 10
78.03390277568825
 20
526.4027413709281
 30
0.0
 10
77.81173186444066
 20
527.3775220976713
 30
0.0
 10
76.88769396941328
 20
530.050811350125
 30
0.0
 10
75.9252210800058
 20
531.4741805407313
 30
0.0
 10
73.11922377738875
 20
533.5789148793481
 30
0.0
 10
71.27357383449498
 20
534.2842202979919
 30
0.0
 10
66.60175989922665
 20
535.4416294225704
 30
0.0
 10
63.77910583345417
 20
535.8875164130314
 30
0.0
 10
57.19180322198083
 20
536.7971640970086
 30
0.0
 10
53.43098660808776
 20
537.2491843827139
 30
0.0
 10
45.13575870361583
 20
538.4453838244418
 30
0.0
 10
40.60316092133171
 20
539.1763062414698
 30
0.0
 10
31.04277101827024
 20
541.5332176154214
 30
0.0
 10
26.00395782325629
 20
543.1483336732866
 30
0.0
 10
18.39790091818572
 20
547.1182008607688
 30
0.0
 10
15.85515636707319
 20
548.7056822453231
 30
0.0
 10
10.96178062955844
 20
552.6228275613406
 30
0.0
 10
8.603757782130822
 20
554.9522165515588
 30
0.0
 10
6.552956654030523
 20
557.7802924662502
 30
0.0
  0
LINE
  5
A9
330
9D
100
AcDbEntity
  8
DV1_Default
  6
Continuous
 62
     7
100
AcDbLine
 10
78.7358455704
 20
522.2170222289
 30
0.0
 11
89.9476121823
 21
522.2170307695
 31
0.0
  0
SPLINE
  5
AA
330
9D
100
AcDbEntity
  8
DV1_Default
  6
Continuous
 62
     7
100
AcDbSpline
210
0.0
220
0.0
230
1.0
 70
    12
 71
     3
 72
    11
 73
     7
 74
     0
 42
0.0000000317767934
 43
0.0000000001
 40
0.0
 40
0.0
 40
0.0
 40
0.0
 40
0.2499856394489
 40
0.499991011718
 40
0.7499963839871
 40
1.0
 40
1.0
 40
1.0
 40
1.0
 10
78.63610569483053
 20
522.2170221529503
 30
0.0
 41
1.0
 10
78.61281595483052
 20
522.2170208718803
 30
0.0
 41
1.0
 10
78.56261541203052
 20
522.2253567549203
 30
0.0
 41
1.0
 10
78.49232624983051
 20
522.2698088167704
 30
0.0
 41
1.0
 10
78.44622183873054
 20
522.3390279014503
 30
0.0
 41
1.0
 10
78.43669763263053
 20
522.3890204925303
 30
0.0
 41
1.0
 10
78.43614838863053
 20
522.4123059604404
 30
0.0
 41
1.0
  0
ARC
  5
AB
330
9D
100
AcDbEntity
  8
DV1_Default
  6
Continuous
 62
     7
100
AcDbCircle
 10
100.8399064301
 20
522.4169062871
 30
0.0
 40
0.199884162196815
100
AcDbArc
 50
269.966325401
 51
0.3500958634
  0
LINE
  5
AC
330
9D
100
AcDbEntity
  8
DV1_Default
  6
Continuous
 62
     7
100
AcDbLine
 10
89.9477749501
 20
522.2170307693
 30
0.0
 11
100.7943707109
 21
522.2170221954
 31
0.0
  0
LINE
  5
AD
330
9D
100
AcDbEntity
  8
DV1_Default
  6
Continuous
 62
     7
100
AcDbLine
 10
78.6830008308
 20
522.2170221541
 30
0.0
 11
78.6361056948
 21
522.217022153
 31
0.0
  0
LINE
  5
AE
330
9D
100
AcDbEntity
  8
DV1_Default
  6
Continuous
 62
     7
100
AcDbLine
 10
7.661074186
 20
559.3222959061
 30
0.0
 11
7.6624180146
 21
559.3216813235
 31
0.0
  0
LINE
  5
AF
330
9D
100
AcDbEntity
  8
DV1_Default
  6
Continuous
 62
     7
100
AcDbLine
 10
7.6608737363
 20
559.3232452431
 30
0.0
 11
7.6520750175
 21
559.3259952873
 31
0.0
  0
LINE
  5
B0
330
9D
100
AcDbEntity
  8
DV1_Default
  6
Continuous
 62
     7
100
AcDbLine
 10
8.2388047774
 20
559.1426125949
 30
0.0
 11
7.6608737363
 21
559.3232452431
 31
0.0
  0
SPLINE
  5
B1
330
9D
100
AcDbEntity
  8
DV1_Default
  6
Continuous
 62
     7
100
AcDbSpline
210
0.0
220
0.0
230
1.0
 70
     8
 71
     3
 72
    20
 73
    16
 74
     0
 42
0.0000000001366011
 43
0.0000000001
 40
0.0
 40
0.0
 40
0.0
 40
0.0
 40
0.0717460985671477
 40
0.1519465382019712
 40
0.2081481105762552
 40
0.2637629472322289
 40
0.3219334604417844
 40
0.3865217906939574
 40
0.4596972978062679
 40
0.5414438384961355
 40
0.6260303455522452
 40
0.7173841355872206
 40
0.8146650268669564
 40
0.9166272985096688
 40
1.0
 40
1.0
 40
1.0
 40
1.0
 10
79.79451114935051
 20
544.7211729432602
 30
0.0
 10
77.88430208197435
 20
544.9939611923127
 30
0.0
 10
74.46987483397815
 20
545.4826015481847
 30
0.0
 10
69.3308326824709
 20
545.9630959754134
 30
0.0
 10
64.736622432368
 20
546.4030518951081
 30
0.0
 10
60.63829483565639
 20
546.8215778317904
 30
0.0
 10
56.3215633131936
 20
547.3381910977174
 30
0.0
 10
51.5649088217737
 20
548.0207205731623
 30
0.0
 10
46.25836781487255
 20
548.9287576480414
 30
0.0
 10
40.50811372402488
 20
550.0900571050695
 30
0.0
 10
34.37165491949015
 20
551.5106394712731
 30
0.0
 10
27.90576681119305
 20
553.2024373370009
 30
0.0
 10
21.12622461917857
 20
555.1506515182224
 30
0.0
 10
14.38809763459536
 20
557.2143374039008
 30
0.0
 10
10.37503269467338
 20
558.4709173698154
 30
0.0
 10
8.23880477735997
 20
559.1426125949109
 30
0.0
  0
LINE
  5
B2
330
9D
100
AcDbEntity
  8
DV1_Default
  6
Continuous
 62
     7
100
AcDbLine
 10
8.2396645836
 20
559.1423434198
 30
0.0
 11
7.6507501201
 21
559.3264090047
 31
0.0
  0
SPLINE
  5
B3
330
9D
100
AcDbEntity
  8
DV1_Default
  6
Continuous
 62
     7
100
AcDbSpline
210
0.0
220
0.0
230
1.0
 70
     8
 71
     3
 72
     9
 73
     5
 74
     0
 42
0.0000000011453737
 43
0.0000000001
 40
0.0
 40
0.0
 40
0.0
 40
0.0
 40
0.3035291490684246
 40
0.9999999999999999
 40
0.9999999999999999
 40
0.9999999999999999
 40
0.9999999999999999
 10
16.57590198789244
 20
556.54753330632
 30
0.0
 10
15.72897402546602
 20
556.8071096289505
 30
0.0
 10
12.96778417171049
 20
557.6590690498327
 30
0.0
 10
10.37582982805485
 20
558.4706678107462
 30
0.0
 10
8.239664583602673
 20
559.14234341983
 30
0.0
  0
SPLINE
  5
B4
330
9D
100
AcDbEntity
  8
DV1_Default
  6
Continuous
 62
     7
100
AcDbSpline
210
0.0
220
0.0
230
1.0
 70
     8
 71
     3
 72
    10
 73
     6
 74
     0
 42
0.0000000420787759
 43
0.0000000001
 40
0.0
 40
0.0
 40
0.0
 40
0.0
 40
0.472525436441459
 40
0.9398353569036085
 40
1.0
 40
1.0
 40
1.0
 40
1.0
 10
100.5471889601705
 20
521.4170183814504
 30
0.0
 10
100.5365371932887
 20
521.4170197108651
 30
0.0
 10
100.515351234988
 20
521.4170204954133
 30
0.0
 10
100.3998611518777
 20
521.4170220627954
 30
0.0
 10
100.3190217422868
 20
521.4170149313961
 30
0.0
 10
100.3095394617821
 20
521.4170140207796
 30
0.0
  0
SPLINE
  5
B5
330
9D
100
AcDbEntity
  8
DV1_Default
  6
Continuous
 62
     7
100
AcDbSpline
210
0.0
220
0.0
230
1.0
 70
     8
 71
     3
 72
    29
 73
    25
 74
     0
 42
0.0000000004794416
 43
0.0000000001
 40
0.0
 40
0.0
 40
0.0
 40
0.0
 40
0.0062717577676198
 40
0.0772583787646258
 40
0.1125737765305058
 40
0.1479034520062391
 40
0.1834177459291398
 40
0.2190373331306763
 40
0.2901463110680887
 40
0.3611039298337888
 40
0.3965492332399385
 40
0.4319556998860045
 40
0.5026329938683616
 40
0.5380177439008954
 40
0.573417555543939
 40
0.6442207511258987
 40
0.6797298321075119
 40
0.7151865034681959
 40
0.7505220440489891
 40
0.785897309782985
 40
0.857124114432475
 40
0.9285083183710956
 40
0.9640536669666563
 40
1.0
 40
1.0
 40
1.0
 40
1.0
 10
99.79104218640674
 20
521.4169535461399
 30
0.0
 10
99.76811287030709
 20
521.4169524836847
 30
0.0
 10
99.47937739972213
 20
521.4169440379573
 30
0.0
 10
98.94640973614557
 20
521.4170349104595
 30
0.0
 10
98.10592802898265
 20
521.4170160824954
 30
0.0
 10
97.39511306442155
 20
521.4169477903323
 30
0.0
 10
96.60883163085094
 20
521.4170011937865
 30
0.0
 10
95.47119430600534
 20
521.4170405491204
 30
0.0
 10
93.9009493369005
 20
521.4169579611294
 30
0.0
 10
92.19889660596017
 20
521.4170378382279
 30
0.0
 10
90.80096378480414
 20
521.4170067146639
 30
0.0
 10
89.3925389690534
 20
521.4169288375938
 30
0.0
 10
87.98082840550494
 20
521.4170379846004
 30
0.0
 10
86.61322576590273
 20
521.4170118252616
 30
0.0
 10
85.28408023209695
 20
521.4169333540175
 30
0.0
 10
84.02945735295326
 20
521.4170552842666
 30
0.0
 10
82.8936681080058
 20
521.4169863401199
 30
0.0
 10
82.1066222967968
 20
521.4169538381201
 30
0.0
 10
81.39357227439852
 20
521.417028256793
 30
0.0
 10
80.54822231515959
 20
521.4170173846607
 30
0.0
 10
79.70128879017194
 20
521.4169331622022
 30
0.0
 10
79.18400985231358
 20
521.4170138870188
 30
0.0
 10
78.9656851336116
 20
521.4170237600254
 30
0.0
 10
78.94423204576952
 20
521.4170209575743
 30
0.0
 10
78.93344533573051
 20
521.4170186744103
 30
0.0
  0
ARC
  5
B6
330
9D
100
AcDbEntity
  8
DV1_Default
  6
Continuous
 62
     7
100
AcDbCircle
 10
78.9315673273
 20
520.9172849736
 30
0.0
 40
0.4997372295527253
100
AcDbArc
 50
89.7846824182
 51
176.7534814709
  0
ARC
  5
B7
330
9D
100
AcDbEntity
  8
DV1_Default
  6
Continuous
 62
     7
100
AcDbCircle
 10
100.5484961127
 20
520.9169876942
 30
0.0
 40
0.5000323958397719
100
AcDbArc
 50
3.2786698172
 51
90.149779111
  0
SPLINE
  5
B8
330
9D
100
AcDbEntity
  8
DV1_Default
  6
Continuous
 62
     7
100
AcDbSpline
210
0.0
220
0.0
230
1.0
 70
     8
 71
     3
 72
     8
 73
     4
 74
     0
 42
0.0000000002657121
 43
0.0000000001
 40
0.0
 40
0.0
 40
0.0
 40
0.0
 40
1.0
 40
1.0
 40
1.0
 40
1.0
 10
78.43263211923055
 20
520.9455861534203
 30
0.0
 10
77.58687433735248
 20
506.3801467187116
 30
0.0
 10
75.52796106120654
 20
494.073551198111
 30
0.0
 10
72.25589219733055
 20
484.0257996004904
 30
0.0
  0
SPLINE
  5
B9
330
9D
100
AcDbEntity
  8
DV1_Default
  6
Continuous
 62
     7
100
AcDbSpline
210
0.0
220
0.0
230
1.0
 70
     8
 71
     3
 72
     8
 73
     4
 74
     0
 42
0.0000000002657126
 43
0.0000000001
 40
0.0
 40
0.0
 40
0.0
 40
0.0
 40
1.0
 40
1.0
 40
1.0
 40
1.0
 10
107.2243499907405
 20
484.0257052193904
 30
0.0
 10
103.9528715357132
 20
494.0736336571133
 30
0.0
 10
101.8939677831221
 20
506.3802078256292
 30
0.0
 10
101.0477100442405
 20
520.9455857261304
 30
0.0
  0
SPLINE
  5
BA
330
9D
100
AcDbEntity
  8
DV1_Default
  6
Continuous
 62
     7
100
AcDbSpline
210
0.0
220
0.0
230
1.0
 70
     8
 71
     3
 72
     8
 73
     4
 74
     0
 42
0.0000000092004713
 43
0.0000000001
 40
0.0
 40
0.0
 40
0.0
 40
0.0
 40
1.0
 40
1.0
 40
1.0
 40
1.0
 10
72.73182862853054
 20
483.3726584739603
 30
0.0
 10
72.39261645590553
 20
483.3726826535413
 30
0.0
 10
72.15205536615835
 20
483.7032207511062
 30
0.0
 10
72.25589219733055
 20
484.0257996004904
 30
0.0
  0
SPLINE
  5
BB
330
9D
100
AcDbEntity
  8
DV1_Default
  6
Continuous
 62
     7
100
AcDbSpline
210
0.0
220
0.0
230
1.0
 70
     8
 71
     3
 72
     8
 73
     4
 74
     0
 42
0.0000000092113708
 43
0.0000000001
 40
0.0
 40
0.0
 40
0.0
 40
0.0
 40
1.0
 40
1.0
 40
1.0
 40
1.0
 10
107.2243499907405
 20
484.0257052193904
 30
0.0
 10
107.3271927994589
 20
483.703021705815
 30
0.0
 10
107.0870725508932
 20
483.3726671755031
 30
0.0
 10
106.7485351764705
 20
483.3726584722203
 30
0.0
  0
LINE
  5
BC
330
9D
100
AcDbEntity
  8
DV1_Default
  6
Continuous
 62
     7
100
AcDbLine
 10
72.7318286285
 20
483.372658474
 30
0.0
 11
73.0373013594
 21
483.3726584739
 31
0.0
  0
LINE
  5
BD
330
9D
100
AcDbEntity
  8
DV1_Default
  6
Continuous
 62
     7
100
AcDbLine
 10
73.0373013594
 20
483.3726584739
 30
0.0
 11
106.4503434734
 21
483.3726584722
 31
0.0
  0
LINE
  5
BE
330
9D
100
AcDbEntity
  8
DV1_Default
  6
Continuous
 62
     7
100
AcDbLine
 10
106.4503434734
 20
483.3726584722
 30
0.0
 11
106.7485351765
 21
483.3726584722
 31
0.0
  0
SPLINE
  5
BF
330
9D
100
AcDbEntity
  8
DV1_Default
  6
Continuous
 62
     7
100
AcDbSpline
210
0.0
220
0.0
230
1.0
 70
    12
 71
     3
 72
     8
 73
     4
 74
     0
 42
0.0000000005055053
 43
0.0000000001
 40
0.0
 40
0.0
 40
0.0
 40
0.0
 40
1.0
 40
1.0
 40
1.0
 40
1.0
 10
71.92402757593052
 20
483.0339607373203
 30
0.0
 41
1.0
 10
69.95053134193056
 20
477.2459916160403
 30
0.0
 41
1.0
 10
67.20006858713054
 20
471.2751096674963
 30
0.0
 41
1.0
 10
63.67263785733054
 20
465.1213108756946
 30
0.0
 41
1.0
  0
ARC
  5
C0
330
9D
100
AcDbEntity
  8
DV1_Default
  6
Continuous
 62
     7
100
AcDbCircle
 10
205.0780739249
 20
517.0998050263
 30
0.0
 40
103.3010433037919
100
AcDbArc
 50
199.2549694083
 51
210.2100408705
  0
SPLINE
  5
C1
330
9D
100
AcDbEntity
  8
DV1_Default
  6
Continuous
 62
     7
100
AcDbSpline
210
0.0
220
0.0
230
1.0
 70
    12
 71
     3
 72
     8
 73
     4
 74
     0
 42
0.0000000151087261
 43
0.0000000001
 40
0.0
 40
0.0
 40
0.0
 40
0.0
 40
1.0
 40
1.0
 40
1.0
 40
1.0
 10
72.39724711333054
 20
483.3726584696303
 30
0.0
 41
1.0
 10
72.18328168243052
 20
483.3726488982003
 30
0.0
 41
1.0
 10
71.99305682253052
 20
483.2364916177804
 30
0.0
 41
1.0
 10
71.92402757593052
 20
483.0339607373203
 30
0.0
 41
1.0
  0
ARC
  5
C2
330
9D
100
AcDbEntity
  8
DV1_Default
  6
Continuous
 62
     7
100
AcDbCircle
 10
107.0819683724
 20
482.8720836773
 30
0.0
 40
0.5005750779470488
100
AcDbArc
 50
18.8673673228
 51
89.9389925885
  0
LINE
  5
C3
330
9D
100
AcDbEntity
  8
DV1_Default
  6
Continuous
 62
     7
100
AcDbLine
 10
107.0825013747
 20
483.3726584715
 30
0.0
 11
106.9074063999
 21
483.3726584715
 31
0.0
  0
LINE
  5
C4
330
9D
100
AcDbEntity
  8
DV1_Default
  6
Continuous
 62
     7
100
AcDbLine
 10
106.8041695697
 20
483.3726584715
 30
0.0
 11
72.713094149
 21
483.3726584696
 31
0.0
  0
LINE
  5
C5
330
9D
100
AcDbEntity
  8
DV1_Default
  6
Continuous
 62
     7
100
AcDbLine
 10
72.713094149
 20
483.3726584696
 30
0.0
 11
72.3972471133
 21
483.3726584696
 31
0.0
  0
ARC
  5
C6
330
9D
100
AcDbEntity
  8
DV1_Default
  6
Continuous
 62
     7
100
AcDbCircle
 10
115.373141209
 20
464.8726423961
 30
0.0
 40
0.4999839382539281
100
AcDbArc
 50
269.9859151823
 51
29.8730638843
  0
LINE
  5
C7
330
9D
100
AcDbEntity
  8
DV1_Default
  6
Continuous
 62
     7
100
AcDbLine
 10
64.106354
 20
464.372658477
 30
0.0
 11
115.3730182998
 21
464.372658473
 31
0.0
  0
SPLINE
  5
C8
330
9D
100
AcDbEntity
  8
DV1_Default
  6
Continuous
 62
     7
100
AcDbSpline
210
0.0
220
0.0
230
1.0
 70
     8
 71
     3
 72
     8
 73
     4
 74
     0
 42
0.0000000080108372
 43
0.0000000001
 40
0.0
 40
0.0
 40
0.0
 40
0.0
 40
1.0
 40
1.0
 40
1.0
 40
1.0
 10
64.10635400003054
 20
464.3726584770052
 30
0.0
 10
63.72218626225709
 20
464.3727101824539
 30
0.0
 10
63.48158045067542
 20
464.7880007274795
 30
0.0
 10
63.67263785733054
 20
465.1213108756946
 30
0.0
  0
LINE
  5
C9
330
9D
100
AcDbEntity
  8
DV1_Default
  6
Continuous
 62
     7
100
AcDbLine
 10
92.9151938254
 20
521.4170221527
 30
0.0
 11
92.9151938254
 21
522.2170221682
 31
0.0
  0
LINE
  5
CA
330
9D
100
AcDbEntity
  8
DV1_Default
  6
Continuous
 62
     7
100
AcDbLine
 10
86.5651938254
 20
522.2170218639
 30
0.0
 11
86.5651938254
 21
521.4170221527
 31
0.0
  0
ELLIPSE
  5
CB
330
9D
100
AcDbEntity
  8
DV1_Default
  6
Continuous
 62
     7
100
AcDbEllipse
 10
189.7401740824
 20
609.4211218324
 30
0.0
 11
12.0000000000015
 21
-3.506320234158977E-8
 31
0.0
210
0.0
220
0.0
230
1.0
 40
0.2590373203
 41
-0.42298873098808
 42
-0.1796814828544351
  0
ELLIPSE
  5
CC
330
9D
100
AcDbEntity
  8
DV1_Default
  6
Continuous
 62
     7
100
AcDbEllipse
 10
189.7401740824
 20
609.4211218324
 30
0.0
 11
12.0000000000015
 21
-3.506320234158977E-8
 31
0.0
210
0.0
220
0.0
230
1.0
 40
0.2590373203
 41
3.321274136596224
 42
3.564581385523311
  0
LINE
  5
CD
330
9D
100
AcDbEntity
  8
DV1_Default
  6
Continuous
 62
     7
100
AcDbLine
 10
199.5953740806
 20
608.7370837979
 30
0.0
 11
200.6825682131
 21
608.6616229106
 31
0.0
  0
LINE
  5
CE
330
9D
100
AcDbEntity
  8
DV1_Default
  6
Continuous
 62
     7
100
AcDbLine
 10
178.797779952
 20
608.66162297
 30
0.0
 11
179.8849740805
 21
608.7370838513
 31
0.0
  0
ELLIPSE
  5
CF
330
9D
100
AcDbEntity
  8
DV1_Default
  6
Continuous
 62
     7
100
AcDbEllipse
 10
189.7408402445
 20
608.7541373868
 30
0.0
 11
-8.750686675310046
 21
-2.408184485158671E-7
 31
0.0
210
0.0
220
0.0
230
1.0
 40
0.2590373266
 41
0.2278511679431055
 42
0.2635040863005927
  0
LINE
  5
D0
330
9D
100
AcDbEntity
  8
DV1_Default
  6
Continuous
 62
     7
100
AcDbLine
 10
181.2163235511
 20
608.5483563532
 30
0.0
 11
181.2163235502
 21
608.2421118753
 31
0.0
  0
ELLIPSE
  5
D1
330
9D
100
AcDbEntity
  8
DV1_Default
  6
Continuous
 62
     7
100
AcDbEllipse
 10
189.7401740789
 20
608.1745734778
 30
0.0
 11
8.750000000019423
 21
-2.548619648656825E-8
 31
0.0
210
0.0
220
0.0
230
1.0
 40
0.2590373203
 41
1.570796327550839
 42
4.712388981140375
  0
LINE
  5
D2
330
9D
100
AcDbEntity
  8
DV1_Default
  6
Continuous
 62
     7
100
AcDbLine
 10
190.3161365493
 20
606.7090002464
 30
0.0
 11
190.3161365487
 21
606.4924329943
 31
0.0
  0
LINE
  5
D3
330
9D
100
AcDbEntity
  8
DV1_Default
  6
Continuous
 62
     7
100
AcDbLine
 10
189.1642116131
 20
606.7090002497
 30
0.0
 11
189.1642116125
 21
606.4924329974
 31
0.0
  0
ELLIPSE
  5
D4
330
9D
100
AcDbEntity
  8
DV1_Default
  6
Continuous
 62
     7
100
AcDbEllipse
 10
189.7402608529
 20
608.7543505133
 30
0.0
 11
-8.750994636152919
 21
3.198388776048944E-8
 31
0.0
210
0.0
220
0.0
230
1.0
 40
0.2590373115
 41
1.461861478007878
 42
1.504921979021282
  0
LINE
  5
D5
330
9D
100
AcDbEntity
  8
DV1_Default
  6
Continuous
 62
     7
100
AcDbLine
 10
188.7756296815
 20
606.5013305098
 30
0.0
 11
188.7873805198
 21
606.5030879095
 31
0.0
  0
LINE
  5
D6
330
9D
100
AcDbEntity
  8
DV1_Default
  6
Continuous
 62
     7
100
AcDbLine
 10
188.7756296821
 20
606.7001027393
 30
0.0
 11
188.7756296815
 21
606.5013305098
 31
0.0
  0
ELLIPSE
  5
D7
330
9D
100
AcDbEntity
  8
DV1_Default
  6
Continuous
 62
     7
100
AcDbEllipse
 10
189.7403624796
 20
608.754264809
 30
0.0
 11
-8.750686674602607
 21
5.984898687749762E-8
 31
0.0
210
0.0
220
0.0
230
1.0
 40
0.2590373085
 41
1.275077833766623
 42
1.310730457441162
  0
ELLIPSE
  5
D8
330
9D
100
AcDbEntity
  8
DV1_Default
  6
Continuous
 62
     7
100
AcDbEllipse
 10
189.7401740806
 20
608.754093866
 30
0.0
 11
-8.75000000003989
 21
2.551100997116862E-8
 31
0.0
210
0.0
220
0.0
230
1.0
 40
0.2590373203
 41
0.9694971116306498
 42
1.124796707930802
  0
ELLIPSE
  5
D9
330
9D
100
AcDbEntity
  8
DV1_Default
  6
Continuous
 62
     7
100
AcDbEllipse
 10
189.7406509986
 20
608.7542214854
 30
0.0
 11
-8.750685418086324
 21
-2.155811640314198E-8
 31
0.0
210
0.0
220
0.0
230
1.0
 40
0.2590373249
 41
0.7836070237746591
 42
0.8192299624875428
  0
LINE
  5
DA
330
9D
100
AcDbEntity
  8
DV1_Default
  6
Continuous
 62
     7
100
AcDbLine
 10
183.5419089567
 20
607.4827603868
 30
0.0
 11
183.5419089558
 21
607.1542577199
 31
0.0
  0
LINE
  5
DB
330
9D
100
AcDbEntity
  8
DV1_Default
  6
Continuous
 62
     7
100
AcDbLine
 10
182.6901740818
 20
607.4115906433
 30
0.0
 11
182.6827759953
 21
607.4142014106
 31
0.0
  0
ELLIPSE
  5
DC
330
9D
100
AcDbEntity
  8
DV1_Default
  6
Continuous
 62
     7
100
AcDbEllipse
 10
189.7409844167
 20
608.7542408946
 30
0.0
 11
-8.750989052243348
 21
-5.321632023935763E-9
 31
0.0
210
0.0
220
0.0
230
1.0
 40
0.2590373219
 41
0.5895361075430647
 42
0.6324846064317909
  0
LINE
  5
DD
330
9D
100
AcDbEntity
  8
DV1_Default
  6
Continuous
 62
     7
100
AcDbLine
 10
182.4671738576
 20
607.8609459751
 30
0.0
 11
182.4671738566
 21
607.4939374176
 31
0.0
  0
ELLIPSE
  5
DE
330
9D
100
AcDbEntity
  8
DV1_Default
  6
Continuous
 62
     7
100
AcDbEllipse
 10
189.7410689738
 20
608.7542019393
 30
0.0
 11
-8.75098710038627
 21
-1.129596416404866E-9
 31
0.0
210
0.0
220
0.0
230
1.0
 40
0.2590373216
 41
0.4147863342039318
 42
0.4575354157549614
  0
LINE
  5
DF
330
9D
100
AcDbEntity
  8
DV1_Default
  6
Continuous
 62
     7
100
AcDbLine
 10
182.3901740806
 20
609.4043871076
 30
0.0
 11
182.3901740806
 21
609.3746753772
 31
0.0
  0
LINE
  5
E0
330
9D
100
AcDbEntity
  8
DV1_Default
  6
Continuous
 62
     7
100
AcDbLine
 10
182.3901740806
 20
609.3746753772
 30
0.0
 11
182.2769315795
 21
609.357739365
 31
0.0
  0
LINE
  5
E1
330
9D
100
AcDbEntity
  8
DV1_Default
  6
Continuous
 62
     7
100
AcDbLine
 10
181.1195070366
 20
608.5628357731
 30
0.0
 11
181.2163235511
 21
608.5483563532
 31
0.0
  0
LINE
  5
E2
330
9D
100
AcDbEntity
  8
DV1_Default
  6
Continuous
 62
     7
100
AcDbLine
 10
181.2163235511
 20
608.5483563532
 30
0.0
 11
181.5901740806
 21
608.4924450366
 31
0.0
  0
LINE
  5
E3
330
9D
100
AcDbEntity
  8
DV1_Default
  6
Continuous
 62
     7
100
AcDbLine
 10
181.5901740806
 20
608.4924450366
 30
0.0
 11
181.5901740806
 21
608.29802319
 31
0.0
  0
LINE
  5
E4
330
9D
100
AcDbEntity
  8
DV1_Default
  6
Continuous
 62
     7
100
AcDbLine
 10
181.5901740806
 20
608.29802319
 30
0.0
 11
181.2163235502
 21
608.2421118753
 31
0.0
  0
LINE
  5
E5
330
9D
100
AcDbEntity
  8
DV1_Default
  6
Continuous
 62
     7
100
AcDbLine
 10
181.2921991597
 20
608.1637263121
 30
0.0
 11
181.7321476054
 21
608.229522918
 31
0.0
  0
LINE
  5
E6
330
9D
100
AcDbEntity
  8
DV1_Default
  6
Continuous
 62
     7
100
AcDbLine
 10
181.7321476054
 20
608.229522918
 30
0.0
 11
181.7401740806
 21
608.2307233196
 31
0.0
  0
LINE
  5
E7
330
9D
100
AcDbEntity
  8
DV1_Default
  6
Continuous
 62
     7
100
AcDbLine
 10
181.7401740806
 20
608.2307233196
 30
0.0
 11
182.3901740806
 21
608.1335123945
 31
0.0
  0
LINE
  5
E8
330
9D
100
AcDbEntity
  8
DV1_Default
  6
Continuous
 62
     7
100
AcDbLine
 10
182.3901740806
 20
608.1335123945
 30
0.0
 11
182.3901740806
 21
607.9390905479
 31
0.0
  0
LINE
  5
E9
330
9D
100
AcDbEntity
  8
DV1_Default
  6
Continuous
 62
     7
100
AcDbLine
 10
182.3901740806
 20
607.9390905479
 30
0.0
 11
181.732283419
 21
607.8406995364
 31
0.0
  0
LINE
  5
EA
330
9D
100
AcDbEntity
  8
DV1_Default
  6
Continuous
 62
     7
100
AcDbLine
 10
181.8901740806
 20
607.7528551645
 30
0.0
 11
181.8901740806
 21
607.7746526212
 31
0.0
  0
LINE
  5
EB
330
9D
100
AcDbEntity
  8
DV1_Default
  6
Continuous
 62
     7
100
AcDbLine
 10
181.8901740806
 20
607.7746526212
 30
0.0
 11
182.4671738576
 21
607.8609459751
 31
0.0
  0
LINE
  5
EC
330
9D
100
AcDbEntity
  8
DV1_Default
  6
Continuous
 62
     7
100
AcDbLine
 10
182.4671738576
 20
607.8609459751
 30
0.0
 11
182.5401740806
 21
607.8718635427
 31
0.0
  0
LINE
  5
ED
330
9D
100
AcDbEntity
  8
DV1_Default
  6
Continuous
 62
     7
100
AcDbLine
 10
182.5401740806
 20
607.8718635427
 30
0.0
 11
183.1901740806
 21
607.7746526176
 31
0.0
  0
LINE
  5
EE
330
9D
100
AcDbEntity
  8
DV1_Default
  6
Continuous
 62
     7
100
AcDbLine
 10
183.1901740806
 20
607.7746526176
 30
0.0
 11
183.1901740806
 21
607.580230771
 31
0.0
  0
LINE
  5
EF
330
9D
100
AcDbEntity
  8
DV1_Default
  6
Continuous
 62
     7
100
AcDbLine
 10
183.1901740806
 20
607.580230771
 30
0.0
 11
182.5401740806
 21
607.4830198495
 31
0.0
  0
LINE
  5
F0
330
9D
100
AcDbEntity
  8
DV1_Default
  6
Continuous
 62
     7
100
AcDbLine
 10
182.5401740806
 20
607.4830198495
 30
0.0
 11
182.4671738566
 21
607.4939374176
 31
0.0
  0
LINE
  5
F1
330
9D
100
AcDbEntity
  8
DV1_Default
  6
Continuous
 62
     7
100
AcDbLine
 10
182.6860774952
 20
607.4151073131
 30
0.0
 11
183.3401740806
 21
607.5129309006
 31
0.0
  0
LINE
  5
F2
330
9D
100
AcDbEntity
  8
DV1_Default
  6
Continuous
 62
     7
100
AcDbLine
 10
183.3401740806
 20
607.5129309006
 30
0.0
 11
183.5419089567
 21
607.4827603868
 31
0.0
  0
LINE
  5
F3
330
9D
100
AcDbEntity
  8
DV1_Default
  6
Continuous
 62
     7
100
AcDbLine
 10
183.5419089567
 20
607.4827603868
 30
0.0
 11
183.9901740806
 21
607.4157199755
 31
0.0
  0
LINE
  5
F4
330
9D
100
AcDbEntity
  8
DV1_Default
  6
Continuous
 62
     7
100
AcDbLine
 10
183.9901740806
 20
607.4157199755
 30
0.0
 11
183.9901740806
 21
607.2212981289
 31
0.0
  0
LINE
  5
F5
330
9D
100
AcDbEntity
  8
DV1_Default
  6
Continuous
 62
     7
100
AcDbLine
 10
183.9901740806
 20
607.2212981289
 30
0.0
 11
183.5419089558
 21
607.1542577199
 31
0.0
  0
LINE
  5
F6
330
9D
100
AcDbEntity
  8
DV1_Default
  6
Continuous
 62
     7
100
AcDbLine
 10
183.7658228817
 20
607.0980849314
 30
0.0
 11
184.1401740806
 21
607.1540711237
 31
0.0
  0
LINE
  5
F7
330
9D
100
AcDbEntity
  8
DV1_Default
  6
Continuous
 62
     7
100
AcDbLine
 10
184.1401740806
 20
607.1540711237
 30
0.0
 11
184.7901740806
 21
607.0568601986
 31
0.0
  0
LINE
  5
F8
330
9D
100
AcDbEntity
  8
DV1_Default
  6
Continuous
 62
     7
100
AcDbLine
 10
184.7901740806
 20
607.0568601986
 30
0.0
 11
184.7901740806
 21
606.8850718482
 31
0.0
  0
LINE
  5
F9
330
9D
100
AcDbEntity
  8
DV1_Default
  6
Continuous
 62
     7
100
AcDbLine
 10
185.965774672
 20
606.7092340221
 30
0.0
 11
186.5401740806
 21
606.7951384773
 31
0.0
  0
LINE
  5
FA
330
9D
100
AcDbEntity
  8
DV1_Default
  6
Continuous
 62
     7
100
AcDbLine
 10
186.5401740806
 20
606.7951384773
 30
0.0
 11
187.1901740806
 21
606.6979275522
 31
0.0
  0
LINE
  5
FB
330
9D
100
AcDbEntity
  8
DV1_Default
  6
Continuous
 62
     7
100
AcDbLine
 10
187.1901740806
 20
606.6979275522
 30
0.0
 11
187.1901740806
 21
606.5859035061
 31
0.0
  0
LINE
  5
FC
330
9D
100
AcDbEntity
  8
DV1_Default
  6
Continuous
 62
     7
100
AcDbLine
 10
187.4901740806
 20
606.5637345789
 30
0.0
 11
187.4901740806
 21
606.6979275514
 31
0.0
  0
LINE
  5
FD
330
9D
100
AcDbEntity
  8
DV1_Default
  6
Continuous
 62
     7
100
AcDbLine
 10
187.4901740806
 20
606.6979275514
 30
0.0
 11
188.1401740806
 21
606.7951384729
 31
0.0
  0
LINE
  5
FE
330
9D
100
AcDbEntity
  8
DV1_Default
  6
Continuous
 62
     7
100
AcDbLine
 10
188.1401740806
 20
606.7951384729
 30
0.0
 11
188.7756296821
 21
606.7001027393
 31
0.0
  0
LINE
  5
FF
330
9D
100
AcDbEntity
  8
DV1_Default
  6
Continuous
 62
     7
100
AcDbLine
 10
188.7756296821
 20
606.7001027393
 30
0.0
 11
188.7901740806
 21
606.6979275479
 31
0.0
  0
LINE
  5
100
330
9D
100
AcDbEntity
  8
DV1_Default
  6
Continuous
 62
     7
100
AcDbLine
 10
188.7901740806
 20
606.6979275479
 30
0.0
 11
188.7901740806
 21
606.5023155657
 31
0.0
  0
LINE
  5
101
330
9D
100
AcDbEntity
  8
DV1_Default
  6
Continuous
 62
     7
100
AcDbLine
 10
189.0901740806
 20
606.5035057004
 30
0.0
 11
189.1642116125
 21
606.4924329974
 31
0.0
  0
LINE
  5
102
330
9D
100
AcDbEntity
  8
DV1_Default
  6
Continuous
 62
     7
100
AcDbLine
 10
189.0901740806
 20
606.697927547
 30
0.0
 11
189.0901740806
 21
606.5035057004
 31
0.0
  0
LINE
  5
103
330
9D
100
AcDbEntity
  8
DV1_Default
  6
Continuous
 62
     7
100
AcDbLine
 10
189.7401740806
 20
606.7951384686
 30
0.0
 11
189.1642116131
 21
606.7090002497
 31
0.0
  0
LINE
  5
104
330
9D
100
AcDbEntity
  8
DV1_Default
  6
Continuous
 62
     7
100
AcDbLine
 10
189.1642116131
 20
606.7090002497
 30
0.0
 11
189.0901740806
 21
606.697927547
 31
0.0
  0
LINE
  5
105
330
9D
100
AcDbEntity
  8
DV1_Default
  6
Continuous
 62
     7
100
AcDbLine
 10
190.3901740806
 20
606.6979275435
 30
0.0
 11
190.3161365493
 21
606.7090002464
 31
0.0
  0
LINE
  5
106
330
9D
100
AcDbEntity
  8
DV1_Default
  6
Continuous
 62
     7
100
AcDbLine
 10
190.3161365493
 20
606.7090002464
 30
0.0
 11
189.7401740806
 21
606.7951384686
 31
0.0
  0
LINE
  5
107
330
9D
100
AcDbEntity
  8
DV1_Default
  6
Continuous
 62
     7
100
AcDbLine
 10
190.3901740806
 20
606.5035056969
 30
0.0
 11
190.3901740806
 21
606.6979275435
 31
0.0
  0
LINE
  5
108
330
9D
100
AcDbEntity
  8
DV1_Default
  6
Continuous
 62
     7
100
AcDbLine
 10
190.3161365487
 20
606.4924329943
 30
0.0
 11
190.3901740806
 21
606.5035056969
 31
0.0
  0
ELLIPSE
  5
109
330
9D
100
AcDbEntity
  8
DV1_Default
  6
Continuous
 62
     7
100
AcDbEllipse
 10
189.7400873113
 20
608.7543505026
 30
0.0
 11
8.750994638941512
 21
-1.869651655717064E-8
 31
0.0
210
0.0
220
0.0
230
1.0
 40
0.2590373102
 41
-1.504921977883175
 42
-1.461846319079998
  0
LINE
  5
10A
330
9D
100
AcDbEntity
  8
DV1_Default
  6
Continuous
 62
     7
100
AcDbLine
 10
190.6901740817
 20
606.6979275428
 30
0.0
 11
190.6901740829
 21
606.5021890751
 31
0.0
  0
LINE
  5
10B
330
9D
100
AcDbEntity
  8
DV1_Default
  6
Continuous
 62
     7
100
AcDbLine
 10
191.3401740806
 20
606.7951384642
 30
0.0
 11
190.7047184802
 21
606.7001027342
 31
0.0
  0
LINE
  5
10C
330
9D
100
AcDbEntity
  8
DV1_Default
  6
Continuous
 62
     7
100
AcDbLine
 10
190.7047184802
 20
606.7001027342
 30
0.0
 11
190.6901740817
 21
606.6979275428
 31
0.0
  0
LINE
  5
10D
330
9D
100
AcDbEntity
  8
DV1_Default
  6
Continuous
 62
     7
100
AcDbLine
 10
191.9901740806
 20
606.6979275391
 30
0.0
 11
191.3401740806
 21
606.7951384642
 31
0.0
  0
LINE
  5
10E
330
9D
100
AcDbEntity
  8
DV1_Default
  6
Continuous
 62
     7
100
AcDbLine
 10
191.9901740806
 20
606.5637345667
 30
0.0
 11
191.9901740806
 21
606.6979275391
 31
0.0
  0
ELLIPSE
  5
10F
330
9D
100
AcDbEntity
  8
DV1_Default
  6
Continuous
 62
     7
100
AcDbEllipse
 10
189.7399856951
 20
608.754264991
 30
0.0
 11
8.750686617144124
 21
-3.101593981647000E-8
 31
0.0
210
0.0
220
0.0
230
1.0
 40
0.2590373228
 41
-1.310730454601993
 42
-1.275077830690582
  0
LINE
  5
110
330
9D
100
AcDbEntity
  8
DV1_Default
  6
Continuous
 62
     7
100
AcDbLine
 10
192.2901740806
 20
606.6979275383
 30
0.0
 11
192.2901740806
 21
606.5859035581
 31
0.0
  0
LINE
  5
111
330
9D
100
AcDbEntity
  8
DV1_Default
  6
Continuous
 62
     7
100
AcDbLine
 10
192.9401740806
 20
606.7951384599
 30
0.0
 11
192.2901740806
 21
606.6979275383
 31
0.0
  0
LINE
  5
112
330
9D
100
AcDbEntity
  8
DV1_Default
  6
Continuous
 62
     7
100
AcDbLine
 10
193.5145734892
 20
606.7092340016
 30
0.0
 11
192.9401740806
 21
606.7951384599
 31
0.0
  0
ELLIPSE
  5
113
330
9D
100
AcDbEntity
  8
DV1_Default
  6
Continuous
 62
     7
100
AcDbEllipse
 10
189.7401740808
 20
608.7540938658
 30
0.0
 11
8.749999999770338
 21
-2.543892874129483E-8
 31
0.0
210
0.0
220
0.0
230
1.0
 40
0.2590373203
 41
-1.12479670644365
 42
-0.969497110136845
  0
LINE
  5
114
330
9D
100
AcDbEntity
  8
DV1_Default
  6
Continuous
 62
     7
100
AcDbLine
 10
194.6901740806
 20
607.0568601717
 30
0.0
 11
194.6901740806
 21
606.8850718214
 31
0.0
  0
LINE
  5
115
330
9D
100
AcDbEntity
  8
DV1_Default
  6
Continuous
 62
     7
100
AcDbLine
 10
195.3401740806
 20
607.1540710932
 30
0.0
 11
194.6901740806
 21
607.0568601717
 31
0.0
  0
LINE
  5
116
330
9D
100
AcDbEntity
  8
DV1_Default
  6
Continuous
 62
     7
100
AcDbLine
 10
195.7145252795
 20
607.0980848988
 30
0.0
 11
195.3401740806
 21
607.1540710932
 31
0.0
  0
ELLIPSE
  5
117
330
9D
100
AcDbEntity
  8
DV1_Default
  6
Continuous
 62
     7
100
AcDbEllipse
 10
189.7396971827
 20
608.7542214142
 30
0.0
 11
8.750685398738089
 21
-1.584699038659210E-8
 31
0.0
210
0.0
220
0.0
230
1.0
 40
0.2590373198
 41
-0.819229963732897
 42
-0.7836070249774894
  0
LINE
  5
118
330
9D
100
AcDbEntity
  8
DV1_Default
  6
Continuous
 62
     7
100
AcDbLine
 10
195.4901740806
 20
607.2212980976
 30
0.0
 11
195.9384392054
 21
607.1542576862
 31
0.0
  0
LINE
  5
119
330
9D
100
AcDbEntity
  8
DV1_Default
  6
Continuous
 62
     7
100
AcDbLine
 10
195.4901740806
 20
607.4157199442
 30
0.0
 11
195.4901740806
 21
607.2212980976
 31
0.0
  0
LINE
  5
11A
330
9D
100
AcDbEntity
  8
DV1_Default
  6
Continuous
 62
     7
100
AcDbLine
 10
196.1401740806
 20
607.5129308658
 30
0.0
 11
195.9384392064
 21
607.4827603534
 31
0.0
  0
LINE
  5
11B
330
9D
100
AcDbEntity
  8
DV1_Default
  6
Continuous
 62
     7
100
AcDbLine
 10
195.9384392064
 20
607.4827603534
 30
0.0
 11
195.4901740806
 21
607.4157199442
 31
0.0
  0
LINE
  5
11C
330
9D
100
AcDbEntity
  8
DV1_Default
  6
Continuous
 62
     7
100
AcDbLine
 10
196.7943472124
 20
607.4150958269
 30
0.0
 11
196.1401740806
 21
607.5129308658
 31
0.0
  0
ELLIPSE
  5
11D
330
9D
100
AcDbEntity
  8
DV1_Default
  6
Continuous
 62
     7
100
AcDbEllipse
 10
189.7393638039
 20
608.7542408334
 30
0.0
 11
8.750988991927461
 21
-1.407374217166080E-9
 31
0.0
210
0.0
220
0.0
230
1.0
 40
0.2590373192
 41
-0.6324677516279795
 42
-0.5895361095662466
  0
LINE
  5
11E
330
9D
100
AcDbEntity
  8
DV1_Default
  6
Continuous
 62
     7
100
AcDbLine
 10
196.9401740806
 20
607.4830198103
 30
0.0
 11
197.0131743046
 21
607.493937378
 31
0.0
  0
LINE
  5
11F
330
9D
100
AcDbEntity
  8
DV1_Default
  6
Continuous
 62
     7
100
AcDbLine
 10
196.2901740806
 20
607.5802307354
 30
0.0
 11
196.9401740806
 21
607.4830198103
 31
0.0
  0
LINE
  5
120
330
9D
100
AcDbEntity
  8
DV1_Default
  6
Continuous
 62
     7
100
AcDbLine
 10
196.2901740806
 20
607.774652582
 30
0.0
 11
196.2901740806
 21
607.5802307354
 31
0.0
  0
LINE
  5
121
330
9D
100
AcDbEntity
  8
DV1_Default
  6
Continuous
 62
     7
100
AcDbLine
 10
196.9401740806
 20
607.8718635035
 30
0.0
 11
196.2901740806
 21
607.774652582
 31
0.0
  0
LINE
  5
122
330
9D
100
AcDbEntity
  8
DV1_Default
  6
Continuous
 62
     7
100
AcDbLine
 10
197.5901740806
 20
607.7746525784
 30
0.0
 11
197.0131743057
 21
607.8609459351
 31
0.0
  0
LINE
  5
123
330
9D
100
AcDbEntity
  8
DV1_Default
  6
Continuous
 62
     7
100
AcDbLine
 10
197.0131743057
 20
607.8609459351
 30
0.0
 11
196.9401740806
 21
607.8718635035
 31
0.0
  0
LINE
  5
124
330
9D
100
AcDbEntity
  8
DV1_Default
  6
Continuous
 62
     7
100
AcDbLine
 10
197.5901740806
 20
607.7528551218
 30
0.0
 11
197.5901740806
 21
607.7746525784
 31
0.0
  0
ELLIPSE
  5
125
330
9D
100
AcDbEntity
  8
DV1_Default
  6
Continuous
 62
     7
100
AcDbEllipse
 10
189.7392792404
 20
608.7542019114
 30
0.0
 11
8.750987047326261
 21
-2.526440168182376E-8
 31
0.0
210
0.0
220
0.0
230
1.0
 40
0.259037321
 41
-0.4575354164446042
 42
-0.4146328798173728
  0
LINE
  5
126
330
9D
100
AcDbEntity
  8
DV1_Default
  6
Continuous
 62
     7
100
AcDbLine
 10
197.0901740806
 20
607.9390905079
 30
0.0
 11
197.7401740805
 21
607.8418795828
 31
0.0
  0
LINE
  5
127
330
9D
100
AcDbEntity
  8
DV1_Default
  6
Continuous
 62
     7
100
AcDbLine
 10
197.7401740805
 20
607.8418795828
 30
0.0
 11
197.7442545266
 21
607.8412693306
 31
0.0
  0
LINE
  5
128
330
9D
100
AcDbEntity
  8
DV1_Default
  6
Continuous
 62
     7
100
AcDbLine
 10
197.0901740806
 20
608.1335123545
 30
0.0
 11
197.0901740806
 21
607.9390905079
 31
0.0
  0
LINE
  5
129
330
9D
100
AcDbEntity
  8
DV1_Default
  6
Continuous
 62
     7
100
AcDbLine
 10
197.7401740806
 20
608.2307232761
 30
0.0
 11
197.0901740806
 21
608.1335123545
 31
0.0
  0
LINE
  5
12A
330
9D
100
AcDbEntity
  8
DV1_Default
  6
Continuous
 62
     7
100
AcDbLine
 10
198.1881490014
 20
608.1637262661
 30
0.0
 11
197.7536574173
 21
608.228706772
 31
0.0
  0
LINE
  5
12B
330
9D
100
AcDbEntity
  8
DV1_Default
  6
Continuous
 62
     7
100
AcDbLine
 10
197.7536574173
 20
608.228706772
 30
0.0
 11
197.7401740806
 21
608.2307232761
 31
0.0
  0
ELLIPSE
  5
12C
330
9D
100
AcDbEntity
  8
DV1_Default
  6
Continuous
 62
     7
100
AcDbEllipse
 10
189.7395080609
 20
608.7541371033
 30
0.0
 11
8.750686531543087
 21
4.223038585493555E-9
 31
0.0
210
0.0
220
0.0
230
1.0
 40
0.2590373212
 41
-0.2635040959271402
 42
-0.2278511773027896
  0
LINE
  5
12D
330
9D
100
AcDbEntity
  8
DV1_Default
  6
Continuous
 62
     7
100
AcDbLine
 10
197.8901740806
 20
608.2980231456
 30
0.0
 11
198.264024611
 21
608.2421118289
 31
0.0
  0
LINE
  5
12E
330
9D
100
AcDbEntity
  8
DV1_Default
  6
Continuous
 62
     7
100
AcDbLine
 10
197.8901740806
 20
608.4924449922
 30
0.0
 11
197.8901740806
 21
608.2980231456
 31
0.0
  0
LINE
  5
12F
330
9D
100
AcDbEntity
  8
DV1_Default
  6
Continuous
 62
     7
100
AcDbLine
 10
198.3608411216
 20
608.5628357257
 30
0.0
 11
198.2640246119
 21
608.5483563071
 31
0.0
  0
LINE
  5
130
330
9D
100
AcDbEntity
  8
DV1_Default
  6
Continuous
 62
     7
100
AcDbLine
 10
198.2640246119
 20
608.5483563071
 30
0.0
 11
197.8901740806
 21
608.4924449922
 31
0.0
  0
LINE
  5
131
330
9D
100
AcDbEntity
  8
DV1_Default
  6
Continuous
 62
     7
100
AcDbLine
 10
197.0901740806
 20
609.3746753372
 30
0.0
 11
197.2034165768
 21
609.3577393251
 31
0.0
  0
LINE
  5
132
330
9D
100
AcDbEntity
  8
DV1_Default
  6
Continuous
 62
     7
100
AcDbLine
 10
197.0901740806
 20
609.4043870663
 30
0.0
 11
197.0901740806
 21
609.3746753372
 31
0.0
  0
LINE
  5
133
330
9D
100
AcDbEntity
  8
DV1_Default
  6
Continuous
 62
     7
100
AcDbLine
 10
190.3901740806
 20
610.2868896166
 30
0.0
 11
189.7401740806
 21
610.3841005417
 31
0.0
  0
LINE
  5
134
330
9D
100
AcDbEntity
  8
DV1_Default
  6
Continuous
 62
     7
100
AcDbLine
 10
190.3901740806
 20
610.09246777
 30
0.0
 11
190.3901740806
 21
610.2868896166
 31
0.0
  0
LINE
  5
135
330
9D
100
AcDbEntity
  8
DV1_Default
  6
Continuous
 62
     7
100
AcDbLine
 10
189.7401740806
 20
609.9952568485
 30
0.0
 11
190.3901740806
 21
610.09246777
 31
0.0
  0
LINE
  5
136
330
9D
100
AcDbEntity
  8
DV1_Default
  6
Continuous
 62
     7
100
AcDbLine
 10
189.0901740806
 20
610.0924677736
 30
0.0
 11
189.7401740806
 21
609.9952568485
 31
0.0
  0
LINE
  5
137
330
9D
100
AcDbEntity
  8
DV1_Default
  6
Continuous
 62
     7
100
AcDbLine
 10
189.0901740806
 20
610.2868896202
 30
0.0
 11
189.0901740806
 21
610.0924677736
 31
0.0
  0
LINE
  5
138
330
9D
100
AcDbEntity
  8
DV1_Default
  6
Continuous
 62
     7
100
AcDbLine
 10
189.7401740806
 20
610.3841005417
 30
0.0
 11
189.0901740806
 21
610.2868896202
 31
0.0
  0
LINE
  5
139
330
9D
100
AcDbEntity
  8
DV1_Default
  6
Continuous
 62
     7
100
AcDbLine
 10
189.9636572148
 20
610.4404106213
 30
0.0
 11
190.5401740806
 21
610.3541894862
 31
0.0
  0
LINE
  5
13A
330
9D
100
AcDbEntity
  8
DV1_Default
  6
Continuous
 62
     7
100
AcDbLine
 10
190.5401740806
 20
610.3541894862
 30
0.0
 11
190.9709570114
 21
610.418615341
 31
0.0
  0
LINE
  5
13B
330
9D
100
AcDbEntity
  8
DV1_Default
  6
Continuous
 62
     7
100
AcDbLine
 10
190.3901740806
 20
609.569097202
 30
0.0
 11
189.7401740806
 21
609.6663081271
 31
0.0
  0
LINE
  5
13C
330
9D
100
AcDbEntity
  8
DV1_Default
  6
Continuous
 62
     7
100
AcDbLine
 10
190.3901740806
 20
609.3746753554
 30
0.0
 11
190.3901740806
 21
609.569097202
 31
0.0
  0
LINE
  5
13D
330
9D
100
AcDbEntity
  8
DV1_Default
  6
Continuous
 62
     7
100
AcDbLine
 10
189.7401740806
 20
609.2774644339
 30
0.0
 11
190.3901740806
 21
609.3746753554
 31
0.0
  0
LINE
  5
13E
330
9D
100
AcDbEntity
  8
DV1_Default
  6
Continuous
 62
     7
100
AcDbLine
 10
189.0901740806
 20
609.3746753589
 30
0.0
 11
189.7401740806
 21
609.2774644339
 31
0.0
  0
LINE
  5
13F
330
9D
100
AcDbEntity
  8
DV1_Default
  6
Continuous
 62
     7
100
AcDbLine
 10
189.0901740806
 20
609.5690972055
 30
0.0
 11
189.0901740806
 21
609.3746753589
 31
0.0
  0
LINE
  5
140
330
9D
100
AcDbEntity
  8
DV1_Default
  6
Continuous
 62
     7
100
AcDbLine
 10
189.7401740806
 20
609.6663081271
 30
0.0
 11
189.0901740806
 21
609.5690972055
 31
0.0
  0
LINE
  5
141
330
9D
100
AcDbEntity
  8
DV1_Default
  6
Continuous
 62
     7
100
AcDbLine
 10
189.8901740806
 20
609.7336079967
 30
0.0
 11
190.5401740806
 21
609.6363970716
 31
0.0
  0
LINE
  5
142
330
9D
100
AcDbEntity
  8
DV1_Default
  6
Continuous
 62
     7
100
AcDbLine
 10
189.8901740806
 20
609.9280298433
 30
0.0
 11
189.8901740806
 21
609.7336079967
 31
0.0
  0
LINE
  5
143
330
9D
100
AcDbEntity
  8
DV1_Default
  6
Continuous
 62
     7
100
AcDbLine
 10
190.5401740806
 20
610.0252407648
 30
0.0
 11
189.8901740806
 21
609.9280298433
 31
0.0
  0
LINE
  5
144
330
9D
100
AcDbEntity
  8
DV1_Default
  6
Continuous
 62
     7
100
AcDbLine
 10
191.1901740806
 20
609.9280298397
 30
0.0
 11
190.5401740806
 21
610.0252407648
 31
0.0
  0
LINE
  5
145
330
9D
100
AcDbEntity
  8
DV1_Default
  6
Continuous
 62
     7
100
AcDbLine
 10
191.1901740806
 20
609.7336079931
 30
0.0
 11
191.1901740806
 21
609.9280298397
 31
0.0
  0
LINE
  5
146
330
9D
100
AcDbEntity
  8
DV1_Default
  6
Continuous
 62
     7
100
AcDbLine
 10
190.5401740806
 20
609.6363970716
 30
0.0
 11
191.1901740806
 21
609.7336079931
 31
0.0
  0
LINE
  5
147
330
9D
100
AcDbEntity
  8
DV1_Default
  6
Continuous
 62
     7
100
AcDbLine
 10
189.8901740806
 20
609.015815582
 30
0.0
 11
190.5401740806
 21
608.918604657
 31
0.0
  0
LINE
  5
148
330
9D
100
AcDbEntity
  8
DV1_Default
  6
Continuous
 62
     7
100
AcDbLine
 10
189.8901740806
 20
609.2102374286
 30
0.0
 11
189.8901740806
 21
609.015815582
 31
0.0
  0
LINE
  5
149
330
9D
100
AcDbEntity
  8
DV1_Default
  6
Continuous
 62
     7
100
AcDbLine
 10
190.5401740806
 20
609.3074483502
 30
0.0
 11
189.8901740806
 21
609.2102374286
 31
0.0
  0
LINE
  5
14A
330
9D
100
AcDbEntity
  8
DV1_Default
  6
Continuous
 62
     7
100
AcDbLine
 10
191.1901740806
 20
609.2102374251
 30
0.0
 11
190.5401740806
 21
609.3074483502
 31
0.0
  0
LINE
  5
14B
330
9D
100
AcDbEntity
  8
DV1_Default
  6
Continuous
 62
     7
100
AcDbLine
 10
191.1901740806
 20
609.0158155785
 30
0.0
 11
191.1901740806
 21
609.2102374251
 31
0.0
  0
LINE
  5
14C
330
9D
100
AcDbEntity
  8
DV1_Default
  6
Continuous
 62
     7
100
AcDbLine
 10
190.5401740806
 20
608.918604657
 30
0.0
 11
191.1901740806
 21
609.0158155785
 31
0.0
  0
LINE
  5
14D
330
9D
100
AcDbEntity
  8
DV1_Default
  6
Continuous
 62
     7
100
AcDbLine
 10
190.3901740806
 20
608.1335123728
 30
0.0
 11
189.7401740806
 21
608.2307232978
 31
0.0
  0
LINE
  5
14E
330
9D
100
AcDbEntity
  8
DV1_Default
  6
Continuous
 62
     7
100
AcDbLine
 10
190.3901740806
 20
607.9390905261
 30
0.0
 11
190.3901740806
 21
608.1335123728
 31
0.0
  0
LINE
  5
14F
330
9D
100
AcDbEntity
  8
DV1_Default
  6
Continuous
 62
     7
100
AcDbLine
 10
189.7401740806
 20
607.8418796046
 30
0.0
 11
190.3901740806
 21
607.9390905261
 31
0.0
  0
LINE
  5
150
330
9D
100
AcDbEntity
  8
DV1_Default
  6
Continuous
 62
     7
100
AcDbLine
 10
189.0901740806
 20
607.9390905297
 30
0.0
 11
189.7401740806
 21
607.8418796046
 31
0.0
  0
LINE
  5
151
330
9D
100
AcDbEntity
  8
DV1_Default
  6
Continuous
 62
     7
100
AcDbLine
 10
189.0901740806
 20
608.1335123763
 30
0.0
 11
189.0901740806
 21
607.9390905297
 31
0.0
  0
LINE
  5
152
330
9D
100
AcDbEntity
  8
DV1_Default
  6
Continuous
 62
     7
100
AcDbLine
 10
189.7401740806
 20
608.2307232978
 30
0.0
 11
189.0901740806
 21
608.1335123763
 31
0.0
  0
LINE
  5
153
330
9D
100
AcDbEntity
  8
DV1_Default
  6
Continuous
 62
     7
100
AcDbLine
 10
189.8901740806
 20
608.2980231674
 30
0.0
 11
190.5401740806
 21
608.2008122423
 31
0.0
  0
LINE
  5
154
330
9D
100
AcDbEntity
  8
DV1_Default
  6
Continuous
 62
     7
100
AcDbLine
 10
189.8901740806
 20
608.492445014
 30
0.0
 11
189.8901740806
 21
608.2980231674
 31
0.0
  0
LINE
  5
155
330
9D
100
AcDbEntity
  8
DV1_Default
  6
Continuous
 62
     7
100
AcDbLine
 10
190.5401740806
 20
608.5896559355
 30
0.0
 11
189.8901740806
 21
608.492445014
 31
0.0
  0
LINE
  5
156
330
9D
100
AcDbEntity
  8
DV1_Default
  6
Continuous
 62
     7
100
AcDbLine
 10
191.1901740806
 20
608.4924450105
 30
0.0
 11
190.5401740806
 21
608.5896559355
 31
0.0
  0
LINE
  5
157
330
9D
100
AcDbEntity
  8
DV1_Default
  6
Continuous
 62
     7
100
AcDbLine
 10
191.1901740806
 20
608.2980231639
 30
0.0
 11
191.1901740806
 21
608.4924450105
 31
0.0
  0
LINE
  5
158
330
9D
100
AcDbEntity
  8
DV1_Default
  6
Continuous
 62
     7
100
AcDbLine
 10
190.5401740806
 20
608.2008122423
 30
0.0
 11
191.1901740806
 21
608.2980231639
 31
0.0
  0
LINE
  5
159
330
9D
100
AcDbEntity
  8
DV1_Default
  6
Continuous
 62
     7
100
AcDbLine
 10
189.8901740806
 20
607.5802307528
 30
0.0
 11
190.5401740806
 21
607.4830198277
 31
0.0
  0
LINE
  5
15A
330
9D
100
AcDbEntity
  8
DV1_Default
  6
Continuous
 62
     7
100
AcDbLine
 10
189.8901740806
 20
607.7746525994
 30
0.0
 11
189.8901740806
 21
607.5802307528
 31
0.0
  0
LINE
  5
15B
330
9D
100
AcDbEntity
  8
DV1_Default
  6
Continuous
 62
     7
100
AcDbLine
 10
190.5401740806
 20
607.8718635209
 30
0.0
 11
189.8901740806
 21
607.7746525994
 31
0.0
  0
LINE
  5
15C
330
9D
100
AcDbEntity
  8
DV1_Default
  6
Continuous
 62
     7
100
AcDbLine
 10
191.1901740806
 20
607.7746525958
 30
0.0
 11
190.5401740806
 21
607.8718635209
 31
0.0
  0
LINE
  5
15D
330
9D
100
AcDbEntity
  8
DV1_Default
  6
Continuous
 62
     7
100
AcDbLine
 10
191.1901740806
 20
607.5802307492
 30
0.0
 11
191.1901740806
 21
607.7746525958
 31
0.0
  0
LINE
  5
15E
330
9D
100
AcDbEntity
  8
DV1_Default
  6
Continuous
 62
     7
100
AcDbLine
 10
190.5401740806
 20
607.4830198277
 30
0.0
 11
191.1901740806
 21
607.5802307492
 31
0.0
  0
LINE
  5
15F
330
9D
100
AcDbEntity
  8
DV1_Default
  6
Continuous
 62
     7
100
AcDbLine
 10
189.8901740806
 20
606.8624383381
 30
0.0
 11
190.5401740806
 21
606.7652274131
 31
0.0
  0
LINE
  5
160
330
9D
100
AcDbEntity
  8
DV1_Default
  6
Continuous
 62
     7
100
AcDbLine
 10
189.8901740806
 20
607.0568601848
 30
0.0
 11
189.8901740806
 21
606.8624383381
 31
0.0
  0
LINE
  5
161
330
9D
100
AcDbEntity
  8
DV1_Default
  6
Continuous
 62
     7
100
AcDbLine
 10
190.5401740806
 20
607.1540711063
 30
0.0
 11
189.8901740806
 21
607.0568601848
 31
0.0
  0
LINE
  5
162
330
9D
100
AcDbEntity
  8
DV1_Default
  6
Continuous
 62
     7
100
AcDbLine
 10
191.1901740806
 20
607.0568601812
 30
0.0
 11
190.5401740806
 21
607.1540711063
 31
0.0
  0
LINE
  5
163
330
9D
100
AcDbEntity
  8
DV1_Default
  6
Continuous
 62
     7
100
AcDbLine
 10
191.1901740806
 20
606.8624383346
 30
0.0
 11
191.1901740806
 21
607.0568601812
 31
0.0
  0
LINE
  5
164
330
9D
100
AcDbEntity
  8
DV1_Default
  6
Continuous
 62
     7
100
AcDbLine
 10
190.5401740806
 20
606.7652274131
 30
0.0
 11
191.1901740806
 21
606.8624383346
 31
0.0
  0
LINE
  5
165
330
9D
100
AcDbEntity
  8
DV1_Default
  6
Continuous
 62
     7
100
AcDbLine
 10
191.9901740806
 20
610.2868896123
 30
0.0
 11
191.3401740806
 21
610.3841005374
 31
0.0
  0
LINE
  5
166
330
9D
100
AcDbEntity
  8
DV1_Default
  6
Continuous
 62
     7
100
AcDbLine
 10
191.9901740806
 20
610.0924677657
 30
0.0
 11
191.9901740806
 21
610.2868896123
 31
0.0
  0
LINE
  5
167
330
9D
100
AcDbEntity
  8
DV1_Default
  6
Continuous
 62
     7
100
AcDbLine
 10
191.3401740806
 20
609.9952568441
 30
0.0
 11
191.9901740806
 21
610.0924677657
 31
0.0
  0
LINE
  5
168
330
9D
100
AcDbEntity
  8
DV1_Default
  6
Continuous
 62
     7
100
AcDbLine
 10
190.6901740806
 20
610.0924677692
 30
0.0
 11
191.3401740806
 21
609.9952568441
 31
0.0
  0
LINE
  5
169
330
9D
100
AcDbEntity
  8
DV1_Default
  6
Continuous
 62
     7
100
AcDbLine
 10
190.6901740806
 20
610.2868896158
 30
0.0
 11
190.6901740806
 21
610.0924677692
 31
0.0
  0
LINE
  5
16A
330
9D
100
AcDbEntity
  8
DV1_Default
  6
Continuous
 62
     7
100
AcDbLine
 10
191.3401740806
 20
610.3841005374
 30
0.0
 11
190.6901740806
 21
610.2868896158
 31
0.0
  0
LINE
  5
16B
330
9D
100
AcDbEntity
  8
DV1_Default
  6
Continuous
 62
     7
100
AcDbLine
 10
192.139733357
 20
610.3542553944
 30
0.0
 11
192.1401740806
 21
610.3541894819
 31
0.0
  0
LINE
  5
16C
330
9D
100
AcDbEntity
  8
DV1_Default
  6
Continuous
 62
     7
100
AcDbLine
 10
192.1401740806
 20
610.3541894819
 30
0.0
 11
192.1403233519
 21
610.3542118062
 31
0.0
  0
LINE
  5
16D
330
9D
100
AcDbEntity
  8
DV1_Default
  6
Continuous
 62
     7
100
AcDbLine
 10
191.9901740806
 20
609.5690971977
 30
0.0
 11
191.3401740806
 21
609.6663081227
 31
0.0
  0
LINE
  5
16E
330
9D
100
AcDbEntity
  8
DV1_Default
  6
Continuous
 62
     7
100
AcDbLine
 10
191.9901740806
 20
609.374675351
 30
0.0
 11
191.9901740806
 21
609.5690971977
 31
0.0
  0
LINE
  5
16F
330
9D
100
AcDbEntity
  8
DV1_Default
  6
Continuous
 62
     7
100
AcDbLine
 10
191.3401740806
 20
609.2774644295
 30
0.0
 11
191.9901740806
 21
609.374675351
 31
0.0
  0
LINE
  5
170
330
9D
100
AcDbEntity
  8
DV1_Default
  6
Continuous
 62
     7
100
AcDbLine
 10
190.6901740806
 20
609.3746753546
 30
0.0
 11
191.3401740806
 21
609.2774644295
 31
0.0
  0
LINE
  5
171
330
9D
100
AcDbEntity
  8
DV1_Default
  6
Continuous
 62
     7
100
AcDbLine
 10
190.6901740806
 20
609.5690972012
 30
0.0
 11
190.6901740806
 21
609.3746753546
 31
0.0
  0
LINE
  5
172
330
9D
100
AcDbEntity
  8
DV1_Default
  6
Continuous
 62
     7
100
AcDbLine
 10
191.3401740806
 20
609.6663081227
 30
0.0
 11
190.6901740806
 21
609.5690972012
 31
0.0
  0
LINE
  5
173
330
9D
100
AcDbEntity
  8
DV1_Default
  6
Continuous
 62
     7
100
AcDbLine
 10
191.4901740806
 20
609.7336079923
 30
0.0
 11
192.1401740806
 21
609.6363970672
 31
0.0
  0
LINE
  5
174
330
9D
100
AcDbEntity
  8
DV1_Default
  6
Continuous
 62
     7
100
AcDbLine
 10
191.4901740806
 20
609.9280298389
 30
0.0
 11
191.4901740806
 21
609.7336079923
 31
0.0
  0
LINE
  5
175
330
9D
100
AcDbEntity
  8
DV1_Default
  6
Continuous
 62
     7
100
AcDbLine
 10
192.1401740806
 20
610.0252407604
 30
0.0
 11
191.4901740806
 21
609.9280298389
 31
0.0
  0
LINE
  5
176
330
9D
100
AcDbEntity
  8
DV1_Default
  6
Continuous
 62
     7
100
AcDbLine
 10
192.7901740806
 20
609.9280298354
 30
0.0
 11
192.1401740806
 21
610.0252407604
 31
0.0
  0
LINE
  5
177
330
9D
100
AcDbEntity
  8
DV1_Default
  6
Continuous
 62
     7
100
AcDbLine
 10
192.7901740806
 20
609.7336079888
 30
0.0
 11
192.7901740806
 21
609.9280298354
 31
0.0
  0
LINE
  5
178
330
9D
100
AcDbEntity
  8
DV1_Default
  6
Continuous
 62
     7
100
AcDbLine
 10
192.1401740806
 20
609.6363970672
 30
0.0
 11
192.7901740806
 21
609.7336079888
 31
0.0
  0
LINE
  5
179
330
9D
100
AcDbEntity
  8
DV1_Default
  6
Continuous
 62
     7
100
AcDbLine
 10
191.9901740806
 20
608.851304783
 30
0.0
 11
191.3401740806
 21
608.9485157081
 31
0.0
  0
LINE
  5
17A
330
9D
100
AcDbEntity
  8
DV1_Default
  6
Continuous
 62
     7
100
AcDbLine
 10
191.9901740806
 20
608.6568829364
 30
0.0
 11
191.9901740806
 21
608.851304783
 31
0.0
  0
LINE
  5
17B
330
9D
100
AcDbEntity
  8
DV1_Default
  6
Continuous
 62
     7
100
AcDbLine
 10
191.3401740806
 20
608.5596720149
 30
0.0
 11
191.9901740806
 21
608.6568829364
 31
0.0
  0
LINE
  5
17C
330
9D
100
AcDbEntity
  8
DV1_Default
  6
Continuous
 62
     7
100
AcDbLine
 10
190.6901740806
 20
608.65688294
 30
0.0
 11
191.3401740806
 21
608.5596720149
 31
0.0
  0
LINE
  5
17D
330
9D
100
AcDbEntity
  8
DV1_Default
  6
Continuous
 62
     7
100
AcDbLine
 10
190.6901740806
 20
608.8513047866
 30
0.0
 11
190.6901740806
 21
608.65688294
 31
0.0
  0
LINE
  5
17E
330
9D
100
AcDbEntity
  8
DV1_Default
  6
Continuous
 62
     7
100
AcDbLine
 10
191.3401740806
 20
608.9485157081
 30
0.0
 11
190.6901740806
 21
608.8513047866
 31
0.0
  0
LINE
  5
17F
330
9D
100
AcDbEntity
  8
DV1_Default
  6
Continuous
 62
     7
100
AcDbLine
 10
191.4901740806
 20
609.0158155777
 30
0.0
 11
192.1401740806
 21
608.9186046526
 31
0.0
  0
LINE
  5
180
330
9D
100
AcDbEntity
  8
DV1_Default
  6
Continuous
 62
     7
100
AcDbLine
 10
191.4901740806
 20
609.2102374243
 30
0.0
 11
191.4901740806
 21
609.0158155777
 31
0.0
  0
LINE
  5
181
330
9D
100
AcDbEntity
  8
DV1_Default
  6
Continuous
 62
     7
100
AcDbLine
 10
192.1401740806
 20
609.3074483458
 30
0.0
 11
191.4901740806
 21
609.2102374243
 31
0.0
  0
LINE
  5
182
330
9D
100
AcDbEntity
  8
DV1_Default
  6
Continuous
 62
     7
100
AcDbLine
 10
192.7901740806
 20
609.2102374207
 30
0.0
 11
192.1401740806
 21
609.3074483458
 31
0.0
  0
LINE
  5
183
330
9D
100
AcDbEntity
  8
DV1_Default
  6
Continuous
 62
     7
100
AcDbLine
 10
192.7901740806
 20
609.0158155741
 30
0.0
 11
192.7901740806
 21
609.2102374207
 31
0.0
  0
LINE
  5
184
330
9D
100
AcDbEntity
  8
DV1_Default
  6
Continuous
 62
     7
100
AcDbLine
 10
192.1401740806
 20
608.9186046526
 30
0.0
 11
192.7901740806
 21
609.0158155741
 31
0.0
  0
LINE
  5
185
330
9D
100
AcDbEntity
  8
DV1_Default
  6
Continuous
 62
     7
100
AcDbLine
 10
191.9901740806
 20
608.1335123684
 30
0.0
 11
191.3401740806
 21
608.2307232935
 31
0.0
  0
LINE
  5
186
330
9D
100
AcDbEntity
  8
DV1_Default
  6
Continuous
 62
     7
100
AcDbLine
 10
191.9901740806
 20
607.9390905218
 30
0.0
 11
191.9901740806
 21
608.1335123684
 31
0.0
  0
LINE
  5
187
330
9D
100
AcDbEntity
  8
DV1_Default
  6
Continuous
 62
     7
100
AcDbLine
 10
191.3401740806
 20
607.8418796003
 30
0.0
 11
191.9901740806
 21
607.9390905218
 31
0.0
  0
LINE
  5
188
330
9D
100
AcDbEntity
  8
DV1_Default
  6
Continuous
 62
     7
100
AcDbLine
 10
190.6901740806
 20
607.9390905253
 30
0.0
 11
191.3401740806
 21
607.8418796003
 31
0.0
  0
LINE
  5
189
330
9D
100
AcDbEntity
  8
DV1_Default
  6
Continuous
 62
     7
100
AcDbLine
 10
190.6901740806
 20
608.1335123719
 30
0.0
 11
190.6901740806
 21
607.9390905253
 31
0.0
  0
LINE
  5
18A
330
9D
100
AcDbEntity
  8
DV1_Default
  6
Continuous
 62
     7
100
AcDbLine
 10
191.3401740806
 20
608.2307232935
 30
0.0
 11
190.6901740806
 21
608.1335123719
 31
0.0
  0
LINE
  5
18B
330
9D
100
AcDbEntity
  8
DV1_Default
  6
Continuous
 62
     7
100
AcDbLine
 10
191.4901740806
 20
608.298023163
 30
0.0
 11
192.1401740806
 21
608.200812238
 31
0.0
  0
LINE
  5
18C
330
9D
100
AcDbEntity
  8
DV1_Default
  6
Continuous
 62
     7
100
AcDbLine
 10
191.4901740806
 20
608.4924450097
 30
0.0
 11
191.4901740806
 21
608.298023163
 31
0.0
  0
LINE
  5
18D
330
9D
100
AcDbEntity
  8
DV1_Default
  6
Continuous
 62
     7
100
AcDbLine
 10
192.1401740806
 20
608.5896559312
 30
0.0
 11
191.4901740806
 21
608.4924450097
 31
0.0
  0
LINE
  5
18E
330
9D
100
AcDbEntity
  8
DV1_Default
  6
Continuous
 62
     7
100
AcDbLine
 10
192.7901740806
 20
608.4924450061
 30
0.0
 11
192.1401740806
 21
608.5896559312
 31
0.0
  0
LINE
  5
18F
330
9D
100
AcDbEntity
  8
DV1_Default
  6
Continuous
 62
     7
100
AcDbLine
 10
192.7901740806
 20
608.2980231595
 30
0.0
 11
192.7901740806
 21
608.4924450061
 31
0.0
  0
LINE
  5
190
330
9D
100
AcDbEntity
  8
DV1_Default
  6
Continuous
 62
     7
100
AcDbLine
 10
192.1401740806
 20
608.200812238
 30
0.0
 11
192.7901740806
 21
608.2980231595
 31
0.0
  0
LINE
  5
191
330
9D
100
AcDbEntity
  8
DV1_Default
  6
Continuous
 62
     7
100
AcDbLine
 10
191.9901740806
 20
607.4157199538
 30
0.0
 11
191.3401740806
 21
607.5129308788
 31
0.0
  0
LINE
  5
192
330
9D
100
AcDbEntity
  8
DV1_Default
  6
Continuous
 62
     7
100
AcDbLine
 10
191.9901740806
 20
607.2212981072
 30
0.0
 11
191.9901740806
 21
607.4157199538
 31
0.0
  0
LINE
  5
193
330
9D
100
AcDbEntity
  8
DV1_Default
  6
Continuous
 62
     7
100
AcDbLine
 10
191.3401740806
 20
607.1240871856
 30
0.0
 11
191.9901740806
 21
607.2212981072
 31
0.0
  0
LINE
  5
194
330
9D
100
AcDbEntity
  8
DV1_Default
  6
Continuous
 62
     7
100
AcDbLine
 10
190.6901740806
 20
607.2212981107
 30
0.0
 11
191.3401740806
 21
607.1240871856
 31
0.0
  0
LINE
  5
195
330
9D
100
AcDbEntity
  8
DV1_Default
  6
Continuous
 62
     7
100
AcDbLine
 10
190.6901740806
 20
607.4157199573
 30
0.0
 11
190.6901740806
 21
607.2212981107
 31
0.0
  0
LINE
  5
196
330
9D
100
AcDbEntity
  8
DV1_Default
  6
Continuous
 62
     7
100
AcDbLine
 10
191.3401740806
 20
607.5129308788
 30
0.0
 11
190.6901740806
 21
607.4157199573
 31
0.0
  0
LINE
  5
197
330
9D
100
AcDbEntity
  8
DV1_Default
  6
Continuous
 62
     7
100
AcDbLine
 10
191.4901740806
 20
607.5802307484
 30
0.0
 11
192.1401740806
 21
607.4830198233
 31
0.0
  0
LINE
  5
198
330
9D
100
AcDbEntity
  8
DV1_Default
  6
Continuous
 62
     7
100
AcDbLine
 10
191.4901740806
 20
607.774652595
 30
0.0
 11
191.4901740806
 21
607.5802307484
 31
0.0
  0
LINE
  5
199
330
9D
100
AcDbEntity
  8
DV1_Default
  6
Continuous
 62
     7
100
AcDbLine
 10
192.1401740806
 20
607.8718635166
 30
0.0
 11
191.4901740806
 21
607.774652595
 31
0.0
  0
LINE
  5
19A
330
9D
100
AcDbEntity
  8
DV1_Default
  6
Continuous
 62
     7
100
AcDbLine
 10
192.7901740806
 20
607.7746525915
 30
0.0
 11
192.1401740806
 21
607.8718635166
 31
0.0
  0
LINE
  5
19B
330
9D
100
AcDbEntity
  8
DV1_Default
  6
Continuous
 62
     7
100
AcDbLine
 10
192.7901740806
 20
607.5802307449
 30
0.0
 11
192.7901740806
 21
607.7746525915
 31
0.0
  0
LINE
  5
19C
330
9D
100
AcDbEntity
  8
DV1_Default
  6
Continuous
 62
     7
100
AcDbLine
 10
192.1401740806
 20
607.4830198233
 30
0.0
 11
192.7901740806
 21
607.5802307449
 31
0.0
  0
LINE
  5
19D
330
9D
100
AcDbEntity
  8
DV1_Default
  6
Continuous
 62
     7
100
AcDbLine
 10
191.4901740806
 20
606.8624383338
 30
0.0
 11
192.1401740806
 21
606.7652274087
 31
0.0
  0
LINE
  5
19E
330
9D
100
AcDbEntity
  8
DV1_Default
  6
Continuous
 62
     7
100
AcDbLine
 10
191.4901740806
 20
607.0568601804
 30
0.0
 11
191.4901740806
 21
606.8624383338
 31
0.0
  0
LINE
  5
19F
330
9D
100
AcDbEntity
  8
DV1_Default
  6
Continuous
 62
     7
100
AcDbLine
 10
192.1401740806
 20
607.1540711019
 30
0.0
 11
191.4901740806
 21
607.0568601804
 31
0.0
  0
LINE
  5
1A0
330
9D
100
AcDbEntity
  8
DV1_Default
  6
Continuous
 62
     7
100
AcDbLine
 10
192.7901740806
 20
607.0568601769
 30
0.0
 11
192.1401740806
 21
607.1540711019
 31
0.0
  0
LINE
  5
1A1
330
9D
100
AcDbEntity
  8
DV1_Default
  6
Continuous
 62
     7
100
AcDbLine
 10
192.7901740806
 20
606.8624383303
 30
0.0
 11
192.7901740806
 21
607.0568601769
 31
0.0
  0
LINE
  5
1A2
330
9D
100
AcDbEntity
  8
DV1_Default
  6
Continuous
 62
     7
100
AcDbLine
 10
192.1401740806
 20
606.7652274087
 30
0.0
 11
192.7901740806
 21
606.8624383303
 31
0.0
  0
LINE
  5
1A3
330
9D
100
AcDbEntity
  8
DV1_Default
  6
Continuous
 62
     7
100
AcDbLine
 10
193.5901740806
 20
610.0924677613
 30
0.0
 11
193.5901740806
 21
610.2099541637
 31
0.0
  0
LINE
  5
1A4
330
9D
100
AcDbEntity
  8
DV1_Default
  6
Continuous
 62
     7
100
AcDbLine
 10
192.9401740806
 20
609.9952568398
 30
0.0
 11
193.5901740806
 21
610.0924677613
 31
0.0
  0
LINE
  5
1A5
330
9D
100
AcDbEntity
  8
DV1_Default
  6
Continuous
 62
     7
100
AcDbLine
 10
192.2901740806
 20
610.0924677649
 30
0.0
 11
192.9401740806
 21
609.9952568398
 31
0.0
  0
LINE
  5
1A6
330
9D
100
AcDbEntity
  8
DV1_Default
  6
Continuous
 62
     7
100
AcDbLine
 10
192.2901740806
 20
610.2868896115
 30
0.0
 11
192.2901740806
 21
610.0924677649
 31
0.0
  0
LINE
  5
1A7
330
9D
100
AcDbEntity
  8
DV1_Default
  6
Continuous
 62
     7
100
AcDbLine
 10
192.5304198238
 20
610.322819627
 30
0.0
 11
192.2901740806
 21
610.2868896115
 31
0.0
  0
LINE
  5
1A8
330
9D
100
AcDbEntity
  8
DV1_Default
  6
Continuous
 62
     7
100
AcDbLine
 10
193.5901740806
 20
609.5690971933
 30
0.0
 11
192.9401740806
 21
609.6663081184
 31
0.0
  0
LINE
  5
1A9
330
9D
100
AcDbEntity
  8
DV1_Default
  6
Continuous
 62
     7
100
AcDbLine
 10
193.5901740806
 20
609.3746753467
 30
0.0
 11
193.5901740806
 21
609.5690971933
 31
0.0
  0
LINE
  5
1AA
330
9D
100
AcDbEntity
  8
DV1_Default
  6
Continuous
 62
     7
100
AcDbLine
 10
192.9401740806
 20
609.2774644252
 30
0.0
 11
193.5901740806
 21
609.3746753467
 31
0.0
  0
LINE
  5
1AB
330
9D
100
AcDbEntity
  8
DV1_Default
  6
Continuous
 62
     7
100
AcDbLine
 10
192.2901740806
 20
609.3746753502
 30
0.0
 11
192.9401740806
 21
609.2774644252
 31
0.0
  0
LINE
  5
1AC
330
9D
100
AcDbEntity
  8
DV1_Default
  6
Continuous
 62
     7
100
AcDbLine
 10
192.2901740806
 20
609.5690971968
 30
0.0
 11
192.2901740806
 21
609.3746753502
 31
0.0
  0
LINE
  5
1AD
330
9D
100
AcDbEntity
  8
DV1_Default
  6
Continuous
 62
     7
100
AcDbLine
 10
192.9401740806
 20
609.6663081184
 30
0.0
 11
192.2901740806
 21
609.5690971968
 31
0.0
  0
LINE
  5
1AE
330
9D
100
AcDbEntity
  8
DV1_Default
  6
Continuous
 62
     7
100
AcDbLine
 10
193.5901740806
 20
608.8513047787
 30
0.0
 11
192.9401740806
 21
608.9485157037
 31
0.0
  0
LINE
  5
1AF
330
9D
100
AcDbEntity
  8
DV1_Default
  6
Continuous
 62
     7
100
AcDbLine
 10
193.5901740806
 20
608.6568829321
 30
0.0
 11
193.5901740806
 21
608.8513047787
 31
0.0
  0
LINE
  5
1B0
330
9D
100
AcDbEntity
  8
DV1_Default
  6
Continuous
 62
     7
100
AcDbLine
 10
192.9401740806
 20
608.5596720105
 30
0.0
 11
193.5901740806
 21
608.6568829321
 31
0.0
  0
LINE
  5
1B1
330
9D
100
AcDbEntity
  8
DV1_Default
  6
Continuous
 62
     7
100
AcDbLine
 10
192.2901740806
 20
608.6568829356
 30
0.0
 11
192.9401740806
 21
608.5596720105
 31
0.0
  0
LINE
  5
1B2
330
9D
100
AcDbEntity
  8
DV1_Default
  6
Continuous
 62
     7
100
AcDbLine
 10
192.2901740806
 20
608.8513047822
 30
0.0
 11
192.2901740806
 21
608.6568829356
 31
0.0
  0
LINE
  5
1B3
330
9D
100
AcDbEntity
  8
DV1_Default
  6
Continuous
 62
     7
100
AcDbLine
 10
192.9401740806
 20
608.9485157037
 30
0.0
 11
192.2901740806
 21
608.8513047822
 31
0.0
  0
LINE
  5
1B4
330
9D
100
AcDbEntity
  8
DV1_Default
  6
Continuous
 62
     7
100
AcDbLine
 10
193.0901740806
 20
609.0158155733
 30
0.0
 11
193.7401740806
 21
608.9186046482
 31
0.0
  0
LINE
  5
1B5
330
9D
100
AcDbEntity
  8
DV1_Default
  6
Continuous
 62
     7
100
AcDbLine
 10
193.0901740806
 20
609.2102374199
 30
0.0
 11
193.0901740806
 21
609.0158155733
 31
0.0
  0
LINE
  5
1B6
330
9D
100
AcDbEntity
  8
DV1_Default
  6
Continuous
 62
     7
100
AcDbLine
 10
193.7401740806
 20
609.3074483415
 30
0.0
 11
193.0901740806
 21
609.2102374199
 31
0.0
  0
LINE
  5
1B7
330
9D
100
AcDbEntity
  8
DV1_Default
  6
Continuous
 62
     7
100
AcDbLine
 10
194.3901740806
 20
609.2102374164
 30
0.0
 11
193.7401740806
 21
609.3074483415
 31
0.0
  0
LINE
  5
1B8
330
9D
100
AcDbEntity
  8
DV1_Default
  6
Continuous
 62
     7
100
AcDbLine
 10
194.3901740806
 20
609.0158155698
 30
0.0
 11
194.3901740806
 21
609.2102374164
 31
0.0
  0
LINE
  5
1B9
330
9D
100
AcDbEntity
  8
DV1_Default
  6
Continuous
 62
     7
100
AcDbLine
 10
193.7401740806
 20
608.9186046482
 30
0.0
 11
194.3901740806
 21
609.0158155698
 31
0.0
  0
LINE
  5
1BA
330
9D
100
AcDbEntity
  8
DV1_Default
  6
Continuous
 62
     7
100
AcDbLine
 10
193.5901740806
 20
608.133512364
 30
0.0
 11
192.9401740806
 21
608.2307232891
 31
0.0
  0
LINE
  5
1BB
330
9D
100
AcDbEntity
  8
DV1_Default
  6
Continuous
 62
     7
100
AcDbLine
 10
193.5901740806
 20
607.9390905174
 30
0.0
 11
193.5901740806
 21
608.133512364
 31
0.0
  0
LINE
  5
1BC
330
9D
100
AcDbEntity
  8
DV1_Default
  6
Continuous
 62
     7
100
AcDbLine
 10
192.9401740806
 20
607.8418795959
 30
0.0
 11
193.5901740806
 21
607.9390905174
 31
0.0
  0
LINE
  5
1BD
330
9D
100
AcDbEntity
  8
DV1_Default
  6
Continuous
 62
     7
100
AcDbLine
 10
192.2901740806
 20
607.939090521
 30
0.0
 11
192.9401740806
 21
607.8418795959
 31
0.0
  0
LINE
  5
1BE
330
9D
100
AcDbEntity
  8
DV1_Default
  6
Continuous
 62
     7
100
AcDbLine
 10
192.2901740806
 20
608.1335123676
 30
0.0
 11
192.2901740806
 21
607.939090521
 31
0.0
  0
LINE
  5
1BF
330
9D
100
AcDbEntity
  8
DV1_Default
  6
Continuous
 62
     7
100
AcDbLine
 10
192.9401740806
 20
608.2307232891
 30
0.0
 11
192.2901740806
 21
608.1335123676
 31
0.0
  0
LINE
  5
1C0
330
9D
100
AcDbEntity
  8
DV1_Default
  6
Continuous
 62
     7
100
AcDbLine
 10
193.0901740806
 20
608.2980231587
 30
0.0
 11
193.7401740806
 21
608.2008122336
 31
0.0
  0
LINE
  5
1C1
330
9D
100
AcDbEntity
  8
DV1_Default
  6
Continuous
 62
     7
100
AcDbLine
 10
193.0901740806
 20
608.4924450053
 30
0.0
 11
193.0901740806
 21
608.2980231587
 31
0.0
  0
LINE
  5
1C2
330
9D
100
AcDbEntity
  8
DV1_Default
  6
Continuous
 62
     7
100
AcDbLine
 10
193.7401740806
 20
608.5896559268
 30
0.0
 11
193.0901740806
 21
608.4924450053
 31
0.0
  0
LINE
  5
1C3
330
9D
100
AcDbEntity
  8
DV1_Default
  6
Continuous
 62
     7
100
AcDbLine
 10
194.3901740806
 20
608.4924450018
 30
0.0
 11
193.7401740806
 21
608.5896559268
 31
0.0
  0
LINE
  5
1C4
330
9D
100
AcDbEntity
  8
DV1_Default
  6
Continuous
 62
     7
100
AcDbLine
 10
194.3901740806
 20
608.2980231552
 30
0.0
 11
194.3901740806
 21
608.4924450018
 31
0.0
  0
LINE
  5
1C5
330
9D
100
AcDbEntity
  8
DV1_Default
  6
Continuous
 62
     7
100
AcDbLine
 10
193.7401740806
 20
608.2008122336
 30
0.0
 11
194.3901740806
 21
608.2980231552
 31
0.0
  0
LINE
  5
1C6
330
9D
100
AcDbEntity
  8
DV1_Default
  6
Continuous
 62
     7
100
AcDbLine
 10
193.5901740806
 20
607.4157199494
 30
0.0
 11
192.9401740806
 21
607.5129308745
 31
0.0
  0
LINE
  5
1C7
330
9D
100
AcDbEntity
  8
DV1_Default
  6
Continuous
 62
     7
100
AcDbLine
 10
193.5901740806
 20
607.2212981028
 30
0.0
 11
193.5901740806
 21
607.4157199494
 31
0.0
  0
LINE
  5
1C8
330
9D
100
AcDbEntity
  8
DV1_Default
  6
Continuous
 62
     7
100
AcDbLine
 10
192.9401740806
 20
607.1240871813
 30
0.0
 11
193.5901740806
 21
607.2212981028
 31
0.0
  0
LINE
  5
1C9
330
9D
100
AcDbEntity
  8
DV1_Default
  6
Continuous
 62
     7
100
AcDbLine
 10
192.2901740806
 20
607.2212981063
 30
0.0
 11
192.9401740806
 21
607.1240871813
 31
0.0
  0
LINE
  5
1CA
330
9D
100
AcDbEntity
  8
DV1_Default
  6
Continuous
 62
     7
100
AcDbLine
 10
192.2901740806
 20
607.415719953
 30
0.0
 11
192.2901740806
 21
607.2212981063
 31
0.0
  0
LINE
  5
1CB
330
9D
100
AcDbEntity
  8
DV1_Default
  6
Continuous
 62
     7
100
AcDbLine
 10
192.9401740806
 20
607.5129308745
 30
0.0
 11
192.2901740806
 21
607.415719953
 31
0.0
  0
LINE
  5
1CC
330
9D
100
AcDbEntity
  8
DV1_Default
  6
Continuous
 62
     7
100
AcDbLine
 10
193.0901740806
 20
607.5802307441
 30
0.0
 11
193.7401740806
 21
607.483019819
 31
0.0
  0
LINE
  5
1CD
330
9D
100
AcDbEntity
  8
DV1_Default
  6
Continuous
 62
     7
100
AcDbLine
 10
193.0901740806
 20
607.7746525907
 30
0.0
 11
193.0901740806
 21
607.5802307441
 31
0.0
  0
LINE
  5
1CE
330
9D
100
AcDbEntity
  8
DV1_Default
  6
Continuous
 62
     7
100
AcDbLine
 10
193.7401740806
 20
607.8718635122
 30
0.0
 11
193.0901740806
 21
607.7746525907
 31
0.0
  0
LINE
  5
1CF
330
9D
100
AcDbEntity
  8
DV1_Default
  6
Continuous
 62
     7
100
AcDbLine
 10
194.3901740806
 20
607.7746525871
 30
0.0
 11
193.7401740806
 21
607.8718635122
 31
0.0
  0
LINE
  5
1D0
330
9D
100
AcDbEntity
  8
DV1_Default
  6
Continuous
 62
     7
100
AcDbLine
 10
194.3901740806
 20
607.5802307405
 30
0.0
 11
194.3901740806
 21
607.7746525871
 31
0.0
  0
LINE
  5
1D1
330
9D
100
AcDbEntity
  8
DV1_Default
  6
Continuous
 62
     7
100
AcDbLine
 10
193.7401740806
 20
607.483019819
 30
0.0
 11
194.3901740806
 21
607.5802307405
 31
0.0
  0
LINE
  5
1D2
330
9D
100
AcDbEntity
  8
DV1_Default
  6
Continuous
 62
     7
100
AcDbLine
 10
193.0901740806
 20
606.8624383294
 30
0.0
 11
193.7401740806
 21
606.7652274044
 31
0.0
  0
LINE
  5
1D3
330
9D
100
AcDbEntity
  8
DV1_Default
  6
Continuous
 62
     7
100
AcDbLine
 10
193.0901740806
 20
607.056860176
 30
0.0
 11
193.0901740806
 21
606.8624383294
 31
0.0
  0
LINE
  5
1D4
330
9D
100
AcDbEntity
  8
DV1_Default
  6
Continuous
 62
     7
100
AcDbLine
 10
193.7401740806
 20
607.1540710976
 30
0.0
 11
193.0901740806
 21
607.056860176
 31
0.0
  0
LINE
  5
1D5
330
9D
100
AcDbEntity
  8
DV1_Default
  6
Continuous
 62
     7
100
AcDbLine
 10
194.3901740806
 20
607.0568601725
 30
0.0
 11
193.7401740806
 21
607.1540710976
 31
0.0
  0
LINE
  5
1D6
330
9D
100
AcDbEntity
  8
DV1_Default
  6
Continuous
 62
     7
100
AcDbLine
 10
194.3901740806
 20
606.8624383259
 30
0.0
 11
194.3901740806
 21
607.0568601725
 31
0.0
  0
LINE
  5
1D7
330
9D
100
AcDbEntity
  8
DV1_Default
  6
Continuous
 62
     7
100
AcDbLine
 10
193.7401740806
 20
606.7652274044
 30
0.0
 11
194.3901740806
 21
606.8624383259
 31
0.0
  0
LINE
  5
1D8
330
9D
100
AcDbEntity
  8
DV1_Default
  6
Continuous
 62
     7
100
AcDbLine
 10
194.5401740806
 20
609.9952568354
 30
0.0
 11
194.7688280102
 21
610.0294532342
 31
0.0
  0
LINE
  5
1D9
330
9D
100
AcDbEntity
  8
DV1_Default
  6
Continuous
 62
     7
100
AcDbLine
 10
193.8901740806
 20
610.0924677605
 30
0.0
 11
194.5401740806
 21
609.9952568354
 31
0.0
  0
LINE
  5
1DA
330
9D
100
AcDbEntity
  8
DV1_Default
  6
Continuous
 62
     7
100
AcDbLine
 10
193.8901740806
 20
610.1700016859
 30
0.0
 11
193.8901740806
 21
610.0924677605
 31
0.0
  0
LINE
  5
1DB
330
9D
100
AcDbEntity
  8
DV1_Default
  6
Continuous
 62
     7
100
AcDbLine
 10
195.1901740806
 20
609.5690971889
 30
0.0
 11
194.5401740806
 21
609.666308114
 31
0.0
  0
LINE
  5
1DC
330
9D
100
AcDbEntity
  8
DV1_Default
  6
Continuous
 62
     7
100
AcDbLine
 10
195.1901740806
 20
609.3746753423
 30
0.0
 11
195.1901740806
 21
609.5690971889
 31
0.0
  0
LINE
  5
1DD
330
9D
100
AcDbEntity
  8
DV1_Default
  6
Continuous
 62
     7
100
AcDbLine
 10
194.5401740806
 20
609.2774644208
 30
0.0
 11
195.1901740806
 21
609.3746753423
 31
0.0
  0
LINE
  5
1DE
330
9D
100
AcDbEntity
  8
DV1_Default
  6
Continuous
 62
     7
100
AcDbLine
 10
193.8901740806
 20
609.3746753459
 30
0.0
 11
194.5401740806
 21
609.2774644208
 31
0.0
  0
LINE
  5
1DF
330
9D
100
AcDbEntity
  8
DV1_Default
  6
Continuous
 62
     7
100
AcDbLine
 10
193.8901740806
 20
609.5690971925
 30
0.0
 11
193.8901740806
 21
609.3746753459
 31
0.0
  0
LINE
  5
1E0
330
9D
100
AcDbEntity
  8
DV1_Default
  6
Continuous
 62
     7
100
AcDbLine
 10
194.5401740806
 20
609.666308114
 30
0.0
 11
193.8901740806
 21
609.5690971925
 31
0.0
  0
LINE
  5
1E1
330
9D
100
AcDbEntity
  8
DV1_Default
  6
Continuous
 62
     7
100
AcDbLine
 10
194.6901740806
 20
609.7336079836
 30
0.0
 11
195.3401740806
 21
609.6363970585
 31
0.0
  0
LINE
  5
1E2
330
9D
100
AcDbEntity
  8
DV1_Default
  6
Continuous
 62
     7
100
AcDbLine
 10
194.6901740806
 20
609.9280298302
 30
0.0
 11
194.6901740806
 21
609.7336079836
 31
0.0
  0
LINE
  5
1E3
330
9D
100
AcDbEntity
  8
DV1_Default
  6
Continuous
 62
     7
100
AcDbLine
 10
195.0334621245
 20
609.9793703642
 30
0.0
 11
194.6901740806
 21
609.9280298302
 31
0.0
  0
LINE
  5
1E4
330
9D
100
AcDbEntity
  8
DV1_Default
  6
Continuous
 62
     7
100
AcDbLine
 10
195.9901740806
 20
609.7336079801
 30
0.0
 11
195.9901740806
 21
609.7608466083
 31
0.0
  0
LINE
  5
1E5
330
9D
100
AcDbEntity
  8
DV1_Default
  6
Continuous
 62
     7
100
AcDbLine
 10
195.3401740806
 20
609.6363970585
 30
0.0
 11
195.9901740806
 21
609.7336079801
 31
0.0
  0
LINE
  5
1E6
330
9D
100
AcDbEntity
  8
DV1_Default
  6
Continuous
 62
     7
100
AcDbLine
 10
195.1901740806
 20
608.8513047743
 30
0.0
 11
194.5401740806
 21
608.9485156994
 31
0.0
  0
LINE
  5
1E7
330
9D
100
AcDbEntity
  8
DV1_Default
  6
Continuous
 62
     7
100
AcDbLine
 10
195.1901740806
 20
608.6568829277
 30
0.0
 11
195.1901740806
 21
608.8513047743
 31
0.0
  0
LINE
  5
1E8
330
9D
100
AcDbEntity
  8
DV1_Default
  6
Continuous
 62
     7
100
AcDbLine
 10
194.5401740806
 20
608.5596720062
 30
0.0
 11
195.1901740806
 21
608.6568829277
 31
0.0
  0
LINE
  5
1E9
330
9D
100
AcDbEntity
  8
DV1_Default
  6
Continuous
 62
     7
100
AcDbLine
 10
193.8901740806
 20
608.6568829312
 30
0.0
 11
194.5401740806
 21
608.5596720062
 31
0.0
  0
LINE
  5
1EA
330
9D
100
AcDbEntity
  8
DV1_Default
  6
Continuous
 62
     7
100
AcDbLine
 10
193.8901740806
 20
608.8513047779
 30
0.0
 11
193.8901740806
 21
608.6568829312
 31
0.0
  0
LINE
  5
1EB
330
9D
100
AcDbEntity
  8
DV1_Default
  6
Continuous
 62
     7
100
AcDbLine
 10
194.5401740806
 20
608.9485156994
 30
0.0
 11
193.8901740806
 21
608.8513047779
 31
0.0
  0
LINE
  5
1EC
330
9D
100
AcDbEntity
  8
DV1_Default
  6
Continuous
 62
     7
100
AcDbLine
 10
194.6901740806
 20
609.015815569
 30
0.0
 11
195.3401740806
 21
608.9186046439
 31
0.0
  0
LINE
  5
1ED
330
9D
100
AcDbEntity
  8
DV1_Default
  6
Continuous
 62
     7
100
AcDbLine
 10
194.6901740806
 20
609.2102374156
 30
0.0
 11
194.6901740806
 21
609.015815569
 31
0.0
  0
LINE
  5
1EE
330
9D
100
AcDbEntity
  8
DV1_Default
  6
Continuous
 62
     7
100
AcDbLine
 10
195.3401740806
 20
609.3074483371
 30
0.0
 11
194.6901740806
 21
609.2102374156
 31
0.0
  0
LINE
  5
1EF
330
9D
100
AcDbEntity
  8
DV1_Default
  6
Continuous
 62
     7
100
AcDbLine
 10
195.9901740806
 20
609.210237412
 30
0.0
 11
195.3401740806
 21
609.3074483371
 31
0.0
  0
LINE
  5
1F0
330
9D
100
AcDbEntity
  8
DV1_Default
  6
Continuous
 62
     7
100
AcDbLine
 10
195.9901740806
 20
609.0158155654
 30
0.0
 11
195.9901740806
 21
609.210237412
 31
0.0
  0
LINE
  5
1F1
330
9D
100
AcDbEntity
  8
DV1_Default
  6
Continuous
 62
     7
100
AcDbLine
 10
195.3401740806
 20
608.9186046439
 30
0.0
 11
195.9901740806
 21
609.0158155654
 31
0.0
  0
LINE
  5
1F2
330
9D
100
AcDbEntity
  8
DV1_Default
  6
Continuous
 62
     7
100
AcDbLine
 10
195.1901740806
 20
608.1335123597
 30
0.0
 11
194.5401740806
 21
608.2307232848
 31
0.0
  0
LINE
  5
1F3
330
9D
100
AcDbEntity
  8
DV1_Default
  6
Continuous
 62
     7
100
AcDbLine
 10
195.1901740806
 20
607.9390905131
 30
0.0
 11
195.1901740806
 21
608.1335123597
 31
0.0
  0
LINE
  5
1F4
330
9D
100
AcDbEntity
  8
DV1_Default
  6
Continuous
 62
     7
100
AcDbLine
 10
194.5401740806
 20
607.8418795915
 30
0.0
 11
195.1901740806
 21
607.9390905131
 31
0.0
  0
LINE
  5
1F5
330
9D
100
AcDbEntity
  8
DV1_Default
  6
Continuous
 62
     7
100
AcDbLine
 10
193.8901740806
 20
607.9390905166
 30
0.0
 11
194.5401740806
 21
607.8418795915
 31
0.0
  0
LINE
  5
1F6
330
9D
100
AcDbEntity
  8
DV1_Default
  6
Continuous
 62
     7
100
AcDbLine
 10
193.8901740806
 20
608.1335123632
 30
0.0
 11
193.8901740806
 21
607.9390905166
 31
0.0
  0
LINE
  5
1F7
330
9D
100
AcDbEntity
  8
DV1_Default
  6
Continuous
 62
     7
100
AcDbLine
 10
194.5401740806
 20
608.2307232848
 30
0.0
 11
193.8901740806
 21
608.1335123632
 31
0.0
  0
LINE
  5
1F8
330
9D
100
AcDbEntity
  8
DV1_Default
  6
Continuous
 62
     7
100
AcDbLine
 10
194.6901740806
 20
608.2980231543
 30
0.0
 11
195.3401740806
 21
608.2008122293
 31
0.0
  0
LINE
  5
1F9
330
9D
100
AcDbEntity
  8
DV1_Default
  6
Continuous
 62
     7
100
AcDbLine
 10
194.6901740806
 20
608.4924450009
 30
0.0
 11
194.6901740806
 21
608.2980231543
 31
0.0
  0
LINE
  5
1FA
330
9D
100
AcDbEntity
  8
DV1_Default
  6
Continuous
 62
     7
100
AcDbLine
 10
195.3401740806
 20
608.5896559225
 30
0.0
 11
194.6901740806
 21
608.4924450009
 31
0.0
  0
LINE
  5
1FB
330
9D
100
AcDbEntity
  8
DV1_Default
  6
Continuous
 62
     7
100
AcDbLine
 10
195.9901740806
 20
608.4924449974
 30
0.0
 11
195.3401740806
 21
608.5896559225
 31
0.0
  0
LINE
  5
1FC
330
9D
100
AcDbEntity
  8
DV1_Default
  6
Continuous
 62
     7
100
AcDbLine
 10
195.9901740806
 20
608.2980231508
 30
0.0
 11
195.9901740806
 21
608.4924449974
 31
0.0
  0
LINE
  5
1FD
330
9D
100
AcDbEntity
  8
DV1_Default
  6
Continuous
 62
     7
100
AcDbLine
 10
195.3401740806
 20
608.2008122293
 30
0.0
 11
195.9901740806
 21
608.2980231508
 31
0.0
  0
LINE
  5
1FE
330
9D
100
AcDbEntity
  8
DV1_Default
  6
Continuous
 62
     7
100
AcDbLine
 10
195.1901740806
 20
607.4157199451
 30
0.0
 11
194.5401740806
 21
607.5129308701
 31
0.0
  0
LINE
  5
1FF
330
9D
100
AcDbEntity
  8
DV1_Default
  6
Continuous
 62
     7
100
AcDbLine
 10
195.1901740806
 20
607.2212980985
 30
0.0
 11
195.1901740806
 21
607.4157199451
 31
0.0
  0
LINE
  5
200
330
9D
100
AcDbEntity
  8
DV1_Default
  6
Continuous
 62
     7
100
AcDbLine
 10
194.5401740806
 20
607.1240871769
 30
0.0
 11
195.1901740806
 21
607.2212980985
 31
0.0
  0
LINE
  5
201
330
9D
100
AcDbEntity
  8
DV1_Default
  6
Continuous
 62
     7
100
AcDbLine
 10
193.8901740806
 20
607.221298102
 30
0.0
 11
194.5401740806
 21
607.1240871769
 31
0.0
  0
LINE
  5
202
330
9D
100
AcDbEntity
  8
DV1_Default
  6
Continuous
 62
     7
100
AcDbLine
 10
193.8901740806
 20
607.4157199486
 30
0.0
 11
193.8901740806
 21
607.221298102
 31
0.0
  0
LINE
  5
203
330
9D
100
AcDbEntity
  8
DV1_Default
  6
Continuous
 62
     7
100
AcDbLine
 10
194.5401740806
 20
607.5129308701
 30
0.0
 11
193.8901740806
 21
607.4157199486
 31
0.0
  0
LINE
  5
204
330
9D
100
AcDbEntity
  8
DV1_Default
  6
Continuous
 62
     7
100
AcDbLine
 10
194.6901740806
 20
607.5802307397
 30
0.0
 11
195.3401740806
 21
607.4830198146
 31
0.0
  0
LINE
  5
205
330
9D
100
AcDbEntity
  8
DV1_Default
  6
Continuous
 62
     7
100
AcDbLine
 10
194.6901740806
 20
607.7746525863
 30
0.0
 11
194.6901740806
 21
607.5802307397
 31
0.0
  0
LINE
  5
206
330
9D
100
AcDbEntity
  8
DV1_Default
  6
Continuous
 62
     7
100
AcDbLine
 10
195.3401740806
 20
607.8718635079
 30
0.0
 11
194.6901740806
 21
607.7746525863
 31
0.0
  0
LINE
  5
207
330
9D
100
AcDbEntity
  8
DV1_Default
  6
Continuous
 62
     7
100
AcDbLine
 10
195.9901740806
 20
607.7746525828
 30
0.0
 11
195.3401740806
 21
607.8718635079
 31
0.0
  0
LINE
  5
208
330
9D
100
AcDbEntity
  8
DV1_Default
  6
Continuous
 62
     7
100
AcDbLine
 10
195.9901740806
 20
607.5802307362
 30
0.0
 11
195.9901740806
 21
607.7746525828
 31
0.0
  0
LINE
  5
209
330
9D
100
AcDbEntity
  8
DV1_Default
  6
Continuous
 62
     7
100
AcDbLine
 10
195.3401740806
 20
607.4830198146
 30
0.0
 11
195.9901740806
 21
607.5802307362
 31
0.0
  0
LINE
  5
20A
330
9D
100
AcDbEntity
  8
DV1_Default
  6
Continuous
 62
     7
100
AcDbLine
 10
196.5075077462
 20
609.6113714244
 30
0.0
 11
196.1401740806
 21
609.6663081097
 31
0.0
  0
LINE
  5
20B
330
9D
100
AcDbEntity
  8
DV1_Default
  6
Continuous
 62
     7
100
AcDbLine
 10
196.7901740806
 20
609.374675338
 30
0.0
 11
196.7901740806
 21
609.5170766995
 31
0.0
  0
LINE
  5
20C
330
9D
100
AcDbEntity
  8
DV1_Default
  6
Continuous
 62
     7
100
AcDbLine
 10
196.1401740806
 20
609.2774644164
 30
0.0
 11
196.7901740806
 21
609.374675338
 31
0.0
  0
LINE
  5
20D
330
9D
100
AcDbEntity
  8
DV1_Default
  6
Continuous
 62
     7
100
AcDbLine
 10
195.4901740806
 20
609.3746753415
 30
0.0
 11
196.1401740806
 21
609.2774644164
 31
0.0
  0
LINE
  5
20E
330
9D
100
AcDbEntity
  8
DV1_Default
  6
Continuous
 62
     7
100
AcDbLine
 10
195.4901740806
 20
609.5690971881
 30
0.0
 11
195.4901740806
 21
609.3746753415
 31
0.0
  0
LINE
  5
20F
330
9D
100
AcDbEntity
  8
DV1_Default
  6
Continuous
 62
     7
100
AcDbLine
 10
196.1401740806
 20
609.6663081097
 30
0.0
 11
195.4901740806
 21
609.5690971881
 31
0.0
  0
LINE
  5
210
330
9D
100
AcDbEntity
  8
DV1_Default
  6
Continuous
 62
     7
100
AcDbLine
 10
196.7901740806
 20
608.85130477
 30
0.0
 11
196.1401740806
 21
608.948515695
 31
0.0
  0
LINE
  5
211
330
9D
100
AcDbEntity
  8
DV1_Default
  6
Continuous
 62
     7
100
AcDbLine
 10
196.7901740806
 20
608.6568829234
 30
0.0
 11
196.7901740806
 21
608.85130477
 31
0.0
  0
LINE
  5
212
330
9D
100
AcDbEntity
  8
DV1_Default
  6
Continuous
 62
     7
100
AcDbLine
 10
196.1401740806
 20
608.5596720018
 30
0.0
 11
196.7901740806
 21
608.6568829234
 31
0.0
  0
LINE
  5
213
330
9D
100
AcDbEntity
  8
DV1_Default
  6
Continuous
 62
     7
100
AcDbLine
 10
195.4901740806
 20
608.6568829269
 30
0.0
 11
196.1401740806
 21
608.5596720018
 31
0.0
  0
LINE
  5
214
330
9D
100
AcDbEntity
  8
DV1_Default
  6
Continuous
 62
     7
100
AcDbLine
 10
195.4901740806
 20
608.8513047735
 30
0.0
 11
195.4901740806
 21
608.6568829269
 31
0.0
  0
LINE
  5
215
330
9D
100
AcDbEntity
  8
DV1_Default
  6
Continuous
 62
     7
100
AcDbLine
 10
196.1401740806
 20
608.948515695
 30
0.0
 11
195.4901740806
 21
608.8513047735
 31
0.0
  0
LINE
  5
216
330
9D
100
AcDbEntity
  8
DV1_Default
  6
Continuous
 62
     7
100
AcDbLine
 10
196.2901740806
 20
609.0158155646
 30
0.0
 11
196.9401740806
 21
608.9186046395
 31
0.0
  0
LINE
  5
217
330
9D
100
AcDbEntity
  8
DV1_Default
  6
Continuous
 62
     7
100
AcDbLine
 10
196.2901740806
 20
609.2102374112
 30
0.0
 11
196.2901740806
 21
609.0158155646
 31
0.0
  0
LINE
  5
218
330
9D
100
AcDbEntity
  8
DV1_Default
  6
Continuous
 62
     7
100
AcDbLine
 10
196.9401740806
 20
609.3074483328
 30
0.0
 11
196.2901740806
 21
609.2102374112
 31
0.0
  0
LINE
  5
219
330
9D
100
AcDbEntity
  8
DV1_Default
  6
Continuous
 62
     7
100
AcDbLine
 10
197.4947928252
 20
609.224502177
 30
0.0
 11
196.9401740806
 21
609.3074483328
 31
0.0
  0
LINE
  5
21A
330
9D
100
AcDbEntity
  8
DV1_Default
  6
Continuous
 62
     7
100
AcDbLine
 10
197.5901740806
 20
609.0158155611
 30
0.0
 11
197.5901740806
 21
609.1758121784
 31
0.0
  0
LINE
  5
21B
330
9D
100
AcDbEntity
  8
DV1_Default
  6
Continuous
 62
     7
100
AcDbLine
 10
196.9401740806
 20
608.9186046395
 30
0.0
 11
197.5901740806
 21
609.0158155611
 31
0.0
  0
LINE
  5
21C
330
9D
100
AcDbEntity
  8
DV1_Default
  6
Continuous
 62
     7
100
AcDbLine
 10
196.7901740806
 20
608.1335123553
 30
0.0
 11
196.1401740806
 21
608.2307232804
 31
0.0
  0
LINE
  5
21D
330
9D
100
AcDbEntity
  8
DV1_Default
  6
Continuous
 62
     7
100
AcDbLine
 10
196.7901740806
 20
607.9390905087
 30
0.0
 11
196.7901740806
 21
608.1335123553
 31
0.0
  0
LINE
  5
21E
330
9D
100
AcDbEntity
  8
DV1_Default
  6
Continuous
 62
     7
100
AcDbLine
 10
196.1401740806
 20
607.8418795872
 30
0.0
 11
196.7901740806
 21
607.9390905087
 31
0.0
  0
LINE
  5
21F
330
9D
100
AcDbEntity
  8
DV1_Default
  6
Continuous
 62
     7
100
AcDbLine
 10
195.4901740806
 20
607.9390905123
 30
0.0
 11
196.1401740806
 21
607.8418795872
 31
0.0
  0
LINE
  5
220
330
9D
100
AcDbEntity
  8
DV1_Default
  6
Continuous
 62
     7
100
AcDbLine
 10
195.4901740806
 20
608.1335123589
 30
0.0
 11
195.4901740806
 21
607.9390905123
 31
0.0
  0
LINE
  5
221
330
9D
100
AcDbEntity
  8
DV1_Default
  6
Continuous
 62
     7
100
AcDbLine
 10
196.1401740806
 20
608.2307232804
 30
0.0
 11
195.4901740806
 21
608.1335123589
 31
0.0
  0
LINE
  5
222
330
9D
100
AcDbEntity
  8
DV1_Default
  6
Continuous
 62
     7
100
AcDbLine
 10
196.2901740806
 20
608.29802315
 30
0.0
 11
196.9401740806
 21
608.2008122249
 31
0.0
  0
LINE
  5
223
330
9D
100
AcDbEntity
  8
DV1_Default
  6
Continuous
 62
     7
100
AcDbLine
 10
196.2901740806
 20
608.4924449966
 30
0.0
 11
196.2901740806
 21
608.29802315
 31
0.0
  0
LINE
  5
224
330
9D
100
AcDbEntity
  8
DV1_Default
  6
Continuous
 62
     7
100
AcDbLine
 10
196.9401740806
 20
608.5896559181
 30
0.0
 11
196.2901740806
 21
608.4924449966
 31
0.0
  0
LINE
  5
225
330
9D
100
AcDbEntity
  8
DV1_Default
  6
Continuous
 62
     7
100
AcDbLine
 10
197.5901740806
 20
608.4924449931
 30
0.0
 11
196.9401740806
 21
608.5896559181
 31
0.0
  0
LINE
  5
226
330
9D
100
AcDbEntity
  8
DV1_Default
  6
Continuous
 62
     7
100
AcDbLine
 10
197.5901740806
 20
608.2980231464
 30
0.0
 11
197.5901740806
 21
608.4924449931
 31
0.0
  0
LINE
  5
227
330
9D
100
AcDbEntity
  8
DV1_Default
  6
Continuous
 62
     7
100
AcDbLine
 10
196.9401740806
 20
608.2008122249
 30
0.0
 11
197.5901740806
 21
608.2980231464
 31
0.0
  0
LINE
  5
228
330
9D
100
AcDbEntity
  8
DV1_Default
  6
Continuous
 62
     7
100
AcDbLine
 10
198.021469607
 20
608.9064464624
 30
0.0
 11
197.7401740806
 21
608.9485156907
 31
0.0
  0
LINE
  5
229
330
9D
100
AcDbEntity
  8
DV1_Default
  6
Continuous
 62
     7
100
AcDbLine
 10
197.7401740806
 20
608.5596719975
 30
0.0
 11
198.3008462312
 21
608.6435234689
 31
0.0
  0
LINE
  5
22A
330
9D
100
AcDbEntity
  8
DV1_Default
  6
Continuous
 62
     7
100
AcDbLine
 10
197.0901740806
 20
608.6568829225
 30
0.0
 11
197.7401740806
 21
608.5596719975
 31
0.0
  0
LINE
  5
22B
330
9D
100
AcDbEntity
  8
DV1_Default
  6
Continuous
 62
     7
100
AcDbLine
 10
197.0901740806
 20
608.8513047691
 30
0.0
 11
197.0901740806
 21
608.6568829225
 31
0.0
  0
LINE
  5
22C
330
9D
100
AcDbEntity
  8
DV1_Default
  6
Continuous
 62
     7
100
AcDbLine
 10
197.7401740806
 20
608.9485156907
 30
0.0
 11
197.0901740806
 21
608.8513047691
 31
0.0
  0
LINE
  5
22D
330
9D
100
AcDbEntity
  8
DV1_Default
  6
Continuous
 62
     7
100
AcDbLine
 10
189.5166909465
 20
610.4404106226
 30
0.0
 11
188.9401740806
 21
610.3541894906
 31
0.0
  0
LINE
  5
22E
330
9D
100
AcDbEntity
  8
DV1_Default
  6
Continuous
 62
     7
100
AcDbLine
 10
188.9401740806
 20
610.3541894906
 30
0.0
 11
188.5093911494
 21
610.4186153478
 31
0.0
  0
LINE
  5
22F
330
9D
100
AcDbEntity
  8
DV1_Default
  6
Continuous
 62
     7
100
AcDbLine
 10
189.5901740806
 20
609.7336079975
 30
0.0
 11
188.9401740806
 21
609.6363970759
 31
0.0
  0
LINE
  5
230
330
9D
100
AcDbEntity
  8
DV1_Default
  6
Continuous
 62
     7
100
AcDbLine
 10
188.9401740806
 20
609.6363970759
 30
0.0
 11
188.2901740806
 21
609.733608001
 31
0.0
  0
LINE
  5
231
330
9D
100
AcDbEntity
  8
DV1_Default
  6
Continuous
 62
     7
100
AcDbLine
 10
188.2901740806
 20
609.733608001
 30
0.0
 11
188.2901740806
 21
609.9280298476
 31
0.0
  0
LINE
  5
232
330
9D
100
AcDbEntity
  8
DV1_Default
  6
Continuous
 62
     7
100
AcDbLine
 10
188.2901740806
 20
609.9280298476
 30
0.0
 11
188.9401740806
 21
610.0252407692
 31
0.0
  0
LINE
  5
233
330
9D
100
AcDbEntity
  8
DV1_Default
  6
Continuous
 62
     7
100
AcDbLine
 10
188.9401740806
 20
610.0252407692
 30
0.0
 11
189.5901740806
 21
609.9280298441
 31
0.0
  0
LINE
  5
234
330
9D
100
AcDbEntity
  8
DV1_Default
  6
Continuous
 62
     7
100
AcDbLine
 10
189.5901740806
 20
609.9280298441
 30
0.0
 11
189.5901740806
 21
609.7336079975
 31
0.0
  0
LINE
  5
235
330
9D
100
AcDbEntity
  8
DV1_Default
  6
Continuous
 62
     7
100
AcDbLine
 10
189.5901740806
 20
609.0158155828
 30
0.0
 11
188.9401740806
 21
608.9186046613
 31
0.0
  0
LINE
  5
236
330
9D
100
AcDbEntity
  8
DV1_Default
  6
Continuous
 62
     7
100
AcDbLine
 10
188.9401740806
 20
608.9186046613
 30
0.0
 11
188.2901740806
 21
609.0158155864
 31
0.0
  0
LINE
  5
237
330
9D
100
AcDbEntity
  8
DV1_Default
  6
Continuous
 62
     7
100
AcDbLine
 10
188.2901740806
 20
609.0158155864
 30
0.0
 11
188.2901740806
 21
609.210237433
 31
0.0
  0
LINE
  5
238
330
9D
100
AcDbEntity
  8
DV1_Default
  6
Continuous
 62
     7
100
AcDbLine
 10
188.2901740806
 20
609.210237433
 30
0.0
 11
188.9401740806
 21
609.3074483545
 31
0.0
  0
LINE
  5
239
330
9D
100
AcDbEntity
  8
DV1_Default
  6
Continuous
 62
     7
100
AcDbLine
 10
188.9401740806
 20
609.3074483545
 30
0.0
 11
189.5901740806
 21
609.2102374295
 31
0.0
  0
LINE
  5
23A
330
9D
100
AcDbEntity
  8
DV1_Default
  6
Continuous
 62
     7
100
AcDbLine
 10
189.5901740806
 20
609.2102374295
 30
0.0
 11
189.5901740806
 21
609.0158155828
 31
0.0
  0
LINE
  5
23B
330
9D
100
AcDbEntity
  8
DV1_Default
  6
Continuous
 62
     7
100
AcDbLine
 10
189.5901740806
 20
608.2980231682
 30
0.0
 11
188.9401740806
 21
608.2008122467
 31
0.0
  0
LINE
  5
23C
330
9D
100
AcDbEntity
  8
DV1_Default
  6
Continuous
 62
     7
100
AcDbLine
 10
188.9401740806
 20
608.2008122467
 30
0.0
 11
188.2901740806
 21
608.2980231718
 31
0.0
  0
LINE
  5
23D
330
9D
100
AcDbEntity
  8
DV1_Default
  6
Continuous
 62
     7
100
AcDbLine
 10
188.2901740806
 20
608.2980231718
 30
0.0
 11
188.2901740806
 21
608.4924450184
 31
0.0
  0
LINE
  5
23E
330
9D
100
AcDbEntity
  8
DV1_Default
  6
Continuous
 62
     7
100
AcDbLine
 10
188.2901740806
 20
608.4924450184
 30
0.0
 11
188.9401740806
 21
608.5896559399
 31
0.0
  0
LINE
  5
23F
330
9D
100
AcDbEntity
  8
DV1_Default
  6
Continuous
 62
     7
100
AcDbLine
 10
188.9401740806
 20
608.5896559399
 30
0.0
 11
189.5901740806
 21
608.4924450148
 31
0.0
  0
LINE
  5
240
330
9D
100
AcDbEntity
  8
DV1_Default
  6
Continuous
 62
     7
100
AcDbLine
 10
189.5901740806
 20
608.4924450148
 30
0.0
 11
189.5901740806
 21
608.2980231682
 31
0.0
  0
LINE
  5
241
330
9D
100
AcDbEntity
  8
DV1_Default
  6
Continuous
 62
     7
100
AcDbLine
 10
189.5901740806
 20
607.5802307536
 30
0.0
 11
188.9401740806
 21
607.4830198321
 31
0.0
  0
LINE
  5
242
330
9D
100
AcDbEntity
  8
DV1_Default
  6
Continuous
 62
     7
100
AcDbLine
 10
188.9401740806
 20
607.4830198321
 30
0.0
 11
188.2901740806
 21
607.5802307571
 31
0.0
  0
LINE
  5
243
330
9D
100
AcDbEntity
  8
DV1_Default
  6
Continuous
 62
     7
100
AcDbLine
 10
188.2901740806
 20
607.5802307571
 30
0.0
 11
188.2901740806
 21
607.7746526037
 31
0.0
  0
LINE
  5
244
330
9D
100
AcDbEntity
  8
DV1_Default
  6
Continuous
 62
     7
100
AcDbLine
 10
188.2901740806
 20
607.7746526037
 30
0.0
 11
188.9401740806
 21
607.8718635253
 31
0.0
  0
LINE
  5
245
330
9D
100
AcDbEntity
  8
DV1_Default
  6
Continuous
 62
     7
100
AcDbLine
 10
188.9401740806
 20
607.8718635253
 30
0.0
 11
189.5901740806
 21
607.7746526002
 31
0.0
  0
LINE
  5
246
330
9D
100
AcDbEntity
  8
DV1_Default
  6
Continuous
 62
     7
100
AcDbLine
 10
189.5901740806
 20
607.7746526002
 30
0.0
 11
189.5901740806
 21
607.5802307536
 31
0.0
  0
LINE
  5
247
330
9D
100
AcDbEntity
  8
DV1_Default
  6
Continuous
 62
     7
100
AcDbLine
 10
189.5901740806
 20
606.862438339
 30
0.0
 11
188.9401740806
 21
606.7652274174
 31
0.0
  0
LINE
  5
248
330
9D
100
AcDbEntity
  8
DV1_Default
  6
Continuous
 62
     7
100
AcDbLine
 10
188.9401740806
 20
606.7652274174
 30
0.0
 11
188.2901740806
 21
606.8624383425
 31
0.0
  0
LINE
  5
249
330
9D
100
AcDbEntity
  8
DV1_Default
  6
Continuous
 62
     7
100
AcDbLine
 10
188.2901740806
 20
606.8624383425
 30
0.0
 11
188.2901740806
 21
607.0568601891
 31
0.0
  0
LINE
  5
24A
330
9D
100
AcDbEntity
  8
DV1_Default
  6
Continuous
 62
     7
100
AcDbLine
 10
188.2901740806
 20
607.0568601891
 30
0.0
 11
188.9401740806
 21
607.1540711106
 31
0.0
  0
LINE
  5
24B
330
9D
100
AcDbEntity
  8
DV1_Default
  6
Continuous
 62
     7
100
AcDbLine
 10
188.9401740806
 20
607.1540711106
 30
0.0
 11
189.5901740806
 21
607.0568601856
 31
0.0
  0
LINE
  5
24C
330
9D
100
AcDbEntity
  8
DV1_Default
  6
Continuous
 62
     7
100
AcDbLine
 10
189.5901740806
 20
607.0568601856
 30
0.0
 11
189.5901740806
 21
606.862438339
 31
0.0
  0
LINE
  5
24D
330
9D
100
AcDbEntity
  8
DV1_Default
  6
Continuous
 62
     7
100
AcDbLine
 10
187.4901740806
 20
610.2868896245
 30
0.0
 11
188.1401740806
 21
610.3841005461
 31
0.0
  0
LINE
  5
24E
330
9D
100
AcDbEntity
  8
DV1_Default
  6
Continuous
 62
     7
100
AcDbLine
 10
188.1401740806
 20
610.3841005461
 30
0.0
 11
188.7901740806
 21
610.286889621
 31
0.0
  0
LINE
  5
24F
330
9D
100
AcDbEntity
  8
DV1_Default
  6
Continuous
 62
     7
100
AcDbLine
 10
188.7901740806
 20
610.286889621
 30
0.0
 11
188.7901740806
 21
610.0924677744
 31
0.0
  0
LINE
  5
250
330
9D
100
AcDbEntity
  8
DV1_Default
  6
Continuous
 62
     7
100
AcDbLine
 10
188.7901740806
 20
610.0924677744
 30
0.0
 11
188.1401740806
 21
609.9952568528
 31
0.0
  0
LINE
  5
251
330
9D
100
AcDbEntity
  8
DV1_Default
  6
Continuous
 62
     7
100
AcDbLine
 10
188.1401740806
 20
609.9952568528
 30
0.0
 11
187.4901740806
 21
610.0924677779
 31
0.0
  0
LINE
  5
252
330
9D
100
AcDbEntity
  8
DV1_Default
  6
Continuous
 62
     7
100
AcDbLine
 10
187.4901740806
 20
610.0924677779
 30
0.0
 11
187.4901740806
 21
610.2868896245
 31
0.0
  0
LINE
  5
253
330
9D
100
AcDbEntity
  8
DV1_Default
  6
Continuous
 62
     7
100
AcDbLine
 10
187.3406148079
 20
610.354255408
 30
0.0
 11
187.3401740806
 21
610.3541894949
 31
0.0
  0
LINE
  5
254
330
9D
100
AcDbEntity
  8
DV1_Default
  6
Continuous
 62
     7
100
AcDbLine
 10
187.3401740806
 20
610.3541894949
 30
0.0
 11
187.340024808
 21
610.3542118194
 31
0.0
  0
LINE
  5
255
330
9D
100
AcDbEntity
  8
DV1_Default
  6
Continuous
 62
     7
100
AcDbLine
 10
187.4901740806
 20
609.5690972099
 30
0.0
 11
188.1401740806
 21
609.6663081314
 31
0.0
  0
LINE
  5
256
330
9D
100
AcDbEntity
  8
DV1_Default
  6
Continuous
 62
     7
100
AcDbLine
 10
188.1401740806
 20
609.6663081314
 30
0.0
 11
188.7901740806
 21
609.5690972064
 31
0.0
  0
LINE
  5
257
330
9D
100
AcDbEntity
  8
DV1_Default
  6
Continuous
 62
     7
100
AcDbLine
 10
188.7901740806
 20
609.5690972064
 30
0.0
 11
188.7901740806
 21
609.3746753598
 31
0.0
  0
LINE
  5
258
330
9D
100
AcDbEntity
  8
DV1_Default
  6
Continuous
 62
     7
100
AcDbLine
 10
188.7901740806
 20
609.3746753598
 30
0.0
 11
188.1401740806
 21
609.2774644382
 31
0.0
  0
LINE
  5
259
330
9D
100
AcDbEntity
  8
DV1_Default
  6
Continuous
 62
     7
100
AcDbLine
 10
188.1401740806
 20
609.2774644382
 30
0.0
 11
187.4901740806
 21
609.3746753633
 31
0.0
  0
LINE
  5
25A
330
9D
100
AcDbEntity
  8
DV1_Default
  6
Continuous
 62
     7
100
AcDbLine
 10
187.4901740806
 20
609.3746753633
 30
0.0
 11
187.4901740806
 21
609.5690972099
 31
0.0
  0
LINE
  5
25B
330
9D
100
AcDbEntity
  8
DV1_Default
  6
Continuous
 62
     7
100
AcDbLine
 10
187.9901740806
 20
609.7336080018
 30
0.0
 11
187.3401740806
 21
609.6363970803
 31
0.0
  0
LINE
  5
25C
330
9D
100
AcDbEntity
  8
DV1_Default
  6
Continuous
 62
     7
100
AcDbLine
 10
187.3401740806
 20
609.6363970803
 30
0.0
 11
186.6901740806
 21
609.7336080054
 31
0.0
  0
LINE
  5
25D
330
9D
100
AcDbEntity
  8
DV1_Default
  6
Continuous
 62
     7
100
AcDbLine
 10
186.6901740806
 20
609.7336080054
 30
0.0
 11
186.6901740806
 21
609.928029852
 31
0.0
  0
LINE
  5
25E
330
9D
100
AcDbEntity
  8
DV1_Default
  6
Continuous
 62
     7
100
AcDbLine
 10
186.6901740806
 20
609.928029852
 30
0.0
 11
187.3401740806
 21
610.0252407735
 31
0.0
  0
LINE
  5
25F
330
9D
100
AcDbEntity
  8
DV1_Default
  6
Continuous
 62
     7
100
AcDbLine
 10
187.3401740806
 20
610.0252407735
 30
0.0
 11
187.9901740806
 21
609.9280298484
 31
0.0
  0
LINE
  5
260
330
9D
100
AcDbEntity
  8
DV1_Default
  6
Continuous
 62
     7
100
AcDbLine
 10
187.9901740806
 20
609.9280298484
 30
0.0
 11
187.9901740806
 21
609.7336080018
 31
0.0
  0
LINE
  5
261
330
9D
100
AcDbEntity
  8
DV1_Default
  6
Continuous
 62
     7
100
AcDbLine
 10
187.4901740806
 20
608.8513047953
 30
0.0
 11
188.1401740806
 21
608.9485157168
 31
0.0
  0
LINE
  5
262
330
9D
100
AcDbEntity
  8
DV1_Default
  6
Continuous
 62
     7
100
AcDbLine
 10
188.1401740806
 20
608.9485157168
 30
0.0
 11
188.7901740806
 21
608.8513047917
 31
0.0
  0
LINE
  5
263
330
9D
100
AcDbEntity
  8
DV1_Default
  6
Continuous
 62
     7
100
AcDbLine
 10
188.7901740806
 20
608.8513047917
 30
0.0
 11
188.7901740806
 21
608.6568829451
 31
0.0
  0
LINE
  5
264
330
9D
100
AcDbEntity
  8
DV1_Default
  6
Continuous
 62
     7
100
AcDbLine
 10
188.7901740806
 20
608.6568829451
 30
0.0
 11
188.1401740806
 21
608.5596720236
 31
0.0
  0
LINE
  5
265
330
9D
100
AcDbEntity
  8
DV1_Default
  6
Continuous
 62
     7
100
AcDbLine
 10
188.1401740806
 20
608.5596720236
 30
0.0
 11
187.4901740806
 21
608.6568829487
 31
0.0
  0
LINE
  5
266
330
9D
100
AcDbEntity
  8
DV1_Default
  6
Continuous
 62
     7
100
AcDbLine
 10
187.4901740806
 20
608.6568829487
 30
0.0
 11
187.4901740806
 21
608.8513047953
 31
0.0
  0
LINE
  5
267
330
9D
100
AcDbEntity
  8
DV1_Default
  6
Continuous
 62
     7
100
AcDbLine
 10
187.9901740806
 20
609.0158155872
 30
0.0
 11
187.3401740806
 21
608.9186046657
 31
0.0
  0
LINE
  5
268
330
9D
100
AcDbEntity
  8
DV1_Default
  6
Continuous
 62
     7
100
AcDbLine
 10
187.3401740806
 20
608.9186046657
 30
0.0
 11
186.6901740806
 21
609.0158155907
 31
0.0
  0
LINE
  5
269
330
9D
100
AcDbEntity
  8
DV1_Default
  6
Continuous
 62
     7
100
AcDbLine
 10
186.6901740806
 20
609.0158155907
 30
0.0
 11
186.6901740806
 21
609.2102374373
 31
0.0
  0
LINE
  5
26A
330
9D
100
AcDbEntity
  8
DV1_Default
  6
Continuous
 62
     7
100
AcDbLine
 10
186.6901740806
 20
609.2102374373
 30
0.0
 11
187.3401740806
 21
609.3074483589
 31
0.0
  0
LINE
  5
26B
330
9D
100
AcDbEntity
  8
DV1_Default
  6
Continuous
 62
     7
100
AcDbLine
 10
187.3401740806
 20
609.3074483589
 30
0.0
 11
187.9901740806
 21
609.2102374338
 31
0.0
  0
LINE
  5
26C
330
9D
100
AcDbEntity
  8
DV1_Default
  6
Continuous
 62
     7
100
AcDbLine
 10
187.9901740806
 20
609.2102374338
 30
0.0
 11
187.9901740806
 21
609.0158155872
 31
0.0
  0
LINE
  5
26D
330
9D
100
AcDbEntity
  8
DV1_Default
  6
Continuous
 62
     7
100
AcDbLine
 10
187.4901740806
 20
608.1335123806
 30
0.0
 11
188.1401740806
 21
608.2307233022
 31
0.0
  0
LINE
  5
26E
330
9D
100
AcDbEntity
  8
DV1_Default
  6
Continuous
 62
     7
100
AcDbLine
 10
188.1401740806
 20
608.2307233022
 30
0.0
 11
188.7901740806
 21
608.1335123771
 31
0.0
  0
LINE
  5
26F
330
9D
100
AcDbEntity
  8
DV1_Default
  6
Continuous
 62
     7
100
AcDbLine
 10
188.7901740806
 20
608.1335123771
 30
0.0
 11
188.7901740806
 21
607.9390905305
 31
0.0
  0
LINE
  5
270
330
9D
100
AcDbEntity
  8
DV1_Default
  6
Continuous
 62
     7
100
AcDbLine
 10
188.7901740806
 20
607.9390905305
 30
0.0
 11
188.1401740806
 21
607.841879609
 31
0.0
  0
LINE
  5
271
330
9D
100
AcDbEntity
  8
DV1_Default
  6
Continuous
 62
     7
100
AcDbLine
 10
188.1401740806
 20
607.841879609
 30
0.0
 11
187.4901740806
 21
607.939090534
 31
0.0
  0
LINE
  5
272
330
9D
100
AcDbEntity
  8
DV1_Default
  6
Continuous
 62
     7
100
AcDbLine
 10
187.4901740806
 20
607.939090534
 30
0.0
 11
187.4901740806
 21
608.1335123806
 31
0.0
  0
LINE
  5
273
330
9D
100
AcDbEntity
  8
DV1_Default
  6
Continuous
 62
     7
100
AcDbLine
 10
187.9901740806
 20
608.2980231726
 30
0.0
 11
187.3401740806
 21
608.200812251
 31
0.0
  0
LINE
  5
274
330
9D
100
AcDbEntity
  8
DV1_Default
  6
Continuous
 62
     7
100
AcDbLine
 10
187.3401740806
 20
608.200812251
 30
0.0
 11
186.6901740806
 21
608.2980231761
 31
0.0
  0
LINE
  5
275
330
9D
100
AcDbEntity
  8
DV1_Default
  6
Continuous
 62
     7
100
AcDbLine
 10
186.6901740806
 20
608.2980231761
 30
0.0
 11
186.6901740806
 21
608.4924450227
 31
0.0
  0
LINE
  5
276
330
9D
100
AcDbEntity
  8
DV1_Default
  6
Continuous
 62
     7
100
AcDbLine
 10
186.6901740806
 20
608.4924450227
 30
0.0
 11
187.3401740806
 21
608.5896559443
 31
0.0
  0
LINE
  5
277
330
9D
100
AcDbEntity
  8
DV1_Default
  6
Continuous
 62
     7
100
AcDbLine
 10
187.3401740806
 20
608.5896559443
 30
0.0
 11
187.9901740806
 21
608.4924450192
 31
0.0
  0
LINE
  5
278
330
9D
100
AcDbEntity
  8
DV1_Default
  6
Continuous
 62
     7
100
AcDbLine
 10
187.9901740806
 20
608.4924450192
 30
0.0
 11
187.9901740806
 21
608.2980231726
 31
0.0
  0
LINE
  5
279
330
9D
100
AcDbEntity
  8
DV1_Default
  6
Continuous
 62
     7
100
AcDbLine
 10
187.4901740806
 20
607.415719966
 30
0.0
 11
188.1401740806
 21
607.5129308876
 31
0.0
  0
LINE
  5
27A
330
9D
100
AcDbEntity
  8
DV1_Default
  6
Continuous
 62
     7
100
AcDbLine
 10
188.1401740806
 20
607.5129308876
 30
0.0
 11
188.7901740806
 21
607.4157199625
 31
0.0
  0
LINE
  5
27B
330
9D
100
AcDbEntity
  8
DV1_Default
  6
Continuous
 62
     7
100
AcDbLine
 10
188.7901740806
 20
607.4157199625
 30
0.0
 11
188.7901740806
 21
607.2212981159
 31
0.0
  0
LINE
  5
27C
330
9D
100
AcDbEntity
  8
DV1_Default
  6
Continuous
 62
     7
100
AcDbLine
 10
188.7901740806
 20
607.2212981159
 30
0.0
 11
188.1401740806
 21
607.1240871943
 31
0.0
  0
LINE
  5
27D
330
9D
100
AcDbEntity
  8
DV1_Default
  6
Continuous
 62
     7
100
AcDbLine
 10
188.1401740806
 20
607.1240871943
 30
0.0
 11
187.4901740806
 21
607.2212981194
 31
0.0
  0
LINE
  5
27E
330
9D
100
AcDbEntity
  8
DV1_Default
  6
Continuous
 62
     7
100
AcDbLine
 10
187.4901740806
 20
607.2212981194
 30
0.0
 11
187.4901740806
 21
607.415719966
 31
0.0
  0
LINE
  5
27F
330
9D
100
AcDbEntity
  8
DV1_Default
  6
Continuous
 62
     7
100
AcDbLine
 10
187.9901740806
 20
607.5802307579
 30
0.0
 11
187.3401740806
 21
607.4830198364
 31
0.0
  0
LINE
  5
280
330
9D
100
AcDbEntity
  8
DV1_Default
  6
Continuous
 62
     7
100
AcDbLine
 10
187.3401740806
 20
607.4830198364
 30
0.0
 11
186.6901740806
 21
607.5802307615
 31
0.0
  0
LINE
  5
281
330
9D
100
AcDbEntity
  8
DV1_Default
  6
Continuous
 62
     7
100
AcDbLine
 10
186.6901740806
 20
607.5802307615
 30
0.0
 11
186.6901740806
 21
607.7746526081
 31
0.0
  0
LINE
  5
282
330
9D
100
AcDbEntity
  8
DV1_Default
  6
Continuous
 62
     7
100
AcDbLine
 10
186.6901740806
 20
607.7746526081
 30
0.0
 11
187.3401740806
 21
607.8718635296
 31
0.0
  0
LINE
  5
283
330
9D
100
AcDbEntity
  8
DV1_Default
  6
Continuous
 62
     7
100
AcDbLine
 10
187.3401740806
 20
607.8718635296
 30
0.0
 11
187.9901740806
 21
607.7746526046
 31
0.0
  0
LINE
  5
284
330
9D
100
AcDbEntity
  8
DV1_Default
  6
Continuous
 62
     7
100
AcDbLine
 10
187.9901740806
 20
607.7746526046
 30
0.0
 11
187.9901740806
 21
607.5802307579
 31
0.0
  0
LINE
  5
285
330
9D
100
AcDbEntity
  8
DV1_Default
  6
Continuous
 62
     7
100
AcDbLine
 10
187.9901740806
 20
606.8624383433
 30
0.0
 11
187.3401740806
 21
606.7652274218
 31
0.0
  0
LINE
  5
286
330
9D
100
AcDbEntity
  8
DV1_Default
  6
Continuous
 62
     7
100
AcDbLine
 10
187.3401740806
 20
606.7652274218
 30
0.0
 11
186.6901740806
 21
606.8624383469
 31
0.0
  0
LINE
  5
287
330
9D
100
AcDbEntity
  8
DV1_Default
  6
Continuous
 62
     7
100
AcDbLine
 10
186.6901740806
 20
606.8624383469
 30
0.0
 11
186.6901740806
 21
607.0568601935
 31
0.0
  0
LINE
  5
288
330
9D
100
AcDbEntity
  8
DV1_Default
  6
Continuous
 62
     7
100
AcDbLine
 10
186.6901740806
 20
607.0568601935
 30
0.0
 11
187.3401740806
 21
607.154071115
 31
0.0
  0
LINE
  5
289
330
9D
100
AcDbEntity
  8
DV1_Default
  6
Continuous
 62
     7
100
AcDbLine
 10
187.3401740806
 20
607.154071115
 30
0.0
 11
187.9901740806
 21
607.0568601899
 31
0.0
  0
LINE
  5
28A
330
9D
100
AcDbEntity
  8
DV1_Default
  6
Continuous
 62
     7
100
AcDbLine
 10
187.9901740806
 20
607.0568601899
 30
0.0
 11
187.9901740806
 21
606.8624383433
 31
0.0
  0
LINE
  5
28B
330
9D
100
AcDbEntity
  8
DV1_Default
  6
Continuous
 62
     7
100
AcDbLine
 10
186.949928336
 20
610.3228196423
 30
0.0
 11
187.1901740806
 21
610.2868896253
 31
0.0
  0
LINE
  5
28C
330
9D
100
AcDbEntity
  8
DV1_Default
  6
Continuous
 62
     7
100
AcDbLine
 10
187.1901740806
 20
610.2868896253
 30
0.0
 11
187.1901740806
 21
610.0924677787
 31
0.0
  0
LINE
  5
28D
330
9D
100
AcDbEntity
  8
DV1_Default
  6
Continuous
 62
     7
100
AcDbLine
 10
187.1901740806
 20
610.0924677787
 30
0.0
 11
186.5401740806
 21
609.9952568572
 31
0.0
  0
LINE
  5
28E
330
9D
100
AcDbEntity
  8
DV1_Default
  6
Continuous
 62
     7
100
AcDbLine
 10
186.5401740806
 20
609.9952568572
 30
0.0
 11
185.8901740806
 21
610.0924677823
 31
0.0
  0
LINE
  5
28F
330
9D
100
AcDbEntity
  8
DV1_Default
  6
Continuous
 62
     7
100
AcDbLine
 10
185.8901740806
 20
610.0924677823
 30
0.0
 11
185.8901740806
 21
610.209954185
 31
0.0
  0
LINE
  5
290
330
9D
100
AcDbEntity
  8
DV1_Default
  6
Continuous
 62
     7
100
AcDbLine
 10
185.8901740806
 20
609.5690972143
 30
0.0
 11
186.5401740806
 21
609.6663081358
 31
0.0
  0
LINE
  5
291
330
9D
100
AcDbEntity
  8
DV1_Default
  6
Continuous
 62
     7
100
AcDbLine
 10
186.5401740806
 20
609.6663081358
 30
0.0
 11
187.1901740806
 21
609.5690972107
 31
0.0
  0
LINE
  5
292
330
9D
100
AcDbEntity
  8
DV1_Default
  6
Continuous
 62
     7
100
AcDbLine
 10
187.1901740806
 20
609.5690972107
 30
0.0
 11
187.1901740806
 21
609.3746753641
 31
0.0
  0
LINE
  5
293
330
9D
100
AcDbEntity
  8
DV1_Default
  6
Continuous
 62
     7
100
AcDbLine
 10
187.1901740806
 20
609.3746753641
 30
0.0
 11
186.5401740806
 21
609.2774644426
 31
0.0
  0
LINE
  5
294
330
9D
100
AcDbEntity
  8
DV1_Default
  6
Continuous
 62
     7
100
AcDbLine
 10
186.5401740806
 20
609.2774644426
 30
0.0
 11
185.8901740806
 21
609.3746753676
 31
0.0
  0
LINE
  5
295
330
9D
100
AcDbEntity
  8
DV1_Default
  6
Continuous
 62
     7
100
AcDbLine
 10
185.8901740806
 20
609.3746753676
 30
0.0
 11
185.8901740806
 21
609.5690972143
 31
0.0
  0
LINE
  5
296
330
9D
100
AcDbEntity
  8
DV1_Default
  6
Continuous
 62
     7
100
AcDbLine
 10
185.8901740806
 20
608.8513047996
 30
0.0
 11
186.5401740806
 21
608.9485157212
 31
0.0
  0
LINE
  5
297
330
9D
100
AcDbEntity
  8
DV1_Default
  6
Continuous
 62
     7
100
AcDbLine
 10
186.5401740806
 20
608.9485157212
 30
0.0
 11
187.1901740806
 21
608.8513047961
 31
0.0
  0
LINE
  5
298
330
9D
100
AcDbEntity
  8
DV1_Default
  6
Continuous
 62
     7
100
AcDbLine
 10
187.1901740806
 20
608.8513047961
 30
0.0
 11
187.1901740806
 21
608.6568829495
 31
0.0
  0
LINE
  5
299
330
9D
100
AcDbEntity
  8
DV1_Default
  6
Continuous
 62
     7
100
AcDbLine
 10
187.1901740806
 20
608.6568829495
 30
0.0
 11
186.5401740806
 21
608.5596720279
 31
0.0
  0
LINE
  5
29A
330
9D
100
AcDbEntity
  8
DV1_Default
  6
Continuous
 62
     7
100
AcDbLine
 10
186.5401740806
 20
608.5596720279
 30
0.0
 11
185.8901740806
 21
608.656882953
 31
0.0
  0
LINE
  5
29B
330
9D
100
AcDbEntity
  8
DV1_Default
  6
Continuous
 62
     7
100
AcDbLine
 10
185.8901740806
 20
608.656882953
 30
0.0
 11
185.8901740806
 21
608.8513047996
 31
0.0
  0
LINE
  5
29C
330
9D
100
AcDbEntity
  8
DV1_Default
  6
Continuous
 62
     7
100
AcDbLine
 10
186.3901740806
 20
609.0158155916
 30
0.0
 11
185.7401740806
 21
608.91860467
 31
0.0
  0
LINE
  5
29D
330
9D
100
AcDbEntity
  8
DV1_Default
  6
Continuous
 62
     7
100
AcDbLine
 10
185.7401740806
 20
608.91860467
 30
0.0
 11
185.0901740806
 21
609.0158155951
 31
0.0
  0
LINE
  5
29E
330
9D
100
AcDbEntity
  8
DV1_Default
  6
Continuous
 62
     7
100
AcDbLine
 10
185.0901740806
 20
609.0158155951
 30
0.0
 11
185.0901740806
 21
609.2102374417
 31
0.0
  0
LINE
  5
29F
330
9D
100
AcDbEntity
  8
DV1_Default
  6
Continuous
 62
     7
100
AcDbLine
 10
185.0901740806
 20
609.2102374417
 30
0.0
 11
185.7401740806
 21
609.3074483632
 31
0.0
  0
LINE
  5
2A0
330
9D
100
AcDbEntity
  8
DV1_Default
  6
Continuous
 62
     7
100
AcDbLine
 10
185.7401740806
 20
609.3074483632
 30
0.0
 11
186.3901740806
 21
609.2102374382
 31
0.0
  0
LINE
  5
2A1
330
9D
100
AcDbEntity
  8
DV1_Default
  6
Continuous
 62
     7
100
AcDbLine
 10
186.3901740806
 20
609.2102374382
 30
0.0
 11
186.3901740806
 21
609.0158155916
 31
0.0
  0
LINE
  5
2A2
330
9D
100
AcDbEntity
  8
DV1_Default
  6
Continuous
 62
     7
100
AcDbLine
 10
185.8901740806
 20
608.133512385
 30
0.0
 11
186.5401740806
 21
608.2307233065
 31
0.0
  0
LINE
  5
2A3
330
9D
100
AcDbEntity
  8
DV1_Default
  6
Continuous
 62
     7
100
AcDbLine
 10
186.5401740806
 20
608.2307233065
 30
0.0
 11
187.1901740806
 21
608.1335123815
 31
0.0
  0
LINE
  5
2A4
330
9D
100
AcDbEntity
  8
DV1_Default
  6
Continuous
 62
     7
100
AcDbLine
 10
187.1901740806
 20
608.1335123815
 30
0.0
 11
187.1901740806
 21
607.9390905349
 31
0.0
  0
LINE
  5
2A5
330
9D
100
AcDbEntity
  8
DV1_Default
  6
Continuous
 62
     7
100
AcDbLine
 10
187.1901740806
 20
607.9390905349
 30
0.0
 11
186.5401740806
 21
607.8418796133
 31
0.0
  0
LINE
  5
2A6
330
9D
100
AcDbEntity
  8
DV1_Default
  6
Continuous
 62
     7
100
AcDbLine
 10
186.5401740806
 20
607.8418796133
 30
0.0
 11
185.8901740806
 21
607.9390905384
 31
0.0
  0
LINE
  5
2A7
330
9D
100
AcDbEntity
  8
DV1_Default
  6
Continuous
 62
     7
100
AcDbLine
 10
185.8901740806
 20
607.9390905384
 30
0.0
 11
185.8901740806
 21
608.133512385
 31
0.0
  0
LINE
  5
2A8
330
9D
100
AcDbEntity
  8
DV1_Default
  6
Continuous
 62
     7
100
AcDbLine
 10
186.3901740806
 20
608.2980231769
 30
0.0
 11
185.7401740806
 21
608.2008122554
 31
0.0
  0
LINE
  5
2A9
330
9D
100
AcDbEntity
  8
DV1_Default
  6
Continuous
 62
     7
100
AcDbLine
 10
185.7401740806
 20
608.2008122554
 30
0.0
 11
185.0901740806
 21
608.2980231805
 31
0.0
  0
LINE
  5
2AA
330
9D
100
AcDbEntity
  8
DV1_Default
  6
Continuous
 62
     7
100
AcDbLine
 10
185.0901740806
 20
608.2980231805
 30
0.0
 11
185.0901740806
 21
608.4924450271
 31
0.0
  0
LINE
  5
2AB
330
9D
100
AcDbEntity
  8
DV1_Default
  6
Continuous
 62
     7
100
AcDbLine
 10
185.0901740806
 20
608.4924450271
 30
0.0
 11
185.7401740806
 21
608.5896559486
 31
0.0
  0
LINE
  5
2AC
330
9D
100
AcDbEntity
  8
DV1_Default
  6
Continuous
 62
     7
100
AcDbLine
 10
185.7401740806
 20
608.5896559486
 30
0.0
 11
186.3901740806
 21
608.4924450235
 31
0.0
  0
LINE
  5
2AD
330
9D
100
AcDbEntity
  8
DV1_Default
  6
Continuous
 62
     7
100
AcDbLine
 10
186.3901740806
 20
608.4924450235
 30
0.0
 11
186.3901740806
 21
608.2980231769
 31
0.0
  0
LINE
  5
2AE
330
9D
100
AcDbEntity
  8
DV1_Default
  6
Continuous
 62
     7
100
AcDbLine
 10
185.8901740806
 20
607.4157199704
 30
0.0
 11
186.5401740806
 21
607.5129308919
 31
0.0
  0
LINE
  5
2AF
330
9D
100
AcDbEntity
  8
DV1_Default
  6
Continuous
 62
     7
100
AcDbLine
 10
186.5401740806
 20
607.5129308919
 30
0.0
 11
187.1901740806
 21
607.4157199668
 31
0.0
  0
LINE
  5
2B0
330
9D
100
AcDbEntity
  8
DV1_Default
  6
Continuous
 62
     7
100
AcDbLine
 10
187.1901740806
 20
607.4157199668
 30
0.0
 11
187.1901740806
 21
607.2212981202
 31
0.0
  0
LINE
  5
2B1
330
9D
100
AcDbEntity
  8
DV1_Default
  6
Continuous
 62
     7
100
AcDbLine
 10
187.1901740806
 20
607.2212981202
 30
0.0
 11
186.5401740806
 21
607.1240871987
 31
0.0
  0
LINE
  5
2B2
330
9D
100
AcDbEntity
  8
DV1_Default
  6
Continuous
 62
     7
100
AcDbLine
 10
186.5401740806
 20
607.1240871987
 30
0.0
 11
185.8901740806
 21
607.2212981238
 31
0.0
  0
LINE
  5
2B3
330
9D
100
AcDbEntity
  8
DV1_Default
  6
Continuous
 62
     7
100
AcDbLine
 10
185.8901740806
 20
607.2212981238
 30
0.0
 11
185.8901740806
 21
607.4157199704
 31
0.0
  0
LINE
  5
2B4
330
9D
100
AcDbEntity
  8
DV1_Default
  6
Continuous
 62
     7
100
AcDbLine
 10
186.3901740806
 20
607.5802307623
 30
0.0
 11
185.7401740806
 21
607.4830198408
 31
0.0
  0
LINE
  5
2B5
330
9D
100
AcDbEntity
  8
DV1_Default
  6
Continuous
 62
     7
100
AcDbLine
 10
185.7401740806
 20
607.4830198408
 30
0.0
 11
185.0901740806
 21
607.5802307658
 31
0.0
  0
LINE
  5
2B6
330
9D
100
AcDbEntity
  8
DV1_Default
  6
Continuous
 62
     7
100
AcDbLine
 10
185.0901740806
 20
607.5802307658
 30
0.0
 11
185.0901740806
 21
607.7746526124
 31
0.0
  0
LINE
  5
2B7
330
9D
100
AcDbEntity
  8
DV1_Default
  6
Continuous
 62
     7
100
AcDbLine
 10
185.0901740806
 20
607.7746526124
 30
0.0
 11
185.7401740806
 21
607.871863534
 31
0.0
  0
LINE
  5
2B8
330
9D
100
AcDbEntity
  8
DV1_Default
  6
Continuous
 62
     7
100
AcDbLine
 10
185.7401740806
 20
607.871863534
 30
0.0
 11
186.3901740806
 21
607.7746526089
 31
0.0
  0
LINE
  5
2B9
330
9D
100
AcDbEntity
  8
DV1_Default
  6
Continuous
 62
     7
100
AcDbLine
 10
186.3901740806
 20
607.7746526089
 30
0.0
 11
186.3901740806
 21
607.5802307623
 31
0.0
  0
LINE
  5
2BA
330
9D
100
AcDbEntity
  8
DV1_Default
  6
Continuous
 62
     7
100
AcDbLine
 10
186.3901740806
 20
606.8624383477
 30
0.0
 11
185.7401740806
 21
606.7652274261
 31
0.0
  0
LINE
  5
2BB
330
9D
100
AcDbEntity
  8
DV1_Default
  6
Continuous
 62
     7
100
AcDbLine
 10
185.7401740806
 20
606.7652274261
 30
0.0
 11
185.0901740806
 21
606.8624383512
 31
0.0
  0
LINE
  5
2BC
330
9D
100
AcDbEntity
  8
DV1_Default
  6
Continuous
 62
     7
100
AcDbLine
 10
185.0901740806
 20
606.8624383512
 30
0.0
 11
185.0901740806
 21
607.0568601978
 31
0.0
  0
LINE
  5
2BD
330
9D
100
AcDbEntity
  8
DV1_Default
  6
Continuous
 62
     7
100
AcDbLine
 10
185.0901740806
 20
607.0568601978
 30
0.0
 11
185.7401740806
 21
607.1540711194
 31
0.0
  0
LINE
  5
2BE
330
9D
100
AcDbEntity
  8
DV1_Default
  6
Continuous
 62
     7
100
AcDbLine
 10
185.7401740806
 20
607.1540711194
 30
0.0
 11
186.3901740806
 21
607.0568601943
 31
0.0
  0
LINE
  5
2BF
330
9D
100
AcDbEntity
  8
DV1_Default
  6
Continuous
 62
     7
100
AcDbLine
 10
186.3901740806
 20
607.0568601943
 30
0.0
 11
186.3901740806
 21
606.8624383477
 31
0.0
  0
LINE
  5
2C0
330
9D
100
AcDbEntity
  8
DV1_Default
  6
Continuous
 62
     7
100
AcDbLine
 10
185.5901740806
 20
610.170001709
 30
0.0
 11
185.5901740806
 21
610.0924677831
 31
0.0
  0
LINE
  5
2C1
330
9D
100
AcDbEntity
  8
DV1_Default
  6
Continuous
 62
     7
100
AcDbLine
 10
185.5901740806
 20
610.0924677831
 30
0.0
 11
184.9401740806
 21
609.9952568616
 31
0.0
  0
LINE
  5
2C2
330
9D
100
AcDbEntity
  8
DV1_Default
  6
Continuous
 62
     7
100
AcDbLine
 10
184.9401740806
 20
609.9952568616
 30
0.0
 11
184.7115201493
 21
610.0294532618
 31
0.0
  0
LINE
  5
2C3
330
9D
100
AcDbEntity
  8
DV1_Default
  6
Continuous
 62
     7
100
AcDbLine
 10
184.2901740806
 20
609.5690972186
 30
0.0
 11
184.9401740806
 21
609.6663081401
 31
0.0
  0
LINE
  5
2C4
330
9D
100
AcDbEntity
  8
DV1_Default
  6
Continuous
 62
     7
100
AcDbLine
 10
184.9401740806
 20
609.6663081401
 30
0.0
 11
185.5901740806
 21
609.5690972151
 31
0.0
  0
LINE
  5
2C5
330
9D
100
AcDbEntity
  8
DV1_Default
  6
Continuous
 62
     7
100
AcDbLine
 10
185.5901740806
 20
609.5690972151
 30
0.0
 11
185.5901740806
 21
609.3746753685
 31
0.0
  0
LINE
  5
2C6
330
9D
100
AcDbEntity
  8
DV1_Default
  6
Continuous
 62
     7
100
AcDbLine
 10
185.5901740806
 20
609.3746753685
 30
0.0
 11
184.9401740806
 21
609.2774644469
 31
0.0
  0
LINE
  5
2C7
330
9D
100
AcDbEntity
  8
DV1_Default
  6
Continuous
 62
     7
100
AcDbLine
 10
184.9401740806
 20
609.2774644469
 30
0.0
 11
184.2901740806
 21
609.374675372
 31
0.0
  0
LINE
  5
2C8
330
9D
100
AcDbEntity
  8
DV1_Default
  6
Continuous
 62
     7
100
AcDbLine
 10
184.2901740806
 20
609.374675372
 30
0.0
 11
184.2901740806
 21
609.5690972186
 31
0.0
  0
LINE
  5
2C9
330
9D
100
AcDbEntity
  8
DV1_Default
  6
Continuous
 62
     7
100
AcDbLine
 10
184.7901740806
 20
609.7336080105
 30
0.0
 11
184.1401740806
 21
609.636397089
 31
0.0
  0
LINE
  5
2CA
330
9D
100
AcDbEntity
  8
DV1_Default
  6
Continuous
 62
     7
100
AcDbLine
 10
184.1401740806
 20
609.636397089
 30
0.0
 11
183.4901740806
 21
609.7336080141
 31
0.0
  0
LINE
  5
2CB
330
9D
100
AcDbEntity
  8
DV1_Default
  6
Continuous
 62
     7
100
AcDbLine
 10
183.4901740806
 20
609.7336080141
 30
0.0
 11
183.4901740806
 21
609.7608466432
 31
0.0
  0
LINE
  5
2CC
330
9D
100
AcDbEntity
  8
DV1_Default
  6
Continuous
 62
     7
100
AcDbLine
 10
184.4468860349
 20
609.9793703932
 30
0.0
 11
184.7901740806
 21
609.9280298571
 31
0.0
  0
LINE
  5
2CD
330
9D
100
AcDbEntity
  8
DV1_Default
  6
Continuous
 62
     7
100
AcDbLine
 10
184.7901740806
 20
609.9280298571
 30
0.0
 11
184.7901740806
 21
609.7336080105
 31
0.0
  0
LINE
  5
2CE
330
9D
100
AcDbEntity
  8
DV1_Default
  6
Continuous
 62
     7
100
AcDbLine
 10
184.2901740806
 20
608.851304804
 30
0.0
 11
184.9401740806
 21
608.9485157255
 31
0.0
  0
LINE
  5
2CF
330
9D
100
AcDbEntity
  8
DV1_Default
  6
Continuous
 62
     7
100
AcDbLine
 10
184.9401740806
 20
608.9485157255
 30
0.0
 11
185.5901740806
 21
608.8513048004
 31
0.0
  0
LINE
  5
2D0
330
9D
100
AcDbEntity
  8
DV1_Default
  6
Continuous
 62
     7
100
AcDbLine
 10
185.5901740806
 20
608.8513048004
 30
0.0
 11
185.5901740806
 21
608.6568829538
 31
0.0
  0
LINE
  5
2D1
330
9D
100
AcDbEntity
  8
DV1_Default
  6
Continuous
 62
     7
100
AcDbLine
 10
185.5901740806
 20
608.6568829538
 30
0.0
 11
184.9401740806
 21
608.5596720323
 31
0.0
  0
LINE
  5
2D2
330
9D
100
AcDbEntity
  8
DV1_Default
  6
Continuous
 62
     7
100
AcDbLine
 10
184.9401740806
 20
608.5596720323
 30
0.0
 11
184.2901740806
 21
608.6568829574
 31
0.0
  0
LINE
  5
2D3
330
9D
100
AcDbEntity
  8
DV1_Default
  6
Continuous
 62
     7
100
AcDbLine
 10
184.2901740806
 20
608.6568829574
 30
0.0
 11
184.2901740806
 21
608.851304804
 31
0.0
  0
LINE
  5
2D4
330
9D
100
AcDbEntity
  8
DV1_Default
  6
Continuous
 62
     7
100
AcDbLine
 10
184.7901740806
 20
609.0158155959
 30
0.0
 11
184.1401740806
 21
608.9186046744
 31
0.0
  0
LINE
  5
2D5
330
9D
100
AcDbEntity
  8
DV1_Default
  6
Continuous
 62
     7
100
AcDbLine
 10
184.1401740806
 20
608.9186046744
 30
0.0
 11
183.4901740806
 21
609.0158155994
 31
0.0
  0
LINE
  5
2D6
330
9D
100
AcDbEntity
  8
DV1_Default
  6
Continuous
 62
     7
100
AcDbLine
 10
183.4901740806
 20
609.0158155994
 30
0.0
 11
183.4901740806
 21
609.2102374461
 31
0.0
  0
LINE
  5
2D7
330
9D
100
AcDbEntity
  8
DV1_Default
  6
Continuous
 62
     7
100
AcDbLine
 10
183.4901740806
 20
609.2102374461
 30
0.0
 11
184.1401740806
 21
609.3074483676
 31
0.0
  0
LINE
  5
2D8
330
9D
100
AcDbEntity
  8
DV1_Default
  6
Continuous
 62
     7
100
AcDbLine
 10
184.1401740806
 20
609.3074483676
 30
0.0
 11
184.7901740806
 21
609.2102374425
 31
0.0
  0
LINE
  5
2D9
330
9D
100
AcDbEntity
  8
DV1_Default
  6
Continuous
 62
     7
100
AcDbLine
 10
184.7901740806
 20
609.2102374425
 30
0.0
 11
184.7901740806
 21
609.0158155959
 31
0.0
  0
LINE
  5
2DA
330
9D
100
AcDbEntity
  8
DV1_Default
  6
Continuous
 62
     7
100
AcDbLine
 10
184.2901740806
 20
608.1335123894
 30
0.0
 11
184.9401740806
 21
608.2307233109
 31
0.0
  0
LINE
  5
2DB
330
9D
100
AcDbEntity
  8
DV1_Default
  6
Continuous
 62
     7
100
AcDbLine
 10
184.9401740806
 20
608.2307233109
 30
0.0
 11
185.5901740806
 21
608.1335123858
 31
0.0
  0
LINE
  5
2DC
330
9D
100
AcDbEntity
  8
DV1_Default
  6
Continuous
 62
     7
100
AcDbLine
 10
185.5901740806
 20
608.1335123858
 30
0.0
 11
185.5901740806
 21
607.9390905392
 31
0.0
  0
LINE
  5
2DD
330
9D
100
AcDbEntity
  8
DV1_Default
  6
Continuous
 62
     7
100
AcDbLine
 10
185.5901740806
 20
607.9390905392
 30
0.0
 11
184.9401740806
 21
607.8418796177
 31
0.0
  0
LINE
  5
2DE
330
9D
100
AcDbEntity
  8
DV1_Default
  6
Continuous
 62
     7
100
AcDbLine
 10
184.9401740806
 20
607.8418796177
 30
0.0
 11
184.2901740806
 21
607.9390905427
 31
0.0
  0
LINE
  5
2DF
330
9D
100
AcDbEntity
  8
DV1_Default
  6
Continuous
 62
     7
100
AcDbLine
 10
184.2901740806
 20
607.9390905427
 30
0.0
 11
184.2901740806
 21
608.1335123894
 31
0.0
  0
LINE
  5
2E0
330
9D
100
AcDbEntity
  8
DV1_Default
  6
Continuous
 62
     7
100
AcDbLine
 10
184.7901740806
 20
608.2980231813
 30
0.0
 11
184.1401740806
 21
608.2008122597
 31
0.0
  0
LINE
  5
2E1
330
9D
100
AcDbEntity
  8
DV1_Default
  6
Continuous
 62
     7
100
AcDbLine
 10
184.1401740806
 20
608.2008122597
 30
0.0
 11
183.4901740806
 21
608.2980231848
 31
0.0
  0
LINE
  5
2E2
330
9D
100
AcDbEntity
  8
DV1_Default
  6
Continuous
 62
     7
100
AcDbLine
 10
183.4901740806
 20
608.2980231848
 30
0.0
 11
183.4901740806
 21
608.4924450314
 31
0.0
  0
LINE
  5
2E3
330
9D
100
AcDbEntity
  8
DV1_Default
  6
Continuous
 62
     7
100
AcDbLine
 10
183.4901740806
 20
608.4924450314
 30
0.0
 11
184.1401740806
 21
608.589655953
 31
0.0
  0
LINE
  5
2E4
330
9D
100
AcDbEntity
  8
DV1_Default
  6
Continuous
 62
     7
100
AcDbLine
 10
184.1401740806
 20
608.589655953
 30
0.0
 11
184.7901740806
 21
608.4924450279
 31
0.0
  0
LINE
  5
2E5
330
9D
100
AcDbEntity
  8
DV1_Default
  6
Continuous
 62
     7
100
AcDbLine
 10
184.7901740806
 20
608.4924450279
 30
0.0
 11
184.7901740806
 21
608.2980231813
 31
0.0
  0
LINE
  5
2E6
330
9D
100
AcDbEntity
  8
DV1_Default
  6
Continuous
 62
     7
100
AcDbLine
 10
184.2901740806
 20
607.4157199747
 30
0.0
 11
184.9401740806
 21
607.5129308963
 31
0.0
  0
LINE
  5
2E7
330
9D
100
AcDbEntity
  8
DV1_Default
  6
Continuous
 62
     7
100
AcDbLine
 10
184.9401740806
 20
607.5129308963
 30
0.0
 11
185.5901740806
 21
607.4157199712
 31
0.0
  0
LINE
  5
2E8
330
9D
100
AcDbEntity
  8
DV1_Default
  6
Continuous
 62
     7
100
AcDbLine
 10
185.5901740806
 20
607.4157199712
 30
0.0
 11
185.5901740806
 21
607.2212981246
 31
0.0
  0
LINE
  5
2E9
330
9D
100
AcDbEntity
  8
DV1_Default
  6
Continuous
 62
     7
100
AcDbLine
 10
185.5901740806
 20
607.2212981246
 30
0.0
 11
184.9401740806
 21
607.124087203
 31
0.0
  0
LINE
  5
2EA
330
9D
100
AcDbEntity
  8
DV1_Default
  6
Continuous
 62
     7
100
AcDbLine
 10
184.9401740806
 20
607.124087203
 30
0.0
 11
184.2901740806
 21
607.2212981281
 31
0.0
  0
LINE
  5
2EB
330
9D
100
AcDbEntity
  8
DV1_Default
  6
Continuous
 62
     7
100
AcDbLine
 10
184.2901740806
 20
607.2212981281
 30
0.0
 11
184.2901740806
 21
607.4157199747
 31
0.0
  0
LINE
  5
2EC
330
9D
100
AcDbEntity
  8
DV1_Default
  6
Continuous
 62
     7
100
AcDbLine
 10
184.7901740806
 20
607.5802307667
 30
0.0
 11
184.1401740806
 21
607.4830198451
 31
0.0
  0
LINE
  5
2ED
330
9D
100
AcDbEntity
  8
DV1_Default
  6
Continuous
 62
     7
100
AcDbLine
 10
184.1401740806
 20
607.4830198451
 30
0.0
 11
183.4901740806
 21
607.5802307702
 31
0.0
  0
LINE
  5
2EE
330
9D
100
AcDbEntity
  8
DV1_Default
  6
Continuous
 62
     7
100
AcDbLine
 10
183.4901740806
 20
607.5802307702
 30
0.0
 11
183.4901740806
 21
607.7746526168
 31
0.0
  0
LINE
  5
2EF
330
9D
100
AcDbEntity
  8
DV1_Default
  6
Continuous
 62
     7
100
AcDbLine
 10
183.4901740806
 20
607.7746526168
 30
0.0
 11
184.1401740806
 21
607.8718635383
 31
0.0
  0
LINE
  5
2F0
330
9D
100
AcDbEntity
  8
DV1_Default
  6
Continuous
 62
     7
100
AcDbLine
 10
184.1401740806
 20
607.8718635383
 30
0.0
 11
184.7901740806
 21
607.7746526133
 31
0.0
  0
LINE
  5
2F1
330
9D
100
AcDbEntity
  8
DV1_Default
  6
Continuous
 62
     7
100
AcDbLine
 10
184.7901740806
 20
607.7746526133
 30
0.0
 11
184.7901740806
 21
607.5802307667
 31
0.0
  0
LINE
  5
2F2
330
9D
100
AcDbEntity
  8
DV1_Default
  6
Continuous
 62
     7
100
AcDbLine
 10
182.9728404091
 20
609.6113714603
 30
0.0
 11
183.3401740806
 21
609.6663081445
 31
0.0
  0
LINE
  5
2F3
330
9D
100
AcDbEntity
  8
DV1_Default
  6
Continuous
 62
     7
100
AcDbLine
 10
183.3401740806
 20
609.6663081445
 30
0.0
 11
183.9901740806
 21
609.5690972194
 31
0.0
  0
LINE
  5
2F4
330
9D
100
AcDbEntity
  8
DV1_Default
  6
Continuous
 62
     7
100
AcDbLine
 10
183.9901740806
 20
609.5690972194
 30
0.0
 11
183.9901740806
 21
609.3746753728
 31
0.0
  0
LINE
  5
2F5
330
9D
100
AcDbEntity
  8
DV1_Default
  6
Continuous
 62
     7
100
AcDbLine
 10
183.9901740806
 20
609.3746753728
 30
0.0
 11
183.3401740806
 21
609.2774644513
 31
0.0
  0
LINE
  5
2F6
330
9D
100
AcDbEntity
  8
DV1_Default
  6
Continuous
 62
     7
100
AcDbLine
 10
183.3401740806
 20
609.2774644513
 30
0.0
 11
182.6901740806
 21
609.3746753764
 31
0.0
  0
LINE
  5
2F7
330
9D
100
AcDbEntity
  8
DV1_Default
  6
Continuous
 62
     7
100
AcDbLine
 10
182.6901740806
 20
609.3746753764
 30
0.0
 11
182.6901740806
 21
609.517076739
 31
0.0
  0
LINE
  5
2F8
330
9D
100
AcDbEntity
  8
DV1_Default
  6
Continuous
 62
     7
100
AcDbLine
 10
182.6901740806
 20
608.8513048083
 30
0.0
 11
183.3401740806
 21
608.9485157299
 31
0.0
  0
LINE
  5
2F9
330
9D
100
AcDbEntity
  8
DV1_Default
  6
Continuous
 62
     7
100
AcDbLine
 10
183.3401740806
 20
608.9485157299
 30
0.0
 11
183.9901740806
 21
608.8513048048
 31
0.0
  0
LINE
  5
2FA
330
9D
100
AcDbEntity
  8
DV1_Default
  6
Continuous
 62
     7
100
AcDbLine
 10
183.9901740806
 20
608.8513048048
 30
0.0
 11
183.9901740806
 21
608.6568829582
 31
0.0
  0
LINE
  5
2FB
330
9D
100
AcDbEntity
  8
DV1_Default
  6
Continuous
 62
     7
100
AcDbLine
 10
183.9901740806
 20
608.6568829582
 30
0.0
 11
183.3401740806
 21
608.5596720367
 31
0.0
  0
LINE
  5
2FC
330
9D
100
AcDbEntity
  8
DV1_Default
  6
Continuous
 62
     7
100
AcDbLine
 10
183.3401740806
 20
608.5596720367
 30
0.0
 11
182.6901740806
 21
608.6568829617
 31
0.0
  0
LINE
  5
2FD
330
9D
100
AcDbEntity
  8
DV1_Default
  6
Continuous
 62
     7
100
AcDbLine
 10
182.6901740806
 20
608.6568829617
 30
0.0
 11
182.6901740806
 21
608.8513048083
 31
0.0
  0
LINE
  5
2FE
330
9D
100
AcDbEntity
  8
DV1_Default
  6
Continuous
 62
     7
100
AcDbLine
 10
183.1901740806
 20
609.0158156003
 30
0.0
 11
182.5401740806
 21
608.9186046787
 31
0.0
  0
LINE
  5
2FF
330
9D
100
AcDbEntity
  8
DV1_Default
  6
Continuous
 62
     7
100
AcDbLine
 10
182.5401740806
 20
608.9186046787
 30
0.0
 11
181.8901740806
 21
609.0158156038
 31
0.0
  0
LINE
  5
300
330
9D
100
AcDbEntity
  8
DV1_Default
  6
Continuous
 62
     7
100
AcDbLine
 10
181.8901740806
 20
609.0158156038
 30
0.0
 11
181.8901740806
 21
609.1758122228
 31
0.0
  0
LINE
  5
301
330
9D
100
AcDbEntity
  8
DV1_Default
  6
Continuous
 62
     7
100
AcDbLine
 10
181.9855553314
 20
609.2245022185
 30
0.0
 11
182.5401740806
 21
609.3074483719
 31
0.0
  0
LINE
  5
302
330
9D
100
AcDbEntity
  8
DV1_Default
  6
Continuous
 62
     7
100
AcDbLine
 10
182.5401740806
 20
609.3074483719
 30
0.0
 11
183.1901740806
 21
609.2102374469
 31
0.0
  0
LINE
  5
303
330
9D
100
AcDbEntity
  8
DV1_Default
  6
Continuous
 62
     7
100
AcDbLine
 10
183.1901740806
 20
609.2102374469
 30
0.0
 11
183.1901740806
 21
609.0158156003
 31
0.0
  0
LINE
  5
304
330
9D
100
AcDbEntity
  8
DV1_Default
  6
Continuous
 62
     7
100
AcDbLine
 10
182.6901740806
 20
608.1335123937
 30
0.0
 11
183.3401740806
 21
608.2307233152
 31
0.0
  0
LINE
  5
305
330
9D
100
AcDbEntity
  8
DV1_Default
  6
Continuous
 62
     7
100
AcDbLine
 10
183.3401740806
 20
608.2307233152
 30
0.0
 11
183.9901740806
 21
608.1335123902
 31
0.0
  0
LINE
  5
306
330
9D
100
AcDbEntity
  8
DV1_Default
  6
Continuous
 62
     7
100
AcDbLine
 10
183.9901740806
 20
608.1335123902
 30
0.0
 11
183.9901740806
 21
607.9390905436
 31
0.0
  0
LINE
  5
307
330
9D
100
AcDbEntity
  8
DV1_Default
  6
Continuous
 62
     7
100
AcDbLine
 10
183.9901740806
 20
607.9390905436
 30
0.0
 11
183.3401740806
 21
607.841879622
 31
0.0
  0
LINE
  5
308
330
9D
100
AcDbEntity
  8
DV1_Default
  6
Continuous
 62
     7
100
AcDbLine
 10
183.3401740806
 20
607.841879622
 30
0.0
 11
182.6901740806
 21
607.9390905471
 31
0.0
  0
LINE
  5
309
330
9D
100
AcDbEntity
  8
DV1_Default
  6
Continuous
 62
     7
100
AcDbLine
 10
182.6901740806
 20
607.9390905471
 30
0.0
 11
182.6901740806
 21
608.1335123937
 31
0.0
  0
LINE
  5
30A
330
9D
100
AcDbEntity
  8
DV1_Default
  6
Continuous
 62
     7
100
AcDbLine
 10
183.1901740806
 20
608.2980231856
 30
0.0
 11
182.5401740806
 21
608.2008122641
 31
0.0
  0
LINE
  5
30B
330
9D
100
AcDbEntity
  8
DV1_Default
  6
Continuous
 62
     7
100
AcDbLine
 10
182.5401740806
 20
608.2008122641
 30
0.0
 11
181.8901740806
 21
608.2980231892
 31
0.0
  0
LINE
  5
30C
330
9D
100
AcDbEntity
  8
DV1_Default
  6
Continuous
 62
     7
100
AcDbLine
 10
181.8901740806
 20
608.2980231892
 30
0.0
 11
181.8901740806
 21
608.4924450358
 31
0.0
  0
LINE
  5
30D
330
9D
100
AcDbEntity
  8
DV1_Default
  6
Continuous
 62
     7
100
AcDbLine
 10
181.8901740806
 20
608.4924450358
 30
0.0
 11
182.5401740806
 21
608.5896559573
 31
0.0
  0
LINE
  5
30E
330
9D
100
AcDbEntity
  8
DV1_Default
  6
Continuous
 62
     7
100
AcDbLine
 10
182.5401740806
 20
608.5896559573
 30
0.0
 11
183.1901740806
 21
608.4924450322
 31
0.0
  0
LINE
  5
30F
330
9D
100
AcDbEntity
  8
DV1_Default
  6
Continuous
 62
     7
100
AcDbLine
 10
183.1901740806
 20
608.4924450322
 30
0.0
 11
183.1901740806
 21
608.2980231856
 31
0.0
  0
LINE
  5
310
330
9D
100
AcDbEntity
  8
DV1_Default
  6
Continuous
 62
     7
100
AcDbLine
 10
181.4588785502
 20
608.9064465069
 30
0.0
 11
181.7401740806
 21
608.9485157342
 31
0.0
  0
LINE
  5
311
330
9D
100
AcDbEntity
  8
DV1_Default
  6
Continuous
 62
     7
100
AcDbLine
 10
181.7401740806
 20
608.9485157342
 30
0.0
 11
182.3901740806
 21
608.8513048092
 31
0.0
  0
LINE
  5
312
330
9D
100
AcDbEntity
  8
DV1_Default
  6
Continuous
 62
     7
100
AcDbLine
 10
182.3901740806
 20
608.8513048092
 30
0.0
 11
182.3901740806
 21
608.6568829625
 31
0.0
  0
LINE
  5
313
330
9D
100
AcDbEntity
  8
DV1_Default
  6
Continuous
 62
     7
100
AcDbLine
 10
182.3901740806
 20
608.6568829625
 30
0.0
 11
181.7401740806
 21
608.559672041
 31
0.0
  0
LINE
  5
314
330
9D
100
AcDbEntity
  8
DV1_Default
  6
Continuous
 62
     7
100
AcDbLine
 10
181.7401740806
 20
608.559672041
 30
0.0
 11
181.1795019271
 21
608.6435235159
 31
0.0
  0
LINE
  5
315
330
9D
100
AcDbEntity
  8
DV1_Default
  6
Continuous
 62
     7
100
AcDbLine
 10
189.7401740806
 20
609.9952568485
 30
0.0
 11
189.7401740817
 21
610.3841005418
 31
0.0
  0
LINE
  5
316
330
9D
100
AcDbEntity
  8
DV1_Default
  6
Continuous
 62
     7
100
AcDbLine
 10
190.5401740806
 20
610.3541894862
 30
0.0
 11
190.5401740808
 21
610.4316567831
 31
0.0
  0
LINE
  5
317
330
9D
100
AcDbEntity
  8
DV1_Default
  6
Continuous
 62
     7
100
AcDbLine
 10
189.7401740806
 20
609.2774644339
 30
0.0
 11
189.7401740817
 21
609.6663081272
 31
0.0
  0
LINE
  5
318
330
9D
100
AcDbEntity
  8
DV1_Default
  6
Continuous
 62
     7
100
AcDbLine
 10
190.5401740806
 20
609.6363970716
 30
0.0
 11
190.5401740817
 21
610.0252407646
 31
0.0
  0
LINE
  5
319
330
9D
100
AcDbEntity
  8
DV1_Default
  6
Continuous
 62
     7
100
AcDbLine
 10
190.5401740806
 20
608.918604657
 30
0.0
 11
190.5401740817
 21
609.30744835
 31
0.0
  0
LINE
  5
31A
330
9D
100
AcDbEntity
  8
DV1_Default
  6
Continuous
 62
     7
100
AcDbLine
 10
189.7401740806
 20
607.8418796046
 30
0.0
 11
189.7401740817
 21
608.2307232979
 31
0.0
  0
LINE
  5
31B
330
9D
100
AcDbEntity
  8
DV1_Default
  6
Continuous
 62
     7
100
AcDbLine
 10
190.5401740806
 20
608.2008122423
 30
0.0
 11
190.5401740817
 21
608.5896559353
 31
0.0
  0
LINE
  5
31C
330
9D
100
AcDbEntity
  8
DV1_Default
  6
Continuous
 62
     7
100
AcDbLine
 10
190.5401740806
 20
607.4830198277
 30
0.0
 11
190.5401740817
 21
607.8718635207
 31
0.0
  0
LINE
  5
31D
330
9D
100
AcDbEntity
  8
DV1_Default
  6
Continuous
 62
     7
100
AcDbLine
 10
190.5401740806
 20
606.7652274131
 30
0.0
 11
190.5401740817
 21
607.1540711061
 31
0.0
  0
LINE
  5
31E
330
9D
100
AcDbEntity
  8
DV1_Default
  6
Continuous
 62
     7
100
AcDbLine
 10
191.3401740806
 20
609.9952568441
 30
0.0
 11
191.3401740817
 21
610.3841005375
 31
0.0
  0
LINE
  5
31F
330
9D
100
AcDbEntity
  8
DV1_Default
  6
Continuous
 62
     7
100
AcDbLine
 10
192.1401740806
 20
610.3541894819
 30
0.0
 11
192.1401740806
 21
610.3542228353
 31
0.0
  0
LINE
  5
320
330
9D
100
AcDbEntity
  8
DV1_Default
  6
Continuous
 62
     7
100
AcDbLine
 10
191.3401740806
 20
609.2774644295
 30
0.0
 11
191.3401740817
 21
609.6663081228
 31
0.0
  0
LINE
  5
321
330
9D
100
AcDbEntity
  8
DV1_Default
  6
Continuous
 62
     7
100
AcDbLine
 10
192.1401740806
 20
609.6363970672
 30
0.0
 11
192.1401740817
 21
610.0252407602
 31
0.0
  0
LINE
  5
322
330
9D
100
AcDbEntity
  8
DV1_Default
  6
Continuous
 62
     7
100
AcDbLine
 10
191.3401740806
 20
608.5596720149
 30
0.0
 11
191.3401740817
 21
608.9485157082
 31
0.0
  0
LINE
  5
323
330
9D
100
AcDbEntity
  8
DV1_Default
  6
Continuous
 62
     7
100
AcDbLine
 10
192.1401740806
 20
608.9186046526
 30
0.0
 11
192.1401740817
 21
609.3074483456
 31
0.0
  0
LINE
  5
324
330
9D
100
AcDbEntity
  8
DV1_Default
  6
Continuous
 62
     7
100
AcDbLine
 10
191.3401740806
 20
607.8418796003
 30
0.0
 11
191.3401740817
 21
608.2307232936
 31
0.0
  0
LINE
  5
325
330
9D
100
AcDbEntity
  8
DV1_Default
  6
Continuous
 62
     7
100
AcDbLine
 10
192.1401740806
 20
608.200812238
 30
0.0
 11
192.1401740817
 21
608.589655931
 31
0.0
  0
LINE
  5
326
330
9D
100
AcDbEntity
  8
DV1_Default
  6
Continuous
 62
     7
100
AcDbLine
 10
191.3401740806
 20
607.1240871856
 30
0.0
 11
191.3401740817
 21
607.5129308789
 31
0.0
  0
LINE
  5
327
330
9D
100
AcDbEntity
  8
DV1_Default
  6
Continuous
 62
     7
100
AcDbLine
 10
192.1401740806
 20
607.4830198233
 30
0.0
 11
192.1401740817
 21
607.8718635164
 31
0.0
  0
LINE
  5
328
330
9D
100
AcDbEntity
  8
DV1_Default
  6
Continuous
 62
     7
100
AcDbLine
 10
192.1401740806
 20
606.7652274087
 30
0.0
 11
192.1401740817
 21
607.1540711017
 31
0.0
  0
LINE
  5
329
330
9D
100
AcDbEntity
  8
DV1_Default
  6
Continuous
 62
     7
100
AcDbLine
 10
198.2640246119
 20
608.5483563071
 30
0.0
 11
198.264024611
 21
608.2421118289
 31
0.0
  0
LINE
  5
32A
330
9D
100
AcDbEntity
  8
DV1_Default
  6
Continuous
 62
     7
100
AcDbLine
 10
197.7536574173
 20
608.228706772
 30
0.0
 11
197.7536574161
 21
607.8438960866
 31
0.0
  0
LINE
  5
32B
330
9D
100
AcDbEntity
  8
DV1_Default
  6
Continuous
 62
     7
100
AcDbLine
 10
197.7428600627
 20
607.8422812856
 30
0.0
 11
197.7536574161
 21
607.8438960866
 31
0.0
  0
LINE
  5
32C
330
9D
100
AcDbEntity
  8
DV1_Default
  6
Continuous
 62
     7
100
AcDbLine
 10
197.0131743057
 20
607.8609459351
 30
0.0
 11
197.0131743046
 21
607.493937378
 31
0.0
  0
LINE
  5
32D
330
9D
100
AcDbEntity
  8
DV1_Default
  6
Continuous
 62
     7
100
AcDbLine
 10
196.7901740829
 20
607.4115906053
 30
0.0
 11
196.7901740829
 21
607.4149308242
 31
0.0
  0
LINE
  5
32E
330
9D
100
AcDbEntity
  8
DV1_Default
  6
Continuous
 62
     7
100
AcDbLine
 10
195.9384392064
 20
607.4827603534
 30
0.0
 11
195.9384392054
 21
607.1542576862
 31
0.0
  0
LINE
  5
32F
330
9D
100
AcDbEntity
  8
DV1_Default
  6
Continuous
 62
     7
100
AcDbLine
 10
190.7047184802
 20
606.7001027342
 30
0.0
 11
190.7047184797
 21
606.5013305045
 31
0.0
  0
LINE
  5
330
330
9D
100
AcDbEntity
  8
DV1_Default
  6
Continuous
 62
     7
100
AcDbLine
 10
190.6930715398
 20
606.5030723658
 30
0.0
 11
190.7047184797
 21
606.5013305045
 31
0.0
  0
ELLIPSE
  5
331
330
9D
100
AcDbEntity
  8
DV1_Default
  6
Continuous
 62
     7
100
AcDbEllipse
 10
189.740174079
 20
608.1745734779
 30
0.0
 11
-8.750000000062757
 21
2.553929290272094E-8
 31
0.0
210
0.0
220
0.0
230
1.0
 40
0.2590373203
 41
1.570796327543089
 42
4.712388981151273
  0
ELLIPSE
  5
332
330
9D
100
AcDbEntity
  8
DV1_Default
  6
Continuous
 62
     7
100
AcDbEllipse
 10
189.7401740789
 20
608.1745734779
 30
0.0
 11
-9.855199999999202
 21
2.876646143512574E-8
 31
0.0
210
0.0
220
0.0
230
1.0
 40
0.2590373203
 41
1.570796327549853
 42
4.712388981143103
  0
ELLIPSE
  5
333
330
9D
100
AcDbEntity
  8
DV1_Default
  6
Continuous
 62
     7
100
AcDbEllipse
 10
189.7401740789
 20
608.1745734777
 30
0.0
 11
9.855200000022226
 21
-2.874914195594158E-8
 31
0.0
210
0.0
220
0.0
230
1.0
 40
0.2590373203
 41
1.570796327553046
 42
4.712388981138997
  0
ELLIPSE
  5
334
330
9D
100
AcDbEntity
  8
DV1_Default
  6
Continuous
 62
     7
100
AcDbEllipse
 10
189.7401740798
 20
608.4643336719
 30
0.0
 11
9.855200000009132
 21
-2.880123917137212E-8
 31
0.0
210
0.0
220
0.0
230
1.0
 40
0.2590373203
 41
0.2617993885550947
 42
0.785398164157401
  0
LINE
  5
335
330
9D
100
AcDbEntity
  8
DV1_Default
  6
Continuous
 62
     7
100
AcDbLine
 10
196.7088528297
 20
610.2694815225
 30
0.0
 11
196.7088528305
 21
610.5455767404
 31
0.0
  0
LINE
  5
336
330
9D
100
AcDbEntity
  8
DV1_Default
  6
Continuous
 62
     7
100
AcDbLine
 10
182.2346741933
 20
606.520129114
 30
0.0
 11
181.7297856197
 21
606.3893441322
 31
0.0
  0
LINE
  5
337
330
9D
100
AcDbEntity
  8
DV1_Default
  6
Continuous
 62
     7
100
AcDbLine
 10
178.7977799492
 20
607.7048348097
 30
0.0
 11
179.9985160328
 21
607.788176506
 31
0.0
  0
ELLIPSE
  5
338
330
9D
100
AcDbEntity
  8
DV1_Default
  6
Continuous
 62
     7
100
AcDbEllipse
 10
189.7401740797
 20
608.4643336722
 30
0.0
 11
-11.32840000000206
 21
3.292516259634226E-8
 31
0.0
210
0.0
220
0.0
230
1.0
 40
0.2590373204
 41
0.2617993885534878
 42
0.7853981641513392
  0
LINE
  5
339
330
9D
100
AcDbEntity
  8
DV1_Default
  6
Continuous
 62
     7
100
AcDbLine
 10
192.5694376645
 20
605.7291701399
 30
0.0
 11
192.6721797503
 21
605.6298452104
 31
0.0
  0
LINE
  5
33A
330
9D
100
AcDbEntity
  8
DV1_Default
  6
Continuous
 62
     7
100
AcDbLine
 10
186.8081684092
 20
605.6298452263
 30
0.0
 11
186.9109104949
 21
605.7291701552
 31
0.0
  0
ELLIPSE
  5
33B
330
9D
100
AcDbEntity
  8
DV1_Default
  6
Continuous
 62
     7
100
AcDbEllipse
 10
189.7401740797
 20
608.4643336723
 30
0.0
 11
-11.32840000003502
 21
3.301325879334627E-8
 31
0.0
210
0.0
220
0.0
230
1.0
 40
0.2590373204
 41
1.30899693975288
 42
1.832595715346722
  0
LINE
  5
33C
330
9D
100
AcDbEntity
  8
DV1_Default
  6
Continuous
 62
     7
100
AcDbLine
 10
199.481832125
 20
607.788176453
 30
0.0
 11
200.6825682103
 21
607.70483475
 31
0.0
  0
LINE
  5
33D
330
9D
100
AcDbEntity
  8
DV1_Default
  6
Continuous
 62
     7
100
AcDbLine
 10
197.7505625397
 20
606.3893440885
 30
0.0
 11
197.2456739653
 21
606.5201290733
 31
0.0
  0
ELLIPSE
  5
33E
330
9D
100
AcDbEntity
  8
DV1_Default
  6
Continuous
 62
     7
100
AcDbEllipse
 10
189.7401740797
 20
608.464333672
 30
0.0
 11
11.32840000000249
 21
-3.295577699624630E-8
 31
0.0
210
0.0
220
0.0
230
1.0
 40
0.2590373204
 41
-0.7853981626446647
 42
-0.2617993870459419
  0
LINE
  5
33F
330
9D
100
AcDbEntity
  8
DV1_Default
  6
Continuous
 62
     7
100
AcDbLine
 10
196.7088528297
 20
610.2694815225
 30
0.0
 11
197.315228658
 21
610.4265554905
 31
0.0
  0
LINE
  5
340
330
9D
100
AcDbEntity
  8
DV1_Default
  6
Continuous
 62
     7
100
AcDbLine
 10
200.6825682103
 20
609.2238325341
 30
0.0
 11
199.259566283
 21
609.1250636238
 31
0.0
  0
LINE
  5
341
330
9D
100
AcDbEntity
  8
DV1_Default
  6
Continuous
 62
     7
100
AcDbLine
 10
182.1651100484
 20
610.4265579805
 30
0.0
 11
182.7714953298
 21
610.2694815604
 31
0.0
  0
LINE
  5
342
330
9D
100
AcDbEntity
  8
DV1_Default
  6
Continuous
 62
     7
100
AcDbLine
 10
180.2207818765
 20
609.1250636757
 30
0.0
 11
178.7977799492
 21
609.2238325937
 31
0.0
  0
ELLIPSE
  5
343
330
9D
100
AcDbEntity
  8
DV1_Default
  6
Continuous
 62
     7
100
AcDbEllipse
 10
189.7401740798
 20
608.464333672
 30
0.0
 11
-9.855200000035223
 21
2.876548998997919E-8
 31
0.0
210
0.0
220
0.0
230
1.0
 40
0.2590373203
 41
-0.7853981626414273
 42
-0.261799387043359
  0
LINE
  5
344
330
9D
100
AcDbEntity
  8
DV1_Default
  6
Continuous
 62
     7
100
AcDbLine
 10
192.6721797506
 20
605.7373046922
 30
0.0
 11
192.6721797503
 21
605.6298452104
 31
0.0
  0
LINE
  5
345
330
9D
100
AcDbEntity
  8
DV1_Default
  6
Continuous
 62
     7
100
AcDbLine
 10
186.8081684095
 20
605.737304708
 30
0.0
 11
186.8081684092
 21
605.6298452263
 31
0.0
  0
LINE
  5
346
330
9D
100
AcDbEntity
  8
DV1_Default
  6
Continuous
 62
     7
100
AcDbLine
 10
178.797779952
 20
608.66162297
 30
0.0
 11
178.7977799492
 21
607.7048348097
 31
0.0
  0
LINE
  5
347
330
9D
100
AcDbEntity
  8
DV1_Default
  6
Continuous
 62
     7
100
AcDbLine
 10
200.6825682131
 20
608.6616229106
 30
0.0
 11
200.6825682103
 21
607.70483475
 31
0.0
  0
LINE
  5
348
330
9D
100
AcDbEntity
  8
DV1_Default
  6
Continuous
 62
     7
100
AcDbLine
 10
182.7714953306
 20
610.5455684896
 30
0.0
 11
182.7714953298
 21
610.2694815604
 31
0.0
  0
LINE
  5
349
330
9D
100
AcDbEntity
  8
DV1_Default
  6
Continuous
 62
     7
100
AcDbLine
 10
193.7401740806
 20
606.7652274044
 30
0.0
 11
193.7401740817
 21
607.1540710974
 31
0.0
  0
LINE
  5
34A
330
9D
100
AcDbEntity
  8
DV1_Default
  6
Continuous
 62
     7
100
AcDbLine
 10
196.9401740806
 20
607.4830198103
 30
0.0
 11
196.9401740817
 21
607.8718635033
 31
0.0
  0
LINE
  5
34B
330
9D
100
AcDbEntity
  8
DV1_Default
  6
Continuous
 62
     7
100
AcDbLine
 10
197.7401740805
 20
607.8418795828
 30
0.0
 11
197.7401740816
 21
608.2307232759
 31
0.0
  0
LINE
  5
34C
330
9D
100
AcDbEntity
  8
DV1_Default
  6
Continuous
 62
     7
100
AcDbLine
 10
197.7401740806
 20
608.5596719975
 30
0.0
 11
197.7401740817
 21
608.9485156908
 31
0.0
  0
LINE
  5
34D
330
9D
100
AcDbEntity
  8
DV1_Default
  6
Continuous
 62
     7
100
AcDbLine
 10
196.1401740806
 20
609.2774644164
 30
0.0
 11
196.1401740817
 21
609.6663081098
 31
0.0
  0
LINE
  5
34E
330
9D
100
AcDbEntity
  8
DV1_Default
  6
Continuous
 62
     7
100
AcDbLine
 10
194.5401740806
 20
609.9952568354
 30
0.0
 11
194.5401740808
 21
610.069666494
 31
0.0
  0
LINE
  5
34F
330
9D
100
AcDbEntity
  8
DV1_Default
  6
Continuous
 62
     7
100
AcDbLine
 10
192.9401740806
 20
609.9952568398
 30
0.0
 11
192.9401740814
 21
610.284137845
 31
0.0
  0
LINE
  5
350
330
9D
100
AcDbEntity
  8
DV1_Default
  6
Continuous
 62
     7
100
AcDbLine
 10
192.9401740806
 20
609.2774644252
 30
0.0
 11
192.9401740817
 21
609.6663081185
 31
0.0
  0
LINE
  5
351
330
9D
100
AcDbEntity
  8
DV1_Default
  6
Continuous
 62
     7
100
AcDbLine
 10
192.9401740806
 20
608.5596720105
 30
0.0
 11
192.9401740817
 21
608.9485157038
 31
0.0
  0
LINE
  5
352
330
9D
100
AcDbEntity
  8
DV1_Default
  6
Continuous
 62
     7
100
AcDbLine
 10
193.7401740806
 20
608.9186046482
 30
0.0
 11
193.7401740817
 21
609.3074483413
 31
0.0
  0
LINE
  5
353
330
9D
100
AcDbEntity
  8
DV1_Default
  6
Continuous
 62
     7
100
AcDbLine
 10
192.9401740806
 20
607.8418795959
 30
0.0
 11
192.9401740817
 21
608.2307232892
 31
0.0
  0
LINE
  5
354
330
9D
100
AcDbEntity
  8
DV1_Default
  6
Continuous
 62
     7
100
AcDbLine
 10
193.7401740806
 20
608.2008122336
 30
0.0
 11
193.7401740817
 21
608.5896559266
 31
0.0
  0
LINE
  5
355
330
9D
100
AcDbEntity
  8
DV1_Default
  6
Continuous
 62
     7
100
AcDbLine
 10
192.9401740806
 20
607.1240871813
 30
0.0
 11
192.9401740817
 21
607.5129308746
 31
0.0
  0
LINE
  5
356
330
9D
100
AcDbEntity
  8
DV1_Default
  6
Continuous
 62
     7
100
AcDbLine
 10
193.7401740806
 20
607.483019819
 30
0.0
 11
193.7401740817
 21
607.871863512
 31
0.0
  0
LINE
  5
357
330
9D
100
AcDbEntity
  8
DV1_Default
  6
Continuous
 62
     7
100
AcDbLine
 10
194.5401740806
 20
609.2774644208
 30
0.0
 11
194.5401740817
 21
609.6663081141
 31
0.0
  0
LINE
  5
358
330
9D
100
AcDbEntity
  8
DV1_Default
  6
Continuous
 62
     7
100
AcDbLine
 10
195.3401740806
 20
609.6363970585
 30
0.0
 11
195.3401740814
 21
609.9161540136
 31
0.0
  0
LINE
  5
359
330
9D
100
AcDbEntity
  8
DV1_Default
  6
Continuous
 62
     7
100
AcDbLine
 10
194.5401740806
 20
608.5596720062
 30
0.0
 11
194.5401740817
 21
608.9485156995
 31
0.0
  0
LINE
  5
35A
330
9D
100
AcDbEntity
  8
DV1_Default
  6
Continuous
 62
     7
100
AcDbLine
 10
195.3401740806
 20
608.9186046439
 30
0.0
 11
195.3401740817
 21
609.3074483369
 31
0.0
  0
LINE
  5
35B
330
9D
100
AcDbEntity
  8
DV1_Default
  6
Continuous
 62
     7
100
AcDbLine
 10
194.5401740806
 20
607.8418795915
 30
0.0
 11
194.5401740817
 21
608.2307232849
 31
0.0
  0
LINE
  5
35C
330
9D
100
AcDbEntity
  8
DV1_Default
  6
Continuous
 62
     7
100
AcDbLine
 10
195.3401740806
 20
608.2008122293
 30
0.0
 11
195.3401740817
 21
608.5896559223
 31
0.0
  0
LINE
  5
35D
330
9D
100
AcDbEntity
  8
DV1_Default
  6
Continuous
 62
     7
100
AcDbLine
 10
194.5401740806
 20
607.1240871769
 30
0.0
 11
194.5401740817
 21
607.5129308702
 31
0.0
  0
LINE
  5
35E
330
9D
100
AcDbEntity
  8
DV1_Default
  6
Continuous
 62
     7
100
AcDbLine
 10
195.3401740806
 20
607.4830198146
 30
0.0
 11
195.3401740817
 21
607.8718635077
 31
0.0
  0
LINE
  5
35F
330
9D
100
AcDbEntity
  8
DV1_Default
  6
Continuous
 62
     7
100
AcDbLine
 10
196.1401740806
 20
608.5596720018
 30
0.0
 11
196.1401740817
 21
608.9485156951
 31
0.0
  0
LINE
  5
360
330
9D
100
AcDbEntity
  8
DV1_Default
  6
Continuous
 62
     7
100
AcDbLine
 10
196.9401740806
 20
608.9186046395
 30
0.0
 11
196.9401740817
 21
609.3074483326
 31
0.0
  0
LINE
  5
361
330
9D
100
AcDbEntity
  8
DV1_Default
  6
Continuous
 62
     7
100
AcDbLine
 10
196.1401740806
 20
607.8418795872
 30
0.0
 11
196.1401740817
 21
608.2307232805
 31
0.0
  0
LINE
  5
362
330
9D
100
AcDbEntity
  8
DV1_Default
  6
Continuous
 62
     7
100
AcDbLine
 10
196.9401740806
 20
608.2008122249
 30
0.0
 11
196.9401740817
 21
608.5896559179
 31
0.0
  0
LINE
  5
363
330
9D
100
AcDbEntity
  8
DV1_Default
  6
Continuous
 62
     7
100
AcDbLine
 10
188.9401740806
 20
610.3541894906
 30
0.0
 11
188.9401740808
 21
610.4316567876
 31
0.0
  0
LINE
  5
364
330
9D
100
AcDbEntity
  8
DV1_Default
  6
Continuous
 62
     7
100
AcDbLine
 10
188.9401740806
 20
609.6363970759
 30
0.0
 11
188.9401740817
 21
610.025240769
 31
0.0
  0
LINE
  5
365
330
9D
100
AcDbEntity
  8
DV1_Default
  6
Continuous
 62
     7
100
AcDbLine
 10
188.9401740806
 20
608.9186046613
 30
0.0
 11
188.9401740817
 21
609.3074483543
 31
0.0
  0
LINE
  5
366
330
9D
100
AcDbEntity
  8
DV1_Default
  6
Continuous
 62
     7
100
AcDbLine
 10
188.9401740806
 20
608.2008122467
 30
0.0
 11
188.9401740817
 21
608.5896559397
 31
0.0
  0
LINE
  5
367
330
9D
100
AcDbEntity
  8
DV1_Default
  6
Continuous
 62
     7
100
AcDbLine
 10
188.9401740806
 20
607.4830198321
 30
0.0
 11
188.9401740817
 21
607.8718635251
 31
0.0
  0
LINE
  5
368
330
9D
100
AcDbEntity
  8
DV1_Default
  6
Continuous
 62
     7
100
AcDbLine
 10
188.9401740806
 20
606.7652274174
 30
0.0
 11
188.9401740817
 21
607.1540711104
 31
0.0
  0
LINE
  5
369
330
9D
100
AcDbEntity
  8
DV1_Default
  6
Continuous
 62
     7
100
AcDbLine
 10
188.1401740806
 20
609.9952568528
 30
0.0
 11
188.1401740817
 21
610.3841005459
 31
0.0
  0
LINE
  5
36A
330
9D
100
AcDbEntity
  8
DV1_Default
  6
Continuous
 62
     7
100
AcDbLine
 10
187.3401740806
 20
610.3541894949
 30
0.0
 11
187.3401740806
 21
610.3542228486
 31
0.0
  0
LINE
  5
36B
330
9D
100
AcDbEntity
  8
DV1_Default
  6
Continuous
 62
     7
100
AcDbLine
 10
188.1401740806
 20
609.2774644382
 30
0.0
 11
188.1401740817
 21
609.6663081312
 31
0.0
  0
LINE
  5
36C
330
9D
100
AcDbEntity
  8
DV1_Default
  6
Continuous
 62
     7
100
AcDbLine
 10
187.3401740806
 20
609.6363970803
 30
0.0
 11
187.3401740817
 21
610.0252407733
 31
0.0
  0
LINE
  5
36D
330
9D
100
AcDbEntity
  8
DV1_Default
  6
Continuous
 62
     7
100
AcDbLine
 10
188.1401740806
 20
608.5596720236
 30
0.0
 11
188.1401740817
 21
608.9485157166
 31
0.0
  0
LINE
  5
36E
330
9D
100
AcDbEntity
  8
DV1_Default
  6
Continuous
 62
     7
100
AcDbLine
 10
187.3401740806
 20
608.9186046657
 30
0.0
 11
187.3401740817
 21
609.3074483587
 31
0.0
  0
LINE
  5
36F
330
9D
100
AcDbEntity
  8
DV1_Default
  6
Continuous
 62
     7
100
AcDbLine
 10
188.1401740806
 20
607.841879609
 30
0.0
 11
188.1401740817
 21
608.230723302
 31
0.0
  0
LINE
  5
370
330
9D
100
AcDbEntity
  8
DV1_Default
  6
Continuous
 62
     7
100
AcDbLine
 10
187.3401740806
 20
608.200812251
 30
0.0
 11
187.3401740817
 21
608.5896559441
 31
0.0
  0
LINE
  5
371
330
9D
100
AcDbEntity
  8
DV1_Default
  6
Continuous
 62
     7
100
AcDbLine
 10
188.1401740806
 20
607.1240871943
 30
0.0
 11
188.1401740817
 21
607.5129308874
 31
0.0
  0
LINE
  5
372
330
9D
100
AcDbEntity
  8
DV1_Default
  6
Continuous
 62
     7
100
AcDbLine
 10
187.3401740806
 20
607.4830198364
 30
0.0
 11
187.3401740817
 21
607.8718635294
 31
0.0
  0
LINE
  5
373
330
9D
100
AcDbEntity
  8
DV1_Default
  6
Continuous
 62
     7
100
AcDbLine
 10
187.3401740806
 20
606.7652274218
 30
0.0
 11
187.3401740817
 21
607.1540711148
 31
0.0
  0
LINE
  5
374
330
9D
100
AcDbEntity
  8
DV1_Default
  6
Continuous
 62
     7
100
AcDbLine
 10
186.5401740806
 20
609.9952568572
 30
0.0
 11
186.5401740814
 21
610.2841378629
 31
0.0
  0
LINE
  5
375
330
9D
100
AcDbEntity
  8
DV1_Default
  6
Continuous
 62
     7
100
AcDbLine
 10
186.5401740806
 20
609.2774644426
 30
0.0
 11
186.5401740817
 21
609.6663081356
 31
0.0
  0
LINE
  5
376
330
9D
100
AcDbEntity
  8
DV1_Default
  6
Continuous
 62
     7
100
AcDbLine
 10
186.5401740806
 20
608.5596720279
 30
0.0
 11
186.5401740817
 21
608.948515721
 31
0.0
  0
LINE
  5
377
330
9D
100
AcDbEntity
  8
DV1_Default
  6
Continuous
 62
     7
100
AcDbLine
 10
185.7401740806
 20
608.91860467
 30
0.0
 11
185.7401740817
 21
609.307448363
 31
0.0
  0
LINE
  5
378
330
9D
100
AcDbEntity
  8
DV1_Default
  6
Continuous
 62
     7
100
AcDbLine
 10
186.5401740806
 20
607.8418796133
 30
0.0
 11
186.5401740817
 21
608.2307233063
 31
0.0
  0
LINE
  5
379
330
9D
100
AcDbEntity
  8
DV1_Default
  6
Continuous
 62
     7
100
AcDbLine
 10
185.7401740806
 20
608.2008122554
 30
0.0
 11
185.7401740817
 21
608.5896559484
 31
0.0
  0
LINE
  5
37A
330
9D
100
AcDbEntity
  8
DV1_Default
  6
Continuous
 62
     7
100
AcDbLine
 10
186.5401740806
 20
607.1240871987
 30
0.0
 11
186.5401740817
 21
607.5129308917
 31
0.0
  0
LINE
  5
37B
330
9D
100
AcDbEntity
  8
DV1_Default
  6
Continuous
 62
     7
100
AcDbLine
 10
185.7401740806
 20
607.4830198408
 30
0.0
 11
185.7401740817
 21
607.8718635338
 31
0.0
  0
LINE
  5
37C
330
9D
100
AcDbEntity
  8
DV1_Default
  6
Continuous
 62
     7
100
AcDbLine
 10
185.7401740806
 20
606.7652274261
 30
0.0
 11
185.7401740817
 21
607.1540711192
 31
0.0
  0
LINE
  5
37D
330
9D
100
AcDbEntity
  8
DV1_Default
  6
Continuous
 62
     7
100
AcDbLine
 10
184.9401740806
 20
609.9952568616
 30
0.0
 11
184.9401740808
 21
610.0696665207
 31
0.0
  0
LINE
  5
37E
330
9D
100
AcDbEntity
  8
DV1_Default
  6
Continuous
 62
     7
100
AcDbLine
 10
184.9401740806
 20
609.2774644469
 30
0.0
 11
184.9401740817
 21
609.6663081399
 31
0.0
  0
LINE
  5
37F
330
9D
100
AcDbEntity
  8
DV1_Default
  6
Continuous
 62
     7
100
AcDbLine
 10
184.1401740806
 20
609.636397089
 30
0.0
 11
184.1401740814
 21
609.916154045
 31
0.0
  0
LINE
  5
380
330
9D
100
AcDbEntity
  8
DV1_Default
  6
Continuous
 62
     7
100
AcDbLine
 10
184.9401740806
 20
608.5596720323
 30
0.0
 11
184.9401740817
 21
608.9485157253
 31
0.0
  0
LINE
  5
381
330
9D
100
AcDbEntity
  8
DV1_Default
  6
Continuous
 62
     7
100
AcDbLine
 10
184.1401740806
 20
608.9186046744
 30
0.0
 11
184.1401740817
 21
609.3074483674
 31
0.0
  0
LINE
  5
382
330
9D
100
AcDbEntity
  8
DV1_Default
  6
Continuous
 62
     7
100
AcDbLine
 10
184.9401740806
 20
607.8418796177
 30
0.0
 11
184.9401740817
 21
608.2307233107
 31
0.0
  0
LINE
  5
383
330
9D
100
AcDbEntity
  8
DV1_Default
  6
Continuous
 62
     7
100
AcDbLine
 10
184.1401740806
 20
608.2008122597
 30
0.0
 11
184.1401740817
 21
608.5896559528
 31
0.0
  0
LINE
  5
384
330
9D
100
AcDbEntity
  8
DV1_Default
  6
Continuous
 62
     7
100
AcDbLine
 10
184.9401740806
 20
607.124087203
 30
0.0
 11
184.9401740817
 21
607.5129308961
 31
0.0
  0
LINE
  5
385
330
9D
100
AcDbEntity
  8
DV1_Default
  6
Continuous
 62
     7
100
AcDbLine
 10
184.1401740806
 20
607.4830198451
 30
0.0
 11
184.1401740817
 21
607.8718635381
 31
0.0
  0
LINE
  5
386
330
9D
100
AcDbEntity
  8
DV1_Default
  6
Continuous
 62
     7
100
AcDbLine
 10
183.3401740806
 20
609.2774644513
 30
0.0
 11
183.3401740817
 21
609.6663081443
 31
0.0
  0
LINE
  5
387
330
9D
100
AcDbEntity
  8
DV1_Default
  6
Continuous
 62
     7
100
AcDbLine
 10
183.3401740806
 20
608.5596720367
 30
0.0
 11
183.3401740817
 21
608.9485157297
 31
0.0
  0
LINE
  5
388
330
9D
100
AcDbEntity
  8
DV1_Default
  6
Continuous
 62
     7
100
AcDbLine
 10
182.5401740806
 20
608.9186046787
 30
0.0
 11
182.5401740817
 21
609.3074483717
 31
0.0
  0
LINE
  5
389
330
9D
100
AcDbEntity
  8
DV1_Default
  6
Continuous
 62
     7
100
AcDbLine
 10
183.3401740806
 20
607.841879622
 30
0.0
 11
183.3401740817
 21
608.230723315
 31
0.0
  0
LINE
  5
38A
330
9D
100
AcDbEntity
  8
DV1_Default
  6
Continuous
 62
     7
100
AcDbLine
 10
182.5401740806
 20
608.2008122641
 30
0.0
 11
182.5401740817
 21
608.5896559571
 31
0.0
  0
LINE
  5
38B
330
9D
100
AcDbEntity
  8
DV1_Default
  6
Continuous
 62
     7
100
AcDbLine
 10
181.7401740806
 20
608.559672041
 30
0.0
 11
181.7401740817
 21
608.948515734
 31
0.0
  0
LINE
  5
38C
330
9D
100
AcDbEntity
  8
DV1_Default
  6
Continuous
 62
     7
100
AcDbLine
 10
182.5401740806
 20
607.4830198495
 30
0.0
 11
182.5401740817
 21
607.8718635425
 31
0.0
  0
LINE
  5
38D
330
9D
100
AcDbEntity
  8
DV1_Default
  6
Continuous
 62
     7
100
AcDbLine
 10
181.7321476042
 20
607.8408367302
 30
0.0
 11
181.7321476054
 21
608.229522918
 31
0.0
  0
LINE
  5
38E
330
9D
100
AcDbEntity
  8
DV1_Default
  6
Continuous
 62
     7
100
AcDbLine
 10
199.5953740789
 20
608.1745734491
 30
0.0
 11
199.5953740818
 21
609.1483716529
 31
0.0
  0
LINE
  5
38F
330
9D
100
AcDbEntity
  8
DV1_Default
  6
Continuous
 62
     7
100
AcDbLine
 10
179.8849740817
 20
609.1483717064
 30
0.0
 11
179.8849740789
 21
608.1745735065
 31
0.0
  0
SPLINE
  5
390
330
9D
100
AcDbEntity
  8
DV1_Default
  6
Continuous
 62
     7
100
AcDbSpline
210
0.0
220
0.0
230
1.0
 70
     8
 71
     2
 72
    54
 73
    51
 74
     0
 42
0.0000000002619577
 43
0.0000000001
 40
0.0
 40
0.0
 40
0.0
 40
0.0625
 40
0.0625
 40
0.09375
 40
0.09375
 40
0.125
 40
0.125
 40
0.15625
 40
0.15625
 40
0.1875
 40
0.1875
 40
0.21875
 40
0.21875
 40
0.25
 40
0.25
 40
0.3125
 40
0.3125
 40
0.375
 40
0.375
 40
0.40625
 40
0.40625
 40
0.4375
 40
0.4375
 40
0.46875
 40
0.46875
 40
0.5
 40
0.5
 40
0.5625
 40
0.5625
 40
0.625
 40
0.625
 40
0.65625
 40
0.65625
 40
0.6875
 40
0.6875
 40
0.71875
 40
0.71875
 40
0.75
 40
0.75
 40
0.78125
 40
0.78125
 40
0.8125
 40
0.8125
 40
0.84375
 40
0.84375
 40
0.875
 40
0.875
 40
0.9375
 40
0.9375
 40
1.0
 40
1.0
 40
1.0
 10
189.7401587915594
 20
612.5015936175291
 30
0.0
 10
191.5154346138175
 20
612.5015530140729
 30
0.0
 10
193.2992250013397
 20
612.4028339717682
 30
0.0
 10
194.2038606739562
 20
612.352769363359
 30
0.0
 10
195.0900640153631
 20
612.2781886161916
 30
0.0
 10
195.9864394667995
 20
612.2027518086477
 30
0.0
 10
196.8504502758544
 20
612.1035169122102
 30
0.0
 10
197.7212532555032
 20
612.0035019093916
 30
0.0
 10
198.5480828112735
 20
611.8804471381276
 30
0.0
 10
199.3709209855285
 20
611.7579863932092
 30
0.0
 10
200.1288274072454
 20
611.6163383200557
 30
0.0
 10
200.8644503649832
 20
611.4788548899838
 30
0.0
 10
201.5383402236478
 20
611.3239290934182
 30
0.0
 10
202.1870315322934
 20
611.1747963880881
 30
0.0
 10
202.7700633982555
 20
611.0109363125446
 30
0.0
 10
203.9257574303228
 20
610.6861305472762
 30
0.0
 10
204.8116422903758
 20
610.3068406537849
 30
0.0
 10
205.7477634599352
 20
609.9060421813109
 30
0.0
 10
206.3653150224276
 20
609.4573906752846
 30
0.0
 10
206.6889988469617
 20
609.2222342216801
 30
0.0
 10
206.9163893826233
 20
608.979983728841
 30
0.0
 10
207.1457693059571
 20
608.7356138419708
 30
0.0
 10
207.2739817226759
 20
608.4884871521161
 30
0.0
 10
207.3991084510176
 20
608.2473080605838
 30
0.0
 10
207.4289025238306
 20
608.0089655993017
 30
0.0
 10
207.4565328196019
 20
607.7879326193064
 30
0.0
 10
207.4017731961055
 20
607.5670373807492
 30
0.0
 10
207.3015527972348
 20
607.1627575938668
 30
0.0
 10
206.9257607818831
 20
606.7773494116456
 30
0.0
 10
206.541535309903
 20
606.3832919685132
 30
0.0
 10
205.8689953534014
 20
606.0050465183086
 30
0.0
 10
205.4990250179023
 20
605.7969702623773
 30
0.0
 10
205.0426430331106
 20
605.5956155026768
 30
0.0
 10
204.5568981575439
 20
605.3813058981026
 30
0.0
 10
203.9938950464168
 20
605.1830877971464
 30
0.0
 10
203.4160651380429
 20
604.9796495836628
 30
0.0
 10
202.76544011126
 20
604.7948396531974
 30
0.0
 10
202.1287142939875
 20
604.6139777908782
 30
0.0
 10
201.4316876586138
 20
604.452425462317
 30
0.0
 10
200.7875060826031
 20
604.3031212200697
 30
0.0
 10
200.0903601688141
 20
604.1706299687891
 30
0.0
 10
199.4428893128172
 20
604.0475793674989
 30
0.0
 10
198.7758951208545
 20
603.9437164542436
 30
0.0
 10
198.1167986408816
 20
603.8410833558581
 30
0.0
 10
197.4353941698921
 20
603.7556856428968
 30
0.0
 10
196.7428837397326
 20
603.6688960642317
 30
0.0
 10
196.0120221507126
 20
603.5981151961216
 30
0.0
 10
194.5254014640365
 20
603.454142241004
 30
0.0
 10
192.9360377015307
 20
603.3811095905935
 30
0.0
 10
191.3545875334118
 20
603.3084405767439
 30
0.0
 10
189.7402042208619
 20
603.3084139252172
 30
0.0
  0
SPLINE
  5
391
330
9D
100
AcDbEntity
  8
DV1_Default
  6
Continuous
 62
     7
100
AcDbSpline
210
0.0
220
0.0
230
1.0
 70
     8
 71
     2
 72
    54
 73
    51
 74
     0
 42
0.0000000002619561
 43
0.0000000001
 40
0.0
 40
0.0
 40
0.0
 40
0.0625
 40
0.0625
 40
0.125
 40
0.125
 40
0.15625
 40
0.15625
 40
0.1875
 40
0.1875
 40
0.21875
 40
0.21875
 40
0.25
 40
0.25
 40
0.28125
 40
0.28125
 40
0.3125
 40
0.3125
 40
0.34375
 40
0.34375
 40
0.375
 40
0.375
 40
0.4375
 40
0.4375
 40
0.5
 40
0.5
 40
0.53125
 40
0.53125
 40
0.5625
 40
0.5625
 40
0.59375
 40
0.59375
 40
0.625
 40
0.625
 40
0.6875
 40
0.6875
 40
0.75
 40
0.75
 40
0.78125
 40
0.78125
 40
0.8125
 40
0.8125
 40
0.84375
 40
0.84375
 40
0.875
 40
0.875
 40
0.90625
 40
0.90625
 40
0.9375
 40
0.9375
 40
1.0
 40
1.0
 40
1.0
 10
189.7402042208619
 20
603.3084139252172
 30
0.0
 10
188.1196841768892
 20
603.3084410216223
 30
0.0
 10
186.5337745933819
 20
603.3815947155964
 30
0.0
 10
184.9413991331952
 20
603.4550466628685
 30
0.0
 10
183.4545777679081
 20
603.5994480944138
 30
0.0
 10
182.7223273035976
 20
603.6705649197196
 30
0.0
 10
182.0304918136179
 20
603.7574993424952
 30
0.0
 10
181.3475201910428
 20
603.8433199525113
 30
0.0
 10
180.6887435765864
 20
603.9461690613084
 30
0.0
 10
180.0196387910687
 20
604.0506306183403
 30
0.0
 10
179.3723785749974
 20
604.1739821464114
 30
0.0
 10
178.6735445919977
 20
604.3071623381343
 30
0.0
 10
178.0297734950505
 20
604.4568054187991
 30
0.0
 10
177.3322381378183
 20
604.6189458755919
 30
0.0
 10
176.696856266528
 20
604.7999794202657
 30
0.0
 10
176.0465612514195
 20
604.9852620305953
 30
0.0
 10
175.4707191100843
 20
605.1886370314988
 30
0.0
 10
174.9085441651372
 20
605.3871850739736
 30
0.0
 10
174.4249299888958
 20
605.6012639052594
 30
0.0
 10
173.9694489053441
 20
605.8028892149173
 30
0.0
 10
173.6014310098922
 20
606.0106301317987
 30
0.0
 10
172.9301555324257
 20
606.3895556810514
 30
0.0
 10
172.5484457357618
 20
606.7836687133122
 30
0.0
 10
172.1738503197558
 20
607.1704361910225
 30
0.0
 10
172.0765092351455
 20
607.5754798760606
 30
0.0
 10
172.0231930536529
 20
607.7973325779325
 30
0.0
 10
172.0526992142745
 20
608.0187296286618
 30
0.0
 10
172.0845514433613
 20
608.2577302112662
 30
0.0
 10
172.211859515133
 20
608.4989443318645
 30
0.0
 10
172.3424200030673
 20
608.7463208952175
 30
0.0
 10
172.5736099441074
 20
608.9902204071009
 30
0.0
 10
172.8030723499718
 20
609.2322974132809
 30
0.0
 10
173.1278743164159
 20
609.4666863589651
 30
0.0
 10
173.7478479759097
 20
609.9140819643295
 30
0.0
 10
174.6833675670801
 20
610.3131003626106
 30
0.0
 10
175.5695998587062
 20
610.6910967112144
 30
0.0
 10
176.7228850495339
 20
611.0144716243242
 30
0.0
 10
177.306258848798
 20
611.1780464739346
 30
0.0
 10
177.9531956359714
 20
611.3265010285753
 30
0.0
 10
178.6276048237083
 20
611.4812597586339
 30
0.0
 10
179.3617751887374
 20
611.618252190185
 30
0.0
 10
180.1203093206542
 20
611.7597907759075
 30
0.0
 10
180.9417266648227
 20
611.8818533229712
 30
0.0
 10
181.7690829173769
 20
612.0047983913129
 30
0.0
 10
182.6381051689238
 20
612.1044596209482
 30
0.0
 10
183.5023453753935
 20
612.2035724359811
 30
0.0
 10
184.3966727731702
 20
612.2787256782599
 30
0.0
 10
185.282951203271
 20
612.3532025395854
 30
0.0
 10
186.1853628178238
 20
612.4030688762497
 30
0.0
 10
187.9675426457052
 20
612.5015502985409
 30
0.0
 10
189.7401587915594
 20
612.5015936175291
 30
0.0
  0
SPLINE
  5
392
330
9D
100
AcDbEntity
  8
DV1_Default
  6
Continuous
 62
     7
100
AcDbSpline
210
0.0
220
0.0
230
1.0
 70
     8
 71
     2
 72
    20
 73
    17
 74
     0
 42
0.0000000003700628
 43
0.0000000001
 40
0.0
 40
0.0
 40
0.0
 40
0.125
 40
0.125
 40
0.25
 40
0.25
 40
0.375
 40
0.375
 40
0.5
 40
0.5
 40
0.625
 40
0.625
 40
0.75
 40
0.75
 40
0.875
 40
0.875
 40
1.0
 40
1.0
 40
1.0
 10
202.1401740780705
 20
607.8900289337028
 30
0.0
 10
202.139769392324
 20
607.2746816157162
 30
0.0
 10
201.2695490112445
 20
606.7076856228813
 30
0.0
 10
200.3209725576127
 20
606.0896363794935
 30
0.0
 10
198.5082981647804
 20
605.6187575758473
 30
0.0
 10
196.702056187438
 20
605.1495497221094
 30
0.0
 10
194.3045484766339
 20
604.9034905672739
 30
0.0
 10
192.1074377200912
 20
604.6779983974683
 30
0.0
 10
189.7401740780667
 20
604.6779661953641
 30
0.0
 10
187.3742162593632
 20
604.6779340110231
 30
0.0
 10
185.1757996794993
 20
604.9034905921109
 30
0.0
 10
182.7794504726032
 20
605.1493549742991
 30
0.0
 10
180.9720499913541
 20
605.6187576235553
 30
0.0
 10
179.1601419070105
 20
606.0893309490709
 30
0.0
 10
178.2107991448952
 20
606.7076856856132
 30
0.0
 10
177.3405789139072
 20
607.2745039341322
 30
0.0
 10
177.3401740780705
 20
607.8900290011705
 30
0.0
  0
SPLINE
  5
393
330
9D
100
AcDbEntity
  8
DV1_Default
  6
Continuous
 62
     7
100
AcDbSpline
210
0.0
220
0.0
230
1.0
 70
     8
 71
     2
 72
    28
 73
    25
 74
     0
 42
0.0000000003718599
 43
0.0000000001
 40
0.0
 40
0.0
 40
0.0
 40
0.125
 40
0.125
 40
0.25
 40
0.25
 40
0.3125
 40
0.3125
 40
0.375
 40
0.375
 40
0.4375
 40
0.4375
 40
0.5
 40
0.5
 40
0.5625
 40
0.5625
 40
0.625
 40
0.625
 40
0.6875
 40
0.6875
 40
0.75
 40
0.75
 40
0.875
 40
0.875
 40
1.0
 40
1.0
 40
1.0
 10
177.3401740780705
 20
607.8900290011705
 30
0.0
 10
177.3403298017315
 20
608.3505541412715
 30
0.0
 10
177.836174078069
 20
608.7894065759858
 30
0.0
 10
178.4716786314922
 20
609.3518668762271
 30
0.0
 10
179.8201740780685
 20
609.8172666576396
 30
0.0
 10
180.6048542104289
 20
610.0880795573096
 30
0.0
 10
181.5867494205347
 20
610.310076283617
 30
0.0
 10
182.6548872316145
 20
610.5515716029386
 30
0.0
 10
183.9048799604219
 20
610.7242020174721
 30
0.0
 10
185.2321189595195
 20
610.9075005385904
 30
0.0
 10
186.6878663857614
 20
611.00325904711
 30
0.0
 10
188.190092330649
 20
611.1020748947966
 30
0.0
 10
189.7401740780688
 20
611.1020917394834
 30
0.0
 10
191.289222476907
 20
611.1021085729409
 30
0.0
 10
192.7924817703763
 20
611.0032590304958
 30
0.0
 10
194.2472863606245
 20
610.9075957149802
 30
0.0
 10
195.5754681957154
 20
610.724201985718
 30
0.0
 10
196.8246758271644
 20
610.5517129182563
 30
0.0
 10
197.8935987356029
 20
610.3100762392647
 30
0.0
 10
198.8748500246121
 20
610.0882582757234
 30
0.0
 10
199.6601740780712
 20
609.817266603674
 30
0.0
 10
201.0082430052126
 20
609.3520886290601
 30
0.0
 10
201.644174078072
 20
608.7894065112147
 30
0.0
 10
202.1400183094183
 20
608.3506755006969
 30
0.0
 10
202.1401740780705
 20
607.8900289337028
 30
0.0
  0
ELLIPSE
  5
394
330
9D
100
AcDbEntity
  8
DV1_Default
  6
Continuous
 62
     7
100
AcDbEllipse
 10
189.7401740912
 20
607.8900289575
 30
0.0
 11
12.40000001310555
 21
-5.360070720605848E-8
 31
0.0
210
0.0
220
0.0
230
1.0
 40
0.2590373183
 41
3.141592653589786
 42
6.283185307179586
  0
ELLIPSE
  5
395
330
9D
100
AcDbEntity
  8
DV1_Default
  6
Continuous
 62
     7
100
AcDbEllipse
 10
189.7401740924
 20
608.1797891811
 30
0.0
 11
12.09999998625961
 21
-4.916328455450980E-8
 31
0.0
210
0.0
220
0.0
230
1.0
 40
0.2590373183
 41
3.141592653589793
 42
6.283185307179586
  0
ELLIPSE
  5
396
330
9D
100
AcDbEntity
  8
DV1_Default
  6
Continuous
 62
     7
100
AcDbEllipse
 10
189.7401740836
 20
607.8900289768
 30
0.0
 11
-12.39999999448784
 21
4.332792458150436E-8
 31
0.0
210
0.0
220
0.0
230
1.0
 40
0.2590373195
 41
3.141592653589809
 42
6.283185307179586
  0
SPLINE
  5
397
330
9D
100
AcDbEntity
  8
DV1_Default
  6
Continuous
 62
     7
100
AcDbSpline
210
0.0
220
0.0
230
1.0
 70
     8
 71
     3
 72
    20
 73
    16
 74
     0
 42
0.0000000005121806
 43
0.0000000001
 40
0.0
 40
0.0
 40
0.0
 40
0.0
 40
0.1046814098142417
 40
0.2112107262191674
 40
0.3435339987089226
 40
0.4669340555737707
 40
0.6000132442745221
 40
0.733001814593266
 40
0.7660920709614367
 40
0.8008607840852169
 40
0.8373096101375681
 40
0.8754421193530301
 40
0.9152646555733049
 40
0.9567882061395344
 40
1.0
 40
1.0
 40
1.0
 40
1.0
 10
171.5536702872363
 20
608.5458524393025
 30
0.0
 10
171.5823458051241
 20
608.801384210316
 30
0.0
 10
171.8009209513823
 20
609.3156539174876
 30
0.0
 10
172.6500082551996
 20
610.1253330441549
 30
0.0
 10
174.1173027440336
 20
610.9265850710993
 30
0.0
 10
176.3276508108767
 20
611.6835701201351
 30
0.0
 10
179.1038149270008
 20
612.3058371872235
 30
0.0
 10
181.5658094689105
 20
612.6635932182369
 30
0.0
 10
183.309744805184
 20
612.8476970251846
 30
0.0
 10
184.2336239672376
 20
612.9316175825539
 30
0.0
 10
185.2192730757254
 20
613.0061606654215
 30
0.0
 10
186.2662659283413
 20
613.0691447421161
 30
0.0
 10
187.3733128995859
 20
613.117492133469
 30
0.0
 10
188.537892125847
 20
613.150235936006
 30
0.0
 10
189.3341172490677
 20
613.1545035077706
 30
0.0
 10
189.7401616939505
 20
613.1566800765326
 30
0.0
  0
LINE
  5
398
330
9D
100
AcDbEntity
  8
DV1_Default
  6
Continuous
 62
     7
100
AcDbLine
 10
189.7402044538
 20
603.3084139252
 30
0.0
 11
189.7402044295
 21
603.2913476431
 31
0.0
  0
ARC
  5
399
330
9D
100
AcDbEntity
  8
DV1_Default
  6
Continuous
 62
     7
100
AcDbCircle
 10
173.7543206218
 20
608.4298326211
 30
0.0
 40
2.199338246240195
100
AcDbArc
 50
175.6324996915
 51
239.9828995833
  0
SPLINE
  5
39A
330
9D
100
AcDbEntity
  8
DV1_Default
  6
Continuous
 62
     7
100
AcDbSpline
210
0.0
220
0.0
230
1.0
 70
     8
 71
     3
 72
    17
 73
    13
 74
     0
 42
0.0000000005121931
 43
0.0000000001
 40
0.0
 40
0.0
 40
0.0
 40
0.0
 40
0.0734068802089739
 40
0.15301357842498
 40
0.2388325300449269
 40
0.3308876960382049
 40
0.4292092652517208
 40
0.5338323059370679
 40
0.6449802096271021
 40
0.7902571040238999
 40
0.8957655673205855
 40
1.0
 40
1.0
 40
1.0
 40
1.0
 10
189.7401616939505
 20
613.1566800765326
 30
0.0
 10
190.43014100475
 20
613.1503832746821
 30
0.0
 10
191.8683740843576
 20
613.1372584654822
 30
0.0
 10
194.079961269996
 20
613.0280702009688
 30
0.0
 10
196.389495178543
 20
612.8395349095942
 30
0.0
 10
198.7400794706435
 20
612.5527999845724
 30
0.0
 10
201.0562285860872
 20
612.1579863586066
 30
0.0
 10
203.2420312347945
 20
611.6447339627508
 30
0.0
 10
205.3161995622116
 20
610.9478427697094
 30
0.0
 10
206.8087974997753
 20
610.1484593485576
 30
0.0
 10
207.6800434006169
 20
609.311508108629
 30
0.0
 10
207.9004080424106
 20
608.8012641237341
 30
0.0
 10
207.9290950061398
 20
608.5468159702448
 30
0.0
  0
LINE
  5
39B
330
9D
100
AcDbEntity
  8
DV1_Default
  6
Continuous
 62
     7
100
AcDbLine
 10
189.7402044582
 20
603.3084139252
 30
0.0
 11
189.7402044341
 21
603.2913476411
 31
0.0
  0
SPLINE
  5
39C
330
9D
100
AcDbEntity
  8
DV1_Default
  6
Continuous
 62
     7
100
AcDbSpline
210
0.0
220
0.0
230
1.0
 70
     8
 71
     3
 72
    12
 73
     8
 74
     0
 42
0.0000000033826637
 43
0.0000000001
 40
0.0
 40
0.0
 40
0.0
 40
0.0
 40
0.0531954780346156
 40
0.2419789652529373
 40
0.4400835849067862
 40
0.6913259111038615
 40
1.0
 40
1.0
 40
1.0
 40
1.0
 10
206.4475702016334
 20
606.2714438338081
 30
0.0
 10
206.5148663519774
 20
606.307058973269
 30
0.0
 10
206.7761981355025
 20
606.4458681880584
 30
0.0
 10
207.1406395744713
 20
606.7618681300536
 30
0.0
 10
207.5826192686022
 20
607.2197457273094
 30
0.0
 10
207.9292821640923
 20
607.8606994788408
 30
0.0
 10
207.927953286722
 20
608.3044950008715
 30
0.0
 10
207.9189816199391
 20
608.5973093071237
 30
0.0
  0
SPLINE
  5
39D
330
9D
100
AcDbEntity
  8
DV1_Default
  6
Continuous
 62
     7
100
AcDbSpline
210
0.0
220
0.0
230
1.0
 70
     8
 71
     3
 72
    19
 73
    15
 74
     0
 42
0.0000000005259233
 43
0.0000000001
 40
0.0
 40
0.0
 40
0.0
 40
0.0
 40
0.0059176675750426
 40
0.1558871178471203
 40
0.3118882749642108
 40
0.4295381258931222
 40
0.5770901517802572
 40
0.7142767547791025
 40
0.7638612522954221
 40
0.8126788612759954
 40
0.8607065838848339
 40
0.9079326385317015
 40
0.9543584579518576
 40
1.0
 40
1.0
 40
1.0
 40
1.0
 10
171.7000837451158
 20
609.0238008113878
 30
0.0
 10
171.7067337497886
 20
609.0371774171456
 30
0.0
 10
171.8875242443357
 20
609.389357506156
 30
0.0
 10
172.5441548435666
 20
610.0829984003227
 30
0.0
 10
174.1842072774963
 20
610.9563225893066
 30
0.0
 10
176.4510576587667
 20
611.71405127547
 30
0.0
 10
179.1422072150445
 20
612.3125271892756
 30
0.0
 10
181.7163612439801
 20
612.6833874490216
 30
0.0
 10
183.6363014991121
 20
612.8810316141054
 30
0.0
 10
184.8602560085807
 20
612.9824143591666
 30
0.0
 10
186.0884111691079
 20
613.0608059286715
 30
0.0
 10
187.3140920101779
 20
613.1159563810187
 30
0.0
 10
188.5310330323128
 20
613.1502882252695
 30
0.0
 10
189.3394119582605
 20
613.1545616992495
 30
0.0
 10
189.7401616939505
 20
613.1566800765326
 30
0.0
  0
SPLINE
  5
39E
330
9D
100
AcDbEntity
  8
DV1_Default
  6
Continuous
 62
     7
100
AcDbSpline
210
0.0
220
0.0
230
1.0
 70
     8
 71
     3
 72
    35
 73
    31
 74
     0
 42
0.0000000000706313
 43
0.0000000001
 40
0.0
 40
0.0
 40
0.0
 40
0.0
 40
0.0224042246643088
 40
0.0741690249283793
 40
0.1285172552124296
 40
0.1851651825804524
 40
0.2435723262559031
 40
0.302921101088547
 40
0.3620929534033726
 40
0.4336110343706481
 40
0.5010270688025402
 40
0.5656331617290802
 40
0.6286504915810325
 40
0.6729696238211277
 40
0.7152993296621252
 40
0.7550398085042531
 40
0.7913938496048262
 40
0.823862890821048
 40
0.8522014107716
 40
0.8618031350497862
 40
0.8708151335882731
 40
0.8792451778053452
 40
0.8871038320017172
 40
0.8944041709145263
 40
0.9022979398128667
 40
0.9141280739494683
 40
0.9350337405722035
 40
0.9580722522211095
 40
0.9807766177930118
 40
1.0
 40
1.0
 40
1.0
 40
1.0
 10
174.077327046979
 20
605.8079242317366
 30
0.0
 10
174.0496586581968
 20
604.9165040156299
 30
0.0
 10
173.9530833481754
 20
601.9283845937966
 30
0.0
 10
173.754980774245
 20
596.5459862521209
 30
0.0
 10
173.4487887329445
 20
589.4268376677
 30
0.0
 10
173.0821150332892
 20
581.7862996059185
 30
0.0
 10
172.6621201737392
 20
573.7436744227615
 30
0.0
 10
172.2000044311607
 20
565.4564066100587
 30
0.0
 10
171.6703331903003
 20
556.4579703173495
 30
0.0
 10
171.087725432986
 20
547.0039377755087
 30
0.0
 10
170.4462600388452
 20
537.2366065123524
 30
0.0
 10
169.7408400403266
 20
527.832626385148
 30
0.0
 10
168.9933543859757
 20
519.5214893662655
 30
0.0
 10
168.2243516015632
 20
512.2881797546515
 30
0.0
 10
167.4901714876104
 20
506.1856951066567
 30
0.0
 10
166.7426528424713
 20
500.4728892377209
 30
0.0
 10
166.0159264392395
 20
495.2394922969018
 30
0.0
 10
165.3365572040579
 20
490.5584452030849
 30
0.0
 10
164.8276664620711
 20
487.1678051233856
 30
0.0
 10
164.481951406082
 20
484.907337124557
 30
0.0
 10
164.2810674240969
 20
483.6054933826717
 30
0.0
 10
164.0916235130092
 20
482.3876829460765
 30
0.0
 10
163.9137079918679
 20
481.2523651107664
 30
0.0
 10
163.7386844507663
 20
480.1429363552505
 30
0.0
 10
163.5321800474662
 20
478.8425068349765
 30
0.0
 10
163.2194891190171
 20
476.8890948105587
 30
0.0
 10
162.7826103523923
 20
474.2033810912515
 30
0.0
 10
162.2423769049505
 20
471.0210987252068
 30
0.0
 10
161.6597110238857
 20
467.8411461973979
 30
0.0
 10
161.2519752899283
 20
465.9898965158798
 30
0.0
 10
161.0297915531545
 20
464.9850945034743
 30
0.0
  0
SPLINE
  5
39F
330
9D
100
AcDbEntity
  8
DV1_Default
  6
Continuous
 62
     7
100
AcDbSpline
210
0.0
220
0.0
230
1.0
 70
     8
 71
     3
 72
    45
 73
    41
 74
     0
 42
0.0000000001592729
 43
0.0000000001
 40
0.0
 40
0.0
 40
0.0
 40
0.0
 40
0.0244354624400681
 40
0.0464880033879113
 40
0.0661026884870491
 40
0.0832279337337501
 40
0.1021680028257622
 40
0.1174541916365225
 40
0.1326872647252337
 40
0.148310247328078
 40
0.1642948393410854
 40
0.1788606226445149
 40
0.1877654773028628
 40
0.1952889021806856
 40
0.210224128389082
 40
0.2268787609950454
 40
0.2474948307562624
 40
0.2717881873635233
 40
0.294778019984479
 40
0.3154634938033449
 40
0.3391960669894661
 40
0.3592645153145092
 40
0.3758004031848263
 40
0.3876362962015841
 40
0.4025109304946148
 40
0.4217652726377452
 40
0.4452829584404767
 40
0.4830216680783503
 40
0.5276864345310583
 40
0.5788280797052836
 40
0.6211650826976582
 40
0.6667565838127539
 40
0.715646732306344
 40
0.7680388680333136
 40
0.8051037607096162
 40
0.8440570972249831
 40
0.885107843044655
 40
0.9285115299765005
 40
0.9745713120131982
 40
1.0
 40
1.0
 40
1.0
 40
1.0
 10
189.7401726151234
 20
662.5011028449994
 30
0.0
 10
188.8764690904729
 20
662.463933326773
 30
0.0
 10
187.4890557847314
 20
662.3901592043961
 30
0.0
 10
185.3737627887041
 20
661.880553693121
 30
0.0
 10
183.6067278490296
 20
661.2215458859783
 30
0.0
 10
182.0017517588338
 20
660.4147264106381
 30
0.0
 10
180.6108408118291
 20
659.5178682605193
 30
0.0
 10
179.3693021281347
 20
658.5192685971286
 30
0.0
 10
178.306923066325
 20
657.4787584297136
 30
0.0
 10
177.3466813424792
 20
656.3139030331104
 30
0.0
 10
176.5326133387696
 20
655.0699214740027
 30
0.0
 10
175.9534070190848
 20
653.937975261969
 30
0.0
 10
175.5844995358271
 20
653.0427473121226
 30
0.0
 10
175.285469847696
 20
652.1799624475871
 30
0.0
 10
175.0719078733682
 20
651.3699729295995
 30
0.0
 10
174.9373094197074
 20
650.6899597635829
 30
0.0
 10
174.8570361616333
 20
650.1541013601421
 30
0.0
 10
174.8118502035433
 20
649.7619350371124
 30
0.0
 10
174.7652674306414
 20
649.2991240910555
 30
0.0
 10
174.7223545839737
 20
648.8026401495974
 30
0.0
 10
174.6830763149991
 20
648.2887262642794
 30
0.0
 10
174.6483122026877
 20
647.7849314910004
 30
0.0
 10
174.621594171033
 20
647.372711428057
 30
0.0
 10
174.6002917942982
 20
647.0319182213855
 30
0.0
 10
174.5769920756134
 20
646.6505502219097
 30
0.0
 10
174.5460573419833
 20
646.1310265540363
 30
0.0
 10
174.4999902466815
 20
645.3350711039853
 30
0.0
 10
174.4337309437597
 20
644.1503319867282
 30
0.0
 10
174.3403449226952
 20
642.4162161516678
 30
0.0
 10
174.231368284115
 20
640.3223626957854
 30
0.0
 10
174.1094551026669
 20
637.9102547690153
 30
0.0
 10
173.9768721053245
 20
635.2499869137965
 30
0.0
 10
173.8065251653163
 20
632.0711023957742
 30
0.0
 10
173.6036629941532
 20
628.7686911009923
 30
0.0
 10
173.368736640974
 20
625.4785820951396
 30
0.0
 10
173.1125744982864
 20
622.3239643093492
 30
0.0
 10
172.7898557437727
 20
618.8410382486201
 30
0.0
 10
172.3852520717689
 20
615.0480644873008
 30
0.0
 10
171.96282845821
 20
611.5083088824952
 30
0.0
 10
171.671967431578
 20
609.4488765935625
 30
0.0
 10
171.5495651079274
 20
608.5857633358869
 30
0.0
  0
SPLINE
  5
3A0
330
9D
100
AcDbEntity
  8
DV1_Default
  6
Continuous
 62
     7
100
AcDbSpline
210
0.0
220
0.0
230
1.0
 70
     8
 71
     3
 72
    17
 73
    13
 74
     0
 42
0.0000000004985673
 43
0.0000000001
 40
0.0
 40
0.0
 40
0.0
 40
0.0
 40
0.080821214045574
 40
0.1644417123197826
 40
0.2508259666698905
 40
0.3713245640813501
 40
0.5009586320057687
 40
0.604272099738964
 40
0.741699825649903
 40
0.8733594756256873
 40
0.9952036211176233
 40
1.0
 40
1.0
 40
1.0
 40
1.0
 10
189.7401616939505
 20
613.1566800765326
 30
0.0
 10
190.549465810553
 20
613.1480220584834
 30
0.0
 10
192.196111558785
 20
613.1304058262031
 30
0.0
 10
194.6580886116596
 20
612.990230416018
 30
0.0
 10
197.3982846313803
 20
612.7368597340218
 30
0.0
 10
200.3495282119926
 20
612.3103988147636
 30
0.0
 10
203.0422805651689
 20
611.7107102022608
 30
0.0
 10
205.3106786294218
 20
610.9504794940017
 30
0.0
 10
206.9486328305817
 20
610.07463408407
 30
0.0
 10
207.8785795235973
 20
609.0829607491568
 30
0.0
 10
207.9769857785479
 20
608.4092064350073
 30
0.0
 10
207.8899495362826
 20
608.0807564309441
 30
0.0
 10
207.8864589423173
 20
608.0683199370603
 30
0.0
  0
SPLINE
  5
3A1
330
9D
100
AcDbEntity
  8
DV1_Default
  6
Continuous
 62
     7
100
AcDbSpline
210
0.0
220
0.0
230
1.0
 70
     8
 71
     3
 72
    44
 73
    40
 74
     0
 42
0.0000000000706401
 43
0.0000000001
 40
0.0
 40
0.0
 40
0.0
 40
0.0
 40
0.0128142883060531
 40
0.0295047390054769
 40
0.0474959774195087
 40
0.0671424614172315
 40
0.0879867898022292
 40
0.1089941505923388
 40
0.1285203338247682
 40
0.1451166049685677
 40
0.1567309198164797
 40
0.1647752025998722
 40
0.1689910872078146
 40
0.1714389021062872
 40
0.1741390080317038
 40
0.1770953082776389
 40
0.1803118473042593
 40
0.1966070527193765
 40
0.2177815669332795
 40
0.2440519849002859
 40
0.2771171775484013
 40
0.3115616766136278
 40
0.3464771041558465
 40
0.3819656168112225
 40
0.4185372644402376
 40
0.4546979216805954
 40
0.4929150181297274
 40
0.533811402652901
 40
0.5780740885676238
 40
0.6263542459122695
 40
0.6784639223585867
 40
0.7256761618321688
 40
0.7743541441559869
 40
0.821374320054689
 40
0.8658482115968064
 40
0.9075006437551746
 40
0.9461857674106822
 40
0.9818627763458635
 40
1.0
 40
1.0
 40
1.0
 40
1.0
 10
218.447782586045
 20
464.9868608904363
 30
0.0
 10
218.2979486012348
 20
465.6567724761064
 30
0.0
 10
218.0074519042587
 20
466.9614138373765
 30
0.0
 10
217.5541695539214
 20
469.2835539851892
 30
0.0
 10
217.0910648201986
 20
471.8747581163939
 30
0.0
 10
216.6178725219936
 20
474.6904077034877
 30
0.0
 10
216.1382588657782
 20
477.6468215224028
 30
0.0
 10
215.6683360872507
 20
480.5998826987772
 30
0.0
 10
215.2383578664339
 20
483.3486986810544
 30
0.0
 10
214.8849712398937
 20
485.6462355130219
 30
0.0
 10
214.6201898962031
 20
487.3915134671143
 30
0.0
 10
214.4475300625409
 20
488.5410368837017
 30
0.0
 10
214.3418283676058
 20
489.2493137949877
 30
0.0
 10
214.2747382943881
 20
489.7004681250112
 30
0.0
 10
214.2168251367006
 20
490.0909958950569
 30
0.0
 10
214.1536030325702
 20
490.5186411969074
 30
0.0
 10
213.9940337164334
 20
491.6016794017997
 30
0.0
 10
213.7081132824149
 20
493.5636230274407
 30
0.0
 10
213.2699444066498
 20
496.6386907008079
 30
0.0
 10
212.7334777490542
 20
500.5248566636434
 30
0.0
 10
212.1364741757299
 20
505.0546181120607
 30
0.0
 10
211.5255306692937
 20
510.0039725951292
 30
0.0
 10
210.9541921543893
 20
515.0733607305232
 30
0.0
 10
210.4299834517113
 20
520.246475171424
 30
0.0
 10
209.9552726263279
 20
525.4768412299826
 30
0.0
 10
209.5181883881372
 20
530.8317276030674
 30
0.0
 10
209.1062447506558
 20
536.3834241767265
 30
0.0
 10
208.7006382055654
 20
542.3081139246317
 30
0.0
 10
208.2894584644985
 20
548.6930507549155
 30
0.0
 10
207.8613379908338
 20
555.5878020718217
 30
0.0
 10
207.4427998546229
 20
562.5832802986264
 30
0.0
 10
207.044535108342
 20
569.5405158360803
 30
0.0
 10
206.6825270182509
 20
576.1874343215413
 30
0.0
 10
206.3531896079195
 20
582.6164693560171
 30
0.0
 10
206.0672154420521
 20
588.6136978528127
 30
0.0
 10
205.8264462160847
 20
594.1088605025083
 30
0.0
 10
205.6297460510702
 20
599.0756209252952
 30
0.0
 10
205.4957339008007
 20
602.9035223041916
 30
0.0
 10
205.4266035616252
 20
605.0700968675358
 30
0.0
 10
205.4042574827395
 20
605.7932083322842
 30
0.0
  0
SPLINE
  5
3A2
330
9D
100
AcDbEntity
  8
DV1_Default
  6
Continuous
 62
     7
100
AcDbSpline
210
0.0
220
0.0
230
1.0
 70
     8
 71
     3
 72
    39
 73
    35
 74
     0
 42
0.0000000001592682
 43
0.0000000001
 40
0.0
 40
0.0
 40
0.0
 40
0.0
 40
0.0226430530929688
 40
0.0663405307899302
 40
0.107736651105643
 40
0.1660554375310943
 40
0.2204966718498127
 40
0.271611447011706
 40
0.3197869407552937
 40
0.36526337429146
 40
0.4081521601032969
 40
0.4612070850112968
 40
0.5092257366158321
 40
0.5518259147215971
 40
0.5886426827101775
 40
0.619350508162094
 40
0.6459188453278918
 40
0.7227624795407712
 40
0.7597515104474033
 40
0.7765541943903308
 40
0.7908171788165619
 40
0.8038022580558709
 40
0.810645319195882
 40
0.8190696183210623
 40
0.8332751039244908
 40
0.8499180764404985
 40
0.8662695164965577
 40
0.8822014687107073
 40
0.8979183946251977
 40
0.9170973995525433
 40
0.9346120735169549
 40
0.9547954248686414
 40
0.977590630633696
 40
1.0
 40
1.0
 40
1.0
 40
1.0
 10
207.9299887176249
 20
608.5838131527082
 30
0.0
 10
207.8210148410656
 20
609.3509994817313
 30
0.0
 10
207.5508490180983
 20
611.2601047298825
 30
0.0
 10
207.150109469523
 20
614.5799295462488
 30
0.0
 10
206.6961644901148
 20
618.7567544358842
 30
0.0
 10
206.2973078170744
 20
623.0973433395643
 30
0.0
 10
205.9691947071315
 20
627.4059419527623
 30
0.0
 10
205.7304106672994
 20
631.1425958442853
 30
0.0
 10
205.5524324030061
 20
634.3538235562364
 30
0.0
 10
205.4137876217837
 20
637.0912564622083
 30
0.0
 10
205.2861543256709
 20
639.6324140242787
 30
0.0
 10
205.1685805245387
 20
641.8980632314174
 30
0.0
 10
205.0647841562504
 20
643.8343854425698
 30
0.0
 10
204.9827251010758
 20
645.3051556499479
 30
0.0
 10
204.9188596443095
 20
646.4003369682098
 30
0.0
 10
204.8690939219682
 20
647.2131959319289
 30
0.0
 10
204.8017522575506
 20
648.2576585432867
 30
0.0
 10
204.7241513199045
 20
649.2939868070484
 30
0.0
 10
204.6322368757521
 20
650.1043414843575
 30
0.0
 10
204.5522041678431
 20
650.6401837616504
 30
0.0
 10
204.4201089516946
 20
651.325675161753
 30
0.0
 10
204.2073965932175
 20
652.1319548795685
 30
0.0
 10
203.9415442376538
 20
652.917663856103
 30
0.0
 10
203.6005848597798
 20
653.7739214446564
 30
0.0
 10
203.0445529853299
 20
654.9013413234678
 30
0.0
 10
202.2312305194979
 20
656.1836125363449
 30
0.0
 10
201.2413379821305
 20
657.4080023738591
 30
0.0
 10
200.1415609345161
 20
658.4945514890176
 30
0.0
 10
198.8665874966147
 20
659.5213462878593
 30
0.0
 10
197.4464227951768
 20
660.4342658005323
 30
0.0
 10
195.8050412759361
 20
661.2532679679205
 30
0.0
 10
193.984076056911
 20
661.9187977539956
 30
0.0
 10
191.8854658354515
 20
662.4083726219103
 30
0.0
 10
190.5337216532972
 20
662.4580551822186
 30
0.0
 10
189.7415213486956
 20
662.4796603400274
 30
0.0
  0
LINE
  5
3A3
330
9D
100
AcDbEntity
  8
DV1_Default
  6
Continuous
 62
     7
100
AcDbLine
 10
189.7402417191
 20
464.372658472
 30
0.0
 11
161.5238550095
 21
464.372658472
 31
0.0
  0
ARC
  5
3A4
330
9D
100
AcDbEntity
  8
DV1_Default
  6
Continuous
 62
     7
100
AcDbCircle
 10
161.5238567501
 20
464.8726558105
 30
0.0
 40
0.4999973355778332
100
AcDbArc
 50
215.0193829728
 51
270.5614777197
  0
ARC
  5
3A5
330
9D
100
AcDbEntity
  8
DV1_Default
  6
Continuous
 62
     7
100
AcDbCircle
 10
161.5238602037
 20
464.8726584905
 30
0.0
 40
0.5000017018516407
100
AcDbArc
 50
159.4791090237
 51
215.0194073748
  0
LINE
  5
3A6
330
9D
100
AcDbEntity
  8
DV1_Default
  6
Continuous
 62
     7
100
AcDbLine
 10
189.7402417191
 20
464.372658472
 30
0.0
 11
217.9565340523
 21
464.372658472
 31
0.0
  0
ARC
  5
3A7
330
9D
100
AcDbEntity
  8
DV1_Default
  6
Continuous
 62
     7
100
AcDbCircle
 10
217.9565307105
 20
464.8726584853
 30
0.0
 40
0.5000012309527612
100
AcDbArc
 50
324.9791292204
 51
20.5187567626
  0
ARC
  5
3A8
330
9D
100
AcDbEntity
  8
DV1_Default
  6
Continuous
 62
     7
100
AcDbCircle
 10
217.9565332086
 20
464.8726565468
 30
0.0
 40
0.4999980727280187
100
AcDbArc
 50
269.4384692266
 51
324.9791468672
  0
LINE
  5
3A9
330
9D
100
AcDbEntity
  8
DV1_Default
  6
Continuous
 62
     7
100
AcDbLine
 10
189.7402417204
 20
464.372658472
 30
0.0
 11
161.7535053166
 21
464.372658472
 31
0.0
  0
LINE
  5
3AA
330
9D
100
AcDbEntity
  8
DV1_Default
  6
Continuous
 62
     7
100
AcDbLine
 10
161.524718968
 20
464.372658472
 30
0.0
 11
161.5237965351
 21
464.372658472
 31
0.0
  0
LINE
  5
3AB
330
9D
100
AcDbEntity
  8
DV1_Default
  6
Continuous
 62
     7
100
AcDbLine
 10
189.7402417204
 20
464.372658472
 30
0.0
 11
217.7460107626
 21
464.372658472
 31
0.0
  0
LINE
  5
3AC
330
9D
100
AcDbEntity
  8
DV1_Default
  6
Continuous
 62
     7
100
AcDbLine
 10
217.9529159284
 20
464.372658472
 30
0.0
 11
217.956646009
 21
464.372658472
 31
0.0
  0
ARC
  5
3AD
330
9D
100
AcDbEntity
  8
DV1_Default
  6
Continuous
 62
     7
100
AcDbCircle
 10
372.1154905266
 20
558.3670561384
 30
0.0
 40
1.000097190615759
100
AcDbArc
 50
324.1460020651
 51
107.2503446686
  0
LINE
  5
3AE
330
9D
100
AcDbEntity
  8
DV1_Default
  6
Continuous
 62
     7
100
AcDbLine
 10
372.9274456344
 20
557.7804884734
 30
0.0
 11
372.9260814711
 21
557.7812774163
 31
0.0
  0
ARC
  5
3AF
330
9D
100
AcDbEntity
  8
DV1_Default
  6
Continuous
 62
     7
100
AcDbCircle
 10
372.118264651
 20
558.3681622681
 30
0.0
 40
1.00006717425278
100
AcDbArc
 50
324.0106884622
 51
107.4040414845
  0
SPLINE
  5
3B0
330
9D
100
AcDbEntity
  8
DV1_Default
  6
Continuous
 62
     7
100
AcDbSpline
210
0.0
220
0.0
230
1.0
 70
    12
 71
     3
 72
    10
 73
     6
 74
     0
 42
0.0000054089608865
 43
0.0000000001
 40
0.0
 40
0.0
 40
0.0
 40
0.0
 40
0.3333333333333
 40
0.6666666666667
 40
1.0
 40
1.0
 40
1.0
 40
1.0
 10
371.8189143849787
 20
559.3221671178139
 30
0.0
 41
1.0
 10
371.8192843180046
 20
559.3223297811498
 30
0.0
 41
1.0
 10
371.8197943158484
 20
559.3225693466554
 30
0.0
 41
1.0
 10
371.8198690966511
 20
559.3226602059855
 30
0.0
 41
1.0
 10
371.819457795373
 20
559.3225463215554
 30
0.0
 41
1.0
 10
371.8191364576807
 20
559.3224455997215
 30
0.0
 41
1.0
  0
SPLINE
  5
3B1
330
9D
100
AcDbEntity
  8
DV1_Default
  6
Continuous
 62
     7
100
AcDbSpline
210
0.0
220
0.0
230
1.0
 70
     8
 71
     3
 72
    48
 73
    44
 74
     0
 42
0.0000000001183675
 43
0.0000000001
 40
0.0
 40
0.0
 40
0.0
 40
0.0
 40
0.0090092506298837
 40
0.0270275037258473
 40
0.0450457568218109
 40
0.0630640099177746
 40
0.0991005161097018
 40
0.1351370223016291
 40
0.1531552753975927
 40
0.1711735284935563
 40
0.1891917815895199
 40
0.1982009081375017
 40
0.2072100346854836
 40
0.2252282877814472
 40
0.2432465408774108
 40
0.2612647939733744
 40
0.279283047069338
 40
0.2973013001653017
 40
0.3153195532612653
 40
0.3513560594531925
 40
0.3873925656451198
 40
0.423429071837047
 40
0.4955020842209015
 40
0.567575096604756
 40
0.6036116027966834
 40
0.6396481089886106
 40
0.6756846151805378
 40
0.711721121372465
 40
0.7297393744684286
 40
0.7477576275643923
 40
0.7837941337563196
 40
0.8198306399482468
 40
0.8378488930442104
 40
0.855867146140174
 40
0.8648762726881558
 40
0.8738853992361376
 40
0.8919036523321013
 40
0.909921905428065
 40
0.9189310319760468
 40
0.9279401585240286
 40
0.9459584116199922
 40
0.9639766647159558
 40
1.0
 40
1.0
 40
1.0
 40
1.0
 10
372.9260814711039
 20
557.7812774162821
 30
0.0
 10
372.9200457015867
 20
557.7800492458149
 30
0.0
 10
372.8566429828916
 20
557.7554071780157
 30
0.0
 10
372.5664105291185
 20
557.6306732488779
 30
0.0
 10
371.9495634438087
 20
557.3344760236976
 30
0.0
 10
370.80658815102
 20
556.7651937677933
 30
0.0
 10
368.9147704456185
 20
555.8368556733446
 30
0.0
 10
366.6457857746757
 20
554.8418743995992
 30
0.0
 10
364.7236578274867
 20
554.0512196192897
 30
0.0
 10
363.2300815287434
 20
553.4587070931242
 30
0.0
 10
361.9714577432737
 20
552.9797765549655
 30
0.0
 10
360.959722833262
 20
552.6075707565102
 30
0.0
 10
359.9442889838386
 20
552.2425267049468
 30
0.0
 10
358.6688939406359
 20
551.8000546475322
 30
0.0
 10
357.1294271746997
 20
551.2900504478627
 30
0.0
 10
355.5817783709212
 20
550.8000068759584
 30
0.0
 10
354.0265027892665
 20
550.3288503518613
 30
0.0
 10
352.4652226974056
 20
549.8756618798005
 30
0.0
 10
350.377705869815
 20
549.2945690296833
 30
0.0
 10
347.7591195170577
 20
548.6098062436669
 30
0.0
 10
344.6084528442194
 20
547.8490133927774
 30
0.0
 10
340.4079697918087
 20
546.9085652042405
 30
0.0
 10
335.1574084806489
 20
545.8563312994856
 30
0.0
 10
329.8978081819555
 20
544.9132088530296
 30
0.0
 10
325.687633518529
 20
544.1927621032057
 30
0.0
 10
322.530517345795
 20
543.6579776888683
 30
0.0
 10
319.3766455466304
 20
543.116657851091
 30
0.0
 10
316.7540699497912
 20
542.6492809016272
 30
0.0
 10
314.659114391867
 20
542.2612597476375
 30
0.0
 10
312.5660426470251
 20
541.8608388707368
 30
0.0
 10
309.958023176482
 20
541.3261491860022
 30
0.0
 10
307.370876993857
 20
540.7199215289833
 30
0.0
 10
305.3197481859399
 20
540.1761406470155
 30
0.0
 10
304.0467777544762
 20
539.8086220859764
 30
0.0
 10
303.0345552926314
 20
539.495743451945
 30
0.0
 10
302.0271606096139
 20
539.1679674261316
 30
0.0
 10
300.7783246019418
 20
538.7269440097339
 30
0.0
 10
299.5468349944381
 20
538.234391091858
 30
0.0
 10
298.5743832112295
 20
537.8040166799751
 30
0.0
 10
297.6104672923457
 20
537.3463909819383
 30
0.0
 10
296.428006993999
 20
536.7281416212567
 30
0.0
 10
294.6236012507282
 20
535.611618235539
 30
0.0
 10
293.4050161783321
 20
534.5856224498593
 30
0.0
 10
292.6869217001783
 20
533.7799264495449
 30
0.0
  0
SPLINE
  5
3B2
330
9D
100
AcDbEntity
  8
DV1_Default
  6
Continuous
 62
     7
100
AcDbSpline
210
0.0
220
0.0
230
1.0
 70
     8
 71
     3
 72
     8
 73
     4
 74
     0
 42
0.0000000010710828
 43
0.0000000001
 40
0.0
 40
0.0
 40
0.0
 40
0.0
 40
1.0
 40
1.0
 40
1.0
 40
1.0
 10
371.8191364576807
 20
559.3224455997215
 30
0.0
 10
368.8491569661037
 20
558.3924893707615
 30
0.0
 10
365.8791774884058
 20
557.462533097524
 30
0.0
 10
362.9020023012423
 20
556.5564289563787
 30
0.0
  0
SPLINE
  5
3B3
330
9D
100
AcDbEntity
  8
DV1_Default
  6
Continuous
 62
     7
100
AcDbSpline
210
0.0
220
0.0
230
1.0
 70
     8
 71
     3
 72
    17
 73
    13
 74
     0
 42
0.0000000002512417
 43
0.0000000001
 40
0.0
 40
0.0
 40
0.0
 40
0.0
 40
0.2114302668719984
 40
0.4872662183638171
 40
0.5769406131242759
 40
0.60687524514937
 40
0.7285680708852319
 40
0.7929030064951084
 40
0.8598978909258995
 40
0.9058947781769989
 40
0.9527095544322222
 40
1.0
 40
1.0
 40
1.0
 40
1.0
 10
304.6027308559293
 20
545.4242181446873
 30
0.0
 10
301.8468758554151
 20
545.1109004413196
 30
0.0
 10
295.5032467949591
 20
544.228725791509
 30
0.0
 10
287.9980019474788
 20
541.9723735751762
 30
0.0
 10
284.0098007591314
 20
538.5477257503367
 30
0.0
 10
281.9469517258378
 20
536.1362962403163
 30
0.0
 10
280.5244135172072
 20
533.6257048757751
 30
0.0
 10
279.4498404236572
 20
530.4737591220305
 30
0.0
 10
278.9372360482693
 20
528.1942922979756
 30
0.0
 10
278.6398526005747
 20
526.1136258042347
 30
0.0
 10
278.4783158840361
 20
524.2772617927765
 30
0.0
 10
278.4532086644241
 20
523.0399871858291
 30
0.0
 10
278.4406532645212
 20
522.4182225447302
 30
0.0
  0
ARC
  5
3B4
330
9D
100
AcDbEntity
  8
DV1_Default
  6
Continuous
 62
     7
100
AcDbCircle
 10
305.2845282181
 20
524.1567107467
 30
0.0
 40
15.85263291834405
100
AcDbArc
 50
142.624065965
 51
187.0277601939
  0
SPLINE
  5
3B5
330
9D
100
AcDbEntity
  8
DV1_Default
  6
Continuous
 62
     7
100
AcDbSpline
210
0.0
220
0.0
230
1.0
 70
     8
 71
     3
 72
    26
 73
    22
 74
     0
 42
0.00000000011639
 43
0.0000000001
 40
0.0
 40
0.0
 40
0.0
 40
0.0
 40
0.0625000000000004
 40
0.0625000000000004
 40
0.1250000000000008
 40
0.1250000000000008
 40
0.2500000000000007
 40
0.2500000000000007
 40
0.3750000000000006
 40
0.3750000000000006
 40
0.5000000000000004
 40
0.5000000000000004
 40
0.6250000000000003
 40
0.6250000000000003
 40
0.7500000000000002
 40
0.7500000000000002
 40
0.8750000000000001
 40
0.8750000000000001
 40
0.9375
 40
0.9375
 40
1.0
 40
1.0
 40
1.0
 40
1.0
 10
301.0442917430074
 20
522.4124250538223
 30
0.0
 10
301.066698943291
 20
523.360837713855
 30
0.0
 10
301.1456251044386
 20
524.3891504903581
 30
0.0
 10
301.4465330862543
 20
526.4028608947034
 30
0.0
 10
301.6687029545037
 20
527.3776418591649
 30
0.0
 10
302.5927379891585
 20
530.0509321003212
 30
0.0
 10
303.5552093555856
 20
531.4743023207556
 30
0.0
 10
306.3612044061726
 20
533.5790396617385
 30
0.0
 10
308.2068535944011
 20
534.2843470551945
 30
0.0
 10
312.8786662912595
 20
535.4417611785306
 30
0.0
 10
315.7013198799392
 20
535.8876511891812
 30
0.0
 10
322.2886215181019
 20
536.7973059214547
 30
0.0
 10
326.0494376483392
 20
537.2493302311667
 30
0.0
 10
334.3446642728941
 20
538.4455385486408
 30
0.0
 10
338.8772612731016
 20
539.1764658154674
 30
0.0
 10
348.4376486543043
 20
541.5333874188653
 30
0.0
 10
353.4764601211699
 20
543.1485088681703
 30
0.0
 10
361.0825127785485
 20
547.1183841939961
 30
0.0
 10
363.6252556310827
 20
548.705868299241
 30
0.0
 10
368.5186271773187
 20
552.6230188510817
 30
0.0
 10
370.8766475323401
 20
554.9524103643411
 30
0.0
 10
372.9274456344481
 20
557.7804884733519
 30
0.0
  0
LINE
  5
3B6
330
9D
100
AcDbEntity
  8
DV1_Default
  6
Continuous
 62
     7
100
AcDbLine
 10
300.7445947702
 20
522.2171410016
 30
0.0
 11
289.5328281583
 21
522.2171375458
 31
0.0
  0
SPLINE
  5
3B7
330
9D
100
AcDbEntity
  8
DV1_Default
  6
Continuous
 62
     7
100
AcDbSpline
210
0.0
220
0.0
230
1.0
 70
    12
 71
     3
 72
    11
 73
     7
 74
     0
 42
0.0000000317767934
 43
0.0000000001
 40
0.0
 40
0.0
 40
0.0
 40
0.0
 40
0.2499856394489
 40
0.499991011718
 40
0.7499963839871
 40
1.0
 40
1.0
 40
1.0
 40
1.0
 10
300.8443346457577
 20
522.2171410323816
 30
0.0
 41
1.0
 10
300.867624385759
 20
522.2171397762312
 30
0.0
 41
1.0
 10
300.9178249196398
 20
522.2254757129849
 30
0.0
 41
1.0
 10
300.9881140342768
 20
522.269927850043
 30
0.0
 41
1.0
 10
301.0342183713136
 20
522.339146984054
 30
0.0
 41
1.0
 10
301.0437425239224
 20
522.3891395853246
 30
0.0
 41
1.0
 10
301.0442917430074
 20
522.4124250538223
 30
0.0
 41
1.0
  0
ARC
  5
3B8
330
9D
100
AcDbEntity
  8
DV1_Default
  6
Continuous
 62
     7
100
AcDbCircle
 10
278.6405336966
 20
522.4170014089
 30
0.0
 40
0.199884162196815
100
AcDbArc
 50
179.649965442
 51
270.0337359044
  0
LINE
  5
3B9
330
9D
100
AcDbEntity
  8
DV1_Default
  6
Continuous
 62
     7
100
AcDbLine
 10
289.5326653905
 20
522.2171375455
 30
0.0
 11
278.6860696297
 21
522.2171173659
 31
0.0
  0
LINE
  5
3BA
330
9D
100
AcDbEntity
  8
DV1_Default
  6
Continuous
 62
     7
100
AcDbLine
 10
300.7974395098
 20
522.2171409833
 30
0.0
 11
300.8443346458
 21
522.2171410324
 31
0.0
  0
LINE
  5
3BB
330
9D
100
AcDbEntity
  8
DV1_Default
  6
Continuous
 62
     7
100
AcDbLine
 10
371.8193264526
 20
559.3224907276
 30
0.0
 11
371.8179826246
 21
559.3218761435
 31
0.0
  0
LINE
  5
3BC
330
9D
100
AcDbEntity
  8
DV1_Default
  6
Continuous
 62
     7
100
AcDbLine
 10
371.8195269013
 20
559.3234400648
 30
0.0
 11
371.8283256171
 21
559.3261901183
 31
0.0
  0
LINE
  5
3BD
330
9D
100
AcDbEntity
  8
DV1_Default
  6
Continuous
 62
     7
100
AcDbLine
 10
371.2415960535
 20
559.1428067982
 30
0.0
 11
371.8195269013
 21
559.3234400648
 31
0.0
  0
SPLINE
  5
3BE
330
9D
100
AcDbEntity
  8
DV1_Default
  6
Continuous
 62
     7
100
AcDbSpline
210
0.0
220
0.0
230
1.0
 70
     8
 71
     3
 72
    20
 73
    16
 74
     0
 42
0.0000000001366011
 43
0.0000000001
 40
0.0
 40
0.0
 40
0.0
 40
0.0
 40
0.0717460985671477
 40
0.1519465382019712
 40
0.2081481105762552
 40
0.2637629472322289
 40
0.3219334604417844
 40
0.3865217906939574
 40
0.4596972978062679
 40
0.5414438384961355
 40
0.6260303455522452
 40
0.7173841355872206
 40
0.8146650268669564
 40
0.9166272985096688
 40
1.0
 40
1.0
 40
1.0
 40
1.0
 10
299.6859051121963
 20
544.7212905832052
 30
0.0
 10
301.5961138876927
 20
544.9940808761474
 30
0.0
 10
305.0105406128505
 20
545.4827248853958
 30
0.0
 10
310.1495822502342
 20
545.9632248113081
 30
0.0
 10
314.7437920295895
 20
546.403185646726
 30
0.0
 10
318.8421191784835
 20
546.8217159685458
 30
0.0
 10
323.1588501481768
 20
547.3383338532986
 30
0.0
 10
327.9155039092994
 20
548.0208684182792
 30
0.0
 10
333.2220439446141
 20
548.9289111710625
 30
0.0
 10
338.9722967928886
 20
550.0902167807599
 30
0.0
 10
345.1087540774219
 20
551.5108057128646
 30
0.0
 10
351.5746403755215
 20
553.202610496977
 30
0.0
 10
358.3541804829776
 20
555.1508319321872
 30
0.0
 10
365.0923052594497
 20
557.2145250275407
 30
0.0
 10
369.1053688548511
 20
558.4711092873629
 30
0.0
 10
371.2415960534613
 20
559.1428067981841
 30
0.0
  0
LINE
  5
3BF
330
9D
100
AcDbEntity
  8
DV1_Default
  6
Continuous
 62
     7
100
AcDbLine
 10
371.2407362475
 20
559.1425376222
 30
0.0
 11
371.829650514
 21
559.3266038372
 31
0.0
  0
SPLINE
  5
3C0
330
9D
100
AcDbEntity
  8
DV1_Default
  6
Continuous
 62
     7
100
AcDbSpline
210
0.0
220
0.0
230
1.0
 70
     8
 71
     3
 72
     9
 73
     5
 74
     0
 42
0.0000000011453737
 43
0.0000000001
 40
0.0
 40
0.0
 40
0.0
 40
0.0
 40
0.3035291490684246
 40
0.9999999999999999
 40
0.9999999999999999
 40
0.9999999999999999
 40
0.9999999999999999
 10
362.9045016196224
 20
556.5477185890485
 30
0.0
 10
363.7514293043063
 20
556.8072958178767
 30
0.0
 10
366.5126182464787
 20
557.6592581931827
 30
0.0
 10
369.1045717217366
 20
558.4708597274409
 30
0.0
 10
371.2407362475066
 20
559.1425376221832
 30
0.0
  0
SPLINE
  5
3C1
330
9D
100
AcDbEntity
  8
DV1_Default
  6
Continuous
 62
     7
100
AcDbSpline
210
0.0
220
0.0
230
1.0
 70
     8
 71
     3
 72
    10
 73
     6
 74
     0
 42
0.0000000420787759
 43
0.0000000001
 40
0.0
 40
0.0
 40
0.0
 40
0.0
 40
0.472525436441459
 40
0.9398353569036085
 40
1.0
 40
1.0
 40
1.0
 40
1.0
 10
278.9332522364201
 20
521.4171138164118
 30
0.0
 10
278.9439040033004
 20
521.4171151572237
 30
0.0
 10
278.9650899616003
 20
521.4171159644405
 30
0.0
 10
279.0805800447089
 20
521.4171176553949
 30
0.0
 10
279.1614194543073
 20
521.4171106104925
 30
0.0
 10
279.170901734813
 20
521.4171097100217
 30
0.0
  0
SPLINE
  5
3C2
330
9D
100
AcDbEntity
  8
DV1_Default
  6
Continuous
 62
     7
100
AcDbSpline
210
0.0
220
0.0
230
1.0
 70
     8
 71
     3
 72
    29
 73
    25
 74
     0
 42
0.0000000004794416
 43
0.0000000001
 40
0.0
 40
0.0
 40
0.0
 40
0.0
 40
0.0062717577676198
 40
0.0772583787646258
 40
0.1125737765305058
 40
0.1479034520062391
 40
0.1834177459291398
 40
0.2190373331306763
 40
0.2901463110680887
 40
0.3611039298337888
 40
0.3965492332399385
 40
0.4319556998860045
 40
0.5026329938683616
 40
0.5380177439008954
 40
0.573417555543939
 40
0.6442207511258987
 40
0.6797298321075119
 40
0.7151865034681959
 40
0.7505220440489891
 40
0.785897309782985
 40
0.857124114432475
 40
0.9285083183710956
 40
0.9640536669666563
 40
1.0
 40
1.0
 40
1.0
 40
1.0
 10
279.6893990102528
 20
521.417049790165
 30
0.0
 10
279.7123283263535
 20
521.4170487522435
 30
0.0
 10
280.0010637969474
 20
521.4170406154581
 30
0.0
 10
280.5340314604264
 20
521.4171320582262
 30
0.0
 10
281.374513167609
 20
521.4171141295626
 30
0.0
 10
282.0853281322428
 20
521.417046597959
 30
0.0
 10
282.8716095657558
 20
521.4171008427204
 30
0.0
 10
284.0092468905586
 20
521.417141415306
 30
0.0
 10
285.5794918597509
 20
521.4170605074493
 30
0.0
 10
287.2815445906048
 20
521.417142205714
 30
0.0
 10
288.6794774117934
 20
521.4171125779133
 30
0.0
 10
290.0879022276266
 20
521.4170362078328
 30
0.0
 10
291.4996127910575
 20
521.4171468653445
 30
0.0
 10
292.8672154306869
 20
521.4171221693165
 30
0.0
 10
294.1963609645759
 20
521.4170451202344
 30
0.0
 10
295.4509838435883
 20
521.4171683929077
 30
0.0
 10
296.5867730886089
 20
521.4171006640354
 30
0.0
 10
297.3738188998523
 20
521.4170690041607
 30
0.0
 10
298.0868689221705
 20
521.4171441857843
 30
0.0
 10
298.9322188814206
 20
521.4171342181614
 30
0.0
 10
299.7791524064979
 20
521.4170509019068
 30
0.0
 10
300.2964313442696
 20
521.4171321802028
 30
0.0
 10
300.5147560629608
 20
521.417142286813
 30
0.0
 10
300.5362091508059
 20
521.4171395073164
 30
0.0
 10
300.5469958608474
 20
521.417137235694
 30
0.0
  0
ARC
  5
3C3
330
9D
100
AcDbEntity
  8
DV1_Default
  6
Continuous
 62
     7
100
AcDbCircle
 10
300.548874404
 20
520.9174035369
 30
0.0
 40
0.4997372295527253
100
AcDbArc
 50
3.2465798346
 51
90.2153788872
  0
ARC
  5
3C4
330
9D
100
AcDbEntity
  8
DV1_Default
  6
Continuous
 62
     7
100
AcDbCircle
 10
278.9319456189
 20
520.9170831277
 30
0.0
 40
0.5000323958397719
100
AcDbArc
 50
89.8502821944
 51
176.7213914883
  0
SPLINE
  5
3C5
330
9D
100
AcDbEntity
  8
DV1_Default
  6
Continuous
 62
     7
100
AcDbSpline
210
0.0
220
0.0
230
1.0
 70
     8
 71
     3
 72
     8
 73
     4
 74
     0
 42
0.0000000002657121
 43
0.0000000001
 40
0.0
 40
0.0
 40
0.0
 40
0.0
 40
1.0
 40
1.0
 40
1.0
 40
1.0
 10
301.0478095817715
 20
520.9457052505655
 30
0.0
 10
301.8935829484108
 20
506.3802667208108
 30
0.0
 10
303.9525093923945
 20
494.073673403218
 30
0.0
 10
307.2245890071845
 20
484.0259253066587
 30
0.0
  0
SPLINE
  5
3C6
330
9D
100
AcDbEntity
  8
DV1_Default
  6
Continuous
 62
     7
100
AcDbSpline
210
0.0
220
0.0
230
1.0
 70
     8
 71
     3
 72
     8
 73
     4
 74
     0
 42
0.0000000002657126
 43
0.0000000001
 40
0.0
 40
0.0
 40
0.0
 40
0.0
 40
1.0
 40
1.0
 40
1.0
 40
1.0
 10
272.2561312138956
 20
484.0257935099293
 30
0.0
 10
275.5275989178159
 20
494.0737254480704
 30
0.0
 10
277.5864895025898
 20
506.3803018195696
 30
0.0
 10
278.4327316567749
 20
520.9456806255432
 30
0.0
  0
SPLINE
  5
3C7
330
9D
100
AcDbEntity
  8
DV1_Default
  6
Continuous
 62
     7
100
AcDbSpline
210
0.0
220
0.0
230
1.0
 70
     8
 71
     3
 72
     8
 73
     4
 74
     0
 42
0.0000000092004713
 43
0.0000000001
 40
0.0
 40
0.0
 40
0.0
 40
0.0
 40
1.0
 40
1.0
 40
1.0
 40
1.0
 10
306.7486532748342
 20
483.3727836708856
 30
0.0
 10
307.0878654474332
 20
483.3728082134174
 30
0.0
 10
307.3284261835103
 20
483.7033465683783
 30
0.0
 10
307.2245890071845
 20
484.0259253066587
 30
0.0
  0
SPLINE
  5
3C8
330
9D
100
AcDbEntity
  8
DV1_Default
  6
Continuous
 62
     7
100
AcDbSpline
210
0.0
220
0.0
230
1.0
 70
     8
 71
     3
 72
     8
 73
     4
 74
     0
 42
0.0000000092113708
 43
0.0000000001
 40
0.0
 40
0.0
 40
0.0
 40
0.0
 40
1.0
 40
1.0
 40
1.0
 40
1.0
 10
272.2561312138956
 20
484.0257935099293
 30
0.0
 10
272.1532887504429
 20
483.7031098863142
 30
0.0
 10
272.393409352482
 20
483.3727556129268
 30
0.0
 10
272.7319467269137
 20
483.3727472718731
 30
0.0
  0
LINE
  5
3C9
330
9D
100
AcDbEntity
  8
DV1_Default
  6
Continuous
 62
     7
100
AcDbLine
 10
306.7486532748
 20
483.3727836709
 30
0.0
 11
306.443180544
 21
483.372783344
 31
0.0
  0
LINE
  5
3CA
330
9D
100
AcDbEntity
  8
DV1_Default
  6
Continuous
 62
     7
100
AcDbLine
 10
306.443180544
 20
483.372783344
 30
0.0
 11
273.03013843
 21
483.3727475909
 31
0.0
  0
LINE
  5
3CB
330
9D
100
AcDbEntity
  8
DV1_Default
  6
Continuous
 62
     7
100
AcDbLine
 10
273.03013843
 20
483.3727475909
 30
0.0
 11
272.7319467269
 21
483.3727472719
 31
0.0
  0
SPLINE
  5
3CC
330
9D
100
AcDbEntity
  8
DV1_Default
  6
Continuous
 62
     7
100
AcDbSpline
210
0.0
220
0.0
230
1.0
 70
    12
 71
     3
 72
     8
 73
     4
 74
     0
 42
0.0000000005055053
 43
0.0000000001
 40
0.0
 40
0.0
 40
0.0
 40
0.0
 40
1.0
 40
1.0
 40
1.0
 40
1.0
 10
307.5564546898343
 20
483.0340867985785
 30
0.0
 41
1.0
 10
309.5299571168575
 20
477.2461197889078
 30
0.0
 41
1.0
 10
312.2804262603937
 20
471.2752407833136
 30
0.0
 41
1.0
 10
315.8078635746472
 20
465.1214457658037
 30
0.0
 41
1.0
  0
ARC
  5
3CD
330
9D
100
AcDbEntity
  8
DV1_Default
  6
Continuous
 62
     7
100
AcDbCircle
 10
174.4023718911
 20
517.0997886151
 30
0.0
 40
103.3010433037919
100
AcDbArc
 50
329.790020435
 51
340.7450918972
  0
SPLINE
  5
3CE
330
9D
100
AcDbEntity
  8
DV1_Default
  6
Continuous
 62
     7
100
AcDbSpline
210
0.0
220
0.0
230
1.0
 70
    12
 71
     3
 72
     8
 73
     4
 74
     0
 42
0.0000000151087261
 43
0.0000000001
 40
0.0
 40
0.0
 40
0.0
 40
0.0
 40
1.0
 40
1.0
 40
1.0
 40
1.0
 10
307.0832347900341
 20
483.3727840245518
 30
0.0
 41
1.0
 10
307.2972002209442
 20
483.372774682061
 30
0.0
 41
1.0
 10
307.4874252265299
 20
483.2366176051783
 30
0.0
 41
1.0
 10
307.5564546898343
 20
483.0340867985785
 30
0.0
 41
1.0
  0
ARC
  5
3CF
330
9D
100
AcDbEntity
  8
DV1_Default
  6
Continuous
 62
     7
100
AcDbCircle
 10
272.3985140666
 20
482.8721721202
 30
0.0
 40
0.5005750779470488
100
AcDbArc
 50
90.061068717
 51
161.1326939827
  0
LINE
  5
3D0
330
9D
100
AcDbEntity
  8
DV1_Default
  6
Continuous
 62
     7
100
AcDbLine
 10
272.3979805287
 20
483.3727469138
 30
0.0
 11
272.5730755035
 21
483.3727471012
 31
0.0
  0
LINE
  5
3D1
330
9D
100
AcDbEntity
  8
DV1_Default
  6
Continuous
 62
     7
100
AcDbLine
 10
272.6763123337
 20
483.3727472116
 30
0.0
 11
306.7673877543
 21
483.3727836866
 31
0.0
  0
LINE
  5
3D2
330
9D
100
AcDbEntity
  8
DV1_Default
  6
Continuous
 62
     7
100
AcDbLine
 10
306.7673877543
 20
483.3727836866
 30
0.0
 11
307.08323479
 21
483.3727840246
 31
0.0
  0
ARC
  5
3D3
330
9D
100
AcDbEntity
  8
DV1_Default
  6
Continuous
 62
     7
100
AcDbCircle
 10
264.107360489
 20
464.8727219676
 30
0.0
 40
0.4999839382539281
100
AcDbArc
 50
150.1269974211
 51
270.0141461232
  0
LINE
  5
3D4
330
9D
100
AcDbEntity
  8
DV1_Default
  6
Continuous
 62
     7
100
AcDbLine
 10
315.374148233
 20
464.372792903
 30
0.0
 11
264.1074839333
 21
464.3727380446
 31
0.0
  0
SPLINE
  5
3D5
330
9D
100
AcDbEntity
  8
DV1_Default
  6
Continuous
 62
     7
100
AcDbSpline
210
0.0
220
0.0
230
1.0
 70
     8
 71
     3
 72
     8
 73
     4
 74
     0
 42
0.0000000080108372
 43
0.0000000001
 40
0.0
 40
0.0
 40
0.0
 40
0.0
 40
1.0
 40
1.0
 40
1.0
 40
1.0
 10
315.3741482329922
 20
464.3727929030461
 30
0.0
 10
315.7583159707102
 20
464.3728450195475
 30
0.0
 10
315.9989213379381
 20
464.7881358220167
 30
0.0
 10
315.8078635746472
 20
465.1214457658037
 30
0.0
  0
LINE
  5
3D6
330
9D
100
AcDbEntity
  8
DV1_Default
  6
Continuous
 62
     7
100
AcDbLine
 10
286.5652473711
 20
521.4171257538
 30
0.0
 11
286.5652465152
 21
522.2171257693
 31
0.0
  0
LINE
  5
3D7
330
9D
100
AcDbEntity
  8
DV1_Default
  6
Continuous
 62
     7
100
AcDbLine
 10
292.9152465152
 20
522.2171322594
 30
0.0
 11
292.9152473711
 21
521.4171325482
 31
0.0
  0
ENDBLK
  5
3D9
330
9D
100
AcDbEntity
  8
0
100
AcDbBlockEnd
  0
BLOCK
  5
41C
330
3DA
100
AcDbEntity
  8
0
100
AcDbBlockBegin
  2
SE1
 70
     0
 10
0.0
 20
0.0
 30
0.0
  3
SE1
  1

  0
LINE
  5
3DD
330
3DA
100
AcDbEntity
  8
DV2_Default
  6
Continuous
 62
     7
100
AcDbLine
 10
513.7244253152
 20
533.9414111093
 30
0.0
 11
513.7319054458
 21
533.779713619
 31
0.0
  0
SPLINE
  5
3DE
330
3DA
100
AcDbEntity
  8
DV2_Default
  6
Continuous
 62
     7
100
AcDbSpline
210
0.0
220
0.0
230
1.0
 70
     8
 71
     3
 72
    48
 73
    44
 74
     0
 42
0.0000000003122674
 43
0.0000000001
 40
0.0
 40
0.0
 40
0.0
 40
0.0
 40
0.0090092506298837
 40
0.0270275037258473
 40
0.0450457568218109
 40
0.0630640099177746
 40
0.0991005161097018
 40
0.1351370223016291
 40
0.1531552753975927
 40
0.1711735284935563
 40
0.1891917815895199
 40
0.1982009081375017
 40
0.2072100346854836
 40
0.2252282877814472
 40
0.2432465408774108
 40
0.2612647939733744
 40
0.279283047069338
 40
0.2973013001653017
 40
0.3153195532612653
 40
0.3513560594531925
 40
0.3873925656451198
 40
0.423429071837047
 40
0.4955020842209015
 40
0.567575096604756
 40
0.6036116027966834
 40
0.6396481089886106
 40
0.6756846151805378
 40
0.711721121372465
 40
0.7297393744684286
 40
0.7477576275643923
 40
0.7837941337563196
 40
0.8198306399482468
 40
0.8378488930442104
 40
0.855867146140174
 40
0.8648762726881558
 40
0.8738853992361376
 40
0.8919036523321013
 40
0.909921905428065
 40
0.9189310319760468
 40
0.9279401585240286
 40
0.9459584116199922
 40
0.9639766647159558
 40
1.0
 40
1.0
 40
1.0
 40
1.0
 10
502.6931131573298
 20
557.7810814106404
 30
0.0
 10
502.9847079748655
 20
557.7798532466313
 30
0.0
 10
503.8447592270057
 20
557.7552112466718
 30
0.0
 10
505.2373043959993
 20
557.6304776280778
 30
0.0
 10
506.8105290497288
 20
557.334281062913
 30
0.0
 10
508.709009741721
 20
556.7650000299724
 30
0.0
 10
510.6293103972693
 20
555.8366639597356
 30
0.0
 10
512.0050935505942
 20
554.8416851137641
 30
0.0
 10
512.8138509074569
 20
554.0510323900978
 30
0.0
 10
513.2990608685164
 20
553.4585214620328
 30
0.0
 10
513.6151234878367
 20
552.9795922705795
 30
0.0
 10
513.825384819061
 20
552.6073875546629
 30
0.0
 10
514.0103108315762
 20
552.2423445895959
 30
0.0
 10
514.2004744021743
 20
551.7998738968315
 30
0.0
 10
514.371440397627
 20
551.2898713443643
 30
0.0
 10
514.4931660190241
 20
550.7998294284171
 30
0.0
 10
514.5737640751322
 20
550.3286745684376
 30
0.0
 10
514.6211919462568
 20
549.875487766919
 30
0.0
 10
514.6448547196246
 20
549.2943971504081
 30
0.0
 10
514.6092944596422
 20
548.609637166233
 30
0.0
 10
514.4909441642036
 20
547.8488476865014
 30
0.0
 10
514.2711572504517
 20
546.9084039924073
 30
0.0
 10
513.9473839907395
 20
545.8561757056606
 30
0.0
 10
513.6386435359956
 20
544.9130588868842
 30
0.0
 10
513.4491501437285
 20
544.1926166418729
 30
0.0
 10
513.3364846141922
 20
543.657835605594
 30
0.0
 10
513.256062639978
 20
543.1165191424038
 30
0.0
 10
513.2177191972705
 20
542.6491449990498
 30
0.0
 10
513.2055339028012
 20
542.2611260866256
 30
0.0
 10
513.2053297215792
 20
541.8607074492747
 30
0.0
 10
513.2265889220424
 20
541.3260205550749
 30
0.0
 10
513.2741947078929
 20
540.7197956662569
 30
0.0
 10
513.3266368885754
 20
540.1760169789609
 30
0.0
 10
513.3651575439451
 20
539.8084997799778
 30
0.0
 10
513.3991028221586
 20
539.4956222290067
 30
0.0
 10
513.4345096680103
 20
539.1678472810878
 30
0.0
 10
513.480767914308
 20
538.7268252009227
 30
0.0
 10
513.5275010453366
 20
538.2342736007192
 30
0.0
 10
513.5638180808558
 20
537.8039002293426
 30
0.0
 10
513.5991338533737
 20
537.346275562679
 30
0.0
 10
513.6394327082221
 20
536.7280274672094
 30
0.0
 10
513.6932692618406
 20
535.6115060121745
 30
0.0
 10
513.7206836729143
 20
534.5855115303597
 30
0.0
 10
513.7319345304403
 20
533.779816298394
 30
0.0
  0
ARC
  5
3DF
330
3DA
100
AcDbEntity
  8
DV2_Default
  6
Continuous
 62
     7
100
AcDbCircle
 10
-778.7757320393
 20
521.6786791504
 30
0.0
 40
1292.558300183487
100
AcDbArc
 50
0.0326940809
 51
0.5434867408
  0
ARC
  5
3E0
330
3DA
100
AcDbEntity
  8
DV2_Default
  6
Continuous
 62
     7
100
AcDbCircle
 10
-1043.2521409315
 20
521.1891680617
 30
0.0
 40
1557.034982158403
100
AcDbArc
 50
0.0451537254
 51
0.4633157736
  0
ARC
  5
3E1
330
3DA
100
AcDbEntity
  8
DV2_Default
  6
Continuous
 62
     7
100
AcDbCircle
 10
513.5807734707
 20
522.4186244763
 30
0.0
 40
0.2015983678937174
100
AcDbArc
 50
270.3896152569
 51
359.3217001399
  0
LINE
  5
3E2
330
3DA
100
AcDbEntity
  8
DV2_Default
  6
Continuous
 62
     7
100
AcDbLine
 10
502.4815800225
 20
522.217022153
 30
0.0
 11
513.582144343
 21
522.2170307695
 31
0.0
  0
ARC
  5
3E3
330
3DA
100
AcDbEntity
  8
DV2_Default
  6
Continuous
 62
     7
100
AcDbCircle
 10
513.5822230748
 20
522.4171675499
 30
0.0
 40
0.2001367959475638
100
AcDbArc
 50
269.9774604005
 51
359.7338549963
  0
ARC
  5
3E4
330
3DA
100
AcDbEntity
  8
DV2_Default
  6
Continuous
 62
     7
100
AcDbCircle
 10
491.3818736105
 20
522.4187641695
 30
0.0
 40
0.2017483329345811
100
AcDbArc
 50
180.404010301
 51
269.5371675972
  0
ARC
  5
3E5
330
3DA
100
AcDbEntity
  8
DV2_Default
  6
Continuous
 62
     7
100
AcDbCircle
 10
491.3822792428
 20
522.4191693856
 30
0.0
 40
0.2021572128163361
100
AcDbArc
 50
180.5180439794
 51
269.4231339188
  0
LINE
  5
3E6
330
3DA
100
AcDbEntity
  8
DV2_Default
  6
Continuous
 62
     7
100
AcDbLine
 10
491.3802439155
 20
522.2170224189
 30
0.0
 11
502.4815800225
 21
522.217022153
 31
0.0
  0
ARC
  5
3E7
330
3DA
100
AcDbEntity
  8
DV2_Default
  6
Continuous
 62
     7
100
AcDbCircle
 10
2602.4325397973
 20
518.5355588147
 30
0.0
 40
2111.255978055377
100
AcDbArc
 50
179.5863817361
 51
179.8946551732
  0
SPLINE
  5
3E8
330
3DA
100
AcDbEntity
  8
DV2_Default
  6
Continuous
 62
     7
100
AcDbSpline
210
0.0
220
0.0
230
1.0
 70
     8
 71
     3
 72
    29
 73
    25
 74
     0
 42
0.0000000003113976
 43
0.0000000001
 40
0.0
 40
0.0
 40
0.0
 40
0.0
 40
0.0151663488792919
 40
0.0423458380273295
 40
0.0600570125993228
 40
0.0823167350501712
 40
0.1212848704005647
 40
0.1513300311837165
 40
0.2350380393888883
 40
0.314225915779661
 40
0.3977580145055382
 40
0.49536502382582
 40
0.5879863422148991
 40
0.6888987817952938
 40
0.7746643093575512
 40
0.8275350490126705
 40
0.8811243681334399
 40
0.9135817287770513
 40
0.9467415361897762
 40
0.9594385837818625
 40
0.9710899714202098
 40
0.9817066646954926
 40
0.9913250174774231
 40
1.0
 40
1.0
 40
1.0
 40
1.0
 10
491.2315744672509
 20
533.7765845056203
 30
0.0
 10
491.2369750437193
 20
534.1068332339822
 30
0.0
 10
491.251992599812
 20
535.0289145840869
 30
0.0
 10
491.2905664195629
 20
536.0897742352678
 30
0.0
 10
491.3459060499737
 20
537.0955040409334
 30
0.0
 10
491.4232318307775
 20
538.1334325156399
 30
0.0
 10
491.5217094929404
 20
539.1177810416573
 30
0.0
 10
491.6726197478091
 20
540.4642664580085
 30
0.0
 10
491.7819665631123
 20
541.7592471073623
 30
0.0
 10
491.7380199885113
 20
543.0783903615604
 30
0.0
 10
491.5029839127806
 20
544.3643848658162
 30
0.0
 10
491.0364241477807
 20
545.7896082499975
 30
0.0
 10
490.4989226201433
 20
547.5196253535395
 30
0.0
 10
490.2176278900885
 20
549.5356728348831
 30
0.0
 10
490.5975099669355
 20
551.6683853448652
 30
0.0
 10
491.6874435085687
 20
553.6404937217761
 30
0.0
 10
493.2573118504467
 20
555.1472356719464
 30
0.0
 10
495.3632087011132
 20
556.3824127507664
 30
0.0
 10
497.1784440055315
 20
557.071727938751
 30
0.0
 10
498.7029508429317
 20
557.4281950336198
 30
0.0
 10
499.6810303382125
 20
557.5933016713306
 30
0.0
 10
500.6054803123004
 20
557.6970514665352
 30
0.0
 10
501.4617446637815
 20
557.7572977103157
 30
0.0
 10
502.0100655289012
 20
557.7721213484036
 30
0.0
 10
502.2700873622094
 20
557.7791342709004
 30
0.0
  0
LINE
  5
3E9
330
3DA
100
AcDbEntity
  8
DV2_Default
  6
Continuous
 62
     7
100
AcDbLine
 10
491.2315961513
 20
533.7765857099
 30
0.0
 11
491.2386471407
 21
533.9383388692
 31
0.0
  0
ARC
  5
3EA
330
3DA
100
AcDbEntity
  8
DV2_Default
  6
Continuous
 62
     7
100
AcDbCircle
 10
1825.0565603605
 20
521.4036763658
 30
0.0
 40
1333.876815229327
100
AcDbArc
 50
179.4615740707
 51
179.9564586893
  0
SPLINE
  5
3EB
330
3DA
100
AcDbEntity
  8
DV2_Default
  6
Continuous
 62
     7
100
AcDbSpline
210
0.0
220
0.0
230
1.0
 70
     8
 71
     3
 72
    44
 73
    40
 74
     0
 42
0.0000000003026531
 43
0.0000000001
 40
0.0
 40
0.0
 40
0.0
 40
0.0
 40
0.0097523675391511
 40
0.03233556767526
 40
0.0638069093083535
 40
0.0922155336658065
 40
0.1174129586129916
 40
0.1395532548365754
 40
0.1697217407704156
 40
0.1974246247935176
 40
0.2226256735104136
 40
0.2452857338244519
 40
0.2677758831481384
 40
0.2952994957552906
 40
0.3344830237437249
 40
0.3809650282791952
 40
0.433978505490575
 40
0.4853498926969588
 40
0.5332829668263425
 40
0.577279605231331
 40
0.617325234551941
 40
0.6533012970735975
 40
0.685320270084252
 40
0.7189004922140952
 40
0.7467049923314294
 40
0.7735794600285207
 40
0.79865969987906
 40
0.8242879198622175
 40
0.8380698196519362
 40
0.8524202898296815
 40
0.8679458230566643
 40
0.8868699634109227
 40
0.9015112691983052
 40
0.9178052130620992
 40
0.9358427683978713
 40
0.9505919855778225
 40
0.9662748129115233
 40
0.9827393681628954
 40
1.0
 40
1.0
 40
1.0
 40
1.0
 10
513.7258033819805
 20
534.3697993222287
 30
0.0
 10
513.7225105159879
 20
534.6073524125744
 30
0.0
 10
513.713015549286
 20
535.2775058600449
 30
0.0
 10
513.6750265399792
 20
536.4362774065285
 30
0.0
 10
513.6149569935914
 20
537.6668294063011
 30
0.0
 10
513.5418099893624
 20
538.7422832927682
 30
0.0
 10
513.4784881598387
 20
539.5589055257487
 30
0.0
 10
513.4205123991454
 20
540.2893546864998
 30
0.0
 10
513.3736270257616
 20
540.9547418077614
 30
0.0
 10
513.3408903823411
 20
541.5589757514161
 30
0.0
 10
513.3256875011673
 20
542.0465503990662
 30
0.0
 10
513.3244653398725
 20
542.4538754040626
 30
0.0
 10
513.3358713572451
 20
542.8392231860341
 30
0.0
 10
513.3692914745986
 20
543.3008310549743
 30
0.0
 10
513.4438431986445
 20
543.8614027463614
 30
0.0
 10
513.5829505972749
 20
544.5285633881483
 30
0.0
 10
513.7912948062756
 20
545.2585254884679
 30
0.0
 10
514.0558348877473
 20
546.0519182758424
 30
0.0
 10
514.3229816296417
 20
546.8769359979999
 30
0.0
 10
514.5635668555503
 20
547.7292783308436
 30
0.0
 10
514.753846416461
 20
548.6042506862887
 30
0.0
 10
514.8649778398434
 20
549.4708260014562
 30
0.0
 10
514.8900245033835
 20
550.3800958813497
 30
0.0
 10
514.8157839859562
 20
551.2836203870218
 30
0.0
 10
514.640013276314
 20
552.1894191159972
 30
0.0
 10
514.3648004750347
 20
553.0541419549434
 30
0.0
 10
513.9706933432573
 20
553.9364183888796
 30
0.0
 10
513.5053867821673
 20
554.7011848287386
 30
0.0
 10
513.0017179857214
 20
555.3484754777054
 30
0.0
 10
512.5168770723647
 20
555.871997002092
 30
0.0
 10
511.8809849676875
 20
556.4463837521282
 30
0.0
 10
511.1311097946636
 20
557.0029050022762
 30
0.0
 10
510.2476514366481
 20
557.547139105754
 30
0.0
 10
509.2632480952637
 20
558.0525571427577
 30
0.0
 10
508.1413014040114
 20
558.5026777187459
 30
0.0
 10
506.9126945434882
 20
558.8708204053709
 30
0.0
 10
505.6394351292006
 20
559.1387377753197
 30
0.0
 10
504.186636177535
 20
559.3206609270936
 30
0.0
 10
503.2534278561859
 20
559.3516026040269
 30
0.0
 10
502.6884367632923
 20
559.3669479041297
 30
0.0
  0
LINE
  5
3EC
330
3DA
100
AcDbEntity
  8
DV2_Default
  6
Continuous
 62
     7
100
AcDbLine
 10
513.7342509493
 20
533.8290250716
 30
0.0
 11
513.7309727818
 21
534.0388782156
 31
0.0
  0
LINE
  5
3ED
330
3DA
100
AcDbEntity
  8
DV2_Default
  6
Continuous
 62
     7
100
AcDbLine
 10
513.6549166955
 20
522.2309757852
 30
0.0
 11
513.6678068346
 21
522.2360655285
 31
0.0
  0
ARC
  5
3EE
330
3DA
100
AcDbEntity
  8
DV2_Default
  6
Continuous
 62
     7
100
AcDbCircle
 10
491.3804873374
 20
522.4170401335
 30
0.0
 40
0.1999958414806657
100
AcDbArc
 50
179.4186156366
 51
224.8963649752
  0
ARC
  5
3EF
330
3DA
100
AcDbEntity
  8
DV2_Default
  6
Continuous
 62
     7
100
AcDbCircle
 10
491.3804436276
 20
522.4165328461
 30
0.0
 40
0.1995109651697304
100
AcDbArc
 50
224.7934976946
 51
270.4197991194
  0
LINE
  5
3F0
330
3DA
100
AcDbEntity
  8
DV2_Default
  6
Continuous
 62
     7
100
AcDbLine
 10
491.2958535973
 20
522.235830113
 30
0.0
 11
491.3078612723
 21
522.231121683
 31
0.0
  0
LINE
  5
3F1
330
3DA
100
AcDbEntity
  8
DV2_Default
  6
Continuous
 62
     7
100
AcDbLine
 10
491.2364748192
 20
534.3138762927
 30
0.0
 11
491.2313803835
 21
533.9877294046
 31
0.0
  0
SPLINE
  5
3F2
330
3DA
100
AcDbEntity
  8
DV2_Default
  6
Continuous
 62
     7
100
AcDbSpline
210
0.0
220
0.0
230
1.0
 70
     8
 71
     3
 72
    46
 73
    42
 74
     0
 42
0.0000000003021666
 43
0.0000000001
 40
0.0
 40
0.0
 40
0.0
 40
0.0
 40
0.0172458713737948
 40
0.033705870108178
 40
0.0493942418297094
 40
0.0641587548794041
 40
0.0822312078431172
 40
0.0985774029217689
 40
0.1132878780902613
 40
0.1323473183293796
 40
0.1480348452371219
 40
0.1624820139265498
 40
0.1762690183329213
 40
0.2016387056891548
 40
0.225743597933081
 40
0.2504479634425817
 40
0.2753559033179116
 40
0.3021971388430737
 40
0.3270118737124518
 40
0.3540453250605626
 40
0.3856078901513868
 40
0.4216364121910794
 40
0.4610866673752396
 40
0.5035815946306295
 40
0.5432902172076077
 40
0.5852264204917741
 40
0.6250077557255599
 40
0.6605505757651665
 40
0.691840142078864
 40
0.7188655280767127
 40
0.7416539285921205
 40
0.7618140749563177
 40
0.7912529488533466
 40
0.8239117012326483
 40
0.8597283886703336
 40
0.8898909849758365
 40
0.9255651508653197
 40
0.9455707664973985
 40
0.9668445918753698
 40
0.9894033396976191
 40
1.0
 40
1.0
 40
1.0
 40
1.0
 10
502.2747121628567
 20
559.3669332923362
 30
0.0
 10
501.7097263188086
 20
559.3515971329189
 30
0.0
 10
500.7762543264604
 20
559.3206592440431
 30
0.0
 10
499.3226057138034
 20
559.1386032199979
 30
0.0
 10
498.0478783561875
 20
558.8702346536302
 30
0.0
 10
496.8170368688867
 20
558.5010946577418
 30
0.0
 10
495.6923549683385
 20
558.0492559854406
 30
0.0
 10
494.7050014095156
 20
557.5413430036231
 30
0.0
 10
493.8177985302078
 20
556.9934675778956
 30
0.0
 10
493.0640038400163
 20
556.4318818572715
 30
0.0
 10
492.4257040943272
 20
555.8519395060517
 30
0.0
 10
491.9411686754057
 20
555.3245941664395
 30
0.0
 10
491.4429564076835
 20
554.6788327691571
 30
0.0
 10
490.9896347464475
 20
553.9287394492529
 30
0.0
 10
490.6121962770079
 20
553.0844909164965
 30
0.0
 10
490.3503499826564
 20
552.2823108099076
 30
0.0
 10
490.1825301721041
 20
551.4895506971355
 30
0.0
 10
490.0973769512685
 20
550.7405596477805
 30
0.0
 10
490.0778036268802
 20
550.0105506027182
 30
0.0
 10
490.1186301038381
 20
549.2928754767026
 30
0.0
 10
490.2234429699714
 20
548.5421337667398
 30
0.0
 10
490.3949075489915
 20
547.7548456554308
 30
0.0
 10
490.6104085928075
 20
546.977938697586
 30
0.0
 10
490.8382220491217
 20
546.2601966580417
 30
0.0
 10
491.0607375389388
 20
545.5910474918946
 30
0.0
 10
491.2526955732872
 20
544.9845127627908
 30
0.0
 10
491.4024301489385
 20
544.4188043199309
 30
0.0
 10
491.5083314484375
 20
543.9052965635133
 30
0.0
 10
491.5762577510338
 20
543.4441371435828
 30
0.0
 10
491.6153195859421
 20
543.0323385689773
 30
0.0
 10
491.6337561092556
 20
542.6665374989049
 30
0.0
 10
491.6400265526196
 20
542.2726708755991
 30
0.0
 10
491.6314876344562
 20
541.7705698694438
 30
0.0
 10
491.5984197291914
 20
541.0850938784122
 30
0.0
 10
491.5422766030799
 20
540.2756133888445
 30
0.0
 10
491.4635209574637
 20
539.2985026577886
 30
0.0
 10
491.3892856116909
 20
538.2979267279724
 30
0.0
 10
491.3263399268905
 20
537.2414621598714
 30
0.0
 10
491.2822044922407
 20
536.2513040261485
 30
0.0
 10
491.2497002882693
 20
535.2602634124746
 30
0.0
 10
491.2400329583567
 20
534.5725077571117
 30
0.0
 10
491.2364748191872
 20
534.3138762927227
 30
0.0
  0
SPLINE
  5
3F3
330
3DA
100
AcDbEntity
  8
DV2_Default
  6
Continuous
 62
     7
100
AcDbSpline
210
0.0
220
0.0
230
1.0
 70
     8
 71
     3
 72
    19
 73
    15
 74
     0
 42
0.0000000009255632
 43
0.0000000001
 40
0.0
 40
0.0
 40
0.0
 40
0.0
 40
0.1229056572295484
 40
0.1853057836779595
 40
0.2477324709018309
 40
0.3725921450044802
 40
0.4352115259887259
 40
0.497738483910209
 40
0.5600518307146143
 40
0.622435231838486
 40
0.7480419299939911
 40
0.8739261978803996
 40
0.9366095358996457
 40
1.0
 40
1.0
 40
1.0
 40
1.0
 10
513.2825236932941
 20
521.4169635797039
 30
0.0
 10
513.2807602412629
 20
521.4169576615076
 30
0.0
 10
513.176825577435
 20
521.4170378029801
 30
0.0
 10
512.8380161137641
 20
521.4170118252616
 30
0.0
 10
512.365174637696
 20
521.4169333540175
 30
0.0
 10
511.6979552917206
 20
521.4170552842666
 30
0.0
 10
510.8583022711271
 20
521.4169863401199
 30
0.0
 10
510.1489317808935
 20
521.4169538381201
 30
0.0
 10
509.3669791598466
 20
521.417028256793
 30
0.0
 10
508.2332178554763
 20
521.4170173846607
 30
0.0
 10
506.6632438288049
 20
521.4169331622022
 30
0.0
 10
504.9557256444513
 20
521.4170138870188
 30
0.0
 10
503.547846774318
 20
521.4170237600254
 30
0.0
 10
502.8361402708418
 20
521.4170209575743
 30
0.0
 10
502.4782910999577
 20
521.4170186744103
 30
0.0
  0
LINE
  5
3F4
330
3DA
100
AcDbEntity
  8
DV2_Default
  6
Continuous
 62
     7
100
AcDbLine
 10
502.4782911
 20
521.4170186744
 30
0.0
 11
491.6728939045
 21
521.4170221527
 31
0.0
  0
LINE
  5
3F5
330
3DA
100
AcDbEntity
  8
DV2_Default
  6
Continuous
 62
     7
100
AcDbLine
 10
502.4815800225
 20
483.372658474
 30
0.0
 11
518.6875200271
 21
483.3726584721
 31
0.0
  0
LINE
  5
3F6
330
3DA
100
AcDbEntity
  8
DV2_Default
  6
Continuous
 62
     7
100
AcDbLine
 10
518.6875200271
 20
483.3726584721
 30
0.0
 11
519.4900574377
 21
483.372658472
 31
0.0
  0
LINE
  5
3F7
330
3DA
100
AcDbEntity
  8
DV2_Default
  6
Continuous
 62
     7
100
AcDbLine
 10
485.4730512067
 20
483.3726584733
 30
0.0
 11
485.7236626166
 21
483.3726584733
 31
0.0
  0
LINE
  5
3F8
330
3DA
100
AcDbEntity
  8
DV2_Default
  6
Continuous
 62
     7
100
AcDbLine
 10
485.7236626166
 20
483.3726584733
 30
0.0
 11
502.4815800225
 21
483.372658474
 31
0.0
  0
ARC
  5
3F9
330
3DA
100
AcDbEntity
  8
DV2_Default
  6
Continuous
 62
     7
100
AcDbCircle
 10
513.2877522565
 20
520.9164154702
 30
0.0
 40
0.5018259292471793
100
AcDbArc
 50
2.7781544203
 51
46.9483704895
  0
SPLINE
  5
3FA
330
3DA
100
AcDbEntity
  8
DV2_Default
  6
Continuous
 62
     7
100
AcDbSpline
210
0.0
220
0.0
230
1.0
 70
     8
 71
     3
 72
    12
 73
     8
 74
     0
 42
0.0000000002663623
 43
0.0000000001
 40
0.0
 40
0.0
 40
0.0
 40
0.0
 40
0.171434945886591
 40
0.3603236289547373
 40
0.5622133261064293
 40
0.7776292237005223
 40
1.0
 40
1.0
 40
1.0
 40
1.0
 10
519.9718551748348
 20
484.0287723578729
 30
0.0
 10
519.2808392926614
 20
486.2842549499182
 30
0.0
 10
518.0687736612834
 20
490.2887378079362
 30
0.0
 10
516.5298598206674
 20
497.3128273924662
 30
0.0
 10
515.300700151724
 20
504.7157053833134
 30
0.0
 10
514.3437700587369
 20
512.833552382184
 30
0.0
 10
513.9940827120413
 20
517.892655717004
 30
0.0
 10
513.7942401997775
 20
520.9459676865196
 30
0.0
  0
ARC
  5
3FB
330
3DA
100
AcDbEntity
  8
DV2_Default
  6
Continuous
 62
     7
100
AcDbCircle
 10
519.4889647707
 20
483.8723813649
 30
0.0
 40
0.500500080372009
100
AcDbArc
 50
297.4061999935
 51
18.5493420109
  0
ARC
  5
3FC
330
3DA
100
AcDbEntity
  8
DV2_Default
  6
Continuous
 62
     7
100
AcDbCircle
 10
485.4741952457
 20
483.872381353
 30
0.0
 40
0.5005000569706275
100
AcDbArc
 50
161.4506692237
 51
242.5922504132
  0
ARC
  5
3FD
330
3DA
100
AcDbEntity
  8
DV2_Default
  6
Continuous
 62
     7
100
AcDbCircle
 10
344.3321552152
 20
526.535864604
 30
0.0
 40
146.9452927829859
100
AcDbArc
 50
343.1852968454
 51
357.819827601
  0
ARC
  5
3FE
330
3DA
100
AcDbEntity
  8
DV2_Default
  6
Continuous
 62
     7
100
AcDbCircle
 10
491.6753470494
 20
520.9164494389
 30
0.0
 40
0.5017636486103155
100
AcDbArc
 50
133.3900660249
 51
177.2209806822
  0
LINE
  5
3FF
330
3DA
100
AcDbEntity
  8
DV2_Default
  6
Continuous
 62
     7
100
AcDbLine
 10
485.1388816052
 20
483.3726584715
 30
0.0
 11
502.4816083039
 21
483.3726584715
 31
0.0
  0
LINE
  5
400
330
3DA
100
AcDbEntity
  8
DV2_Default
  6
Continuous
 62
     7
100
AcDbLine
 10
519.8242888043
 20
483.372658472
 30
0.0
 11
502.4816083039
 21
483.3726584696
 31
0.0
  0
LINE
  5
401
330
3DA
100
AcDbEntity
  8
DV2_Default
  6
Continuous
 62
     7
100
AcDbLine
 10
528.5422830047
 20
465.1219050862
 30
0.0
 11
528.5402987593
 21
465.1218199776
 31
0.0
  0
ARC
  5
402
330
3DA
100
AcDbEntity
  8
DV2_Default
  6
Continuous
 62
     7
100
AcDbCircle
 10
526.7638818158
 20
592.6432412827
 30
0.0
 40
127.5343969677474
100
AcDbArc
 50
270.8000506095
 51
270.8019522083
  0
LINE
  5
403
330
3DA
100
AcDbEntity
  8
DV2_Default
  6
Continuous
 62
     7
100
AcDbLine
 10
528.5444486511
 20
465.1217421814
 30
0.0
 11
528.5422830047
 21
465.1219050862
 31
0.0
  0
ARC
  5
404
330
3DA
100
AcDbEntity
  8
DV2_Default
  6
Continuous
 62
     7
100
AcDbCircle
 10
387.2442740375
 20
517.043411613
 30
0.0
 40
103.1860375722202
100
AcDbArc
 50
329.7095655331
 51
340.8175104156
  0
ARC
  5
405
330
3DA
100
AcDbEntity
  8
DV2_Default
  6
Continuous
 62
     7
100
AcDbCircle
 10
485.1407623543
 20
482.8721079771
 30
0.0
 40
0.5012953518041053
100
AcDbArc
 50
126.0739868133
 51
162.4203687534
  0
ARC
  5
406
330
3DA
100
AcDbEntity
  8
DV2_Default
  6
Continuous
 62
     7
100
AcDbCircle
 10
519.822453949
 20
482.8721077593
 30
0.0
 40
0.5012957004240474
100
AcDbArc
 50
17.5780783184
 51
53.9267397971
  0
ARC
  5
407
330
3DA
100
AcDbEntity
  8
DV2_Default
  6
Continuous
 62
     7
100
AcDbCircle
 10
519.8238510229
 20
482.8724912236
 30
0.0
 40
0.5001639516600076
100
AcDbArc
 50
54.0302296007
 51
90.3940927352
  0
ARC
  5
408
330
3DA
100
AcDbEntity
  8
DV2_Default
  6
Continuous
 62
     7
100
AcDbCircle
 10
617.7197885649
 20
517.0437800171
 30
0.0
 40
103.1869587652199
100
AcDbArc
 50
199.1826077995
 51
210.2907513426
  0
ARC
  5
409
330
3DA
100
AcDbEntity
  8
DV2_Default
  6
Continuous
 62
     7
100
AcDbCircle
 10
528.1133209052
 20
464.8723511444
 30
0.0
 40
0.5011104106123134
100
AcDbArc
 50
300.6522190676
 51
30.6615814589
  0
ARC
  5
40A
330
3DA
100
AcDbEntity
  8
DV2_Default
  6
Continuous
 62
     7
100
AcDbCircle
 10
476.8493049104
 20
464.8722277394
 30
0.0
 40
0.5007712372266955
100
AcDbArc
 50
149.2278034937
 51
239.3673678337
  0
SPLINE
  5
40B
330
3DA
100
AcDbEntity
  8
DV2_Default
  6
Continuous
 62
     7
100
AcDbSpline
210
0.0
220
0.0
230
1.0
 70
     8
 71
     3
 72
     9
 73
     5
 74
     0
 42
0.0000062277440551
 43
0.0000000001
 40
0.0
 40
0.0
 40
0.0
 40
0.0
 40
0.0598323424950248
 40
1.0
 40
1.0
 40
1.0
 40
1.0
 10
476.4142505613963
 20
465.1216351900237
 30
0.0
 10
476.4142570905563
 20
465.1216357633775
 30
0.0
 10
476.4143917210862
 20
465.1216448132172
 30
0.0
 10
476.4149527344981
 20
465.1216449240065
 30
0.0
 10
476.4158559199216
 20
465.1216375136549
 30
0.0
  0
SPLINE
  5
40C
330
3DA
100
AcDbEntity
  8
DV2_Default
  6
Continuous
 62
     7
100
AcDbSpline
210
0.0
220
0.0
230
1.0
 70
    12
 71
     3
 72
     8
 73
     4
 74
     0
 42
0.0000000104357447
 43
0.0000000001
 40
0.0
 40
0.0
 40
0.0
 40
0.0
 40
1.0
 40
1.0
 40
1.0
 40
1.0
 10
656.7399537720639
 20
603.7162423746638
 30
0.0
 41
1.193788564655172
 10
656.7880403286134
 20
603.3997473659905
 30
0.0
 41
0.9313019691682856
 10
657.0559762183758
 20
603.2258585668422
 30
0.0
 41
0.9354689282895285
 10
657.3637993577039
 20
603.3084139252192
 30
0.0
 41
1.2062894420189
  0
LINE
  5
40D
330
3DA
100
AcDbEntity
  8
DV2_Default
  6
Continuous
 62
     7
100
AcDbLine
 10
657.3637993577
 20
603.3084139252
 30
0.0
 11
691.6422259482
 21
612.5015936175
 31
0.0
  0
SPLINE
  5
40E
330
3DA
100
AcDbEntity
  8
DV2_Default
  6
Continuous
 62
     7
100
AcDbSpline
210
0.0
220
0.0
230
1.0
 70
    12
 71
     3
 72
     8
 73
     4
 74
     0
 42
0.0000000106118854
 43
0.0000000001
 40
0.0
 40
0.0
 40
0.0
 40
0.0
 40
1.0
 40
1.0
 40
1.0
 40
1.0
 10
691.9821356148644
 20
613.1566800765326
 30
0.0
 41
1.182569112563898
 10
692.0907419297243
 20
612.8605286022868
 30
0.0
 41
0.9314785961578779
 10
691.944332581614
 20
612.5826168674848
 30
0.0
 41
0.9393849873214175
 10
691.6422259481855
 20
612.5015936175411
 30
0.0
 41
1.206288286054516
  0
SPLINE
  5
40F
330
3DA
100
AcDbEntity
  8
DV2_Default
  6
Continuous
 62
     7
100
AcDbSpline
210
0.0
220
0.0
230
1.0
 70
    12
 71
     3
 72
     8
 73
     4
 74
     0
 42
0.00000001545562
 43
0.0000000001
 40
0.0
 40
0.0
 40
0.0
 40
0.0
 40
1.0
 40
1.0
 40
1.0
 40
1.0
 10
692.0086560148414
 20
613.0480420066673
 30
0.0
 41
1.09018450857867
 10
692.0361270729609
 20
612.8335334163478
 30
0.0
 41
0.964859691471897
 10
691.9360889928117
 20
612.6424648910012
 30
0.0
 41
0.9701530095945137
 10
691.7458134383417
 20
612.5421911776067
 30
0.0
 41
1.10606446294652
  0
SPLINE
  5
410
330
3DA
100
AcDbEntity
  8
DV2_Default
  6
Continuous
 62
     7
100
AcDbSpline
210
0.0
220
0.0
230
1.0
 70
    12
 71
     3
 72
     8
 73
     4
 74
     0
 42
0.0000000104357445
 43
0.0000000001
 40
0.0
 40
0.0
 40
0.0
 40
0.0
 40
1.0
 40
1.0
 40
1.0
 40
1.0
 10
656.7399537720639
 20
603.7162423746638
 30
0.0
 41
1.193788826597721
 10
656.7880403177351
 20
603.3997473902937
 30
0.0
 41
0.9313020515386817
 10
657.0559761873513
 20
603.2258585532695
 30
0.0
 41
0.9354688354999473
 10
657.3637993577039
 20
603.3084139252192
 30
0.0
 41
1.206289178481518
  0
SPLINE
  5
411
330
3DA
100
AcDbEntity
  8
DV2_Default
  6
Continuous
 62
     7
100
AcDbSpline
210
0.0
220
0.0
230
1.0
 70
     8
 71
     3
 72
    15
 73
    11
 74
     0
 42
0.000000000034633
 43
0.0000000001
 40
0.0
 40
0.0
 40
0.0
 40
0.0
 40
0.1223776502178168
 40
0.2486696956069602
 40
0.3749617409961036
 40
0.501253786385247
 40
0.6275458317743904
 40
0.7538378771635338
 40
0.8801299225526772
 40
1.0
 40
1.0
 40
1.0
 40
1.0
 10
656.7399537720639
 20
603.7162423746638
 30
0.0
 10
654.8472366124067
 20
616.1737142446423
 30
0.0
 10
645.571409993374
 20
633.0185702868172
 30
0.0
 10
613.5670814700816
 20
641.5445155489994
 30
0.0
 10
569.5238356220933
 20
630.1089825296979
 30
0.0
 10
536.6864177800365
 20
591.4441681480338
 30
0.0
 10
527.5672006064373
 20
538.8968625743244
 30
0.0
 10
526.6943737869894
 20
507.8593828557919
 30
0.0
 10
529.7327913690165
 20
472.9660586369761
 30
0.0
 10
530.6515476848248
 20
468.4691906033732
 30
0.0
 10
531.20621835899
 20
464.9505151701708
 30
0.0
  0
SPLINE
  5
412
330
3DA
100
AcDbEntity
  8
DV2_Default
  6
Continuous
 62
     7
100
AcDbSpline
210
0.0
220
0.0
230
1.0
 70
     8
 71
     3
 72
    12
 73
     8
 74
     0
 42
0.0000000000355191
 43
0.0000000001
 40
0.0
 40
0.0
 40
0.0
 40
0.0
 40
0.1967897566293384
 40
0.3980029311025684
 40
0.5992161055757983
 40
0.8004292800490282
 40
1.0
 40
1.0
 40
1.0
 40
1.0
 10
691.9821356148644
 20
613.1566800765326
 30
0.0
 10
685.8124670024164
 20
629.9802077954037
 30
0.0
 10
666.3611911830972
 20
654.0375064430115
 30
0.0
 10
615.5000369605519
 20
667.1816369505874
 30
0.0
 10
555.2259683874028
 20
652.2646696669774
 30
0.0
 10
510.6872470865131
 20
613.1332105190735
 30
0.0
 10
498.0176536985249
 20
573.0190164508515
 30
0.0
 10
493.6894357810393
 20
556.8867313909989
 30
0.0
  0
SPLINE
  5
413
330
3DA
100
AcDbEntity
  8
DV2_Default
  6
Continuous
 62
     7
100
AcDbSpline
210
0.0
220
0.0
230
1.0
 70
     8
 71
     3
 72
    10
 73
     6
 74
     0
 42
0.0000000001207803
 43
0.0000000001
 40
0.0
 40
0.0
 40
0.0
 40
0.0
 40
0.2862668966675699
 40
0.6566628081897008
 40
1.0
 40
1.0
 40
1.0
 40
1.0
 10
490.9155400796847
 20
546.0092772777151
 30
0.0
 10
488.1836375335474
 20
534.6947152896772
 30
0.0
 10
483.9879445518756
 20
512.7214738900294
 30
0.0
 10
476.9623933802432
 20
475.8700232852963
 30
0.0
 10
474.9123415733815
 20
467.936488059
 30
0.0
 10
473.8732791262728
 20
465.0415705050339
 30
0.0
  0
SPLINE
  5
414
330
3DA
100
AcDbEntity
  8
DV2_Default
  6
Continuous
 62
     7
100
AcDbSpline
210
0.0
220
0.0
230
1.0
 70
     8
 71
     3
 72
    10
 73
     6
 74
     0
 42
0.0000000001207803
 43
0.0000000001
 40
0.0
 40
0.0
 40
0.0
 40
0.0
 40
0.2862668967504591
 40
0.6566628082295786
 40
1.0
 40
1.0
 40
1.0
 40
1.0
 10
490.915540083009
 20
546.0092772914874
 30
0.0
 10
488.1836375350309
 20
534.6947152974537
 30
0.0
 10
483.9879445526912
 20
512.7214738943084
 30
0.0
 10
476.9623933802491
 20
475.8700232852967
 30
0.0
 10
474.9123415733839
 20
467.9364880590006
 30
0.0
 10
473.8732791262728
 20
465.0415705050339
 30
0.0
  0
SPLINE
  5
415
330
3DA
100
AcDbEntity
  8
DV2_Default
  6
Continuous
 62
     7
100
AcDbSpline
210
0.0
220
0.0
230
1.0
 70
     8
 71
     3
 72
    15
 73
    11
 74
     0
 42
0.0000000000349269
 43
0.0000000001
 40
0.0
 40
0.0
 40
0.0
 40
0.0
 40
0.1260091823870847
 40
0.2560489188363794
 40
0.3860886552856742
 40
0.5161283917349689
 40
0.6461681281842637
 40
0.7762078646335583
 40
0.9062476010828531
 40
1.0
 40
1.0
 40
1.0
 40
1.0
 10
656.7399537720639
 20
603.7162423746638
 30
0.0
 10
654.847236612422
 20
616.173714244599
 30
0.0
 10
645.5714099933456
 20
633.0185702867379
 30
0.0
 10
613.5670814701382
 20
641.5445155490629
 30
0.0
 10
569.5238356220976
 20
630.1089825297373
 30
0.0
 10
536.6864177800311
 20
591.4441681480251
 30
0.0
 10
527.5672006064383
 20
538.8968625743261
 30
0.0
 10
526.6943737869859
 20
507.8593828557902
 30
0.0
 10
529.4976861209535
 20
475.6660178837651
 30
0.0
 10
530.4214877758458
 20
469.7766000284284
 30
0.0
 10
530.819672840233
 20
467.3376338337769
 30
0.0
  0
SPLINE
  5
416
330
3DA
100
AcDbEntity
  8
DV2_Default
  6
Continuous
 62
     7
100
AcDbSpline
210
0.0
220
0.0
230
1.0
 70
    12
 71
     3
 72
     8
 73
     4
 74
     0
 42
0.0000000100817829
 43
0.0000000001
 40
0.0
 40
0.0
 40
0.0
 40
0.0
 40
1.0
 40
1.0
 40
1.0
 40
1.0
 10
530.7123176510125
 20
464.3726584719709
 30
0.0
 41
1.270724126532472
 10
531.0365241154515
 20
464.3726592069128
 30
0.0
 41
0.9501616881435212
 10
531.258682128909
 20
464.6176949893387
 30
0.0
 41
0.9142809612317844
 10
531.20621835899
 20
464.9505151701708
 30
0.0
 41
1.163081945797262
  0
SPLINE
  5
417
330
3DA
100
AcDbEntity
  8
DV2_Default
  6
Continuous
 62
     7
100
AcDbSpline
210
0.0
220
0.0
230
1.0
 70
    12
 71
     3
 72
     8
 73
     4
 74
     0
 42
0.0000000087658891
 43
0.0000000001
 40
0.0
 40
0.0
 40
0.0
 40
0.0
 40
1.0
 40
1.0
 40
1.0
 40
1.0
 10
474.343881658513
 20
464.372658471976
 30
0.0
 41
1.270723707462664
 10
473.9637877239852
 20
464.3726595745189
 30
0.0
 41
0.9105643621233197
 10
473.7447600106526
 20
464.6835068031805
 30
0.0
 41
0.9097605621046987
 10
473.8732791262728
 20
465.0415705050339
 30
0.0
 41
1.268312307406803
  0
SPLINE
  5
418
330
3DA
100
AcDbEntity
  8
DV2_Default
  6
Continuous
 62
     7
100
AcDbSpline
210
0.0
220
0.0
230
1.0
 70
    12
 71
     3
 72
     8
 73
     4
 74
     0
 42
0.0000000102880892
 43
0.0000000001
 40
0.0
 40
0.0
 40
0.0
 40
0.0
 40
1.0
 40
1.0
 40
1.0
 40
1.0
 10
474.2372535564089
 20
464.3841611558635
 30
0.0
 41
1.152507441417357
 10
473.9142445313217
 20
464.4546693786588
 30
0.0
 41
0.9159789785232988
 10
473.7661075147761
 20
464.742975442893
 30
0.0
 41
0.9545799449169297
 10
473.8732791262728
 20
465.0415705050339
 30
0.0
 41
1.26831034059825
  0
ARC
  5
419
330
3DA
100
AcDbEntity
  8
DV2_Default
  6
Continuous
 62
     7
100
AcDbCircle
 10
531.2850875031
 20
18564.4820625861
 30
0.0
 40
18099.53154758773
100
AcDbArc
 50
269.8182571841
 51
269.8182632163
  0
SPLINE
  5
41A
330
3DA
100
AcDbEntity
  8
DV2_Default
  6
Continuous
 62
     7
100
AcDbSpline
210
0.0
220
0.0
230
1.0
 70
    12
 71
     3
 72
     8
 73
     4
 74
     0
 42
0.0000000100817742
 43
0.0000000001
 40
0.0
 40
0.0
 40
0.0
 40
0.0
 40
1.0
 40
1.0
 40
1.0
 40
1.0
 10
530.7123176510125
 20
464.3726584719709
 30
0.0
 41
1.270725696971496
 10
531.0365242575696
 20
464.3726588829504
 30
0.0
 41
0.9501620527258527
 10
531.2586827105763
 20
464.6176946566768
 30
0.0
 41
0.9142806103221875
 10
531.20621835899
 20
464.9505151701708
 30
0.0
 41
1.163081369760502
  0
LINE
  5
41B
330
3DA
100
AcDbEntity
  8
DV2_Default
  6
Continuous
 62
     7
100
AcDbLine
 10
474.3438816585
 20
464.372658472
 30
0.0
 11
530.712317651
 21
464.372658472
 31
0.0
  0
ENDBLK
  5
41D
330
3DA
100
AcDbEntity
  8
0
100
AcDbBlockEnd
  0
BLOCK
  5
44B
330
41E
100
AcDbEntity
  8
0
100
AcDbBlockBegin
  2
SE2
 70
     0
 10
0.0
 20
0.0
 30
0.0
  3
SE2
  1

  0
SPLINE
  5
421
330
41E
100
AcDbEntity
  8
DV3_Default
  6
Continuous
 62
     7
100
AcDbSpline
210
0.0
220
0.0
230
1.0
 70
     8
 71
     3
 72
    48
 73
    44
 74
     0
 42
0.0000000001174463
 43
0.0000000001
 40
0.0
 40
0.0
 40
0.0
 40
0.0
 40
0.0360299982472672
 40
0.0540481268018761
 40
0.0720662553564851
 40
0.0810753196337895
 40
0.090084383911094
 40
0.108102512465703
 40
0.1261206410203119
 40
0.1351297052976164
 40
0.1441387695749209
 40
0.1621568981295298
 40
0.1801750266841388
 40
0.2162112837933567
 40
0.2522475409025746
 40
0.2702656694571835
 40
0.2882837980117924
 40
0.3243200551210104
 40
0.3603563122302282
 40
0.3963925693394461
 40
0.432428826448664
 40
0.5045013406670998
 40
0.5765738548855356
 40
0.6126101119947536
 40
0.6486463691039714
 40
0.6846826262131893
 40
0.7027007547677983
 40
0.7207188833224072
 40
0.7387370118770161
 40
0.7567551404316251
 40
0.7747732689862341
 40
0.792791397540843
 40
0.8018004618181475
 40
0.810809526095452
 40
0.8288276546500609
 40
0.8468457832046699
 40
0.8648639117592788
 40
0.9009001688684967
 40
0.9369364259777146
 40
0.9549545545323236
 40
0.9729726830869325
 40
0.9909908116415415
 40
1.0
 40
1.0
 40
1.0
 40
1.0
 10
86.97753219113054
 20
293.1969310795287
 30
0.0
 10
86.26621062172103
 20
293.2099398743434
 30
0.0
 10
85.05733658714641
 20
293.2398753362396
 30
0.0
 10
83.26393249171372
 20
293.2959400056415
 30
0.0
 10
82.08783766113129
 20
293.3369498885294
 30
0.0
 10
81.12823579772501
 20
293.3723073644376
 30
0.0
 10
80.15905676588173
 20
293.4084016427458
 30
0.0
 10
78.93003734947152
 20
293.4545179136851
 30
0.0
 10
77.68161398702861
 20
293.5001231715354
 30
0.0
 10
76.673458705468
 20
293.5352503116691
 30
0.0
 10
75.65969393213115
 20
293.5691220808675
 30
0.0
 10
74.38405444657825
 20
293.6084001815958
 30
0.0
 10
72.3281011391745
 20
293.664032406713
 30
0.0
 10
69.73416098653234
 20
293.7188817511519
 30
0.0
 10
67.12002314395319
 20
293.7509872868285
 30
0.0
 10
65.0233559673481
 20
293.7611002925217
 30
0.0
 10
62.92609696751075
 20
293.7602942239683
 30
0.0
 10
60.30278785169638
 20
293.7369037285614
 30
0.0
 10
57.15096920779008
 20
293.6746163415048
 30
0.0
 10
53.99922351349187
 20
293.5803738548203
 30
0.0
 10
49.80087328427707
 20
293.4151909750075
 30
0.0
 10
44.56529825602792
 20
293.1382346625363
 30
0.0
 10
39.35341940159656
 20
292.8459524596792
 30
0.0
 10
35.19389801354198
 20
292.6479939411841
 30
0.0
 10
32.0800499284459
 20
292.5430613737362
 30
0.0
 10
29.49838204971797
 20
292.5156603130027
 30
0.0
 10
27.44481989740039
 20
292.5435872077114
 30
0.0
 10
25.91140440121334
 20
292.5930354899531
 30
0.0
 10
24.38652919413878
 20
292.6741462792816
 30
0.0
 10
22.87224323242989
 20
292.7954272209169
 30
0.0
 10
21.3695945779484
 20
292.965870477078
 30
0.0
 10
20.12817579506101
 20
293.1560608698422
 30
0.0
 10
19.14214784042895
 20
293.3419132200647
 30
0.0
 10
18.16138513732476
 20
293.5543267190221
 30
0.0
 10
16.94459739985557
 20
293.8753874845868
 30
0.0
 10
15.50679324208545
 20
294.373309659871
 30
0.0
 10
13.6627521196426
 20
295.1909331782649
 30
0.0
 10
11.49404409980009
 20
296.5278634622707
 30
0.0
 10
9.691756436546378
 20
298.39663735274
 30
0.0
 10
8.600860764522794
 20
300.2611146180988
 30
0.0
 10
8.0104191208481
 20
301.7999663427387
 30
0.0
 10
7.731460238163179
 20
303.1462732803109
 30
0.0
 10
7.670507564333656
 20
303.9651297972928
 30
0.0
 10
7.661486253930539
 20
304.2404210311304
 30
0.0
  0
SPLINE
  5
422
330
41E
100
AcDbEntity
  8
DV3_Default
  6
Continuous
 62
     7
100
AcDbSpline
210
0.0
220
0.0
230
1.0
 70
     8
 71
     3
 72
    18
 73
    14
 74
     0
 42
0.0000000031552334
 43
0.0000000001
 40
0.0
 40
0.0
 40
0.0
 40
0.0
 40
0.0655588211337278
 40
0.1318755084885005
 40
0.2616989486234569
 40
0.388021851371714
 40
0.5134627186614421
 40
0.6382601968396487
 40
0.6997100125036577
 40
0.7615468424005198
 40
0.8810249375624111
 40
0.9516239615448545
 40
0.9999999999999999
 40
0.9999999999999999
 40
0.9999999999999999
 40
0.9999999999999999
 10
89.95349940204464
 20
293.1390022531854
 30
0.0
 10
89.99596855645748
 20
293.1395898102185
 30
0.0
 10
90.02809838236183
 20
293.1404966345597
 30
0.0
 10
90.04971718200036
 20
293.1428125407801
 30
0.0
 10
90.0149714846835
 20
293.1474579223246
 30
0.0
 10
89.8391637265403
 20
293.1549871068289
 30
0.0
 10
89.54029353042024
 20
293.1615800884453
 30
0.0
 10
89.19147529253404
 20
293.1661749907303
 30
0.0
 10
88.83988131570423
 20
293.1700310189527
 30
0.0
 10
88.44540311893715
 20
293.1743752569424
 30
0.0
 10
87.95585947036984
 20
293.1810390273768
 30
0.0
 10
87.40610438785048
 20
293.189094485004
 30
0.0
 10
87.10150246394797
 20
293.1946824414324
 30
0.0
 10
86.97753219113054
 20
293.1969310795287
 30
0.0
  0
ARC
  5
423
330
41E
100
AcDbEntity
  8
DV3_Default
  6
Continuous
 62
     7
100
AcDbCircle
 10
89.738121623
 20
304.4386191789
 30
0.0
 40
11.30166530190384
100
AcDbArc
 50
304.38534359
 51
0.0060969785
  0
ARC
  5
424
330
41E
100
AcDbEntity
  8
DV3_Default
  6
Continuous
 62
     7
100
AcDbCircle
 10
89.7365688824
 20
304.4400462785
 30
0.0
 40
11.30321798077439
100
AcDbArc
 50
359.9988622029
 51
56.1288477604
  0
ARC
  5
425
330
41E
100
AcDbEntity
  8
DV3_Default
  6
Continuous
 62
     7
100
AcDbCircle
 10
87.6672870156
 20
361.7604361672
 30
0.0
 40
46.07899153854778
100
AcDbArc
 50
268.9105202025
 51
272.775430349
  0
SPLINE
  5
426
330
41E
100
AcDbEntity
  8
DV3_Default
  6
Continuous
 62
     7
100
AcDbSpline
210
0.0
220
0.0
230
1.0
 70
     8
 71
     3
 72
    28
 73
    24
 74
     0
 42
0.0000000001173127
 43
0.0000000001
 40
0.0
 40
0.0
 40
0.0
 40
0.0
 40
0.0625
 40
0.0625
 40
0.125
 40
0.125
 40
0.1874999999999999
 40
0.1874999999999999
 40
0.2499999999999999
 40
0.2499999999999999
 40
0.3749999999999999
 40
0.3749999999999999
 40
0.4999999999999998
 40
0.4999999999999998
 40
0.6249999999999998
 40
0.6249999999999998
 40
0.7499999999999997
 40
0.7499999999999997
 40
0.8749999999999996
 40
0.8749999999999996
 40
0.9374999999999998
 40
0.9374999999999998
 40
1.0
 40
1.0
 40
1.0
 40
1.0
 10
7.662418014630523
 20
304.6391671414348
 30
0.0
 10
7.709409665067751
 20
306.5493038277121
 30
0.0
 10
8.377675120716882
 20
308.4291009240368
 30
0.0
 10
10.46006909926706
 20
311.4630200528053
 30
0.0
 10
11.85169791997023
 20
312.6057590315476
 30
0.0
 10
14.90608768374649
 20
314.3396481593907
 30
0.0
 10
16.57396912845688
 20
314.939986086015
 30
0.0
 10
19.96440086034834
 20
315.747692944755
 30
0.0
 10
21.69122716446667
 20
315.9807614726136
 30
0.0
 10
26.93878839959654
 20
316.4249805270818
 30
0.0
 10
30.52320068391118
 20
316.3939376723687
 30
0.0
 10
37.72476959374832
 20
316.1394327955805
 30
0.0
 10
41.33705112330624
 20
315.9213307967084
 30
0.0
 10
48.58701597817763
 20
315.527892108662
 30
0.0
 10
52.22682311386781
 20
315.3513997933233
 30
0.0
 10
59.5147114430212
 20
315.1406811981196
 30
0.0
 10
63.15944859253403
 20
315.1012300995155
 30
0.0
 10
70.42444187866312
 20
315.1584970052171
 30
0.0
 10
74.039501214433
 20
315.2509927165886
 30
0.0
 10
79.26436155147206
 20
315.436402542215
 30
0.0
 10
80.97395849561542
 20
315.5042066940293
 30
0.0
 10
84.22554329530547
 20
315.6168228730401
 30
0.0
 10
85.74367164653391
 20
315.6601763886658
 30
0.0
 10
86.97754401863052
 20
315.6827076567988
 30
0.0
  0
SPLINE
  5
427
330
41E
100
AcDbEntity
  8
DV3_Default
  6
Continuous
 62
     7
100
AcDbSpline
210
0.0
220
0.0
230
1.0
 70
     8
 71
     3
 72
    37
 73
    33
 74
     0
 42
0.0000000001167328
 43
0.0000000001
 40
0.0
 40
0.0
 40
0.0
 40
0.0
 40
0.0247569947312168
 40
0.0476004598623197
 40
0.0685312509290558
 40
0.0873500988875169
 40
0.1093487983265236
 40
0.1283008787506142
 40
0.1449325333486823
 40
0.1656330078453405
 40
0.1857509771442427
 40
0.2106844425983962
 40
0.2394625508367092
 40
0.2941672847145143
 40
0.3443632314048713
 40
0.3911318357696719
 40
0.4388539289470175
 40
0.4713563778099786
 40
0.5044227561274335
 40
0.5380801678144206
 40
0.5723704595455593
 40
0.6100717544899606
 40
0.6530420070338467
 40
0.7012741091992272
 40
0.7547254005521138
 40
0.8134195955101975
 40
0.8606338095448018
 40
0.9107211048782672
 40
0.9370663527622142
 40
0.9642562182046807
 40
0.9920146058238379
 40
1.0
 40
1.0
 40
1.0
 40
1.0
 10
6.364907308166995
 20
304.2178378960062
 30
0.0
 10
6.433284434429143
 20
303.4096602037452
 30
0.0
 10
6.563515520812552
 20
302.0919957691975
 30
0.0
 10
7.274814521528617
 20
300.1385668173481
 30
0.0
 10
8.186383867119563
 20
298.5698094415479
 30
0.0
 10
9.308787749170655
 20
297.1983390626619
 30
0.0
 10
10.568260391317
 20
296.0661896333373
 30
0.0
 10
11.90791713028294
 20
295.1513047605608
 30
0.0
 10
13.29700576994428
 20
294.401279484232
 30
0.0
 10
14.78040751922327
 20
293.7812178537613
 30
0.0
 10
16.53185326780737
 20
293.2321685616473
 30
0.0
 10
18.54788320574693
 20
292.7746785344602
 30
0.0
 10
21.56609757424904
 20
292.3146741018129
 30
0.0
 10
25.36072386323834
 20
292.0568202680578
 30
0.0
 10
29.70829449898801
 20
292.0251902729133
 30
0.0
 10
33.88042950786285
 20
292.1567658393134
 30
0.0
 10
37.56020098557131
 20
292.3555317383149
 30
0.0
 10
40.85379696177033
 20
292.5566662101405
 30
0.0
 10
43.74544940580138
 20
292.7405065158928
 30
0.0
 10
46.69516216093169
 20
292.9258730029987
 30
0.0
 10
49.7857599233664
 20
293.1078818588931
 30
0.0
 10
53.15336860591158
 20
293.2789836117699
 30
0.0
 10
56.93237544862348
 20
293.4306322796892
 30
0.0
 10
61.17174637067191
 20
293.5481798503591
 30
0.0
 10
65.86400356038737
 20
293.6074349502632
 30
0.0
 10
70.50490686151925
 20
293.5885869945404
 30
0.0
 10
74.99256357727288
 20
293.5118488353843
 30
0.0
 10
78.4799368578634
 20
293.4114070037167
 30
0.0
 10
81.30895870333127
 20
293.3218125460653
 30
0.0
 10
83.41035480357357
 20
293.2595883288901
 30
0.0
 10
85.05038829464768
 20
293.2172572709099
 30
0.0
 10
85.73973867507993
 20
293.2059921984571
 30
0.0
 10
85.91918060003184
 20
293.2030880548945
 30
0.0
  0
ARC
  5
428
330
41E
100
AcDbEntity
  8
DV3_Default
  6
Continuous
 62
     7
100
AcDbCircle
 10
89.7452928264
 20
304.323836457
 30
0.0
 40
11.18841631214145
100
AcDbArc
 50
271.2615337107
 51
304.6912354504
  0
SPLINE
  5
429
330
41E
100
AcDbEntity
  8
DV3_Default
  6
Continuous
 62
     7
100
AcDbSpline
210
0.0
220
0.0
230
1.0
 70
     8
 71
     3
 72
    38
 73
    34
 74
     0
 42
0.0000000001242374
 43
0.0000000001
 40
0.0
 40
0.0
 40
0.0
 40
0.0
 40
0.0096409284301371
 40
0.0527300731036006
 40
0.0937151040861268
 40
0.1329278847600529
 40
0.1703351865593397
 40
0.2058303821862336
 40
0.2576209009403511
 40
0.3046376015618746
 40
0.3468212441509984
 40
0.3866582111071919
 40
0.4231803634431022
 40
0.4592899257660839
 40
0.4950158412055922
 40
0.5303892093986836
 40
0.5833429164513889
 40
0.6356705836795902
 40
0.6898865575034594
 40
0.7463607098970533
 40
0.7697139405455202
 40
0.7911132674703679
 40
0.8098118929069751
 40
0.8261167494441768
 40
0.8456160773836413
 40
0.8603957958251909
 40
0.8771950082827122
 40
0.8957945502608582
 40
0.9151956840482418
 40
0.9353938071551741
 40
0.9563512507420748
 40
0.9778464205453464
 40
1.0
 40
1.0
 40
1.0
 40
1.0
 10
80.75777591748299
 20
315.5391031177682
 30
0.0
 10
80.49800139452104
 20
315.5313057300179
 30
0.0
 10
79.2801120892471
 20
315.4950379851396
 30
0.0
 10
76.74150850872188
 20
315.4149340319422
 30
0.0
 10
73.50650357831098
 20
315.3401535210108
 30
0.0
 10
70.33879222291387
 20
315.2945333379211
 30
0.0
 10
67.30639421380543
 20
315.2786483881185
 30
0.0
 10
63.91606495067878
 20
315.2926461171625
 30
0.0
 10
60.25634720254036
 20
315.3534600695955
 30
0.0
 10
56.40873989219827
 20
315.4684763282773
 30
0.0
 10
52.88703439797163
 20
315.6133993087018
 30
0.0
 10
49.65422865233305
 20
315.7790750742352
 30
0.0
 10
46.5912559998111
 20
315.9600641016055
 30
0.0
 10
43.64546708434219
 20
316.145407720047
 30
0.0
 10
40.73676610486124
 20
316.3302359465811
 30
0.0
 10
37.37916441860101
 20
316.5347571957487
 30
0.0
 10
33.58494603117537
 20
316.7372566446346
 30
0.0
 10
29.30376157054698
 20
316.8609307937763
 30
0.0
 10
24.95716507953952
 20
316.8071560419978
 30
0.0
 10
21.42043793046822
 20
316.5408727764272
 30
0.0
 10
18.79880906166057
 20
316.1390890732361
 30
0.0
 10
17.17829690135264
 20
315.8019203890854
 30
0.0
 10
15.76357006605439
 20
315.4153676176583
 30
0.0
 10
14.42388988508708
 20
314.955428760935
 30
0.0
 10
13.21458604522932
 20
314.4311705200319
 30
0.0
 10
12.04096559077836
 20
313.7986743507157
 30
0.0
 10
10.94152655211078
 20
313.0791071655848
 30
0.0
 10
9.824023112412705
 20
312.1686059864295
 30
0.0
 10
8.758746495277498
 20
311.0533471465598
 30
0.0
 10
7.812939015390014
 20
309.7266453288992
 30
0.0
 10
7.054673729364275
 20
308.2041976015669
 30
0.0
 10
6.513085646924072
 20
306.4594846123237
 30
0.0
 10
6.41531482339297
 20
305.3355938514979
 30
0.0
 10
6.364905817430794
 20
304.6617396333123
 30
0.0
  0
ARC
  5
42A
330
41E
100
AcDbEntity
  8
DV3_Default
  6
Continuous
 62
     7
100
AcDbCircle
 10
89.7413312119
 20
304.48755218
 30
0.0
 40
11.25663250055801
100
AcDbArc
 50
56.018629495
 51
89.265159257
  0
ARC
  5
42B
330
41E
100
AcDbEntity
  8
DV3_Default
  6
Continuous
 62
     7
100
AcDbCircle
 10
89.7398375516
 20
304.4366676366
 30
0.0
 40
17.81581024077887
100
AcDbArc
 50
0.012070022
 51
142.0210422145
  0
ARC
  5
42C
330
41E
100
AcDbEntity
  8
DV3_Default
  6
Continuous
 62
     7
100
AcDbCircle
 10
89.7398374391
 20
304.4425673442
 30
0.0
 40
17.81581008733907
100
AcDbArc
 50
217.988172325
 51
359.9930965178
  0
ARC
  5
42D
330
41E
100
AcDbEntity
  8
DV3_Default
  6
Continuous
 62
     7
100
AcDbCircle
 10
89.725284894
 20
304.4365055535
 30
0.0
 40
26.11946299378131
100
AcDbArc
 50
204.5897263193
 51
0.0180949536
  0
ARC
  5
42E
330
41E
100
AcDbEntity
  8
DV3_Default
  6
Continuous
 62
     7
100
AcDbCircle
 10
89.7274761859
 20
304.4396581296
 30
0.0
 40
26.12178802607044
100
AcDbArc
 50
0.0064587375
 51
155.3976025938
  0
SPLINE
  5
42F
330
41E
100
AcDbEntity
  8
DV3_Default
  6
Continuous
 62
     7
100
AcDbSpline
210
0.0
220
0.0
230
1.0
 70
     8
 71
     3
 72
    22
 73
    18
 74
     0
 42
0.000000000282134
 43
0.0000000001
 40
0.0
 40
0.0
 40
0.0
 40
0.0
 40
0.0443922754908763
 40
0.1700645357127828
 40
0.2982912102638035
 40
0.3817839004696611
 40
0.4854926857116321
 40
0.582207872356025
 40
0.6865091093301219
 40
0.7907393238594005
 40
0.8166739174249737
 40
0.8439240068056832
 40
0.8724908900323499
 40
0.9023773652876381
 40
0.9335884045776379
 40
0.9661326192658789
 40
1.0
 40
1.0
 40
1.0
 40
1.0
 10
173.0202839646079
 20
139.5487333871198
 30
0.0
 10
172.806261763156
 20
139.0771534734388
 30
0.0
 10
172.0696476524399
 20
137.2353446630468
 30
0.0
 10
171.3823411789263
 20
133.8054120471598
 30
0.0
 10
171.6552815973618
 20
129.8649869497408
 30
0.0
 10
172.6500082551996
 20
126.3291176875056
 30
0.0
 10
174.1173027440336
 20
123.3363230822456
 30
0.0
 10
176.3276508108767
 20
120.497382505722
 30
0.0
 10
179.1038149270008
 20
118.154809963539
 30
0.0
 10
181.5658094689105
 20
116.8032478706278
 30
0.0
 10
183.309744805184
 20
116.1057028109778
 30
0.0
 10
184.2336239672376
 20
115.7883918779884
 30
0.0
 10
185.2192730757254
 20
115.5067774330401
 30
0.0
 10
186.2662659283413
 20
115.2690938611225
 30
0.0
 10
187.3733128995859
 20
115.0868063844086
 30
0.0
 10
188.537892125847
 20
114.9634648014381
 30
0.0
 10
189.3341172490677
 20
114.9474045075139
 30
0.0
 10
189.7401616939505
 20
114.9392136341452
 30
0.0
  0
SPLINE
  5
430
330
41E
100
AcDbEntity
  8
DV3_Default
  6
Continuous
 62
     7
100
AcDbSpline
210
0.0
220
0.0
230
1.0
 70
     8
 71
     3
 72
    18
 73
    14
 74
     0
 42
0.0000000002832846
 43
0.0000000001
 40
0.0
 40
0.0
 40
0.0
 40
0.0
 40
0.0578631590982175
 40
0.1206133404305857
 40
0.1882603462301886
 40
0.260823063791787
 40
0.3383252895503552
 40
0.4207946661439602
 40
0.5084072825137207
 40
0.6229221621795807
 40
0.7060894753873448
 40
0.8357073188660981
 40
1.0
 40
1.0
 40
1.0
 40
1.0
 10
189.7401616939505
 20
114.9392136341452
 30
0.0
 10
190.43014100475
 20
114.9630732050211
 30
0.0
 10
191.8683740843576
 20
115.012805817412
 30
0.0
 10
194.079961269996
 20
115.4257792690965
 30
0.0
 10
196.389495178543
 20
116.1378590919662
 30
0.0
 10
198.7400794706435
 20
117.2199283759235
 30
0.0
 10
201.0562285860872
 20
118.7078722849593
 30
0.0
 10
203.2420312347945
 20
120.6435562371638
 30
0.0
 10
205.3161995622116
 20
123.258010988066
 30
0.0
 10
206.8087974997753
 20
126.242696151789
 30
0.0
 10
207.8277850181554
 20
129.8918441176684
 30
0.0
 10
208.1376808298247
 20
134.2663971862548
 30
0.0
 10
207.2849041567015
 20
137.6340633549293
 30
0.0
 10
206.5158878672197
 20
139.3946083882422
 30
0.0
  0
ARC
  5
431
330
41E
100
AcDbEntity
  8
DV3_Default
  6
Continuous
 62
     7
100
AcDbCircle
 10
189.7110154171
 20
304.381600475
 30
0.0
 40
28.66648448436177
100
AcDbArc
 50
89.941706696
 51
236.2234326873
  0
SPLINE
  5
432
330
41E
100
AcDbEntity
  8
DV3_Default
  6
Continuous
 62
     7
100
AcDbSpline
210
0.0
220
0.0
230
1.0
 70
     8
 71
     3
 72
    21
 73
    17
 74
     0
 42
0.0000000002818546
 43
0.0000000001
 40
0.0
 40
0.0
 40
0.0
 40
0.0
 40
0.0829570018265302
 40
0.1713522679328589
 40
0.2731314153337981
 40
0.3827884110441232
 40
0.4968557640000709
 40
0.5828808122697453
 40
0.6907701980106482
 40
0.7910804325901992
 40
0.8273363968654649
 40
0.863031615650752
 40
0.8981492730305676
 40
0.9326807543584772
 40
0.9666271072441373
 40
1.0
 40
1.0
 40
1.0
 40
1.0
 10
173.0407432024413
 20
139.5913782359754
 30
0.0
 10
172.6376822045779
 20
138.7097705531779
 30
0.0
 10
171.9605975980039
 20
136.823535778424
 30
0.0
 10
171.4628721252736
 20
133.6747951844428
 30
0.0
 10
171.6069291575817
 20
130.1779028960374
 30
0.0
 10
172.5441548435666
 20
126.4866530755782
 30
0.0
 10
174.1842072774963
 20
123.227469998696
 30
0.0
 10
176.4510576587667
 20
120.3822595828122
 30
0.0
 10
179.1422072150445
 20
118.1283849657808
 30
0.0
 10
181.7163612439801
 20
116.7272375650494
 30
0.0
 10
183.6363014991121
 20
115.9809198707905
 30
0.0
 10
184.8602560085807
 20
115.5978329433919
 30
0.0
 10
186.0884111691079
 20
115.3015668519164
 30
0.0
 10
187.3140920101779
 20
115.0931100767828
 30
0.0
 10
188.5310330323128
 20
114.9633648993869
 30
0.0
 10
189.3394119582605
 20
114.9472179194433
 30
0.0
 10
189.7401616939505
 20
114.9392136341452
 30
0.0
  0
SPLINE
  5
433
330
41E
100
AcDbEntity
  8
DV3_Default
  6
Continuous
 62
     7
100
AcDbSpline
210
0.0
220
0.0
230
1.0
 70
     8
 71
     3
 72
   116
 73
   112
 74
     0
 42
0.0000000000660901
 43
0.0000000001
 40
0.0
 40
0.0
 40
0.0
 40
0.0
 40
0.0009664983649578
 40
0.0101568564981066
 40
0.0174842713946121
 40
0.0214984040732389
 40
0.0264278188013674
 40
0.0319678093309298
 40
0.0371633252803664
 40
0.0415151617468892
 40
0.045314917903657
 40
0.0491150639283394
 40
0.053396212592481
 40
0.0584643238695074
 40
0.0630723700510115
 40
0.0665949880961361
 40
0.0705309144009862
 40
0.0765717822763005
 40
0.0832827943829896
 40
0.0896147488058064
 40
0.0964357552852255
 40
0.1029004780226848
 40
0.1084039011322532
 40
0.1151725679316463
 40
0.123883366705066
 40
0.132447917902124
 40
0.1425843012643293
 40
0.1535956212414326
 40
0.165310352811463
 40
0.175928520397943
 40
0.1831023431989899
 40
0.189385404118763
 40
0.1946631630748895
 40
0.1993257781545171
 40
0.2048015225015084
 40
0.2114501645920109
 40
0.2193336941347102
 40
0.2281744030701389
 40
0.2342160544134672
 40
0.2396500347666139
 40
0.2441488349817294
 40
0.2481294913169375
 40
0.2512137728504267
 40
0.2533055134144112
 40
0.2556699248403011
 40
0.2611173935197588
 40
0.2675158952112488
 40
0.2750169065270127
 40
0.2826753082511925
 40
0.2998122067703955
 40
0.3164137456770797
 40
0.3306030220941005
 40
0.3445009962957182
 40
0.3593259594833412
 40
0.375198987918509
 40
0.3937708621194051
 40
0.4143019162421243
 40
0.4359763889844542
 40
0.4590119856177958
 40
0.48108670221052
 40
0.5026624585626348
 40
0.5246981619340804
 40
0.5467835091387305
 40
0.5688765067409357
 40
0.5936720756827402
 40
0.6193163555086648
 40
0.6448215419234382
 40
0.6700853138603293
 40
0.692742997374376
 40
0.7135169717883242
 40
0.7340628142802805
 40
0.7507984195636223
 40
0.7663013731018529
 40
0.7809823645504733
 40
0.7962441865642692
 40
0.8103926765784025
 40
0.8232374350469988
 40
0.835037652671337
 40
0.8456874639983621
 40
0.8558623205213839
 40
0.8653695482372383
 40
0.8737705154939965
 40
0.8787462358423668
 40
0.882488474204922
 40
0.8860153845674527
 40
0.8893268935992025
 40
0.8924619753056228
 40
0.8965670684601541
 40
0.9016212417104161
 40
0.9071508554263416
 40
0.912278906578582
 40
0.9166888287663137
 40
0.9214248510083813
 40
0.9267052751773472
 40
0.9315571139244084
 40
0.9356431666224739
 40
0.9393792169642771
 40
0.9432826465441193
 40
0.9473106301416022
 40
0.951095893810427
 40
0.9545547497095137
 40
0.957522363880062
 40
0.9601385479592054
 40
0.9635226599172149
 40
0.9668694767200511
 40
0.9716597184491966
 40
0.9782350476409064
 40
0.9846798793241495
 40
0.9901264650516848
 40
0.9952821628018992
 40
1.0
 40
1.0
 40
1.0
 40
1.0
 10
172.4705380164535
 20
290.4106065618763
 30
0.0
 10
172.4705094245197
 20
290.4107024644946
 30
0.0
 10
172.4705570465493
 20
290.4105304440499
 30
0.0
 10
172.4771362899822
 20
290.387964848766
 30
0.0
 10
172.490398967561
 20
290.3383564205818
 30
0.0
 10
172.5074301228198
 20
290.2724258705938
 30
0.0
 10
172.5245727712545
 20
290.2035797757345
 30
0.0
 10
172.5456615601007
 20
290.1162241279792
 30
0.0
 10
172.5686964977906
 20
290.017338111129
 30
0.0
 10
172.5916611609149
 20
289.915710956756
 30
0.0
 10
172.6134479329067
 20
289.8166524305811
 30
0.0
 10
172.6373086335553
 20
289.7054895970231
 30
0.0
 10
172.6650019068437
 20
289.5728595406873
 30
0.0
 10
172.6953949523169
 20
289.4227977648695
 30
0.0
 10
172.7248492357972
 20
289.2726802241524
 30
0.0
 10
172.7523460926513
 20
289.1289107394612
 30
0.0
 10
172.7847980016209
 20
288.9551254442567
 30
0.0
 10
172.8265367021249
 20
288.7241972118872
 30
0.0
 10
172.8753289751044
 20
288.4426386311969
 30
0.0
 10
172.9274860978971
 20
288.1284677961319
 30
0.0
 10
172.9797406836051
 20
287.7995900179067
 30
0.0
 10
173.0302568803153
 20
287.4673501750045
 30
0.0
 10
173.0814231580599
 20
287.116984994093
 30
0.0
 10
173.1395244527447
 20
286.7021565063342
 30
0.0
 10
173.2062050216846
 20
286.1997290214374
 30
0.0
 10
173.2817715742358
 20
285.5946503988432
 30
0.0
 10
173.3634302615297
 20
284.8953271072479
 30
0.0
 10
173.4526361888767
 20
284.0688115589618
 30
0.0
 10
173.5411444831031
 20
283.1735141200291
 30
0.0
 10
173.6172074167629
 20
282.3314567346022
 30
0.0
 10
173.6774417379793
 20
281.6125416623428
 30
0.0
 10
173.7232790033896
 20
281.0324115651625
 30
0.0
 10
173.7620527346917
 20
280.5153659812386
 30
0.0
 10
173.7981458595743
 20
280.0114002464982
 30
0.0
 10
173.8366723774284
 20
279.4467918740283
 30
0.0
 10
173.8812424224947
 20
278.7531960760726
 30
0.0
 10
173.9312322508273
 20
277.9148575071609
 30
0.0
 10
173.9775925695316
 20
277.068116442165
 30
0.0
 10
174.0171335046902
 20
276.2892920518989
 30
0.0
 10
174.0471268489551
 20
275.6631955662081
 30
0.0
 10
174.0724423942582
 20
275.1075615223064
 30
0.0
 10
174.0929300983668
 20
274.6382180549167
 30
0.0
 10
174.108793069977
 20
274.2616359851036
 30
0.0
 10
174.1216838210127
 20
273.94749241339
 30
0.0
 10
174.1384257415657
 20
273.5301440225342
 30
0.0
 10
174.161838556959
 20
272.9227181363204
 30
0.0
 10
174.1924545950822
 20
272.0788622717769
 30
0.0
 10
174.2249297392183
 20
271.1177362826682
 30
0.0
 10
174.2709867758608
 20
269.6446225790195
 30
0.0
 10
174.3247822944287
 20
267.6876896007781
 30
0.0
 10
174.3795193375438
 20
265.318231904498
 30
0.0
 10
174.4247532652287
 20
263.0235161464495
 30
0.0
 10
174.463568185175
 20
260.7481668158206
 30
0.0
 10
174.4994598369506
 20
258.3116912362566
 30
0.0
 10
174.5345415293585
 20
255.5380949783511
 30
0.0
 10
174.568813999973
 20
252.3457945862321
 30
0.0
 10
174.6019953624105
 20
248.7006138910701
 30
0.0
 10
174.6337778216531
 20
244.6617021842101
 30
0.0
 10
174.6644778303555
 20
240.3992995530994
 30
0.0
 10
174.6946217439399
 20
236.025373938401
 30
0.0
 10
174.7226277632985
 20
231.6173593729573
 30
0.0
 10
174.7484113160182
 20
227.1192687837538
 30
0.0
 10
174.7711942103538
 20
222.505261953344
 30
0.0
 10
174.7907400287139
 20
217.6261528141243
 30
0.0
 10
174.8054981416832
 20
212.4257604181165
 30
0.0
 10
174.8129667737709
 20
206.9176549036494
 30
0.0
 10
174.8105247648514
 20
201.3276766354532
 30
0.0
 10
174.7968512530081
 20
195.9273440846272
 30
0.0
 10
174.7719454256379
 20
190.8664531235635
 30
0.0
 10
174.7376776451261
 20
186.1610473899645
 30
0.0
 10
174.6968165613502
 20
181.910944423476
 30
0.0
 10
174.6512719714172
 20
178.075190568756
 30
0.0
 10
174.6041533968312
 20
174.6958518599591
 30
0.0
 10
174.5522920901972
 20
171.4582381495113
 30
0.0
 10
174.4958102288671
 20
168.3595370596203
 30
0.0
 10
174.4356822585472
 20
165.4390168186397
 30
0.0
 10
174.3752761460439
 20
162.8073772746854
 30
0.0
 10
174.3158835813456
 20
160.4613367431238
 30
0.0
 10
174.2571704140928
 20
158.3397569088617
 30
0.0
 10
174.1992511161698
 20
156.4133557572198
 30
0.0
 10
174.1426833719689
 20
154.6758618291882
 30
0.0
 10
174.0944433765
 20
153.2985758165349
 30
0.0
 10
174.0570621765522
 20
152.2920734397079
 30
0.0
 10
174.0295411732121
 20
151.5839648385557
 30
0.0
 10
174.0051966784007
 20
150.9815503063796
 30
0.0
 10
173.9816338567854
 20
150.4214703607925
 30
0.0
 10
173.9562052552082
 20
149.8402597246584
 30
0.0
 10
173.9257623206709
 20
149.1758556577087
 30
0.0
 10
173.8879747190961
 20
148.4001315728551
 30
0.0
 10
173.8457095476472
 20
147.5951187437907
 30
0.0
 10
173.8031796150462
 20
146.8466760594463
 30
0.0
 10
173.7610491936788
 20
146.1581128288438
 30
0.0
 10
173.7168052653178
 20
145.4858699587058
 30
0.0
 10
173.6694220450186
 20
144.8222484112256
 30
0.0
 10
173.6219429394035
 20
144.2112046862821
 30
0.0
 10
173.5781536264848
 20
143.6892228723028
 30
0.0
 10
173.5367183921224
 20
143.2275026059984
 30
0.0
 10
173.4943446487401
 20
142.7857622399424
 30
0.0
 10
173.4508992028064
 20
142.3636204436881
 30
0.0
 10
173.4085714129613
 20
141.9799249654175
 30
0.0
 10
173.3697631217648
 20
141.6502115244043
 30
0.0
 10
173.3348791012412
 20
141.3705311497783
 30
0.0
 10
173.3005285670361
 20
141.1090551721146
 30
0.0
 10
173.2651316698774
 20
140.8535473057581
 30
0.0
 10
173.220667256179
 20
140.5524646368921
 30
0.0
 10
173.167549801155
 20
140.2192273928026
 30
0.0
 10
173.1059223198963
 20
139.870998284918
 30
0.0
 10
173.0491193776096
 20
139.5885428281717
 30
0.0
 10
173.0074249149125
 20
139.402809586722
 30
0.0
 10
172.98154345071
 20
139.2999456634924
 30
0.0
 10
172.9760180550271
 20
139.2799108196753
 30
0.0
 10
172.976141437122
 20
139.2801233479689
 30
0.0
  0
SPLINE
  5
434
330
41E
100
AcDbEntity
  8
DV3_Default
  6
Continuous
 62
     7
100
AcDbSpline
210
0.0
220
0.0
230
1.0
 70
     8
 71
     3
 72
    10
 73
     6
 74
     0
 42
0.0000000198480367
 43
0.0000000001
 40
0.0
 40
0.0
 40
0.0
 40
0.0
 40
0.0392125828576387
 40
0.6460684175819624
 40
1.0
 40
1.0
 40
1.0
 40
1.0
 10
173.3070328169732
 20
140.1160153238899
 30
0.0
 10
173.3096335500305
 20
140.1216676477797
 30
0.0
 10
173.35272320177
 20
140.2150768626457
 30
0.0
 10
173.4253479981174
 20
140.3662323473992
 30
0.0
 10
173.5009920886576
 20
140.5150859065694
 30
0.0
 10
173.5285785692692
 20
140.5684456431607
 30
0.0
  0
ARC
  5
435
330
41E
100
AcDbEntity
  8
DV3_Default
  6
Continuous
 62
     7
100
AcDbCircle
 10
189.7934238643
 20
304.3816005635
 30
0.0
 40
28.66651900381574
100
AcDbArc
 50
303.7551585568
 51
90.1064166238
  0
SPLINE
  5
436
330
41E
100
AcDbEntity
  8
DV3_Default
  6
Continuous
 62
     7
100
AcDbSpline
210
0.0
220
0.0
230
1.0
 70
     8
 71
     3
 72
    18
 73
    14
 74
     0
 42
0.0000000002818414
 43
0.0000000001
 40
0.0
 40
0.0
 40
0.0
 40
0.0
 40
0.0673930408816868
 40
0.1371202743226868
 40
0.2091520750534712
 40
0.3096302353661489
 40
0.4177260384601652
 40
0.5038743206506053
 40
0.6184688916424569
 40
0.7282537331357222
 40
0.8298538832361887
 40
0.9203879085653246
 40
0.9999999999999999
 40
0.9999999999999999
 40
0.9999999999999999
 40
0.9999999999999999
 10
189.7401616939505
 20
114.9392136341452
 30
0.0
 10
190.549465810553
 20
114.9719222126818
 30
0.0
 10
192.196111558785
 20
115.0384731242659
 30
0.0
 10
194.6580886116596
 20
115.5684007532133
 30
0.0
 10
197.3982846313803
 20
116.5253156446479
 30
0.0
 10
200.3495282119926
 20
118.1363915172246
 30
0.0
 10
203.0422805651689
 20
120.3948330153297
 30
0.0
 10
205.3106786294218
 20
123.2493691407462
 30
0.0
 10
206.9486328305817
 20
126.5179270072452
 30
0.0
 10
207.8785795235973
 20
130.214821120432
 30
0.0
 10
208.016522245264
 20
133.7342179166553
 30
0.0
 10
207.5072655531565
 20
136.8651500762349
 30
0.0
 10
206.8318383778595
 20
138.7329137447924
 30
0.0
 10
206.4451086405987
 20
139.5796346605435
 30
0.0
  0
SPLINE
  5
437
330
41E
100
AcDbEntity
  8
DV3_Default
  6
Continuous
 62
     7
100
AcDbSpline
210
0.0
220
0.0
230
1.0
 70
     8
 71
     3
 72
   114
 73
   110
 74
     0
 42
0.0000000000660849
 43
0.0000000001
 40
0.0
 40
0.0
 40
0.0
 40
0.0
 40
0.0017033661972291
 40
0.0082021732688817
 40
0.0140182390622491
 40
0.0183672813419877
 40
0.0224951958690049
 40
0.0255631578274575
 40
0.0293448162928061
 40
0.0331088292278676
 40
0.0380067957585952
 40
0.0430186735947231
 40
0.0470689686189026
 40
0.0515958075369123
 40
0.056760820602499
 40
0.0612598795855301
 40
0.0655069270292416
 40
0.069880069299992
 40
0.0760434417167841
 40
0.083171554704429
 40
0.0906189397547423
 40
0.0973736899748696
 40
0.1030944410848503
 40
0.1081078493916292
 40
0.1126088392526957
 40
0.1171532001871416
 40
0.122279994064794
 40
0.1280002422309999
 40
0.1343256619478284
 40
0.1411040401713451
 40
0.1511240286082154
 40
0.1649530611580979
 40
0.1787338205746567
 40
0.1936162425269948
 40
0.2083621542907115
 40
0.2238698582877594
 40
0.2403692917157212
 40
0.2562469345823997
 40
0.2719501208482783
 40
0.2884827235103458
 40
0.3057751611708187
 40
0.3238755016591811
 40
0.3422077092199141
 40
0.3594920076371216
 40
0.377269724017231
 40
0.3948420992127561
 40
0.412058531445332
 40
0.4288934106555341
 40
0.4461309470418369
 40
0.4663844665611793
 40
0.4858953488735975
 40
0.504534945928421
 40
0.5223194085081071
 40
0.5392837847058072
 40
0.5542057805216463
 40
0.5683453362771655
 40
0.5824967092902309
 40
0.5968128405580487
 40
0.6116183695507498
 40
0.6272855508652191
 40
0.643127791088429
 40
0.657906252924765
 40
0.6692335788595821
 40
0.6795347454598444
 40
0.6882535224060808
 40
0.6950378896188242
 40
0.7021353515849069
 40
0.7099211315213234
 40
0.7182684198717149
 40
0.7271155528463887
 40
0.7366329239014923
 40
0.746635611681863
 40
0.7569139290795209
 40
0.768099309524875
 40
0.7781722673595849
 40
0.7847853525536569
 40
0.7913248280382389
 40
0.7968821776899896
 40
0.8015793061518426
 40
0.8090611015196338
 40
0.8182735680328259
 40
0.8279185896971254
 40
0.8375037247171673
 40
0.846005544144856
 40
0.8511092807326189
 40
0.8554317990437672
 40
0.8601627580161807
 40
0.8664142946718364
 40
0.8741190816921967
 40
0.8820616665325816
 40
0.8921520595289343
 40
0.9024067071165064
 40
0.9129527991409957
 40
0.9179047561231216
 40
0.9219440567768096
 40
0.9253019716611249
 40
0.9296294444301647
 40
0.9351802892111937
 40
0.941962492863391
 40
0.9481673016227454
 40
0.9535694392151159
 40
0.9583262664275644
 40
0.963754373001006
 40
0.9699699667537875
 40
0.9769968210481719
 40
0.9844071629461036
 40
0.9908894349735384
 40
0.9964444054652821
 40
0.9999999999999999
 40
0.9999999999999999
 40
0.9999999999999999
 40
0.9999999999999999
 10
206.504370921446
 20
139.2796658228351
 30
0.0
 10
206.5043922372543
 20
139.279651306955
 30
0.0
 10
206.5026496379941
 20
139.2860306373158
 30
0.0
 10
206.4858368005985
 20
139.3491795668376
 30
0.0
 10
206.4482532574784
 20
139.510687274062
 30
0.0
 10
206.4077104726737
 20
139.7043586076038
 30
0.0
 10
206.3711385251601
 20
139.8935749439852
 30
0.0
 10
206.3329393200834
 20
140.1054325360091
 30
0.0
 10
206.2946048099981
 20
140.3326032003659
 30
0.0
 10
206.2494857654449
 20
140.6190448456423
 30
0.0
 10
206.1977488283181
 20
140.9741914198943
 30
0.0
 10
206.1440035359809
 20
141.3785528973285
 30
0.0
 10
206.0923371204531
 20
141.8007943398928
 30
0.0
 10
206.0395771961777
 20
142.2665180901537
 30
0.0
 10
205.9871926088696
 20
142.7715767648024
 30
0.0
 10
205.9369752583256
 20
143.2980252767454
 30
0.0
 10
205.8908483963962
 20
143.8201999891101
 30
0.0
 10
205.8403306012036
 20
144.4360008353534
 30
0.0
 10
205.7825773526926
 20
145.2057648061508
 30
0.0
 10
205.7181792225117
 20
146.163563994083
 30
0.0
 10
205.6559837315694
 20
147.2030055851093
 30
0.0
 10
205.6015626168457
 20
148.2159509469512
 30
0.0
 10
205.5562651322151
 20
149.1375575559501
 30
0.0
 10
205.5184926527782
 20
149.963792246669
 30
0.0
 10
205.4849743605549
 20
150.7423838162852
 30
0.0
 10
205.4521914682512
 20
151.545863402762
 30
0.0
 10
205.4177042838338
 20
152.4371569757189
 30
0.0
 10
205.3804860651709
 20
153.4526271582352
 30
0.0
 10
205.3409088126897
 20
154.5893391586502
 30
0.0
 10
205.2939087286261
 20
156.0136646655974
 30
0.0
 10
205.2344715351767
 20
157.9425939854934
 30
0.0
 10
205.1662350332209
 20
160.3795501160813
 30
0.0
 10
205.0952846028119
 20
163.20664168166
 30
0.0
 10
205.029080693335
 20
166.1633870312938
 30
0.0
 10
204.9667855656701
 20
169.2995089043572
 30
0.0
 10
204.90900305111
 20
172.6010682516339
 30
0.0
 10
204.8568930876628
 20
176.0290327921894
 30
0.0
 10
204.8115191397802
 20
179.507466863716
 30
0.0
 10
204.7726852042461
 20
183.0151770722565
 30
0.0
 10
204.7394174260127
 20
186.6461351339616
 30
0.0
 10
204.7116936607382
 20
190.4663480439242
 30
0.0
 10
204.6905489889861
 20
194.4248619494449
 30
0.0
 10
204.6768858858067
 20
198.3801847927607
 30
0.0
 10
204.6696637977785
 20
202.3016236609481
 30
0.0
 10
204.6680254550718
 20
206.1513691312528
 30
0.0
 10
204.6712412871085
 20
209.9744270832689
 30
0.0
 10
204.6785136336248
 20
213.7027369553575
 30
0.0
 10
204.6892320584953
 20
217.3766032736526
 30
0.0
 10
204.7037992267626
 20
221.2310691285741
 30
0.0
 10
204.7222564763154
 20
225.2270710137198
 30
0.0
 10
204.7439577321332
 20
229.2611271004995
 30
0.0
 10
204.7667727529918
 20
233.062499881577
 30
0.0
 10
204.7899228687797
 20
236.6278272679178
 30
0.0
 10
204.8123458261297
 20
239.8834873831771
 30
0.0
 10
204.8334961195455
 20
242.8431024409141
 30
0.0
 10
204.8537230661942
 20
245.5695101772659
 30
0.0
 10
204.8746833910448
 20
248.2052302538691
 30
0.0
 10
204.8975134514338
 20
250.8260450734553
 30
0.0
 10
204.9233851737817
 20
253.4766631141752
 30
0.0
 10
204.9531930171049
 20
256.1475729968463
 30
0.0
 10
204.9868382866375
 20
258.7412440787814
 30
0.0
 10
205.0213283873487
 20
261.0222510452177
 30
0.0
 10
205.054621421913
 20
262.9476990851042
 30
0.0
 10
205.0848985014141
 20
264.5138586902989
 30
0.0
 10
205.1126651273529
 20
265.8154262836773
 30
0.0
 10
205.1384999540525
 20
266.9330187387162
 30
0.0
 10
205.1646064722131
 20
267.9843545732542
 30
0.0
 10
205.1942008754875
 20
269.0884148424757
 30
0.0
 10
205.227983219791
 20
270.2486100506931
 30
0.0
 10
205.2664255338496
 20
271.4577618337725
 30
0.0
 10
205.3100238324176
 20
272.706379581388
 30
0.0
 10
205.3589590004497
 20
273.9752341824726
 30
0.0
 10
205.4141432826557
 20
275.2661596439083
 30
0.0
 10
205.4733593070361
 20
276.5086134737879
 30
0.0
 10
205.5292306613827
 20
277.560678795018
 30
0.0
 10
205.5781862510767
 20
278.407150193952
 30
0.0
 10
205.6191672898182
 20
279.0693563966795
 30
0.0
 10
205.6571234180541
 20
279.645941376783
 30
0.0
 10
205.6979820519963
 20
280.2363741774758
 30
0.0
 10
205.748509055808
 20
280.9256289541802
 30
0.0
 10
205.8129167361633
 20
281.7401950817209
 30
0.0
 10
205.8848716108538
 20
282.5787528012027
 30
0.0
 10
205.9570952373074
 20
283.3558932521304
 30
0.0
 10
206.0189377970432
 20
283.974999423091
 30
0.0
 10
206.0674676902876
 20
284.4359366895245
 30
0.0
 10
206.1059884487479
 20
284.7889002813054
 30
0.0
 10
206.1476820635932
 20
285.1582474192796
 30
0.0
 10
206.1989942837065
 20
285.5947893709281
 30
0.0
 10
206.2594918565803
 20
286.0840836938787
 30
0.0
 10
206.3307838105414
 20
286.6295218851451
 30
0.0
 10
206.4088857896001
 20
287.1905074885974
 30
0.0
 10
206.4929562858825
 20
287.7538324978523
 30
0.0
 10
206.5614876844408
 20
288.1822016566451
 30
0.0
 10
206.6126126631523
 20
288.4860169847293
 30
0.0
 10
206.6445459418778
 20
288.6701895327415
 30
0.0
 10
206.6738430860835
 20
288.8350724446613
 30
0.0
 10
206.7054796956456
 20
289.0087820960421
 30
0.0
 10
206.7444976022672
 20
289.2163964030639
 30
0.0
 10
206.7867770069728
 20
289.4325348873606
 30
0.0
 10
206.8269221085538
 20
289.6290994187974
 30
0.0
 10
206.8600883683143
 20
289.7854529023092
 30
0.0
 10
206.8895155727113
 20
289.9195312894254
 30
0.0
 10
206.9169368327243
 20
290.0404408767707
 30
0.0
 10
206.9448322017959
 20
290.1588238245915
 30
0.0
 10
206.9707468714244
 20
290.2641248513929
 30
0.0
 10
206.9910753567996
 20
290.342750197982
 30
0.0
 10
207.0037093906386
 20
290.3891764869272
 30
0.0
 10
207.0091640864177
 20
290.4085914826582
 30
0.0
 10
207.0131144381642
 20
290.4217832584463
 30
0.0
 10
207.0132830147464
 20
290.4222974968671
 30
0.0
  0
ARC
  5
438
330
41E
100
AcDbEntity
  8
DV3_Default
  6
Continuous
 62
     7
100
AcDbCircle
 10
189.7083708469
 20
304.3816004722
 30
0.0
 40
28.66648729979639
100
AcDbArc
 50
89.9364209896
 51
236.2218925251
  0
ARC
  5
439
330
41E
100
AcDbEntity
  8
DV3_Default
  6
Continuous
 62
     7
100
AcDbCircle
 10
189.9213784342
 20
303.9146318591
 30
0.0
 40
29.13544089851783
100
AcDbArc
 50
104.6022796587
 51
134.5815147103
  0
ARC
  5
43A
330
41E
100
AcDbEntity
  8
DV3_Default
  6
Continuous
 62
     7
100
AcDbCircle
 10
189.7774911917
 20
304.3816005464
 30
0.0
 40
28.66649385648083
100
AcDbArc
 50
303.8253760313
 51
90.0745720119
  0
ARC
  5
43B
330
41E
100
AcDbEntity
  8
DV3_Default
  6
Continuous
 62
     7
100
AcDbCircle
 10
189.5981062308
 20
304.0227829327
 30
0.0
 40
29.02206431986462
100
AcDbArc
 50
45.6216375863
 51
60.8999794271
  0
ARC
  5
43C
330
41E
100
AcDbEntity
  8
DV3_Default
  6
Continuous
 62
     7
100
AcDbCircle
 10
189.5981062308
 20
304.0227829327
 30
0.0
 40
29.02206431986462
100
AcDbArc
 50
84.5252624058
 51
89.7224752395
  0
SPLINE
  5
43D
330
41E
100
AcDbEntity
  8
DV3_Default
  6
Continuous
 62
     7
100
AcDbSpline
210
0.0
220
0.0
230
1.0
 70
     8
 71
     3
 72
    48
 73
    44
 74
     0
 42
0.0000000001174463
 43
0.0000000001
 40
0.0
 40
0.0
 40
0.0
 40
0.0
 40
0.0360299982472672
 40
0.0540481268018761
 40
0.0720662553564851
 40
0.0810753196337895
 40
0.090084383911094
 40
0.108102512465703
 40
0.1261206410203119
 40
0.1351297052976164
 40
0.1441387695749209
 40
0.1621568981295298
 40
0.1801750266841388
 40
0.2162112837933567
 40
0.2522475409025746
 40
0.2702656694571835
 40
0.2882837980117924
 40
0.3243200551210104
 40
0.3603563122302282
 40
0.3963925693394461
 40
0.432428826448664
 40
0.5045013406670998
 40
0.5765738548855356
 40
0.6126101119947536
 40
0.6486463691039714
 40
0.6846826262131893
 40
0.7027007547677983
 40
0.7207188833224072
 40
0.7387370118770161
 40
0.7567551404316251
 40
0.7747732689862341
 40
0.792791397540843
 40
0.8018004618181475
 40
0.810809526095452
 40
0.8288276546500609
 40
0.8468457832046699
 40
0.8648639117592788
 40
0.9009001688684967
 40
0.9369364259777146
 40
0.9549545545323236
 40
0.9729726830869325
 40
0.9909908116415415
 40
1.0
 40
1.0
 40
1.0
 40
1.0
 10
292.5774501922305
 20
293.1969310795287
 30
0.0
 10
293.2887717616399
 20
293.2099398743434
 30
0.0
 10
294.4976457962146
 20
293.2398753362396
 30
0.0
 10
296.2910498916472
 20
293.2959400056415
 30
0.0
 10
297.4671447222297
 20
293.3369498885294
 30
0.0
 10
298.426746585636
 20
293.3723073644376
 30
0.0
 10
299.3959256174792
 20
293.4084016427458
 30
0.0
 10
300.6249450338895
 20
293.4545179136851
 30
0.0
 10
301.8733683963324
 20
293.5001231715354
 30
0.0
 10
302.881523677893
 20
293.5352503116691
 30
0.0
 10
303.8952884512298
 20
293.5691220808675
 30
0.0
 10
305.1709279367827
 20
293.6084001815958
 30
0.0
 10
307.2268812441865
 20
293.664032406713
 30
0.0
 10
309.8208213968286
 20
293.7188817511519
 30
0.0
 10
312.4349592394078
 20
293.7509872868285
 30
0.0
 10
314.5316264160129
 20
293.7611002925217
 30
0.0
 10
316.6288854158502
 20
293.7602942239683
 30
0.0
 10
319.2521945316646
 20
293.7369037285614
 30
0.0
 10
322.4040131755709
 20
293.6746163415048
 30
0.0
 10
325.5557588698691
 20
293.5803738548203
 30
0.0
 10
329.7541090990839
 20
293.4151909750075
 30
0.0
 10
334.9896841273331
 20
293.1382346625363
 30
0.0
 10
340.2015629817644
 20
292.8459524596792
 30
0.0
 10
344.361084369819
 20
292.6479939411841
 30
0.0
 10
347.4749324549151
 20
292.5430613737362
 30
0.0
 10
350.0566003336431
 20
292.5156603130027
 30
0.0
 10
352.1101624859606
 20
292.5435872077114
 30
0.0
 10
353.6435779821476
 20
292.5930354899531
 30
0.0
 10
355.1684531892222
 20
292.6741462792816
 30
0.0
 10
356.6827391509311
 20
292.7954272209169
 30
0.0
 10
358.1853878054125
 20
292.965870477078
 30
0.0
 10
359.4268065882999
 20
293.1560608698422
 30
0.0
 10
360.412834542932
 20
293.3419132200647
 30
0.0
 10
361.3935972460363
 20
293.5543267190221
 30
0.0
 10
362.6103849835054
 20
293.8753874845868
 30
0.0
 10
364.0481891412755
 20
294.373309659871
 30
0.0
 10
365.8922302637184
 20
295.1909331782649
 30
0.0
 10
368.0609382835609
 20
296.5278634622707
 30
0.0
 10
369.8632259468146
 20
298.39663735274
 30
0.0
 10
370.9541216188382
 20
300.2611146180988
 30
0.0
 10
371.5445632625128
 20
301.7999663427387
 30
0.0
 10
371.8235221451978
 20
303.1462732803109
 30
0.0
 10
371.8844748190273
 20
303.9651297972928
 30
0.0
 10
371.8934961294304
 20
304.2404210311304
 30
0.0
  0
SPLINE
  5
43E
330
41E
100
AcDbEntity
  8
DV3_Default
  6
Continuous
 62
     7
100
AcDbSpline
210
0.0
220
0.0
230
1.0
 70
     8
 71
     3
 72
    18
 73
    14
 74
     0
 42
0.0000000031552334
 43
0.0000000001
 40
0.0
 40
0.0
 40
0.0
 40
0.0
 40
0.0655588211337278
 40
0.1318755084885005
 40
0.2616989486234569
 40
0.388021851371714
 40
0.5134627186614421
 40
0.6382601968396487
 40
0.6997100125036577
 40
0.7615468424005198
 40
0.8810249375624111
 40
0.9516239615448545
 40
0.9999999999999999
 40
0.9999999999999999
 40
0.9999999999999999
 40
0.9999999999999999
 10
289.6014829813163
 20
293.1390022531854
 30
0.0
 10
289.5590138269035
 20
293.1395898102185
 30
0.0
 10
289.5268840009991
 20
293.1404966345597
 30
0.0
 10
289.5052652013606
 20
293.1428125407801
 30
0.0
 10
289.5400108986775
 20
293.1474579223246
 30
0.0
 10
289.7158186568207
 20
293.1549871068289
 30
0.0
 10
290.0146888529408
 20
293.1615800884453
 30
0.0
 10
290.3635070908269
 20
293.1661749907303
 30
0.0
 10
290.7151010676567
 20
293.1700310189527
 30
0.0
 10
291.1095792644238
 20
293.1743752569424
 30
0.0
 10
291.5991229129911
 20
293.1810390273768
 30
0.0
 10
292.1488779955105
 20
293.189094485004
 30
0.0
 10
292.453479919413
 20
293.1946824414324
 30
0.0
 10
292.5774501922305
 20
293.1969310795287
 30
0.0
  0
ARC
  5
43F
330
41E
100
AcDbEntity
  8
DV3_Default
  6
Continuous
 62
     7
100
AcDbCircle
 10
289.8168607604
 20
304.4386191789
 30
0.0
 40
11.30166530190384
100
AcDbArc
 50
179.9939030215
 51
235.61465641
  0
ARC
  5
440
330
41E
100
AcDbEntity
  8
DV3_Default
  6
Continuous
 62
     7
100
AcDbCircle
 10
289.818413501
 20
304.4400462785
 30
0.0
 40
11.30321798077439
100
AcDbArc
 50
123.8711522396
 51
180.0011377971
  0
ARC
  5
441
330
41E
100
AcDbEntity
  8
DV3_Default
  6
Continuous
 62
     7
100
AcDbCircle
 10
291.8876953677
 20
361.7604361672
 30
0.0
 40
46.07899153854778
100
AcDbArc
 50
267.224569651
 51
271.0894797975
  0
SPLINE
  5
442
330
41E
100
AcDbEntity
  8
DV3_Default
  6
Continuous
 62
     7
100
AcDbSpline
210
0.0
220
0.0
230
1.0
 70
     8
 71
     3
 72
    28
 73
    24
 74
     0
 42
0.0000000001173127
 43
0.0000000001
 40
0.0
 40
0.0
 40
0.0
 40
0.0
 40
0.0625
 40
0.0625
 40
0.125
 40
0.125
 40
0.1874999999999999
 40
0.1874999999999999
 40
0.2499999999999999
 40
0.2499999999999999
 40
0.3749999999999999
 40
0.3749999999999999
 40
0.4999999999999998
 40
0.4999999999999998
 40
0.6249999999999998
 40
0.6249999999999998
 40
0.7499999999999997
 40
0.7499999999999997
 40
0.8749999999999996
 40
0.8749999999999996
 40
0.9374999999999998
 40
0.9374999999999998
 40
1.0
 40
1.0
 40
1.0
 40
1.0
 10
371.8925643687304
 20
304.6391671414348
 30
0.0
 10
371.8455727182932
 20
306.5493038277121
 30
0.0
 10
371.1773072626441
 20
308.4291009240368
 30
0.0
 10
369.0949132840939
 20
311.4630200528053
 30
0.0
 10
367.7032844633907
 20
312.6057590315476
 30
0.0
 10
364.6488946996145
 20
314.3396481593907
 30
0.0
 10
362.981013254904
 20
314.939986086015
 30
0.0
 10
359.5905815230126
 20
315.747692944755
 30
0.0
 10
357.8637552188944
 20
315.9807614726136
 30
0.0
 10
352.6161939837644
 20
316.4249805270818
 30
0.0
 10
349.0317816994498
 20
316.3939376723687
 30
0.0
 10
341.8302127896127
 20
316.1394327955805
 30
0.0
 10
338.2179312600547
 20
315.9213307967084
 30
0.0
 10
330.9679664051833
 20
315.527892108662
 30
0.0
 10
327.3281592694931
 20
315.3513997933233
 30
0.0
 10
320.0402709403398
 20
315.1406811981196
 30
0.0
 10
316.395533790827
 20
315.1012300995155
 30
0.0
 10
309.1305405046979
 20
315.1584970052171
 30
0.0
 10
305.515481168928
 20
315.2509927165886
 30
0.0
 10
300.2906208318889
 20
315.436402542215
 30
0.0
 10
298.5810238877456
 20
315.5042066940293
 30
0.0
 10
295.3294390880556
 20
315.6168228730401
 30
0.0
 10
293.8113107368271
 20
315.6601763886658
 30
0.0
 10
292.5774383647304
 20
315.6827076567988
 30
0.0
  0
SPLINE
  5
443
330
41E
100
AcDbEntity
  8
DV3_Default
  6
Continuous
 62
     7
100
AcDbSpline
210
0.0
220
0.0
230
1.0
 70
     8
 71
     3
 72
    37
 73
    33
 74
     0
 42
0.0000000001167328
 43
0.0000000001
 40
0.0
 40
0.0
 40
0.0
 40
0.0
 40
0.0247569947312168
 40
0.0476004598623197
 40
0.0685312509290558
 40
0.0873500988875169
 40
0.1093487983265236
 40
0.1283008787506142
 40
0.1449325333486823
 40
0.1656330078453405
 40
0.1857509771442427
 40
0.2106844425983962
 40
0.2394625508367092
 40
0.2941672847145143
 40
0.3443632314048713
 40
0.3911318357696719
 40
0.4388539289470175
 40
0.4713563778099786
 40
0.5044227561274335
 40
0.5380801678144206
 40
0.5723704595455593
 40
0.6100717544899606
 40
0.6530420070338467
 40
0.7012741091992272
 40
0.7547254005521138
 40
0.8134195955101975
 40
0.8606338095448018
 40
0.9107211048782672
 40
0.9370663527622142
 40
0.9642562182046807
 40
0.9920146058238379
 40
1.0
 40
1.0
 40
1.0
 40
1.0
 10
373.190075075194
 20
304.2178378960062
 30
0.0
 10
373.1216979489318
 20
303.4096602037452
 30
0.0
 10
372.9914668625485
 20
302.0919957691975
 30
0.0
 10
372.2801678618324
 20
300.1385668173481
 30
0.0
 10
371.3685985162414
 20
298.5698094415479
 30
0.0
 10
370.2461946341903
 20
297.1983390626619
 30
0.0
 10
368.986721992044
 20
296.0661896333373
 30
0.0
 10
367.647065253078
 20
295.1513047605608
 30
0.0
 10
366.2579766134168
 20
294.401279484232
 30
0.0
 10
364.7745748641377
 20
293.7812178537613
 30
0.0
 10
363.0231291155536
 20
293.2321685616473
 30
0.0
 10
361.0070991776141
 20
292.7746785344602
 30
0.0
 10
357.9888848091119
 20
292.3146741018129
 30
0.0
 10
354.1942585201227
 20
292.0568202680578
 30
0.0
 10
349.846687884373
 20
292.0251902729133
 30
0.0
 10
345.6745528754981
 20
292.1567658393134
 30
0.0
 10
341.9947813977897
 20
292.3555317383149
 30
0.0
 10
338.7011854215907
 20
292.5566662101405
 30
0.0
 10
335.8095329775596
 20
292.7405065158928
 30
0.0
 10
332.8598202224293
 20
292.9258730029987
 30
0.0
 10
329.7692224599946
 20
293.1078818588931
 30
0.0
 10
326.4016137774494
 20
293.2789836117699
 30
0.0
 10
322.6226069347375
 20
293.4306322796892
 30
0.0
 10
318.3832360126891
 20
293.5481798503591
 30
0.0
 10
313.6909788229736
 20
293.6074349502632
 30
0.0
 10
309.0500755218417
 20
293.5885869945404
 30
0.0
 10
304.5624188060881
 20
293.5118488353843
 30
0.0
 10
301.0750455254976
 20
293.4114070037167
 30
0.0
 10
298.2460236800297
 20
293.3218125460653
 30
0.0
 10
296.1446275797874
 20
293.2595883288901
 30
0.0
 10
294.5045940887133
 20
293.2172572709099
 30
0.0
 10
293.8152437082811
 20
293.2059921984571
 30
0.0
 10
293.6358017833292
 20
293.2030880548945
 30
0.0
  0
ARC
  5
444
330
41E
100
AcDbEntity
  8
DV3_Default
  6
Continuous
 62
     7
100
AcDbCircle
 10
289.8096895569
 20
304.323836457
 30
0.0
 40
11.18841631214145
100
AcDbArc
 50
235.3087645496
 51
268.7384662893
  0
SPLINE
  5
445
330
41E
100
AcDbEntity
  8
DV3_Default
  6
Continuous
 62
     7
100
AcDbSpline
210
0.0
220
0.0
230
1.0
 70
     8
 71
     3
 72
    38
 73
    34
 74
     0
 42
0.0000000001242374
 43
0.0000000001
 40
0.0
 40
0.0
 40
0.0
 40
0.0
 40
0.0096409284301371
 40
0.0527300731036006
 40
0.0937151040861268
 40
0.1329278847600529
 40
0.1703351865593397
 40
0.2058303821862336
 40
0.2576209009403511
 40
0.3046376015618746
 40
0.3468212441509984
 40
0.3866582111071919
 40
0.4231803634431022
 40
0.4592899257660839
 40
0.4950158412055922
 40
0.5303892093986836
 40
0.5833429164513889
 40
0.6356705836795902
 40
0.6898865575034594
 40
0.7463607098970533
 40
0.7697139405455202
 40
0.7911132674703679
 40
0.8098118929069751
 40
0.8261167494441768
 40
0.8456160773836413
 40
0.8603957958251909
 40
0.8771950082827122
 40
0.8957945502608582
 40
0.9151956840482418
 40
0.9353938071551741
 40
0.9563512507420748
 40
0.9778464205453464
 40
1.0
 40
1.0
 40
1.0
 40
1.0
 10
298.797206465878
 20
315.5391031177682
 30
0.0
 10
299.0569809888399
 20
315.5313057300179
 30
0.0
 10
300.2748702941139
 20
315.4950379851396
 30
0.0
 10
302.8134738746391
 20
315.4149340319422
 30
0.0
 10
306.04847880505
 20
315.3401535210108
 30
0.0
 10
309.2161901604471
 20
315.2945333379211
 30
0.0
 10
312.2485881695555
 20
315.2786483881185
 30
0.0
 10
315.6389174326822
 20
315.2926461171625
 30
0.0
 10
319.2986351808206
 20
315.3534600695955
 30
0.0
 10
323.1462424911627
 20
315.4684763282773
 30
0.0
 10
326.6679479853893
 20
315.6133993087018
 30
0.0
 10
329.900753731028
 20
315.7790750742352
 30
0.0
 10
332.9637263835499
 20
315.9600641016055
 30
0.0
 10
335.9095152990188
 20
316.145407720047
 30
0.0
 10
338.8182162784997
 20
316.3302359465811
 30
0.0
 10
342.1758179647599
 20
316.5347571957487
 30
0.0
 10
345.9700363521856
 20
316.7372566446346
 30
0.0
 10
350.251220812814
 20
316.8609307937763
 30
0.0
 10
354.5978173038214
 20
316.8071560419978
 30
0.0
 10
358.1345444528927
 20
316.5408727764272
 30
0.0
 10
360.7561733217004
 20
316.1390890732361
 30
0.0
 10
362.3766854820083
 20
315.8019203890854
 30
0.0
 10
363.7914123173066
 20
315.4153676176583
 30
0.0
 10
365.1310924982739
 20
314.955428760935
 30
0.0
 10
366.3403963381317
 20
314.4311705200319
 30
0.0
 10
367.5140167925827
 20
313.7986743507157
 30
0.0
 10
368.6134558312502
 20
313.0791071655848
 30
0.0
 10
369.7309592709482
 20
312.1686059864295
 30
0.0
 10
370.7962358880835
 20
311.0533471465598
 30
0.0
 10
371.742043367971
 20
309.7266453288992
 30
0.0
 10
372.5003086539967
 20
308.2041976015669
 30
0.0
 10
373.041896736437
 20
306.4594846123237
 30
0.0
 10
373.139667559968
 20
305.3355938514979
 30
0.0
 10
373.1900765659302
 20
304.6617396333123
 30
0.0
  0
ARC
  5
446
330
41E
100
AcDbEntity
  8
DV3_Default
  6
Continuous
 62
     7
100
AcDbCircle
 10
289.8136511715
 20
304.48755218
 30
0.0
 40
11.25663250055801
100
AcDbArc
 50
90.734840743
 51
123.981370505
  0
ARC
  5
447
330
41E
100
AcDbEntity
  8
DV3_Default
  6
Continuous
 62
     7
100
AcDbCircle
 10
289.8151448317
 20
304.4366676366
 30
0.0
 40
17.81581024077887
100
AcDbArc
 50
37.9789577855
 51
179.987929978
  0
ARC
  5
448
330
41E
100
AcDbEntity
  8
DV3_Default
  6
Continuous
 62
     7
100
AcDbCircle
 10
289.8151449443
 20
304.4425673442
 30
0.0
 40
17.81581008733907
100
AcDbArc
 50
180.0069034822
 51
322.011827675
  0
ARC
  5
449
330
41E
100
AcDbEntity
  8
DV3_Default
  6
Continuous
 62
     7
100
AcDbCircle
 10
289.8296974894
 20
304.4365055535
 30
0.0
 40
26.11946299378131
100
AcDbArc
 50
179.9819050464
 51
335.4102736807
  0
ARC
  5
44A
330
41E
100
AcDbEntity
  8
DV3_Default
  6
Continuous
 62
     7
100
AcDbCircle
 10
289.8275061975
 20
304.4396581296
 30
0.0
 40
26.12178802607044
100
AcDbArc
 50
24.6023974062
 51
179.9935412625
  0
ENDBLK
  5
44C
330
41E
100
AcDbEntity
  8
0
100
AcDbBlockEnd
  0
ENDSEC
  0
SECTION
  2
ENTITIES
  0
INSERT
  5
5F
330
1F
100
AcDbEntity
  8
Default
100
AcDbBlockReference
  2
SEANNOT_GROUP
 10
0.0
 20
0.0
 30
0.0
  0
INSERT
  5
66
330
1F
100
AcDbEntity
  8
Default
100
AcDbBlockReference
  2
SEANNOT_GROUP1
 10
0.0
 20
0.0
 30
0.0
  0
POINT
  5
6B
330
1F
100
AcDbEntity
  8
Default
  6
Continuous
 62
     7
100
AcDbPoint
 10
189.7401815161
 20
607.9050037714
 30
0.0
  0
INSERT
  5
6D
330
1F
100
AcDbEntity
  8
Default
100
AcDbBlockReference
  2
SEANNOT_GROUP2
 10
0.0
 20
0.0
 30
0.0
  0
INSERT
  5
73
330
1F
100
AcDbEntity
  8
Default
100
AcDbBlockReference
  2
SEANNOT_GROUP3
 10
0.0
 20
0.0
 30
0.0
  0
INSERT
  5
79
330
1F
100
AcDbEntity
  8
Default
100
AcDbBlockReference
  2
SEANNOT_GROUP4
 10
0.0
 20
0.0
 30
0.0
  0
INSERT
  5
7F
330
1F
100
AcDbEntity
  8
Default
100
AcDbBlockReference
  2
SEANNOT_GROUP5
 10
0.0
 20
0.0
 30
0.0
  0
INSERT
  5
85
330
1F
100
AcDbEntity
  8
Default
100
AcDbBlockReference
  2
SEANNOT_GROUP6
 10
0.0
 20
0.0
 30
0.0
  0
POINT
  5
8A
330
1F
100
AcDbEntity
  8
Default
  6
Continuous
 62
     7
100
AcDbPoint
 10
189.740189455
 20
132.5168625932
 30
0.0
  0
INSERT
  5
8C
330
1F
100
AcDbEntity
  8
Default
100
AcDbBlockReference
  2
SEANNOT_GROUP7
 10
0.0
 20
0.0
 30
0.0
  0
INSERT
  5
92
330
1F
100
AcDbEntity
  8
Default
100
AcDbBlockReference
  2
SEANNOT_GROUP8
 10
0.0
 20
0.0
 30
0.0
  0
INSERT
  5
98
330
1F
100
AcDbEntity
  8
Default
100
AcDbBlockReference
  2
SEANNOT_GROUP9
 10
0.0
 20
0.0
 30
0.0
  0
INSERT
  5
9E
330
1F
100
AcDbEntity
  8
Default
100
AcDbBlockReference
  2
SE
 10
0.0
 20
0.0
 30
0.0
  0
INSERT
  5
3DB
330
1F
100
AcDbEntity
  8
Default
100
AcDbBlockReference
  2
SE1
 10
0.0
 20
0.0
 30
0.0
  0
INSERT
  5
41F
330
1F
100
AcDbEntity
  8
Default
100
AcDbBlockReference
  2
SE2
 10
0.0
 20
0.0
 30
0.0
  0
TEXT
  5
44E
330
1F
100
AcDbEntity
  8
Default
  6
Continuous
 62
     7
100
AcDbText
 10
5.9362635081
 20
53.4225120485
 30
0.0
 40
10.0
  1
Grohe AG^J
  7
SEACAD_seiso_ttf
 11
5.9362635081
 21
63.4225120485
 31
0.0
100
AcDbText
 73
     3
  0
TEXT
  5
44F
330
1F
100
AcDbEntity
  8
Default
  6
Continuous
 62
     7
100
AcDbText
 10
5.9362635081
 20
37.0588756849
 30
0.0
 40
10.0
  1
 
  7
SEACAD_seiso_ttf
 11
5.9362635081
 21
47.0588756849
 31
0.0
100
AcDbText
 73
     3
  0
TEXT
  5
450
330
1F
100
AcDbEntity
  8
Default
  6
Continuous
 62
     7
100
AcDbText
 10
5.9362635081
 20
20.6952393213
 30
0.0
 40
10.0
  1
ecn:
  7
SEACAD_seiso_ttf
 11
5.9362635081
 21
30.6952393213
 31
0.0
100
AcDbText
 73
     3
  0
TEXT
  5
451
330
1F
100
AcDbEntity
  8
Default
  6
Continuous
 62
     7
100
AcDbText
 10
5.9362635081
 20
4.3316029576
 30
0.0
 40
10.0
  1
unit: mm
  7
SEACAD_seiso_ttf
 11
5.9362635081
 21
14.3316029576
 31
0.0
100
AcDbText
 73
     3
  0
LINE
  5
452
330
1F
100
AcDbEntity
  8
Default
  6
Continuous
 62
     7
100
AcDbLine
 10
0.0
 20
0.0
 30
0.0
 11
100.0
 21
0.0
 31
0.0
  0
LINE
  5
453
330
1F
100
AcDbEntity
  8
Default
  6
Continuous
 62
     7
100
AcDbLine
 10
0.0
 20
0.0
 30
0.0
 11
0.0
 21
100.0
 31
0.0
  0
TEXT
  5
454
330
1F
100
AcDbEntity
  8
Default
  6
Continuous
 62
     7
100
AcDbText
 10
24.3923665681
 20
-18.2375342018
 30
0.0
 40
10.0
  1
100 mm
  7
SEACAD_seiso_ttf
 11
24.3923665681
 21
-8.2375342018
 31
0.0
100
AcDbText
 73
     3
  0
TEXT
  5
455
330
1F
100
AcDbEntity
  8
Default
  6
Continuous
 62
     7
100
AcDbText
 10
-7.6150308803
 20
24.6231930421
 30
0.0
 40
10.0
  1
100 mm
 50
90.0
  7
SEACAD_seiso_ttf
 11
-17.6150308803
 21
24.6231930421
 31
0.0
100
AcDbText
 73
     3
  0
TEXT
  5
456
330
1F
100
AcDbEntity
  8
Default
  6
Continuous
 62
     7
100
AcDbText
 10
28.4878128572
 20
20.0907663715
 30
0.0
 40
10.0
  1
228824
  7
SEACAD_seiso_ttf
 11
28.4878128572
 21
30.0907663715
 31
0.0
100
AcDbText
 73
     3
  0
TEXT
  5
457
330
1F
100
AcDbEntity
  8
Default
  6
Continuous
 62
     7
100
AcDbText
 10
5.9012241913
 20
36.7242780188
 30
0.0
 40
10.0
  1
25163000
  7
SEACAD_seiso_ttf
 11
5.9012241913
 21
46.7242780188
 31
0.0
100
AcDbText
 73
     3
  0
ENDSEC
  0
SECTION
  2
OBJECTS
  0
DICTIONARY
  5
C
330
0
100
AcDbDictionary
281
     1
  3
ACAD_GROUP
350
D
  3
ACAD_LAYOUT
350
1A
  3
ACAD_MLEADERSTYLE
350
45B
  3
ACAD_MLINESTYLE
350
17
  3
ACAD_PLOTSETTINGS
350
19
  3
ACAD_PLOTSTYLENAME
350
E
  3
ACAD_SCALELIST
350
3B
  3
ACAD_TABLESTYLE
350
45A
  3
ACAD_VISUALSTYLE
350
2A
  3
AcDbVariableDictionary
350
458
  0
DICTIONARY
  5
D
102
{ACAD_REACTORS
330
C
102
}
330
C
100
AcDbDictionary
281
     1
  0
DICTIONARY
  5
1A
102
{ACAD_REACTORS
330
C
102
}
330
C
100
AcDbDictionary
281
     1
  3
Layout1
350
1E
  3
Model
350
22
  0
DICTIONARY
  5
45B
102
{ACAD_REACTORS
330
C
102
}
330
C
100
AcDbDictionary
281
     1
  0
DICTIONARY
  5
17
102
{ACAD_REACTORS
330
C
102
}
330
C
100
AcDbDictionary
281
     1
  3
Standard
350
18
  0
DICTIONARY
  5
19
102
{ACAD_REACTORS
330
C
102
}
330
C
100
AcDbDictionary
281
     1
  0
ACDBDICTIONARYWDFLT
  5
E
102
{ACAD_REACTORS
330
C
102
}
330
C
100
AcDbDictionary
281
     1
  3
Normal
350
F
100
AcDbDictionaryWithDefault
340
F
  0
DICTIONARY
  5
3B
102
{ACAD_REACTORS
330
C
102
}
330
C
100
AcDbDictionary
281
     1
  3
A0
350
3C
  3
A1
350
3D
  3
A2
350
3E
  3
A3
350
3F
  3
A4
350
40
  3
A5
350
41
  3
A6
350
42
  3
A7
350
43
  3
A8
350
44
  3
A9
350
45
  3
B0
350
46
  3
B1
350
47
  3
B2
350
48
  3
B3
350
49
  3
B4
350
4A
  3
B5
350
4B
  3
B6
350
4C
  3
B7
350
4D
  3
B8
350
4E
  3
B9
350
4F
  3
C0
350
50
  3
C1
350
51
  3
C2
350
52
  3
C3
350
53
  3
C4
350
54
  3
C5
350
55
  3
C6
350
56
  3
C7
350
57
  3
C8
350
58
  3
C9
350
59
  3
D0
350
5A
  3
D1
350
5B
  3
D2
350
5C
  0
DICTIONARY
  5
45A
102
{ACAD_REACTORS
330
C
102
}
330
C
100
AcDbDictionary
281
     1
  0
DICTIONARY
  5
2A
102
{ACAD_REACTORS
330
C
102
}
330
C
100
AcDbDictionary
281
     1
  3
2dWireframe
350
2F
  3
3D Hidden
350
31
  3
3dWireframe
350
30
  3
Basic
350
32
  3
Brighten
350
36
  3
ColorChange
350
3A
  3
Conceptual
350
34
  3
Dim
350
35
  3
Facepattern
350
39
  3
Flat
350
2B
  3
FlatWithEdges
350
2C
  3
Gouraud
350
2D
  3
GouraudWithEdges
350
2E
  3
Linepattern
350
38
  3
Realistic
350
33
  3
Thicken
350
37
  0
DICTIONARY
  5
458
102
{ACAD_REACTORS
330
C
102
}
330
C
100
AcDbDictionary
281
     1
  3
CANNOSCALE
350
459
  3
PSOLHEIGHT
350
45D
  3
PSOLWIDTH
350
45C
  0
LAYOUT
  5
1E
102
{ACAD_REACTORS
330
1A
102
}
330
1A
100
AcDbPlotSettings
  1

  2
none_device
  4

  6

 40
0.0
 41
0.0
 42
0.0
 43
0.0
 44
0.0
 45
0.0
 46
0.0
 47
0.0
 48
0.0
 49
0.0
140
0.0
141
0.0
142
1.0
143
1.0
 70
   688
 72
     0
 73
     0
 74
     5
  7

 75
    16
147
1.0
148
0.0
149
0.0
100
AcDbLayout
  1
Layout1
 70
     1
 71
     1
 10
0.0
 20
0.0
 11
3000.0
 21
4500.0
 12
0.0
 22
0.0
 32
0.0
 14
0.0
 24
0.0
 34
0.0
 15
3000.0
 25
4500.0
 35
0.0
146
0.0
 13
0.0
 23
0.0
 33
0.0
 16
1.0
 26
0.0
 36
0.0
 17
0.0
 27
1.0
 37
0.0
 76
     0
330
1B
  0
LAYOUT
  5
22
102
{ACAD_REACTORS
330
1A
102
}
330
1A
100
AcDbPlotSettings
  1

  2
none_device
  4

  6

 40
0.0
 41
0.0
 42
0.0
 43
0.0
 44
0.0
 45
0.0
 46
0.0
 47
0.0
 48
0.0
 49
0.0
140
0.0
141
0.0
142
1.0
143
1.0
 70
  1712
 72
     0
 73
     0
 74
     0
  7

 75
     0
147
1.0
148
0.0
149
0.0
100
AcDbLayout
  1
Model
 70
     1
 71
     0
 10
0.0
 20
0.0
 11
3000.0
 21
4500.0
 12
0.0
 22
0.0
 32
0.0
 14
0.0
 24
0.0
 34
0.0
 15
3000.0
 25
4500.0
 35
0.0
146
0.0
 13
0.0
 23
0.0
 33
0.0
 16
1.0
 26
0.0
 36
0.0
 17
0.0
 27
1.0
 37
0.0
 76
     0
330
1F
331
29
  0
MLINESTYLE
  5
18
102
{ACAD_REACTORS
330
17
102
}
330
17
100
AcDbMlineStyle
  2
Standard
 70
     0
  3

 62
   256
 51
90.0
 52
90.0
 71
     2
 49
0.5
 62
   256
  6
BYLAYER
 49
-0.5
 62
   256
  6
BYLAYER
  0
ACDBPLACEHOLDER
  5
F
102
{ACAD_REACTORS
330
E
102
}
330
E
  0
SCALE
  5
3C
102
{ACAD_REACTORS
330
3B
102
}
330
3B
100
AcDbScale
 70
     0
300
1:1
140
1.0
141
1.0
290
     1
  0
SCALE
  5
3D
102
{ACAD_REACTORS
330
3B
102
}
330
3B
100
AcDbScale
 70
     0
300
1:2
140
1.0
141
2.0
290
     0
  0
SCALE
  5
3E
102
{ACAD_REACTORS
330
3B
102
}
330
3B
100
AcDbScale
 70
     0
300
1:4
140
1.0
141
4.0
290
     0
  0
SCALE
  5
3F
102
{ACAD_REACTORS
330
3B
102
}
330
3B
100
AcDbScale
 70
     0
300
1:5
140
1.0
141
5.0
290
     0
  0
SCALE
  5
40
102
{ACAD_REACTORS
330
3B
102
}
330
3B
100
AcDbScale
 70
     0
300
1:8
140
1.0
141
8.0
290
     0
  0
SCALE
  5
41
102
{ACAD_REACTORS
330
3B
102
}
330
3B
100
AcDbScale
 70
     0
300
1:10
140
1.0
141
10.0
290
     0
  0
SCALE
  5
42
102
{ACAD_REACTORS
330
3B
102
}
330
3B
100
AcDbScale
 70
     0
300
1:16
140
1.0
141
16.0
290
     0
  0
SCALE
  5
43
102
{ACAD_REACTORS
330
3B
102
}
330
3B
100
AcDbScale
 70
     0
300
1:20
140
1.0
141
20.0
290
     0
  0
SCALE
  5
44
102
{ACAD_REACTORS
330
3B
102
}
330
3B
100
AcDbScale
 70
     0
300
1:30
140
1.0
141
30.0
290
     0
  0
SCALE
  5
45
102
{ACAD_REACTORS
330
3B
102
}
330
3B
100
AcDbScale
 70
     0
300
1:40
140
1.0
141
40.0
290
     0
  0
SCALE
  5
46
102
{ACAD_REACTORS
330
3B
102
}
330
3B
100
AcDbScale
 70
     0
300
1:50
140
1.0
141
50.0
290
     0
  0
SCALE
  5
47
102
{ACAD_REACTORS
330
3B
102
}
330
3B
100
AcDbScale
 70
     0
300
1:100
140
1.0
141
100.0
290
     0
  0
SCALE
  5
48
102
{ACAD_REACTORS
330
3B
102
}
330
3B
100
AcDbScale
 70
     0
300
2:1
140
2.0
141
1.0
290
     0
  0
SCALE
  5
49
102
{ACAD_REACTORS
330
3B
102
}
330
3B
100
AcDbScale
 70
     0
300
4:1
140
4.0
141
1.0
290
     0
  0
SCALE
  5
4A
102
{ACAD_REACTORS
330
3B
102
}
330
3B
100
AcDbScale
 70
     0
300
8:1
140
8.0
141
1.0
290
     0
  0
SCALE
  5
4B
102
{ACAD_REACTORS
330
3B
102
}
330
3B
100
AcDbScale
 70
     0
300
10:1
140
10.0
141
1.0
290
     0
  0
SCALE
  5
4C
102
{ACAD_REACTORS
330
3B
102
}
330
3B
100
AcDbScale
 70
     0
300
100:1
140
100.0
141
1.0
290
     0
  0
SCALE
  5
4D
102
{ACAD_REACTORS
330
3B
102
}
330
3B
100
AcDbScale
 70
     0
300
1/128" = 1'-0"
140
0.0078125
141
12.0
290
     0
  0
SCALE
  5
4E
102
{ACAD_REACTORS
330
3B
102
}
330
3B
100
AcDbScale
 70
     0
300
1/64" = 1'-0"
140
0.015625
141
12.0
290
     0
  0
SCALE
  5
4F
102
{ACAD_REACTORS
330
3B
102
}
330
3B
100
AcDbScale
 70
     0
300
1/32" = 1'-0"
140
0.03125
141
12.0
290
     0
  0
SCALE
  5
50
102
{ACAD_REACTORS
330
3B
102
}
330
3B
100
AcDbScale
 70
     0
300
1/16" = 1'-0"
140
0.0625
141
12.0
290
     0
  0
SCALE
  5
51
102
{ACAD_REACTORS
330
3B
102
}
330
3B
100
AcDbScale
 70
     0
300
3/32" = 1'-0"
140
0.09375
141
12.0
290
     0
  0
SCALE
  5
52
102
{ACAD_REACTORS
330
3B
102
}
330
3B
100
AcDbScale
 70
     0
300
1/8" = 1'-0"
140
0.125
141
12.0
290
     0
  0
SCALE
  5
53
102
{ACAD_REACTORS
330
3B
102
}
330
3B
100
AcDbScale
 70
     0
300
3/16" = 1'-0"
140
0.1875
141
12.0
290
     0
  0
SCALE
  5
54
102
{ACAD_REACTORS
330
3B
102
}
330
3B
100
AcDbScale
 70
     0
300
1/4" = 1'-0"
140
0.25
141
12.0
290
     0
  0
SCALE
  5
55
102
{ACAD_REACTORS
330
3B
102
}
330
3B
100
AcDbScale
 70
     0
300
3/8" = 1'-0"
140
0.375
141
12.0
290
     0
  0
SCALE
  5
56
102
{ACAD_REACTORS
330
3B
102
}
330
3B
100
AcDbScale
 70
     0
300
1/2" = 1'-0"
140
0.5
141
12.0
290
     0
  0
SCALE
  5
57
102
{ACAD_REACTORS
330
3B
102
}
330
3B
100
AcDbScale
 70
     0
300
3/4" = 1'-0"
140
0.75
141
12.0
290
     0
  0
SCALE
  5
58
102
{ACAD_REACTORS
330
3B
102
}
330
3B
100
AcDbScale
 70
     0
300
1" = 1'-0"
140
1.0
141
12.0
290
     0
  0
SCALE
  5
59
102
{ACAD_REACTORS
330
3B
102
}
330
3B
100
AcDbScale
 70
     0
300
1-1/2" = 1'-0"
140
1.5
141
12.0
290
     0
  0
SCALE
  5
5A
102
{ACAD_REACTORS
330
3B
102
}
330
3B
100
AcDbScale
 70
     0
300
3" = 1'-0"
140
3.0
141
12.0
290
     0
  0
SCALE
  5
5B
102
{ACAD_REACTORS
330
3B
102
}
330
3B
100
AcDbScale
 70
     0
300
6" = 1'-0"
140
6.0
141
12.0
290
     0
  0
SCALE
  5
5C
102
{ACAD_REACTORS
330
3B
102
}
330
3B
100
AcDbScale
 70
     0
300
1'-0" = 1'-0"
140
12.0
141
12.0
290
     0
  0
VISUALSTYLE
  5
2F
102
{ACAD_REACTORS
330
2A
102
}
330
2A
100
AcDbVisualStyle
  2
2dWireframe
 70
     4
 71
     0
 72
     2
 73
     0
 90
        0
 40
-0.6
 41
-30.0
 62
     5
 63
     7
 74
     1
 91
        4
 64
     7
 65
   257
 75
     1
175
     1
 42
1.0
 92
        0
 66
   257
 43
1.0
 76
     1
 77
     6
 78
     2
 67
     7
 79
     5
170
     0
171
     0
290
     0
174
     0
 93
        1
 44
0.0
173
     0
291
     0
 45
0.0
1001
ACAD
1000
AcDbSavedByObjectVersion
1070
     0
  0
VISUALSTYLE
  5
31
102
{ACAD_REACTORS
330
2A
102
}
330
2A
100
AcDbVisualStyle
  2
3D Hidden
 70
     6
 71
     1
 72
     2
 73
     2
 90
        0
 40
-0.6
 41
-30.0
 62
     5
 63
     7
 74
     2
 91
        2
 64
     7
 65
   257
 75
     2
175
     1
 42
40.0
 92
        0
 66
   257
 43
1.0
 76
     1
 77
     6
 78
     2
 67
     7
 79
     3
170
     0
171
     0
290
     0
174
     0
 93
        1
 44
0.0
173
     0
291
     0
 45
0.0
1001
ACAD
1000
AcDbSavedByObjectVersion
1070
     0
  0
VISUALSTYLE
  5
30
102
{ACAD_REACTORS
330
2A
102
}
330
2A
100
AcDbVisualStyle
  2
3dWireframe
 70
     5
 71
     0
 72
     2
 73
     0
 90
        0
 40
-0.6
 41
-30.0
 62
     5
 63
     7
 74
     1
 91
        4
 64
     7
 65
   257
 75
     1
175
     1
 42
1.0
 92
        0
 66
   257
 43
1.0
 76
     1
 77
     6
 78
     2
 67
     7
 79
     5
170
     0
171
     0
290
     0
174
     0
 93
        1
 44
0.0
173
     0
291
     0
 45
0.0
1001
ACAD
1000
AcDbSavedByObjectVersion
1070
     0
  0
VISUALSTYLE
  5
32
102
{ACAD_REACTORS
330
2A
102
}
330
2A
100
AcDbVisualStyle
  2
Basic
 70
     7
 71
     1
 72
     0
 73
     1
 90
        0
 40
-0.6
 41
-30.0
 62
     5
 63
     7
 74
     0
 91
        4
 64
     7
 65
   257
 75
     1
175
     1
 42
1.0
 92
        8
 66
     7
 43
1.0
 76
     1
 77
     6
 78
     2
 67
     7
 79
     5
170
     0
171
     0
290
     0
174
     0
 93
        1
 44
0.0
173
     0
291
     1
 45
0.0
1001
ACAD
1000
AcDbSavedByObjectVersion
1070
     0
  0
VISUALSTYLE
  5
36
102
{ACAD_REACTORS
330
2A
102
}
330
2A
100
AcDbVisualStyle
  2
Brighten
 70
    12
 71
     2
 72
     2
 73
     0
 90
        0
 40
-0.6
 41
-30.0
 62
     5
 63
     7
 74
     1
 91
        4
 64
     7
 65
   257
 75
     1
175
     1
 42
1.0
 92
        8
 66
     7
 43
1.0
 76
     1
 77
     6
 78
     2
 67
     7
 79
     5
170
     0
171
     0
290
     0
174
     0
 93
        1
 44
50.0
173
     0
291
     1
 45
0.0
1001
ACAD
1000
AcDbSavedByObjectVersion
1070
     0
  0
VISUALSTYLE
  5
3A
102
{ACAD_REACTORS
330
2A
102
}
330
2A
100
AcDbVisualStyle
  2
ColorChange
 70
    16
 71
     2
 72
     2
 73
     3
 90
        0
 40
-0.6
 41
-30.0
 62
     5
 63
     8
 74
     1
 91
        4
 64
     7
 65
   257
 75
     1
175
     1
 42
1.0
 92
        8
 66
     8
 43
1.0
 76
     1
 77
     6
 78
     2
 67
     7
 79
     5
170
     0
171
     0
290
     0
174
     0
 93
        1
 44
0.0
173
     0
291
     1
 45
0.0
1001
ACAD
1000
AcDbSavedByObjectVersion
1070
     0
  0
VISUALSTYLE
  5
34
102
{ACAD_REACTORS
330
2A
102
}
330
2A
100
AcDbVisualStyle
  2
Conceptual
 70
     9
 71
     3
 72
     2
 73
     0
 90
        0
 40
-0.6
 41
-30.0
 62
     5
 63
     7
 74
     2
 91
        2
 64
     7
 65
   257
 75
     1
175
     1
 42
40.0
 92
        8
 66
     7
 43
1.0
 76
     1
 77
     6
 78
     2
 67
     7
 79
     3
170
     0
171
     0
290
     0
174
     0
 93
        1
 44
0.0
173
     0
291
     0
 45
0.0
1001
ACAD
1000
AcDbSavedByObjectVersion
1070
     0
  0
VISUALSTYLE
  5
35
102
{ACAD_REACTORS
330
2A
102
}
330
2A
100
AcDbVisualStyle
  2
Dim
 70
    11
 71
     2
 72
     2
 73
     0
 90
        0
 40
-0.6
 41
-30.0
 62
     5
 63
     7
 74
     1
 91
        4
 64
     7
 65
   257
 75
     1
175
     1
 42
1.0
 92
        8
 66
     7
 43
1.0
 76
     1
 77
     6
 78
     2
 67
     7
 79
     5
170
     0
171
     0
290
     0
174
     0
 93
        1
 44
-50.0
173
     0
291
     1
 45
0.0
1001
ACAD
1000
AcDbSavedByObjectVersion
1070
     0
  0
VISUALSTYLE
  5
39
102
{ACAD_REACTORS
330
2A
102
}
330
2A
100
AcDbVisualStyle
  2
Facepattern
 70
    15
 71
     2
 72
     2
 73
     0
 90
        0
 40
-0.6
 41
-30.0
 62
     5
 63
     7
 74
     1
 91
        4
 64
     7
 65
   257
 75
     1
175
     1
 42
1.0
 92
        8
 66
     7
 43
1.0
 76
     1
 77
     6
 78
     2
 67
     7
 79
     5
170
     0
171
     0
290
     0
174
     0
 93
        1
 44
0.0
173
     0
291
     1
 45
0.0
1001
ACAD
1000
AcDbSavedByObjectVersion
1070
     0
  0
VISUALSTYLE
  5
2B
102
{ACAD_REACTORS
330
2A
102
}
330
2A
100
AcDbVisualStyle
  2
Flat
 70
     0
 71
     2
 72
     1
 73
     1
 90
        2
 40
-0.6
 41
30.0
 62
     5
 63
     7
 74
     0
 91
        4
 64
     7
 65
   257
 75
     1
175
     1
 42
1.0
 92
        8
 66
     7
 43
1.0
 76
     1
 77
     6
 78
     2
 67
     7
 79
     5
170
     0
171
     0
290
     0
174
     0
 93
       13
 44
0.0
173
     0
291
     1
 45
0.0
1001
ACAD
1000
AcDbSavedByObjectVersion
1070
     0
  0
VISUALSTYLE
  5
2C
102
{ACAD_REACTORS
330
2A
102
}
330
2A
100
AcDbVisualStyle
  2
FlatWithEdges
 70
     1
 71
     2
 72
     1
 73
     1
 90
        2
 40
-0.6
 41
30.0
 62
     5
 63
     7
 74
     1
 91
        4
 64
     7
 65
   257
 75
     1
175
     1
 42
1.0
 92
        0
 66
   257
 43
1.0
 76
     1
 77
     6
 78
     2
 67
     7
 79
     5
170
     0
171
     0
290
     0
174
     0
 93
       13
 44
0.0
173
     0
291
     1
 45
0.0
1001
ACAD
1000
AcDbSavedByObjectVersion
1070
     0
  0
VISUALSTYLE
  5
2D
102
{ACAD_REACTORS
330
2A
102
}
330
2A
100
AcDbVisualStyle
  2
Gouraud
 70
     2
 71
     2
 72
     2
 73
     1
 90
        2
 40
-0.6
 41
30.0
 62
     5
 63
     7
 74
     0
 91
        4
 64
     7
 65
   257
 75
     1
175
     1
 42
1.0
 92
        0
 66
     7
 43
1.0
 76
     1
 77
     6
 78
     2
 67
     7
 79
     5
170
     0
171
     0
290
     0
174
     0
 93
       13
 44
0.0
173
     0
291
     1
 45
0.0
1001
ACAD
1000
AcDbSavedByObjectVersion
1070
     0
  0
VISUALSTYLE
  5
2E
102
{ACAD_REACTORS
330
2A
102
}
330
2A
100
AcDbVisualStyle
  2
GouraudWithEdges
 70
     3
 71
     2
 72
     2
 73
     1
 90
        2
 40
-0.6
 41
30.0
 62
     5
 63
     7
 74
     1
 91
        4
 64
     7
 65
   257
 75
     1
175
     1
 42
1.0
 92
        0
 66
   257
 43
1.0
 76
     1
 77
     6
 78
     2
 67
     7
 79
     5
170
     0
171
     0
290
     0
174
     0
 93
       13
 44
0.0
173
     0
291
     1
 45
0.0
1001
ACAD
1000
AcDbSavedByObjectVersion
1070
     0
  0
VISUALSTYLE
  5
38
102
{ACAD_REACTORS
330
2A
102
}
330
2A
100
AcDbVisualStyle
  2
Linepattern
 70
    14
 71
     2
 72
     2
 73
     0
 90
        0
 40
-0.6
 41
-30.0
 62
     5
 63
     7
 74
     1
 91
        4
 64
     7
 65
   257
 75
     7
175
     7
 42
1.0
 92
        8
 66
     7
 43
1.0
 76
     1
 77
     6
 78
     2
 67
     7
 79
     5
170
     0
171
     0
290
     0
174
     0
 93
        1
 44
0.0
173
     0
291
     1
 45
0.0
1001
ACAD
1000
AcDbSavedByObjectVersion
1070
     0
  0
VISUALSTYLE
  5
33
102
{ACAD_REACTORS
330
2A
102
}
330
2A
100
AcDbVisualStyle
  2
Realistic
 70
     8
 71
     2
 72
     2
 73
     0
 90
        0
 40
-0.6
 41
-30.0
 62
     5
 63
     7
 74
     1
 91
        0
 64
     7
 65
   257
 75
     1
175
     1
 42
1.0
 92
        8
 66
     8
 43
1.0
 76
     1
 77
     6
 78
     2
 67
     7
 79
     5
170
     0
171
     0
290
     0
174
     0
 93
       13
 44
0.0
173
     0
291
     0
 45
0.0
1001
ACAD
1000
AcDbSavedByObjectVersion
1070
     0
  0
VISUALSTYLE
  5
37
102
{ACAD_REACTORS
330
2A
102
}
330
2A
100
AcDbVisualStyle
  2
Thicken
 70
    13
 71
     2
 72
     2
 73
     0
 90
        0
 40
-0.6
 41
-30.0
 62
     5
 63
     7
 74
     1
 91
        4
 64
     7
 65
   257
 75
     1
175
     1
 42
1.0
 92
       12
 66
     7
 43
1.0
 76
     1
 77
     6
 78
     2
 67
     7
 79
     5
170
     0
171
     0
290
     0
174
     0
 93
        1
 44
0.0
173
     0
291
     1
 45
0.0
1001
ACAD
1000
AcDbSavedByObjectVersion
1070
     0
  0
DICTIONARYVAR
  5
459
102
{ACAD_REACTORS
330
458
102
}
330
458
100
DictionaryVariables
280
     0
  1
1:1
  0
DICTIONARYVAR
  5
45D
102
{ACAD_REACTORS
330
458
102
}
330
458
100
DictionaryVariables
280
     0
  1
80.000000
  0
DICTIONARYVAR
  5
45C
102
{ACAD_REACTORS
330
458
102
}
330
458
100
DictionaryVariables
280
     0
  1
5.000000
  0
ENDSEC
  0
EOF
