  0
SECTION
  2
HEADER
  9
$ACADVER
  1
AC1015
  9
$ACADMAINTVER
 70
     6
  9
$DWGCODEPAGE
  3
ANSI_1252
  9
$INSBASE
 10
0.0
 20
0.0
 30
0.0
  9
$EXTMIN
 10
0.0
 20
0.0
 30
0.0
  9
$EXTMAX
 10
1682.0
 20
2378.0
 30
0.0
  9
$LIMMIN
 10
0.0
 20
0.0
  9
$LIMMAX
 10
1682.0
 20
2378.0
  9
$ORTHOMODE
 70
     0
  9
$REGENMODE
 70
     1
  9
$FILLMODE
 70
     1
  9
$QTEXTMODE
 70
     0
  9
$MIRRTEXT
 70
     1
  9
$LTSCALE
 40
1.0
  9
$ATTMODE
 70
     1
  9
$TEXTSIZE
 40
2.5
  9
$TRACEWID
 40
1.0
  9
$TEXTSTYLE
  7
Standard
  9
$CLAYER
  8
0
  9
$CELTYPE
  6
ByLayer
  9
$CECOLOR
 62
   256
  9
$CELTSCALE
 40
1.0
  9
$DISPSILH
 70
     0
  9
$DIMSCALE
 40
1.0
  9
$DIMASZ
 40
2.5
  9
$DIMEXO
 40
0.625
  9
$DIMDLI
 40
3.75
  9
$DIMRND
 40
0.0
  9
$DIMDLE
 40
0.0
  9
$DIMEXE
 40
1.25
  9
$DIMTP
 40
0.0
  9
$DIMTM
 40
0.0
  9
$DIMTXT
 40
2.5
  9
$DIMCEN
 40
2.5
  9
$DIMTSZ
 40
0.0
  9
$DIMTOL
 70
     0
  9
$DIMLIM
 70
     0
  9
$DIMTIH
 70
     0
  9
$DIMTOH
 70
     0
  9
$DIMSE1
 70
     0
  9
$DIMSE2
 70
     0
  9
$DIMTAD
 70
     1
  9
$DIMZIN
 70
     8
  9
$DIMBLK
  1

  9
$DIMASO
 70
     1
  9
$DIMSHO
 70
     1
  9
$DIMPOST
  1

  9
$DIMAPOST
  1

  9
$DIMALT
 70
     0
  9
$DIMALTD
 70
     3
  9
$DIMALTF
 40
0.0393700787
  9
$DIMLFAC
 40
1.0
  9
$DIMTOFL
 70
     1
  9
$DIMTVP
 40
0.0
  9
$DIMTIX
 70
     0
  9
$DIMSOXD
 70
     0
  9
$DIMSAH
 70
     0
  9
$DIMBLK1
  1

  9
$DIMBLK2
  1

  9
$DIMSTYLE
  2
ISO-25
  9
$DIMCLRD
 70
     0
  9
$DIMCLRE
 70
     0
  9
$DIMCLRT
 70
     0
  9
$DIMTFAC
 40
1.0
  9
$DIMGAP
 40
0.625
  9
$DIMJUST
 70
     0
  9
$DIMSD1
 70
     0
  9
$DIMSD2
 70
     0
  9
$DIMTOLJ
 70
     0
  9
$DIMTZIN
 70
     8
  9
$DIMALTZ
 70
     0
  9
$DIMALTTZ
 70
     0
  9
$DIMUPT
 70
     0
  9
$DIMDEC
 70
     2
  9
$DIMTDEC
 70
     2
  9
$DIMALTU
 70
     2
  9
$DIMALTTD
 70
     3
  9
$DIMTXSTY
  7
Standard
  9
$DIMAUNIT
 70
     0
  9
$DIMADEC
 70
     0
  9
$DIMALTRND
 40
0.0
  9
$DIMAZIN
 70
     0
  9
$DIMDSEP
 70
    44
  9
$DIMATFIT
 70
     3
  9
$DIMFRAC
 70
     0
  9
$DIMLDRBLK
  1

  9
$DIMLUNIT
 70
     2
  9
$DIMLWD
 70
    -2
  9
$DIMLWE
 70
    -2
  9
$DIMTMOVE
 70
     0
  9
$LUNITS
 70
     2
  9
$LUPREC
 70
     4
  9
$SKETCHINC
 40
1.0
  9
$FILLETRAD
 40
10.0
  9
$AUNITS
 70
     0
  9
$AUPREC
 70
     0
  9
$MENU
  1
.
  9
$ELEVATION
 40
0.0
  9
$PELEVATION
 40
0.0
  9
$THICKNESS
 40
0.0
  9
$LIMCHECK
 70
     0
  9
$CHAMFERA
 40
10.0
  9
$CHAMFERB
 40
10.0
  9
$CHAMFERC
 40
20.0
  9
$CHAMFERD
 40
0.0
  9
$SKPOLY
 70
     0
  9
$TDCREATE
 40
2455519.630263611
  9
$TDUCREATE
 40
2455519.588596944
  9
$TDUPDATE
 40
2455519.630263623
  9
$TDUUPDATE
 40
2455519.588596956
  9
$TDINDWG
 40
0.0000000116
  9
$TDUSRTIMER
 40
0.0000000116
  9
$USRTIMER
 70
     1
  9
$ANGBASE
 50
0.0
  9
$ANGDIR
 70
     0
  9
$PDMODE
 70
     0
  9
$PDSIZE
 40
0.0
  9
$PLINEWID
 40
0.0
  9
$SPLFRAME
 70
     0
  9
$SPLINETYPE
 70
     6
  9
$SPLINESEGS
 70
     8
  9
$HANDSEED
  5
167
  9
$SURFTAB1
 70
     6
  9
$SURFTAB2
 70
     6
  9
$SURFTYPE
 70
     6
  9
$SURFU
 70
     6
  9
$SURFV
 70
     6
  9
$UCSBASE
  2

  9
$UCSNAME
  2

  9
$UCSORG
 10
0.0
 20
0.0
 30
0.0
  9
$UCSXDIR
 10
1.0
 20
0.0
 30
0.0
  9
$UCSYDIR
 10
0.0
 20
1.0
 30
0.0
  9
$UCSORTHOREF
  2

  9
$UCSORTHOVIEW
 70
     0
  9
$UCSORGTOP
 10
0.0
 20
0.0
 30
0.0
  9
$UCSORGBOTTOM
 10
0.0
 20
0.0
 30
0.0
  9
$UCSORGLEFT
 10
0.0
 20
0.0
 30
0.0
  9
$UCSORGRIGHT
 10
0.0
 20
0.0
 30
0.0
  9
$UCSORGFRONT
 10
0.0
 20
0.0
 30
0.0
  9
$UCSORGBACK
 10
0.0
 20
0.0
 30
0.0
  9
$PUCSBASE
  2

  9
$PUCSNAME
  2

  9
$PUCSORG
 10
0.0
 20
0.0
 30
0.0
  9
$PUCSXDIR
 10
1.0
 20
0.0
 30
0.0
  9
$PUCSYDIR
 10
0.0
 20
1.0
 30
0.0
  9
$PUCSORTHOREF
  2

  9
$PUCSORTHOVIEW
 70
     0
  9
$PUCSORGTOP
 10
0.0
 20
0.0
 30
0.0
  9
$PUCSORGBOTTOM
 10
0.0
 20
0.0
 30
0.0
  9
$PUCSORGLEFT
 10
0.0
 20
0.0
 30
0.0
  9
$PUCSORGRIGHT
 10
0.0
 20
0.0
 30
0.0
  9
$PUCSORGFRONT
 10
0.0
 20
0.0
 30
0.0
  9
$PUCSORGBACK
 10
0.0
 20
0.0
 30
0.0
  9
$USERI1
 70
     0
  9
$USERI2
 70
     0
  9
$USERI3
 70
     0
  9
$USERI4
 70
     0
  9
$USERI5
 70
     0
  9
$USERR1
 40
0.0
  9
$USERR2
 40
0.0
  9
$USERR3
 40
0.0
  9
$USERR4
 40
0.0
  9
$USERR5
 40
0.0
  9
$WORLDVIEW
 70
     1
  9
$SHADEDGE
 70
     3
  9
$SHADEDIF
 70
    70
  9
$TILEMODE
 70
     1
  9
$MAXACTVP
 70
    64
  9
$PINSBASE
 10
0.0
 20
0.0
 30
0.0
  9
$PLIMCHECK
 70
     0
  9
$PEXTMIN
 10
0.0
 20
0.0
 30
0.0
  9
$PEXTMAX
 10
1682.0
 20
2378.0
 30
0.0
  9
$PLIMMIN
 10
0.0
 20
0.0
  9
$PLIMMAX
 10
1682.0
 20
2378.0
  9
$UNITMODE
 70
     0
  9
$VISRETAIN
 70
     1
  9
$PLINEGEN
 70
     0
  9
$PSLTSCALE
 70
     1
  9
$TREEDEPTH
 70
  3020
  9
$CMLSTYLE
  2
Standard
  9
$CMLJUST
 70
     0
  9
$CMLSCALE
 40
20.0
  9
$PROXYGRAPHICS
 70
     1
  9
$MEASUREMENT
 70
     1
  9
$CELWEIGHT
370
    -1
  9
$ENDCAPS
280
     0
  9
$JOINSTYLE
280
     0
  9
$LWDISPLAY
290
     0
  9
$INSUNITS
 70
     4
  9
$HYPERLINKBASE
  1

  9
$STYLESHEET
  1

  9
$XEDIT
290
     1
  9
$CEPSNTYPE
380
     0
  9
$PSTYLEMODE
290
     1
  9
$FINGERPRINTGUID
  2
{C6897447-874A-4F69-91A8-5AB66AD76C9A}
  9
$VERSIONGUID
  2
{FAEB1C32-E019-11D5-929B-00C0DF256EC4}
  9
$EXTNAMES
290
     1
  9
$PSVPSCALE
 40
0.0
  9
$OLESTARTUP
290
     0
  0
ENDSEC
  0
SECTION
  2
CLASSES
  0
CLASS
  1
ACDBDICTIONARYWDFLT
  2
AcDbDictionaryWithDefault
  3
ObjectDBX Classes
 90
        0
280
     0
281
     0
  0
CLASS
  1
VISUALSTYLE
  2
AcDbVisualStyle
  3
ObjectDBX Classes
 90
     4095
280
     0
281
     0
  0
CLASS
  1
SCALE
  2
AcDbScale
  3
ObjectDBX Classes
 90
     1153
280
     0
281
     0
  0
CLASS
  1
DICTIONARYVAR
  2
AcDbDictionaryVar
  3
ObjectDBX Classes
 90
        0
280
     0
281
     0
  0
CLASS
  1
ACDBPLACEHOLDER
  2
AcDbPlaceHolder
  3
ObjectDBX Classes
 90
        0
280
     0
281
     0
  0
CLASS
  1
LAYOUT
  2
AcDbLayout
  3
ObjectDBX Classes
 90
        0
280
     0
281
     0
  0
ENDSEC
  0
SECTION
  2
TABLES
  0
TABLE
  2
VPORT
  5
8
330
0
100
AcDbSymbolTable
 70
     1
  0
VPORT
  5
29
330
8
100
AcDbSymbolTableRecord
100
AcDbViewportTableRecord
  2
*Active
 70
     0
 10
0.0
 20
0.0
 11
1.0
 21
1.0
 12
344.1869158879
 22
148.5
 13
0.0
 23
0.0
 14
10.0
 24
10.0
 15
10.0
 25
10.0
 16
0.0
 26
0.0
 36
1.0
 17
0.0
 27
0.0
 37
0.0
 40
297.0
 41
1.9729729729
 42
50.0
 43
0.0
 44
0.0
 50
0.0
 51
0.0
 71
     0
 72
   100
 73
     1
 74
     3
 75
     0
 76
     0
 77
     0
 78
     0
281
     0
 65
     1
110
0.0
120
0.0
130
0.0
111
1.0
121
0.0
131
0.0
112
0.0
122
1.0
132
0.0
 79
     0
146
0.0
  0
ENDTAB
  0
TABLE
  2
LTYPE
  5
5
330
0
100
AcDbSymbolTable
 70
     2
  0
LTYPE
  5
14
330
5
100
AcDbSymbolTableRecord
100
AcDbLinetypeTableRecord
  2
ByBlock
 70
     0
  3

 72
    65
 73
     0
 40
0.0
  0
LTYPE
  5
15
330
5
100
AcDbSymbolTableRecord
100
AcDbLinetypeTableRecord
  2
ByLayer
 70
     0
  3

 72
    65
 73
     0
 40
0.0
  0
LTYPE
  5
16
330
5
100
AcDbSymbolTableRecord
100
AcDbLinetypeTableRecord
  2
Continuous
 70
     0
  3
Solid line
 72
    65
 73
     0
 40
0.0
  0
LTYPE
  5
60
330
5
100
AcDbSymbolTableRecord
100
AcDbLinetypeTableRecord
  2
CENTER2
 70
     0
  3
Center (.5x) ___ _ ___ _ ___ _ ___ _ ___ _ ___
 72
    65
 73
     4
 40
28.575
 49
19.05
 74
     4
 75
     0
340
0
 46
0.0
 50
0.0
 44
0.0
 45
0.0
 49
-3.175
 74
     4
 75
     0
340
0
 46
0.0
 50
0.0
 44
0.0
 45
0.0
 49
3.175
 74
     4
 75
     0
340
0
 46
0.0
 50
0.0
 44
0.0
 45
0.0
 49
-3.175
 74
     4
 75
     0
340
0
 46
0.0
 50
0.0
 44
0.0
 45
0.0
  0
ENDTAB
  0
TABLE
  2
LAYER
  5
2
330
0
100
AcDbSymbolTable
 70
    10
  0
LAYER
  5
10
330
2
100
AcDbSymbolTableRecord
100
AcDbLayerTableRecord
  2
0
 70
     0
 62
     7
  6
Continuous
370
    -3
390
F
  0
LAYER
  5
5D
330
2
100
AcDbSymbolTableRecord
100
AcDbLayerTableRecord
  2
Default
 70
     0
 62
     7
  6
Continuous
370
    -3
390
F
  0
LAYER
  5
77
330
2
100
AcDbSymbolTableRecord
100
AcDbLayerTableRecord
  2
$DDT_AUDIT_GENERATED_(77)
 70
     0
 62
     7
  6
Continuous
370
    -3
390
F
  0
LAYER
  5
7D
330
2
100
AcDbSymbolTableRecord
100
AcDbLayerTableRecord
  2
$DDT_AUDIT_GENERATED_(7D)
 70
     0
 62
     7
  6
Continuous
370
    -3
390
F
  0
LAYER
  5
86
330
2
100
AcDbSymbolTableRecord
100
AcDbLayerTableRecord
  2
$DDT_AUDIT_GENERATED_(86)
 70
     0
 62
     7
  6
Continuous
370
    -3
390
F
  0
LAYER
  5
91
330
2
100
AcDbSymbolTableRecord
100
AcDbLayerTableRecord
  2
$DDT_AUDIT_GENERATED_(91)
 70
     0
 62
     7
  6
Continuous
370
    -3
390
F
  0
LAYER
  5
9C
330
2
100
AcDbSymbolTableRecord
100
AcDbLayerTableRecord
  2
$DDT_AUDIT_GENERATED_(9C)
 70
     0
 62
     7
  6
Continuous
370
    -3
390
F
  0
LAYER
  5
B1
330
2
100
AcDbSymbolTableRecord
100
AcDbLayerTableRecord
  2
$DDT_AUDIT_GENERATED_(B1)
 70
     0
 62
     7
  6
Continuous
370
    -3
390
F
  0
LAYER
  5
B8
330
2
100
AcDbSymbolTableRecord
100
AcDbLayerTableRecord
  2
$DDT_AUDIT_GENERATED_(B8)
 70
     0
 62
     7
  6
Continuous
370
    -3
390
F
  0
LAYER
  5
CE
330
2
100
AcDbSymbolTableRecord
100
AcDbLayerTableRecord
  2
$DDT_AUDIT_GENERATED_(CE)
 70
     0
 62
     7
  6
Continuous
370
    -3
390
F
  0
ENDTAB
  0
TABLE
  2
STYLE
  5
3
330
0
100
AcDbSymbolTable
 70
     2
  0
STYLE
  5
11
330
3
100
AcDbSymbolTableRecord
100
AcDbTextStyleTableRecord
  2
Standard
 70
     0
 40
0.0
 41
1.0
 50
0.0
 71
     0
 42
2.5
  3
txt
  4

  0
STYLE
  5
156
330
3
100
AcDbSymbolTableRecord
100
AcDbTextStyleTableRecord
  2
SEACAD_seiso_ttf
 70
     0
 40
0.0
 41
1.0
 50
0.0
 71
     0
 42
0.2
  3
seiso.ttf
  4

  0
ENDTAB
  0
TABLE
  2
VIEW
  5
6
330
0
100
AcDbSymbolTable
 70
     0
  0
ENDTAB
  0
TABLE
  2
UCS
  5
7
330
0
100
AcDbSymbolTable
 70
     0
  0
ENDTAB
  0
TABLE
  2
APPID
  5
9
330
0
100
AcDbSymbolTable
 70
     1
  0
APPID
  5
12
330
9
100
AcDbSymbolTableRecord
100
AcDbRegAppTableRecord
  2
ACAD
 70
     0
  0
ENDTAB
  0
TABLE
  2
DIMSTYLE
  5
A
330
0
100
AcDbSymbolTable
 70
     1
100
AcDbDimStyleTable
  0
DIMSTYLE
105
27
330
A
100
AcDbSymbolTableRecord
100
AcDbDimStyleTableRecord
  2
ISO-25
 70
     0
 41
2.5
 42
0.625
 43
3.75
 44
1.25
 73
     0
 74
     0
 77
     1
 78
     8
140
2.5
141
2.5
143
0.0393700787
147
0.625
171
     3
172
     1
271
     2
272
     2
274
     3
278
    44
283
     0
284
     8
340
11
  0
ENDTAB
  0
TABLE
  2
BLOCK_RECORD
  5
1
330
0
100
AcDbSymbolTable
 70
     7
  0
BLOCK_RECORD
  5
1F
330
1
100
AcDbSymbolTableRecord
100
AcDbBlockTableRecord
  2
*Model_Space
340
22
  0
BLOCK_RECORD
  5
1B
330
1
100
AcDbSymbolTableRecord
100
AcDbBlockTableRecord
  2
*Paper_Space
340
1E
  0
BLOCK_RECORD
  5
5E
330
1
100
AcDbSymbolTableRecord
100
AcDbBlockTableRecord
  2
SEANNOT_GROUP
340
0
102
{BLKREFS
331
5F
102
}
  0
BLOCK_RECORD
  5
69
330
1
100
AcDbSymbolTableRecord
100
AcDbBlockTableRecord
  2
SEANNOT_GROUP1
340
0
102
{BLKREFS
331
6A
102
}
  0
BLOCK_RECORD
  5
6F
330
1
100
AcDbSymbolTableRecord
100
AcDbBlockTableRecord
  2
SEANNOT_GROUP2
340
0
102
{BLKREFS
331
70
102
}
  0
BLOCK_RECORD
  5
75
330
1
100
AcDbSymbolTableRecord
100
AcDbBlockTableRecord
  2
SE
340
0
102
{BLKREFS
331
76
102
}
  0
BLOCK_RECORD
  5
D6
330
1
100
AcDbSymbolTableRecord
100
AcDbBlockTableRecord
  2
SE1
340
0
102
{BLKREFS
331
D7
102
}
  0
BLOCK_RECORD
  5
105
330
1
100
AcDbSymbolTableRecord
100
AcDbBlockTableRecord
  2
SE2
340
0
102
{BLKREFS
331
106
102
}
  0
ENDTAB
  0
ENDSEC
  0
SECTION
  2
BLOCKS
  0
BLOCK
  5
20
330
1F
100
AcDbEntity
  8
0
100
AcDbBlockBegin
  2
*Model_Space
 70
     0
 10
0.0
 20
0.0
 30
0.0
  3
*Model_Space
  1

  0
ENDBLK
  5
21
330
1F
100
AcDbEntity
  8
0
100
AcDbBlockEnd
  0
BLOCK
  5
1C
330
1B
100
AcDbEntity
 67
     1
  8
0
100
AcDbBlockBegin
  2
*Paper_Space
 70
     0
 10
0.0
 20
0.0
 30
0.0
  3
*Paper_Space
  1

  0
ENDBLK
  5
1D
330
1B
100
AcDbEntity
 67
     1
  8
0
100
AcDbBlockEnd
  0
BLOCK
  5
67
330
5E
100
AcDbEntity
  8
0
100
AcDbBlockBegin
  2
SEANNOT_GROUP
 70
     0
 10
0.0
 20
0.0
 30
0.0
  3
SEANNOT_GROUP
  1

  0
LINE
  5
61
330
5E
100
AcDbEntity
  8
Default
  6
CENTER2
 62
     7
100
AcDbLine
 10
207.6728407225
 20
443.2686304119
 30
0.0
 11
167.6728416165
 21
443.2686304119
 31
0.0
  0
LINE
  5
62
330
5E
100
AcDbEntity
  8
Default
  6
CENTER2
 62
     7
100
AcDbLine
 10
187.6728411695
 20
463.2686299649
 30
0.0
 11
187.6728411695
 21
423.268630859
 31
0.0
  0
LINE
  5
63
330
5E
100
AcDbEntity
  8
Default
  6
CENTER2
 62
     7
100
AcDbLine
 10
212.6728406107
 20
443.2686304119
 30
0.0
 11
217.4228411695
 21
443.2686304119
 31
0.0
  0
LINE
  5
64
330
5E
100
AcDbEntity
  8
Default
  6
CENTER2
 62
     7
100
AcDbLine
 10
187.6728411695
 20
468.2686298531
 30
0.0
 11
187.6728411695
 21
473.0186304119
 31
0.0
  0
LINE
  5
65
330
5E
100
AcDbEntity
  8
Default
  6
CENTER2
 62
     7
100
AcDbLine
 10
162.6728417283
 20
443.2686304119
 30
0.0
 11
157.9228411695
 21
443.2686304119
 31
0.0
  0
LINE
  5
66
330
5E
100
AcDbEntity
  8
Default
  6
CENTER2
 62
     7
100
AcDbLine
 10
187.6728411695
 20
418.2686309707
 30
0.0
 11
187.6728411695
 21
413.5186304119
 31
0.0
  0
ENDBLK
  5
68
330
5E
100
AcDbEntity
  8
0
100
AcDbBlockEnd
  0
BLOCK
  5
6D
330
69
100
AcDbEntity
  8
0
100
AcDbBlockBegin
  2
SEANNOT_GROUP1
 70
     0
 10
0.0
 20
0.0
 30
0.0
  3
SEANNOT_GROUP1
  1

  0
LINE
  5
6B
330
69
100
AcDbEntity
  8
Default
  6
CENTER2
 62
     7
100
AcDbLine
 10
432.3644606875
 20
443.2686080519
 30
0.0
 11
392.3644615816
 21
443.2686080519
 31
0.0
  0
LINE
  5
6C
330
69
100
AcDbEntity
  8
Default
  6
CENTER2
 62
     7
100
AcDbLine
 10
412.3644611346
 20
463.2686076049
 30
0.0
 11
412.3644611346
 21
423.2686084989
 31
0.0
  0
ENDBLK
  5
6E
330
69
100
AcDbEntity
  8
0
100
AcDbBlockEnd
  0
BLOCK
  5
73
330
6F
100
AcDbEntity
  8
0
100
AcDbBlockBegin
  2
SEANNOT_GROUP2
 70
     0
 10
0.0
 20
0.0
 30
0.0
  3
SEANNOT_GROUP2
  1

  0
LINE
  5
71
330
6F
100
AcDbEntity
  8
Default
  6
CENTER2
 62
     7
100
AcDbLine
 10
207.6728635765
 20
188.5728897804
 30
0.0
 11
167.6728644706
 21
188.5728897804
 31
0.0
  0
LINE
  5
72
330
6F
100
AcDbEntity
  8
Default
  6
CENTER2
 62
     7
100
AcDbLine
 10
187.6728640236
 20
208.5728893334
 30
0.0
 11
187.6728640236
 21
168.5728902274
 31
0.0
  0
ENDBLK
  5
74
330
6F
100
AcDbEntity
  8
0
100
AcDbBlockEnd
  0
BLOCK
  5
D4
330
75
100
AcDbEntity
  8
0
100
AcDbBlockBegin
  2
SE
 70
     0
 10
0.0
 20
0.0
 30
0.0
  3
SE
  1

  0
ARC
  5
78
330
75
100
AcDbEntity
  8
$DDT_AUDIT_GENERATED_(77)
  6
Continuous
 62
     7
100
AcDbCircle
 10
187.6728456244
 20
443.268630412
 30
0.0
 40
24.7499999999987
100
AcDbArc
 50
11.6513908394
 51
168.4434905185
  0
ARC
  5
79
330
75
100
AcDbEntity
  8
$DDT_AUDIT_GENERATED_(77)
  6
Continuous
 62
     7
100
AcDbCircle
 10
187.6728456244
 20
443.268630412
 30
0.0
 40
24.7499999999987
100
AcDbArc
 50
191.6364417341
 51
348.4181758302
  0
SPLINE
  5
7A
330
75
100
AcDbEntity
  8
$DDT_AUDIT_GENERATED_(77)
  6
Continuous
 62
     7
100
AcDbSpline
210
0.0
220
0.0
230
1.0
 70
     8
 71
     3
 72
    14
 73
    10
 74
     0
 42
0.0000000000527507
 43
0.0000000001
 40
0.0
 40
0.0
 40
0.0
 40
0.0
 40
0.0625
 40
0.0625
 40
0.125
 40
0.125
 40
0.1875
 40
0.1875
 40
0.2233275150893994
 40
0.2233275150893994
 40
0.2233275150893994
 40
0.2233275150893994
 10
187.6728411694807
 20
473.2686362786994
 30
0.0
 10
191.599835681349
 20
473.2686392702942
 30
0.0
 10
195.5252856833986
 20
472.4878218260931
 30
0.0
 10
202.7814276806648
 20
469.4822358764782
 30
0.0
 10
206.1092646938574
 20
467.2586499407911
 30
0.0
 10
211.6628778226603
 20
461.7050452734961
 30
0.0
 10
213.886468828655
 20
458.3772116481748
 30
0.0
 10
216.250731907634
 20
452.6693879565557
 30
0.0
 10
216.8749523153828
 20
450.4919125710597
 30
0.0
 10
217.2508438988399
 20
448.272442887786
 30
0.0
  0
SPLINE
  5
7B
330
75
100
AcDbEntity
  8
$DDT_AUDIT_GENERATED_(77)
  6
Continuous
 62
     7
100
AcDbSpline
210
0.0
220
0.0
230
1.0
 70
     8
 71
     3
 72
    22
 73
    18
 74
     0
 42
0.0000000000527507
 43
0.0000000001
 40
0.2766210017329921
 40
0.2766210017329921
 40
0.2766210017329921
 40
0.2766210017329921
 40
0.3125
 40
0.3125
 40
0.375
 40
0.375
 40
0.4375
 40
0.4375
 40
0.5
 40
0.5
 40
0.5625
 40
0.5625
 40
0.625
 40
0.625
 40
0.6875
 40
0.6875
 40
0.7233278515647659
 40
0.7233278515647659
 40
0.7233278515647659
 40
0.7233278515647659
 10
217.2524704080978
 20
438.2743864987021
 30
0.0
 10
216.8767567973404
 20
436.0516061770687
 30
0.0
 10
216.251984127601
 20
433.8708602425974
 30
0.0
 10
213.886491848173
 20
428.1600443948037
 30
0.0
 10
211.6629059124859
 20
424.8322073816111
 30
0.0
 10
206.1093012451909
 20
419.2785942528081
 30
0.0
 10
202.7814676198695
 20
417.0550032468136
 30
0.0
 10
195.5253302019384
 20
414.0494062417058
 30
0.0
 10
191.599881389551
 20
413.2685828166691
 30
0.0
 10
183.7458923658143
 20
413.2685768334795
 30
0.0
 10
179.8204423637647
 20
414.0493942776806
 30
0.0
 10
172.5643003664985
 20
417.0549802272955
 30
0.0
 10
169.2364633533059
 20
419.2785661629826
 30
0.0
 10
163.682850224503
 20
424.8321708302776
 30
0.0
 10
161.4592592185084
 20
428.160004455599
 30
0.0
 10
159.0949880490544
 20
433.86784767931
 30
0.0
 10
158.4707640070257
 20
436.0453444323957
 30
0.0
 10
158.0948735577921
 20
438.2648357486813
 30
0.0
  0
SPLINE
  5
7C
330
75
100
AcDbEntity
  8
$DDT_AUDIT_GENERATED_(77)
  6
Continuous
 62
     7
100
AcDbSpline
210
0.0
220
0.0
230
1.0
 70
     8
 71
     3
 72
    14
 73
    10
 74
     0
 42
0.0000000000527507
 43
0.0000000001
 40
0.7766207396845961
 40
0.7766207396845961
 40
0.7766207396845961
 40
0.7766207396845961
 40
0.8125
 40
0.8125
 40
0.875
 40
0.875
 40
0.9375
 40
0.9375
 40
1.0
 40
1.0
 40
1.0
 40
1.0
 10
158.0932494068396
 20
448.2627809016969
 30
0.0
 10
158.4689621235676
 20
450.4855780717984
 30
0.0
 10
159.0937376186905
 20
452.6663406494933
 30
0.0
 10
161.4592361989903
 20
458.3771717089701
 30
0.0
 10
163.6828221346774
 20
461.7050087221626
 30
0.0
 10
169.2364268019724
 20
467.2586218509655
 30
0.0
 10
172.5642604272938
 20
469.4822128569601
 30
0.0
 10
179.8203978452249
 20
472.4878098620679
 30
0.0
 10
183.7458466576123
 20
473.2686332871045
 30
0.0
 10
187.6728411694807
 20
473.2686362786994
 30
0.0
  0
ARC
  5
7E
330
75
100
AcDbEntity
  8
$DDT_AUDIT_GENERATED_(7D)
  6
Continuous
 62
     7
100
AcDbCircle
 10
200.1728411695
 20
463.1683791541
 30
0.0
 40
3.0
100
AcDbArc
 50
237.8650719959
 51
261.8776974603
  0
ARC
  5
7F
330
75
100
AcDbEntity
  8
$DDT_AUDIT_GENERATED_(7D)
  6
Continuous
 62
     7
100
AcDbCircle
 10
200.1728411695
 20
463.1683791541
 30
0.0
 40
3.0
100
AcDbArc
 50
211.6780246002
 51
225.8751094111
  0
ARC
  5
80
330
75
100
AcDbEntity
  8
$DDT_AUDIT_GENERATED_(7D)
  6
Continuous
 62
     7
100
AcDbCircle
 10
200.1728411695
 20
423.3688816698
 30
0.0
 40
3.0
100
AcDbArc
 50
137.2954981269
 51
148.3219753998
  0
ARC
  5
81
330
75
100
AcDbEntity
  8
$DDT_AUDIT_GENERATED_(7D)
  6
Continuous
 62
     7
100
AcDbCircle
 10
200.1728411695
 20
423.3688816698
 30
0.0
 40
3.0
100
AcDbArc
 50
95.9478806085
 51
122.1349280042
  0
ARC
  5
82
330
75
100
AcDbEntity
  8
$DDT_AUDIT_GENERATED_(7D)
  6
Continuous
 62
     7
100
AcDbCircle
 10
175.1728411695
 20
423.3688816698
 30
0.0
 40
3.0
100
AcDbArc
 50
57.8650719959
 51
81.8745879474
  0
ARC
  5
83
330
75
100
AcDbEntity
  8
$DDT_AUDIT_GENERATED_(7D)
  6
Continuous
 62
     7
100
AcDbCircle
 10
175.1728411695
 20
423.3688816698
 30
0.0
 40
3.0
100
AcDbArc
 50
31.6780246002
 51
45.8751099602
  0
ARC
  5
84
330
75
100
AcDbEntity
  8
$DDT_AUDIT_GENERATED_(7D)
  6
Continuous
 62
     7
100
AcDbCircle
 10
175.1728411695
 20
463.1683791541
 30
0.0
 40
3.0
100
AcDbArc
 50
317.189418892
 51
328.3219753998
  0
ARC
  5
85
330
75
100
AcDbEntity
  8
$DDT_AUDIT_GENERATED_(7D)
  6
Continuous
 62
     7
100
AcDbCircle
 10
175.1728411695
 20
463.1683791541
 30
0.0
 40
3.0
100
AcDbArc
 50
275.9478806085
 51
302.1349280041
  0
SPLINE
  5
87
330
75
100
AcDbEntity
  8
$DDT_AUDIT_GENERATED_(86)
  6
Continuous
 62
     7
100
AcDbSpline
210
0.0
220
0.0
230
1.0
 70
     8
 71
     3
 72
    22
 73
    18
 74
     0
 42
0.0000000000641991
 43
0.0000000001
 40
0.0322841354134
 40
0.0322841354134
 40
0.0322841354134
 40
0.0322841354134
 40
0.0625
 40
0.0625
 40
0.125
 40
0.125
 40
0.1875
 40
0.1875
 40
0.25
 40
0.25
 40
0.3125
 40
0.3125
 40
0.375
 40
0.375
 40
0.4375
 40
0.4375
 40
0.4675244400018356
 40
0.4675244400018356
 40
0.4675244400018356
 40
0.4675244400018356
 10
211.8159513135901
 20
438.3029650872108
 30
0.0
 10
211.5017528958964
 20
436.7750053450469
 30
0.0
 10
211.0434385072155
 20
435.2766892970261
 30
0.0
 10
209.2116756424176
 20
430.8544225457794
 30
0.0
 10
207.3846288346003
 20
428.1200537645403
 30
0.0
 10
202.8214178168668
 20
423.5568427468065
 30
0.0
 10
200.0870490356278
 20
421.729795938989
 30
0.0
 10
194.1249265189412
 20
419.2602039320472
 30
0.0
 10
190.8995186241093
 20
418.6186304119211
 30
0.0
 10
184.4461637148601
 20
418.6186304119209
 30
0.0
 10
181.2207558200282
 20
419.2602039320468
 30
0.0
 10
175.2586333033415
 20
421.7297959389883
 30
0.0
 10
172.5242645221024
 20
423.5568427468056
 30
0.0
 10
167.9610535043686
 20
428.1200537645391
 30
0.0
 10
166.1340066965511
 20
430.8544225457782
 30
0.0
 10
164.3060257567487
 20
435.2675589224083
 30
0.0
 10
163.8497420660787
 20
436.7560232704489
 30
0.0
 10
163.5357199382296
 20
438.2739287140971
 30
0.0
  0
SPLINE
  5
88
330
75
100
AcDbEntity
  8
$DDT_AUDIT_GENERATED_(86)
  6
Continuous
 62
     7
100
AcDbSpline
210
0.0
220
0.0
230
1.0
 70
     8
 71
     3
 72
    22
 73
    18
 74
     0
 42
0.0000000000641991
 43
0.0000000001
 40
0.5322857323383443
 40
0.5322857323383443
 40
0.5322857323383443
 40
0.5322857323383443
 40
0.5625
 40
0.5625
 40
0.625
 40
0.625
 40
0.6875
 40
0.6875
 40
0.75
 40
0.75
 40
0.8125
 40
0.8125
 40
0.875
 40
0.875
 40
0.9375
 40
0.9375
 40
0.9675225208225293
 40
0.9675225208225293
 40
0.9675225208225293
 40
0.9675225208225293
 10
163.5297808432594
 20
448.234537996905
 30
0.0
 10
163.8439778877903
 20
449.7624138522802
 30
0.0
 10
164.3022753817771
 20
451.260647695315
 30
0.0
 10
166.1340066965504
 20
455.6828382780644
 30
0.0
 10
167.9610535043677
 20
458.4172070593036
 30
0.0
 10
172.5242645221012
 20
462.9804180770374
 30
0.0
 10
175.2586333033402
 20
464.8074648848549
 30
0.0
 10
181.2207558200268
 20
467.2770568917966
 30
0.0
 10
184.4461637148586
 20
467.9186304119228
 30
0.0
 10
190.8995186241079
 20
467.9186304119229
 30
0.0
 10
194.1249265189398
 20
467.277056891797
 30
0.0
 10
200.0870490356265
 20
464.8074648848556
 30
0.0
 10
202.8214178168657
 20
462.9804180770383
 30
0.0
 10
207.3846288345995
 20
458.4172070593048
 30
0.0
 10
209.2116756424169
 20
455.6828382780657
 30
0.0
 10
211.0396186655003
 20
451.2697934404929
 30
0.0
 10
211.4958819405032
 20
449.7814278401424
 30
0.0
 10
211.8099021815748
 20
448.2636231855275
 30
0.0
  0
SPLINE
  5
89
330
75
100
AcDbEntity
  8
$DDT_AUDIT_GENERATED_(86)
  6
Continuous
 62
     7
100
AcDbSpline
210
0.0
220
0.0
230
1.0
 70
     8
 71
     3
 72
    12
 73
     8
 74
     0
 42
0.0000000006275516
 43
0.0000000001
 40
0.0
 40
0.0
 40
0.0
 40
0.0
 40
0.25
 40
0.25
 40
0.5
 40
0.5
 40
0.6829412030341602
 40
0.6829412030341602
 40
0.6829412030341602
 40
0.6829412030341602
 10
202.738859391687
 20
428.8555254401173
 30
0.0
 10
203.6555970749999
 20
429.8137913147355
 30
0.0
 10
204.4806131831237
 20
430.8597633643631
 30
0.0
 10
205.9173267859582
 20
433.0892430994774
 30
0.0
 10
206.528992592215
 20
434.2727016110958
 30
0.0
 10
207.3843112286401
 20
436.4040702365047
 30
0.0
 10
207.682656996305
 20
437.3299836699273
 30
0.0
 10
207.915261471171
 20
438.2721243960764
 30
0.0
  0
ARC
  5
8A
330
75
100
AcDbEntity
  8
$DDT_AUDIT_GENERATED_(86)
  6
Continuous
 62
     7
100
AcDbCircle
 10
187.6728371384
 20
443.2686279463
 30
0.0
 40
20.84999538275329
100
AcDbArc
 50
193.8375750991
 51
223.7312045622
  0
ARC
  5
8B
330
75
100
AcDbEntity
  8
$DDT_AUDIT_GENERATED_(86)
  6
Continuous
 62
     7
100
AcDbCircle
 10
187.6728371384
 20
443.2686328775
 30
0.0
 40
20.84999538275331
100
AcDbArc
 50
136.2687954379
 51
166.1367182722
  0
SPLINE
  5
8C
330
75
100
AcDbEntity
  8
$DDT_AUDIT_GENERATED_(86)
  6
Continuous
 62
     7
100
AcDbSpline
210
0.0
220
0.0
230
1.0
 70
     8
 71
     3
 72
    12
 73
     8
 74
     0
 42
0.0000000006275506
 43
0.0000000001
 40
0.3161171444942255
 40
0.3161171444942255
 40
0.3161171444942255
 40
0.3161171444942255
 40
0.5000000000000002
 40
0.5000000000000002
 40
0.7500000000000001
 40
0.7500000000000001
 40
1.0
 40
1.0
 40
1.0
 40
1.0
 10
207.9188480974857
 20
448.2505867084013
 30
0.0
 10
207.6857266730007
 20
449.1977445832367
 30
0.0
 10
207.3861715572575
 20
450.1285548342067
 30
0.0
 10
206.528992592221
 20
452.2645592127368
 30
0.0
 10
205.9173267859656
 20
453.4480177243543
 30
0.0
 10
204.4806131831346
 20
455.6774974594674
 30
0.0
 10
203.6555970750126
 20
456.7234695090946
 30
0.0
 10
202.7388593917017
 20
457.6817353837127
 30
0.0
  0
ARC
  5
8D
330
75
100
AcDbEntity
  8
$DDT_AUDIT_GENERATED_(86)
  6
Continuous
 62
     7
100
AcDbCircle
 10
187.6730167598
 20
443.26821943
 30
0.0
 40
20.8504109826503
100
AcDbArc
 50
90.0004825126
 51
136.268315687
  0
ARC
  5
8E
330
75
100
AcDbEntity
  8
$DDT_AUDIT_GENERATED_(86)
  6
Continuous
 62
     7
100
AcDbCircle
 10
187.6727124602
 20
443.2683291586
 30
0.0
 40
20.85030125375986
100
AcDbArc
 50
43.7315554883
 51
89.9996463121
  0
ARC
  5
8F
330
75
100
AcDbEntity
  8
$DDT_AUDIT_GENERATED_(86)
  6
Continuous
 62
     7
100
AcDbCircle
 10
187.6730453999
 20
443.2681523959
 30
0.0
 40
20.8495219849286
100
AcDbArc
 50
269.9994387621
 51
316.2693594374
  0
ARC
  5
90
330
75
100
AcDbEntity
  8
$DDT_AUDIT_GENERATED_(86)
  6
Continuous
 62
     7
100
AcDbCircle
 10
187.6728754043
 20
443.2687105411
 30
0.0
 40
20.85008012917101
100
AcDbArc
 50
223.7312958775
 51
269.999905923
  0
ARC
  5
92
330
75
100
AcDbEntity
  8
$DDT_AUDIT_GENERATED_(91)
  6
Continuous
 62
     7
100
AcDbCircle
 10
173.8728411695
 20
464.4683791541
 30
0.0
 40
0.7500000000000007
100
AcDbArc
 50
270.0
 51
284.8116896505
  0
ARC
  5
93
330
75
100
AcDbEntity
  8
$DDT_AUDIT_GENERATED_(91)
  6
Continuous
 62
     7
100
AcDbCircle
 10
175.1728411695
 20
463.1683791541
 30
0.0
 40
2.75
100
AcDbArc
 50
312.9442812238
 51
316.7110096915
  0
LINE
  5
94
330
75
100
AcDbEntity
  8
$DDT_AUDIT_GENERATED_(91)
  6
Continuous
 62
     7
100
AcDbLine
 10
199.6228411695
 20
464.4683791541
 30
0.0
 11
199.6228411695
 21
464.80108615
 31
0.0
  0
ARC
  5
95
330
75
100
AcDbEntity
  8
$DDT_AUDIT_GENERATED_(91)
  6
Continuous
 62
     7
100
AcDbCircle
 10
201.4728411695
 20
464.4683791541
 30
0.0
 40
0.7500000000000007
100
AcDbArc
 50
255.756070602
 51
270.0
  0
ARC
  5
96
330
75
100
AcDbEntity
  8
$DDT_AUDIT_GENERATED_(91)
  6
Continuous
 62
     7
100
AcDbCircle
 10
200.1728411695
 20
463.1683791541
 30
0.0
 40
2.75
100
AcDbArc
 50
223.2889903085
 51
225.4636303844
  0
ARC
  5
97
330
75
100
AcDbEntity
  8
$DDT_AUDIT_GENERATED_(91)
  6
Continuous
 62
     7
100
AcDbCircle
 10
200.1728411695
 20
463.1683791541
 30
0.0
 40
2.75
100
AcDbArc
 50
251.1020252179
 51
252.4411536832
  0
LINE
  5
98
330
75
100
AcDbEntity
  8
$DDT_AUDIT_GENERATED_(91)
  6
Continuous
 62
     7
100
AcDbLine
 10
175.7228411695
 20
422.0688816698
 30
0.0
 11
175.7228411695
 21
421.7361746739
 31
0.0
  0
ARC
  5
99
330
75
100
AcDbEntity
  8
$DDT_AUDIT_GENERATED_(91)
  6
Continuous
 62
     7
100
AcDbCircle
 10
173.8728411695
 20
422.0688816698
 30
0.0
 40
0.7499999999999989
100
AcDbArc
 50
75.7560706025
 51
90.0
  0
ARC
  5
9A
330
75
100
AcDbEntity
  8
$DDT_AUDIT_GENERATED_(91)
  6
Continuous
 62
     7
100
AcDbCircle
 10
175.1728411695
 20
423.3688816698
 30
0.0
 40
2.75
100
AcDbArc
 50
43.2889903085
 51
46.7884128925
  0
ARC
  5
9B
330
75
100
AcDbEntity
  8
$DDT_AUDIT_GENERATED_(91)
  6
Continuous
 62
     7
100
AcDbCircle
 10
175.1728411695
 20
423.3688816698
 30
0.0
 40
2.75
100
AcDbArc
 50
67.0296844234
 51
72.4411536832
  0
LINE
  5
9D
330
75
100
AcDbEntity
  8
$DDT_AUDIT_GENERATED_(9C)
  6
Continuous
 62
     7
100
AcDbLine
 10
239.72268752
 20
318.2701815921
 30
0.0
 11
188.0728412007
 21
318.2701830511
 31
0.0
  0
LINE
  5
9E
330
75
100
AcDbEntity
  8
$DDT_AUDIT_GENERATED_(9C)
  6
Continuous
 62
     7
100
AcDbLine
 10
239.72268752
 20
318.173914411
 30
0.0
 11
239.72268752
 21
318.2701815921
 31
0.0
  0
SPLINE
  5
9F
330
75
100
AcDbEntity
  8
$DDT_AUDIT_GENERATED_(9C)
  6
Continuous
 62
     7
100
AcDbSpline
210
0.0
220
0.0
230
1.0
 70
     8
 71
     3
 72
    26
 73
    22
 74
     0
 42
0.0000000000452976
 43
0.0000000001
 40
0.0
 40
0.0
 40
0.0
 40
0.0
 40
0.03125
 40
0.0625
 40
0.09375
 40
0.15625
 40
0.21875
 40
0.28125
 40
0.34375
 40
0.40625
 40
0.46875
 40
0.53125
 40
0.5625
 40
0.625
 40
0.6875
 40
0.75
 40
0.8125
 40
0.875
 40
0.9375
 40
0.96875
 40
1.0
 40
1.0
 40
1.0
 40
1.0
 10
239.7226875200261
 20
308.2701845100602
 30
0.0
 10
241.9725128556684
 20
308.2716904167482
 30
0.0
 10
246.5941293398974
 20
308.5032581455532
 30
0.0
 10
253.3993960502797
 20
309.5127240012343
 30
0.0
 10
262.2988656682883
 20
311.7406391027924
 30
0.0
 10
272.9279937393038
 20
316.1442231880231
 30
0.0
 10
284.4133257084256
 20
323.8166245864222
 30
0.0
 10
294.1747821211331
 20
333.5810116441822
 30
0.0
 10
301.8501141644051
 20
345.0634129684956
 30
0.0
 10
307.1314844208551
 20
357.8212973027902
 30
0.0
 10
309.828811633866
 20
371.3656547430175
 30
0.0
 10
309.826102504036
 20
382.8732043547554
 30
0.0
 10
308.1445151045321
 20
394.214459600269
 30
0.0
 10
304.804502959895
 20
405.2294242093842
 30
0.0
 10
298.2941689654661
 20
417.4050073058667
 30
0.0
 10
289.5342270221721
 20
428.0830075512127
 30
0.0
 10
278.8587938547894
 20
436.8403824164301
 30
0.0
 10
266.6806436793683
 20
443.3532834885075
 30
0.0
 10
255.6678182870737
 20
446.6911564003258
 30
0.0
 10
246.5941293398969
 20
448.0371108745676
 30
0.0
 10
241.9725128556679
 20
448.2686786033724
 30
0.0
 10
239.7226872740587
 20
448.2704008943573
 30
0.0
  0
LINE
  5
A0
330
75
100
AcDbEntity
  8
$DDT_AUDIT_GENERATED_(9C)
  6
Continuous
 62
     7
100
AcDbLine
 10
239.722687226
 20
438.3655672564
 30
0.0
 11
239.7226872255
 21
438.2702318492
 31
0.0
  0
LINE
  5
A1
330
75
100
AcDbEntity
  8
$DDT_AUDIT_GENERATED_(9C)
  6
Continuous
 62
     7
100
AcDbLine
 10
239.7226872255
 20
438.2701845101
 30
0.0
 11
224.72268752
 21
438.2701845101
 31
0.0
  0
LINE
  5
A2
330
75
100
AcDbEntity
  8
$DDT_AUDIT_GENERATED_(9C)
  6
Continuous
 62
     7
100
AcDbLine
 10
224.72268752
 20
438.2702791884
 30
0.0
 11
224.72268752
 21
448.2706172787
 31
0.0
  0
LINE
  5
A3
330
75
100
AcDbEntity
  8
$DDT_AUDIT_GENERATED_(9C)
  6
Continuous
 62
     7
100
AcDbLine
 10
224.72268777
 20
448.2701845101
 30
0.0
 11
239.7226872741
 21
448.2701845101
 31
0.0
  0
LINE
  5
A4
330
75
100
AcDbEntity
  8
$DDT_AUDIT_GENERATED_(9C)
  6
Continuous
 62
     7
100
AcDbLine
 10
188.0728412007
 20
308.2701845101
 30
0.0
 11
239.72268752
 21
308.2701845101
 31
0.0
  0
LINE
  5
A5
330
75
100
AcDbEntity
  8
$DDT_AUDIT_GENERATED_(9C)
  6
Continuous
 62
     7
100
AcDbLine
 10
188.0728412007
 20
318.2701830511
 30
0.0
 11
188.0728412007
 21
308.2701845101
 31
0.0
  0
ARC
  5
A6
330
75
100
AcDbEntity
  8
$DDT_AUDIT_GENERATED_(9C)
  6
Continuous
 62
     7
100
AcDbCircle
 10
239.7252727982
 20
378.27018451
 30
0.0
 40
60.09553128321033
100
AcDbArc
 50
269.9975351656
 51
90.0024650043
  0
SPLINE
  5
A7
330
75
100
AcDbEntity
  8
$DDT_AUDIT_GENERATED_(9C)
  6
Continuous
 62
     7
100
AcDbSpline
210
0.0
220
0.0
230
1.0
 70
     8
 71
     3
 72
    26
 73
    22
 74
     0
 42
0.0000000000452976
 43
0.0000000001
 40
0.0
 40
0.0
 40
0.0
 40
0.0
 40
0.03125
 40
0.0625
 40
0.09375
 40
0.15625
 40
0.21875
 40
0.28125
 40
0.34375
 40
0.40625
 40
0.46875
 40
0.53125
 40
0.5625
 40
0.625
 40
0.6875
 40
0.75
 40
0.8125
 40
0.875
 40
0.9375
 40
0.96875
 40
1.0
 40
1.0
 40
1.0
 40
1.0
 10
135.6229948189442
 20
308.2683696063523
 30
0.0
 10
133.3731694833019
 20
308.2698725951273
 30
0.0
 10
128.7515529990728
 20
308.5014403239322
 30
0.0
 10
121.9462862886904
 20
309.5109061796133
 30
0.0
 10
113.0468166706819
 20
311.7388212811712
 30
0.0
 10
102.4176885996665
 20
316.1424053664023
 30
0.0
 10
90.93235663054466
 20
323.8148067648013
 30
0.0
 10
81.17090021783716
 20
333.5791938225613
 30
0.0
 10
73.49556817456515
 20
345.0615951468747
 30
0.0
 10
68.21419791811515
 20
357.8194794811693
 30
0.0
 10
65.51687070510417
 20
371.3638369213967
 30
0.0
 10
65.51957983493418
 20
382.8713865331345
 30
0.0
 10
67.20116723443815
 20
394.2126417786482
 30
0.0
 10
70.54117937907517
 20
405.2276063877634
 30
0.0
 10
77.05151337350416
 20
417.4031894842458
 30
0.0
 10
85.81145531679815
 20
428.0811897295918
 30
0.0
 10
96.48688848418085
 20
436.8385645948092
 30
0.0
 10
108.665038659602
 20
443.3514656668866
 30
0.0
 10
119.6778640518966
 20
446.6893385787049
 30
0.0
 10
128.7515529990734
 20
448.0352930529467
 30
0.0
 10
133.3731694833023
 20
448.2668607817514
 30
0.0
 10
135.6229950780007
 20
448.2682404786516
 30
0.0
  0
LINE
  5
A8
330
75
100
AcDbEntity
  8
$DDT_AUDIT_GENERATED_(9C)
  6
Continuous
 62
     7
100
AcDbLine
 10
150.6229945689
 20
448.2681142689
 30
0.0
 11
135.622995078
 21
448.2681142689
 31
0.0
  0
LINE
  5
A9
330
75
100
AcDbEntity
  8
$DDT_AUDIT_GENERATED_(9C)
  6
Continuous
 62
     7
100
AcDbLine
 10
150.6229948189
 20
443.2683663647
 30
0.0
 11
150.6229948189
 21
448.2681142689
 31
0.0
  0
LINE
  5
AA
330
75
100
AcDbEntity
  8
$DDT_AUDIT_GENERATED_(9C)
  6
Continuous
 62
     7
100
AcDbLine
 10
150.6229948189
 20
443.2683663647
 30
0.0
 11
150.6229948189
 21
438.2686191082
 31
0.0
  0
LINE
  5
AB
330
75
100
AcDbEntity
  8
$DDT_AUDIT_GENERATED_(9C)
  6
Continuous
 62
     7
100
AcDbLine
 10
135.6229950788
 20
438.268619108
 30
0.0
 11
150.6229945689
 21
438.268619108
 31
0.0
  0
SPLINE
  5
AC
330
75
100
AcDbEntity
  8
$DDT_AUDIT_GENERATED_(9C)
  6
Continuous
 62
     7
100
AcDbSpline
210
0.0
220
0.0
230
1.0
 70
     8
 71
     3
 72
    26
 73
    22
 74
     0
 42
0.0000000000528343
 43
0.0000000001
 40
0.0
 40
0.0
 40
0.0
 40
0.0
 40
0.03125
 40
0.0625
 40
0.125
 40
0.1875
 40
0.25
 40
0.3125
 40
0.375
 40
0.4375
 40
0.46875
 40
0.53125
 40
0.59375
 40
0.65625
 40
0.71875
 40
0.78125
 40
0.84375
 40
0.90625
 40
0.9375
 40
0.96875
 40
1.0
 40
1.0
 40
1.0
 40
1.0
 10
135.622995078756
 20
438.2684928982267
 30
0.0
 10
133.6185817822773
 20
438.2698725951269
 30
0.0
 10
129.7317243408146
 20
438.0834457801622
 30
0.0
 10
121.9523444030643
 20
436.9294838987393
 30
0.0
 10
112.5104347836316
 20
434.0677392084168
 30
0.0
 10
102.0694269097941
 20
428.4838656664242
 30
0.0
 10
92.91678251100377
 20
420.9756795386467
 30
0.0
 10
85.40639529877717
 20
411.8208340555533
 30
0.0
 10
79.82472284164216
 20
401.3820272686569
 30
0.0
 10
76.96114391538217
 20
391.9382834364264
 30
0.0
 10
75.51942525780916
 20
382.2147924577984
 30
0.0
 10
75.51710257079216
 20
372.3487280344006
 30
0.0
 10
77.82967170280116
 20
360.7363945957885
 30
0.0
 10
82.35768513501618
 20
349.7983484504221
 30
0.0
 10
88.93817559030114
 20
339.9538450494042
 30
0.0
 10
97.30721688176506
 20
331.5822911617357
 30
0.0
 10
107.1542328782626
 20
325.0043133027663
 30
0.0
 10
116.2671774954846
 20
321.2288749464493
 30
0.0
 10
123.8971893875017
 20
319.3187590077833
 30
0.0
 10
129.7317243408143
 20
318.4532875967163
 30
0.0
 10
133.6185817822769
 20
318.2668607817512
 30
0.0
 10
135.6229948189442
 20
318.2683647431633
 30
0.0
  0
LINE
  5
AD
330
75
100
AcDbEntity
  8
$DDT_AUDIT_GENERATED_(9C)
  6
Continuous
 62
     7
100
AcDbLine
 10
187.2728411382
 20
318.2683647432
 30
0.0
 11
135.6229948189
 21
318.2683647432
 31
0.0
  0
LINE
  5
AE
330
75
100
AcDbEntity
  8
$DDT_AUDIT_GENERATED_(9C)
  6
Continuous
 62
     7
100
AcDbLine
 10
187.2728411382
 20
313.268363302
 30
0.0
 11
187.2728411382
 21
318.2683618253
 31
0.0
  0
LINE
  5
AF
330
75
100
AcDbEntity
  8
$DDT_AUDIT_GENERATED_(9C)
  6
Continuous
 62
     7
100
AcDbLine
 10
187.2728411382
 20
308.2683681474
 30
0.0
 11
135.6229948189
 21
308.2683696064
 31
0.0
  0
LINE
  5
B0
330
75
100
AcDbEntity
  8
$DDT_AUDIT_GENERATED_(9C)
  6
Continuous
 62
     7
100
AcDbLine
 10
187.2728411382
 20
308.2683715516
 30
0.0
 11
187.2728411382
 21
313.268363302
 31
0.0
  0
LINE
  5
B2
330
75
100
AcDbEntity
  8
$DDT_AUDIT_GENERATED_(B1)
  6
Continuous
 62
     7
100
AcDbLine
 10
187.2728412007
 20
308.2681976227
 30
0.0
 11
187.2728412007
 21
318.2685357541
 31
0.0
  0
LINE
  5
B3
330
75
100
AcDbEntity
  8
$DDT_AUDIT_GENERATED_(B1)
  6
Continuous
 62
     7
100
AcDbLine
 10
188.0728412007
 20
308.2681976227
 30
0.0
 11
188.0728412007
 21
318.2685357541
 31
0.0
  0
LINE
  5
B4
330
75
100
AcDbEntity
  8
$DDT_AUDIT_GENERATED_(B1)
  6
Continuous
 62
     7
100
AcDbLine
 10
187.2728412007
 20
318.2685357541
 30
0.0
 11
188.0728412007
 21
318.2685357541
 31
0.0
  0
LINE
  5
B5
330
75
100
AcDbEntity
  8
$DDT_AUDIT_GENERATED_(B1)
  6
Continuous
 62
     7
100
AcDbLine
 10
187.2728412007
 20
308.2681976227
 30
0.0
 11
188.0728412007
 21
308.2681976227
 31
0.0
  0
ARC
  5
B6
330
75
100
AcDbEntity
  8
$DDT_AUDIT_GENERATED_(91)
  6
Continuous
 62
     7
100
AcDbCircle
 10
201.4728411695
 20
422.0688816698
 30
0.0
 40
0.7499999999999972
100
AcDbArc
 50
90.0
 51
104.8116896505
  0
ARC
  5
B7
330
75
100
AcDbEntity
  8
$DDT_AUDIT_GENERATED_(91)
  6
Continuous
 62
     7
100
AcDbCircle
 10
200.1728411695
 20
423.3688816698
 30
0.0
 40
2.75
100
AcDbArc
 50
107.5588463168
 51
109.7494530909
  0
ARC
  5
B9
330
75
100
AcDbEntity
  8
$DDT_AUDIT_GENERATED_(B8)
  6
Continuous
 62
     7
100
AcDbCircle
 10
167.9557950957
 20
-15516.4099947963
 30
0.0
 40
15954.68804018558
100
AcDbArc
 50
90.0338985877
 51
90.0622448083
  0
ARC
  5
BA
330
75
100
AcDbEntity
  8
$DDT_AUDIT_GENERATED_(B8)
  6
Continuous
 62
     7
100
AcDbCircle
 10
207.3898872433
 20
-15516.4099947968
 30
0.0
 40
15954.68804018606
100
AcDbArc
 50
89.9377551917
 51
89.9515534699
  0
LINE
  5
BB
330
75
100
AcDbEntity
  8
$DDT_AUDIT_GENERATED_(B8)
  6
Continuous
 62
     7
100
AcDbLine
 10
224.72268752
 20
438.2686304119
 30
0.0
 11
224.72268752
 21
448.2686304119
 31
0.0
  0
ARC
  5
BC
330
75
100
AcDbEntity
  8
$DDT_AUDIT_GENERATED_(B8)
  6
Continuous
 62
     7
100
AcDbCircle
 10
207.2333993134
 20
14431.4230351162
 30
0.0
 40
13983.16534197474
100
AcDbArc
 50
270.0394929906
 51
270.0716620763
  0
ARC
  5
BD
330
75
100
AcDbEntity
  8
$DDT_AUDIT_GENERATED_(B8)
  6
Continuous
 62
     7
100
AcDbCircle
 10
168.1122830256
 20
14431.4230351082
 30
0.0
 40
13983.16534196667
100
AcDbArc
 50
269.9283379237
 51
269.9438829699
  0
LINE
  5
BE
330
75
100
AcDbEntity
  8
$DDT_AUDIT_GENERATED_(B8)
  6
Continuous
 62
     7
100
AcDbLine
 10
150.6229948189
 20
448.2686304119
 30
0.0
 11
150.6229948189
 21
438.2686304119
 31
0.0
  0
ARC
  5
BF
330
75
100
AcDbEntity
  8
$DDT_AUDIT_GENERATED_(B8)
  6
Continuous
 62
     7
100
AcDbCircle
 10
187.6780352036
 20
443.2708400729
 30
0.0
 40
20.65019912577025
100
AcDbArc
 50
194.0060612467
 51
247.4903415825
  0
ARC
  5
C0
330
75
100
AcDbEntity
  8
$DDT_AUDIT_GENERATED_(B8)
  6
Continuous
 62
     7
100
AcDbCircle
 10
187.6732876242
 20
443.2559963682
 30
0.0
 40
20.63466876995147
100
AcDbArc
 50
247.4867406052
 51
269.9987604485
  0
ARC
  5
C1
330
75
100
AcDbEntity
  8
$DDT_AUDIT_GENERATED_(B8)
  6
Continuous
 62
     7
100
AcDbCircle
 10
187.6723539347
 20
443.2562012478
 30
0.0
 40
20.63487365047912
100
AcDbArc
 50
270.0013529879
 51
292.5131461753
  0
ARC
  5
C2
330
75
100
AcDbEntity
  8
$DDT_AUDIT_GENERATED_(B8)
  6
Continuous
 62
     7
100
AcDbCircle
 10
187.6678179634
 20
443.2707259369
 30
0.0
 40
20.65002828582756
100
AcDbArc
 50
292.5093417852
 51
345.969985423
  0
ARC
  5
C3
330
75
100
AcDbEntity
  8
$DDT_AUDIT_GENERATED_(B8)
  6
Continuous
 62
     7
100
AcDbCircle
 10
187.667647135
 20
443.2664207506
 30
0.0
 40
20.65019912624135
100
AcDbArc
 50
13.9931544961
 51
67.4903415819
  0
ARC
  5
C4
330
75
100
AcDbEntity
  8
$DDT_AUDIT_GENERATED_(B8)
  6
Continuous
 62
     7
100
AcDbCircle
 10
187.6723948124
 20
443.2812649462
 30
0.0
 40
20.63466827935894
100
AcDbArc
 50
67.4867403341
 51
89.9987607196
  0
ARC
  5
C5
330
75
100
AcDbEntity
  8
$DDT_AUDIT_GENERATED_(B8)
  6
Continuous
 62
     7
100
AcDbCircle
 10
187.6733284043
 20
443.2810595761
 30
0.0
 40
20.63487365047912
100
AcDbArc
 50
90.0013529879
 51
112.5131461753
  0
ARC
  5
C6
330
75
100
AcDbEntity
  8
$DDT_AUDIT_GENERATED_(B8)
  6
Continuous
 62
     7
100
AcDbCircle
 10
187.6778643757
 20
443.2665348868
 30
0.0
 40
20.65002828603652
100
AcDbArc
 50
112.5093417853
 51
165.9733597059
  0
LINE
  5
C7
330
75
100
AcDbEntity
  8
$DDT_AUDIT_GENERATED_(B8)
  6
Continuous
 62
     7
100
AcDbLine
 10
135.6228411695
 20
439.7686304119
 30
0.0
 11
135.6228411695
 21
446.7686304119
 31
0.0
  0
ARC
  5
C8
330
75
100
AcDbEntity
  8
$DDT_AUDIT_GENERATED_(B8)
  6
Continuous
 62
     7
100
AcDbCircle
 10
185.8724776148
 20
4478.1991965867
 30
0.0
 40
4030.057197632999
100
AcDbArc
 50
269.5527247811
 51
270.4408381664
  0
ARC
  5
C9
330
75
100
AcDbEntity
  8
$DDT_AUDIT_GENERATED_(B8)
  6
Continuous
 62
     7
100
AcDbCircle
 10
189.4713732105
 20
-3554.7015343798
 30
0.0
 40
3993.097582926844
100
AcDbArc
 50
89.5492543773
 51
90.4442824205
  0
LINE
  5
CA
330
75
100
AcDbEntity
  8
$DDT_AUDIT_GENERATED_(B8)
  6
Continuous
 62
     7
100
AcDbLine
 10
166.1669966965
 20
448.2552613535
 30
0.0
 11
165.7760530019
 21
448.2543453259
 31
0.0
  0
SPLINE
  5
CB
330
75
100
AcDbEntity
  8
$DDT_AUDIT_GENERATED_(B8)
  6
Continuous
 62
     7
100
AcDbSpline
210
0.0
220
0.0
230
1.0
 70
     8
 71
     3
 72
    16
 73
    12
 74
     0
 42
0.0000000007976586
 43
0.0000000001
 40
0.463169610687436
 40
0.463169610687436
 40
0.463169610687436
 40
0.463169610687436
 40
0.5066788973119645
 40
0.572119820761705
 40
0.6407913148321046
 40
0.7101428783050353
 40
0.7767736890021062
 40
0.8407727861074118
 40
0.9021840279106231
 40
0.9610975055880597
 40
1.0
 40
1.0
 40
1.0
 40
1.0
 10
172.8959043004723
 20
448.3114879124135
 30
0.0
 10
172.8955477173164
 20
448.3125581453086
 30
0.0
 10
172.8489016171
 20
448.3124695837652
 30
0.0
 10
172.5917728156465
 20
448.3052635664768
 30
0.0
 10
172.0369575730471
 20
448.2934707413424
 30
0.0
 10
171.2748997981008
 20
448.2821021653757
 30
0.0
 10
170.3910181947202
 20
448.273406158097
 30
0.0
 10
169.3793058569501
 20
448.2667073792043
 30
0.0
 10
168.2687513562329
 20
448.2614139087145
 30
0.0
 10
167.1711326337601
 20
448.2574376964949
 30
0.0
 10
166.4884459069308
 20
448.2559483664492
 30
0.0
 10
166.1669966965011
 20
448.2552613534633
 30
0.0
  0
LINE
  5
CC
330
75
100
AcDbEntity
  8
$DDT_AUDIT_GENERATED_(B8)
  6
Continuous
 62
     7
100
AcDbLine
 10
209.1886778992
 20
438.2818921142
 30
0.0
 11
209.5697855697
 21
438.2829157713
 31
0.0
  0
SPLINE
  5
CD
330
75
100
AcDbEntity
  8
$DDT_AUDIT_GENERATED_(B8)
  6
Continuous
 62
     7
100
AcDbSpline
210
0.0
220
0.0
230
1.0
 70
     8
 71
     3
 72
    16
 73
    12
 74
     0
 42
0.0000000007962977
 43
0.0000000001
 40
0.4660170847220592
 40
0.4660170847220592
 40
0.4660170847220592
 40
0.4660170847220592
 40
0.5061014311601817
 40
0.5721912053757535
 40
0.640983883199842
 40
0.7101822003147567
 40
0.7766652038468217
 40
0.8405357528835576
 40
0.9018513892571965
 40
0.960712539989032
 40
1.0
 40
1.0
 40
1.0
 40
1.0
 10
202.4840896018547
 20
438.2244436899178
 30
0.0
 10
202.4844106305326
 20
438.2233326869261
 30
0.0
 10
202.526778331635
 20
438.2229435237053
 30
0.0
 10
202.7742380177475
 20
438.229606701856
 30
0.0
 10
203.3302493859299
 20
438.2412209814273
 30
0.0
 10
204.0929143246502
 20
438.2524731003053
 30
0.0
 10
204.9734893057829
 20
438.2613206115289
 30
0.0
 10
205.9807998393856
 20
438.2685110915045
 30
0.0
 10
207.0863794187603
 20
438.2745590317878
 30
0.0
 10
208.1822208949855
 20
438.2794374953464
 30
0.0
 10
208.8650317524898
 20
438.281110543859
 30
0.0
 10
209.1886778991794
 20
438.2818921141537
 30
0.0
  0
ARC
  5
CF
330
75
100
AcDbEntity
  8
$DDT_AUDIT_GENERATED_(CE)
  6
Continuous
 62
     7
100
AcDbCircle
 10
187.6728411695
 20
443.2686304119
 30
0.0
 40
30.0
100
AcDbArc
 50
54.3278486189
 51
56.0978776709
  0
ARC
  5
D0
330
75
100
AcDbEntity
  8
$DDT_AUDIT_GENERATED_(CE)
  6
Continuous
 62
     7
100
AcDbCircle
 10
187.6728411695
 20
443.2686304119
 30
0.0
 40
30.0
100
AcDbArc
 50
266.4803876515
 51
270.531058288
  0
ARC
  5
D1
330
75
100
AcDbEntity
  8
$DDT_AUDIT_GENERATED_(CE)
  6
Continuous
 62
     7
100
AcDbCircle
 10
187.6728411695
 20
443.2686304119
 30
0.0
 40
30.0
100
AcDbArc
 50
123.9021223291
 51
126.7464293333
  0
LINE
  5
D2
330
75
100
AcDbEntity
  8
$DDT_AUDIT_GENERATED_(CE)
  6
Continuous
 62
     7
100
AcDbLine
 10
170.9395655613
 20
468.1683791541
 30
0.0
 11
171.054995926
 21
468.1683791541
 31
0.0
  0
LINE
  5
D3
330
75
100
AcDbEntity
  8
$DDT_AUDIT_GENERATED_(CE)
  6
Continuous
 62
     7
100
AcDbLine
 10
204.2907320764
 20
468.1683791541
 30
0.0
 11
204.4061167776
 21
468.1683791541
 31
0.0
  0
ENDBLK
  5
D5
330
75
100
AcDbEntity
  8
0
100
AcDbBlockEnd
  0
BLOCK
  5
103
330
D6
100
AcDbEntity
  8
0
100
AcDbBlockBegin
  2
SE1
 70
     0
 10
0.0
 20
0.0
 30
0.0
  3
SE1
  1

  0
LINE
  5
D8
330
D6
100
AcDbEntity
  8
$DDT_AUDIT_GENERATED_(77)
  6
Continuous
 62
     7
100
AcDbLine
 10
418.0644611346
 20
472.2686303971
 30
0.0
 11
418.0644611346
 21
414.2686291338
 31
0.0
  0
LINE
  5
D9
330
D6
100
AcDbEntity
  8
$DDT_AUDIT_GENERATED_(77)
  6
Continuous
 62
     7
100
AcDbLine
 10
412.3644611346
 20
473.2686362787
 30
0.0
 11
412.3644611346
 21
413.2685798251
 31
0.0
  0
SPLINE
  5
DA
330
D6
100
AcDbEntity
  8
$DDT_AUDIT_GENERATED_(77)
  6
Continuous
 62
     7
100
AcDbSpline
210
0.0
220
0.0
230
1.0
 70
     8
 71
     3
 72
    13
 73
     9
 74
     0
 42
0.0000000063014675
 43
0.0000000001
 40
0.0
 40
0.0
 40
0.0
 40
0.0
 40
0.1294353584796121
 40
0.2550301072098068
 40
0.4999999914726229
 40
0.7449698805975513
 40
0.8705646348070479
 40
1.0
 40
1.0
 40
1.0
 40
1.0
 10
417.0644611196494
 20
413.268629065991
 30
0.0
 10
417.1386404986114
 20
413.2723100757411
 30
0.0
 10
417.2625519653645
 20
413.280383404588
 30
0.0
 10
417.5174974783561
 20
413.3604545080188
 30
0.0
 10
417.7890871961127
 20
413.5440030247224
 30
0.0
 10
417.9726356986862
 20
413.8155927546505
 30
0.0
 10
418.0527067966761
 20
414.0705382784308
 30
0.0
 10
418.060780125043
 20
414.1944497509913
 30
0.0
 10
418.0644611345503
 20
414.2686291338224
 30
0.0
  0
SPLINE
  5
DB
330
D6
100
AcDbEntity
  8
$DDT_AUDIT_GENERATED_(77)
  6
Continuous
 62
     7
100
AcDbSpline
210
0.0
220
0.0
230
1.0
 70
     8
 71
     3
 72
    13
 73
     9
 74
     0
 42
0.0000000063014676
 43
0.0000000001
 40
0.0
 40
0.0
 40
0.0
 40
0.0
 40
0.1294353618362314
 40
0.2550301133060648
 40
0.4999999999999997
 40
0.7449698866939336
 40
0.8705646381637674
 40
1.0
 40
1.0
 40
1.0
 40
1.0
 10
418.0644611345503
 20
472.2686303971297
 30
0.0
 10
418.0607801250191
 20
472.3428097760631
 30
0.0
 10
418.0527067966258
 20
472.4667212424405
 30
0.0
 10
417.9726356980345
 20
472.7216667540791
 30
0.0
 10
417.7890871932535
 20
472.9932564707338
 30
0.0
 10
417.5174974765987
 20
473.1768049755148
 30
0.0
 10
417.2625519649602
 20
473.2568760741062
 30
0.0
 10
417.1386404985827
 20
473.2649494024994
 30
0.0
 10
417.0644611196494
 20
473.2686304120307
 30
0.0
  0
LINE
  5
DC
330
D6
100
AcDbEntity
  8
$DDT_AUDIT_GENERATED_(77)
  6
Continuous
 62
     7
100
AcDbLine
 10
417.0694611196
 20
473.2686362787
 30
0.0
 11
412.3644611346
 21
473.2686362787
 31
0.0
  0
LINE
  5
DD
330
D6
100
AcDbEntity
  8
$DDT_AUDIT_GENERATED_(77)
  6
Continuous
 62
     7
100
AcDbLine
 10
412.3644611346
 20
413.2685798251
 30
0.0
 11
417.0694611196
 21
413.2685798251
 31
0.0
  0
LINE
  5
DE
330
D6
100
AcDbEntity
  8
$DDT_AUDIT_GENERATED_(86)
  6
Continuous
 62
     7
100
AcDbLine
 10
419.0526229269
 20
443.2686304119
 30
0.0
 11
419.0526256763
 21
428.8555254401
 31
0.0
  0
LINE
  5
DF
330
D6
100
AcDbEntity
  8
$DDT_AUDIT_GENERATED_(86)
  6
Continuous
 62
     7
100
AcDbLine
 10
419.0526256763
 20
457.6817353837
 30
0.0
 11
419.0526229269
 21
443.2686304119
 31
0.0
  0
SPLINE
  5
E0
330
D6
100
AcDbEntity
  8
$DDT_AUDIT_GENERATED_(86)
  6
Continuous
 62
     7
100
AcDbSpline
210
0.0
220
0.0
230
1.0
 70
     8
 71
     3
 72
    17
 73
    13
 74
     0
 42
0.000000001553544
 43
0.0000000001
 40
0.0
 40
0.0
 40
0.0
 40
0.0
 40
0.0833354487014831
 40
0.1663736216528879
 40
0.2494866424919604
 40
0.3752626340111653
 40
0.5000479199939184
 40
0.6246601036732432
 40
0.7502964613493427
 40
0.8754314240554908
 40
0.9377169111661814
 40
1.0
 40
1.0
 40
1.0
 40
1.0
 10
419.0526256762913
 20
457.6817353836993
 30
0.0
 10
419.052561005575
 20
458.0134292021218
 30
0.0
 10
419.0524318948371
 20
458.6756336146582
 30
0.0
 10
419.0523023845947
 20
459.5816232121387
 30
0.0
 10
419.0522642256569
 20
460.5607864943489
 30
0.0
 10
419.0521589297401
 20
461.5492830023111
 30
0.0
 10
419.0521743203563
 20
462.4743434023587
 30
0.0
 10
419.0522629240527
 20
463.2036752998891
 30
0.0
 10
419.0524107719488
 20
463.7310609219445
 30
0.0
 10
419.0525420060216
 20
463.9941010397964
 30
0.0
 10
419.052602046696
 20
464.1033795964585
 30
0.0
 10
419.0526140356151
 20
464.113546872017
 30
0.0
 10
419.0526256762913
 20
464.1186304119227
 30
0.0
  0
SPLINE
  5
E1
330
D6
100
AcDbEntity
  8
$DDT_AUDIT_GENERATED_(86)
  6
Continuous
 62
     7
100
AcDbSpline
210
0.0
220
0.0
230
1.0
 70
     8
 71
     3
 72
    17
 73
    13
 74
     0
 42
0.000000001553544
 43
0.0000000001
 40
0.0
 40
0.0
 40
0.0
 40
0.0
 40
0.0627289163599583
 40
0.1254602832760826
 40
0.2499137825791045
 40
0.3746483269236378
 40
0.500297641949969
 40
0.6249459110890658
 40
0.7494413562942406
 40
0.8749659811880093
 40
0.9374489124370873
 40
1.0
 40
1.0
 40
1.0
 40
1.0
 10
419.0526256762913
 20
422.4186304119227
 30
0.0
 10
419.0526139190314
 20
422.4237863613099
 30
0.0
 10
419.0526016969368
 20
422.4340984615056
 30
0.0
 10
419.0525414640294
 20
422.5442540731188
 30
0.0
 10
419.0524104526761
 20
422.8070883409515
 30
0.0
 10
419.0522635503626
 20
423.3332755474111
 30
0.0
 10
419.052172228939
 20
424.0623023927401
 30
0.0
 10
419.0521665407467
 20
424.9868800917131
 30
0.0
 10
419.052248889748
 20
426.0958542594876
 30
0.0
 10
419.0523879255352
 20
427.1684404792121
 30
0.0
 10
419.0525125478952
 20
428.105576327762
 30
0.0
 10
419.0525879531247
 20
428.6054515749703
 30
0.0
 10
419.0526256762913
 20
428.8555254401131
 30
0.0
  0
LINE
  5
E2
330
D6
100
AcDbEntity
  8
$DDT_AUDIT_GENERATED_(86)
  6
Continuous
 62
     7
100
AcDbLine
 10
419.009656642
 20
464.108974463
 30
0.0
 11
418.1560477898
 21
467.916736221
 31
0.0
  0
LINE
  5
E3
330
D6
100
AcDbEntity
  8
$DDT_AUDIT_GENERATED_(86)
  6
Continuous
 62
     7
100
AcDbLine
 10
418.1560477898
 20
418.6205246028
 30
0.0
 11
419.00965668
 21
422.4282865301
 31
0.0
  0
LINE
  5
E4
330
D6
100
AcDbEntity
  8
$DDT_AUDIT_GENERATED_(86)
  6
Continuous
 62
     7
100
AcDbLine
 10
418.1694611346
 20
467.9186304119
 30
0.0
 11
418.0644611346
 21
467.9186304119
 31
0.0
  0
LINE
  5
E5
330
D6
100
AcDbEntity
  8
$DDT_AUDIT_GENERATED_(86)
  6
Continuous
 62
     7
100
AcDbLine
 10
418.0644611346
 20
418.6186304119
 30
0.0
 11
418.1694611346
 21
418.6186304119
 31
0.0
  0
LINE
  5
E6
330
D6
100
AcDbEntity
  8
$DDT_AUDIT_GENERATED_(9C)
  6
Continuous
 62
     7
100
AcDbLine
 10
477.57790343
 20
438.2515802524
 30
0.0
 11
477.57790343
 21
407.2197343378
 31
0.0
  0
LINE
  5
E7
330
D6
100
AcDbEntity
  8
$DDT_AUDIT_GENERATED_(9C)
  6
Continuous
 62
     7
100
AcDbLine
 10
477.57790343
 20
402.93302834
 30
0.0
 11
477.57790343
 21
369.2289437387
 31
0.0
  0
LINE
  5
E8
330
D6
100
AcDbEntity
  8
$DDT_AUDIT_GENERATED_(9C)
  6
Continuous
 62
     7
100
AcDbLine
 10
477.57790343
 20
360.5766282647
 30
0.0
 11
477.57790343
 21
332.8806857156
 31
0.0
  0
LINE
  5
E9
330
D6
100
AcDbEntity
  8
$DDT_AUDIT_GENERATED_(9C)
  6
Continuous
 62
     7
100
AcDbLine
 10
477.57790343
 20
316.8140026477
 30
0.0
 11
477.57790343
 21
313.7034408757
 31
0.0
  0
ARC
  5
EA
330
D6
100
AcDbEntity
  8
$DDT_AUDIT_GENERATED_(9C)
  6
Continuous
 62
     7
100
AcDbCircle
 10
565.5316748825
 20
313.0070331928
 30
0.0
 40
87.95566850201199
100
AcDbArc
 50
178.3762432063
 51
179.5090787699
  0
ARC
  5
EB
330
D6
100
AcDbEntity
  8
$DDT_AUDIT_GENERATED_(9C)
  6
Continuous
 62
     7
100
AcDbCircle
 10
-12585.9971938589
 20
378.2701162145
 30
0.0
 40
13064.74753340073
100
AcDbArc
 50
359.7279206912
 51
359.7280202038
  0
ARC
  5
EC
330
D6
100
AcDbEntity
  8
$DDT_AUDIT_GENERATED_(9C)
  6
Continuous
 62
     7
100
AcDbCircle
 10
482.5755898009
 20
313.2683652295
 30
0.0
 40
4.999998543295721
100
AcDbArc
 50
159.3965931534
 51
270.0017197245
  0
ARC
  5
ED
330
D6
100
AcDbEntity
  8
$DDT_AUDIT_GENERATED_(9C)
  6
Continuous
 62
     7
100
AcDbCircle
 10
482.5755424731
 20
443.2684985502
 30
0.0
 40
5.000084526470938
100
AcDbArc
 50
89.9977382026
 51
270.0022620696
  0
SPLINE
  5
EE
330
D6
100
AcDbEntity
  8
$DDT_AUDIT_GENERATED_(9C)
  6
Continuous
 62
     7
100
AcDbSpline
210
0.0
220
0.0
230
1.0
 70
     8
 71
     5
 72
    17
 73
    11
 74
     0
 42
0.0000000012619775
 43
0.0000000001
 40
0.0
 40
0.0
 40
0.0
 40
0.0
 40
0.0
 40
0.0
 40
0.2500000558311412
 40
0.3750000837467124
 40
0.5000001116622824
 40
0.625000139577854
 40
0.7500001674934247
 40
1.0
 40
1.0
 40
1.0
 40
1.0
 40
1.0
 40
1.0
 10
489.5757437045629
 20
308.2683696063523
 30
0.0
 10
489.9684424402607
 20
308.2683715516951
 30
0.0
 10
490.557482420229
 20
308.32638725865
 30
0.0
 10
491.3277754982209
 20
308.5182866205776
 30
0.0
 10
492.2277926220484
 20
308.9453534664859
 30
0.0
 10
493.1452640841041
 20
309.6982986471853
 30
0.0
 10
493.8999309377791
 20
310.6168376669585
 30
0.0
 10
494.323338671072
 20
311.5158515876288
 30
0.0
 10
494.521289628429
 20
312.2874743345612
 30
0.0
 10
494.5759843114932
 20
312.875625949734
 30
0.0
 10
494.5757412729683
 20
313.2683673657293
 30
0.0
  0
ARC
  5
EF
330
D6
100
AcDbEntity
  8
$DDT_AUDIT_GENERATED_(9C)
  6
Continuous
 62
     7
100
AcDbCircle
 10
489.5771296828
 20
443.269628921
 30
0.0
 40
4.99861174975641
100
AcDbArc
 50
359.9855240994
 51
90.0158860625
  0
LINE
  5
F0
330
D6
100
AcDbEntity
  8
$DDT_AUDIT_GENERATED_(9C)
  6
Continuous
 62
     7
100
AcDbLine
 10
494.575741273
 20
443.2683660111
 30
0.0
 11
494.575741273
 21
313.2683673657
 31
0.0
  0
LINE
  5
F1
330
D6
100
AcDbEntity
  8
$DDT_AUDIT_GENERATED_(9C)
  6
Continuous
 62
     7
100
AcDbLine
 10
489.5757437046
 20
308.2683696064
 30
0.0
 11
482.5757398751
 21
308.2683666884
 31
0.0
  0
SPLINE
  5
F2
330
D6
100
AcDbEntity
  8
$DDT_AUDIT_GENERATED_(9C)
  6
Continuous
 62
     7
100
AcDbSpline
210
0.0
220
0.0
230
1.0
 70
     8
 71
     5
 72
    12
 73
     6
 74
     0
 42
0.0000000014285706
 43
0.0000000001
 40
0.0
 40
0.0
 40
0.0
 40
0.0
 40
0.0
 40
0.0
 40
1.0
 40
1.0
 40
1.0
 40
1.0
 40
1.0
 40
1.0
 10
482.5757398554923
 20
448.2685830727363
 30
0.0
 10
483.9757406409868
 20
448.2683666884392
 30
0.0
 10
485.3757414068808
 20
448.2683666884392
 30
0.0
 10
486.7757421727749
 20
448.2683666884392
 30
0.0
 10
488.1757429386688
 20
448.2683666884392
 30
0.0
 10
489.5757437471969
 20
448.2682404786516
 30
0.0
  0
SPLINE
  5
F3
330
D6
100
AcDbEntity
  8
$DDT_AUDIT_GENERATED_(9C)
  6
Continuous
 62
     7
100
AcDbSpline
210
0.0
220
0.0
230
1.0
 70
     8
 71
     3
 72
    54
 73
    50
 74
     0
 42
0.0000000000722143
 43
0.0000000001
 40
0.0450940065791084
 40
0.0450940065791084
 40
0.0450940065791084
 40
0.0450940065791084
 40
0.0480605753150659
 40
0.0533120643287007
 40
0.0698837004808678
 40
0.0849997631002439
 40
0.0986394395890596
 40
0.1113070265342584
 40
0.1240274646856681
 40
0.1368306589434984
 40
0.1616403178445468
 40
0.186753699425763
 40
0.2121688307396795
 40
0.237356320129461
 40
0.2618688913397689
 40
0.2857071458549016
 40
0.3088688299473642
 40
0.3313522670244894
 40
0.3533021325338714
 40
0.375272712548392
 40
0.3973204161716328
 40
0.4194440887550395
 40
0.4416411281659721
 40
0.4639107276791389
 40
0.4863631009877869
 40
0.5056161721613452
 40
0.5254156544794004
 40
0.5457617257986723
 40
0.5666547751252936
 40
0.5880940601618735
 40
0.6100785775747473
 40
0.6326086175685343
 40
0.6556849837561349
 40
0.6793076699989389
 40
0.702901611288984
 40
0.7259973641762058
 40
0.748594296036395
 40
0.7706940179131764
 40
0.7922982807363445
 40
0.8134077837690047
 40
0.8340205678516193
 40
0.8541345632586691
 40
0.8737896400289327
 40
0.8889268622784162
 40
0.9047286820469407
 40
0.9211823255924263
 40
0.9382704315328219
 40
0.955970476255188
 40
0.9594160765347997
 40
0.9594160765347997
 40
0.9594160765347997
 40
0.9594160765347997
 10
477.670225085024
 20
441.594097677882
 30
0.0
 10
477.664509884251
 20
441.5931680123896
 30
0.0
 10
477.6491928339699
 20
441.5885924973021
 30
0.0
 10
477.6126047554478
 20
441.5341674665092
 30
0.0
 10
477.58312021981
 20
441.326998665866
 30
0.0
 10
477.5747534719193
 20
440.8151372118627
 30
0.0
 10
477.5748972926464
 20
440.0999476219013
 30
0.0
 10
477.5748605749762
 20
439.2109159648325
 30
0.0
 10
477.5748701377901
 20
438.2688081600671
 30
0.0
 10
477.5748669953104
 20
436.8930186664529
 30
0.0
 10
477.5748684895053
 20
434.9545566358105
 30
0.0
 10
477.5748679999984
 20
432.2797763887953
 30
0.0
 10
477.5748681321594
 20
429.2558598881338
 30
0.0
 10
477.5748680974775
 20
425.9419518137378
 30
0.0
 10
477.5748681068284
 20
422.4140712471729
 30
0.0
 10
477.5748681047745
 20
418.7352306916891
 30
0.0
 10
477.5748681055927
 20
414.9470311546008
 30
0.0
 10
477.5748681055903
 20
411.078016020354
 30
0.0
 10
477.5748681057081
 20
407.1204016681245
 30
0.0
 10
477.5748681056658
 20
403.0530205549281
 30
0.0
 10
477.5748681055437
 20
398.8572114342514
 30
0.0
 10
477.5748681053261
 20
394.5492076208155
 30
0.0
 10
477.5748681050291
 20
390.1488092943754
 30
0.0
 10
477.5748681046717
 20
385.6691753470668
 30
0.0
 10
477.5748681043137
 20
381.3520510571395
 30
0.0
 10
477.5748681041149
 20
377.1901031673905
 30
0.0
 10
477.5748681039926
 20
373.1744038348249
 30
0.0
 10
477.5748681039271
 20
369.0680040519338
 30
0.0
 10
477.5748681039041
 20
364.8898460093933
 30
0.0
 10
477.5748681039178
 20
360.6613007465982
 30
0.0
 10
477.5748681039668
 20
356.406824181526
 30
0.0
 10
477.5748681040591
 20
352.1532496554142
 30
0.0
 10
477.5748681042204
 20
347.9299974329109
 30
0.0
 10
477.574868104446
 20
343.8041356172099
 30
0.0
 10
477.5748681048528
 20
339.8628696720524
 30
0.0
 10
477.5748681045961
 20
336.1807183866064
 30
0.0
 10
477.5748681063177
 20
332.7900707501957
 30
0.0
 10
477.5748681004404
 20
329.6925487045532
 30
0.0
 10
477.574868121498
 20
326.8883486169119
 30
0.0
 10
477.5748680450115
 20
324.3754305903378
 30
0.0
 10
477.574868319476
 20
322.1452435329521
 30
0.0
 10
477.5748673301734
 20
320.1979650150695
 30
0.0
 10
477.5748706485087
 20
318.6125529077518
 30
0.0
 10
477.5748661189992
 20
317.3998133113378
 30
0.0
 10
477.5776586281608
 20
316.4859795551461
 30
0.0
 10
477.5905165690674
 20
315.7684428047519
 30
0.0
 10
477.6220517594195
 20
315.2652177217913
 30
0.0
 10
477.6732777138843
 20
315.0920194623386
 30
0.0
 10
477.7075634899948
 20
315.0373657366607
 30
0.0
 10
477.7150431374024
 20
315.0363337043322
 30
0.0
  0
ARC
  5
F4
330
D6
100
AcDbEntity
  8
$DDT_AUDIT_GENERATED_(9C)
  6
Continuous
 62
     7
100
AcDbCircle
 10
10328.5467923416
 20
377.3019904894
 30
0.0
 40
9834.17017688674
100
AcDbArc
 50
179.6368081849
 51
180.3630700766
  0
LINE
  5
F5
330
D6
100
AcDbEntity
  8
$DDT_AUDIT_GENERATED_(B1)
  6
Continuous
 62
     7
100
AcDbLine
 10
482.578260467
 20
308.2681976227
 30
0.0
 11
489.5777110425
 21
308.2681976227
 31
0.0
  0
SPLINE
  5
F6
330
D6
100
AcDbEntity
  8
$DDT_AUDIT_GENERATED_(B8)
  6
Continuous
 62
     7
100
AcDbSpline
210
0.0
220
0.0
230
1.0
 70
     8
 71
     5
 72
    13
 73
     7
 74
     0
 42
0.0000000006365875
 43
0.0000000001
 40
0.3899203063031594
 40
0.3899203063031594
 40
0.3899203063031594
 40
0.3899203063031594
 40
0.3899203063031594
 40
0.3899203063031594
 40
0.398838358596082
 40
0.4026545201943635
 40
0.4026545201943635
 40
0.4026545201943635
 40
0.4026545201943635
 40
0.4026545201943635
 40
0.4026545201943635
 10
494.2802461993073
 20
444.963433563093
 30
0.0
 10
494.2897446862067
 20
444.9370745557541
 30
0.0
 10
494.3030435906347
 20
444.8993412917312
 30
0.0
 10
494.3159640770551
 20
444.8614760908665
 30
0.0
 10
494.3285043986711
 20
444.8234840008106
 30
0.0
 10
494.3406629203783
 20
444.7853701010923
 30
0.0
 10
494.3442722284555
 20
444.7739374079111
 30
0.0
  0
LINE
  5
F7
330
D6
100
AcDbEntity
  8
$DDT_AUDIT_GENERATED_(B8)
  6
Continuous
 62
     7
100
AcDbLine
 10
419.0511310894
 20
424.1938761614
 30
0.0
 11
419.0511648763
 21
443.2686308982
 31
0.0
  0
SPLINE
  5
F8
330
D6
100
AcDbEntity
  8
$DDT_AUDIT_GENERATED_(B8)
  6
Continuous
 62
     7
100
AcDbSpline
210
0.0
220
0.0
230
1.0
 70
     8
 71
     5
 72
    15
 73
     9
 74
     0
 42
0.0000000002460516
 43
0.0000000001
 40
0.0
 40
0.0
 40
0.0
 40
0.0
 40
0.0
 40
0.0
 40
0.18182552319473
 40
0.454550348796489
 40
0.727275174398243
 40
1.0
 40
1.0
 40
1.0
 40
1.0
 40
1.0
 40
1.0
 10
452.0520537361928
 20
437.7840583131593
 30
0.0
 10
449.283675659494
 20
437.6966334598962
 30
0.0
 10
442.959772802567
 20
437.4591600367643
 30
0.0
 10
435.0653357167839
 20
436.9705620468643
 30
0.0
 10
427.586862310067
 20
435.6149086439144
 30
0.0
 10
423.4225888704781
 20
432.4530198165368
 30
0.0
 10
421.0241125326438
 20
428.239765278413
 30
0.0
 10
419.6731050782735
 20
424.6301402236243
 30
0.0
 10
419.0509898361161
 20
422.6213276030657
 30
0.0
  0
SPLINE
  5
F9
330
D6
100
AcDbEntity
  8
$DDT_AUDIT_GENERATED_(B8)
  6
Continuous
 62
     7
100
AcDbSpline
210
0.0
220
0.0
230
1.0
 70
     8
 71
     5
 72
    15
 73
     9
 74
     0
 42
0.0000000002460516
 43
0.0000000001
 40
0.0
 40
0.0
 40
0.0
 40
0.0
 40
0.0
 40
0.0
 40
0.18182552319473
 40
0.454550348796489
 40
0.727275174398243
 40
1.0
 40
1.0
 40
1.0
 40
1.0
 40
1.0
 40
1.0
 10
452.0520537361928
 20
448.753202510686
 30
0.0
 10
449.283675659494
 20
448.8406273639491
 30
0.0
 10
442.959772802567
 20
449.0781007870811
 30
0.0
 10
435.0653357167839
 20
449.5666987769811
 30
0.0
 10
427.586862310067
 20
450.9223521799311
 30
0.0
 10
423.4225888704781
 20
454.0842410073086
 30
0.0
 10
421.0241125326438
 20
458.2974955454324
 30
0.0
 10
419.6731050782735
 20
461.9071206002211
 30
0.0
 10
419.0509898361161
 20
463.9159332207797
 30
0.0
  0
LINE
  5
FA
330
D6
100
AcDbEntity
  8
$DDT_AUDIT_GENERATED_(B8)
  6
Continuous
 62
     7
100
AcDbLine
 10
419.0509898361
 20
463.9159332208
 30
0.0
 11
419.0511310894
 21
462.3433846625
 31
0.0
  0
ARC
  5
FB
330
D6
100
AcDbEntity
  8
$DDT_AUDIT_GENERATED_(B8)
  6
Continuous
 62
     7
100
AcDbCircle
 10
480.778410033
 20
448.6743230794
 30
0.0
 40
28.72646459373686
100
AcDbArc
 50
179.8426724538
 51
179.8702845583
  0
LINE
  5
FC
330
D6
100
AcDbEntity
  8
$DDT_AUDIT_GENERATED_(B8)
  6
Continuous
 62
     7
100
AcDbLine
 10
419.0511310894
 20
462.3433846625
 30
0.0
 11
419.0511648763
 21
443.2686308982
 31
0.0
  0
ARC
  5
FD
330
D6
100
AcDbEntity
  8
$DDT_AUDIT_GENERATED_(B8)
  6
Continuous
 62
     7
100
AcDbCircle
 10
484.5864058791
 20
-634.5004534257
 30
0.0
 40
1072.777963133309
100
AcDbArc
 50
90.3744975687
 51
91.7148317582
  0
ARC
  5
FE
330
D6
100
AcDbEntity
  8
$DDT_AUDIT_GENERATED_(B8)
  6
Continuous
 62
     7
100
AcDbCircle
 10
484.5877361771
 20
1521.0873039931
 30
0.0
 40
1072.827570410996
100
AcDbArc
 50
268.2851777866
 51
270.1111196694
  0
SPLINE
  5
FF
330
D6
100
AcDbEntity
  8
$DDT_AUDIT_GENERATED_(B8)
  6
Continuous
 62
     7
100
AcDbSpline
210
0.0
220
0.0
230
1.0
 70
     8
 71
     3
 72
    10
 73
     6
 74
     0
 42
0.0000000006362223
 43
0.0000000001
 40
0.4862246562485721
 40
0.4862246562485721
 40
0.4862246562485721
 40
0.4862246562485721
 40
0.491282086745515
 40
0.5401070213751495
 40
0.5573846920454912
 40
0.5573846920454912
 40
0.5573846920454912
 40
0.5573846920454912
 10
494.5801916774059
 20
443.0508665377998
 30
0.0
 10
494.5813497120646
 20
443.0773032216056
 30
0.0
 10
494.5914541218435
 20
443.3590646965649
 30
0.0
 10
494.5733185482971
 20
443.7321183851526
 30
0.0
 10
494.5207592005308
 20
444.0742396148647
 30
0.0
 10
494.5046073408571
 20
444.1632294584047
 30
0.0
  0
SPLINE
  5
100
330
D6
100
AcDbEntity
  8
$DDT_AUDIT_GENERATED_(B8)
  6
Continuous
 62
     7
100
AcDbSpline
210
0.0
220
0.0
230
1.0
 70
     8
 71
     3
 72
     9
 73
     5
 74
     0
 42
0.0000000006386962
 43
0.0000000001
 40
0.9408460638017601
 40
0.9408460638017601
 40
0.9408460638017601
 40
0.9408460638017601
 40
0.950668038498707
 40
1.0
 40
1.0
 40
1.0
 40
1.0
 10
490.5056520221972
 20
448.1864673970001
 30
0.0
 10
490.4556871569386
 20
448.1957224035387
 30
0.0
 10
490.155991330604
 20
448.2458531376559
 30
0.0
 10
489.8685690496315
 20
448.2602872524465
 30
0.0
 10
489.5850737150096
 20
448.2712715814342
 30
0.0
  0
ARC
  5
101
330
D6
100
AcDbEntity
  8
$DDT_AUDIT_GENERATED_(B8)
  6
Continuous
 62
     7
100
AcDbCircle
 10
452.3034490072
 20
443.8510035228
 30
0.0
 40
6.056138642800978
100
AcDbArc
 50
267.6207819648
 51
271.7363870523
  0
ARC
  5
102
330
D6
100
AcDbEntity
  8
$DDT_AUDIT_GENERATED_(B8)
  6
Continuous
 62
     7
100
AcDbCircle
 10
452.3034490267
 20
442.6862534004
 30
0.0
 40
6.056142540978041
100
AcDbArc
 50
88.2636128963
 51
92.3792166871
  0
ENDBLK
  5
104
330
D6
100
AcDbEntity
  8
0
100
AcDbBlockEnd
  0
BLOCK
  5
154
330
105
100
AcDbEntity
  8
0
100
AcDbBlockBegin
  2
SE2
 70
     0
 10
0.0
 20
0.0
 30
0.0
  3
SE2
  1

  0
LINE
  5
107
330
105
100
AcDbEntity
  8
$DDT_AUDIT_GENERATED_(77)
  6
Continuous
 62
     7
100
AcDbLine
 10
216.6728424478
 20
182.8728897804
 30
0.0
 11
158.6728398912
 21
182.8728897804
 31
0.0
  0
LINE
  5
108
330
105
100
AcDbEntity
  8
$DDT_AUDIT_GENERATED_(77)
  6
Continuous
 62
     7
100
AcDbLine
 10
157.6728357968
 20
188.5728897804
 30
0.0
 11
217.6728922504
 21
188.5728897804
 31
0.0
  0
SPLINE
  5
109
330
105
100
AcDbEntity
  8
$DDT_AUDIT_GENERATED_(77)
  6
Continuous
 62
     7
100
AcDbSpline
210
0.0
220
0.0
230
1.0
 70
     8
 71
     3
 72
    13
 73
     9
 74
     0
 42
0.0000000063014675
 43
0.0000000001
 40
0.0
 40
0.0
 40
0.0
 40
0.0
 40
0.1294353584734506
 40
0.2550301071986155
 40
0.4999999914569673
 40
0.7449698805863574
 40
0.8705646348008826
 40
1.0
 40
1.0
 40
1.0
 40
1.0
 10
157.6728398232304
 20
183.872889795298
 30
0.0
 10
157.6765208329808
 20
183.7987104163358
 30
0.0
 10
157.6845941618286
 20
183.6747989495821
 30
0.0
 10
157.7646652652683
 20
183.4198534365881
 30
0.0
 10
157.9482137819938
 20
183.1482637188294
 30
0.0
 10
158.2198035119462
 20
182.9647152162599
 30
0.0
 10
158.4747490357488
 20
182.8846441182711
 30
0.0
 10
158.5986605083207
 20
182.8765707899043
 30
0.0
 10
158.6728398911589
 20
182.872889780397
 30
0.0
  0
SPLINE
  5
10A
330
105
100
AcDbEntity
  8
$DDT_AUDIT_GENERATED_(77)
  6
Continuous
 62
     7
100
AcDbSpline
210
0.0
220
0.0
230
1.0
 70
     8
 71
     3
 72
    13
 73
     9
 74
     0
 42
0.0000000063014675
 43
0.0000000001
 40
0.0
 40
0.0
 40
0.0
 40
0.0
 40
0.1294353651990117
 40
0.2550301194134887
 40
0.5000000085429129
 40
0.7449698928013473
 40
0.8705646415265372
 40
1.0
 40
1.0
 40
1.0
 40
1.0
 10
216.6728424478112
 20
182.872889780397
 30
0.0
 10
216.7470218306494
 20
182.8765707899043
 30
0.0
 10
216.8709333032212
 20
182.8846441182711
 30
0.0
 10
217.1258788270237
 20
182.9647152162599
 30
0.0
 10
217.397468556976
 20
183.1482637188294
 30
0.0
 10
217.5810170737017
 20
183.4198534365881
 30
0.0
 10
217.6610881771415
 20
183.6747989495821
 30
0.0
 10
217.6691615059893
 20
183.7987104163358
 30
0.0
 10
217.6728425157397
 20
183.872889795298
 30
0.0
  0
LINE
  5
10B
330
105
100
AcDbEntity
  8
$DDT_AUDIT_GENERATED_(77)
  6
Continuous
 62
     7
100
AcDbLine
 10
217.6728922504
 20
183.8678897953
 30
0.0
 11
217.6728922504
 21
188.5728897804
 31
0.0
  0
LINE
  5
10C
330
105
100
AcDbEntity
  8
$DDT_AUDIT_GENERATED_(77)
  6
Continuous
 62
     7
100
AcDbLine
 10
157.6728357968
 20
188.5728897804
 30
0.0
 11
157.6728357968
 21
183.8678897953
 31
0.0
  0
LINE
  5
10D
330
105
100
AcDbEntity
  8
$DDT_AUDIT_GENERATED_(86)
  6
Continuous
 62
     7
100
AcDbLine
 10
172.6068229473
 20
181.8847252387
 30
0.0
 11
166.8228417556
 21
181.884727988
 31
0.0
  0
LINE
  5
10E
330
105
100
AcDbEntity
  8
$DDT_AUDIT_GENERATED_(86)
  6
Continuous
 62
     7
100
AcDbLine
 10
208.5228411695
 20
181.8847252387
 30
0.0
 11
202.7388593917
 21
181.8847252387
 31
0.0
  0
SPLINE
  5
10F
330
105
100
AcDbEntity
  8
$DDT_AUDIT_GENERATED_(86)
  6
Continuous
 62
     7
100
AcDbSpline
210
0.0
220
0.0
230
1.0
 70
     8
 71
     3
 72
    17
 73
    13
 74
     0
 42
0.0000000006637454
 43
0.0000000001
 40
0.0
 40
0.0
 40
0.0
 40
0.0
 40
0.0833354487014831
 40
0.1663736216528879
 40
0.2494866424919604
 40
0.3752626340111653
 40
0.5000479199939184
 40
0.6246601036732432
 40
0.7502964613493427
 40
0.8754314240554908
 40
0.9377169111661814
 40
1.0
 40
1.0
 40
1.0
 40
1.0
 10
172.6068229472557
 20
181.8847252386561
 30
0.0
 10
172.9366065127781
 20
181.8847899093723
 30
0.0
 10
173.5949972338038
 20
181.8849190201102
 30
0.0
 10
174.6641546708413
 20
181.8850485303526
 30
0.0
 10
175.9781920650449
 20
181.8850866892904
 30
0.0
 10
177.5722555423566
 20
181.8851919852072
 30
0.0
 10
179.4668932132803
 20
181.885176594591
 30
0.0
 10
181.4444024486947
 20
181.8850879908946
 30
0.0
 10
183.487225027805
 20
181.8849401429985
 30
0.0
 10
185.2268805176171
 20
181.8848089089257
 30
0.0
 10
186.6243642099783
 20
181.8847488682514
 30
0.0
 10
187.3233533354541
 20
181.8847368793322
 30
0.0
 10
187.6728411694909
 20
181.8847252386561
 30
0.0
  0
SPLINE
  5
110
330
105
100
AcDbEntity
  8
$DDT_AUDIT_GENERATED_(86)
  6
Continuous
 62
     7
100
AcDbSpline
210
0.0
220
0.0
230
1.0
 70
     8
 71
     3
 72
    16
 73
    12
 74
     0
 42
0.0000000006637454
 43
0.0000000001
 40
0.0
 40
0.0
 40
0.0
 40
0.0
 40
0.0625509658289192
 40
0.1251043610270316
 40
0.2505663713252279
 40
0.3750305871579224
 40
0.4997224528208468
 40
0.6253703718972006
 40
0.7500479492199676
 40
0.8748984370948331
 40
1.0
 40
1.0
 40
1.0
 40
1.0
 10
187.6728411694909
 20
181.8847252386561
 30
0.0
 10
188.023812038122
 20
181.8847369476085
 30
0.0
 10
188.7257674064738
 20
181.8847490730849
 30
0.0
 10
190.1279696564104
 20
181.8848094196501
 30
0.0
 10
191.8641799213111
 20
181.8849406486348
 30
0.0
 10
193.9025891817949
 20
181.8850878969187
 30
0.0
 10
195.8787374216541
 20
181.8851769198189
 30
0.0
 10
197.773210664891
 20
181.8851911459706
 30
0.0
 10
199.5623362774787
 20
181.8850769753218
 30
0.0
 10
201.2395738052743
 20
181.8850273171175
 30
0.0
 10
202.2387629701253
 20
181.8848259988841
 30
0.0
 10
202.7388593917017
 20
181.8847252386561
 30
0.0
  0
LINE
  5
111
330
105
100
AcDbEntity
  8
$DDT_AUDIT_GENERATED_(86)
  6
Continuous
 62
     7
100
AcDbLine
 10
208.5131438131
 20
181.9278756391
 30
0.0
 11
212.320867522
 21
182.7816542978
 31
0.0
  0
LINE
  5
112
330
105
100
AcDbEntity
  8
$DDT_AUDIT_GENERATED_(86)
  6
Continuous
 62
     7
100
AcDbLine
 10
163.0248148018
 20
182.7816542315
 30
0.0
 11
166.8325385303
 21
181.9278756638
 31
0.0
  0
LINE
  5
113
330
105
100
AcDbEntity
  8
$DDT_AUDIT_GENERATED_(86)
  6
Continuous
 62
     7
100
AcDbLine
 10
212.3228411695
 20
182.7678897804
 30
0.0
 11
212.3228411695
 21
182.8728897804
 31
0.0
  0
LINE
  5
114
330
105
100
AcDbEntity
  8
$DDT_AUDIT_GENERATED_(86)
  6
Continuous
 62
     7
100
AcDbLine
 10
163.0228411695
 20
182.8728897804
 30
0.0
 11
163.0228411695
 21
182.7678897804
 31
0.0
  0
LINE
  5
115
330
105
100
AcDbEntity
  8
$DDT_AUDIT_GENERATED_(9C)
  6
Continuous
 62
     7
100
AcDbLine
 10
309.7149618944
 20
111.359446087
 30
0.0
 11
239.7226872741
 21
111.3594460674
 31
0.0
  0
LINE
  5
116
330
105
100
AcDbEntity
  8
$DDT_AUDIT_GENERATED_(9C)
  6
Continuous
 62
     7
100
AcDbLine
 10
239.72268752
 20
123.3594474849
 30
0.0
 11
223.6049605546
 21
123.3594474849
 31
0.0
  0
LINE
  5
117
330
105
100
AcDbEntity
  8
$DDT_AUDIT_GENERATED_(9C)
  6
Continuous
 62
     7
100
AcDbLine
 10
239.72268752
 20
123.3594474849
 30
0.0
 11
304.7226764486
 21
123.3594474849
 31
0.0
  0
LINE
  5
118
330
105
100
AcDbEntity
  8
$DDT_AUDIT_GENERATED_(9C)
  6
Continuous
 62
     7
100
AcDbLine
 10
309.7149618944
 20
118.3594499165
 30
0.0
 11
239.722687261
 21
118.3594499591
 31
0.0
  0
LINE
  5
119
330
105
100
AcDbEntity
  8
$DDT_AUDIT_GENERATED_(9C)
  6
Continuous
 62
     7
100
AcDbLine
 10
224.72268752
 20
111.3594460952
 30
0.0
 11
224.72268752
 21
106.3597299081
 31
0.0
  0
LINE
  5
11A
330
105
100
AcDbEntity
  8
$DDT_AUDIT_GENERATED_(9C)
  6
Continuous
 62
     7
100
AcDbLine
 10
224.72268777
 20
111.359446087
 30
0.0
 11
239.7226872741
 21
111.359446087
 31
0.0
  0
LINE
  5
11B
330
105
100
AcDbEntity
  8
$DDT_AUDIT_GENERATED_(9C)
  6
Continuous
 62
     7
100
AcDbLine
 10
224.72268777
 20
118.3594500015
 30
0.0
 11
239.722687261
 21
118.3594500018
 31
0.0
  0
LINE
  5
11C
330
105
100
AcDbEntity
  8
$DDT_AUDIT_GENERATED_(9C)
  6
Continuous
 62
     7
100
AcDbLine
 10
224.72268752
 20
123.3593516855
 30
0.0
 11
224.72268752
 21
118.3594500023
 31
0.0
  0
LINE
  5
11D
330
105
100
AcDbEntity
  8
$DDT_AUDIT_GENERATED_(9C)
  6
Continuous
 62
     7
100
AcDbLine
 10
239.72268752
 20
123.3593516854
 30
0.0
 11
224.72268752
 21
123.3593516855
 31
0.0
  0
LINE
  5
11E
330
105
100
AcDbEntity
  8
$DDT_AUDIT_GENERATED_(9C)
  6
Continuous
 62
     7
100
AcDbLine
 10
224.72268752
 20
111.3594460674
 30
0.0
 11
224.72268752
 21
118.359449959
 31
0.0
  0
LINE
  5
11F
330
105
100
AcDbEntity
  8
$DDT_AUDIT_GENERATED_(9C)
  6
Continuous
 62
     7
100
AcDbLine
 10
188.0728412007
 20
106.3598082314
 30
0.0
 11
224.72268752
 21
106.3598082314
 31
0.0
  0
LINE
  5
120
330
105
100
AcDbEntity
  8
$DDT_AUDIT_GENERATED_(9C)
  6
Continuous
 62
     7
100
AcDbLine
 10
239.7226873311
 20
106.3585743155
 30
0.0
 11
304.7230266991
 21
106.3585744628
 31
0.0
  0
ARC
  5
121
330
105
100
AcDbEntity
  8
$DDT_AUDIT_GENERATED_(9C)
  6
Continuous
 62
     7
100
AcDbCircle
 10
304.7181346415
 20
111.3554009579
 30
0.0
 40
4.996828890320784
100
AcDbArc
 50
270.0561028937
 51
0.0463831882
  0
ARC
  5
122
330
105
100
AcDbEntity
  8
$DDT_AUDIT_GENERATED_(9C)
  6
Continuous
 62
     7
100
AcDbCircle
 10
304.7150346914
 20
118.3619573646
 30
0.0
 40
4.999922976400995
100
AcDbArc
 50
359.9712663177
 51
79.1683106407
  0
ARC
  5
123
330
105
100
AcDbEntity
  8
$DDT_AUDIT_GENERATED_(9C)
  6
Continuous
 62
     7
100
AcDbCircle
 10
272.643215049
 20
9888.6998333726
 30
0.0
 40
9765.482762490034
100
AcDbArc
 50
269.8068491945
 51
270.1936425657
  0
LINE
  5
124
330
105
100
AcDbEntity
  8
$DDT_AUDIT_GENERATED_(9C)
  6
Continuous
 62
     7
100
AcDbLine
 10
224.72268752
 20
106.3597299081
 30
0.0
 11
239.7392015391
 21
106.3597299081
 31
0.0
  0
LINE
  5
125
330
105
100
AcDbEntity
  8
$DDT_AUDIT_GENERATED_(9C)
  6
Continuous
 62
     7
100
AcDbLine
 10
309.7149618944
 20
111.359446087
 30
0.0
 11
309.7149618944
 21
118.3594499165
 31
0.0
  0
LINE
  5
126
330
105
100
AcDbEntity
  8
$DDT_AUDIT_GENERATED_(9C)
  6
Continuous
 62
     7
100
AcDbLine
 10
65.6307204445
 20
118.3616110399
 30
0.0
 11
135.6229950649
 21
118.3616110595
 31
0.0
  0
LINE
  5
127
330
105
100
AcDbEntity
  8
$DDT_AUDIT_GENERATED_(9C)
  6
Continuous
 62
     7
100
AcDbLine
 10
135.6229950079
 20
123.3624826639
 30
0.0
 11
135.6229951135
 21
118.3616110357
 31
0.0
  0
LINE
  5
128
330
105
100
AcDbEntity
  8
$DDT_AUDIT_GENERATED_(9C)
  6
Continuous
 62
     7
100
AcDbLine
 10
135.6229948189
 20
106.361609642
 30
0.0
 11
187.2728411382
 21
106.361609642
 31
0.0
  0
LINE
  5
129
330
105
100
AcDbEntity
  8
$DDT_AUDIT_GENERATED_(9C)
  6
Continuous
 62
     7
100
AcDbLine
 10
135.622995078
 20
111.3616071678
 30
0.0
 11
135.6229948189
 21
106.361609642
 31
0.0
  0
LINE
  5
12A
330
105
100
AcDbEntity
  8
$DDT_AUDIT_GENERATED_(9C)
  6
Continuous
 62
     7
100
AcDbLine
 10
135.6229948189
 20
106.361609642
 30
0.0
 11
70.6230058903
 21
106.361609642
 31
0.0
  0
LINE
  5
12B
330
105
100
AcDbEntity
  8
$DDT_AUDIT_GENERATED_(9C)
  6
Continuous
 62
     7
100
AcDbLine
 10
65.6307204445
 20
111.3616072104
 30
0.0
 11
135.622995078
 21
111.3616071678
 31
0.0
  0
LINE
  5
12C
330
105
100
AcDbEntity
  8
$DDT_AUDIT_GENERATED_(9C)
  6
Continuous
 62
     7
100
AcDbLine
 10
150.6229948189
 20
118.3616110317
 30
0.0
 11
150.6229948189
 21
123.3613272188
 31
0.0
  0
LINE
  5
12D
330
105
100
AcDbEntity
  8
$DDT_AUDIT_GENERATED_(9C)
  6
Continuous
 62
     7
100
AcDbLine
 10
150.6229945689
 20
118.3616110399
 30
0.0
 11
135.6229950649
 21
118.3616110399
 31
0.0
  0
LINE
  5
12E
330
105
100
AcDbEntity
  8
$DDT_AUDIT_GENERATED_(9C)
  6
Continuous
 62
     7
100
AcDbLine
 10
150.6229945689
 20
111.3616071254
 30
0.0
 11
135.622995078
 21
111.3616071251
 31
0.0
  0
LINE
  5
12F
330
105
100
AcDbEntity
  8
$DDT_AUDIT_GENERATED_(9C)
  6
Continuous
 62
     7
100
AcDbLine
 10
150.6229948189
 20
106.3617054414
 30
0.0
 11
150.6229948189
 21
111.3616071246
 31
0.0
  0
LINE
  5
130
330
105
100
AcDbEntity
  8
$DDT_AUDIT_GENERATED_(9C)
  6
Continuous
 62
     7
100
AcDbLine
 10
135.6229948189
 20
106.3617054415
 30
0.0
 11
150.6229948189
 21
106.3617054414
 31
0.0
  0
LINE
  5
131
330
105
100
AcDbEntity
  8
$DDT_AUDIT_GENERATED_(9C)
  6
Continuous
 62
     7
100
AcDbLine
 10
150.6229948189
 20
118.3616110595
 30
0.0
 11
150.6229948189
 21
111.3616071679
 31
0.0
  0
LINE
  5
132
330
105
100
AcDbEntity
  8
$DDT_AUDIT_GENERATED_(9C)
  6
Continuous
 62
     7
100
AcDbLine
 10
135.6229950649
 20
118.3616110595
 30
0.0
 11
135.622995078
 21
111.3616071678
 31
0.0
  0
LINE
  5
133
330
105
100
AcDbEntity
  8
$DDT_AUDIT_GENERATED_(9C)
  6
Continuous
 62
     7
100
AcDbLine
 10
151.7407107648
 20
123.3612488955
 30
0.0
 11
150.6229948189
 21
123.3612488955
 31
0.0
  0
LINE
  5
134
330
105
100
AcDbEntity
  8
$DDT_AUDIT_GENERATED_(9C)
  6
Continuous
 62
     7
100
AcDbLine
 10
135.6229950079
 20
123.3624828113
 30
0.0
 11
70.6226556399
 21
123.3624826641
 31
0.0
  0
ARC
  5
135
330
105
100
AcDbEntity
  8
$DDT_AUDIT_GENERATED_(9C)
  6
Continuous
 62
     7
100
AcDbCircle
 10
70.6275476975
 20
118.365656169
 30
0.0
 40
4.996828890320769
100
AcDbArc
 50
90.0561028937
 51
180.0463831882
  0
ARC
  5
136
330
105
100
AcDbEntity
  8
$DDT_AUDIT_GENERATED_(9C)
  6
Continuous
 62
     7
100
AcDbCircle
 10
70.6306476476
 20
111.3590997623
 30
0.0
 40
4.999922976401026
100
AcDbArc
 50
179.9712663177
 51
259.1683106407
  0
ARC
  5
137
330
105
100
AcDbEntity
  8
$DDT_AUDIT_GENERATED_(9C)
  6
Continuous
 62
     7
100
AcDbCircle
 10
102.70246729
 20
-9658.9787762508
 30
0.0
 40
9765.482762495047
100
AcDbArc
 50
89.8068491945
 51
90.1936425657
  0
LINE
  5
138
330
105
100
AcDbEntity
  8
$DDT_AUDIT_GENERATED_(9C)
  6
Continuous
 62
     7
100
AcDbLine
 10
150.6229948189
 20
123.3613272188
 30
0.0
 11
135.6064807998
 21
123.3613272188
 31
0.0
  0
LINE
  5
139
330
105
100
AcDbEntity
  8
$DDT_AUDIT_GENERATED_(9C)
  6
Continuous
 62
     7
100
AcDbLine
 10
65.6307204445
 20
118.3616110399
 30
0.0
 11
65.6307204445
 21
111.3616072104
 31
0.0
  0
LINE
  5
13A
330
105
100
AcDbEntity
  8
$DDT_AUDIT_GENERATED_(B1)
  6
Continuous
 62
     7
100
AcDbLine
 10
187.2728412007
 20
106.3594708067
 30
0.0
 11
188.0728412007
 21
106.3594708067
 31
0.0
  0
LINE
  5
13B
330
105
100
AcDbEntity
  8
$DDT_AUDIT_GENERATED_(B8)
  6
Continuous
 62
     7
100
AcDbLine
 10
224.72268752
 20
111.3613081357
 30
0.0
 11
224.72268752
 21
106.3614038989
 31
0.0
  0
LINE
  5
13C
330
105
100
AcDbEntity
  8
$DDT_AUDIT_GENERATED_(B8)
  6
Continuous
 62
     7
100
AcDbLine
 10
150.6229948189
 20
111.3613081357
 30
0.0
 11
150.6229948189
 21
106.3614038989
 31
0.0
  0
LINE
  5
13D
330
105
100
AcDbEntity
  8
$DDT_AUDIT_GENERATED_(B8)
  6
Continuous
 62
     7
100
AcDbLine
 10
150.6229948189
 20
111.3613081357
 30
0.0
 11
150.6229948189
 21
118.3613119947
 31
0.0
  0
LINE
  5
13E
330
105
100
AcDbEntity
  8
$DDT_AUDIT_GENERATED_(B8)
  6
Continuous
 62
     7
100
AcDbLine
 10
150.6229948189
 20
118.3613119948
 30
0.0
 11
150.6229948189
 21
123.3613095336
 31
0.0
  0
SPLINE
  5
13F
330
105
100
AcDbEntity
  8
$DDT_AUDIT_GENERATED_(B8)
  6
Continuous
 62
     7
100
AcDbSpline
210
0.0
220
0.0
230
1.0
 70
     8
 71
     3
 72
    24
 73
    20
 74
     0
 42
0.000000000213995
 43
0.0000000001
 40
0.0
 40
0.0
 40
0.0
 40
0.0
 40
0.0312921935820284
 40
0.0625902303959695
 40
0.1251133616396193
 40
0.2500415402618686
 40
0.3125826884867026
 40
0.3751264776945483
 40
0.4376173847665013
 40
0.5001047583982949
 40
0.5628737067569174
 40
0.6250911619898386
 40
0.6874283331879694
 40
0.7498092278780805
 40
0.8123687160744182
 40
0.8750790974962709
 40
0.9376454872528831
 40
0.9688096638655236
 40
1.0
 40
1.0
 40
1.0
 40
1.0
 10
176.3535161744762
 20
148.8852971787544
 30
0.0
 10
176.3317304879016
 20
148.3995354665929
 30
0.0
 10
176.2881550466828
 20
147.4279213353549
 30
0.0
 10
176.1934353002509
 20
145.4857568380903
 30
0.0
 10
175.9878806883964
 20
142.0926317311701
 30
0.0
 10
175.5723284748811
 20
138.2219852880484
 30
0.0
 10
174.7814405044996
 20
134.4139310649724
 30
0.0
 10
173.9512932381274
 20
131.6146569528664
 30
0.0
 10
172.8315557317894
 20
128.9168021967991
 30
0.0
 10
171.3834886326632
 20
126.3728630850351
 30
0.0
 10
169.5708430583278
 20
124.0744628911199
 30
0.0
 10
167.3922675904794
 20
122.120461430885
 30
0.0
 10
164.9129821530543
 20
120.5766947323731
 30
0.0
 10
162.2019130429159
 20
119.4806974077556
 30
0.0
 10
159.3549643002465
 20
118.8058824849668
 30
0.0
 10
156.4497591399931
 20
118.4729951103436
 30
0.0
 10
154.0187048805778
 20
118.3791933448707
 30
0.0
 10
152.077045804642
 20
118.3608732725498
 30
0.0
 10
151.1078140211109
 20
118.3611657130952
 30
0.0
 10
150.6229948189444
 20
118.3613119947549
 30
0.0
  0
SPLINE
  5
140
330
105
100
AcDbEntity
  8
$DDT_AUDIT_GENERATED_(B8)
  6
Continuous
 62
     7
100
AcDbSpline
210
0.0
220
0.0
230
1.0
 70
     8
 71
     3
 72
    14
 73
    10
 74
     0
 42
0.0000000011474869
 43
0.0000000001
 40
0.0
 40
0.0
 40
0.0
 40
0.0
 40
0.2500000000000001
 40
0.2500000000000001
 40
0.5000000000000002
 40
0.5000000000000002
 40
0.7500000000000003
 40
0.7500000000000003
 40
1.0
 40
1.0
 40
1.0
 40
1.0
 10
167.6388427129228
 20
148.8852971787544
 30
0.0
 10
167.6388336064165
 20
148.8852865680048
 30
0.0
 10
167.8705037869165
 20
148.8852803963457
 30
0.0
 10
168.639109398495
 20
148.8852590591825
 30
0.0
 10
169.158630713632
 20
148.885242083912
 30
0.0
 10
170.3437061585491
 20
148.8851776008932
 30
0.0
 10
170.9866444243297
 20
148.8851235065168
 30
0.0
 10
172.9098102293712
 20
148.8850956934746
 30
0.0
 10
174.2591884918657
 20
148.8851465059815
 30
0.0
 10
176.3535161744762
 20
148.8852971787544
 30
0.0
  0
SPLINE
  5
141
330
105
100
AcDbEntity
  8
$DDT_AUDIT_GENERATED_(B8)
  6
Continuous
 62
     7
100
AcDbSpline
210
0.0
220
0.0
230
1.0
 70
     8
 71
     5
 72
    24
 73
    18
 74
     0
 42
0.000000000274804
 43
0.0000000001
 40
0.0
 40
0.0
 40
0.0
 40
0.0
 40
0.0
 40
0.0
 40
0.119290763996174
 40
0.193615738740638
 40
0.254105529248315
 40
0.308685179989536
 40
0.389299966735413
 40
0.456253196067019
 40
0.505313851291333
 40
0.553769799464164
 40
0.616324942713432
 40
0.659447287781273
 40
0.751370538359501
 40
0.870412205899034
 40
1.0
 40
1.0
 40
1.0
 40
1.0
 40
1.0
 40
1.0
 10
150.6229948189445
 20
123.3613095335968
 30
0.0
 10
151.5062774239011
 20
123.366607742698
 30
0.0
 10
152.8886207506676
 20
123.373488532165
 30
0.0
 10
154.6149959364208
 20
123.425023421827
 30
0.0
 10
156.6078835066249
 20
123.6314720328289
 30
0.0
 10
158.9756269333619
 20
124.2509646103241
 30
0.0
 10
160.8862819473191
 20
125.1266424772899
 30
0.0
 10
162.4700884492744
 20
126.2755863809707
 30
0.0
 10
163.7657822742582
 20
127.6607172725428
 30
0.0
 10
164.8633717987403
 20
129.3077327893536
 30
0.0
 10
165.6501509681884
 20
130.9114470973334
 30
0.0
 10
166.3525479739405
 20
132.8014399047419
 30
0.0
 10
167.0078015671767
 20
135.3369602638975
 30
0.0
 10
167.5111614368022
 20
138.7389975229146
 30
0.0
 10
167.6793869284241
 20
141.9832184284737
 30
0.0
 10
167.6834597701199
 20
145.1253717631159
 30
0.0
 10
167.6545882517388
 20
147.5689835780407
 30
0.0
 10
167.6388427129228
 20
148.8852971787544
 30
0.0
  0
ARC
  5
142
330
105
100
AcDbEntity
  8
$DDT_AUDIT_GENERATED_(B8)
  6
Continuous
 62
     7
100
AcDbCircle
 10
-937.6985310349
 20
144.9262419529
 30
0.0
 40
1105.344463921509
100
AcDbArc
 50
0.2052189591
 51
1.9161842183
  0
ARC
  5
143
330
105
100
AcDbEntity
  8
$DDT_AUDIT_GENERATED_(B8)
  6
Continuous
 62
     7
100
AcDbCircle
 10
1312.0891822092
 20
144.9439242119
 30
0.0
 40
1104.389375641674
100
AcDbArc
 50
178.0830758957
 51
179.7955209269
  0
LINE
  5
144
330
105
100
AcDbEntity
  8
$DDT_AUDIT_GENERATED_(B8)
  6
Continuous
 62
     7
100
AcDbLine
 10
195.5733521546
 20
181.8862198255
 30
0.0
 11
208.317846143
 21
181.8861860386
 31
0.0
  0
SPLINE
  5
145
330
105
100
AcDbEntity
  8
$DDT_AUDIT_GENERATED_(B8)
  6
Continuous
 62
     7
100
AcDbSpline
210
0.0
220
0.0
230
1.0
 70
     8
 71
     5
 72
    15
 73
     9
 74
     0
 42
0.0000000003009429
 43
0.0000000001
 40
0.0
 40
0.0
 40
0.0
 40
0.0
 40
0.0
 40
0.0
 40
0.181819355741687
 40
0.454546237161125
 40
0.7272731185805631
 40
1.0
 40
1.0
 40
1.0
 40
1.0
 40
1.0
 40
1.0
 10
198.992166164494
 20
148.8852971787544
 30
0.0
 10
198.8678309196994
 20
151.6534830313205
 30
0.0
 10
198.5236288607095
 20
157.9771777758756
 30
0.0
 10
197.8317195560054
 20
165.8716659706353
 30
0.0
 10
196.4434821008465
 20
173.3502486563112
 30
0.0
 10
195.8226337362003
 20
177.514528440879
 30
0.0
 10
195.5917788017381
 20
179.9130554466652
 30
0.0
 10
195.5563897538425
 20
181.2640914411463
 30
0.0
 10
195.57335215458
 20
181.8862198255244
 30
0.0
  0
LINE
  5
146
330
105
100
AcDbEntity
  8
$DDT_AUDIT_GENERATED_(B8)
  6
Continuous
 62
     7
100
AcDbLine
 10
207.706839626
 20
148.8852971788
 30
0.0
 11
198.9921661645
 21
148.8852971788
 31
0.0
  0
LINE
  5
147
330
105
100
AcDbEntity
  8
$DDT_AUDIT_GENERATED_(B8)
  6
Continuous
 62
     7
100
AcDbLine
 10
198.9921661645
 20
148.8852971788
 30
0.0
 11
187.6728411487
 21
148.8852971788
 31
0.0
  0
LINE
  5
148
330
105
100
AcDbEntity
  8
$DDT_AUDIT_GENERATED_(B8)
  6
Continuous
 62
     7
100
AcDbLine
 10
187.6728411304
 20
181.8863610788
 30
0.0
 11
195.5733521546
 21
181.8862198255
 31
0.0
  0
LINE
  5
149
330
105
100
AcDbEntity
  8
$DDT_AUDIT_GENERATED_(B8)
  6
Continuous
 62
     7
100
AcDbLine
 10
187.6728411487
 20
148.8852971788
 30
0.0
 11
187.6728411304
 21
181.8863610788
 31
0.0
  0
LINE
  5
14A
330
105
100
AcDbEntity
  8
$DDT_AUDIT_GENERATED_(B8)
  6
Continuous
 62
     7
100
AcDbLine
 10
187.6728411304
 20
181.8863610788
 30
0.0
 11
179.7723301844
 21
181.8862198255
 31
0.0
  0
SPLINE
  5
14B
330
105
100
AcDbEntity
  8
$DDT_AUDIT_GENERATED_(B8)
  6
Continuous
 62
     7
100
AcDbSpline
210
0.0
220
0.0
230
1.0
 70
     8
 71
     5
 72
    15
 73
     9
 74
     0
 42
0.0000000003009429
 43
0.0000000001
 40
0.0
 40
0.0
 40
0.0
 40
0.0
 40
0.0
 40
0.0
 40
0.272726881419422
 40
0.5454537628388689
 40
0.818180644258315
 40
1.0
 40
1.0
 40
1.0
 40
1.0
 40
1.0
 40
1.0
 10
179.7723301843902
 20
181.8862198255244
 30
0.0
 10
179.7892925851277
 20
181.2640914411463
 30
0.0
 10
179.753903537232
 20
179.9130554466653
 30
0.0
 10
179.5230486027698
 20
177.514528440879
 30
0.0
 10
178.9022002381237
 20
173.3502486563112
 30
0.0
 10
177.5139627829648
 20
165.8716659706353
 30
0.0
 10
176.8220534782607
 20
157.9771777758756
 30
0.0
 10
176.4778514192708
 20
151.6534830313205
 30
0.0
 10
176.3535161744762
 20
148.8852971787544
 30
0.0
  0
SPLINE
  5
14C
330
105
100
AcDbEntity
  8
$DDT_AUDIT_GENERATED_(B8)
  6
Continuous
 62
     7
100
AcDbSpline
210
0.0
220
0.0
230
1.0
 70
     8
 71
     3
 72
    12
 73
     8
 74
     0
 42
0.0000000008834449
 43
0.0000000001
 40
0.0
 40
0.0
 40
0.0
 40
0.0
 40
0.25
 40
0.25
 40
0.5
 40
0.5
 40
1.0
 40
1.0
 40
1.0
 40
1.0
 10
176.3535161744762
 20
148.8852971787544
 30
0.0
 10
177.0516197523362
 20
148.8853133279455
 30
0.0
 10
177.8278030730755
 20
148.8853285418561
 30
0.0
 10
179.5221559311151
 20
148.885362793832
 30
0.0
 10
180.4400925411797
 20
148.8853816048679
 30
0.0
 10
183.3534765694408
 20
148.8854154499469
 30
0.0
 10
185.5112936410303
 20
148.8854026436529
 30
0.0
 10
187.6728411487404
 20
148.8852971787545
 30
0.0
  0
LINE
  5
14D
330
105
100
AcDbEntity
  8
$DDT_AUDIT_GENERATED_(B8)
  6
Continuous
 62
     7
100
AcDbLine
 10
179.7723301844
 20
181.8862198255
 30
0.0
 11
167.0278361943
 21
181.8861860386
 31
0.0
  0
LINE
  5
14E
330
105
100
AcDbEntity
  8
$DDT_AUDIT_GENERATED_(B8)
  6
Continuous
 62
     7
100
AcDbLine
 10
224.72268752
 20
118.3613119948
 30
0.0
 11
224.72268752
 21
123.3613095336
 31
0.0
  0
LINE
  5
14F
330
105
100
AcDbEntity
  8
$DDT_AUDIT_GENERATED_(B8)
  6
Continuous
 62
     7
100
AcDbLine
 10
224.72268752
 20
111.3613081357
 30
0.0
 11
224.72268752
 21
118.3613119947
 31
0.0
  0
SPLINE
  5
150
330
105
100
AcDbEntity
  8
$DDT_AUDIT_GENERATED_(B8)
  6
Continuous
 62
     7
100
AcDbSpline
210
0.0
220
0.0
230
1.0
 70
     8
 71
     5
 72
    24
 73
    18
 74
     0
 42
0.0000000002748041
 43
0.0000000001
 40
0.0
 40
0.0
 40
0.0
 40
0.0
 40
0.0
 40
0.0
 40
0.129587794100966
 40
0.248629461640499
 40
0.340552712218727
 40
0.383675057286568
 40
0.446230200535835
 40
0.494686148708667
 40
0.543746803932981
 40
0.610700033264586
 40
0.691314820010464
 40
0.745894470751685
 40
0.806384261259361
 40
0.880709236003825
 40
1.0
 40
1.0
 40
1.0
 40
1.0
 40
1.0
 40
1.0
 10
207.7068396260474
 20
148.8852971787544
 30
0.0
 10
207.6910940872314
 20
147.5689835780407
 30
0.0
 10
207.6622260363842
 20
145.125373531395
 30
0.0
 10
207.6662936806396
 20
141.9832140173572
 30
0.0
 10
207.8345283283757
 20
138.739004210166
 30
0.0
 10
208.3378817086582
 20
135.3369551797806
 30
0.0
 10
208.993140935197
 20
132.8014485461234
 30
0.0
 10
209.6955356620263
 20
130.9114404053469
 30
0.0
 10
210.4823139820297
 20
129.3077486333373
 30
0.0
 10
211.5799109287557
 20
127.6607062249312
 30
0.0
 10
212.8755893098306
 20
126.2756074023248
 30
0.0
 10
214.4594168825025
 20
125.1266362852022
 30
0.0
 10
216.3700458386404
 20
124.2509784787474
 30
0.0
 10
218.7378150754602
 20
123.6314707421748
 30
0.0
 10
220.730673224903
 20
123.4250299471376
 30
0.0
 10
222.4570683809569
 20
123.3734905192439
 30
0.0
 10
223.8394049150691
 20
123.366607742698
 30
0.0
 10
224.7226875200257
 20
123.3613095335968
 30
0.0
  0
SPLINE
  5
151
330
105
100
AcDbEntity
  8
$DDT_AUDIT_GENERATED_(B8)
  6
Continuous
 62
     7
100
AcDbSpline
210
0.0
220
0.0
230
1.0
 70
     8
 71
     5
 72
    24
 73
    18
 74
     0
 42
0.0000000002137193
 43
0.0000000001
 40
0.0
 40
0.0
 40
0.0
 40
0.0
 40
0.0
 40
0.0
 40
0.1295877941010104
 40
0.2486294616405841
 40
0.3405527122188438
 40
0.3836750572866995
 40
0.446230200535988
 40
0.4946861487088368
 40
0.5437468039331675
 40
0.6107000332647952
 40
0.6913148200107007
 40
0.7458944707519412
 40
0.8063842612596378
 40
0.8807092360041272
 40
1.0
 40
1.0
 40
1.0
 40
1.0
 40
1.0
 40
1.0
 10
198.992166164494
 20
148.8852971787544
 30
0.0
 10
199.0464113279497
 20
147.6775891759487
 30
0.0
 10
199.150222112288
 20
145.354494077448
 30
0.0
 10
199.3281125425465
 20
142.1861570852619
 30
0.0
 10
199.6755126531981
 20
138.6238265065718
 30
0.0
 10
200.4771194163783
 20
134.5249202726239
 30
0.0
 10
201.4964641032856
 20
131.2635968475374
 30
0.0
 10
202.6010927724605
 20
128.7363808703294
 30
0.0
 10
203.8407191048281
 20
126.5355031340454
 30
0.0
 10
205.5815736164995
 20
124.2308546403861
 30
0.0
 10
207.632700071185
 20
122.2988484846145
 30
0.0
 10
210.0774555900059
 20
120.6948892040753
 30
0.0
 10
212.9908569501389
 20
119.4786108338122
 30
0.0
 10
216.5450567093304
 20
118.642089411996
 30
0.0
 10
219.4439293606894
 20
118.4082160045895
 30
0.0
 10
221.8169550185153
 20
118.3592825709878
 30
0.0
 10
223.6092804599915
 20
118.3613119545368
 30
0.0
 10
224.7226875200258
 20
118.3613119947549
 30
0.0
  0
LINE
  5
152
330
105
100
AcDbEntity
  8
$DDT_AUDIT_GENERATED_(B8)
  6
Continuous
 62
     7
100
AcDbLine
 10
187.6728411487
 20
148.8852971788
 30
0.0
 11
187.6728411695
 21
111.3519028878
 31
0.0
  0
SPLINE
  5
153
330
105
100
AcDbEntity
  8
$DDT_AUDIT_GENERATED_(B8)
  6
Continuous
 62
     7
100
AcDbSpline
210
0.0
220
0.0
230
1.0
 70
     8
 71
     3
 72
     8
 73
     4
 74
     0
 42
0.0000000001349533
 43
0.0000000001
 40
0.0
 40
0.0
 40
0.0
 40
0.0
 40
1.0
 40
1.0
 40
1.0
 40
1.0
 10
150.6229948189443
 20
106.3614038988793
 30
0.0
 10
172.6258165476892
 20
106.35
 30
0.0
 10
197.3257141147164
 20
106.3499999999999
 30
0.0
 10
224.7226875200259
 20
106.3614038988792
 30
0.0
  0
ENDBLK
  5
155
330
105
100
AcDbEntity
  8
0
100
AcDbBlockEnd
  0
ENDSEC
  0
SECTION
  2
ENTITIES
  0
INSERT
  5
5F
330
1F
100
AcDbEntity
  8
Default
100
AcDbBlockReference
  2
SEANNOT_GROUP
 10
0.0
 20
0.0
 30
0.0
  0
INSERT
  5
6A
330
1F
100
AcDbEntity
  8
Default
100
AcDbBlockReference
  2
SEANNOT_GROUP1
 10
0.0
 20
0.0
 30
0.0
  0
INSERT
  5
70
330
1F
100
AcDbEntity
  8
Default
100
AcDbBlockReference
  2
SEANNOT_GROUP2
 10
0.0
 20
0.0
 30
0.0
  0
INSERT
  5
76
330
1F
100
AcDbEntity
  8
Default
100
AcDbBlockReference
  2
SE
 10
0.0
 20
0.0
 30
0.0
  0
INSERT
  5
D7
330
1F
100
AcDbEntity
  8
Default
100
AcDbBlockReference
  2
SE1
 10
0.0
 20
0.0
 30
0.0
  0
INSERT
  5
106
330
1F
100
AcDbEntity
  8
Default
100
AcDbBlockReference
  2
SE2
 10
0.0
 20
0.0
 30
0.0
  0
TEXT
  5
157
330
1F
100
AcDbEntity
  8
Default
  6
Continuous
 62
     7
100
AcDbText
 10
5.9362635081
 20
53.4225120485
 30
0.0
 40
10.0
  1
Grohe AG^J
  7
SEACAD_seiso_ttf
 11
5.9362635081
 21
63.4225120485
 31
0.0
100
AcDbText
 73
     3
  0
TEXT
  5
158
330
1F
100
AcDbEntity
  8
Default
  6
Continuous
 62
     7
100
AcDbText
 10
5.9362635081
 20
37.0588756849
 30
0.0
 40
10.0
  1
 
  7
SEACAD_seiso_ttf
 11
5.9362635081
 21
47.0588756849
 31
0.0
100
AcDbText
 73
     3
  0
TEXT
  5
159
330
1F
100
AcDbEntity
  8
Default
  6
Continuous
 62
     7
100
AcDbText
 10
5.9362635081
 20
20.6952393213
 30
0.0
 40
10.0
  1
ecn: 
  7
SEACAD_seiso_ttf
 11
5.9362635081
 21
30.6952393213
 31
0.0
100
AcDbText
 73
     3
  0
TEXT
  5
15A
330
1F
100
AcDbEntity
  8
Default
  6
Continuous
 62
     7
100
AcDbText
 10
5.9362635081
 20
4.3316029576
 30
0.0
 40
10.0
  1
unit: mm
  7
SEACAD_seiso_ttf
 11
5.9362635081
 21
14.3316029576
 31
0.0
100
AcDbText
 73
     3
  0
LINE
  5
15B
330
1F
100
AcDbEntity
  8
Default
  6
Continuous
 62
     7
100
AcDbLine
 10
0.0
 20
0.0
 30
0.0
 11
100.0
 21
0.0
 31
0.0
  0
LINE
  5
15C
330
1F
100
AcDbEntity
  8
Default
  6
Continuous
 62
     7
100
AcDbLine
 10
0.0
 20
0.0
 30
0.0
 11
0.0
 21
100.0
 31
0.0
  0
TEXT
  5
15D
330
1F
100
AcDbEntity
  8
Default
  6
Continuous
 62
     7
100
AcDbText
 10
24.3923665681
 20
-18.2375342018
 30
0.0
 40
10.0
  1
100 mm
  7
SEACAD_seiso_ttf
 11
24.3923665681
 21
-8.2375342018
 31
0.0
100
AcDbText
 73
     3
  0
TEXT
  5
15E
330
1F
100
AcDbEntity
  8
Default
  6
Continuous
 62
     7
100
AcDbText
 10
-7.6150308803
 20
24.6231930421
 30
0.0
 40
10.0
  1
100 mm
 50
90.0
  7
SEACAD_seiso_ttf
 11
-17.6150308803
 21
24.6231930421
 31
0.0
100
AcDbText
 73
     3
  0
TEXT
  5
15F
330
1F
100
AcDbEntity
  8
Default
  6
Continuous
 62
     7
100
AcDbText
 10
28.4878128572
 20
20.0907663715
 30
0.0
 40
10.0
  1
211890
  7
SEACAD_seiso_ttf
 11
28.4878128572
 21
30.0907663715
 31
0.0
100
AcDbText
 73
     3
  0
TEXT
  5
160
330
1F
100
AcDbEntity
  8
Default
  6
Continuous
 62
     7
100
AcDbText
 10
5.9012241913
 20
36.7242780188
 30
0.0
 40
10.0
  1
40379000
  7
SEACAD_seiso_ttf
 11
5.9012241913
 21
46.7242780188
 31
0.0
100
AcDbText
 73
     3
  0
ENDSEC
  0
SECTION
  2
OBJECTS
  0
DICTIONARY
  5
C
330
0
100
AcDbDictionary
281
     1
  3
ACAD_GROUP
350
D
  3
ACAD_LAYOUT
350
1A
  3
ACAD_MLEADERSTYLE
350
164
  3
ACAD_MLINESTYLE
350
17
  3
ACAD_PLOTSETTINGS
350
19
  3
ACAD_PLOTSTYLENAME
350
E
  3
ACAD_SCALELIST
350
3B
  3
ACAD_TABLESTYLE
350
163
  3
ACAD_VISUALSTYLE
350
2A
  3
AcDbVariableDictionary
350
161
  0
DICTIONARY
  5
D
102
{ACAD_REACTORS
330
C
102
}
330
C
100
AcDbDictionary
281
     1
  0
DICTIONARY
  5
1A
102
{ACAD_REACTORS
330
C
102
}
330
C
100
AcDbDictionary
281
     1
  3
Layout1
350
1E
  3
Model
350
22
  0
DICTIONARY
  5
164
102
{ACAD_REACTORS
330
C
102
}
330
C
100
AcDbDictionary
281
     1
  0
DICTIONARY
  5
17
102
{ACAD_REACTORS
330
C
102
}
330
C
100
AcDbDictionary
281
     1
  3
Standard
350
18
  0
DICTIONARY
  5
19
102
{ACAD_REACTORS
330
C
102
}
330
C
100
AcDbDictionary
281
     1
  0
ACDBDICTIONARYWDFLT
  5
E
102
{ACAD_REACTORS
330
C
102
}
330
C
100
AcDbDictionary
281
     1
  3
Normal
350
F
100
AcDbDictionaryWithDefault
340
F
  0
DICTIONARY
  5
3B
102
{ACAD_REACTORS
330
C
102
}
330
C
100
AcDbDictionary
281
     1
  3
A0
350
3C
  3
A1
350
3D
  3
A2
350
3E
  3
A3
350
3F
  3
A4
350
40
  3
A5
350
41
  3
A6
350
42
  3
A7
350
43
  3
A8
350
44
  3
A9
350
45
  3
B0
350
46
  3
B1
350
47
  3
B2
350
48
  3
B3
350
49
  3
B4
350
4A
  3
B5
350
4B
  3
B6
350
4C
  3
B7
350
4D
  3
B8
350
4E
  3
B9
350
4F
  3
C0
350
50
  3
C1
350
51
  3
C2
350
52
  3
C3
350
53
  3
C4
350
54
  3
C5
350
55
  3
C6
350
56
  3
C7
350
57
  3
C8
350
58
  3
C9
350
59
  3
D0
350
5A
  3
D1
350
5B
  3
D2
350
5C
  0
DICTIONARY
  5
163
102
{ACAD_REACTORS
330
C
102
}
330
C
100
AcDbDictionary
281
     1
  0
DICTIONARY
  5
2A
102
{ACAD_REACTORS
330
C
102
}
330
C
100
AcDbDictionary
281
     1
  3
2dWireframe
350
2F
  3
3D Hidden
350
31
  3
3dWireframe
350
30
  3
Basic
350
32
  3
Brighten
350
36
  3
ColorChange
350
3A
  3
Conceptual
350
34
  3
Dim
350
35
  3
Facepattern
350
39
  3
Flat
350
2B
  3
FlatWithEdges
350
2C
  3
Gouraud
350
2D
  3
GouraudWithEdges
350
2E
  3
Linepattern
350
38
  3
Realistic
350
33
  3
Thicken
350
37
  0
DICTIONARY
  5
161
102
{ACAD_REACTORS
330
C
102
}
330
C
100
AcDbDictionary
281
     1
  3
CANNOSCALE
350
162
  3
PSOLHEIGHT
350
166
  3
PSOLWIDTH
350
165
  0
LAYOUT
  5
1E
102
{ACAD_REACTORS
330
1A
102
}
330
1A
100
AcDbPlotSettings
  1

  2
none_device
  4

  6

 40
0.0
 41
0.0
 42
0.0
 43
0.0
 44
0.0
 45
0.0
 46
0.0
 47
0.0
 48
0.0
 49
0.0
140
0.0
141
0.0
142
1.0
143
1.0
 70
   688
 72
     0
 73
     0
 74
     5
  7

 75
    16
147
1.0
148
0.0
149
0.0
100
AcDbLayout
  1
Layout1
 70
     1
 71
     1
 10
0.0
 20
0.0
 11
1682.0
 21
2378.0
 12
0.0
 22
0.0
 32
0.0
 14
0.0
 24
0.0
 34
0.0
 15
1682.0
 25
2378.0
 35
0.0
146
0.0
 13
0.0
 23
0.0
 33
0.0
 16
1.0
 26
0.0
 36
0.0
 17
0.0
 27
1.0
 37
0.0
 76
     0
330
1B
  0
LAYOUT
  5
22
102
{ACAD_REACTORS
330
1A
102
}
330
1A
100
AcDbPlotSettings
  1

  2
none_device
  4

  6

 40
0.0
 41
0.0
 42
0.0
 43
0.0
 44
0.0
 45
0.0
 46
0.0
 47
0.0
 48
0.0
 49
0.0
140
0.0
141
0.0
142
1.0
143
1.0
 70
  1712
 72
     0
 73
     0
 74
     0
  7

 75
     0
147
1.0
148
0.0
149
0.0
100
AcDbLayout
  1
Model
 70
     1
 71
     0
 10
0.0
 20
0.0
 11
1682.0
 21
2378.0
 12
0.0
 22
0.0
 32
0.0
 14
0.0
 24
0.0
 34
0.0
 15
1682.0
 25
2378.0
 35
0.0
146
0.0
 13
0.0
 23
0.0
 33
0.0
 16
1.0
 26
0.0
 36
0.0
 17
0.0
 27
1.0
 37
0.0
 76
     0
330
1F
331
29
  0
MLINESTYLE
  5
18
102
{ACAD_REACTORS
330
17
102
}
330
17
100
AcDbMlineStyle
  2
Standard
 70
     0
  3

 62
   256
 51
90.0
 52
90.0
 71
     2
 49
0.5
 62
   256
  6
BYLAYER
 49
-0.5
 62
   256
  6
BYLAYER
  0
ACDBPLACEHOLDER
  5
F
102
{ACAD_REACTORS
330
E
102
}
330
E
  0
SCALE
  5
3C
102
{ACAD_REACTORS
330
3B
102
}
330
3B
100
AcDbScale
 70
     0
300
1:1
140
1.0
141
1.0
290
     1
  0
SCALE
  5
3D
102
{ACAD_REACTORS
330
3B
102
}
330
3B
100
AcDbScale
 70
     0
300
1:2
140
1.0
141
2.0
290
     0
  0
SCALE
  5
3E
102
{ACAD_REACTORS
330
3B
102
}
330
3B
100
AcDbScale
 70
     0
300
1:4
140
1.0
141
4.0
290
     0
  0
SCALE
  5
3F
102
{ACAD_REACTORS
330
3B
102
}
330
3B
100
AcDbScale
 70
     0
300
1:5
140
1.0
141
5.0
290
     0
  0
SCALE
  5
40
102
{ACAD_REACTORS
330
3B
102
}
330
3B
100
AcDbScale
 70
     0
300
1:8
140
1.0
141
8.0
290
     0
  0
SCALE
  5
41
102
{ACAD_REACTORS
330
3B
102
}
330
3B
100
AcDbScale
 70
     0
300
1:10
140
1.0
141
10.0
290
     0
  0
SCALE
  5
42
102
{ACAD_REACTORS
330
3B
102
}
330
3B
100
AcDbScale
 70
     0
300
1:16
140
1.0
141
16.0
290
     0
  0
SCALE
  5
43
102
{ACAD_REACTORS
330
3B
102
}
330
3B
100
AcDbScale
 70
     0
300
1:20
140
1.0
141
20.0
290
     0
  0
SCALE
  5
44
102
{ACAD_REACTORS
330
3B
102
}
330
3B
100
AcDbScale
 70
     0
300
1:30
140
1.0
141
30.0
290
     0
  0
SCALE
  5
45
102
{ACAD_REACTORS
330
3B
102
}
330
3B
100
AcDbScale
 70
     0
300
1:40
140
1.0
141
40.0
290
     0
  0
SCALE
  5
46
102
{ACAD_REACTORS
330
3B
102
}
330
3B
100
AcDbScale
 70
     0
300
1:50
140
1.0
141
50.0
290
     0
  0
SCALE
  5
47
102
{ACAD_REACTORS
330
3B
102
}
330
3B
100
AcDbScale
 70
     0
300
1:100
140
1.0
141
100.0
290
     0
  0
SCALE
  5
48
102
{ACAD_REACTORS
330
3B
102
}
330
3B
100
AcDbScale
 70
     0
300
2:1
140
2.0
141
1.0
290
     0
  0
SCALE
  5
49
102
{ACAD_REACTORS
330
3B
102
}
330
3B
100
AcDbScale
 70
     0
300
4:1
140
4.0
141
1.0
290
     0
  0
SCALE
  5
4A
102
{ACAD_REACTORS
330
3B
102
}
330
3B
100
AcDbScale
 70
     0
300
8:1
140
8.0
141
1.0
290
     0
  0
SCALE
  5
4B
102
{ACAD_REACTORS
330
3B
102
}
330
3B
100
AcDbScale
 70
     0
300
10:1
140
10.0
141
1.0
290
     0
  0
SCALE
  5
4C
102
{ACAD_REACTORS
330
3B
102
}
330
3B
100
AcDbScale
 70
     0
300
100:1
140
100.0
141
1.0
290
     0
  0
SCALE
  5
4D
102
{ACAD_REACTORS
330
3B
102
}
330
3B
100
AcDbScale
 70
     0
300
1/128" = 1'-0"
140
0.0078125
141
12.0
290
     0
  0
SCALE
  5
4E
102
{ACAD_REACTORS
330
3B
102
}
330
3B
100
AcDbScale
 70
     0
300
1/64" = 1'-0"
140
0.015625
141
12.0
290
     0
  0
SCALE
  5
4F
102
{ACAD_REACTORS
330
3B
102
}
330
3B
100
AcDbScale
 70
     0
300
1/32" = 1'-0"
140
0.03125
141
12.0
290
     0
  0
SCALE
  5
50
102
{ACAD_REACTORS
330
3B
102
}
330
3B
100
AcDbScale
 70
     0
300
1/16" = 1'-0"
140
0.0625
141
12.0
290
     0
  0
SCALE
  5
51
102
{ACAD_REACTORS
330
3B
102
}
330
3B
100
AcDbScale
 70
     0
300
3/32" = 1'-0"
140
0.09375
141
12.0
290
     0
  0
SCALE
  5
52
102
{ACAD_REACTORS
330
3B
102
}
330
3B
100
AcDbScale
 70
     0
300
1/8" = 1'-0"
140
0.125
141
12.0
290
     0
  0
SCALE
  5
53
102
{ACAD_REACTORS
330
3B
102
}
330
3B
100
AcDbScale
 70
     0
300
3/16" = 1'-0"
140
0.1875
141
12.0
290
     0
  0
SCALE
  5
54
102
{ACAD_REACTORS
330
3B
102
}
330
3B
100
AcDbScale
 70
     0
300
1/4" = 1'-0"
140
0.25
141
12.0
290
     0
  0
SCALE
  5
55
102
{ACAD_REACTORS
330
3B
102
}
330
3B
100
AcDbScale
 70
     0
300
3/8" = 1'-0"
140
0.375
141
12.0
290
     0
  0
SCALE
  5
56
102
{ACAD_REACTORS
330
3B
102
}
330
3B
100
AcDbScale
 70
     0
300
1/2" = 1'-0"
140
0.5
141
12.0
290
     0
  0
SCALE
  5
57
102
{ACAD_REACTORS
330
3B
102
}
330
3B
100
AcDbScale
 70
     0
300
3/4" = 1'-0"
140
0.75
141
12.0
290
     0
  0
SCALE
  5
58
102
{ACAD_REACTORS
330
3B
102
}
330
3B
100
AcDbScale
 70
     0
300
1" = 1'-0"
140
1.0
141
12.0
290
     0
  0
SCALE
  5
59
102
{ACAD_REACTORS
330
3B
102
}
330
3B
100
AcDbScale
 70
     0
300
1-1/2" = 1'-0"
140
1.5
141
12.0
290
     0
  0
SCALE
  5
5A
102
{ACAD_REACTORS
330
3B
102
}
330
3B
100
AcDbScale
 70
     0
300
3" = 1'-0"
140
3.0
141
12.0
290
     0
  0
SCALE
  5
5B
102
{ACAD_REACTORS
330
3B
102
}
330
3B
100
AcDbScale
 70
     0
300
6" = 1'-0"
140
6.0
141
12.0
290
     0
  0
SCALE
  5
5C
102
{ACAD_REACTORS
330
3B
102
}
330
3B
100
AcDbScale
 70
     0
300
1'-0" = 1'-0"
140
12.0
141
12.0
290
     0
  0
VISUALSTYLE
  5
2F
102
{ACAD_REACTORS
330
2A
102
}
330
2A
100
AcDbVisualStyle
  2
2dWireframe
 70
     4
 71
     0
 72
     2
 73
     0
 90
        0
 40
-0.6
 41
-30.0
 62
     5
 63
     7
 74
     1
 91
        4
 64
     7
 65
   257
 75
     1
175
     1
 42
1.0
 92
        0
 66
   257
 43
1.0
 76
     1
 77
     6
 78
     2
 67
     7
 79
     5
170
     0
171
     0
290
     0
174
     0
 93
        1
 44
0.0
173
     0
291
     0
 45
0.0
1001
ACAD
1000
AcDbSavedByObjectVersion
1070
     0
  0
VISUALSTYLE
  5
31
102
{ACAD_REACTORS
330
2A
102
}
330
2A
100
AcDbVisualStyle
  2
3D Hidden
 70
     6
 71
     1
 72
     2
 73
     2
 90
        0
 40
-0.6
 41
-30.0
 62
     5
 63
     7
 74
     2
 91
        2
 64
     7
 65
   257
 75
     2
175
     1
 42
40.0
 92
        0
 66
   257
 43
1.0
 76
     1
 77
     6
 78
     2
 67
     7
 79
     3
170
     0
171
     0
290
     0
174
     0
 93
        1
 44
0.0
173
     0
291
     0
 45
0.0
1001
ACAD
1000
AcDbSavedByObjectVersion
1070
     0
  0
VISUALSTYLE
  5
30
102
{ACAD_REACTORS
330
2A
102
}
330
2A
100
AcDbVisualStyle
  2
3dWireframe
 70
     5
 71
     0
 72
     2
 73
     0
 90
        0
 40
-0.6
 41
-30.0
 62
     5
 63
     7
 74
     1
 91
        4
 64
     7
 65
   257
 75
     1
175
     1
 42
1.0
 92
        0
 66
   257
 43
1.0
 76
     1
 77
     6
 78
     2
 67
     7
 79
     5
170
     0
171
     0
290
     0
174
     0
 93
        1
 44
0.0
173
     0
291
     0
 45
0.0
1001
ACAD
1000
AcDbSavedByObjectVersion
1070
     0
  0
VISUALSTYLE
  5
32
102
{ACAD_REACTORS
330
2A
102
}
330
2A
100
AcDbVisualStyle
  2
Basic
 70
     7
 71
     1
 72
     0
 73
     1
 90
        0
 40
-0.6
 41
-30.0
 62
     5
 63
     7
 74
     0
 91
        4
 64
     7
 65
   257
 75
     1
175
     1
 42
1.0
 92
        8
 66
     7
 43
1.0
 76
     1
 77
     6
 78
     2
 67
     7
 79
     5
170
     0
171
     0
290
     0
174
     0
 93
        1
 44
0.0
173
     0
291
     1
 45
0.0
1001
ACAD
1000
AcDbSavedByObjectVersion
1070
     0
  0
VISUALSTYLE
  5
36
102
{ACAD_REACTORS
330
2A
102
}
330
2A
100
AcDbVisualStyle
  2
Brighten
 70
    12
 71
     2
 72
     2
 73
     0
 90
        0
 40
-0.6
 41
-30.0
 62
     5
 63
     7
 74
     1
 91
        4
 64
     7
 65
   257
 75
     1
175
     1
 42
1.0
 92
        8
 66
     7
 43
1.0
 76
     1
 77
     6
 78
     2
 67
     7
 79
     5
170
     0
171
     0
290
     0
174
     0
 93
        1
 44
50.0
173
     0
291
     1
 45
0.0
1001
ACAD
1000
AcDbSavedByObjectVersion
1070
     0
  0
VISUALSTYLE
  5
3A
102
{ACAD_REACTORS
330
2A
102
}
330
2A
100
AcDbVisualStyle
  2
ColorChange
 70
    16
 71
     2
 72
     2
 73
     3
 90
        0
 40
-0.6
 41
-30.0
 62
     5
 63
     8
 74
     1
 91
        4
 64
     7
 65
   257
 75
     1
175
     1
 42
1.0
 92
        8
 66
     8
 43
1.0
 76
     1
 77
     6
 78
     2
 67
     7
 79
     5
170
     0
171
     0
290
     0
174
     0
 93
        1
 44
0.0
173
     0
291
     1
 45
0.0
1001
ACAD
1000
AcDbSavedByObjectVersion
1070
     0
  0
VISUALSTYLE
  5
34
102
{ACAD_REACTORS
330
2A
102
}
330
2A
100
AcDbVisualStyle
  2
Conceptual
 70
     9
 71
     3
 72
     2
 73
     0
 90
        0
 40
-0.6
 41
-30.0
 62
     5
 63
     7
 74
     2
 91
        2
 64
     7
 65
   257
 75
     1
175
     1
 42
40.0
 92
        8
 66
     7
 43
1.0
 76
     1
 77
     6
 78
     2
 67
     7
 79
     3
170
     0
171
     0
290
     0
174
     0
 93
        1
 44
0.0
173
     0
291
     0
 45
0.0
1001
ACAD
1000
AcDbSavedByObjectVersion
1070
     0
  0
VISUALSTYLE
  5
35
102
{ACAD_REACTORS
330
2A
102
}
330
2A
100
AcDbVisualStyle
  2
Dim
 70
    11
 71
     2
 72
     2
 73
     0
 90
        0
 40
-0.6
 41
-30.0
 62
     5
 63
     7
 74
     1
 91
        4
 64
     7
 65
   257
 75
     1
175
     1
 42
1.0
 92
        8
 66
     7
 43
1.0
 76
     1
 77
     6
 78
     2
 67
     7
 79
     5
170
     0
171
     0
290
     0
174
     0
 93
        1
 44
-50.0
173
     0
291
     1
 45
0.0
1001
ACAD
1000
AcDbSavedByObjectVersion
1070
     0
  0
VISUALSTYLE
  5
39
102
{ACAD_REACTORS
330
2A
102
}
330
2A
100
AcDbVisualStyle
  2
Facepattern
 70
    15
 71
     2
 72
     2
 73
     0
 90
        0
 40
-0.6
 41
-30.0
 62
     5
 63
     7
 74
     1
 91
        4
 64
     7
 65
   257
 75
     1
175
     1
 42
1.0
 92
        8
 66
     7
 43
1.0
 76
     1
 77
     6
 78
     2
 67
     7
 79
     5
170
     0
171
     0
290
     0
174
     0
 93
        1
 44
0.0
173
     0
291
     1
 45
0.0
1001
ACAD
1000
AcDbSavedByObjectVersion
1070
     0
  0
VISUALSTYLE
  5
2B
102
{ACAD_REACTORS
330
2A
102
}
330
2A
100
AcDbVisualStyle
  2
Flat
 70
     0
 71
     2
 72
     1
 73
     1
 90
        2
 40
-0.6
 41
30.0
 62
     5
 63
     7
 74
     0
 91
        4
 64
     7
 65
   257
 75
     1
175
     1
 42
1.0
 92
        8
 66
     7
 43
1.0
 76
     1
 77
     6
 78
     2
 67
     7
 79
     5
170
     0
171
     0
290
     0
174
     0
 93
       13
 44
0.0
173
     0
291
     1
 45
0.0
1001
ACAD
1000
AcDbSavedByObjectVersion
1070
     0
  0
VISUALSTYLE
  5
2C
102
{ACAD_REACTORS
330
2A
102
}
330
2A
100
AcDbVisualStyle
  2
FlatWithEdges
 70
     1
 71
     2
 72
     1
 73
     1
 90
        2
 40
-0.6
 41
30.0
 62
     5
 63
     7
 74
     1
 91
        4
 64
     7
 65
   257
 75
     1
175
     1
 42
1.0
 92
        0
 66
   257
 43
1.0
 76
     1
 77
     6
 78
     2
 67
     7
 79
     5
170
     0
171
     0
290
     0
174
     0
 93
       13
 44
0.0
173
     0
291
     1
 45
0.0
1001
ACAD
1000
AcDbSavedByObjectVersion
1070
     0
  0
VISUALSTYLE
  5
2D
102
{ACAD_REACTORS
330
2A
102
}
330
2A
100
AcDbVisualStyle
  2
Gouraud
 70
     2
 71
     2
 72
     2
 73
     1
 90
        2
 40
-0.6
 41
30.0
 62
     5
 63
     7
 74
     0
 91
        4
 64
     7
 65
   257
 75
     1
175
     1
 42
1.0
 92
        0
 66
     7
 43
1.0
 76
     1
 77
     6
 78
     2
 67
     7
 79
     5
170
     0
171
     0
290
     0
174
     0
 93
       13
 44
0.0
173
     0
291
     1
 45
0.0
1001
ACAD
1000
AcDbSavedByObjectVersion
1070
     0
  0
VISUALSTYLE
  5
2E
102
{ACAD_REACTORS
330
2A
102
}
330
2A
100
AcDbVisualStyle
  2
GouraudWithEdges
 70
     3
 71
     2
 72
     2
 73
     1
 90
        2
 40
-0.6
 41
30.0
 62
     5
 63
     7
 74
     1
 91
        4
 64
     7
 65
   257
 75
     1
175
     1
 42
1.0
 92
        0
 66
   257
 43
1.0
 76
     1
 77
     6
 78
     2
 67
     7
 79
     5
170
     0
171
     0
290
     0
174
     0
 93
       13
 44
0.0
173
     0
291
     1
 45
0.0
1001
ACAD
1000
AcDbSavedByObjectVersion
1070
     0
  0
VISUALSTYLE
  5
38
102
{ACAD_REACTORS
330
2A
102
}
330
2A
100
AcDbVisualStyle
  2
Linepattern
 70
    14
 71
     2
 72
     2
 73
     0
 90
        0
 40
-0.6
 41
-30.0
 62
     5
 63
     7
 74
     1
 91
        4
 64
     7
 65
   257
 75
     7
175
     7
 42
1.0
 92
        8
 66
     7
 43
1.0
 76
     1
 77
     6
 78
     2
 67
     7
 79
     5
170
     0
171
     0
290
     0
174
     0
 93
        1
 44
0.0
173
     0
291
     1
 45
0.0
1001
ACAD
1000
AcDbSavedByObjectVersion
1070
     0
  0
VISUALSTYLE
  5
33
102
{ACAD_REACTORS
330
2A
102
}
330
2A
100
AcDbVisualStyle
  2
Realistic
 70
     8
 71
     2
 72
     2
 73
     0
 90
        0
 40
-0.6
 41
-30.0
 62
     5
 63
     7
 74
     1
 91
        0
 64
     7
 65
   257
 75
     1
175
     1
 42
1.0
 92
        8
 66
     8
 43
1.0
 76
     1
 77
     6
 78
     2
 67
     7
 79
     5
170
     0
171
     0
290
     0
174
     0
 93
       13
 44
0.0
173
     0
291
     0
 45
0.0
1001
ACAD
1000
AcDbSavedByObjectVersion
1070
     0
  0
VISUALSTYLE
  5
37
102
{ACAD_REACTORS
330
2A
102
}
330
2A
100
AcDbVisualStyle
  2
Thicken
 70
    13
 71
     2
 72
     2
 73
     0
 90
        0
 40
-0.6
 41
-30.0
 62
     5
 63
     7
 74
     1
 91
        4
 64
     7
 65
   257
 75
     1
175
     1
 42
1.0
 92
       12
 66
     7
 43
1.0
 76
     1
 77
     6
 78
     2
 67
     7
 79
     5
170
     0
171
     0
290
     0
174
     0
 93
        1
 44
0.0
173
     0
291
     1
 45
0.0
1001
ACAD
1000
AcDbSavedByObjectVersion
1070
     0
  0
DICTIONARYVAR
  5
162
102
{ACAD_REACTORS
330
161
102
}
330
161
100
DictionaryVariables
280
     0
  1
1:1
  0
DICTIONARYVAR
  5
166
102
{ACAD_REACTORS
330
161
102
}
330
161
100
DictionaryVariables
280
     0
  1
80.000000
  0
DICTIONARYVAR
  5
165
102
{ACAD_REACTORS
330
161
102
}
330
161
100
DictionaryVariables
280
     0
  1
5.000000
  0
ENDSEC
  0
EOF
