  0
SECTION
  2
HEADER
  9
$ACADVER
  1
AC1015
  9
$ACADMAINTVER
 70
     6
  9
$DWGCODEPAGE
  3
ANSI_1252
  9
$INSBASE
 10
0.0
 20
0.0
 30
0.0
  9
$EXTMIN
 10
0.0
 20
0.0
 30
0.0
  9
$EXTMAX
 10
1682.0
 20
2378.0
 30
0.0
  9
$LIMMIN
 10
0.0
 20
0.0
  9
$LIMMAX
 10
1682.0
 20
2378.0
  9
$ORTHOMODE
 70
     0
  9
$REGENMODE
 70
     1
  9
$FILLMODE
 70
     1
  9
$QTEXTMODE
 70
     0
  9
$MIRRTEXT
 70
     1
  9
$LTSCALE
 40
1.0
  9
$ATTMODE
 70
     1
  9
$TEXTSIZE
 40
2.5
  9
$TRACEWID
 40
1.0
  9
$TEXTSTYLE
  7
Standard
  9
$CLAYER
  8
0
  9
$CELTYPE
  6
ByLayer
  9
$CECOLOR
 62
   256
  9
$CELTSCALE
 40
1.0
  9
$DISPSILH
 70
     0
  9
$DIMSCALE
 40
1.0
  9
$DIMASZ
 40
2.5
  9
$DIMEXO
 40
0.625
  9
$DIMDLI
 40
3.75
  9
$DIMRND
 40
0.0
  9
$DIMDLE
 40
0.0
  9
$DIMEXE
 40
1.25
  9
$DIMTP
 40
0.0
  9
$DIMTM
 40
0.0
  9
$DIMTXT
 40
2.5
  9
$DIMCEN
 40
2.5
  9
$DIMTSZ
 40
0.0
  9
$DIMTOL
 70
     0
  9
$DIMLIM
 70
     0
  9
$DIMTIH
 70
     0
  9
$DIMTOH
 70
     0
  9
$DIMSE1
 70
     0
  9
$DIMSE2
 70
     0
  9
$DIMTAD
 70
     1
  9
$DIMZIN
 70
     8
  9
$DIMBLK
  1

  9
$DIMASO
 70
     1
  9
$DIMSHO
 70
     1
  9
$DIMPOST
  1

  9
$DIMAPOST
  1

  9
$DIMALT
 70
     0
  9
$DIMALTD
 70
     3
  9
$DIMALTF
 40
0.0393700787
  9
$DIMLFAC
 40
1.0
  9
$DIMTOFL
 70
     1
  9
$DIMTVP
 40
0.0
  9
$DIMTIX
 70
     0
  9
$DIMSOXD
 70
     0
  9
$DIMSAH
 70
     0
  9
$DIMBLK1
  1

  9
$DIMBLK2
  1

  9
$DIMSTYLE
  2
ISO-25
  9
$DIMCLRD
 70
     0
  9
$DIMCLRE
 70
     0
  9
$DIMCLRT
 70
     0
  9
$DIMTFAC
 40
1.0
  9
$DIMGAP
 40
0.625
  9
$DIMJUST
 70
     0
  9
$DIMSD1
 70
     0
  9
$DIMSD2
 70
     0
  9
$DIMTOLJ
 70
     0
  9
$DIMTZIN
 70
     8
  9
$DIMALTZ
 70
     0
  9
$DIMALTTZ
 70
     0
  9
$DIMUPT
 70
     0
  9
$DIMDEC
 70
     2
  9
$DIMTDEC
 70
     2
  9
$DIMALTU
 70
     2
  9
$DIMALTTD
 70
     3
  9
$DIMTXSTY
  7
Standard
  9
$DIMAUNIT
 70
     0
  9
$DIMADEC
 70
     0
  9
$DIMALTRND
 40
0.0
  9
$DIMAZIN
 70
     0
  9
$DIMDSEP
 70
    44
  9
$DIMATFIT
 70
     3
  9
$DIMFRAC
 70
     0
  9
$DIMLDRBLK
  1

  9
$DIMLUNIT
 70
     2
  9
$DIMLWD
 70
    -2
  9
$DIMLWE
 70
    -2
  9
$DIMTMOVE
 70
     0
  9
$LUNITS
 70
     2
  9
$LUPREC
 70
     4
  9
$SKETCHINC
 40
1.0
  9
$FILLETRAD
 40
10.0
  9
$AUNITS
 70
     0
  9
$AUPREC
 70
     0
  9
$MENU
  1
.
  9
$ELEVATION
 40
0.0
  9
$PELEVATION
 40
0.0
  9
$THICKNESS
 40
0.0
  9
$LIMCHECK
 70
     0
  9
$CHAMFERA
 40
10.0
  9
$CHAMFERB
 40
10.0
  9
$CHAMFERC
 40
20.0
  9
$CHAMFERD
 40
0.0
  9
$SKPOLY
 70
     0
  9
$TDCREATE
 40
2455519.624557778
  9
$TDUCREATE
 40
2455519.582891111
  9
$TDUPDATE
 40
2455519.624557789
  9
$TDUUPDATE
 40
2455519.582891123
  9
$TDINDWG
 40
0.0000000116
  9
$TDUSRTIMER
 40
0.0000000116
  9
$USRTIMER
 70
     1
  9
$ANGBASE
 50
0.0
  9
$ANGDIR
 70
     0
  9
$PDMODE
 70
     0
  9
$PDSIZE
 40
0.0
  9
$PLINEWID
 40
0.0
  9
$SPLFRAME
 70
     0
  9
$SPLINETYPE
 70
     6
  9
$SPLINESEGS
 70
     8
  9
$HANDSEED
  5
116
  9
$SURFTAB1
 70
     6
  9
$SURFTAB2
 70
     6
  9
$SURFTYPE
 70
     6
  9
$SURFU
 70
     6
  9
$SURFV
 70
     6
  9
$UCSBASE
  2

  9
$UCSNAME
  2

  9
$UCSORG
 10
0.0
 20
0.0
 30
0.0
  9
$UCSXDIR
 10
1.0
 20
0.0
 30
0.0
  9
$UCSYDIR
 10
0.0
 20
1.0
 30
0.0
  9
$UCSORTHOREF
  2

  9
$UCSORTHOVIEW
 70
     0
  9
$UCSORGTOP
 10
0.0
 20
0.0
 30
0.0
  9
$UCSORGBOTTOM
 10
0.0
 20
0.0
 30
0.0
  9
$UCSORGLEFT
 10
0.0
 20
0.0
 30
0.0
  9
$UCSORGRIGHT
 10
0.0
 20
0.0
 30
0.0
  9
$UCSORGFRONT
 10
0.0
 20
0.0
 30
0.0
  9
$UCSORGBACK
 10
0.0
 20
0.0
 30
0.0
  9
$PUCSBASE
  2

  9
$PUCSNAME
  2

  9
$PUCSORG
 10
0.0
 20
0.0
 30
0.0
  9
$PUCSXDIR
 10
1.0
 20
0.0
 30
0.0
  9
$PUCSYDIR
 10
0.0
 20
1.0
 30
0.0
  9
$PUCSORTHOREF
  2

  9
$PUCSORTHOVIEW
 70
     0
  9
$PUCSORGTOP
 10
0.0
 20
0.0
 30
0.0
  9
$PUCSORGBOTTOM
 10
0.0
 20
0.0
 30
0.0
  9
$PUCSORGLEFT
 10
0.0
 20
0.0
 30
0.0
  9
$PUCSORGRIGHT
 10
0.0
 20
0.0
 30
0.0
  9
$PUCSORGFRONT
 10
0.0
 20
0.0
 30
0.0
  9
$PUCSORGBACK
 10
0.0
 20
0.0
 30
0.0
  9
$USERI1
 70
     0
  9
$USERI2
 70
     0
  9
$USERI3
 70
     0
  9
$USERI4
 70
     0
  9
$USERI5
 70
     0
  9
$USERR1
 40
0.0
  9
$USERR2
 40
0.0
  9
$USERR3
 40
0.0
  9
$USERR4
 40
0.0
  9
$USERR5
 40
0.0
  9
$WORLDVIEW
 70
     1
  9
$SHADEDGE
 70
     3
  9
$SHADEDIF
 70
    70
  9
$TILEMODE
 70
     1
  9
$MAXACTVP
 70
    64
  9
$PINSBASE
 10
0.0
 20
0.0
 30
0.0
  9
$PLIMCHECK
 70
     0
  9
$PEXTMIN
 10
0.0
 20
0.0
 30
0.0
  9
$PEXTMAX
 10
1682.0
 20
2378.0
 30
0.0
  9
$PLIMMIN
 10
0.0
 20
0.0
  9
$PLIMMAX
 10
1682.0
 20
2378.0
  9
$UNITMODE
 70
     0
  9
$VISRETAIN
 70
     1
  9
$PLINEGEN
 70
     0
  9
$PSLTSCALE
 70
     1
  9
$TREEDEPTH
 70
  3020
  9
$CMLSTYLE
  2
Standard
  9
$CMLJUST
 70
     0
  9
$CMLSCALE
 40
20.0
  9
$PROXYGRAPHICS
 70
     1
  9
$MEASUREMENT
 70
     1
  9
$CELWEIGHT
370
    -1
  9
$ENDCAPS
280
     0
  9
$JOINSTYLE
280
     0
  9
$LWDISPLAY
290
     0
  9
$INSUNITS
 70
     4
  9
$HYPERLINKBASE
  1

  9
$STYLESHEET
  1

  9
$XEDIT
290
     1
  9
$CEPSNTYPE
380
     0
  9
$PSTYLEMODE
290
     1
  9
$FINGERPRINTGUID
  2
{EEF7E283-C24B-4F87-9838-4F338CAA17FA}
  9
$VERSIONGUID
  2
{FAEB1C32-E019-11D5-929B-00C0DF256EC4}
  9
$EXTNAMES
290
     1
  9
$PSVPSCALE
 40
0.0
  9
$OLESTARTUP
290
     0
  0
ENDSEC
  0
SECTION
  2
CLASSES
  0
CLASS
  1
ACDBDICTIONARYWDFLT
  2
AcDbDictionaryWithDefault
  3
ObjectDBX Classes
 90
        0
280
     0
281
     0
  0
CLASS
  1
VISUALSTYLE
  2
AcDbVisualStyle
  3
ObjectDBX Classes
 90
     4095
280
     0
281
     0
  0
CLASS
  1
SCALE
  2
AcDbScale
  3
ObjectDBX Classes
 90
     1153
280
     0
281
     0
  0
CLASS
  1
DICTIONARYVAR
  2
AcDbDictionaryVar
  3
ObjectDBX Classes
 90
        0
280
     0
281
     0
  0
CLASS
  1
ACDBPLACEHOLDER
  2
AcDbPlaceHolder
  3
ObjectDBX Classes
 90
        0
280
     0
281
     0
  0
CLASS
  1
LAYOUT
  2
AcDbLayout
  3
ObjectDBX Classes
 90
        0
280
     0
281
     0
  0
ENDSEC
  0
SECTION
  2
TABLES
  0
TABLE
  2
VPORT
  5
8
330
0
100
AcDbSymbolTable
 70
     1
  0
VPORT
  5
29
330
8
100
AcDbSymbolTableRecord
100
AcDbViewportTableRecord
  2
*Active
 70
     0
 10
0.0
 20
0.0
 11
1.0
 21
1.0
 12
344.1869158879
 22
148.5
 13
0.0
 23
0.0
 14
10.0
 24
10.0
 15
10.0
 25
10.0
 16
0.0
 26
0.0
 36
1.0
 17
0.0
 27
0.0
 37
0.0
 40
297.0
 41
1.9729729729
 42
50.0
 43
0.0
 44
0.0
 50
0.0
 51
0.0
 71
     0
 72
   100
 73
     1
 74
     3
 75
     0
 76
     0
 77
     0
 78
     0
281
     0
 65
     1
110
0.0
120
0.0
130
0.0
111
1.0
121
0.0
131
0.0
112
0.0
122
1.0
132
0.0
 79
     0
146
0.0
  0
ENDTAB
  0
TABLE
  2
LTYPE
  5
5
330
0
100
AcDbSymbolTable
 70
     2
  0
LTYPE
  5
14
330
5
100
AcDbSymbolTableRecord
100
AcDbLinetypeTableRecord
  2
ByBlock
 70
     0
  3

 72
    65
 73
     0
 40
0.0
  0
LTYPE
  5
15
330
5
100
AcDbSymbolTableRecord
100
AcDbLinetypeTableRecord
  2
ByLayer
 70
     0
  3

 72
    65
 73
     0
 40
0.0
  0
LTYPE
  5
16
330
5
100
AcDbSymbolTableRecord
100
AcDbLinetypeTableRecord
  2
Continuous
 70
     0
  3
Solid line
 72
    65
 73
     0
 40
0.0
  0
LTYPE
  5
60
330
5
100
AcDbSymbolTableRecord
100
AcDbLinetypeTableRecord
  2
CENTER2
 70
     0
  3
Center (.5x) ___ _ ___ _ ___ _ ___ _ ___ _ ___
 72
    65
 73
     4
 40
28.575
 49
19.05
 74
     4
 75
     0
340
0
 46
0.0
 50
0.0
 44
0.0
 45
0.0
 49
-3.175
 74
     4
 75
     0
340
0
 46
0.0
 50
0.0
 44
0.0
 45
0.0
 49
3.175
 74
     4
 75
     0
340
0
 46
0.0
 50
0.0
 44
0.0
 45
0.0
 49
-3.175
 74
     4
 75
     0
340
0
 46
0.0
 50
0.0
 44
0.0
 45
0.0
  0
ENDTAB
  0
TABLE
  2
LAYER
  5
2
330
0
100
AcDbSymbolTable
 70
     9
  0
LAYER
  5
10
330
2
100
AcDbSymbolTableRecord
100
AcDbLayerTableRecord
  2
0
 70
     0
 62
     7
  6
Continuous
370
    -3
390
F
  0
LAYER
  5
5D
330
2
100
AcDbSymbolTableRecord
100
AcDbLayerTableRecord
  2
Default
 70
     0
 62
     7
  6
Continuous
370
    -3
390
F
  0
LAYER
  5
77
330
2
100
AcDbSymbolTableRecord
100
AcDbLayerTableRecord
  2
$DDT_AUDIT_GENERATED_(77)
 70
     0
 62
     7
  6
Continuous
370
    -3
390
F
  0
LAYER
  5
7D
330
2
100
AcDbSymbolTableRecord
100
AcDbLayerTableRecord
  2
$DDT_AUDIT_GENERATED_(7D)
 70
     0
 62
     7
  6
Continuous
370
    -3
390
F
  0
LAYER
  5
86
330
2
100
AcDbSymbolTableRecord
100
AcDbLayerTableRecord
  2
$DDT_AUDIT_GENERATED_(86)
 70
     0
 62
     7
  6
Continuous
370
    -3
390
F
  0
LAYER
  5
91
330
2
100
AcDbSymbolTableRecord
100
AcDbLayerTableRecord
  2
$DDT_AUDIT_GENERATED_(91)
 70
     0
 62
     7
  6
Continuous
370
    -3
390
F
  0
LAYER
  5
9A
330
2
100
AcDbSymbolTableRecord
100
AcDbLayerTableRecord
  2
$DDT_AUDIT_GENERATED_(9A)
 70
     0
 62
     7
  6
Continuous
370
    -3
390
F
  0
LAYER
  5
AF
330
2
100
AcDbSymbolTableRecord
100
AcDbLayerTableRecord
  2
$DDT_AUDIT_GENERATED_(AF)
 70
     0
 62
     7
  6
Continuous
370
    -3
390
F
  0
LAYER
  5
BA
330
2
100
AcDbSymbolTableRecord
100
AcDbLayerTableRecord
  2
$DDT_AUDIT_GENERATED_(BA)
 70
     0
 62
     7
  6
Continuous
370
    -3
390
F
  0
ENDTAB
  0
TABLE
  2
STYLE
  5
3
330
0
100
AcDbSymbolTable
 70
     2
  0
STYLE
  5
11
330
3
100
AcDbSymbolTableRecord
100
AcDbTextStyleTableRecord
  2
Standard
 70
     0
 40
0.0
 41
1.0
 50
0.0
 71
     0
 42
2.5
  3
txt
  4

  0
STYLE
  5
105
330
3
100
AcDbSymbolTableRecord
100
AcDbTextStyleTableRecord
  2
SEACAD_seiso_ttf
 70
     0
 40
0.0
 41
1.0
 50
0.0
 71
     0
 42
0.2
  3
seiso.ttf
  4

  0
ENDTAB
  0
TABLE
  2
VIEW
  5
6
330
0
100
AcDbSymbolTable
 70
     0
  0
ENDTAB
  0
TABLE
  2
UCS
  5
7
330
0
100
AcDbSymbolTable
 70
     0
  0
ENDTAB
  0
TABLE
  2
APPID
  5
9
330
0
100
AcDbSymbolTable
 70
     1
  0
APPID
  5
12
330
9
100
AcDbSymbolTableRecord
100
AcDbRegAppTableRecord
  2
ACAD
 70
     0
  0
ENDTAB
  0
TABLE
  2
DIMSTYLE
  5
A
330
0
100
AcDbSymbolTable
 70
     1
100
AcDbDimStyleTable
  0
DIMSTYLE
105
27
330
A
100
AcDbSymbolTableRecord
100
AcDbDimStyleTableRecord
  2
ISO-25
 70
     0
 41
2.5
 42
0.625
 43
3.75
 44
1.25
 73
     0
 74
     0
 77
     1
 78
     8
140
2.5
141
2.5
143
0.0393700787
147
0.625
171
     3
172
     1
271
     2
272
     2
274
     3
278
    44
283
     0
284
     8
340
11
  0
ENDTAB
  0
TABLE
  2
BLOCK_RECORD
  5
1
330
0
100
AcDbSymbolTable
 70
     7
  0
BLOCK_RECORD
  5
1F
330
1
100
AcDbSymbolTableRecord
100
AcDbBlockTableRecord
  2
*Model_Space
340
22
  0
BLOCK_RECORD
  5
1B
330
1
100
AcDbSymbolTableRecord
100
AcDbBlockTableRecord
  2
*Paper_Space
340
1E
  0
BLOCK_RECORD
  5
5E
330
1
100
AcDbSymbolTableRecord
100
AcDbBlockTableRecord
  2
SEANNOT_GROUP
340
0
102
{BLKREFS
331
5F
102
}
  0
BLOCK_RECORD
  5
65
330
1
100
AcDbSymbolTableRecord
100
AcDbBlockTableRecord
  2
SEANNOT_GROUP1
340
0
102
{BLKREFS
331
66
102
}
  0
BLOCK_RECORD
  5
6F
330
1
100
AcDbSymbolTableRecord
100
AcDbBlockTableRecord
  2
SEANNOT_GROUP2
340
0
102
{BLKREFS
331
70
102
}
  0
BLOCK_RECORD
  5
75
330
1
100
AcDbSymbolTableRecord
100
AcDbBlockTableRecord
  2
SE
340
0
102
{BLKREFS
331
76
102
}
  0
BLOCK_RECORD
  5
C2
330
1
100
AcDbSymbolTableRecord
100
AcDbBlockTableRecord
  2
SE1
340
0
102
{BLKREFS
331
C3
102
}
  0
BLOCK_RECORD
  5
EB
330
1
100
AcDbSymbolTableRecord
100
AcDbBlockTableRecord
  2
SE2
340
0
102
{BLKREFS
331
EC
102
}
  0
ENDTAB
  0
ENDSEC
  0
SECTION
  2
BLOCKS
  0
BLOCK
  5
20
330
1F
100
AcDbEntity
  8
0
100
AcDbBlockBegin
  2
*Model_Space
 70
     0
 10
0.0
 20
0.0
 30
0.0
  3
*Model_Space
  1

  0
ENDBLK
  5
21
330
1F
100
AcDbEntity
  8
0
100
AcDbBlockEnd
  0
BLOCK
  5
1C
330
1B
100
AcDbEntity
 67
     1
  8
0
100
AcDbBlockBegin
  2
*Paper_Space
 70
     0
 10
0.0
 20
0.0
 30
0.0
  3
*Paper_Space
  1

  0
ENDBLK
  5
1D
330
1B
100
AcDbEntity
 67
     1
  8
0
100
AcDbBlockEnd
  0
BLOCK
  5
63
330
5E
100
AcDbEntity
  8
0
100
AcDbBlockBegin
  2
SEANNOT_GROUP
 70
     0
 10
0.0
 20
0.0
 30
0.0
  3
SEANNOT_GROUP
  1

  0
LINE
  5
61
330
5E
100
AcDbEntity
  8
Default
  6
CENTER2
 62
     7
100
AcDbLine
 10
99.543450555
 20
212.9523010908
 30
0.0
 11
59.5434514491
 21
212.9523010908
 31
0.0
  0
LINE
  5
62
330
5E
100
AcDbEntity
  8
Default
  6
CENTER2
 62
     7
100
AcDbLine
 10
79.5434510021
 20
232.9523006438
 30
0.0
 11
79.5434510021
 21
192.9523015379
 31
0.0
  0
ENDBLK
  5
64
330
5E
100
AcDbEntity
  8
0
100
AcDbBlockEnd
  0
BLOCK
  5
6D
330
65
100
AcDbEntity
  8
0
100
AcDbBlockBegin
  2
SEANNOT_GROUP1
 70
     0
 10
0.0
 20
0.0
 30
0.0
  3
SEANNOT_GROUP1
  1

  0
LINE
  5
67
330
65
100
AcDbEntity
  8
Default
  6
CENTER2
 62
     7
100
AcDbLine
 10
99.5434277009
 20
335.7645281419
 30
0.0
 11
59.543428595
 21
335.7645281419
 31
0.0
  0
LINE
  5
68
330
65
100
AcDbEntity
  8
Default
  6
CENTER2
 62
     7
100
AcDbLine
 10
79.543428148
 20
355.7645276948
 30
0.0
 11
79.543428148
 21
315.7645285889
 31
0.0
  0
LINE
  5
69
330
65
100
AcDbEntity
  8
Default
  6
CENTER2
 62
     7
100
AcDbLine
 10
104.5434275892
 20
335.7645281419
 30
0.0
 11
113.043428148
 21
335.7645281419
 31
0.0
  0
LINE
  5
6A
330
65
100
AcDbEntity
  8
Default
  6
CENTER2
 62
     7
100
AcDbLine
 10
79.543428148
 20
360.7645275831
 30
0.0
 11
79.543428148
 21
369.2645281419
 31
0.0
  0
LINE
  5
6B
330
65
100
AcDbEntity
  8
Default
  6
CENTER2
 62
     7
100
AcDbLine
 10
54.5434287068
 20
335.7645281419
 30
0.0
 11
46.043428148
 21
335.7645281419
 31
0.0
  0
LINE
  5
6C
330
65
100
AcDbEntity
  8
Default
  6
CENTER2
 62
     7
100
AcDbLine
 10
79.543428148
 20
310.7645287007
 30
0.0
 11
79.543428148
 21
302.2645281419
 31
0.0
  0
ENDBLK
  5
6E
330
65
100
AcDbEntity
  8
0
100
AcDbBlockEnd
  0
BLOCK
  5
73
330
6F
100
AcDbEntity
  8
0
100
AcDbBlockBegin
  2
SEANNOT_GROUP2
 70
     0
 10
0.0
 20
0.0
 30
0.0
  3
SEANNOT_GROUP2
  1

  0
LINE
  5
71
330
6F
100
AcDbEntity
  8
Default
  6
CENTER2
 62
     7
100
AcDbLine
 10
229.7961442038
 20
335.7645057818
 30
0.0
 11
189.7961450979
 21
335.7645057818
 31
0.0
  0
LINE
  5
72
330
6F
100
AcDbEntity
  8
Default
  6
CENTER2
 62
     7
100
AcDbLine
 10
209.7961446509
 20
355.7645053348
 30
0.0
 11
209.7961446509
 21
315.7645062289
 31
0.0
  0
ENDBLK
  5
74
330
6F
100
AcDbEntity
  8
0
100
AcDbBlockEnd
  0
BLOCK
  5
C0
330
75
100
AcDbEntity
  8
0
100
AcDbBlockBegin
  2
SE
 70
     0
 10
0.0
 20
0.0
 30
0.0
  3
SE
  1

  0
ARC
  5
78
330
75
100
AcDbEntity
  8
$DDT_AUDIT_GENERATED_(77)
  6
Continuous
 62
     7
100
AcDbCircle
 10
79.5434326029
 20
335.764528142
 30
0.0
 40
24.7499999999987
100
AcDbArc
 50
16.4236028148
 51
163.5763971852
  0
ARC
  5
79
330
75
100
AcDbEntity
  8
$DDT_AUDIT_GENERATED_(77)
  6
Continuous
 62
     7
100
AcDbCircle
 10
79.5434326029
 20
335.764528142
 30
0.0
 40
24.7499999999987
100
AcDbArc
 50
196.9178792314
 51
343.0821207686
  0
SPLINE
  5
7A
330
75
100
AcDbEntity
  8
$DDT_AUDIT_GENERATED_(77)
  6
Continuous
 62
     7
100
AcDbSpline
210
0.0
220
0.0
230
1.0
 70
     8
 71
     3
 72
    14
 73
    10
 74
     0
 42
0.0000000000527477
 43
0.0000000001
 40
0.0
 40
0.0
 40
0.0
 40
0.0
 40
0.0625
 40
0.0625
 40
0.125
 40
0.125
 40
0.1875
 40
0.1875
 40
0.2125307440953733
 40
0.2125307440953733
 40
0.2125307440953733
 40
0.2125307440953733
 10
79.54342814797027
 20
365.764534008659
 30
0.0
 10
83.47042265983866
 20
365.7645370002539
 30
0.0
 10
87.39587266188822
 20
364.9837195560527
 30
0.0
 10
94.65201465915445
 20
361.9781336064378
 30
0.0
 10
97.97985167234702
 20
359.7545476707507
 30
0.0
 10
103.5334648011499
 20
354.2009430034557
 30
0.0
 10
105.7570558071446
 20
350.8731093781344
 30
0.0
 10
107.8617129456078
 20
345.792028518536
 30
0.0
 10
108.3477712795932
 20
344.2913184530655
 30
0.0
 10
108.7142492975309
 20
342.7619138113819
 30
0.0
  0
SPLINE
  5
7B
330
75
100
AcDbEntity
  8
$DDT_AUDIT_GENERATED_(77)
  6
Continuous
 62
     7
100
AcDbSpline
210
0.0
220
0.0
230
1.0
 70
     8
 71
     3
 72
    22
 73
    18
 74
     0
 42
0.0000000000527504
 43
0.0000000001
 40
0.2818167649175412
 40
0.2818167649175412
 40
0.2818167649175412
 40
0.2818167649175412
 40
0.3125
 40
0.3125
 40
0.375
 40
0.375
 40
0.4375
 40
0.4375
 40
0.5
 40
0.5
 40
0.5625
 40
0.5625
 40
0.625
 40
0.625
 40
0.6875
 40
0.6875
 40
0.7181693284163673
 40
0.7181693284163673
 40
0.7181693284163673
 40
0.7181693284163673
 10
108.9441969753182
 20
329.8074329255653
 30
0.0
 10
108.561403199113
 20
327.9179561959236
 30
0.0
 10
107.9976406034906
 20
326.065148408947
 30
0.0
 10
105.7570788266626
 20
320.6559421247633
 30
0.0
 10
103.5334928909755
 20
317.3281051115707
 30
0.0
 10
97.9798882236805
 20
311.7744919827678
 30
0.0
 10
94.65205459835913
 20
309.5509009767732
 30
0.0
 10
87.39591718042801
 20
306.5453039716655
 30
0.0
 10
83.47046836804057
 20
305.7644805466288
 30
0.0
 10
75.61647934430385
 20
305.7644745634391
 30
0.0
 10
71.69102934225427
 20
306.5452920076402
 30
0.0
 10
64.43488734498806
 20
309.5508779572551
 30
0.0
 10
61.10705033179548
 20
311.7744638929422
 30
0.0
 10
55.55343720299256
 20
317.3280685602372
 30
0.0
 10
53.32984619699795
 20
320.6559021855586
 30
0.0
 10
51.08961056134887
 20
326.0642977865627
 30
0.0
 10
50.52602183045516
 20
327.9162324908878
 30
0.0
 10
50.14323470526549
 20
329.8048190321071
 30
0.0
  0
SPLINE
  5
7C
330
75
100
AcDbEntity
  8
$DDT_AUDIT_GENERATED_(77)
  6
Continuous
 62
     7
100
AcDbSpline
210
0.0
220
0.0
230
1.0
 70
     8
 71
     3
 72
    14
 73
    10
 74
     0
 42
0.0000000000527477
 43
0.0000000001
 40
0.7874694961339562
 40
0.7874694961339562
 40
0.7874694961339562
 40
0.7874694961339562
 40
0.8125
 40
0.8125
 40
0.875
 40
0.875
 40
0.9375
 40
0.9375
 40
1.0
 40
1.0
 40
1.0
 40
1.0
 10
50.37265259699957
 20
342.7619134013889
 30
0.0
 10
50.73912706281656
 20
344.291303372392
 30
0.0
 10
51.22517955681996
 20
345.7919993177755
 30
0.0
 10
53.32982317747989
 20
350.8730694389296
 30
0.0
 10
55.55340911316697
 20
354.2009064521222
 30
0.0
 10
61.10701378046196
 20
359.7545195809251
 30
0.0
 10
64.43484740578336
 20
361.9781105869198
 30
0.0
 10
71.69098482371447
 20
364.9837075920275
 30
0.0
 10
75.61643363610189
 20
365.7645310170642
 30
0.0
 10
79.54342814797027
 20
365.764534008659
 30
0.0
  0
ARC
  5
7E
330
75
100
AcDbEntity
  8
$DDT_AUDIT_GENERATED_(7D)
  6
Continuous
 62
     7
100
AcDbCircle
 10
92.043428148
 20
355.664276884
 30
0.0
 40
3.0
100
AcDbArc
 50
253.5263851802
 51
264.0521193915
  0
ARC
  5
7F
330
75
100
AcDbEntity
  8
$DDT_AUDIT_GENERATED_(7D)
  6
Continuous
 62
     7
100
AcDbCircle
 10
92.043428148
 20
355.664276884
 30
0.0
 40
3.0
100
AcDbArc
 50
211.6780246002
 51
221.8821246748
  0
ARC
  5
80
330
75
100
AcDbEntity
  8
$DDT_AUDIT_GENERATED_(7D)
  6
Continuous
 62
     7
100
AcDbCircle
 10
92.043428148
 20
315.8647793997
 30
0.0
 40
3.0
100
AcDbArc
 50
137.2565925393
 51
148.3219753998
  0
ARC
  5
81
330
75
100
AcDbEntity
  8
$DDT_AUDIT_GENERATED_(7D)
  6
Continuous
 62
     7
100
AcDbCircle
 10
92.043428148
 20
315.8647793997
 30
0.0
 40
3.0
100
AcDbArc
 50
95.9478806085
 51
106.1691089559
  0
ARC
  5
82
330
75
100
AcDbEntity
  8
$DDT_AUDIT_GENERATED_(7D)
  6
Continuous
 62
     7
100
AcDbCircle
 10
67.043428148
 20
315.8647793997
 30
0.0
 40
3.0
100
AcDbArc
 50
74.6237184736
 51
84.0521193915
  0
ARC
  5
83
330
75
100
AcDbEntity
  8
$DDT_AUDIT_GENERATED_(7D)
  6
Continuous
 62
     7
100
AcDbCircle
 10
67.043428148
 20
315.8647793997
 30
0.0
 40
3.0
100
AcDbArc
 50
31.6780246002
 51
41.1010390857
  0
ARC
  5
84
330
75
100
AcDbEntity
  8
$DDT_AUDIT_GENERATED_(7D)
  6
Continuous
 62
     7
100
AcDbCircle
 10
67.043428148
 20
355.664276884
 30
0.0
 40
3.0
100
AcDbArc
 50
317.3608703228
 51
328.3219753998
  0
ARC
  5
85
330
75
100
AcDbEntity
  8
$DDT_AUDIT_GENERATED_(7D)
  6
Continuous
 62
     7
100
AcDbCircle
 10
67.043428148
 20
355.664276884
 30
0.0
 40
3.0
100
AcDbArc
 50
275.9478806085
 51
286.3574485099
  0
SPLINE
  5
87
330
75
100
AcDbEntity
  8
$DDT_AUDIT_GENERATED_(86)
  6
Continuous
 62
     7
100
AcDbSpline
210
0.0
220
0.0
230
1.0
 70
     8
 71
     3
 72
    22
 73
    18
 74
     0
 42
0.0000000000641846
 43
0.0000000001
 40
0.0472160388404614
 40
0.0472160388404614
 40
0.0472160388404614
 40
0.0472160388404614
 40
0.0625
 40
0.0625
 40
0.125
 40
0.125
 40
0.1875
 40
0.1875
 40
0.25
 40
0.25
 40
0.3125
 40
0.3125
 40
0.375
 40
0.375
 40
0.4375
 40
0.4375
 40
0.4527839611595477
 40
0.4527839611595477
 40
0.4527839611595477
 40
0.4527839611595477
 10
103.1158083769011
 20
328.558659997376
 30
0.0
 10
102.8855054244238
 20
327.8039914042416
 30
0.0
 10
102.61901981089
 20
327.06038032587
 30
0.0
 10
101.0822626209072
 20
323.350320275739
 30
0.0
 10
99.25521581308993
 20
320.6159514944999
 30
0.0
 10
94.6920047953564
 20
316.0527404767661
 30
0.0
 10
91.95763601411737
 20
314.2256936689486
 30
0.0
 10
85.99551349743079
 20
311.7561016620069
 30
0.0
 10
82.77010560259896
 20
311.1145281418807
 30
0.0
 10
76.31675069334968
 20
311.1145281418805
 30
0.0
 10
73.09134279851779
 20
311.7561016620065
 30
0.0
 10
67.12922028183107
 20
314.2256936689479
 30
0.0
 10
64.39485150059193
 20
316.0527404767652
 30
0.0
 10
59.83164048285814
 20
320.6159514944987
 30
0.0
 10
58.00459367504068
 20
323.3503202757378
 30
0.0
 10
56.46783648505756
 20
327.0603803258691
 30
0.0
 10
56.20135087152351
 20
327.8039914042412
 30
0.0
 10
55.97104791904607
 20
328.558659997376
 30
0.0
  0
SPLINE
  5
88
330
75
100
AcDbEntity
  8
$DDT_AUDIT_GENERATED_(86)
  6
Continuous
 62
     7
100
AcDbSpline
210
0.0
220
0.0
230
1.0
 70
     8
 71
     3
 72
    22
 73
    18
 74
     0
 42
0.0000000000641866
 43
0.0000000001
 40
0.5458432578633547
 40
0.5458432578633547
 40
0.5458432578633547
 40
0.5458432578633547
 40
0.5625
 40
0.5625
 40
0.625
 40
0.625
 40
0.6875
 40
0.6875
 40
0.75
 40
0.75
 40
0.8125
 40
0.8125
 40
0.875
 40
0.875
 40
0.9375
 40
0.9375
 40
0.9541567421366546
 40
0.9541567421366546
 40
0.9541567421366546
 40
0.9541567421366546
 10
55.90986779554459
 20
342.7667818651506
 30
0.0
 10
56.15376644096619
 20
343.5913670786932
 30
0.0
 10
56.44071481363049
 20
344.4031984509004
 30
0.0
 10
58.00459367503996
 20
348.1787360080241
 30
0.0
 10
59.83164048285726
 20
350.9131047892632
 30
0.0
 10
64.39485150059079
 20
355.476315806997
 30
0.0
 10
67.12922028182982
 20
357.3033626148145
 30
0.0
 10
73.0913427985164
 20
359.7729546217563
 30
0.0
 10
76.31675069334824
 20
360.4145281418824
 30
0.0
 10
82.77010560259752
 20
360.4145281418826
 30
0.0
 10
85.99551349742941
 20
359.7729546217566
 30
0.0
 10
91.95763601411612
 20
357.3033626148152
 30
0.0
 10
94.69200479535525
 20
355.4763158069979
 30
0.0
 10
99.25521581308905
 20
350.9131047892644
 30
0.0
 10
101.0822626209065
 20
348.1787360080253
 30
0.0
 10
102.6461414823164
 20
344.4031984509014
 30
0.0
 10
102.9330898549809
 20
343.5913670786936
 30
0.0
 10
103.1769885004026
 20
342.7667818651505
 30
0.0
  0
SPLINE
  5
89
330
75
100
AcDbEntity
  8
$DDT_AUDIT_GENERATED_(86)
  6
Continuous
 62
     7
100
AcDbSpline
210
0.0
220
0.0
230
1.0
 70
     8
 71
     3
 72
    12
 73
     8
 74
     0
 42
0.000000000627498
 43
0.0000000001
 40
0.0
 40
0.0
 40
0.0
 40
0.0
 40
0.25
 40
0.25
 40
0.5
 40
0.5
 40
0.5374388541497367
 40
0.5374388541497367
 40
0.5374388541497367
 40
0.5374388541497367
 10
94.60944637017657
 20
321.3514231700769
 30
0.0
 10
95.52618405348947
 20
322.3096890446951
 30
0.0
 10
96.3512001616133
 20
323.3556610943227
 30
0.0
 10
97.78791376444775
 20
325.585140829437
 30
0.0
 10
98.39957957070457
 20
326.7685993410554
 30
0.0
 10
98.96744376811515
 20
328.1836602111337
 30
0.0
 10
99.03876638271677
 20
328.3690309726557
 30
0.0
 10
99.10742454090948
 20
328.5553833826168
 30
0.0
  0
ARC
  5
8A
330
75
100
AcDbEntity
  8
$DDT_AUDIT_GENERATED_(86)
  6
Continuous
 62
     7
100
AcDbCircle
 10
79.5434241169
 20
335.7645256763
 30
0.0
 40
20.84999538275329
100
AcDbArc
 50
200.2283550269
 51
223.7312045622
  0
ARC
  5
8B
330
75
100
AcDbEntity
  8
$DDT_AUDIT_GENERATED_(86)
  6
Continuous
 62
     7
100
AcDbCircle
 10
79.5434241169
 20
335.7645306075
 30
0.0
 40
20.84999538275331
100
AcDbArc
 50
136.2687954379
 51
160.3671325491
  0
SPLINE
  5
8C
330
75
100
AcDbEntity
  8
$DDT_AUDIT_GENERATED_(86)
  6
Continuous
 62
     7
100
AcDbSpline
210
0.0
220
0.0
230
1.0
 70
     8
 71
     3
 72
    12
 73
     8
 74
     0
 42
0.0000000006275176
 43
0.0000000001
 40
0.448944129868823
 40
0.448944129868823
 40
0.448944129868823
 40
0.448944129868823
 40
0.5000000000000002
 40
0.5000000000000002
 40
0.7500000000000001
 40
0.7500000000000001
 40
1.0
 40
1.0
 40
1.0
 40
1.0
 10
99.18128171089417
 20
342.7699504094867
 30
0.0
 10
99.0902989269315
 20
343.0250414807342
 30
0.0
 10
98.9943455447576
 20
343.2783595317886
 30
0.0
 10
98.39957957071054
 20
344.7604569426964
 30
0.0
 10
97.78791376445523
 20
345.943915454314
 30
0.0
 10
96.35120016162418
 20
348.173395189427
 30
0.0
 10
95.52618405350222
 20
349.2193672390542
 30
0.0
 10
94.60944637019128
 20
350.1776331136723
 30
0.0
  0
ARC
  5
8D
330
75
100
AcDbEntity
  8
$DDT_AUDIT_GENERATED_(86)
  6
Continuous
 62
     7
100
AcDbCircle
 10
79.5436037383
 20
335.76411716
 30
0.0
 40
20.8504109826503
100
AcDbArc
 50
90.0004825126
 51
136.268315687
  0
ARC
  5
8E
330
75
100
AcDbEntity
  8
$DDT_AUDIT_GENERATED_(86)
  6
Continuous
 62
     7
100
AcDbCircle
 10
79.5432994387
 20
335.7642268885
 30
0.0
 40
20.85030125375986
100
AcDbArc
 50
43.7315554883
 51
89.9996463121
  0
ARC
  5
8F
330
75
100
AcDbEntity
  8
$DDT_AUDIT_GENERATED_(86)
  6
Continuous
 62
     7
100
AcDbCircle
 10
79.5436323784
 20
335.7640501258
 30
0.0
 40
20.8495219849286
100
AcDbArc
 50
269.9994387621
 51
316.2693594374
  0
ARC
  5
90
330
75
100
AcDbEntity
  8
$DDT_AUDIT_GENERATED_(86)
  6
Continuous
 62
     7
100
AcDbCircle
 10
79.5434623828
 20
335.764608271
 30
0.0
 40
20.85008012917101
100
AcDbArc
 50
223.7312958775
 51
269.999905923
  0
ARC
  5
92
330
75
100
AcDbEntity
  8
$DDT_AUDIT_GENERATED_(91)
  6
Continuous
 62
     7
100
AcDbCircle
 10
65.743428148
 20
356.964276884
 30
0.0
 40
0.7500000000000007
100
AcDbArc
 50
270.0
 51
277.9582889389
  0
ARC
  5
93
330
75
100
AcDbEntity
  8
$DDT_AUDIT_GENERATED_(91)
  6
Continuous
 62
     7
100
AcDbCircle
 10
67.043428148
 20
355.664276884
 30
0.0
 40
2.75
100
AcDbArc
 50
287.5588463168
 51
316.7110096915
  0
ARC
  5
94
330
75
100
AcDbEntity
  8
$DDT_AUDIT_GENERATED_(91)
  6
Continuous
 62
     7
100
AcDbCircle
 10
93.343428148
 20
356.964276884
 30
0.0
 40
0.7500000000000007
100
AcDbArc
 50
262.3467674215
 51
270.0
  0
ARC
  5
95
330
75
100
AcDbEntity
  8
$DDT_AUDIT_GENERATED_(91)
  6
Continuous
 62
     7
100
AcDbCircle
 10
92.043428148
 20
355.664276884
 30
0.0
 40
2.75
100
AcDbArc
 50
223.2889903085
 51
252.4411536832
  0
ARC
  5
96
330
75
100
AcDbEntity
  8
$DDT_AUDIT_GENERATED_(91)
  6
Continuous
 62
     7
100
AcDbCircle
 10
65.743428148
 20
314.5647793997
 30
0.0
 40
0.7499999999999989
100
AcDbArc
 50
82.346767422
 51
90.0
  0
ARC
  5
97
330
75
100
AcDbEntity
  8
$DDT_AUDIT_GENERATED_(91)
  6
Continuous
 62
     7
100
AcDbCircle
 10
67.043428148
 20
315.8647793997
 30
0.0
 40
2.75
100
AcDbArc
 50
43.2889903085
 51
72.4411536832
  0
ARC
  5
98
330
75
100
AcDbEntity
  8
$DDT_AUDIT_GENERATED_(91)
  6
Continuous
 62
     7
100
AcDbCircle
 10
93.343428148
 20
314.5647793997
 30
0.0
 40
0.7499999999999972
100
AcDbArc
 50
90.0
 51
97.9582889389
  0
ARC
  5
99
330
75
100
AcDbEntity
  8
$DDT_AUDIT_GENERATED_(91)
  6
Continuous
 62
     7
100
AcDbCircle
 10
92.043428148
 20
315.8647793997
 30
0.0
 40
2.75
100
AcDbArc
 50
107.5588463168
 51
136.7110096915
  0
ARC
  5
9B
330
75
100
AcDbEntity
  8
$DDT_AUDIT_GENERATED_(9A)
  6
Continuous
 62
     7
100
AcDbCircle
 10
79.5431711676
 20
335.7657475953
 30
0.0
 40
20.64641079772354
100
AcDbArc
 50
200.4365626344
 51
270.0007133218
  0
ARC
  5
9C
330
75
100
AcDbEntity
  8
$DDT_AUDIT_GENERATED_(9A)
  6
Continuous
 62
     7
100
AcDbCircle
 10
79.5431711676
 20
335.7657475953
 30
0.0
 40
20.64641079772354
100
AcDbArc
 50
89.999286963
 51
160.1775596493
  0
LINE
  5
9D
330
75
100
AcDbEntity
  8
$DDT_AUDIT_GENERATED_(9A)
  6
Continuous
 62
     7
100
AcDbLine
 10
79.5434274447
 20
356.4175809212
 30
0.0
 11
79.5434273452
 21
356.4172674329
 31
0.0
  0
LINE
  5
9E
330
75
100
AcDbEntity
  8
$DDT_AUDIT_GENERATED_(9A)
  6
Continuous
 62
     7
100
AcDbLine
 10
79.5434277031
 20
315.1177087383
 30
0.0
 11
79.5434280023
 21
315.1180222629
 31
0.0
  0
ARC
  5
9F
330
75
100
AcDbEntity
  8
$DDT_AUDIT_GENERATED_(9A)
  6
Continuous
 62
     7
100
AcDbCircle
 10
79.5419272864
 20
335.7657475953
 30
0.0
 40
20.6464108506765
100
AcDbArc
 50
19.8268026986
 51
89.9958350727
  0
ARC
  5
A0
330
75
100
AcDbEntity
  8
$DDT_AUDIT_GENERATED_(9A)
  6
Continuous
 62
     7
100
AcDbCircle
 10
79.5419272864
 20
335.7657475953
 30
0.0
 40
20.6464108506765
100
AcDbArc
 50
270.0041652121
 51
339.562716112
  0
ELLIPSE
  5
A1
330
75
100
AcDbEntity
  8
$DDT_AUDIT_GENERATED_(9A)
  6
Continuous
 62
     7
100
AcDbEllipse
 10
79.5465927108
 20
335.7674892512
 30
0.0
 11
13.32187622686873
 21
-15.77786465910945
 31
0.0
210
0.0
220
0.0
230
1.0
 40
0.9999999883
 41
4.71238898038469
 42
5.58183330229096
  0
SPLINE
  5
A2
330
75
100
AcDbEntity
  8
$DDT_AUDIT_GENERATED_(9A)
  6
Continuous
 62
     7
100
AcDbSpline
210
0.0
220
0.0
230
1.0
 70
     8
 71
     5
 72
    17
 73
    11
 74
     0
 42
0.0000000003701351
 43
0.0000000001
 40
0.0
 40
0.0
 40
0.0
 40
0.0
 40
0.0
 40
0.0
 40
0.1219859233083216
 40
0.3109929616542723
 40
0.500000000000223
 40
0.6890070383461737
 40
0.8780140766921244
 40
1.0
 40
1.0
 40
1.0
 40
1.0
 40
1.0
 40
1.0
 10
106.7934281435134
 20
341.7622594678769
 30
0.0
 10
108.1409191759074
 20
341.746744921799
 30
0.0
 10
110.8250410980459
 20
341.6880692836241
 30
0.0
 10
112.6342819432697
 20
341.4760320896787
 30
0.0
 10
114.7642126318057
 20
340.5747814066923
 30
0.0
 10
117.0875076417808
 20
335.7645091372659
 30
0.0
 10
114.7642126317981
 20
330.9546160753814
 30
0.0
 10
112.6342819432549
 20
330.0530115956641
 30
0.0
 10
110.8250410980286
 20
329.84085656951
 30
0.0
 10
108.1409191758994
 20
329.7821349120521
 30
0.0
 10
106.7934281376453
 20
329.7666049459438
 30
0.0
  0
SPLINE
  5
A3
330
75
100
AcDbEntity
  8
$DDT_AUDIT_GENERATED_(9A)
  6
Continuous
 62
     7
100
AcDbSpline
210
0.0
220
0.0
230
1.0
 70
     8
 71
     5
 72
    17
 73
    11
 74
     0
 42
0.0000000003701351
 43
0.0000000001
 40
0.0
 40
0.0
 40
0.0
 40
0.0
 40
0.0
 40
0.0
 40
0.1219859231855071
 40
0.3109929615926347
 40
0.4999999999997679
 40
0.6890070384069018
 40
0.8780140768140346
 40
1.0
 40
1.0
 40
1.0
 40
1.0
 40
1.0
 40
1.0
 10
52.29342814938239
 20
341.7622594678416
 30
0.0
 10
50.94593711447982
 20
341.7467449216776
 30
0.0
 10
48.26181519618073
 20
341.6880692834187
 30
0.0
 10
46.45257435170937
 20
341.4760320892557
 30
0.0
 10
44.32264366373716
 20
340.5747814058079
 30
0.0
 10
41.9993486541829
 20
335.7645091372676
 30
0.0
 10
44.32264366372952
 20
330.9546160762705
 30
0.0
 10
46.4525743516946
 20
330.0530115960883
 30
0.0
 10
48.26181519616332
 20
329.8408565697165
 30
0.0
 10
50.9459371144717
 20
329.782134912175
 30
0.0
 10
52.29342814351341
 20
329.7666049461146
 30
0.0
  0
LINE
  5
A4
330
75
100
AcDbEntity
  8
$DDT_AUDIT_GENERATED_(9A)
  6
Continuous
 62
     7
100
AcDbLine
 10
52.2934281435
 20
329.7666049461
 30
0.0
 11
106.7934281376
 21
329.7666049459
 31
0.0
  0
SPLINE
  5
A5
330
75
100
AcDbEntity
  8
$DDT_AUDIT_GENERATED_(9A)
  6
Continuous
 62
     7
100
AcDbSpline
210
0.0
220
0.0
230
1.0
 70
     8
 71
     3
 72
     8
 73
     4
 74
     0
 42
0.0000000063240753
 43
0.0000000001
 40
0.0
 40
0.0
 40
0.0
 40
0.0
 40
0.0566380752340585
 40
0.0566380752340585
 40
0.0566380752340585
 40
0.0566380752340585
 10
106.7934281376453
 20
329.7666049459438
 30
0.0
 10
106.7934281407746
 20
329.7666032954741
 30
0.0
 10
106.7635256975784
 20
329.7662963592269
 30
0.0
 10
106.7038730365059
 20
329.7659294951026
 30
0.0
  0
SPLINE
  5
A6
330
75
100
AcDbEntity
  8
$DDT_AUDIT_GENERATED_(9A)
  6
Continuous
 62
     7
100
AcDbSpline
210
0.0
220
0.0
230
1.0
 70
     8
 71
     3
 72
     8
 73
     4
 74
     0
 42
0.0000000061256783
 43
0.0000000001
 40
0.9424329986440021
 40
0.9424329986440021
 40
0.9424329986440021
 40
0.9424329986440021
 40
1.0
 40
1.0
 40
1.0
 40
1.0
 10
52.38740252519576
 20
329.7663086804972
 30
0.0
 10
52.32501684062188
 20
329.7664811656768
 30
0.0
 10
52.29342814303565
 20
329.7666032685443
 30
0.0
 10
52.29342814351341
 20
329.7666049461146
 30
0.0
  0
LINE
  5
A7
330
75
100
AcDbEntity
  8
$DDT_AUDIT_GENERATED_(9A)
  6
Continuous
 62
     7
100
AcDbLine
 10
84.2645982657
 20
315.6663305492
 30
0.0
 11
84.2649784864
 21
315.6664206247
 31
0.0
  0
LINE
  5
A8
330
75
100
AcDbEntity
  8
$DDT_AUDIT_GENERATED_(9A)
  6
Continuous
 62
     7
100
AcDbLine
 10
63.7684646153
 20
322.4459254005
 30
0.0
 11
63.7687282357
 21
322.4456131797
 31
0.0
  0
SPLINE
  5
A9
330
75
100
AcDbEntity
  8
$DDT_AUDIT_GENERATED_(9A)
  6
Continuous
 62
     7
100
AcDbSpline
210
0.0
220
0.0
230
1.0
 70
     8
 71
     3
 72
     8
 73
     4
 74
     0
 42
0.0000000018565117
 43
0.0000000001
 40
0.9741139721833015
 40
0.9741139721833015
 40
0.9741139721833015
 40
0.9741139721833015
 40
1.0
 40
1.0
 40
1.0
 40
1.0
 10
46.19355978771154
 20
341.1044054284646
 30
0.0
 10
46.15244747727291
 20
341.0857155485713
 30
0.0
 10
46.11043606972905
 20
341.0663119089974
 30
0.0
 10
46.06690114371774
 20
341.0461034240274
 30
0.0
  0
SPLINE
  5
AA
330
75
100
AcDbEntity
  8
$DDT_AUDIT_GENERATED_(9A)
  6
Continuous
 62
     7
100
AcDbSpline
210
0.0
220
0.0
230
1.0
 70
     8
 71
     3
 72
     8
 73
     4
 74
     0
 42
0.000000001857216
 43
0.0000000001
 40
0.0
 40
0.0
 40
0.0
 40
0.0
 40
0.0248072894538223
 40
0.0248072894538223
 40
0.0248072894538223
 40
0.0248072894538223
 10
113.0199551522473
 20
341.046103424025
 30
0.0
 10
112.9783204398216
 20
341.065442285793
 30
0.0
 10
112.9380662180534
 20
341.0840470949523
 30
0.0
 10
112.8986411357422
 20
341.1019991101987
 30
0.0
  0
SPLINE
  5
AB
330
75
100
AcDbEntity
  8
$DDT_AUDIT_GENERATED_(9A)
  6
Continuous
 62
     7
100
AcDbSpline
210
0.0
220
0.0
230
1.0
 70
     8
 71
     3
 72
    20
 73
    16
 74
     0
 42
0.0000000009607341
 43
0.0000000001
 40
0.0111858277979854
 40
0.0111858277979854
 40
0.0111858277979854
 40
0.0111858277979854
 40
0.0995167092175976
 40
0.2103510240711774
 40
0.3081853413710952
 40
0.3941400192920261
 40
0.4530125630617818
 40
0.5108934608022163
 40
0.5694793003434983
 40
0.6315492309777656
 40
0.6651510778850663
 40
0.7005187127227099
 40
0.7365693670147749
 40
0.7755580699410143
 40
0.8126426872646924
 40
0.8126426872646924
 40
0.8126426872646924
 40
0.8126426872646924
 10
106.6934942257093
 20
329.7672409276757
 30
0.0
 10
107.0306592717626
 20
329.7709355916168
 30
0.0
 10
107.6970732623604
 20
329.7792729441155
 30
0.0
 10
108.7810901517549
 20
329.8028829096753
 30
0.0
 10
109.8210502857516
 20
329.8434391331513
 30
0.0
 10
110.6722265580281
 20
329.904292862597
 30
0.0
 10
111.3617473911983
 20
329.9886371937096
 30
0.0
 10
111.9659880405967
 20
330.1037829445571
 30
0.0
 10
112.5748913620468
 20
330.2858413333687
 30
0.0
 10
113.0796200779805
 20
330.5184912193217
 30
0.0
 10
113.4794944361075
 20
330.7660403305117
 30
0.0
 10
113.7842464553872
 20
330.9935590470124
 30
0.0
 10
114.0727232966937
 20
331.2457160974526
 30
0.0
 10
114.3131593414064
 20
331.4874271444626
 30
0.0
 10
114.4433714129597
 20
331.6342025695932
 30
0.0
 10
114.5003846557311
 20
331.7014015580846
 30
0.0
  0
SPLINE
  5
AC
330
75
100
AcDbEntity
  8
$DDT_AUDIT_GENERATED_(9A)
  6
Continuous
 62
     7
100
AcDbSpline
210
0.0
220
0.0
230
1.0
 70
     8
 71
     3
 72
     9
 73
     5
 74
     0
 42
0.0000000025002962
 43
0.0000000001
 40
0.8907364654796205
 40
0.8907364654796205
 40
0.8907364654796205
 40
0.8907364654796205
 40
0.9296173541613365
 40
1.0
 40
1.0
 40
1.0
 40
1.0
 10
114.7882077067173
 20
332.0728470779593
 30
0.0
 10
114.8259700356721
 20
332.1264809399415
 30
0.0
 10
114.9196698001982
 20
332.26573821594
 30
0.0
 10
114.9802190498036
 20
332.3660870689295
 30
0.0
 10
115.023937335132
 20
332.4405651288654
 30
0.0
  0
SPLINE
  5
AD
330
75
100
AcDbEntity
  8
$DDT_AUDIT_GENERATED_(9A)
  6
Continuous
 62
     7
100
AcDbSpline
210
0.0
220
0.0
230
1.0
 70
     8
 71
     3
 72
     9
 73
     5
 74
     0
 42
0.0000000024978949
 43
0.0000000001
 40
0.0
 40
0.0
 40
0.0
 40
0.0
 40
0.0705134388603799
 40
0.1106255196664688
 40
0.1106255196664688
 40
0.1106255196664688
 40
0.1106255196664688
 10
44.0629189608219
 20
332.4405651288471
 30
0.0
 10
44.1066372461346
 20
332.3660870689329
 30
0.0
 10
44.16782755275335
 20
332.2646757987819
 30
0.0
 10
44.2628739883788
 20
332.1235279130954
 30
0.0
 10
44.30203084906088
 20
332.0680491085353
 30
0.0
  0
SPLINE
  5
AE
330
75
100
AcDbEntity
  8
$DDT_AUDIT_GENERATED_(9A)
  6
Continuous
 62
     7
100
AcDbSpline
210
0.0
220
0.0
230
1.0
 70
     8
 71
     3
 72
    22
 73
    18
 74
     0
 42
0.0000000009610839
 43
0.0000000001
 40
0.1879317290974365
 40
0.1879317290974365
 40
0.1879317290974365
 40
0.1879317290974365
 40
0.2248590135473446
 40
0.2639201697136701
 40
0.300037817425885
 40
0.3354163804464875
 40
0.3684835110034014
 40
0.4273911675912082
 40
0.4793147050740716
 40
0.536376959632467
 40
0.5888312075712687
 40
0.6464846471950678
 40
0.7116801060781542
 40
0.7864684498529958
 40
0.8727054407965174
 40
0.9719332398394138
 40
0.9894770200830348
 40
0.9894770200830348
 40
0.9894770200830348
 40
0.9894770200830348
 10
44.58751387394653
 20
331.7001734679438
 30
0.0
 10
44.6442581479285
 20
331.6333310687153
 30
0.0
 10
44.77418093229723
 20
331.4869405061045
 30
0.0
 10
45.01413419545432
 20
331.245715294606
 30
0.0
 10
45.30246285819521
 20
330.9936866987405
 30
0.0
 10
45.60532198056741
 20
330.7675559234804
 30
0.0
 10
45.99301302604947
 20
330.5270185465088
 30
0.0
 10
46.46177306857
 20
330.3073729763212
 30
0.0
 10
47.0327405408696
 20
330.1264382312802
 30
0.0
 10
47.58763409104125
 20
330.0114281378112
 30
0.0
 10
48.15060007349651
 20
329.9340819597705
 30
0.0
 10
48.76160149232382
 20
329.8775866409667
 30
0.0
 10
49.457508562628
 20
329.8360192329831
 30
0.0
 10
50.26327006417881
 20
329.8052312519868
 30
0.0
 10
51.18553231973038
 20
329.783257440769
 30
0.0
 10
51.9338457526169
 20
329.7713565365407
 30
0.0
 10
52.33022660727512
 20
329.7674349264307
 30
0.0
 10
52.39341863366917
 20
329.7668407415085
 30
0.0
  0
LINE
  5
B0
330
75
100
AcDbEntity
  8
$DDT_AUDIT_GENERATED_(AF)
  6
Continuous
 62
     7
100
AcDbLine
 10
48.7934281435
 20
342.7622594678
 30
0.0
 11
110.2934281435
 21
342.7622594678
 31
0.0
  0
LINE
  5
B1
330
75
100
AcDbEntity
  8
$DDT_AUDIT_GENERATED_(AF)
  6
Continuous
 62
     7
100
AcDbLine
 10
48.7934281435
 20
341.7622594678
 30
0.0
 11
110.2934281435
 21
341.7622594678
 31
0.0
  0
LINE
  5
B2
330
75
100
AcDbEntity
  8
$DDT_AUDIT_GENERATED_(AF)
  6
Continuous
 62
     7
100
AcDbLine
 10
51.5434281435
 20
329.5622594678
 30
0.0
 11
107.5434281435
 21
329.5622594678
 31
0.0
  0
LINE
  5
B3
330
75
100
AcDbEntity
  8
$DDT_AUDIT_GENERATED_(AF)
  6
Continuous
 62
     7
100
AcDbLine
 10
51.5434281435
 20
328.5622594678
 30
0.0
 11
107.5434281435
 21
328.5622594678
 31
0.0
  0
LINE
  5
B4
330
75
100
AcDbEntity
  8
$DDT_AUDIT_GENERATED_(AF)
  6
Continuous
 62
     7
100
AcDbLine
 10
110.2934281435
 20
341.7622594678
 30
0.0
 11
110.2934281435
 21
342.7622594678
 31
0.0
  0
LINE
  5
B5
330
75
100
AcDbEntity
  8
$DDT_AUDIT_GENERATED_(AF)
  6
Continuous
 62
     7
100
AcDbLine
 10
48.7934281435
 20
342.7622594678
 30
0.0
 11
48.7934281435
 21
341.7622594678
 31
0.0
  0
LINE
  5
B6
330
75
100
AcDbEntity
  8
$DDT_AUDIT_GENERATED_(AF)
  6
Continuous
 62
     7
100
AcDbLine
 10
106.6934281435
 20
329.5622594678
 30
0.0
 11
106.6934281435
 21
329.7666137288
 31
0.0
  0
LINE
  5
B7
330
75
100
AcDbEntity
  8
$DDT_AUDIT_GENERATED_(AF)
  6
Continuous
 62
     7
100
AcDbLine
 10
52.3934281435
 20
329.7666135186
 30
0.0
 11
52.3934281435
 21
329.5622594678
 31
0.0
  0
LINE
  5
B8
330
75
100
AcDbEntity
  8
$DDT_AUDIT_GENERATED_(AF)
  6
Continuous
 62
     7
100
AcDbLine
 10
107.5434281435
 20
328.5622594678
 30
0.0
 11
107.5434281435
 21
329.5622594678
 31
0.0
  0
LINE
  5
B9
330
75
100
AcDbEntity
  8
$DDT_AUDIT_GENERATED_(AF)
  6
Continuous
 62
     7
100
AcDbLine
 10
51.5434281435
 20
329.5622594678
 30
0.0
 11
51.5434281435
 21
328.5622594678
 31
0.0
  0
ARC
  5
BB
330
75
100
AcDbEntity
  8
$DDT_AUDIT_GENERATED_(BA)
  6
Continuous
 62
     7
100
AcDbCircle
 10
79.543428148
 20
335.7645281419
 30
0.0
 40
30.0
100
AcDbArc
 50
55.0679591678
 51
56.0978776709
  0
ARC
  5
BC
330
75
100
AcDbEntity
  8
$DDT_AUDIT_GENERATED_(BA)
  6
Continuous
 62
     7
100
AcDbCircle
 10
79.543428148
 20
335.7645281419
 30
0.0
 40
30.0
100
AcDbArc
 50
269.6675610413
 51
272.1124219142
  0
ARC
  5
BD
330
75
100
AcDbEntity
  8
$DDT_AUDIT_GENERATED_(BA)
  6
Continuous
 62
     7
100
AcDbCircle
 10
79.543428148
 20
335.7645281419
 30
0.0
 40
30.0
100
AcDbArc
 50
123.9021223291
 51
125.3104448652
  0
LINE
  5
BE
330
75
100
AcDbEntity
  8
$DDT_AUDIT_GENERATED_(BA)
  6
Continuous
 62
     7
100
AcDbLine
 10
62.8101525398
 20
360.664276884
 30
0.0
 11
62.8515987718
 21
360.664276884
 31
0.0
  0
LINE
  5
BF
330
75
100
AcDbEntity
  8
$DDT_AUDIT_GENERATED_(BA)
  6
Continuous
 62
     7
100
AcDbLine
 10
96.2353033563
 20
360.664276884
 30
0.0
 11
96.2767037561
 21
360.664276884
 31
0.0
  0
ENDBLK
  5
C1
330
75
100
AcDbEntity
  8
0
100
AcDbBlockEnd
  0
BLOCK
  5
E9
330
C2
100
AcDbEntity
  8
0
100
AcDbBlockBegin
  2
SE1
 70
     0
 10
0.0
 20
0.0
 30
0.0
  3
SE1
  1

  0
LINE
  5
C4
330
C2
100
AcDbEntity
  8
$DDT_AUDIT_GENERATED_(77)
  6
Continuous
 62
     7
100
AcDbLine
 10
215.4961446509
 20
364.7645281271
 30
0.0
 11
215.4961446509
 21
306.7645268638
 31
0.0
  0
LINE
  5
C5
330
C2
100
AcDbEntity
  8
$DDT_AUDIT_GENERATED_(77)
  6
Continuous
 62
     7
100
AcDbLine
 10
209.7961446509
 20
365.7645340087
 30
0.0
 11
209.7961446509
 21
305.764477555
 31
0.0
  0
SPLINE
  5
C6
330
C2
100
AcDbEntity
  8
$DDT_AUDIT_GENERATED_(77)
  6
Continuous
 62
     7
100
AcDbSpline
210
0.0
220
0.0
230
1.0
 70
     8
 71
     3
 72
    13
 73
     9
 74
     0
 42
0.0000000063014675
 43
0.0000000001
 40
0.0
 40
0.0
 40
0.0
 40
0.0
 40
0.1294353584796121
 40
0.2550301072098068
 40
0.4999999914726229
 40
0.7449698805975513
 40
0.8705646348070479
 40
1.0
 40
1.0
 40
1.0
 40
1.0
 10
214.4961446359501
 20
305.7645267959507
 30
0.0
 10
214.5703240149122
 20
305.7682078057007
 30
0.0
 10
214.6942354816653
 20
305.7762811345476
 30
0.0
 10
214.9491809946568
 20
305.8563522379785
 30
0.0
 10
215.2207707124134
 20
306.0399007546821
 30
0.0
 10
215.404319214987
 20
306.3114904846101
 30
0.0
 10
215.4843903129769
 20
306.5664360083904
 30
0.0
 10
215.4924636413438
 20
306.6903474809509
 30
0.0
 10
215.4961446508511
 20
306.764526863782
 30
0.0
  0
SPLINE
  5
C7
330
C2
100
AcDbEntity
  8
$DDT_AUDIT_GENERATED_(77)
  6
Continuous
 62
     7
100
AcDbSpline
210
0.0
220
0.0
230
1.0
 70
     8
 71
     3
 72
    13
 73
     9
 74
     0
 42
0.0000000063014676
 43
0.0000000001
 40
0.0
 40
0.0
 40
0.0
 40
0.0
 40
0.1294353618362314
 40
0.2550301133060648
 40
0.4999999999999997
 40
0.7449698866939336
 40
0.8705646381637674
 40
1.0
 40
1.0
 40
1.0
 40
1.0
 10
215.4961446508511
 20
364.7645281270893
 30
0.0
 10
215.4924636413198
 20
364.8387075060227
 30
0.0
 10
215.4843903129265
 20
364.9626189724001
 30
0.0
 10
215.4043192143352
 20
365.2175644840387
 30
0.0
 10
215.2207707095542
 20
365.4891542006935
 30
0.0
 10
214.9491809928995
 20
365.6727027054744
 30
0.0
 10
214.6942354812609
 20
365.7527738040658
 30
0.0
 10
214.5703240148835
 20
365.760847132459
 30
0.0
 10
214.4961446359501
 20
365.7645281419903
 30
0.0
  0
LINE
  5
C8
330
C2
100
AcDbEntity
  8
$DDT_AUDIT_GENERATED_(77)
  6
Continuous
 62
     7
100
AcDbLine
 10
214.501144636
 20
365.7645340087
 30
0.0
 11
209.7961446509
 21
365.7645340087
 31
0.0
  0
LINE
  5
C9
330
C2
100
AcDbEntity
  8
$DDT_AUDIT_GENERATED_(77)
  6
Continuous
 62
     7
100
AcDbLine
 10
209.7961446509
 20
305.764477555
 30
0.0
 11
214.501144636
 21
305.764477555
 31
0.0
  0
LINE
  5
CA
330
C2
100
AcDbEntity
  8
$DDT_AUDIT_GENERATED_(86)
  6
Continuous
 62
     7
100
AcDbLine
 10
215.5961446509
 20
311.1145281419
 30
0.0
 11
215.5961446509
 21
360.4145281419
 31
0.0
  0
LINE
  5
CB
330
C2
100
AcDbEntity
  8
$DDT_AUDIT_GENERATED_(86)
  6
Continuous
 62
     7
100
AcDbLine
 10
216.4843064432
 20
335.7645281419
 30
0.0
 11
216.4843091926
 21
321.3514231701
 31
0.0
  0
LINE
  5
CC
330
C2
100
AcDbEntity
  8
$DDT_AUDIT_GENERATED_(86)
  6
Continuous
 62
     7
100
AcDbLine
 10
216.4843091926
 20
350.1776331137
 30
0.0
 11
216.4843064432
 21
335.7645281419
 31
0.0
  0
SPLINE
  5
CD
330
C2
100
AcDbEntity
  8
$DDT_AUDIT_GENERATED_(86)
  6
Continuous
 62
     7
100
AcDbSpline
210
0.0
220
0.0
230
1.0
 70
     8
 71
     3
 72
    17
 73
    13
 74
     0
 42
0.000000001553544
 43
0.0000000001
 40
0.0
 40
0.0
 40
0.0
 40
0.0
 40
0.0833354487014831
 40
0.1663736216528879
 40
0.2494866424919604
 40
0.3752626340111653
 40
0.5000479199939184
 40
0.6246601036732432
 40
0.7502964613493427
 40
0.8754314240554908
 40
0.9377169111661814
 40
1.0
 40
1.0
 40
1.0
 40
1.0
 10
216.484309192592
 20
350.1776331136589
 30
0.0
 10
216.4842445218758
 20
350.5093269320814
 30
0.0
 10
216.4841154111379
 20
351.1715313446178
 30
0.0
 10
216.4839859008954
 20
352.0775209420983
 30
0.0
 10
216.4839477419577
 20
353.0566842243085
 30
0.0
 10
216.4838424460409
 20
354.0451807322708
 30
0.0
 10
216.4838578366571
 20
354.9702411323183
 30
0.0
 10
216.4839464403534
 20
355.6995730298488
 30
0.0
 10
216.4840942882496
 20
356.2269586519041
 30
0.0
 10
216.4842255223224
 20
356.489998769756
 30
0.0
 10
216.4842855629967
 20
356.5992773264181
 30
0.0
 10
216.4842975519159
 20
356.6094446019766
 30
0.0
 10
216.484309192592
 20
356.6145281418823
 30
0.0
  0
SPLINE
  5
CE
330
C2
100
AcDbEntity
  8
$DDT_AUDIT_GENERATED_(86)
  6
Continuous
 62
     7
100
AcDbSpline
210
0.0
220
0.0
230
1.0
 70
     8
 71
     3
 72
    17
 73
    13
 74
     0
 42
0.000000001553544
 43
0.0000000001
 40
0.0
 40
0.0
 40
0.0
 40
0.0
 40
0.0627289163599583
 40
0.1254602832760826
 40
0.2499137825791045
 40
0.3746483269236378
 40
0.500297641949969
 40
0.6249459110890658
 40
0.7494413562942406
 40
0.8749659811880093
 40
0.9374489124370873
 40
1.0
 40
1.0
 40
1.0
 40
1.0
 10
216.484309192592
 20
314.9145281418823
 30
0.0
 10
216.4842974353321
 20
314.9196840912695
 30
0.0
 10
216.4842852132376
 20
314.9299961914652
 30
0.0
 10
216.4842249803301
 20
315.0401518030783
 30
0.0
 10
216.4840939689769
 20
315.3029860709111
 30
0.0
 10
216.4839470666633
 20
315.8291732773707
 30
0.0
 10
216.4838557452397
 20
316.5582001226998
 30
0.0
 10
216.4838500570475
 20
317.4827778216728
 30
0.0
 10
216.4839324060488
 20
318.5917519894472
 30
0.0
 10
216.484071441836
 20
319.6643382091717
 30
0.0
 10
216.484196064196
 20
320.6014740577216
 30
0.0
 10
216.4842714694255
 20
321.1013493049299
 30
0.0
 10
216.484309192592
 20
321.3514231700727
 30
0.0
  0
SPLINE
  5
CF
330
C2
100
AcDbEntity
  8
$DDT_AUDIT_GENERATED_(86)
  6
Continuous
 62
     7
100
AcDbSpline
210
0.0
220
0.0
230
1.0
 70
     8
 71
     3
 72
     8
 73
     4
 74
     0
 42
0.000000002562282
 43
0.0000000001
 40
0.0
 40
0.0
 40
0.0
 40
0.0
 40
1.0
 40
1.0
 40
1.0
 40
1.0
 10
216.4842952448161
 20
356.6145265451934
 30
0.0
 10
216.4847869497675
 20
356.6149061093673
 30
0.0
 10
216.1869543722631
 20
357.8811534190543
 30
0.0
 10
215.590797512303
 20
360.4132684742546
 30
0.0
  0
SPLINE
  5
D0
330
C2
100
AcDbEntity
  8
$DDT_AUDIT_GENERATED_(86)
  6
Continuous
 62
     7
100
AcDbSpline
210
0.0
220
0.0
230
1.0
 70
     8
 71
     3
 72
     8
 73
     4
 74
     0
 42
0.0000000025622776
 43
0.0000000001
 40
0.0
 40
0.0
 40
0.0
 40
0.0
 40
1.0
 40
1.0
 40
1.0
 40
1.0
 10
215.5907975123002
 20
311.1157878095092
 30
0.0
 10
216.1869578705279
 20
313.6479021188193
 30
0.0
 10
216.4847907749782
 20
314.9141511370281
 30
0.0
 10
216.4842962256512
 20
314.9145348641357
 30
0.0
  0
LINE
  5
D1
330
C2
100
AcDbEntity
  8
$DDT_AUDIT_GENERATED_(86)
  6
Continuous
 62
     7
100
AcDbLine
 10
215.6011446509
 20
360.4145281419
 30
0.0
 11
215.4961446509
 21
360.4145281419
 31
0.0
  0
LINE
  5
D2
330
C2
100
AcDbEntity
  8
$DDT_AUDIT_GENERATED_(86)
  6
Continuous
 62
     7
100
AcDbLine
 10
215.4961446509
 20
311.1145281419
 30
0.0
 11
215.6011446509
 21
311.1145281419
 31
0.0
  0
SPLINE
  5
D3
330
C2
100
AcDbEntity
  8
$DDT_AUDIT_GENERATED_(9A)
  6
Continuous
 62
     7
100
AcDbSpline
210
0.0
220
0.0
230
1.0
 70
     8
 71
     3
 72
    22
 73
    18
 74
     0
 42
0.0000000002421026
 43
0.0000000001
 40
0.0
 40
0.0
 40
0.0
 40
0.0
 40
0.125
 40
0.125
 40
0.25
 40
0.25
 40
0.3750000000000001
 40
0.3750000000000001
 40
0.5000000000000001
 40
0.5000000000000001
 40
0.6250000000000001
 40
0.6250000000000001
 40
0.7500000000000001
 40
0.7500000000000001
 40
0.8750000000000001
 40
0.8750000000000001
 40
1.0
 40
1.0
 40
1.0
 40
1.0
 10
216.4730929458379
 20
315.1193367992023
 30
0.0
 10
216.473018794314
 20
315.118401988267
 30
0.0
 10
216.4728819009575
 20
315.6561427156917
 30
0.0
 10
216.4725325044487
 20
317.7253086197438
 30
0.0
 10
216.4723202897688
 20
319.2559199581352
 30
0.0
 10
216.471881745625
 20
323.0785361949712
 30
0.0
 10
216.4716557396967
 20
325.3690375932469
 30
0.0
 10
216.471253256536
 20
330.363248261442
 30
0.0
 10
216.471077088656
 20
333.0649932231131
 30
0.0
 10
216.4708303861085
 20
338.4706092850556
 30
0.0
 10
216.4707600995221
 20
341.1723542643181
 30
0.0
 10
216.4707651852192
 20
346.1665650002277
 30
0.0
 10
216.4708407065511
 20
348.4570664485998
 30
0.0
 10
216.4711552624152
 20
352.2796828105577
 30
0.0
 10
216.471394324276
 20
353.8102942239252
 30
0.0
 10
216.4720289265213
 20
355.8794602914611
 30
0.0
 10
216.4724243683548
 20
356.4172011073292
 30
0.0
 10
216.4728833194722
 20
356.4121583914505
 30
0.0
  0
LINE
  5
D4
330
C2
100
AcDbEntity
  8
$DDT_AUDIT_GENERATED_(9A)
  6
Continuous
 62
     7
100
AcDbLine
 10
275.8431852236
 20
341.7622594678
 30
0.0
 11
275.8431852322
 21
329.7666049461
 31
0.0
  0
LINE
  5
D5
330
C2
100
AcDbEntity
  8
$DDT_AUDIT_GENERATED_(9A)
  6
Continuous
 62
     7
100
AcDbLine
 10
303.093185078
 20
341.762259468
 30
0.0
 11
275.8431852149
 21
341.7622594679
 31
0.0
  0
LINE
  5
D6
330
C2
100
AcDbEntity
  8
$DDT_AUDIT_GENERATED_(9A)
  6
Continuous
 62
     7
100
AcDbLine
 10
303.093185078
 20
329.7666049459
 30
0.0
 11
275.8431852236
 21
329.7666049459
 31
0.0
  0
ARC
  5
D7
330
C2
100
AcDbEntity
  8
$DDT_AUDIT_GENERATED_(9A)
  6
Continuous
 62
     7
100
AcDbCircle
 10
265.9521003815
 20
-8205.2747470609
 30
0.0
 40
8535.047083293059
100
AcDbArc
 50
89.9336011228
 51
90.1146473164
  0
LINE
  5
D8
330
C2
100
AcDbEntity
  8
$DDT_AUDIT_GENERATED_(9A)
  6
Continuous
 62
     7
100
AcDbLine
 10
248.6931852149
 20
329.7548584131
 30
0.0
 11
246.5931852149
 21
329.7503087165
 31
0.0
  0
LINE
  5
D9
330
C2
100
AcDbEntity
  8
$DDT_AUDIT_GENERATED_(9A)
  6
Continuous
 62
     7
100
AcDbLine
 10
246.5931852149
 20
329.7503087165
 30
0.0
 11
248.8737117303
 21
329.7552495279
 31
0.0
  0
SPLINE
  5
DA
330
C2
100
AcDbEntity
  8
$DDT_AUDIT_GENERATED_(9A)
  6
Continuous
 62
     7
100
AcDbSpline
210
0.0
220
0.0
230
1.0
 70
     8
 71
     3
 72
    12
 73
     8
 74
     0
 42
0.000000009998683
 43
0.0000000001
 40
0.0
 40
0.0
 40
0.0
 40
0.0
 40
0.2499999999999998
 40
0.2499999999999998
 40
0.4999999999999997
 40
0.4999999999999997
 40
1.0
 40
1.0
 40
1.0
 40
1.0
 10
245.5931852148741
 20
329.7460487168618
 30
0.0
 10
245.5931852148741
 20
329.7461711264045
 30
0.0
 10
245.6191649545287
 20
329.7463972942709
 30
0.0
 10
245.7194430258442
 20
329.7470063029036
 30
0.0
 10
245.7936511476477
 20
329.7473863451464
 30
0.0
 10
246.0701768290766
 20
329.7486157486329
 30
0.0
 10
246.3290767876058
 20
329.749546290383
 30
0.0
 10
246.5931852148741
 20
329.7503087165348
 30
0.0
  0
LINE
  5
DB
330
C2
100
AcDbEntity
  8
$DDT_AUDIT_GENERATED_(9A)
  6
Continuous
 62
     7
100
AcDbLine
 10
245.5931852149
 20
329.7460487169
 30
0.0
 11
245.5931851083
 21
329.7447292314
 31
0.0
  0
SPLINE
  5
DC
330
C2
100
AcDbEntity
  8
$DDT_AUDIT_GENERATED_(9A)
  6
Continuous
 62
     7
100
AcDbSpline
210
0.0
220
0.0
230
1.0
 70
     8
 71
     3
 72
    38
 73
    34
 74
     0
 42
0.0000000002724875
 43
0.0000000001
 40
0.0
 40
0.0
 40
0.0
 40
0.0
 40
0.0057223089298046
 40
0.0483080202119896
 40
0.0879104262659355
 40
0.1248410968458156
 40
0.169609238866741
 40
0.2107180726952961
 40
0.2485845829253884
 40
0.2953045597889719
 40
0.3401053629097375
 40
0.3825547419966999
 40
0.4221443543549153
 40
0.4585738512626099
 40
0.4918079191862441
 40
0.5099774829978176
 40
0.5331356072006952
 40
0.5605442247238588
 40
0.5834907672600835
 40
0.6082815842399115
 40
0.6348664244798161
 40
0.6633064335747572
 40
0.6937417538295318
 40
0.7263978711508359
 40
0.7616598272290068
 40
0.8001306688477479
 40
0.8314156384350869
 40
0.8652598163559758
 40
0.902061918772839
 40
0.9254999676602448
 40
0.9507538370897791
 40
0.9786186888144915
 40
1.0
 40
1.0
 40
1.0
 40
1.0
 10
245.593185767872
 20
341.7737749577564
 30
0.0
 10
245.5162162782795
 20
341.7738342005852
 30
0.0
 10
244.9581363354585
 20
341.7742692816499
 30
0.0
 10
243.8474853912591
 20
341.7756512885076
 30
0.0
 10
242.4033569541758
 20
341.7783396451539
 30
0.0
 10
240.9169213694055
 20
341.7832807300994
 30
0.0
 10
239.4162357994174
 20
341.7925203454038
 30
0.0
 10
237.9029394831867
 20
341.809931086319
 30
0.0
 10
236.3662659123054
 20
341.8392096010859
 30
0.0
 10
234.7847650784007
 20
341.8869770987385
 30
0.0
 10
233.1483122640196
 20
341.9644008629804
 30
0.0
 10
231.6009276198012
 20
342.0726116511549
 30
0.0
 10
230.1592244991423
 20
342.2171664730376
 30
0.0
 10
228.836051471371
 20
342.4047505527462
 30
0.0
 10
227.7816030839751
 20
342.6127735738291
 30
0.0
 10
226.8978537625538
 20
342.8379357879179
 30
0.0
 10
226.0946278115321
 20
343.0872790696333
 30
0.0
 10
225.2573600716493
 20
343.4178099900397
 30
0.0
 10
224.4340550517006
 20
343.8280976239225
 30
0.0
 10
223.6579554172175
 20
344.3034393679511
 30
0.0
 10
222.8762076970258
 20
344.8902191882422
 30
0.0
 10
222.1019037796384
 20
345.5941391986465
 30
0.0
 10
221.3407100996687
 20
346.4163323260352
 30
0.0
 10
220.5919424456121
 20
347.3587707738943
 30
0.0
 10
219.8537077367944
 20
348.4310826992825
 30
0.0
 10
219.1954436454272
 20
349.5347639408856
 30
0.0
 10
218.6066789107959
 20
350.6568836671981
 30
0.0
 10
218.0776388689022
 20
351.7860486040747
 30
0.0
 10
217.6337319525231
 20
352.8472132913263
 30
0.0
 10
217.2634376333034
 20
353.826518500975
 30
0.0
 10
216.9607557289868
 20
354.7069210907763
 30
0.0
 10
216.6865434245231
 20
355.597265898521
 30
0.0
 10
216.5463660512178
 20
356.1395426012327
 30
0.0
 10
216.4749794821633
 20
356.418137304341
 30
0.0
  0
SPLINE
  5
DD
330
C2
100
AcDbEntity
  8
$DDT_AUDIT_GENERATED_(9A)
  6
Continuous
 62
     7
100
AcDbSpline
210
0.0
220
0.0
230
1.0
 70
     8
 71
     3
 72
    42
 73
    38
 74
     0
 42
0.0000000002725511
 43
0.0000000001
 40
0.0
 40
0.0
 40
0.0
 40
0.0
 40
0.0218981183123863
 40
0.0501919335783254
 40
0.0757275132402998
 40
0.099335677111824
 40
0.121486686325363
 40
0.1424289647882331
 40
0.1622899209008741
 40
0.1811461759038712
 40
0.216121119607667
 40
0.2479238210347664
 40
0.277038990108502
 40
0.3038071278996582
 40
0.3361776118321225
 40
0.364938914986948
 40
0.3901152999377777
 40
0.4115738701784462
 40
0.4290977248169244
 40
0.4451402155557215
 40
0.4809945555459769
 40
0.516612648469448
 40
0.5515008512745921
 40
0.5714385228392487
 40
0.5918515141297508
 40
0.6154035812924193
 40
0.6423180427292051
 40
0.6732064028405746
 40
0.7075547219417777
 40
0.7452889477460812
 40
0.7864040958661687
 40
0.8310362839725973
 40
0.8687829803929547
 40
0.9091657621887477
 40
0.9525247473895239
 40
0.9992517237968516
 40
1.0
 40
1.0
 40
1.0
 40
1.0
 10
216.4766742009524
 20
315.1183854692036
 30
0.0
 10
216.5498326651411
 20
315.4036406786984
 30
0.0
 10
216.6927964762602
 20
315.9561245508579
 30
0.0
 10
216.9726194565019
 20
316.8605603268879
 30
0.0
 10
217.2801493376113
 20
317.7504179379424
 30
0.0
 10
217.5903315718738
 20
318.56645603612
 30
0.0
 10
217.9000386807542
 20
319.3205746676513
 30
0.0
 10
218.2102102289891
 20
320.0251222687371
 30
0.0
 10
218.5207936886395
 20
320.6851309596048
 30
0.0
 10
218.9255170650962
 20
321.4901258403391
 30
0.0
 10
219.4324825075126
 20
322.4067468069118
 30
0.0
 10
220.05581352644
 20
323.4003243457363
 30
0.0
 10
220.6754614673818
 20
324.2758163998889
 30
0.0
 10
221.3485937416578
 20
325.1197466525256
 30
0.0
 10
222.0765575950348
 20
325.9120602720616
 30
0.0
 10
222.8578406043839
 20
326.6234618815103
 30
0.0
 10
223.5945341220485
 20
327.1795551214988
 30
0.0
 10
224.2592650951319
 20
327.5974872934814
 30
0.0
 10
224.8533073561709
 20
327.9141236576021
 30
0.0
 10
225.6249744070722
 20
328.2683476323484
 30
0.0
 10
226.6346680755388
 20
328.6294386250482
 30
0.0
 10
227.8966400900842
 20
328.9483975445416
 30
0.0
 10
228.9854529607862
 20
329.1446982586428
 30
0.0
 10
229.8963820556503
 20
329.2728469387653
 30
0.0
 10
230.6724185755344
 20
329.3634750169635
 30
0.0
 10
231.5350864768579
 20
329.4458893558556
 30
0.0
 10
232.5268953122312
 20
329.521184581232
 30
0.0
 10
233.6516646759692
 20
329.586275670172
 30
0.0
 10
234.9094955924839
 20
329.6385427022664
 30
0.0
 10
236.2929250469956
 20
329.6766004559163
 30
0.0
 10
237.802297008072
 20
329.7013700171198
 30
0.0
 10
239.3122995019303
 20
329.7147656913482
 30
0.0
 10
240.8121832454031
 20
329.7230138122497
 30
0.0
 10
242.3010367367728
 20
329.7297403592461
 30
0.0
 10
243.8810237333456
 20
329.7369919988533
 30
0.0
 10
245.032139692017
 20
329.7427602215396
 30
0.0
 10
245.5831257483125
 20
329.7446776534187
 30
0.0
 10
245.5931885494127
 20
329.7447126825824
 30
0.0
  0
SPLINE
  5
DE
330
C2
100
AcDbEntity
  8
$DDT_AUDIT_GENERATED_(9A)
  6
Continuous
 62
     7
100
AcDbSpline
210
0.0
220
0.0
230
1.0
 70
     8
 71
     3
 72
    49
 73
    45
 74
     0
 42
0.0000000003952022
 43
0.0000000001
 40
0.0
 40
0.0
 40
0.0
 40
0.0
 40
0.021997059000663
 40
0.0525411566408742
 40
0.0789009599722358
 40
0.1016829698817853
 40
0.1214414895878987
 40
0.1386717923327552
 40
0.1607069246039744
 40
0.1792160451587446
 40
0.195109479439552
 40
0.2090487904107358
 40
0.2327904449968243
 40
0.2526991950049034
 40
0.2705493837545663
 40
0.289443505365727
 40
0.3099563857237942
 40
0.332392726089091
 40
0.3567769398325855
 40
0.3820982605589201
 40
0.4166722253033414
 40
0.4516204694526209
 40
0.4865498261365662
 40
0.5218622476847208
 40
0.5572093450771024
 40
0.592081091556647
 40
0.6251091805572874
 40
0.6545514822946369
 40
0.6804725313621908
 40
0.6981159515244083
 40
0.7179941340325338
 40
0.7409425000387724
 40
0.7673461727337426
 40
0.7823670803341908
 40
0.7991885932106698
 40
0.8185777177441553
 40
0.8416815400003413
 40
0.8571664712633128
 40
0.8747914199860348
 40
0.8950194442030479
 40
0.9183787895279149
 40
0.945458316756813
 40
0.9768987010897485
 40
1.0
 40
1.0
 40
1.0
 40
1.0
 10
303.0915658658663
 20
329.7670569540841
 30
0.0
 10
303.295338056331
 20
329.769302212211
 30
0.0
 10
303.7071291878248
 20
329.7740213860976
 30
0.0
 10
304.3868510803755
 20
329.785837351018
 30
0.0
 10
305.0539385492685
 20
329.8019526655933
 30
0.0
 10
305.6347198817465
 20
329.8215248355049
 30
0.0
 10
306.1374168348652
 20
329.8446697837835
 30
0.0
 10
306.6336305597071
 20
329.8752927759577
 30
0.0
 10
307.1185346252028
 20
329.9165183491339
 30
0.0
 10
307.5904455568465
 20
329.9744056406825
 30
0.0
 10
307.9920511838925
 20
330.0423670845971
 30
0.0
 10
308.4325280945032
 20
330.1408684480554
 30
0.0
 10
308.8967490887862
 20
330.2855737018526
 30
0.0
 10
309.3700945360798
 20
330.49870715458
 30
0.0
 10
309.781265869045
 20
330.7425042512249
 30
0.0
 10
310.1679717144751
 20
331.032165702487
 30
0.0
 10
310.5491979387776
 20
331.3885629097529
 30
0.0
 10
310.9196778787656
 20
331.8193541870593
 30
0.0
 10
311.2647863456236
 20
332.3208336872631
 30
0.0
 10
311.6046606838946
 20
332.945311133333
 30
0.0
 10
311.9022231446772
 20
333.6892454374518
 30
0.0
 10
312.1196670732257
 20
334.5442135100743
 30
0.0
 10
312.2238236323225
 20
335.4265821589044
 30
0.0
 10
312.2095728381263
 20
336.3184172188319
 30
0.0
 10
312.0763808085156
 20
337.1998341931355
 30
0.0
 10
311.8336915472493
 20
338.0374312223448
 30
0.0
 10
311.5051266672817
 20
338.7909918768254
 30
0.0
 10
311.1240541603854
 20
339.4326240762911
 30
0.0
 10
310.747763027374
 20
339.9208419625846
 30
0.0
 10
310.3782948536389
 20
340.3077305797392
 30
0.0
 10
309.9913091084006
 20
340.640342151314
 30
0.0
 10
309.5048672302859
 20
340.9649399348197
 30
0.0
 10
309.0123462340071
 20
341.1971221056614
 30
0.0
 10
308.5471971204451
 20
341.3541621803559
 30
0.0
 10
308.1286322902834
 20
341.4606046376287
 30
0.0
 10
307.6367566430556
 20
341.5496868217146
 30
0.0
 10
307.1518026475908
 20
341.6085648909007
 30
0.0
 10
306.680147870101
 20
341.6497191887564
 30
0.0
 10
306.2318335127418
 20
341.6791823950655
 30
0.0
 10
305.7170725480344
 20
341.7041613721489
 30
0.0
 10
305.1214335529148
 20
341.7250612580073
 30
0.0
 10
304.4359620123126
 20
341.7420996102661
 30
0.0
 10
303.7329267694636
 20
341.7545110350462
 30
0.0
 10
303.3055669580776
 20
341.7594235326605
 30
0.0
 10
303.0915655187621
 20
341.761781479495
 30
0.0
  0
LINE
  5
DF
330
C2
100
AcDbEntity
  8
$DDT_AUDIT_GENERATED_(AF)
  6
Continuous
 62
     7
100
AcDbLine
 10
306.5931852149
 20
342.7622594678
 30
0.0
 11
245.0931852149
 21
342.7622594678
 31
0.0
  0
LINE
  5
E0
330
C2
100
AcDbEntity
  8
$DDT_AUDIT_GENERATED_(AF)
  6
Continuous
 62
     7
100
AcDbLine
 10
306.5931852149
 20
341.7622594678
 30
0.0
 11
245.0931852149
 21
341.7622594678
 31
0.0
  0
LINE
  5
E1
330
C2
100
AcDbEntity
  8
$DDT_AUDIT_GENERATED_(AF)
  6
Continuous
 62
     7
100
AcDbLine
 10
303.8431852149
 20
329.5622594678
 30
0.0
 11
247.8431852149
 21
329.5622594678
 31
0.0
  0
LINE
  5
E2
330
C2
100
AcDbEntity
  8
$DDT_AUDIT_GENERATED_(AF)
  6
Continuous
 62
     7
100
AcDbLine
 10
303.8431852149
 20
328.5622594678
 30
0.0
 11
247.8431852149
 21
328.5622594678
 31
0.0
  0
LINE
  5
E3
330
C2
100
AcDbEntity
  8
$DDT_AUDIT_GENERATED_(AF)
  6
Continuous
 62
     7
100
AcDbLine
 10
306.5931852149
 20
341.7622594678
 30
0.0
 11
306.5931852149
 21
342.7622594678
 31
0.0
  0
LINE
  5
E4
330
C2
100
AcDbEntity
  8
$DDT_AUDIT_GENERATED_(AF)
  6
Continuous
 62
     7
100
AcDbLine
 10
245.0931852149
 20
342.7622594678
 30
0.0
 11
245.0931852149
 21
341.7622594678
 31
0.0
  0
LINE
  5
E5
330
C2
100
AcDbEntity
  8
$DDT_AUDIT_GENERATED_(AF)
  6
Continuous
 62
     7
100
AcDbLine
 10
302.9931852149
 20
329.5622594678
 30
0.0
 11
302.9931852149
 21
329.7666141594
 31
0.0
  0
LINE
  5
E6
330
C2
100
AcDbEntity
  8
$DDT_AUDIT_GENERATED_(AF)
  6
Continuous
 62
     7
100
AcDbLine
 10
248.6931852149
 20
329.7548584132
 30
0.0
 11
248.6931852149
 21
329.5622594678
 31
0.0
  0
LINE
  5
E7
330
C2
100
AcDbEntity
  8
$DDT_AUDIT_GENERATED_(AF)
  6
Continuous
 62
     7
100
AcDbLine
 10
303.8431852149
 20
328.5622594678
 30
0.0
 11
303.8431852149
 21
329.5622594678
 31
0.0
  0
LINE
  5
E8
330
C2
100
AcDbEntity
  8
$DDT_AUDIT_GENERATED_(AF)
  6
Continuous
 62
     7
100
AcDbLine
 10
247.8431852149
 20
329.5622594678
 30
0.0
 11
247.8431852149
 21
328.5622594678
 31
0.0
  0
ENDBLK
  5
EA
330
C2
100
AcDbEntity
  8
0
100
AcDbBlockEnd
  0
BLOCK
  5
103
330
EB
100
AcDbEntity
  8
0
100
AcDbBlockBegin
  2
SE2
 70
     0
 10
0.0
 20
0.0
 30
0.0
  3
SE2
  1

  0
LINE
  5
ED
330
EB
100
AcDbEntity
  8
$DDT_AUDIT_GENERATED_(77)
  6
Continuous
 62
     7
100
AcDbLine
 10
108.5434294263
 20
207.2523010908
 30
0.0
 11
50.5434268696
 21
207.2523010908
 31
0.0
  0
LINE
  5
EE
330
EB
100
AcDbEntity
  8
$DDT_AUDIT_GENERATED_(77)
  6
Continuous
 62
     7
100
AcDbLine
 10
49.5434227753
 20
212.9523010908
 30
0.0
 11
109.5434792289
 21
212.9523010908
 31
0.0
  0
SPLINE
  5
EF
330
EB
100
AcDbEntity
  8
$DDT_AUDIT_GENERATED_(77)
  6
Continuous
 62
     7
100
AcDbSpline
210
0.0
220
0.0
230
1.0
 70
     8
 71
     3
 72
    13
 73
     9
 74
     0
 42
0.0000000063014675
 43
0.0000000001
 40
0.0
 40
0.0
 40
0.0
 40
0.0
 40
0.1294353584734506
 40
0.2550301071986155
 40
0.4999999914569673
 40
0.7449698805863574
 40
0.8705646348008826
 40
1.0
 40
1.0
 40
1.0
 40
1.0
 10
49.54342680171998
 20
208.2523011057259
 30
0.0
 10
49.54710781147039
 20
208.1781217267637
 30
0.0
 10
49.55518114031818
 20
208.05421026001
 30
0.0
 10
49.6352522437579
 20
207.799264747016
 30
0.0
 10
49.81880076048342
 20
207.5276750292573
 30
0.0
 10
50.09039049043582
 20
207.3441265266879
 30
0.0
 10
50.34533601423833
 20
207.264055428699
 30
0.0
 10
50.46924748681028
 20
207.2559821003322
 30
0.0
 10
50.54342686964848
 20
207.2523010908249
 30
0.0
  0
SPLINE
  5
F0
330
EB
100
AcDbEntity
  8
$DDT_AUDIT_GENERATED_(77)
  6
Continuous
 62
     7
100
AcDbSpline
210
0.0
220
0.0
230
1.0
 70
     8
 71
     3
 72
    13
 73
     9
 74
     0
 42
0.0000000063014675
 43
0.0000000001
 40
0.0
 40
0.0
 40
0.0
 40
0.0
 40
0.1294353651990117
 40
0.2550301194134887
 40
0.5000000085429129
 40
0.7449698928013473
 40
0.8705646415265372
 40
1.0
 40
1.0
 40
1.0
 40
1.0
 10
108.5434294263008
 20
207.2523010908249
 30
0.0
 10
108.617608809139
 20
207.2559821003322
 30
0.0
 10
108.7415202817108
 20
207.264055428699
 30
0.0
 10
108.9964658055132
 20
207.3441265266879
 30
0.0
 10
109.2680555354656
 20
207.5276750292574
 30
0.0
 10
109.4516040521913
 20
207.799264747016
 30
0.0
 10
109.5316751556311
 20
208.05421026001
 30
0.0
 10
109.5397484844789
 20
208.1781217267637
 30
0.0
 10
109.5434294942293
 20
208.2523011057259
 30
0.0
  0
LINE
  5
F1
330
EB
100
AcDbEntity
  8
$DDT_AUDIT_GENERATED_(77)
  6
Continuous
 62
     7
100
AcDbLine
 10
109.5434792289
 20
208.2473011057
 30
0.0
 11
109.5434792289
 21
212.9523010908
 31
0.0
  0
LINE
  5
F2
330
EB
100
AcDbEntity
  8
$DDT_AUDIT_GENERATED_(77)
  6
Continuous
 62
     7
100
AcDbLine
 10
49.5434227752
 20
212.9523010908
 30
0.0
 11
49.5434227752
 21
208.2473011057
 31
0.0
  0
LINE
  5
F3
330
EB
100
AcDbEntity
  8
$DDT_AUDIT_GENERATED_(86)
  6
Continuous
 62
     7
100
AcDbLine
 10
104.193428148
 20
207.1523010908
 30
0.0
 11
54.893428148
 21
207.1523010908
 31
0.0
  0
LINE
  5
F4
330
EB
100
AcDbEntity
  8
$DDT_AUDIT_GENERATED_(86)
  6
Continuous
 62
     7
100
AcDbLine
 10
64.4774099257
 20
206.2641365491
 30
0.0
 11
58.6934287341
 21
206.2641392985
 31
0.0
  0
LINE
  5
F5
330
EB
100
AcDbEntity
  8
$DDT_AUDIT_GENERATED_(86)
  6
Continuous
 62
     7
100
AcDbLine
 10
100.393428148
 20
206.2641365491
 30
0.0
 11
94.6094463702
 21
206.2641365491
 31
0.0
  0
SPLINE
  5
F6
330
EB
100
AcDbEntity
  8
$DDT_AUDIT_GENERATED_(86)
  6
Continuous
 62
     7
100
AcDbSpline
210
0.0
220
0.0
230
1.0
 70
     8
 71
     3
 72
    17
 73
    13
 74
     0
 42
0.0000000006637454
 43
0.0000000001
 40
0.0
 40
0.0
 40
0.0
 40
0.0
 40
0.0833354487014831
 40
0.1663736216528879
 40
0.2494866424919604
 40
0.3752626340111653
 40
0.5000479199939184
 40
0.6246601036732432
 40
0.7502964613493427
 40
0.8754314240554908
 40
0.9377169111661814
 40
1.0
 40
1.0
 40
1.0
 40
1.0
 10
64.47740992574525
 20
206.264136549084
 30
0.0
 10
64.80719349126768
 20
206.2642012198002
 30
0.0
 10
65.46558421229335
 20
206.2643303305381
 30
0.0
 10
66.53474164933088
 20
206.2644598407806
 30
0.0
 10
67.84877904353448
 20
206.2644979997183
 30
0.0
 10
69.44284252084614
 20
206.2646032956351
 30
0.0
 10
71.33748019176984
 20
206.2645879050189
 30
0.0
 10
73.31498942718424
 20
206.2644993013226
 30
0.0
 10
75.3578120062946
 20
206.2643514534264
 30
0.0
 10
77.09746749610669
 20
206.2642202193536
 30
0.0
 10
78.4949511884679
 20
206.2641601786793
 30
0.0
 10
79.19394031394371
 20
206.2641481897601
 30
0.0
 10
79.54342814798042
 20
206.264136549084
 30
0.0
  0
SPLINE
  5
F7
330
EB
100
AcDbEntity
  8
$DDT_AUDIT_GENERATED_(86)
  6
Continuous
 62
     7
100
AcDbSpline
210
0.0
220
0.0
230
1.0
 70
     8
 71
     3
 72
    16
 73
    12
 74
     0
 42
0.0000000006637454
 43
0.0000000001
 40
0.0
 40
0.0
 40
0.0
 40
0.0
 40
0.0625509658289192
 40
0.1251043610270316
 40
0.2505663713252279
 40
0.3750305871579224
 40
0.4997224528208468
 40
0.6253703718972006
 40
0.7500479492199676
 40
0.8748984370948331
 40
1.0
 40
1.0
 40
1.0
 40
1.0
 10
79.54342814798042
 20
206.264136549084
 30
0.0
 10
79.89439901661154
 20
206.2641482580364
 30
0.0
 10
80.59635438496336
 20
206.2641603835128
 30
0.0
 10
81.99855663489997
 20
206.2642207300781
 30
0.0
 10
83.7347668998007
 20
206.2643519590627
 30
0.0
 10
85.7731761602845
 20
206.2644992073467
 30
0.0
 10
87.74932440014365
 20
206.2645882302469
 30
0.0
 10
89.64379764338057
 20
206.2646024563985
 30
0.0
 10
91.43292325596828
 20
206.2644882857497
 30
0.0
 10
93.11016078376386
 20
206.2644386275454
 30
0.0
 10
94.10934994861488
 20
206.2642373093121
 30
0.0
 10
94.60944637019126
 20
206.264136549084
 30
0.0
  0
SPLINE
  5
F8
330
EB
100
AcDbEntity
  8
$DDT_AUDIT_GENERATED_(86)
  6
Continuous
 62
     7
100
AcDbSpline
210
0.0
220
0.0
230
1.0
 70
     8
 71
     3
 72
     8
 73
     4
 74
     0
 42
0.0000000025622484
 43
0.0000000001
 40
0.0
 40
0.0
 40
0.0
 40
0.0
 40
1.0
 40
1.0
 40
1.0
 40
1.0
 10
100.3934245711443
 20
206.2641552061896
 30
0.0
 10
100.3939861557807
 20
206.2635514197716
 30
0.0
 10
101.6602072617189
 20
206.5614940661049
 30
0.0
 10
104.1920878889589
 20
207.1579831451896
 30
0.0
  0
SPLINE
  5
F9
330
EB
100
AcDbEntity
  8
$DDT_AUDIT_GENERATED_(86)
  6
Continuous
 62
     7
100
AcDbSpline
210
0.0
220
0.0
230
1.0
 70
     8
 71
     3
 72
     8
 73
     4
 74
     0
 42
0.0000000025622487
 43
0.0000000001
 40
0.0
 40
0.0
 40
0.0
 40
0.0
 40
1.0
 40
1.0
 40
1.0
 40
1.0
 10
54.89476839699682
 20
207.1579831034382
 30
0.0
 10
57.42665085625353
 20
206.5614950025669
 30
0.0
 10
58.69287196237813
 20
206.2635523537477
 30
0.0
 10
58.6934317153706
 20
206.2641551569806
 30
0.0
  0
LINE
  5
FA
330
EB
100
AcDbEntity
  8
$DDT_AUDIT_GENERATED_(86)
  6
Continuous
 62
     7
100
AcDbLine
 10
104.193428148
 20
207.1473010908
 30
0.0
 11
104.193428148
 21
207.2523010908
 31
0.0
  0
LINE
  5
FB
330
EB
100
AcDbEntity
  8
$DDT_AUDIT_GENERATED_(86)
  6
Continuous
 62
     7
100
AcDbLine
 10
54.893428148
 20
207.2523010908
 30
0.0
 11
54.893428148
 21
207.1473010908
 31
0.0
  0
SPLINE
  5
FC
330
EB
100
AcDbEntity
  8
$DDT_AUDIT_GENERATED_(9A)
  6
Continuous
 62
     7
100
AcDbSpline
210
0.0
220
0.0
230
1.0
 70
     8
 71
     3
 72
    16
 73
    12
 74
     0
 42
0.0000000002421886
 43
0.0000000001
 40
0.4999530678584513
 40
0.4999530678584513
 40
0.4999530678584513
 40
0.4999530678584513
 40
0.5000000000000001
 40
0.5000000000000001
 40
0.6250000000000001
 40
0.6250000000000001
 40
0.7500000000000001
 40
0.7500000000000001
 40
0.8750000000000001
 40
0.8750000000000001
 40
1.0
 40
1.0
 40
1.0
 40
1.0
 10
58.89654991189479
 20
206.2774918653321
 30
0.0
 10
58.89654976038337
 20
206.2774919116601
 30
0.0
 10
58.89654968462056
 20
206.2774919579807
 30
0.0
 10
58.8965496525207
 20
206.2776153555675
 30
0.0
 10
59.43391077820466
 20
206.2776856421539
 30
0.0
 10
61.50237498995526
 20
206.2776805564568
 30
0.0
 10
63.0326645137409
 20
206.2776050351249
 30
0.0
 10
66.85474367570761
 20
206.2772904792608
 30
0.0
 10
69.14503002492802
 20
206.2770514174
 30
0.0
 10
74.13894997344848
 20
206.2764168151547
 30
0.0
 10
76.84061937881289
 20
206.2760213733212
 30
0.0
 10
79.54342810892626
 20
206.2755624222038
 30
0.0
  0
SPLINE
  5
FD
330
EB
100
AcDbEntity
  8
$DDT_AUDIT_GENERATED_(9A)
  6
Continuous
 62
     7
100
AcDbSpline
210
0.0
220
0.0
230
1.0
 70
     8
 71
     3
 72
    18
 73
    14
 74
     0
 42
0.0000000002420757
 43
0.0000000001
 40
0.0
 40
0.0
 40
0.0
 40
0.0
 40
0.0625000000000001
 40
0.0625000000000001
 40
0.1250000000000003
 40
0.1250000000000003
 40
0.2500000000000004
 40
0.2500000000000004
 40
0.3125000000000004
 40
0.3125000000000004
 40
0.3750000000000005
 40
0.3750000000000005
 40
0.4997688975731015
 40
0.4997688975731015
 40
0.4997688975731015
 40
0.4997688975731015
 10
79.54342810892626
 20
206.2755624222038
 30
0.0
 10
80.90631976810998
 20
206.275533253519
 30
0.0
 10
82.2515070855815
 20
206.2755182105388
 30
0.0
 10
84.90712034089695
 20
206.2754507430018
 30
0.0
 10
86.21706445716362
 20
206.2754049185611
 30
0.0
 10
89.94216987894282
 20
206.2753083028686
 30
0.0
 10
92.24342572622497
 20
206.2753177328673
 30
0.0
 10
95.09334163117295
 20
206.2753376346575
 30
0.0
 10
95.96024830499876
 20
206.2753426687997
 30
0.0
 10
97.46418415545635
 20
206.2753450247883
 30
0.0
 10
98.09729060041326
 20
206.2753483084058
 30
0.0
 10
99.6435440512913
 20
206.2753245578785
 30
0.0
 10
100.188519247291
 20
206.2753354952164
 30
0.0
 10
100.1885807459984
 20
206.2753295174967
 30
0.0
  0
SPLINE
  5
FE
330
EB
100
AcDbEntity
  8
$DDT_AUDIT_GENERATED_(9A)
  6
Continuous
 62
     7
100
AcDbSpline
210
0.0
220
0.0
230
1.0
 70
     8
 71
     3
 72
    54
 73
    50
 74
     0
 42
0.0000000001556715
 43
0.0000000001
 40
0.0
 40
0.0
 40
0.0
 40
0.0
 40
0.0166622897606518
 40
0.0309670745491221
 40
0.0435206156253376
 40
0.0546290751001552
 40
0.0651300055617604
 40
0.0756416621933209
 40
0.1007176292324079
 40
0.1263502305798378
 40
0.1500304800955529
 40
0.175407251740214
 40
0.2024745729974337
 40
0.2311495182960019
 40
0.2618832647521802
 40
0.2940268722719312
 40
0.3266002579684152
 40
0.3578061115083919
 40
0.3873583776142668
 40
0.4145686638834154
 40
0.4398161186212804
 40
0.4629846978683661
 40
0.4857195338073209
 40
0.5129639102150759
 40
0.541211372147295
 40
0.5699163388486406
 40
0.599103665259156
 40
0.6187223493446156
 40
0.6384550516711105
 40
0.6581981272821722
 40
0.6770695041722252
 40
0.6951506582407936
 40
0.7123336426810257
 40
0.7238260699074928
 40
0.7343503502251377
 40
0.7452005957064394
 40
0.7581145900066548
 40
0.7733628729137417
 40
0.7946888149583988
 40
0.814059441534749
 40
0.8313690285903718
 40
0.8398295278948734
 40
0.8516440039777817
 40
0.8665909532471846
 40
0.8835704550691627
 40
0.9014828663523938
 40
0.919527669416157
 40
0.9612584577617472
 40
1.0
 40
1.0
 40
1.0
 40
1.0
 10
115.9128484614567
 20
146.9052605094926
 30
0.0
 10
115.9133031844105
 20
147.297595779052
 30
0.0
 10
115.9127623301617
 20
147.9106040059277
 30
0.0
 10
115.9000330479252
 20
148.8594511966423
 30
0.0
 10
115.8703757657717
 20
149.6679314891842
 30
0.0
 10
115.8251696732681
 20
150.3987381814007
 30
0.0
 10
115.7651215031563
 20
151.0835588180887
 30
0.0
 10
115.6540542794343
 20
152.0640053726902
 30
0.0
 10
115.4515484671719
 20
153.3594648950384
 30
0.0
 10
115.1234075629474
 20
154.9182728172088
 30
0.0
 10
114.726124858118
 20
156.4673301324703
 30
0.0
 10
114.2592843918048
 20
158.028972219454
 30
0.0
 10
113.6949567653745
 20
159.6716517095885
 30
0.0
 10
113.0187544334461
 20
161.3954577001891
 30
0.0
 10
112.2189855532149
 20
163.1854206586315
 30
0.0
 10
111.293763103421
 20
165.008100205965
 30
0.0
 10
110.2730639892604
 20
166.7907211759187
 30
0.0
 10
109.1984657253305
 20
168.475734524524
 30
0.0
 10
108.1203406072358
 20
170.0201202779996
 30
0.0
 10
107.0685309351421
 20
171.4258965495343
 30
0.0
 10
106.0689319059295
 20
172.6993642466537
 30
0.0
 10
105.1121495350603
 20
173.8843815646804
 30
0.0
 10
104.1222243293371
 20
175.0975235028875
 30
0.0
 10
103.0689523724202
 20
176.3993055161302
 30
0.0
 10
101.9642586225493
 20
177.8237089775027
 30
0.0
 10
100.8976378803187
 20
179.3288518871001
 30
0.0
 10
100.0399911534573
 20
180.7521945919249
 30
0.0
 10
99.39955480975222
 20
182.0738569658254
 30
0.0
 10
98.9474048012383
 20
183.2571375186159
 30
0.0
 10
98.61204239864544
 20
184.4621554623644
 30
0.0
 10
98.39193729401593
 20
185.6570530873782
 30
0.0
 10
98.26812059276497
 20
186.8100848263956
 30
0.0
 10
98.21894676441565
 20
187.8101418387658
 30
0.0
 10
98.20758288908144
 20
188.6492376172862
 30
0.0
 10
98.2135694270176
 20
189.3527981484062
 30
0.0
 10
98.23266326918426
 20
190.0865513429459
 30
0.0
 10
98.2676732232954
 20
190.9209435592652
 30
0.0
 10
98.32805621297928
 20
191.9785897622091
 30
0.0
 10
98.41463496108946
 20
193.1730475496387
 30
0.0
 10
98.5198865740424
 20
194.4102642373498
 30
0.0
 10
98.61065896251543
 20
195.3722726028456
 30
0.0
 10
98.69104802397841
 20
196.1727754956655
 30
0.0
 10
98.76995790478043
 20
196.9225793627062
 30
0.0
 10
98.87395833812741
 20
197.8531578298663
 30
0.0
 10
99.00097053754526
 20
198.9121667759566
 30
0.0
 10
99.14606012462464
 20
200.0370329879973
 30
0.0
 10
99.37432681031564
 20
201.6786785181876
 30
0.0
 10
99.69080275369691
 20
203.8122380819367
 30
0.0
 10
100.0075212544798
 20
205.3778601857703
 30
0.0
 10
100.1891078841356
 20
206.2718247718056
 30
0.0
  0
SPLINE
  5
FF
330
EB
100
AcDbEntity
  8
$DDT_AUDIT_GENERATED_(9A)
  6
Continuous
 62
     7
100
AcDbSpline
210
0.0
220
0.0
230
1.0
 70
     8
 71
     3
 72
    59
 73
    55
 74
     0
 42
0.0000000001556581
 43
0.0000000001
 40
0.0
 40
0.0
 40
0.0
 40
0.0
 40
0.0211937379782614
 40
0.0440053157735565
 40
0.0665596814833245
 40
0.0884416963322085
 40
0.1087612494560228
 40
0.1203455407773335
 40
0.1298401701576025
 40
0.138840230145747
 40
0.1483545716388716
 40
0.1583881248191311
 40
0.1689356255474349
 40
0.1860358705711798
 40
0.2041971145416455
 40
0.2232627223328445
 40
0.2426105967926551
 40
0.2594526691566085
 40
0.2730168135218183
 40
0.2831001665571407
 40
0.2887190058051596
 40
0.2951725951299038
 40
0.3036264491364751
 40
0.3141184551688975
 40
0.3262985309830396
 40
0.3464201263221061
 40
0.3660493324756267
 40
0.3853338505378469
 40
0.413950354309274
 40
0.4427419624822754
 40
0.4713193757698684
 40
0.4992907106956909
 40
0.5319277281714541
 40
0.5652172555819932
 40
0.5987047288301832
 40
0.6327732526379407
 40
0.6690976530786124
 40
0.7073926860712009
 40
0.747169922010637
 40
0.7755689372279293
 40
0.8038898626696039
 40
0.8304840243490572
 40
0.8550700128028474
 40
0.8776617522540322
 40
0.8894684696845192
 40
0.9006982661439413
 40
0.9113857811873605
 40
0.9217058246696722
 40
0.9334068809613951
 40
0.9439077956566577
 40
0.9555802423856683
 40
0.9685575056019751
 40
0.9831584135162921
 40
1.0
 40
1.0
 40
1.0
 40
1.0
 10
58.89745366570287
 20
206.2776448633202
 30
0.0
 10
58.99936925033693
 20
205.7890820607973
 30
0.0
 10
59.17644501152794
 20
204.9332087913768
 30
0.0
 10
59.43170755206105
 20
203.5017596978931
 30
0.0
 10
59.65067216469434
 20
202.086739055847
 30
0.0
 10
59.84898932306596
 20
200.7126805288989
 30
0.0
 10
60.00170982421351
 20
199.5718585426434
 30
0.0
 10
60.11199628106214
 20
198.6924321364076
 30
0.0
 10
60.18863976550683
 20
198.05309723939
 30
0.0
 10
60.25721753924855
 20
197.4574188361
 30
0.0
 10
60.32433000070407
 20
196.8499681332115
 30
0.0
 10
60.39205878833324
 20
196.2092627510974
 30
0.0
 10
60.47296725711096
 20
195.4066586654542
 30
0.0
 10
60.56503318627332
 20
194.4303143937005
 30
0.0
 10
60.66395493567769
 20
193.2714935441693
 30
0.0
 10
60.75331891287077
 20
192.0636277286165
 30
0.0
 10
60.82258052387056
 20
190.8827007780374
 30
0.0
 10
60.8641825407096
 20
189.8183136555657
 30
0.0
 10
60.87892302260707
 20
188.951577091289
 30
0.0
 10
60.87564202655805
 20
188.3250115816988
 30
0.0
 10
60.86465204986535
 20
187.8508219039591
 30
0.0
 10
60.84775810190242
 20
187.4117052921902
 30
0.0
 10
60.81541812152072
 20
186.8688692278877
 30
0.0
 10
60.75551096886417
 20
186.2050795637487
 30
0.0
 10
60.63505762336477
 20
185.2966244378352
 30
0.0
 10
60.41438510324762
 20
184.205392212399
 30
0.0
 10
60.04888301743335
 20
182.9936613006978
 30
0.0
 10
59.5063036550717
 20
181.6517513343642
 30
0.0
 10
58.73679093768897
 20
180.1974810809137
 30
0.0
 10
57.72815968245068
 20
178.6557267330332
 30
0.0
 10
56.63870095307495
 20
177.1884386321015
 30
0.0
 10
55.45130167937743
 20
175.6931694246212
 30
0.0
 10
54.17918253032522
 20
174.1367811339059
 30
0.0
 10
52.84043956529727
 20
172.4823022087302
 30
0.0
 10
51.51833677224931
 20
170.7752657278666
 30
0.0
 10
50.21815808210617
 20
168.970369235699
 30
0.0
 10
48.94674991292655
 20
167.0204608581103
 30
0.0
 10
47.72420302151717
 20
164.8968786510311
 30
0.0
 10
46.70846199864288
 20
162.8546564019754
 30
0.0
 10
45.8888588655129
 20
160.9577360016733
 30
0.0
 10
45.25411365869986
 20
159.2903213606606
 30
0.0
 10
44.71613027418042
 20
157.6751556327653
 30
0.0
 10
44.27673299493748
 20
156.1578255926929
 30
0.0
 10
43.97238332692854
 20
154.9319783587738
 30
0.0
 10
43.7666298492994
 20
153.9770260767806
 30
0.0
 10
43.63040205590789
 20
153.267978952637
 30
0.0
 10
43.51570064739488
 20
152.5873846553704
 30
0.0
 10
43.41548351779467
 20
151.8943293926224
 30
0.0
 10
43.33364525803919
 20
151.2027804467084
 30
0.0
 10
43.26775444610373
 20
150.4807446617736
 30
0.0
 10
43.2192078160035
 20
149.7288338950595
 30
0.0
 10
43.18744547389071
 20
148.8930120806971
 30
0.0
 10
43.1740986930253
 20
147.9244196535134
 30
0.0
 10
43.17353415664853
 20
147.3018533824861
 30
0.0
 10
43.17400783449171
 20
146.9052605094926
 30
0.0
  0
SPLINE
  5
100
330
EB
100
AcDbEntity
  8
$DDT_AUDIT_GENERATED_(9A)
  6
Continuous
 62
     7
100
AcDbSpline
210
0.0
220
0.0
230
1.0
 70
     8
 71
     3
 72
    60
 73
    56
 74
     0
 42
0.0000000000874786
 43
0.0000000001
 40
0.0
 40
0.0
 40
0.0
 40
0.0
 40
0.0220772504361319
 40
0.0432187458806476
 40
0.0634237948019055
 40
0.0826908810340632
 40
0.1010188631554088
 40
0.1184075393116746
 40
0.1348577660737372
 40
0.1503707492000231
 40
0.1649467384665296
 40
0.1785853735356309
 40
0.1927469536445352
 40
0.2057315416296494
 40
0.2175388143943872
 40
0.2283588940521903
 40
0.2391160487872036
 40
0.2604182053571863
 40
0.2819544215034323
 40
0.3067109947432507
 40
0.3317688449787059
 40
0.3570837806775309
 40
0.3824301363355461
 40
0.4077777052610781
 40
0.4331279221601342
 40
0.4584786484528743
 40
0.4838272108665759
 40
0.5091735072799202
 40
0.5345212701675089
 40
0.5598716145134541
 40
0.5852222648854076
 40
0.6103955882742574
 40
0.6348176796106174
 40
0.6584471568092991
 40
0.6812847622204423
 40
0.6912603340560827
 40
0.7010763566936898
 40
0.7107543253613543
 40
0.721230790236634
 40
0.733004639005082
 40
0.7458309532622736
 40
0.7599088654239154
 40
0.7752391690714541
 40
0.7918224004095394
 40
0.8079855946369539
 40
0.825183616405147
 40
0.8434154560275513
 40
0.8626802079594724
 40
0.8829780763156824
 40
0.9006846884683765
 40
0.9191111141168625
 40
0.9382570256898711
 40
0.9581212555589051
 40
0.9787024183493795
 40
1.0
 40
1.0
 40
1.0
 40
1.0
 10
43.17400783450685
 20
146.905260526753
 30
0.0
 10
43.19029327766438
 20
145.9806837776565
 30
0.0
 10
43.22460692258846
 20
144.4556492133256
 30
0.0
 10
43.48240452581531
 20
142.0051276784424
 30
0.0
 10
43.86568582713901
 20
139.7396214650571
 30
0.0
 10
44.36677614778425
 20
137.592115091727
 30
0.0
 10
44.96174791076897
 20
135.5843345665208
 30
0.0
 10
45.63236823355093
 20
133.7133027608253
 30
0.0
 10
46.36084433279769
 20
131.9801474855691
 30
0.0
 10
47.12962410224402
 20
130.3826787662845
 30
0.0
 10
47.92200953784359
 20
128.917599183824
 30
0.0
 10
48.75175540453223
 20
127.5331284004611
 30
0.0
 10
49.60740657359035
 20
126.2364915221504
 30
0.0
 10
50.47628597800954
 20
125.0338604409186
 30
0.0
 10
51.31257599706972
 20
123.9660318360349
 30
0.0
 10
52.13154396570015
 20
122.9934513397026
 30
0.0
 10
53.22515162332571
 20
121.7807051292486
 30
0.0
 10
54.66829798019986
 20
120.3353082087718
 30
0.0
 10
56.60766364215558
 20
118.6402062058734
 30
0.0
 10
58.77966912220918
 20
117.0034560505322
 30
0.0
 10
61.19358666364934
 20
115.4628270959769
 30
0.0
 10
63.74107281892771
 20
114.106054088957
 30
0.0
 10
66.39898297533466
 20
112.9526539603456
 30
0.0
 10
69.14227650034216
 20
112.0163057557302
 30
0.0
 10
71.9512698215138
 20
111.3004035002347
 30
0.0
 10
74.80808594567146
 20
110.8087021278091
 30
0.0
 10
77.69474107779473
 20
110.5445919908772
 30
0.0
 10
80.59323294626796
 20
110.5123020723081
 30
0.0
 10
83.48496962610302
 20
110.7130117248409
 30
0.0
 10
86.351804536755
 20
111.1422696453617
 30
0.0
 10
89.16928136784738
 20
111.7952126322826
 30
0.0
 10
91.89274818313986
 20
112.6576832990196
 30
0.0
 10
94.4793756714106
 20
113.7062006615107
 30
0.0
 10
96.89868509050763
 20
114.9088562352827
 30
0.0
 10
98.75031752331395
 20
116.0039211916857
 30
0.0
 10
100.1035439858801
 20
116.9007527662396
 30
0.0
 10
101.0194858777063
 20
117.5493391622194
 30
0.0
 10
101.9304715739002
 20
118.2369829368788
 30
0.0
 10
102.8774231508441
 20
118.9997988696628
 30
0.0
 10
103.8879087320005
 20
119.8736861589806
 30
0.0
 10
104.9640061868165
 20
120.8798081166303
 30
0.0
 10
106.0910758845018
 20
122.0277434492987
 30
0.0
 10
107.25894621616
 20
123.3336361002073
 30
0.0
 10
108.4099123331641
 20
124.7582981545807
 30
0.0
 10
109.5282415826015
 20
126.297492305216
 30
0.0
 10
110.5992855351863
 20
127.9455390824664
 30
0.0
 10
111.6364440073827
 20
129.7528685449955
 30
0.0
 10
112.6184276237188
 20
131.7238323889701
 30
0.0
 10
113.4674415092771
 20
133.7340918977248
 30
0.0
 10
114.1829814448731
 20
135.76157780316
 30
0.0
 10
114.7700603668805
 20
137.7833998891463
 30
0.0
 10
115.2563877785346
 20
139.9200910366495
 30
0.0
 10
115.6226974030506
 20
142.1490078908231
 30
0.0
 10
115.8655825692612
 20
144.5354343563003
 30
0.0
 10
115.8976931602102
 20
146.0133260498425
 30
0.0
 10
115.9128484614576
 20
146.905260526753
 30
0.0
  0
CIRCLE
  5
101
330
EB
100
AcDbEntity
  8
$DDT_AUDIT_GENERATED_(AF)
  6
Continuous
 62
     7
100
AcDbCircle
 10
79.5434281435
 20
146.9052605268
 30
0.0
 40
30.75
  0
CIRCLE
  5
102
330
EB
100
AcDbEntity
  8
$DDT_AUDIT_GENERATED_(AF)
  6
Continuous
 62
     7
100
AcDbCircle
 10
79.5434281435
 20
146.9052605268
 30
0.0
 40
26.85
  0
ENDBLK
  5
104
330
EB
100
AcDbEntity
  8
0
100
AcDbBlockEnd
  0
ENDSEC
  0
SECTION
  2
ENTITIES
  0
INSERT
  5
5F
330
1F
100
AcDbEntity
  8
Default
100
AcDbBlockReference
  2
SEANNOT_GROUP
 10
0.0
 20
0.0
 30
0.0
  0
INSERT
  5
66
330
1F
100
AcDbEntity
  8
Default
100
AcDbBlockReference
  2
SEANNOT_GROUP1
 10
0.0
 20
0.0
 30
0.0
  0
INSERT
  5
70
330
1F
100
AcDbEntity
  8
Default
100
AcDbBlockReference
  2
SEANNOT_GROUP2
 10
0.0
 20
0.0
 30
0.0
  0
INSERT
  5
76
330
1F
100
AcDbEntity
  8
Default
100
AcDbBlockReference
  2
SE
 10
0.0
 20
0.0
 30
0.0
  0
INSERT
  5
C3
330
1F
100
AcDbEntity
  8
Default
100
AcDbBlockReference
  2
SE1
 10
0.0
 20
0.0
 30
0.0
  0
INSERT
  5
EC
330
1F
100
AcDbEntity
  8
Default
100
AcDbBlockReference
  2
SE2
 10
0.0
 20
0.0
 30
0.0
  0
TEXT
  5
106
330
1F
100
AcDbEntity
  8
Default
  6
Continuous
 62
     7
100
AcDbText
 10
5.9362635081
 20
53.4225120485
 30
0.0
 40
10.0
  1
Grohe AG^J
  7
SEACAD_seiso_ttf
 11
5.9362635081
 21
63.4225120485
 31
0.0
100
AcDbText
 73
     3
  0
TEXT
  5
107
330
1F
100
AcDbEntity
  8
Default
  6
Continuous
 62
     7
100
AcDbText
 10
5.9362635081
 20
37.0588756849
 30
0.0
 40
10.0
  1
 
  7
SEACAD_seiso_ttf
 11
5.9362635081
 21
47.0588756849
 31
0.0
100
AcDbText
 73
     3
  0
TEXT
  5
108
330
1F
100
AcDbEntity
  8
Default
  6
Continuous
 62
     7
100
AcDbText
 10
5.9362635081
 20
20.6952393213
 30
0.0
 40
10.0
  1
ecn: 
  7
SEACAD_seiso_ttf
 11
5.9362635081
 21
30.6952393213
 31
0.0
100
AcDbText
 73
     3
  0
TEXT
  5
109
330
1F
100
AcDbEntity
  8
Default
  6
Continuous
 62
     7
100
AcDbText
 10
5.9362635081
 20
4.3316029576
 30
0.0
 40
10.0
  1
unit: mm
  7
SEACAD_seiso_ttf
 11
5.9362635081
 21
14.3316029576
 31
0.0
100
AcDbText
 73
     3
  0
LINE
  5
10A
330
1F
100
AcDbEntity
  8
Default
  6
Continuous
 62
     7
100
AcDbLine
 10
0.0
 20
0.0
 30
0.0
 11
100.0
 21
0.0
 31
0.0
  0
LINE
  5
10B
330
1F
100
AcDbEntity
  8
Default
  6
Continuous
 62
     7
100
AcDbLine
 10
0.0
 20
0.0
 30
0.0
 11
0.0
 21
100.0
 31
0.0
  0
TEXT
  5
10C
330
1F
100
AcDbEntity
  8
Default
  6
Continuous
 62
     7
100
AcDbText
 10
24.3923665681
 20
-18.2375342018
 30
0.0
 40
10.0
  1
100 mm
  7
SEACAD_seiso_ttf
 11
24.3923665681
 21
-8.2375342018
 31
0.0
100
AcDbText
 73
     3
  0
TEXT
  5
10D
330
1F
100
AcDbEntity
  8
Default
  6
Continuous
 62
     7
100
AcDbText
 10
-7.6150308803
 20
24.6231930421
 30
0.0
 40
10.0
  1
100 mm
 50
90.0
  7
SEACAD_seiso_ttf
 11
-17.6150308803
 21
24.6231930421
 31
0.0
100
AcDbText
 73
     3
  0
TEXT
  5
10E
330
1F
100
AcDbEntity
  8
Default
  6
Continuous
 62
     7
100
AcDbText
 10
28.4878128572
 20
20.0907663715
 30
0.0
 40
10.0
  1
211890
  7
SEACAD_seiso_ttf
 11
28.4878128572
 21
30.0907663715
 31
0.0
100
AcDbText
 73
     3
  0
TEXT
  5
10F
330
1F
100
AcDbEntity
  8
Default
  6
Continuous
 62
     7
100
AcDbText
 10
5.9012241913
 20
36.7242780188
 30
0.0
 40
10.0
  1
40376000
  7
SEACAD_seiso_ttf
 11
5.9012241913
 21
46.7242780188
 31
0.0
100
AcDbText
 73
     3
  0
ENDSEC
  0
SECTION
  2
OBJECTS
  0
DICTIONARY
  5
C
330
0
100
AcDbDictionary
281
     1
  3
ACAD_GROUP
350
D
  3
ACAD_LAYOUT
350
1A
  3
ACAD_MLEADERSTYLE
350
113
  3
ACAD_MLINESTYLE
350
17
  3
ACAD_PLOTSETTINGS
350
19
  3
ACAD_PLOTSTYLENAME
350
E
  3
ACAD_SCALELIST
350
3B
  3
ACAD_TABLESTYLE
350
112
  3
ACAD_VISUALSTYLE
350
2A
  3
AcDbVariableDictionary
350
110
  0
DICTIONARY
  5
D
102
{ACAD_REACTORS
330
C
102
}
330
C
100
AcDbDictionary
281
     1
  0
DICTIONARY
  5
1A
102
{ACAD_REACTORS
330
C
102
}
330
C
100
AcDbDictionary
281
     1
  3
Layout1
350
1E
  3
Model
350
22
  0
DICTIONARY
  5
113
102
{ACAD_REACTORS
330
C
102
}
330
C
100
AcDbDictionary
281
     1
  0
DICTIONARY
  5
17
102
{ACAD_REACTORS
330
C
102
}
330
C
100
AcDbDictionary
281
     1
  3
Standard
350
18
  0
DICTIONARY
  5
19
102
{ACAD_REACTORS
330
C
102
}
330
C
100
AcDbDictionary
281
     1
  0
ACDBDICTIONARYWDFLT
  5
E
102
{ACAD_REACTORS
330
C
102
}
330
C
100
AcDbDictionary
281
     1
  3
Normal
350
F
100
AcDbDictionaryWithDefault
340
F
  0
DICTIONARY
  5
3B
102
{ACAD_REACTORS
330
C
102
}
330
C
100
AcDbDictionary
281
     1
  3
A0
350
3C
  3
A1
350
3D
  3
A2
350
3E
  3
A3
350
3F
  3
A4
350
40
  3
A5
350
41
  3
A6
350
42
  3
A7
350
43
  3
A8
350
44
  3
A9
350
45
  3
B0
350
46
  3
B1
350
47
  3
B2
350
48
  3
B3
350
49
  3
B4
350
4A
  3
B5
350
4B
  3
B6
350
4C
  3
B7
350
4D
  3
B8
350
4E
  3
B9
350
4F
  3
C0
350
50
  3
C1
350
51
  3
C2
350
52
  3
C3
350
53
  3
C4
350
54
  3
C5
350
55
  3
C6
350
56
  3
C7
350
57
  3
C8
350
58
  3
C9
350
59
  3
D0
350
5A
  3
D1
350
5B
  3
D2
350
5C
  0
DICTIONARY
  5
112
102
{ACAD_REACTORS
330
C
102
}
330
C
100
AcDbDictionary
281
     1
  0
DICTIONARY
  5
2A
102
{ACAD_REACTORS
330
C
102
}
330
C
100
AcDbDictionary
281
     1
  3
2dWireframe
350
2F
  3
3D Hidden
350
31
  3
3dWireframe
350
30
  3
Basic
350
32
  3
Brighten
350
36
  3
ColorChange
350
3A
  3
Conceptual
350
34
  3
Dim
350
35
  3
Facepattern
350
39
  3
Flat
350
2B
  3
FlatWithEdges
350
2C
  3
Gouraud
350
2D
  3
GouraudWithEdges
350
2E
  3
Linepattern
350
38
  3
Realistic
350
33
  3
Thicken
350
37
  0
DICTIONARY
  5
110
102
{ACAD_REACTORS
330
C
102
}
330
C
100
AcDbDictionary
281
     1
  3
CANNOSCALE
350
111
  3
PSOLHEIGHT
350
115
  3
PSOLWIDTH
350
114
  0
LAYOUT
  5
1E
102
{ACAD_REACTORS
330
1A
102
}
330
1A
100
AcDbPlotSettings
  1

  2
none_device
  4

  6

 40
0.0
 41
0.0
 42
0.0
 43
0.0
 44
0.0
 45
0.0
 46
0.0
 47
0.0
 48
0.0
 49
0.0
140
0.0
141
0.0
142
1.0
143
1.0
 70
   688
 72
     0
 73
     0
 74
     5
  7

 75
    16
147
1.0
148
0.0
149
0.0
100
AcDbLayout
  1
Layout1
 70
     1
 71
     1
 10
0.0
 20
0.0
 11
1682.0
 21
2378.0
 12
0.0
 22
0.0
 32
0.0
 14
0.0
 24
0.0
 34
0.0
 15
1682.0
 25
2378.0
 35
0.0
146
0.0
 13
0.0
 23
0.0
 33
0.0
 16
1.0
 26
0.0
 36
0.0
 17
0.0
 27
1.0
 37
0.0
 76
     0
330
1B
  0
LAYOUT
  5
22
102
{ACAD_REACTORS
330
1A
102
}
330
1A
100
AcDbPlotSettings
  1

  2
none_device
  4

  6

 40
0.0
 41
0.0
 42
0.0
 43
0.0
 44
0.0
 45
0.0
 46
0.0
 47
0.0
 48
0.0
 49
0.0
140
0.0
141
0.0
142
1.0
143
1.0
 70
  1712
 72
     0
 73
     0
 74
     0
  7

 75
     0
147
1.0
148
0.0
149
0.0
100
AcDbLayout
  1
Model
 70
     1
 71
     0
 10
0.0
 20
0.0
 11
1682.0
 21
2378.0
 12
0.0
 22
0.0
 32
0.0
 14
0.0
 24
0.0
 34
0.0
 15
1682.0
 25
2378.0
 35
0.0
146
0.0
 13
0.0
 23
0.0
 33
0.0
 16
1.0
 26
0.0
 36
0.0
 17
0.0
 27
1.0
 37
0.0
 76
     0
330
1F
331
29
  0
MLINESTYLE
  5
18
102
{ACAD_REACTORS
330
17
102
}
330
17
100
AcDbMlineStyle
  2
Standard
 70
     0
  3

 62
   256
 51
90.0
 52
90.0
 71
     2
 49
0.5
 62
   256
  6
BYLAYER
 49
-0.5
 62
   256
  6
BYLAYER
  0
ACDBPLACEHOLDER
  5
F
102
{ACAD_REACTORS
330
E
102
}
330
E
  0
SCALE
  5
3C
102
{ACAD_REACTORS
330
3B
102
}
330
3B
100
AcDbScale
 70
     0
300
1:1
140
1.0
141
1.0
290
     1
  0
SCALE
  5
3D
102
{ACAD_REACTORS
330
3B
102
}
330
3B
100
AcDbScale
 70
     0
300
1:2
140
1.0
141
2.0
290
     0
  0
SCALE
  5
3E
102
{ACAD_REACTORS
330
3B
102
}
330
3B
100
AcDbScale
 70
     0
300
1:4
140
1.0
141
4.0
290
     0
  0
SCALE
  5
3F
102
{ACAD_REACTORS
330
3B
102
}
330
3B
100
AcDbScale
 70
     0
300
1:5
140
1.0
141
5.0
290
     0
  0
SCALE
  5
40
102
{ACAD_REACTORS
330
3B
102
}
330
3B
100
AcDbScale
 70
     0
300
1:8
140
1.0
141
8.0
290
     0
  0
SCALE
  5
41
102
{ACAD_REACTORS
330
3B
102
}
330
3B
100
AcDbScale
 70
     0
300
1:10
140
1.0
141
10.0
290
     0
  0
SCALE
  5
42
102
{ACAD_REACTORS
330
3B
102
}
330
3B
100
AcDbScale
 70
     0
300
1:16
140
1.0
141
16.0
290
     0
  0
SCALE
  5
43
102
{ACAD_REACTORS
330
3B
102
}
330
3B
100
AcDbScale
 70
     0
300
1:20
140
1.0
141
20.0
290
     0
  0
SCALE
  5
44
102
{ACAD_REACTORS
330
3B
102
}
330
3B
100
AcDbScale
 70
     0
300
1:30
140
1.0
141
30.0
290
     0
  0
SCALE
  5
45
102
{ACAD_REACTORS
330
3B
102
}
330
3B
100
AcDbScale
 70
     0
300
1:40
140
1.0
141
40.0
290
     0
  0
SCALE
  5
46
102
{ACAD_REACTORS
330
3B
102
}
330
3B
100
AcDbScale
 70
     0
300
1:50
140
1.0
141
50.0
290
     0
  0
SCALE
  5
47
102
{ACAD_REACTORS
330
3B
102
}
330
3B
100
AcDbScale
 70
     0
300
1:100
140
1.0
141
100.0
290
     0
  0
SCALE
  5
48
102
{ACAD_REACTORS
330
3B
102
}
330
3B
100
AcDbScale
 70
     0
300
2:1
140
2.0
141
1.0
290
     0
  0
SCALE
  5
49
102
{ACAD_REACTORS
330
3B
102
}
330
3B
100
AcDbScale
 70
     0
300
4:1
140
4.0
141
1.0
290
     0
  0
SCALE
  5
4A
102
{ACAD_REACTORS
330
3B
102
}
330
3B
100
AcDbScale
 70
     0
300
8:1
140
8.0
141
1.0
290
     0
  0
SCALE
  5
4B
102
{ACAD_REACTORS
330
3B
102
}
330
3B
100
AcDbScale
 70
     0
300
10:1
140
10.0
141
1.0
290
     0
  0
SCALE
  5
4C
102
{ACAD_REACTORS
330
3B
102
}
330
3B
100
AcDbScale
 70
     0
300
100:1
140
100.0
141
1.0
290
     0
  0
SCALE
  5
4D
102
{ACAD_REACTORS
330
3B
102
}
330
3B
100
AcDbScale
 70
     0
300
1/128" = 1'-0"
140
0.0078125
141
12.0
290
     0
  0
SCALE
  5
4E
102
{ACAD_REACTORS
330
3B
102
}
330
3B
100
AcDbScale
 70
     0
300
1/64" = 1'-0"
140
0.015625
141
12.0
290
     0
  0
SCALE
  5
4F
102
{ACAD_REACTORS
330
3B
102
}
330
3B
100
AcDbScale
 70
     0
300
1/32" = 1'-0"
140
0.03125
141
12.0
290
     0
  0
SCALE
  5
50
102
{ACAD_REACTORS
330
3B
102
}
330
3B
100
AcDbScale
 70
     0
300
1/16" = 1'-0"
140
0.0625
141
12.0
290
     0
  0
SCALE
  5
51
102
{ACAD_REACTORS
330
3B
102
}
330
3B
100
AcDbScale
 70
     0
300
3/32" = 1'-0"
140
0.09375
141
12.0
290
     0
  0
SCALE
  5
52
102
{ACAD_REACTORS
330
3B
102
}
330
3B
100
AcDbScale
 70
     0
300
1/8" = 1'-0"
140
0.125
141
12.0
290
     0
  0
SCALE
  5
53
102
{ACAD_REACTORS
330
3B
102
}
330
3B
100
AcDbScale
 70
     0
300
3/16" = 1'-0"
140
0.1875
141
12.0
290
     0
  0
SCALE
  5
54
102
{ACAD_REACTORS
330
3B
102
}
330
3B
100
AcDbScale
 70
     0
300
1/4" = 1'-0"
140
0.25
141
12.0
290
     0
  0
SCALE
  5
55
102
{ACAD_REACTORS
330
3B
102
}
330
3B
100
AcDbScale
 70
     0
300
3/8" = 1'-0"
140
0.375
141
12.0
290
     0
  0
SCALE
  5
56
102
{ACAD_REACTORS
330
3B
102
}
330
3B
100
AcDbScale
 70
     0
300
1/2" = 1'-0"
140
0.5
141
12.0
290
     0
  0
SCALE
  5
57
102
{ACAD_REACTORS
330
3B
102
}
330
3B
100
AcDbScale
 70
     0
300
3/4" = 1'-0"
140
0.75
141
12.0
290
     0
  0
SCALE
  5
58
102
{ACAD_REACTORS
330
3B
102
}
330
3B
100
AcDbScale
 70
     0
300
1" = 1'-0"
140
1.0
141
12.0
290
     0
  0
SCALE
  5
59
102
{ACAD_REACTORS
330
3B
102
}
330
3B
100
AcDbScale
 70
     0
300
1-1/2" = 1'-0"
140
1.5
141
12.0
290
     0
  0
SCALE
  5
5A
102
{ACAD_REACTORS
330
3B
102
}
330
3B
100
AcDbScale
 70
     0
300
3" = 1'-0"
140
3.0
141
12.0
290
     0
  0
SCALE
  5
5B
102
{ACAD_REACTORS
330
3B
102
}
330
3B
100
AcDbScale
 70
     0
300
6" = 1'-0"
140
6.0
141
12.0
290
     0
  0
SCALE
  5
5C
102
{ACAD_REACTORS
330
3B
102
}
330
3B
100
AcDbScale
 70
     0
300
1'-0" = 1'-0"
140
12.0
141
12.0
290
     0
  0
VISUALSTYLE
  5
2F
102
{ACAD_REACTORS
330
2A
102
}
330
2A
100
AcDbVisualStyle
  2
2dWireframe
 70
     4
 71
     0
 72
     2
 73
     0
 90
        0
 40
-0.6
 41
-30.0
 62
     5
 63
     7
 74
     1
 91
        4
 64
     7
 65
   257
 75
     1
175
     1
 42
1.0
 92
        0
 66
   257
 43
1.0
 76
     1
 77
     6
 78
     2
 67
     7
 79
     5
170
     0
171
     0
290
     0
174
     0
 93
        1
 44
0.0
173
     0
291
     0
 45
0.0
1001
ACAD
1000
AcDbSavedByObjectVersion
1070
     0
  0
VISUALSTYLE
  5
31
102
{ACAD_REACTORS
330
2A
102
}
330
2A
100
AcDbVisualStyle
  2
3D Hidden
 70
     6
 71
     1
 72
     2
 73
     2
 90
        0
 40
-0.6
 41
-30.0
 62
     5
 63
     7
 74
     2
 91
        2
 64
     7
 65
   257
 75
     2
175
     1
 42
40.0
 92
        0
 66
   257
 43
1.0
 76
     1
 77
     6
 78
     2
 67
     7
 79
     3
170
     0
171
     0
290
     0
174
     0
 93
        1
 44
0.0
173
     0
291
     0
 45
0.0
1001
ACAD
1000
AcDbSavedByObjectVersion
1070
     0
  0
VISUALSTYLE
  5
30
102
{ACAD_REACTORS
330
2A
102
}
330
2A
100
AcDbVisualStyle
  2
3dWireframe
 70
     5
 71
     0
 72
     2
 73
     0
 90
        0
 40
-0.6
 41
-30.0
 62
     5
 63
     7
 74
     1
 91
        4
 64
     7
 65
   257
 75
     1
175
     1
 42
1.0
 92
        0
 66
   257
 43
1.0
 76
     1
 77
     6
 78
     2
 67
     7
 79
     5
170
     0
171
     0
290
     0
174
     0
 93
        1
 44
0.0
173
     0
291
     0
 45
0.0
1001
ACAD
1000
AcDbSavedByObjectVersion
1070
     0
  0
VISUALSTYLE
  5
32
102
{ACAD_REACTORS
330
2A
102
}
330
2A
100
AcDbVisualStyle
  2
Basic
 70
     7
 71
     1
 72
     0
 73
     1
 90
        0
 40
-0.6
 41
-30.0
 62
     5
 63
     7
 74
     0
 91
        4
 64
     7
 65
   257
 75
     1
175
     1
 42
1.0
 92
        8
 66
     7
 43
1.0
 76
     1
 77
     6
 78
     2
 67
     7
 79
     5
170
     0
171
     0
290
     0
174
     0
 93
        1
 44
0.0
173
     0
291
     1
 45
0.0
1001
ACAD
1000
AcDbSavedByObjectVersion
1070
     0
  0
VISUALSTYLE
  5
36
102
{ACAD_REACTORS
330
2A
102
}
330
2A
100
AcDbVisualStyle
  2
Brighten
 70
    12
 71
     2
 72
     2
 73
     0
 90
        0
 40
-0.6
 41
-30.0
 62
     5
 63
     7
 74
     1
 91
        4
 64
     7
 65
   257
 75
     1
175
     1
 42
1.0
 92
        8
 66
     7
 43
1.0
 76
     1
 77
     6
 78
     2
 67
     7
 79
     5
170
     0
171
     0
290
     0
174
     0
 93
        1
 44
50.0
173
     0
291
     1
 45
0.0
1001
ACAD
1000
AcDbSavedByObjectVersion
1070
     0
  0
VISUALSTYLE
  5
3A
102
{ACAD_REACTORS
330
2A
102
}
330
2A
100
AcDbVisualStyle
  2
ColorChange
 70
    16
 71
     2
 72
     2
 73
     3
 90
        0
 40
-0.6
 41
-30.0
 62
     5
 63
     8
 74
     1
 91
        4
 64
     7
 65
   257
 75
     1
175
     1
 42
1.0
 92
        8
 66
     8
 43
1.0
 76
     1
 77
     6
 78
     2
 67
     7
 79
     5
170
     0
171
     0
290
     0
174
     0
 93
        1
 44
0.0
173
     0
291
     1
 45
0.0
1001
ACAD
1000
AcDbSavedByObjectVersion
1070
     0
  0
VISUALSTYLE
  5
34
102
{ACAD_REACTORS
330
2A
102
}
330
2A
100
AcDbVisualStyle
  2
Conceptual
 70
     9
 71
     3
 72
     2
 73
     0
 90
        0
 40
-0.6
 41
-30.0
 62
     5
 63
     7
 74
     2
 91
        2
 64
     7
 65
   257
 75
     1
175
     1
 42
40.0
 92
        8
 66
     7
 43
1.0
 76
     1
 77
     6
 78
     2
 67
     7
 79
     3
170
     0
171
     0
290
     0
174
     0
 93
        1
 44
0.0
173
     0
291
     0
 45
0.0
1001
ACAD
1000
AcDbSavedByObjectVersion
1070
     0
  0
VISUALSTYLE
  5
35
102
{ACAD_REACTORS
330
2A
102
}
330
2A
100
AcDbVisualStyle
  2
Dim
 70
    11
 71
     2
 72
     2
 73
     0
 90
        0
 40
-0.6
 41
-30.0
 62
     5
 63
     7
 74
     1
 91
        4
 64
     7
 65
   257
 75
     1
175
     1
 42
1.0
 92
        8
 66
     7
 43
1.0
 76
     1
 77
     6
 78
     2
 67
     7
 79
     5
170
     0
171
     0
290
     0
174
     0
 93
        1
 44
-50.0
173
     0
291
     1
 45
0.0
1001
ACAD
1000
AcDbSavedByObjectVersion
1070
     0
  0
VISUALSTYLE
  5
39
102
{ACAD_REACTORS
330
2A
102
}
330
2A
100
AcDbVisualStyle
  2
Facepattern
 70
    15
 71
     2
 72
     2
 73
     0
 90
        0
 40
-0.6
 41
-30.0
 62
     5
 63
     7
 74
     1
 91
        4
 64
     7
 65
   257
 75
     1
175
     1
 42
1.0
 92
        8
 66
     7
 43
1.0
 76
     1
 77
     6
 78
     2
 67
     7
 79
     5
170
     0
171
     0
290
     0
174
     0
 93
        1
 44
0.0
173
     0
291
     1
 45
0.0
1001
ACAD
1000
AcDbSavedByObjectVersion
1070
     0
  0
VISUALSTYLE
  5
2B
102
{ACAD_REACTORS
330
2A
102
}
330
2A
100
AcDbVisualStyle
  2
Flat
 70
     0
 71
     2
 72
     1
 73
     1
 90
        2
 40
-0.6
 41
30.0
 62
     5
 63
     7
 74
     0
 91
        4
 64
     7
 65
   257
 75
     1
175
     1
 42
1.0
 92
        8
 66
     7
 43
1.0
 76
     1
 77
     6
 78
     2
 67
     7
 79
     5
170
     0
171
     0
290
     0
174
     0
 93
       13
 44
0.0
173
     0
291
     1
 45
0.0
1001
ACAD
1000
AcDbSavedByObjectVersion
1070
     0
  0
VISUALSTYLE
  5
2C
102
{ACAD_REACTORS
330
2A
102
}
330
2A
100
AcDbVisualStyle
  2
FlatWithEdges
 70
     1
 71
     2
 72
     1
 73
     1
 90
        2
 40
-0.6
 41
30.0
 62
     5
 63
     7
 74
     1
 91
        4
 64
     7
 65
   257
 75
     1
175
     1
 42
1.0
 92
        0
 66
   257
 43
1.0
 76
     1
 77
     6
 78
     2
 67
     7
 79
     5
170
     0
171
     0
290
     0
174
     0
 93
       13
 44
0.0
173
     0
291
     1
 45
0.0
1001
ACAD
1000
AcDbSavedByObjectVersion
1070
     0
  0
VISUALSTYLE
  5
2D
102
{ACAD_REACTORS
330
2A
102
}
330
2A
100
AcDbVisualStyle
  2
Gouraud
 70
     2
 71
     2
 72
     2
 73
     1
 90
        2
 40
-0.6
 41
30.0
 62
     5
 63
     7
 74
     0
 91
        4
 64
     7
 65
   257
 75
     1
175
     1
 42
1.0
 92
        0
 66
     7
 43
1.0
 76
     1
 77
     6
 78
     2
 67
     7
 79
     5
170
     0
171
     0
290
     0
174
     0
 93
       13
 44
0.0
173
     0
291
     1
 45
0.0
1001
ACAD
1000
AcDbSavedByObjectVersion
1070
     0
  0
VISUALSTYLE
  5
2E
102
{ACAD_REACTORS
330
2A
102
}
330
2A
100
AcDbVisualStyle
  2
GouraudWithEdges
 70
     3
 71
     2
 72
     2
 73
     1
 90
        2
 40
-0.6
 41
30.0
 62
     5
 63
     7
 74
     1
 91
        4
 64
     7
 65
   257
 75
     1
175
     1
 42
1.0
 92
        0
 66
   257
 43
1.0
 76
     1
 77
     6
 78
     2
 67
     7
 79
     5
170
     0
171
     0
290
     0
174
     0
 93
       13
 44
0.0
173
     0
291
     1
 45
0.0
1001
ACAD
1000
AcDbSavedByObjectVersion
1070
     0
  0
VISUALSTYLE
  5
38
102
{ACAD_REACTORS
330
2A
102
}
330
2A
100
AcDbVisualStyle
  2
Linepattern
 70
    14
 71
     2
 72
     2
 73
     0
 90
        0
 40
-0.6
 41
-30.0
 62
     5
 63
     7
 74
     1
 91
        4
 64
     7
 65
   257
 75
     7
175
     7
 42
1.0
 92
        8
 66
     7
 43
1.0
 76
     1
 77
     6
 78
     2
 67
     7
 79
     5
170
     0
171
     0
290
     0
174
     0
 93
        1
 44
0.0
173
     0
291
     1
 45
0.0
1001
ACAD
1000
AcDbSavedByObjectVersion
1070
     0
  0
VISUALSTYLE
  5
33
102
{ACAD_REACTORS
330
2A
102
}
330
2A
100
AcDbVisualStyle
  2
Realistic
 70
     8
 71
     2
 72
     2
 73
     0
 90
        0
 40
-0.6
 41
-30.0
 62
     5
 63
     7
 74
     1
 91
        0
 64
     7
 65
   257
 75
     1
175
     1
 42
1.0
 92
        8
 66
     8
 43
1.0
 76
     1
 77
     6
 78
     2
 67
     7
 79
     5
170
     0
171
     0
290
     0
174
     0
 93
       13
 44
0.0
173
     0
291
     0
 45
0.0
1001
ACAD
1000
AcDbSavedByObjectVersion
1070
     0
  0
VISUALSTYLE
  5
37
102
{ACAD_REACTORS
330
2A
102
}
330
2A
100
AcDbVisualStyle
  2
Thicken
 70
    13
 71
     2
 72
     2
 73
     0
 90
        0
 40
-0.6
 41
-30.0
 62
     5
 63
     7
 74
     1
 91
        4
 64
     7
 65
   257
 75
     1
175
     1
 42
1.0
 92
       12
 66
     7
 43
1.0
 76
     1
 77
     6
 78
     2
 67
     7
 79
     5
170
     0
171
     0
290
     0
174
     0
 93
        1
 44
0.0
173
     0
291
     1
 45
0.0
1001
ACAD
1000
AcDbSavedByObjectVersion
1070
     0
  0
DICTIONARYVAR
  5
111
102
{ACAD_REACTORS
330
110
102
}
330
110
100
DictionaryVariables
280
     0
  1
1:1
  0
DICTIONARYVAR
  5
115
102
{ACAD_REACTORS
330
110
102
}
330
110
100
DictionaryVariables
280
     0
  1
80.000000
  0
DICTIONARYVAR
  5
114
102
{ACAD_REACTORS
330
110
102
}
330
110
100
DictionaryVariables
280
     0
  1
5.000000
  0
ENDSEC
  0
EOF
