  0
SECTION
  2
HEADER
  9
$ACADVER
  1
AC1015
  9
$ACADMAINTVER
 70
     6
  9
$DWGCODEPAGE
  3
ANSI_1252
  9
$INSBASE
 10
0.0
 20
0.0
 30
0.0
  9
$EXTMIN
 10
0.0
 20
0.0
 30
0.0
  9
$EXTMAX
 10
3000.0
 20
4500.0
 30
0.0
  9
$LIMMIN
 10
0.0
 20
0.0
  9
$LIMMAX
 10
3000.0
 20
4500.0
  9
$ORTHOMODE
 70
     0
  9
$REGENMODE
 70
     1
  9
$FILLMODE
 70
     1
  9
$QTEXTMODE
 70
     0
  9
$MIRRTEXT
 70
     1
  9
$LTSCALE
 40
1.0
  9
$ATTMODE
 70
     1
  9
$TEXTSIZE
 40
2.5
  9
$TRACEWID
 40
1.0
  9
$TEXTSTYLE
  7
Standard
  9
$CLAYER
  8
0
  9
$CELTYPE
  6
ByLayer
  9
$CECOLOR
 62
   256
  9
$CELTSCALE
 40
1.0
  9
$DISPSILH
 70
     0
  9
$DIMSCALE
 40
1.0
  9
$DIMASZ
 40
2.5
  9
$DIMEXO
 40
0.625
  9
$DIMDLI
 40
3.75
  9
$DIMRND
 40
0.0
  9
$DIMDLE
 40
0.0
  9
$DIMEXE
 40
1.25
  9
$DIMTP
 40
0.0
  9
$DIMTM
 40
0.0
  9
$DIMTXT
 40
2.5
  9
$DIMCEN
 40
2.5
  9
$DIMTSZ
 40
0.0
  9
$DIMTOL
 70
     0
  9
$DIMLIM
 70
     0
  9
$DIMTIH
 70
     0
  9
$DIMTOH
 70
     0
  9
$DIMSE1
 70
     0
  9
$DIMSE2
 70
     0
  9
$DIMTAD
 70
     1
  9
$DIMZIN
 70
     8
  9
$DIMBLK
  1

  9
$DIMASO
 70
     1
  9
$DIMSHO
 70
     1
  9
$DIMPOST
  1

  9
$DIMAPOST
  1

  9
$DIMALT
 70
     0
  9
$DIMALTD
 70
     3
  9
$DIMALTF
 40
0.0393700787
  9
$DIMLFAC
 40
1.0
  9
$DIMTOFL
 70
     1
  9
$DIMTVP
 40
0.0
  9
$DIMTIX
 70
     0
  9
$DIMSOXD
 70
     0
  9
$DIMSAH
 70
     0
  9
$DIMBLK1
  1

  9
$DIMBLK2
  1

  9
$DIMSTYLE
  2
ISO-25
  9
$DIMCLRD
 70
     0
  9
$DIMCLRE
 70
     0
  9
$DIMCLRT
 70
     0
  9
$DIMTFAC
 40
1.0
  9
$DIMGAP
 40
0.625
  9
$DIMJUST
 70
     0
  9
$DIMSD1
 70
     0
  9
$DIMSD2
 70
     0
  9
$DIMTOLJ
 70
     0
  9
$DIMTZIN
 70
     8
  9
$DIMALTZ
 70
     0
  9
$DIMALTTZ
 70
     0
  9
$DIMUPT
 70
     0
  9
$DIMDEC
 70
     2
  9
$DIMTDEC
 70
     2
  9
$DIMALTU
 70
     2
  9
$DIMALTTD
 70
     3
  9
$DIMTXSTY
  7
Standard
  9
$DIMAUNIT
 70
     0
  9
$DIMADEC
 70
     0
  9
$DIMALTRND
 40
0.0
  9
$DIMAZIN
 70
     0
  9
$DIMDSEP
 70
    44
  9
$DIMATFIT
 70
     3
  9
$DIMFRAC
 70
     0
  9
$DIMLDRBLK
  1

  9
$DIMLUNIT
 70
     2
  9
$DIMLWD
 70
    -2
  9
$DIMLWE
 70
    -2
  9
$DIMTMOVE
 70
     0
  9
$LUNITS
 70
     2
  9
$LUPREC
 70
     4
  9
$SKETCHINC
 40
1.0
  9
$FILLETRAD
 40
10.0
  9
$AUNITS
 70
     0
  9
$AUPREC
 70
     0
  9
$MENU
  1
.
  9
$ELEVATION
 40
0.0
  9
$PELEVATION
 40
0.0
  9
$THICKNESS
 40
0.0
  9
$LIMCHECK
 70
     0
  9
$CHAMFERA
 40
10.0
  9
$CHAMFERB
 40
10.0
  9
$CHAMFERC
 40
20.0
  9
$CHAMFERD
 40
0.0
  9
$SKPOLY
 70
     0
  9
$TDCREATE
 40
2455860.595177188
  9
$TDUCREATE
 40
2455860.511843854
  9
$TDUPDATE
 40
2455860.595177199
  9
$TDUUPDATE
 40
2455860.511843866
  9
$TDINDWG
 40
0.0000000116
  9
$TDUSRTIMER
 40
0.0000000116
  9
$USRTIMER
 70
     1
  9
$ANGBASE
 50
0.0
  9
$ANGDIR
 70
     0
  9
$PDMODE
 70
     0
  9
$PDSIZE
 40
0.0
  9
$PLINEWID
 40
0.0
  9
$SPLFRAME
 70
     0
  9
$SPLINETYPE
 70
     6
  9
$SPLINESEGS
 70
     8
  9
$HANDSEED
  5
21E
  9
$SURFTAB1
 70
     6
  9
$SURFTAB2
 70
     6
  9
$SURFTYPE
 70
     6
  9
$SURFU
 70
     6
  9
$SURFV
 70
     6
  9
$UCSBASE
  2

  9
$UCSNAME
  2

  9
$UCSORG
 10
0.0
 20
0.0
 30
0.0
  9
$UCSXDIR
 10
1.0
 20
0.0
 30
0.0
  9
$UCSYDIR
 10
0.0
 20
1.0
 30
0.0
  9
$UCSORTHOREF
  2

  9
$UCSORTHOVIEW
 70
     0
  9
$UCSORGTOP
 10
0.0
 20
0.0
 30
0.0
  9
$UCSORGBOTTOM
 10
0.0
 20
0.0
 30
0.0
  9
$UCSORGLEFT
 10
0.0
 20
0.0
 30
0.0
  9
$UCSORGRIGHT
 10
0.0
 20
0.0
 30
0.0
  9
$UCSORGFRONT
 10
0.0
 20
0.0
 30
0.0
  9
$UCSORGBACK
 10
0.0
 20
0.0
 30
0.0
  9
$PUCSBASE
  2

  9
$PUCSNAME
  2

  9
$PUCSORG
 10
0.0
 20
0.0
 30
0.0
  9
$PUCSXDIR
 10
1.0
 20
0.0
 30
0.0
  9
$PUCSYDIR
 10
0.0
 20
1.0
 30
0.0
  9
$PUCSORTHOREF
  2

  9
$PUCSORTHOVIEW
 70
     0
  9
$PUCSORGTOP
 10
0.0
 20
0.0
 30
0.0
  9
$PUCSORGBOTTOM
 10
0.0
 20
0.0
 30
0.0
  9
$PUCSORGLEFT
 10
0.0
 20
0.0
 30
0.0
  9
$PUCSORGRIGHT
 10
0.0
 20
0.0
 30
0.0
  9
$PUCSORGFRONT
 10
0.0
 20
0.0
 30
0.0
  9
$PUCSORGBACK
 10
0.0
 20
0.0
 30
0.0
  9
$USERI1
 70
     0
  9
$USERI2
 70
     0
  9
$USERI3
 70
     0
  9
$USERI4
 70
     0
  9
$USERI5
 70
     0
  9
$USERR1
 40
0.0
  9
$USERR2
 40
0.0
  9
$USERR3
 40
0.0
  9
$USERR4
 40
0.0
  9
$USERR5
 40
0.0
  9
$WORLDVIEW
 70
     1
  9
$SHADEDGE
 70
     3
  9
$SHADEDIF
 70
    70
  9
$TILEMODE
 70
     1
  9
$MAXACTVP
 70
    64
  9
$PINSBASE
 10
0.0
 20
0.0
 30
0.0
  9
$PLIMCHECK
 70
     0
  9
$PEXTMIN
 10
0.0
 20
0.0
 30
0.0
  9
$PEXTMAX
 10
3000.0
 20
4500.0
 30
0.0
  9
$PLIMMIN
 10
0.0
 20
0.0
  9
$PLIMMAX
 10
3000.0
 20
4500.0
  9
$UNITMODE
 70
     0
  9
$VISRETAIN
 70
     1
  9
$PLINEGEN
 70
     0
  9
$PSLTSCALE
 70
     1
  9
$TREEDEPTH
 70
  3020
  9
$CMLSTYLE
  2
Standard
  9
$CMLJUST
 70
     0
  9
$CMLSCALE
 40
20.0
  9
$PROXYGRAPHICS
 70
     1
  9
$MEASUREMENT
 70
     1
  9
$CELWEIGHT
370
    -1
  9
$ENDCAPS
280
     0
  9
$JOINSTYLE
280
     0
  9
$LWDISPLAY
290
     0
  9
$INSUNITS
 70
     4
  9
$HYPERLINKBASE
  1

  9
$STYLESHEET
  1

  9
$XEDIT
290
     1
  9
$CEPSNTYPE
380
     0
  9
$PSTYLEMODE
290
     1
  9
$FINGERPRINTGUID
  2
{9054E6E5-E32C-48E9-B67A-0138E6A7E5D2}
  9
$VERSIONGUID
  2
{FAEB1C32-E019-11D5-929B-00C0DF256EC4}
  9
$EXTNAMES
290
     1
  9
$PSVPSCALE
 40
0.0
  9
$OLESTARTUP
290
     0
  0
ENDSEC
  0
SECTION
  2
CLASSES
  0
CLASS
  1
ACDBDICTIONARYWDFLT
  2
AcDbDictionaryWithDefault
  3
ObjectDBX Classes
 90
        0
280
     0
281
     0
  0
CLASS
  1
VISUALSTYLE
  2
AcDbVisualStyle
  3
ObjectDBX Classes
 90
     4095
280
     0
281
     0
  0
CLASS
  1
SCALE
  2
AcDbScale
  3
ObjectDBX Classes
 90
     1153
280
     0
281
     0
  0
CLASS
  1
DICTIONARYVAR
  2
AcDbDictionaryVar
  3
ObjectDBX Classes
 90
        0
280
     0
281
     0
  0
CLASS
  1
ACDBPLACEHOLDER
  2
AcDbPlaceHolder
  3
ObjectDBX Classes
 90
        0
280
     0
281
     0
  0
CLASS
  1
LAYOUT
  2
AcDbLayout
  3
ObjectDBX Classes
 90
        0
280
     0
281
     0
  0
ENDSEC
  0
SECTION
  2
TABLES
  0
TABLE
  2
VPORT
  5
8
330
0
100
AcDbSymbolTable
 70
     1
  0
VPORT
  5
29
330
8
100
AcDbSymbolTableRecord
100
AcDbViewportTableRecord
  2
*Active
 70
     0
 10
0.0
 20
0.0
 11
1.0
 21
1.0
 12
344.1869158879
 22
148.5
 13
0.0
 23
0.0
 14
10.0
 24
10.0
 15
10.0
 25
10.0
 16
0.0
 26
0.0
 36
1.0
 17
0.0
 27
0.0
 37
0.0
 40
297.0
 41
1.9729729729
 42
50.0
 43
0.0
 44
0.0
 50
0.0
 51
0.0
 71
     0
 72
   100
 73
     1
 74
     3
 75
     0
 76
     0
 77
     0
 78
     0
281
     0
 65
     1
110
0.0
120
0.0
130
0.0
111
1.0
121
0.0
131
0.0
112
0.0
122
1.0
132
0.0
 79
     0
146
0.0
  0
ENDTAB
  0
TABLE
  2
LTYPE
  5
5
330
0
100
AcDbSymbolTable
 70
     2
  0
LTYPE
  5
14
330
5
100
AcDbSymbolTableRecord
100
AcDbLinetypeTableRecord
  2
ByBlock
 70
     0
  3

 72
    65
 73
     0
 40
0.0
  0
LTYPE
  5
15
330
5
100
AcDbSymbolTableRecord
100
AcDbLinetypeTableRecord
  2
ByLayer
 70
     0
  3

 72
    65
 73
     0
 40
0.0
  0
LTYPE
  5
16
330
5
100
AcDbSymbolTableRecord
100
AcDbLinetypeTableRecord
  2
Continuous
 70
     0
  3
Solid line
 72
    65
 73
     0
 40
0.0
  0
LTYPE
  5
60
330
5
100
AcDbSymbolTableRecord
100
AcDbLinetypeTableRecord
  2
CENTER2
 70
     0
  3
Center (.5x) ___ _ ___ _ ___ _ ___ _ ___ _ ___
 72
    65
 73
     4
 40
28.575
 49
19.05
 74
     4
 75
     0
340
0
 46
0.0
 50
0.0
 44
0.0
 45
0.0
 49
-3.175
 74
     4
 75
     0
340
0
 46
0.0
 50
0.0
 44
0.0
 45
0.0
 49
3.175
 74
     4
 75
     0
340
0
 46
0.0
 50
0.0
 44
0.0
 45
0.0
 49
-3.175
 74
     4
 75
     0
340
0
 46
0.0
 50
0.0
 44
0.0
 45
0.0
  0
ENDTAB
  0
TABLE
  2
LAYER
  5
2
330
0
100
AcDbSymbolTable
 70
    11
  0
LAYER
  5
10
330
2
100
AcDbSymbolTableRecord
100
AcDbLayerTableRecord
  2
0
 70
     0
 62
     7
  6
Continuous
370
    -3
390
F
  0
LAYER
  5
5D
330
2
100
AcDbSymbolTableRecord
100
AcDbLayerTableRecord
  2
Default
 70
     0
 62
     7
  6
Continuous
370
    -3
390
F
  0
LAYER
  5
A3
330
2
100
AcDbSymbolTableRecord
100
AcDbLayerTableRecord
  2
DV1_Default
 70
     0
 62
     7
  6
Continuous
370
    -3
390
F
  0
LAYER
  5
BC
330
2
100
AcDbSymbolTableRecord
100
AcDbLayerTableRecord
  2
DV2_Default
 70
     0
 62
     7
  6
Continuous
370
    -3
390
F
  0
LAYER
  5
E7
330
2
100
AcDbSymbolTableRecord
100
AcDbLayerTableRecord
  2
DV3_Default
 70
     0
 62
     7
  6
Continuous
370
    -3
390
F
  0
LAYER
  5
101
330
2
100
AcDbSymbolTableRecord
100
AcDbLayerTableRecord
  2
DV4_Standard
 70
     0
 62
     7
  6
Continuous
370
    -3
390
F
  0
LAYER
  5
126
330
2
100
AcDbSymbolTableRecord
100
AcDbLayerTableRecord
  2
DV5_Standard
 70
     0
 62
     7
  6
Continuous
370
    -3
390
F
  0
LAYER
  5
153
330
2
100
AcDbSymbolTableRecord
100
AcDbLayerTableRecord
  2
DV6_Standard
 70
     0
 62
     7
  6
Continuous
370
    -3
390
F
  0
LAYER
  5
18B
330
2
100
AcDbSymbolTableRecord
100
AcDbLayerTableRecord
  2
DV7_Default
 70
     0
 62
     7
  6
Continuous
370
    -3
390
F
  0
LAYER
  5
1B7
330
2
100
AcDbSymbolTableRecord
100
AcDbLayerTableRecord
  2
DV8_Default
 70
     0
 62
     7
  6
Continuous
370
    -3
390
F
  0
LAYER
  5
1F6
330
2
100
AcDbSymbolTableRecord
100
AcDbLayerTableRecord
  2
DV9_Default
 70
     0
 62
     7
  6
Continuous
370
    -3
390
F
  0
ENDTAB
  0
TABLE
  2
STYLE
  5
3
330
0
100
AcDbSymbolTable
 70
     2
  0
STYLE
  5
11
330
3
100
AcDbSymbolTableRecord
100
AcDbTextStyleTableRecord
  2
Standard
 70
     0
 40
0.0
 41
1.0
 50
0.0
 71
     0
 42
2.5
  3
txt
  4

  0
STYLE
  5
20D
330
3
100
AcDbSymbolTableRecord
100
AcDbTextStyleTableRecord
  2
SEACAD_seiso_ttf
 70
     0
 40
0.0
 41
1.0
 50
0.0
 71
     0
 42
0.2
  3
seiso.ttf
  4

  0
ENDTAB
  0
TABLE
  2
VIEW
  5
6
330
0
100
AcDbSymbolTable
 70
     0
  0
ENDTAB
  0
TABLE
  2
UCS
  5
7
330
0
100
AcDbSymbolTable
 70
     0
  0
ENDTAB
  0
TABLE
  2
APPID
  5
9
330
0
100
AcDbSymbolTable
 70
     1
  0
APPID
  5
12
330
9
100
AcDbSymbolTableRecord
100
AcDbRegAppTableRecord
  2
ACAD
 70
     0
  0
ENDTAB
  0
TABLE
  2
DIMSTYLE
  5
A
330
0
100
AcDbSymbolTable
 70
     1
100
AcDbDimStyleTable
  0
DIMSTYLE
105
27
330
A
100
AcDbSymbolTableRecord
100
AcDbDimStyleTableRecord
  2
ISO-25
 70
     0
 41
2.5
 42
0.625
 43
3.75
 44
1.25
 73
     0
 74
     0
 77
     1
 78
     8
140
2.5
141
2.5
143
0.0393700787
147
0.625
171
     3
172
     1
271
     2
272
     2
274
     3
278
    44
283
     0
284
     8
340
11
  0
ENDTAB
  0
TABLE
  2
BLOCK_RECORD
  5
1
330
0
100
AcDbSymbolTable
 70
    19
  0
BLOCK_RECORD
  5
1F
330
1
100
AcDbSymbolTableRecord
100
AcDbBlockTableRecord
  2
*Model_Space
340
22
  0
BLOCK_RECORD
  5
1B
330
1
100
AcDbSymbolTableRecord
100
AcDbBlockTableRecord
  2
*Paper_Space
340
1E
  0
BLOCK_RECORD
  5
5E
330
1
100
AcDbSymbolTableRecord
100
AcDbBlockTableRecord
  2
SEANNOT_GROUP
340
0
102
{BLKREFS
331
5F
102
}
  0
BLOCK_RECORD
  5
69
330
1
100
AcDbSymbolTableRecord
100
AcDbBlockTableRecord
  2
SEANNOT_GROUP1
340
0
102
{BLKREFS
331
6A
102
}
  0
BLOCK_RECORD
  5
6F
330
1
100
AcDbSymbolTableRecord
100
AcDbBlockTableRecord
  2
SEANNOT_GROUP2
340
0
102
{BLKREFS
331
70
102
}
  0
BLOCK_RECORD
  5
75
330
1
100
AcDbSymbolTableRecord
100
AcDbBlockTableRecord
  2
SEANNOT_GROUP3
340
0
102
{BLKREFS
331
76
102
}
  0
BLOCK_RECORD
  5
7F
330
1
100
AcDbSymbolTableRecord
100
AcDbBlockTableRecord
  2
SEANNOT_GROUP4
340
0
102
{BLKREFS
331
80
102
}
  0
BLOCK_RECORD
  5
85
330
1
100
AcDbSymbolTableRecord
100
AcDbBlockTableRecord
  2
SEANNOT_GROUP5
340
0
102
{BLKREFS
331
86
102
}
  0
BLOCK_RECORD
  5
8B
330
1
100
AcDbSymbolTableRecord
100
AcDbBlockTableRecord
  2
SEANNOT_GROUP6
340
0
102
{BLKREFS
331
8C
102
}
  0
BLOCK_RECORD
  5
95
330
1
100
AcDbSymbolTableRecord
100
AcDbBlockTableRecord
  2
SEANNOT_GROUP7
340
0
102
{BLKREFS
331
96
102
}
  0
BLOCK_RECORD
  5
9B
330
1
100
AcDbSymbolTableRecord
100
AcDbBlockTableRecord
  2
SEANNOT_GROUP8
340
0
102
{BLKREFS
331
9C
102
}
  0
BLOCK_RECORD
  5
A1
330
1
100
AcDbSymbolTableRecord
100
AcDbBlockTableRecord
  2
SE
340
0
102
{BLKREFS
331
A2
102
}
  0
BLOCK_RECORD
  5
BA
330
1
100
AcDbSymbolTableRecord
100
AcDbBlockTableRecord
  2
SE1
340
0
102
{BLKREFS
331
BB
102
}
  0
BLOCK_RECORD
  5
E5
330
1
100
AcDbSymbolTableRecord
100
AcDbBlockTableRecord
  2
SE2
340
0
102
{BLKREFS
331
E6
102
}
  0
BLOCK_RECORD
  5
FF
330
1
100
AcDbSymbolTableRecord
100
AcDbBlockTableRecord
  2
SE3
340
0
102
{BLKREFS
331
100
102
}
  0
BLOCK_RECORD
  5
124
330
1
100
AcDbSymbolTableRecord
100
AcDbBlockTableRecord
  2
SE4
340
0
102
{BLKREFS
331
125
102
}
  0
BLOCK_RECORD
  5
151
330
1
100
AcDbSymbolTableRecord
100
AcDbBlockTableRecord
  2
SE5
340
0
102
{BLKREFS
331
152
102
}
  0
BLOCK_RECORD
  5
189
330
1
100
AcDbSymbolTableRecord
100
AcDbBlockTableRecord
  2
SE6
340
0
102
{BLKREFS
331
18A
102
}
  0
BLOCK_RECORD
  5
1B5
330
1
100
AcDbSymbolTableRecord
100
AcDbBlockTableRecord
  2
SE7
340
0
102
{BLKREFS
331
1B6
102
}
  0
BLOCK_RECORD
  5
1F4
330
1
100
AcDbSymbolTableRecord
100
AcDbBlockTableRecord
  2
SE8
340
0
102
{BLKREFS
331
1F5
102
}
  0
ENDTAB
  0
ENDSEC
  0
SECTION
  2
BLOCKS
  0
BLOCK
  5
20
330
1F
100
AcDbEntity
  8
0
100
AcDbBlockBegin
  2
*Model_Space
 70
     0
 10
0.0
 20
0.0
 30
0.0
  3
*Model_Space
  1

  0
ENDBLK
  5
21
330
1F
100
AcDbEntity
  8
0
100
AcDbBlockEnd
  0
BLOCK
  5
1C
330
1B
100
AcDbEntity
 67
     1
  8
0
100
AcDbBlockBegin
  2
*Paper_Space
 70
     0
 10
0.0
 20
0.0
 30
0.0
  3
*Paper_Space
  1

  0
ENDBLK
  5
1D
330
1B
100
AcDbEntity
 67
     1
  8
0
100
AcDbBlockEnd
  0
BLOCK
  5
67
330
5E
100
AcDbEntity
  8
0
100
AcDbBlockBegin
  2
SEANNOT_GROUP
 70
     0
 10
0.0
 20
0.0
 30
0.0
  3
SEANNOT_GROUP
  1

  0
LINE
  5
61
330
5E
100
AcDbEntity
  8
Default
  6
CENTER2
 62
     7
100
AcDbLine
 10
59.849999553
 20
307.3018608911
 30
0.0
 11
19.850000447
 21
307.3018608911
 31
0.0
  0
LINE
  5
62
330
5E
100
AcDbEntity
  8
Default
  6
CENTER2
 62
     7
100
AcDbLine
 10
39.85
 20
327.3018604441
 30
0.0
 11
39.85
 21
287.3018613381
 31
0.0
  0
LINE
  5
63
330
5E
100
AcDbEntity
  8
Default
  6
CENTER2
 62
     7
100
AcDbLine
 10
64.8499994412
 20
307.3018608911
 30
0.0
 11
70.35
 21
307.3018608911
 31
0.0
  0
LINE
  5
64
330
5E
100
AcDbEntity
  8
Default
  6
CENTER2
 62
     7
100
AcDbLine
 10
39.85
 20
332.3018603323
 30
0.0
 11
39.85
 21
337.8018608911
 31
0.0
  0
LINE
  5
65
330
5E
100
AcDbEntity
  8
Default
  6
CENTER2
 62
     7
100
AcDbLine
 10
14.8500005588
 20
307.3018608911
 30
0.0
 11
9.35
 21
307.3018608911
 31
0.0
  0
LINE
  5
66
330
5E
100
AcDbEntity
  8
Default
  6
CENTER2
 62
     7
100
AcDbLine
 10
39.85
 20
282.3018614499
 30
0.0
 11
39.85
 21
276.8018608911
 31
0.0
  0
ENDBLK
  5
68
330
5E
100
AcDbEntity
  8
0
100
AcDbBlockEnd
  0
BLOCK
  5
6D
330
69
100
AcDbEntity
  8
0
100
AcDbBlockBegin
  2
SEANNOT_GROUP1
 70
     0
 10
0.0
 20
0.0
 30
0.0
  3
SEANNOT_GROUP1
  1

  0
LINE
  5
6B
330
69
100
AcDbEntity
  8
Default
  6
CENTER2
 62
     7
100
AcDbLine
 10
156.049999553
 20
307.3018608911
 30
0.0
 11
116.050000447
 21
307.3018608911
 31
0.0
  0
LINE
  5
6C
330
69
100
AcDbEntity
  8
Default
  6
CENTER2
 62
     7
100
AcDbLine
 10
136.05
 20
327.3018604441
 30
0.0
 11
136.05
 21
287.3018613381
 31
0.0
  0
ENDBLK
  5
6E
330
69
100
AcDbEntity
  8
0
100
AcDbBlockEnd
  0
BLOCK
  5
73
330
6F
100
AcDbEntity
  8
0
100
AcDbBlockBegin
  2
SEANNOT_GROUP2
 70
     0
 10
0.0
 20
0.0
 30
0.0
  3
SEANNOT_GROUP2
  1

  0
LINE
  5
71
330
6F
100
AcDbEntity
  8
Default
  6
CENTER2
 62
     7
100
AcDbLine
 10
59.849999553
 20
217.6
 30
0.0
 11
19.850000447
 21
217.6
 31
0.0
  0
LINE
  5
72
330
6F
100
AcDbEntity
  8
Default
  6
CENTER2
 62
     7
100
AcDbLine
 10
39.85
 20
237.599999553
 30
0.0
 11
39.85
 21
197.600000447
 31
0.0
  0
ENDBLK
  5
74
330
6F
100
AcDbEntity
  8
0
100
AcDbBlockEnd
  0
BLOCK
  5
7D
330
75
100
AcDbEntity
  8
0
100
AcDbBlockBegin
  2
SEANNOT_GROUP3
 70
     0
 10
0.0
 20
0.0
 30
0.0
  3
SEANNOT_GROUP3
  1

  0
LINE
  5
77
330
75
100
AcDbEntity
  8
Default
  6
CENTER2
 62
     7
100
AcDbLine
 10
490.099999553
 20
307.3018608911
 30
0.0
 11
450.100000447
 21
307.3018608911
 31
0.0
  0
LINE
  5
78
330
75
100
AcDbEntity
  8
Default
  6
CENTER2
 62
     7
100
AcDbLine
 10
470.1
 20
327.3018604441
 30
0.0
 11
470.1
 21
287.3018613381
 31
0.0
  0
LINE
  5
79
330
75
100
AcDbEntity
  8
Default
  6
CENTER2
 62
     7
100
AcDbLine
 10
495.0999994412
 20
307.3018608911
 30
0.0
 11
500.6
 21
307.3018608911
 31
0.0
  0
LINE
  5
7A
330
75
100
AcDbEntity
  8
Default
  6
CENTER2
 62
     7
100
AcDbLine
 10
470.1
 20
332.3018603323
 30
0.0
 11
470.1
 21
337.8018608911
 31
0.0
  0
LINE
  5
7B
330
75
100
AcDbEntity
  8
Default
  6
CENTER2
 62
     7
100
AcDbLine
 10
445.1000005588
 20
307.3018608911
 30
0.0
 11
439.6
 21
307.3018608911
 31
0.0
  0
LINE
  5
7C
330
75
100
AcDbEntity
  8
Default
  6
CENTER2
 62
     7
100
AcDbLine
 10
470.1
 20
282.3018614499
 30
0.0
 11
470.1
 21
276.8018608911
 31
0.0
  0
ENDBLK
  5
7E
330
75
100
AcDbEntity
  8
0
100
AcDbBlockEnd
  0
BLOCK
  5
83
330
7F
100
AcDbEntity
  8
0
100
AcDbBlockBegin
  2
SEANNOT_GROUP4
 70
     0
 10
0.0
 20
0.0
 30
0.0
  3
SEANNOT_GROUP4
  1

  0
LINE
  5
81
330
7F
100
AcDbEntity
  8
Default
  6
CENTER2
 62
     7
100
AcDbLine
 10
606.049999553
 20
307.3018608911
 30
0.0
 11
566.050000447
 21
307.3018608911
 31
0.0
  0
LINE
  5
82
330
7F
100
AcDbEntity
  8
Default
  6
CENTER2
 62
     7
100
AcDbLine
 10
586.05
 20
327.3018604441
 30
0.0
 11
586.05
 21
287.3018613381
 31
0.0
  0
ENDBLK
  5
84
330
7F
100
AcDbEntity
  8
0
100
AcDbBlockEnd
  0
BLOCK
  5
89
330
85
100
AcDbEntity
  8
0
100
AcDbBlockBegin
  2
SEANNOT_GROUP5
 70
     0
 10
0.0
 20
0.0
 30
0.0
  3
SEANNOT_GROUP5
  1

  0
LINE
  5
87
330
85
100
AcDbEntity
  8
Default
  6
CENTER2
 62
     7
100
AcDbLine
 10
490.099999553
 20
217.6
 30
0.0
 11
450.100000447
 21
217.6
 31
0.0
  0
LINE
  5
88
330
85
100
AcDbEntity
  8
Default
  6
CENTER2
 62
     7
100
AcDbLine
 10
470.1
 20
237.599999553
 30
0.0
 11
470.1
 21
197.600000447
 31
0.0
  0
ENDBLK
  5
8A
330
85
100
AcDbEntity
  8
0
100
AcDbBlockEnd
  0
BLOCK
  5
93
330
8B
100
AcDbEntity
  8
0
100
AcDbBlockBegin
  2
SEANNOT_GROUP6
 70
     0
 10
0.0
 20
0.0
 30
0.0
  3
SEANNOT_GROUP6
  1

  0
LINE
  5
8D
330
8B
100
AcDbEntity
  8
Default
  6
CENTER2
 62
     7
100
AcDbLine
 10
959.849999553
 20
307.3018608911
 30
0.0
 11
919.850000447
 21
307.3018608911
 31
0.0
  0
LINE
  5
8E
330
8B
100
AcDbEntity
  8
Default
  6
CENTER2
 62
     7
100
AcDbLine
 10
939.85
 20
327.3018604441
 30
0.0
 11
939.85
 21
287.3018613381
 31
0.0
  0
LINE
  5
8F
330
8B
100
AcDbEntity
  8
Default
  6
CENTER2
 62
     7
100
AcDbLine
 10
964.8499994412
 20
307.3018608911
 30
0.0
 11
970.35
 21
307.3018608911
 31
0.0
  0
LINE
  5
90
330
8B
100
AcDbEntity
  8
Default
  6
CENTER2
 62
     7
100
AcDbLine
 10
939.85
 20
332.3018603323
 30
0.0
 11
939.85
 21
337.8018608911
 31
0.0
  0
LINE
  5
91
330
8B
100
AcDbEntity
  8
Default
  6
CENTER2
 62
     7
100
AcDbLine
 10
914.8500005588
 20
307.3018608911
 30
0.0
 11
909.35
 21
307.3018608911
 31
0.0
  0
LINE
  5
92
330
8B
100
AcDbEntity
  8
Default
  6
CENTER2
 62
     7
100
AcDbLine
 10
939.85
 20
282.3018614499
 30
0.0
 11
939.85
 21
276.8018608911
 31
0.0
  0
ENDBLK
  5
94
330
8B
100
AcDbEntity
  8
0
100
AcDbBlockEnd
  0
BLOCK
  5
99
330
95
100
AcDbEntity
  8
0
100
AcDbBlockBegin
  2
SEANNOT_GROUP7
 70
     0
 10
0.0
 20
0.0
 30
0.0
  3
SEANNOT_GROUP7
  1

  0
LINE
  5
97
330
95
100
AcDbEntity
  8
Default
  6
CENTER2
 62
     7
100
AcDbLine
 10
1056.049999553
 20
307.3018608911
 30
0.0
 11
1016.050000447
 21
307.3018608911
 31
0.0
  0
LINE
  5
98
330
95
100
AcDbEntity
  8
Default
  6
CENTER2
 62
     7
100
AcDbLine
 10
1036.05
 20
327.3018604441
 30
0.0
 11
1036.05
 21
287.3018613381
 31
0.0
  0
ENDBLK
  5
9A
330
95
100
AcDbEntity
  8
0
100
AcDbBlockEnd
  0
BLOCK
  5
9F
330
9B
100
AcDbEntity
  8
0
100
AcDbBlockBegin
  2
SEANNOT_GROUP8
 70
     0
 10
0.0
 20
0.0
 30
0.0
  3
SEANNOT_GROUP8
  1

  0
LINE
  5
9D
330
9B
100
AcDbEntity
  8
Default
  6
CENTER2
 62
     7
100
AcDbLine
 10
959.849999553
 20
217.6
 30
0.0
 11
919.850000447
 21
217.6
 31
0.0
  0
LINE
  5
9E
330
9B
100
AcDbEntity
  8
Default
  6
CENTER2
 62
     7
100
AcDbLine
 10
939.85
 20
237.599999553
 30
0.0
 11
939.85
 21
197.600000447
 31
0.0
  0
ENDBLK
  5
A0
330
9B
100
AcDbEntity
  8
0
100
AcDbBlockEnd
  0
BLOCK
  5
B8
330
A1
100
AcDbEntity
  8
0
100
AcDbBlockBegin
  2
SE
 70
     0
 10
0.0
 20
0.0
 30
0.0
  3
SE
  1

  0
ARC
  5
A4
330
A1
100
AcDbEntity
  8
DV1_Default
  6
Continuous
 62
     7
100
AcDbCircle
 10
39.85
 20
307.3018608911
 30
0.0
 40
27.0
100
AcDbArc
 50
12.8395884069
 51
167.1604115931
  0
ARC
  5
A5
330
A1
100
AcDbEntity
  8
DV1_Default
  6
Continuous
 62
     7
100
AcDbCircle
 10
39.85
 20
307.3018608911
 30
0.0
 40
27.0
100
AcDbArc
 50
192.8395884069
 51
347.1604115931
  0
LINE
  5
A6
330
A1
100
AcDbEntity
  8
DV1_Default
  6
Continuous
 62
     7
100
AcDbLine
 10
7.5499999695
 20
313.3018608911
 30
0.0
 11
72.1500000305
 21
313.3018608911
 31
0.0
  0
LINE
  5
A7
330
A1
100
AcDbEntity
  8
DV1_Default
  6
Continuous
 62
     7
100
AcDbLine
 10
7.5499999734
 20
301.3018608911
 30
0.0
 11
72.1500000266
 21
301.3018608911
 31
0.0
  0
ARC
  5
A8
330
A1
100
AcDbEntity
  8
DV1_Default
  6
Continuous
 62
     7
100
AcDbCircle
 10
7.55
 20
313.1018608911
 30
0.0
 40
0.2000000000000002
100
AcDbArc
 50
90.0000043745
 51
180.0
  0
ARC
  5
A9
330
A1
100
AcDbEntity
  8
DV1_Default
  6
Continuous
 62
     7
100
AcDbCircle
 10
72.15
 20
313.1018608911
 30
0.0
 40
0.1999999999999988
100
AcDbArc
 50
0.0
 51
89.9999956255
  0
LINE
  5
AA
330
A1
100
AcDbEntity
  8
DV1_Default
  6
Continuous
 62
     7
100
AcDbLine
 10
7.35
 20
313.1018608911
 30
0.0
 11
7.35
 21
312.5018608911
 31
0.0
  0
LINE
  5
AB
330
A1
100
AcDbEntity
  8
DV1_Default
  6
Continuous
 62
     7
100
AcDbLine
 10
72.35
 20
312.5018608911
 30
0.0
 11
72.35
 21
313.1018608911
 31
0.0
  0
ARC
  5
AC
330
A1
100
AcDbEntity
  8
DV1_Default
  6
Continuous
 62
     7
100
AcDbCircle
 10
7.55
 20
312.5018608911
 30
0.0
 40
0.1999999999999988
100
AcDbArc
 50
180.0
 51
269.9999961898
  0
ARC
  5
AD
330
A1
100
AcDbEntity
  8
DV1_Default
  6
Continuous
 62
     7
100
AcDbCircle
 10
72.15
 20
312.5018608911
 30
0.0
 40
0.2000000000000001
100
AcDbArc
 50
270.0000038102
 51
0.0
  0
ARC
  5
AE
330
A1
100
AcDbEntity
  8
DV1_Default
  6
Continuous
 62
     7
100
AcDbCircle
 10
7.55
 20
302.1018608911
 30
0.0
 40
0.2000000000000011
100
AcDbArc
 50
90.0000043745
 51
180.0
  0
ARC
  5
AF
330
A1
100
AcDbEntity
  8
DV1_Default
  6
Continuous
 62
     7
100
AcDbCircle
 10
72.15
 20
302.1018608911
 30
0.0
 40
0.1999999999999988
100
AcDbArc
 50
0.0
 51
89.9999956255
  0
LINE
  5
B0
330
A1
100
AcDbEntity
  8
DV1_Default
  6
Continuous
 62
     7
100
AcDbLine
 10
7.35
 20
302.1018608911
 30
0.0
 11
7.35
 21
301.5018608911
 31
0.0
  0
LINE
  5
B1
330
A1
100
AcDbEntity
  8
DV1_Default
  6
Continuous
 62
     7
100
AcDbLine
 10
72.35
 20
301.5018608911
 30
0.0
 11
72.35
 21
302.1018608911
 31
0.0
  0
ARC
  5
B2
330
A1
100
AcDbEntity
  8
DV1_Default
  6
Continuous
 62
     7
100
AcDbCircle
 10
7.55
 20
301.5018608911
 30
0.0
 40
0.1999999999999988
100
AcDbArc
 50
180.0
 51
269.9999961898
  0
ARC
  5
B3
330
A1
100
AcDbEntity
  8
DV1_Default
  6
Continuous
 62
     7
100
AcDbCircle
 10
72.15
 20
301.5018608911
 30
0.0
 40
0.200000000000001
100
AcDbArc
 50
270.0000038102
 51
0.0
  0
LINE
  5
B4
330
A1
100
AcDbEntity
  8
DV1_Default
  6
Continuous
 62
     7
100
AcDbLine
 10
7.35
 20
312.3018608911
 30
0.0
 11
72.35
 21
312.3018608911
 31
0.0
  0
LINE
  5
B5
330
A1
100
AcDbEntity
  8
DV1_Default
  6
Continuous
 62
     7
100
AcDbLine
 10
72.35
 20
302.3018608911
 30
0.0
 11
7.35
 21
302.3018608911
 31
0.0
  0
ARC
  5
B6
330
A1
100
AcDbEntity
  8
DV1_Default
  6
Continuous
 62
     7
100
AcDbCircle
 10
19.35
 20
307.3018608911
 30
0.0
 40
13.0
100
AcDbArc
 50
157.380135052
 51
202.619864948
  0
ARC
  5
B7
330
A1
100
AcDbEntity
  8
DV1_Default
  6
Continuous
 62
     7
100
AcDbCircle
 10
60.35
 20
307.3018608911
 30
0.0
 40
13.0
100
AcDbArc
 50
337.380135052
 51
22.619864948
  0
ENDBLK
  5
B9
330
A1
100
AcDbEntity
  8
0
100
AcDbBlockEnd
  0
BLOCK
  5
E3
330
BA
100
AcDbEntity
  8
0
100
AcDbBlockBegin
  2
SE1
 70
     0
 10
0.0
 20
0.0
 30
0.0
  3
SE1
  1

  0
LINE
  5
BD
330
BA
100
AcDbEntity
  8
DV2_Default
  6
Continuous
 62
     7
100
AcDbLine
 10
136.05
 20
280.3018608911
 30
0.0
 11
136.05
 21
334.3018608911
 31
0.0
  0
ARC
  5
BE
330
BA
100
AcDbEntity
  8
DV2_Default
  6
Continuous
 62
     7
100
AcDbCircle
 10
140.057916104
 20
254.2733165693
 30
0.0
 40
26.15892158360271
100
AcDbArc
 50
90.0173384563
 51
95.7217216732
  0
ARC
  5
BF
330
BA
100
AcDbEntity
  8
DV2_Default
  6
Continuous
 62
     7
100
AcDbCircle
 10
140.0426115964
 20
254.283657307
 30
0.0
 40
26.14858069198384
100
AcDbArc
 50
84.277168216
 51
89.9838106552
  0
LINE
  5
C0
330
BA
100
AcDbEntity
  8
DV2_Default
  6
Continuous
 62
     7
100
AcDbLine
 10
146.05
 20
281.3018608911
 30
0.0
 11
146.05
 21
333.3018608911
 31
0.0
  0
LINE
  5
C1
330
BA
100
AcDbEntity
  8
DV2_Default
  6
Continuous
 62
     7
100
AcDbLine
 10
145.05
 20
334.3018608911
 30
0.0
 11
136.05
 21
334.3018608911
 31
0.0
  0
LINE
  5
C2
330
BA
100
AcDbEntity
  8
DV2_Default
  6
Continuous
 62
     7
100
AcDbLine
 10
142.6500503026
 20
280.3018608911
 30
0.0
 11
145.05
 21
280.3018608911
 31
0.0
  0
LINE
  5
C3
330
BA
100
AcDbEntity
  8
DV2_Default
  6
Continuous
 62
     7
100
AcDbLine
 10
136.05
 20
280.3018608911
 30
0.0
 11
137.4499505487
 21
280.3018608911
 31
0.0
  0
ARC
  5
C4
330
BA
100
AcDbEntity
  8
DV2_Default
  6
Continuous
 62
     7
100
AcDbCircle
 10
145.05
 20
333.3018608911
 30
0.0
 40
0.9999999999999991
100
AcDbArc
 50
0.0
 51
90.0
  0
ARC
  5
C5
330
BA
100
AcDbEntity
  8
DV2_Default
  6
Continuous
 62
     7
100
AcDbCircle
 10
145.05
 20
281.3018608911
 30
0.0
 40
1.000000000000001
100
AcDbArc
 50
270.0
 51
0.0
  0
LINE
  5
C6
330
BA
100
AcDbEntity
  8
DV2_Default
  6
Continuous
 62
     7
100
AcDbLine
 10
181.4999954673
 20
313.3018608911
 30
0.0
 11
246.0999955284
 21
313.3018608911
 31
0.0
  0
LINE
  5
C7
330
BA
100
AcDbEntity
  8
DV2_Default
  6
Continuous
 62
     7
100
AcDbLine
 10
181.4999954712
 20
301.3018608911
 30
0.0
 11
246.0999955244
 21
301.3018608911
 31
0.0
  0
ARC
  5
C8
330
BA
100
AcDbEntity
  8
DV2_Default
  6
Continuous
 62
     7
100
AcDbCircle
 10
181.4999954978
 20
313.1018608911
 30
0.0
 40
0.2000000000000002
100
AcDbArc
 50
90.0000043745
 51
180.0
  0
ARC
  5
C9
330
BA
100
AcDbEntity
  8
DV2_Default
  6
Continuous
 62
     7
100
AcDbCircle
 10
246.0999954978
 20
313.1018608911
 30
0.0
 40
0.2000000000000057
100
AcDbArc
 50
0.0
 51
89.9999956255
  0
LINE
  5
CA
330
BA
100
AcDbEntity
  8
DV2_Default
  6
Continuous
 62
     7
100
AcDbLine
 10
181.2999954978
 20
313.1018608911
 30
0.0
 11
181.2999954978
 21
312.5018608911
 31
0.0
  0
LINE
  5
CB
330
BA
100
AcDbEntity
  8
DV2_Default
  6
Continuous
 62
     7
100
AcDbLine
 10
246.2999954978
 20
312.5018608911
 30
0.0
 11
246.2999954978
 21
313.1018608911
 31
0.0
  0
ARC
  5
CC
330
BA
100
AcDbEntity
  8
DV2_Default
  6
Continuous
 62
     7
100
AcDbCircle
 10
181.4999954978
 20
312.5018608911
 30
0.0
 40
0.1999999999999988
100
AcDbArc
 50
180.0
 51
269.9999961898
  0
ARC
  5
CD
330
BA
100
AcDbEntity
  8
DV2_Default
  6
Continuous
 62
     7
100
AcDbCircle
 10
246.0999954978
 20
312.5018608911
 30
0.0
 40
0.2000000000000001
100
AcDbArc
 50
270.0000038102
 51
0.0
  0
ARC
  5
CE
330
BA
100
AcDbEntity
  8
DV2_Default
  6
Continuous
 62
     7
100
AcDbCircle
 10
181.4999954978
 20
302.1018608911
 30
0.0
 40
0.2000000000000011
100
AcDbArc
 50
90.0000043745
 51
180.0
  0
ARC
  5
CF
330
BA
100
AcDbEntity
  8
DV2_Default
  6
Continuous
 62
     7
100
AcDbCircle
 10
246.0999954978
 20
302.1018608911
 30
0.0
 40
0.2000000000000057
100
AcDbArc
 50
0.0
 51
89.9999956255
  0
LINE
  5
D0
330
BA
100
AcDbEntity
  8
DV2_Default
  6
Continuous
 62
     7
100
AcDbLine
 10
181.2999954978
 20
302.1018608911
 30
0.0
 11
181.2999954978
 21
301.5018608911
 31
0.0
  0
LINE
  5
D1
330
BA
100
AcDbEntity
  8
DV2_Default
  6
Continuous
 62
     7
100
AcDbLine
 10
246.2999954978
 20
301.5018608911
 30
0.0
 11
246.2999954978
 21
302.1018608911
 31
0.0
  0
ARC
  5
D2
330
BA
100
AcDbEntity
  8
DV2_Default
  6
Continuous
 62
     7
100
AcDbCircle
 10
181.4999954978
 20
301.5018608911
 30
0.0
 40
0.1999999999999988
100
AcDbArc
 50
180.0
 51
269.9999961898
  0
ARC
  5
D3
330
BA
100
AcDbEntity
  8
DV2_Default
  6
Continuous
 62
     7
100
AcDbCircle
 10
246.0999954978
 20
301.5018608911
 30
0.0
 40
0.200000000000001
100
AcDbArc
 50
270.0000038102
 51
0.0
  0
LINE
  5
D4
330
BA
100
AcDbEntity
  8
DV2_Default
  6
Continuous
 62
     7
100
AcDbLine
 10
179.55
 20
303.3518608911
 30
0.0
 11
179.55
 21
311.2518608911
 31
0.0
  0
LINE
  5
D5
330
BA
100
AcDbEntity
  8
DV2_Default
  6
Continuous
 62
     7
100
AcDbLine
 10
179.55
 20
303.3518608911
 30
0.0
 11
180.933193295
 21
303.3518608911
 31
0.0
  0
LINE
  5
D6
330
BA
100
AcDbEntity
  8
DV2_Default
  6
Continuous
 62
     7
100
AcDbLine
 10
180.9330874249
 20
311.2518608911
 30
0.0
 11
179.55
 21
311.2518608911
 31
0.0
  0
LINE
  5
D7
330
BA
100
AcDbEntity
  8
DV2_Default
  6
Continuous
 62
     7
100
AcDbLine
 10
171.035483109
 20
301.6489575129
 30
0.0
 11
179.55
 21
303.3518608911
 31
0.0
  0
LINE
  5
D8
330
BA
100
AcDbEntity
  8
DV2_Default
  6
Continuous
 62
     7
100
AcDbLine
 10
179.55
 20
311.2518608911
 30
0.0
 11
171.035483109
 21
312.9547642693
 31
0.0
  0
ARC
  5
D9
330
BA
100
AcDbEntity
  8
DV2_Default
  6
Continuous
 62
     7
100
AcDbCircle
 10
170.054902432
 20
306.551860891
 30
0.0
 40
4.999999999904364
100
AcDbArc
 50
270.0000003633
 51
281.3099324891
  0
ARC
  5
DA
330
BA
100
AcDbEntity
  8
DV2_Default
  6
Continuous
 62
     7
100
AcDbCircle
 10
170.054902432
 20
308.0518608912
 30
0.0
 40
4.99999999990521
100
AcDbArc
 50
78.6900675109
 51
89.9999996367
  0
LINE
  5
DB
330
BA
100
AcDbEntity
  8
DV2_Default
  6
Continuous
 62
     7
100
AcDbLine
 10
146.05
 20
301.5518608911
 30
0.0
 11
170.0549024637
 21
301.5518608911
 31
0.0
  0
LINE
  5
DC
330
BA
100
AcDbEntity
  8
DV2_Default
  6
Continuous
 62
     7
100
AcDbLine
 10
170.0549024637
 20
313.0518608911
 30
0.0
 11
146.05
 21
313.0518608911
 31
0.0
  0
LINE
  5
DD
330
BA
100
AcDbEntity
  8
DV2_Default
  6
Continuous
 62
     7
100
AcDbLine
 10
246.3
 20
312.3018608911
 30
0.0
 11
181.3
 21
312.3018608911
 31
0.0
  0
LINE
  5
DE
330
BA
100
AcDbEntity
  8
DV2_Default
  6
Continuous
 62
     7
100
AcDbLine
 10
181.3
 20
302.3018608911
 30
0.0
 11
246.3
 21
302.3018608911
 31
0.0
  0
ARC
  5
DF
330
BA
100
AcDbEntity
  8
DV2_Default
  6
Continuous
 62
     7
100
AcDbCircle
 10
201.1582771332
 20
307.3018608911
 30
0.0
 40
20.60680179603015
100
AcDbArc
 50
168.5236501138
 51
191.4763498859
  0
ARC
  5
E0
330
BA
100
AcDbEntity
  8
DV2_Default
  6
Continuous
 62
     7
100
AcDbCircle
 10
193.3
 20
307.3018608911
 30
0.0
 40
13.0
100
AcDbArc
 50
198.3836151556
 51
202.619864948
  0
ARC
  5
E1
330
BA
100
AcDbEntity
  8
DV2_Default
  6
Continuous
 62
     7
100
AcDbCircle
 10
193.3
 20
307.3018608911
 30
0.0
 40
13.0
100
AcDbArc
 50
157.380135052
 51
161.6166916735
  0
ARC
  5
E2
330
BA
100
AcDbEntity
  8
DV2_Default
  6
Continuous
 62
     7
100
AcDbCircle
 10
234.3
 20
307.3018608911
 30
0.0
 40
13.0
100
AcDbArc
 50
337.380135052
 51
22.619864948
  0
ENDBLK
  5
E4
330
BA
100
AcDbEntity
  8
0
100
AcDbBlockEnd
  0
BLOCK
  5
FD
330
E5
100
AcDbEntity
  8
0
100
AcDbBlockBegin
  2
SE2
 70
     0
 10
0.0
 20
0.0
 30
0.0
  3
SE2
  1

  0
LINE
  5
E8
330
E5
100
AcDbEntity
  8
DV3_Default
  6
Continuous
 62
     7
100
AcDbLine
 10
12.85
 20
217.6
 30
0.0
 11
66.85
 21
217.6
 31
0.0
  0
LINE
  5
E9
330
E5
100
AcDbEntity
  8
DV3_Default
  6
Continuous
 62
     7
100
AcDbLine
 10
65.85
 20
207.6
 30
0.0
 11
13.85
 21
207.6
 31
0.0
  0
LINE
  5
EA
330
E5
100
AcDbEntity
  8
DV3_Default
  6
Continuous
 62
     7
100
AcDbLine
 10
66.85
 20
208.6
 30
0.0
 11
66.85
 21
217.6
 31
0.0
  0
LINE
  5
EB
330
E5
100
AcDbEntity
  8
DV3_Default
  6
Continuous
 62
     7
100
AcDbLine
 10
12.85
 20
217.6
 30
0.0
 11
12.85
 21
208.6
 31
0.0
  0
ARC
  5
EC
330
E5
100
AcDbEntity
  8
DV3_Default
  6
Continuous
 62
     7
100
AcDbCircle
 10
65.85
 20
208.6
 30
0.0
 40
0.9999999999999991
100
AcDbArc
 50
270.0
 51
0.0
  0
ARC
  5
ED
330
E5
100
AcDbEntity
  8
DV3_Default
  6
Continuous
 62
     7
100
AcDbCircle
 10
13.85
 20
208.6
 30
0.0
 40
1.000000000000001
100
AcDbArc
 50
180.0
 51
270.0
  0
CIRCLE
  5
EE
330
E5
100
AcDbEntity
  8
DV3_Default
  6
Continuous
 62
     7
100
AcDbCircle
 10
39.85
 20
139.8500045022
 30
0.0
 40
32.5
  0
CIRCLE
  5
EF
330
E5
100
AcDbEntity
  8
DV3_Default
  6
Continuous
 62
     7
100
AcDbCircle
 10
39.85
 20
139.8500045022
 30
0.0
 40
29.85
  0
LINE
  5
F0
330
E5
100
AcDbEntity
  8
DV3_Default
  6
Continuous
 62
     7
100
AcDbLine
 10
35.9
 20
174.1
 30
0.0
 11
43.8
 21
174.1
 31
0.0
  0
LINE
  5
F1
330
E5
100
AcDbEntity
  8
DV3_Default
  6
Continuous
 62
     7
100
AcDbLine
 10
35.9
 20
174.1
 30
0.0
 11
35.9
 21
173.0694676828
 31
0.0
  0
LINE
  5
F2
330
E5
100
AcDbEntity
  8
DV3_Default
  6
Continuous
 62
     7
100
AcDbLine
 10
43.8
 20
173.0696178406
 30
0.0
 11
43.8
 21
174.1
 31
0.0
  0
LINE
  5
F3
330
E5
100
AcDbEntity
  8
DV3_Default
  6
Continuous
 62
     7
100
AcDbLine
 10
34.1970966218
 20
182.614516891
 30
0.0
 11
35.9
 21
174.1
 31
0.0
  0
LINE
  5
F4
330
E5
100
AcDbEntity
  8
DV3_Default
  6
Continuous
 62
     7
100
AcDbLine
 10
43.8
 20
174.1
 30
0.0
 11
45.5029033782
 21
182.614516891
 31
0.0
  0
ARC
  5
F5
330
E5
100
AcDbEntity
  8
DV3_Default
  6
Continuous
 62
     7
100
AcDbCircle
 10
39.0999999999
 20
183.595097568
 30
0.0
 40
4.999999999904497
100
AcDbArc
 50
180.0000003633
 51
191.3099324891
  0
ARC
  5
F6
330
E5
100
AcDbEntity
  8
DV3_Default
  6
Continuous
 62
     7
100
AcDbCircle
 10
40.6000000001
 20
183.595097568
 30
0.0
 40
4.999999999905081
100
AcDbArc
 50
348.6900675109
 51
359.9999996367
  0
LINE
  5
F7
330
E5
100
AcDbEntity
  8
DV3_Default
  6
Continuous
 62
     7
100
AcDbLine
 10
34.1
 20
207.6
 30
0.0
 11
34.1
 21
183.5950975363
 31
0.0
  0
LINE
  5
F8
330
E5
100
AcDbEntity
  8
DV3_Default
  6
Continuous
 62
     7
100
AcDbLine
 10
45.6
 20
183.5950975363
 30
0.0
 11
45.6
 21
207.6
 31
0.0
  0
ARC
  5
F9
330
E5
100
AcDbEntity
  8
DV3_Default
  6
Continuous
 62
     7
100
AcDbCircle
 10
39.85
 20
139.85
 30
0.0
 40
32.5
100
AcDbArc
 50
179.9999920629
 51
0.0
  0
ARC
  5
FA
330
E5
100
AcDbEntity
  8
DV3_Default
  6
Continuous
 62
     7
100
AcDbCircle
 10
39.85
 20
193.2662984553
 30
0.0
 40
20.58066799812292
100
AcDbArc
 50
258.5088825431
 51
281.4911174569
  0
ARC
  5
FB
330
E5
100
AcDbEntity
  8
DV3_Default
  6
Continuous
 62
     7
100
AcDbCircle
 10
39.85
 20
139.85
 30
0.0
 40
33.5
100
AcDbArc
 50
97.00685216
 51
270.0
  0
ARC
  5
FC
330
E5
100
AcDbEntity
  8
DV3_Default
  6
Continuous
 62
     7
100
AcDbCircle
 10
39.85
 20
139.85
 30
0.0
 40
33.5
100
AcDbArc
 50
270.0
 51
82.993287737
  0
ENDBLK
  5
FE
330
E5
100
AcDbEntity
  8
0
100
AcDbBlockEnd
  0
BLOCK
  5
122
330
FF
100
AcDbEntity
  8
0
100
AcDbBlockBegin
  2
SE3
 70
     0
 10
0.0
 20
0.0
 30
0.0
  3
SE3
  1

  0
ARC
  5
102
330
FF
100
AcDbEntity
  8
DV4_Standard
  6
Continuous
 62
     7
100
AcDbCircle
 10
444.0965581734
 20
299.3018608911
 30
0.0
 40
2.999999999999829
100
AcDbArc
 50
182.7448146742
 51
270.0
  0
ARC
  5
103
330
FF
100
AcDbEntity
  8
DV4_Standard
  6
Continuous
 62
     7
100
AcDbCircle
 10
496.1034418266
 20
299.3018608911
 30
0.0
 40
2.999999999999999
100
AcDbArc
 50
270.0
 51
357.2551853258
  0
LINE
  5
104
330
FF
100
AcDbEntity
  8
DV4_Standard
  6
Continuous
 62
     7
100
AcDbLine
 10
444.0965581734
 20
296.3018608911
 30
0.0
 11
496.1034418266
 21
296.3018608911
 31
0.0
  0
LINE
  5
105
330
FF
100
AcDbEntity
  8
DV4_Standard
  6
Continuous
 62
     7
100
AcDbLine
 10
440.3512806574
 20
314.7751486595
 30
0.0
 11
440.4219141026
 21
313.3018608911
 31
0.0
  0
LINE
  5
106
330
FF
100
AcDbEntity
  8
DV4_Standard
  6
Continuous
 62
     7
100
AcDbLine
 10
440.9972269234
 20
301.3018608911
 30
0.0
 11
441.1
 21
299.1581976965
 31
0.0
  0
LINE
  5
107
330
FF
100
AcDbEntity
  8
DV4_Standard
  6
Continuous
 62
     7
100
AcDbLine
 10
499.1
 20
299.1581976965
 30
0.0
 11
499.2027730766
 21
301.3018608911
 31
0.0
  0
LINE
  5
108
330
FF
100
AcDbEntity
  8
DV4_Standard
  6
Continuous
 62
     7
100
AcDbLine
 10
499.7780858974
 20
313.3018608911
 30
0.0
 11
499.8487193426
 21
314.7751486595
 31
0.0
  0
ARC
  5
109
330
FF
100
AcDbEntity
  8
DV4_Standard
  6
Continuous
 62
     7
100
AcDbCircle
 10
439.2350209604
 20
338.0583363095
 30
0.0
 40
23.28318764996877
100
AcDbArc
 50
197.009198434
 51
270.0
  0
ARC
  5
10A
330
FF
100
AcDbEntity
  8
DV4_Standard
  6
Continuous
 62
     7
100
AcDbCircle
 10
500.9649790395
 20
338.0583363095
 30
0.0
 40
23.28318764997
100
AcDbArc
 50
270.0
 51
342.990801566
  0
LINE
  5
10B
330
FF
100
AcDbEntity
  8
DV4_Standard
  6
Continuous
 62
     7
100
AcDbLine
 10
439.2350209604
 20
314.7751486595
 30
0.0
 11
500.9649790395
 21
314.7751486595
 31
0.0
  0
ARC
  5
10C
330
FF
100
AcDbEntity
  8
DV4_Standard
  6
Continuous
 62
     7
100
AcDbCircle
 10
419.6
 20
332.0518608911
 30
0.0
 40
2.750000000000003
100
AcDbArc
 50
90.0
 51
197.0091984339
  0
ARC
  5
10D
330
FF
100
AcDbEntity
  8
DV4_Standard
  6
Continuous
 62
     7
100
AcDbCircle
 10
520.6
 20
332.0518608911
 30
0.0
 40
2.750000000001291
100
AcDbArc
 50
342.9908015661
 51
90.0
  0
LINE
  5
10E
330
FF
100
AcDbEntity
  8
DV4_Standard
  6
Continuous
 62
     7
100
AcDbLine
 10
520.6
 20
334.8018608911
 30
0.0
 11
419.6
 21
334.8018608911
 31
0.0
  0
ARC
  5
10F
330
FF
100
AcDbEntity
  8
DV4_Standard
  6
Continuous
 62
     7
100
AcDbCircle
 10
470.1
 20
307.3018608911
 30
0.0
 40
27.0
100
AcDbArc
 50
204.0420759058
 51
335.9579240942
  0
LINE
  5
110
330
FF
100
AcDbEntity
  8
DV4_Standard
  6
Continuous
 62
     7
100
AcDbLine
 10
437.6
 20
312.3018608911
 30
0.0
 11
502.6
 21
312.3018608911
 31
0.0
  0
LINE
  5
111
330
FF
100
AcDbEntity
  8
DV4_Standard
  6
Continuous
 62
     7
100
AcDbLine
 10
502.6
 20
302.3018608911
 30
0.0
 11
437.6
 21
302.3018608911
 31
0.0
  0
ARC
  5
112
330
FF
100
AcDbEntity
  8
DV4_Standard
  6
Continuous
 62
     7
100
AcDbCircle
 10
449.6
 20
307.3018608911
 30
0.0
 40
13.0
100
AcDbArc
 50
157.380135052
 51
202.619864948
  0
ARC
  5
113
330
FF
100
AcDbEntity
  8
DV4_Standard
  6
Continuous
 62
     7
100
AcDbCircle
 10
490.6
 20
307.3018608911
 30
0.0
 40
13.0
100
AcDbArc
 50
337.380135052
 51
22.619864948
  0
LINE
  5
114
330
FF
100
AcDbEntity
  8
DV4_Standard
  6
Continuous
 62
     7
100
AcDbLine
 10
437.7999999695
 20
313.3018608911
 30
0.0
 11
502.4000000305
 21
313.3018608911
 31
0.0
  0
LINE
  5
115
330
FF
100
AcDbEntity
  8
DV4_Standard
  6
Continuous
 62
     7
100
AcDbLine
 10
437.7999999734
 20
301.3018608911
 30
0.0
 11
502.4000000266
 21
301.3018608911
 31
0.0
  0
ARC
  5
116
330
FF
100
AcDbEntity
  8
DV4_Standard
  6
Continuous
 62
     7
100
AcDbCircle
 10
437.8
 20
313.1018608911
 30
0.0
 40
0.2000000000000002
100
AcDbArc
 50
90.0000043745
 51
180.0
  0
ARC
  5
117
330
FF
100
AcDbEntity
  8
DV4_Standard
  6
Continuous
 62
     7
100
AcDbCircle
 10
502.4
 20
313.1018608911
 30
0.0
 40
0.1999999999999988
100
AcDbArc
 50
0.0
 51
89.9999956255
  0
LINE
  5
118
330
FF
100
AcDbEntity
  8
DV4_Standard
  6
Continuous
 62
     7
100
AcDbLine
 10
437.6
 20
313.1018608911
 30
0.0
 11
437.6
 21
312.5018608911
 31
0.0
  0
LINE
  5
119
330
FF
100
AcDbEntity
  8
DV4_Standard
  6
Continuous
 62
     7
100
AcDbLine
 10
502.6
 20
312.5018608911
 30
0.0
 11
502.6
 21
313.1018608911
 31
0.0
  0
ARC
  5
11A
330
FF
100
AcDbEntity
  8
DV4_Standard
  6
Continuous
 62
     7
100
AcDbCircle
 10
437.8
 20
312.5018608911
 30
0.0
 40
0.1999999999999988
100
AcDbArc
 50
180.0
 51
269.9999961898
  0
ARC
  5
11B
330
FF
100
AcDbEntity
  8
DV4_Standard
  6
Continuous
 62
     7
100
AcDbCircle
 10
502.4
 20
312.5018608911
 30
0.0
 40
0.2000000000000001
100
AcDbArc
 50
270.0000038102
 51
0.0
  0
ARC
  5
11C
330
FF
100
AcDbEntity
  8
DV4_Standard
  6
Continuous
 62
     7
100
AcDbCircle
 10
437.8
 20
302.1018608911
 30
0.0
 40
0.2000000000000011
100
AcDbArc
 50
90.0000043745
 51
180.0
  0
ARC
  5
11D
330
FF
100
AcDbEntity
  8
DV4_Standard
  6
Continuous
 62
     7
100
AcDbCircle
 10
502.4
 20
302.1018608911
 30
0.0
 40
0.1999999999999988
100
AcDbArc
 50
0.0
 51
89.9999956255
  0
LINE
  5
11E
330
FF
100
AcDbEntity
  8
DV4_Standard
  6
Continuous
 62
     7
100
AcDbLine
 10
437.6
 20
302.1018608911
 30
0.0
 11
437.6
 21
301.5018608911
 31
0.0
  0
LINE
  5
11F
330
FF
100
AcDbEntity
  8
DV4_Standard
  6
Continuous
 62
     7
100
AcDbLine
 10
502.6
 20
301.5018608911
 30
0.0
 11
502.6
 21
302.1018608911
 31
0.0
  0
ARC
  5
120
330
FF
100
AcDbEntity
  8
DV4_Standard
  6
Continuous
 62
     7
100
AcDbCircle
 10
437.8
 20
301.5018608911
 30
0.0
 40
0.1999999999999988
100
AcDbArc
 50
180.0
 51
269.9999961898
  0
ARC
  5
121
330
FF
100
AcDbEntity
  8
DV4_Standard
  6
Continuous
 62
     7
100
AcDbCircle
 10
502.4
 20
301.5018608911
 30
0.0
 40
0.200000000000001
100
AcDbArc
 50
270.0000038102
 51
0.0
  0
ENDBLK
  5
123
330
FF
100
AcDbEntity
  8
0
100
AcDbBlockEnd
  0
BLOCK
  5
14F
330
124
100
AcDbEntity
  8
0
100
AcDbBlockBegin
  2
SE4
 70
     0
 10
0.0
 20
0.0
 30
0.0
  3
SE4
  1

  0
ARC
  5
127
330
124
100
AcDbEntity
  8
DV5_Standard
  6
Continuous
 62
     7
100
AcDbCircle
 10
477.0029729137
 20
161.0951705961
 30
0.0
 40
2.163158387795472
100
AcDbArc
 50
2.3132395804
 51
141.6867604197
  0
ARC
  5
128
330
124
100
AcDbEntity
  8
DV5_Standard
  6
Continuous
 62
     7
100
AcDbCircle
 10
492.4335845169
 20
139.8500045022
 30
0.0
 40
2.164866084627313
100
AcDbArc
 50
290.4349848709
 51
69.565015129
  0
ARC
  5
129
330
124
100
AcDbEntity
  8
DV5_Standard
  6
Continuous
 62
     7
100
AcDbCircle
 10
452.0277822886
 20
152.9802392449
 30
0.0
 40
2.163158387793513
100
AcDbArc
 50
74.3132395804
 51
213.6867604196
  0
ARC
  5
12A
330
124
100
AcDbEntity
  8
DV5_Standard
  6
Continuous
 62
     7
100
AcDbCircle
 10
452.7231944496
 20
153.3517733874
 30
0.0
 40
2.948864903384903
100
AcDbArc
 50
212.1989549594
 51
234.5743427398
  0
ARC
  5
12B
330
124
100
AcDbEntity
  8
DV5_Standard
  6
Continuous
 62
     7
100
AcDbCircle
 10
451.8893266632
 20
152.2040529634
 30
0.0
 40
2.948864523447322
100
AcDbArc
 50
53.4256558003
 51
75.8010465008
  0
LINE
  5
12C
330
124
100
AcDbEntity
  8
DV5_Standard
  6
Continuous
 62
     7
100
AcDbLine
 10
463.6759758039
 20
147.2853649761
 30
0.0
 11
453.6464527987
 21
154.572239975
 31
0.0
  0
SPLINE
  5
12D
330
124
100
AcDbEntity
  8
DV5_Standard
  6
Continuous
 62
     7
100
AcDbSpline
210
0.0
220
0.0
230
1.0
 70
     8
 71
     3
 72
    14
 73
    10
 74
     0
 42
0.0000000012809514
 43
0.0000000001
 40
0.0
 40
0.0
 40
0.0
 40
0.0
 40
0.2500000000000001
 40
0.2500000000000001
 40
0.5000000000000001
 40
0.5000000000000001
 40
0.75
 40
0.75
 40
1.0
 40
1.0
 40
1.0
 40
1.0
 10
461.0434193213314
 20
143.6619618289524
 30
0.0
 10
461.5577066621457
 20
143.2883102042355
 30
0.0
 10
462.1713911144852
 20
143.0522926238247
 30
0.0
 10
463.4488747531271
 20
143.1240702162834
 30
0.0
 10
464.0598350884673
 20
143.4486392622683
 30
0.0
 10
464.8068130370049
 20
144.4706011719254
 30
0.0
 10
464.929716948598
 20
145.1584451936438
 30
0.0
 10
464.6100078513472
 20
146.3892672873721
 30
0.0
 10
464.1914323132664
 20
146.9108639007241
 30
0.0
 10
463.6759758038706
 20
147.2853649761388
 30
0.0
  0
LINE
  5
12E
330
124
100
AcDbEntity
  8
DV5_Standard
  6
Continuous
 62
     7
100
AcDbLine
 10
451.0138963162
 20
150.9488368278
 30
0.0
 11
461.0434193213
 21
143.6619618289
 31
0.0
  0
SPLINE
  5
12F
330
124
100
AcDbEntity
  8
DV5_Standard
  6
Continuous
 62
     7
100
AcDbSpline
210
0.0
220
0.0
230
1.0
 70
     8
 71
     3
 72
    14
 73
    10
 74
     0
 42
0.0000000012807313
 43
0.0000000001
 40
0.0
 40
0.0
 40
0.0
 40
0.0
 40
0.2499999999999998
 40
0.2499999999999998
 40
0.4999999999999999
 40
0.4999999999999999
 40
0.7499999999999999
 40
0.7499999999999999
 40
1.0
 40
1.0
 40
1.0
 40
1.0
 10
479.6675399790121
 20
142.0893908020574
 30
0.0
 10
479.0318235961066
 20
142.0893908020492
 30
0.0
 10
478.3965929124037
 20
141.9196067310185
 30
0.0
 10
477.4052608648493
 20
141.1105896439538
 30
0.0
 10
477.1010352627515
 20
140.4955465209996
 30
0.0
 10
477.0989701919889
 20
139.2112472447374
 30
0.0
 10
477.4063881005485
 20
138.5910860230588
 30
0.0
 10
478.3843793953087
 20
137.7878121386955
 30
0.0
 10
479.0307682708176
 20
137.6106182022449
 30
0.0
 10
479.6675399790394
 20
137.6106182022466
 30
0.0
  0
LINE
  5
130
330
124
100
AcDbEntity
  8
DV5_Standard
  6
Continuous
 62
     7
100
AcDbLine
 10
492.0647121953
 20
142.0893908021
 30
0.0
 11
479.667539979
 21
142.0893908021
 31
0.0
  0
ARC
  5
131
330
124
100
AcDbEntity
  8
DV5_Standard
  6
Continuous
 62
     7
100
AcDbCircle
 10
492.0942716288
 20
139.1406740543
 30
0.0
 40
2.948864903425799
100
AcDbArc
 50
68.1989549596
 51
90.5743427398
  0
ARC
  5
132
330
124
100
AcDbEntity
  8
DV5_Standard
  6
Continuous
 62
     7
100
AcDbCircle
 10
476.2219907514
 20
160.9869949691
 30
0.0
 40
2.948864523752172
100
AcDbArc
 50
341.4256558009
 51
3.8010464991
  0
LINE
  5
133
330
124
100
AcDbEntity
  8
DV5_Standard
  6
Continuous
 62
     7
100
AcDbLine
 10
475.1863153809
 20
148.2572673205
 30
0.0
 11
479.0172522779
 21
160.0476787404
 31
0.0
  0
SPLINE
  5
134
330
124
100
AcDbEntity
  8
DV5_Standard
  6
Continuous
 62
     7
100
AcDbSpline
210
0.0
220
0.0
230
1.0
 70
     8
 71
     3
 72
    14
 73
    10
 74
     0
 42
0.0000000012809514
 43
0.0000000001
 40
0.0
 40
0.0
 40
0.0
 40
0.0
 40
0.25
 40
0.25
 40
0.5
 40
0.5
 40
0.75
 40
0.75
 40
1.0
 40
1.0
 40
1.0
 40
1.0
 10
470.9267495148541
 20
149.6412841677647
 30
0.0
 10
470.730309230647
 20
149.0367031390211
 30
0.0
 10
470.6954820977933
 20
148.3801210983559
 30
0.0
 10
471.1585107992013
 20
147.1873424552489
 30
0.0
 10
471.6559914318823
 20
146.7065819981826
 30
0.0
 10
472.8587638459895
 20
146.3119673503847
 30
0.0
 10
473.5509217823976
 20
146.4076342765763
 30
0.0
 10
474.6227076107315
 20
147.0920406408506
 30
0.0
 10
474.9894285140408
 20
147.6513118516395
 30
0.0
 10
475.1863153809084
 20
148.2572673204824
 30
0.0
  0
LINE
  5
135
330
124
100
AcDbEntity
  8
DV5_Standard
  6
Continuous
 62
     7
100
AcDbLine
 10
474.7576864119
 20
161.4316955877
 30
0.0
 11
470.9267495149
 21
149.6412841678
 31
0.0
  0
ARC
  5
136
330
124
100
AcDbEntity
  8
DV5_Standard
  6
Continuous
 62
     7
100
AcDbCircle
 10
477.5712170567
 20
160.5486046929
 30
0.0
 40
2.948864903304967
100
AcDbArc
 50
140.198954959
 51
162.5743427401
  0
ARC
  5
137
330
124
100
AcDbEntity
  8
DV5_Standard
  6
Continuous
 62
     7
100
AcDbCircle
 10
492.0942717001
 20
140.5593345694
 30
0.0
 40
2.948864523594291
100
AcDbArc
 50
269.4256558007
 51
291.8010465
  0
ARC
  5
138
330
124
100
AcDbEntity
  8
DV5_Standard
  6
Continuous
 62
     7
100
AcDbCircle
 10
452.0277822886
 20
126.7197697594
 30
0.0
 40
2.163158387795206
100
AcDbArc
 50
146.3132395802
 51
285.6867604198
  0
ARC
  5
139
330
124
100
AcDbEntity
  8
DV5_Standard
  6
Continuous
 62
     7
100
AcDbCircle
 10
477.0029729137
 20
118.6048384082
 30
0.0
 40
2.163158387794807
100
AcDbArc
 50
218.3132395804
 51
357.6867604196
  0
ARC
  5
13A
330
124
100
AcDbEntity
  8
DV5_Standard
  6
Continuous
 62
     7
100
AcDbCircle
 10
476.2219903676
 20
118.7130139854
 30
0.0
 40
2.948864903332546
100
AcDbArc
 50
356.1989549593
 51
18.5743427401
  0
ARC
  5
13B
330
124
100
AcDbEntity
  8
DV5_Standard
  6
Continuous
 62
     7
100
AcDbCircle
 10
477.5712167171
 20
119.1514041261
 30
0.0
 40
2.948864523786846
100
AcDbArc
 50
197.4256558013
 51
219.8010464992
  0
LINE
  5
13C
330
124
100
AcDbEntity
  8
DV5_Standard
  6
Continuous
 62
     7
100
AcDbLine
 10
470.9267495149
 20
130.0587248365
 30
0.0
 11
474.7576864119
 21
118.2683134166
 31
0.0
  0
SPLINE
  5
13D
330
124
100
AcDbEntity
  8
DV5_Standard
  6
Continuous
 62
     7
100
AcDbSpline
210
0.0
220
0.0
230
1.0
 70
     8
 71
     3
 72
    14
 73
    10
 74
     0
 42
0.0000000012809514
 43
0.0000000001
 40
0.0
 40
0.0
 40
0.0
 40
0.0
 40
0.2500000000000001
 40
0.2500000000000001
 40
0.5000000000000002
 40
0.5000000000000002
 40
0.7500000000000003
 40
0.7500000000000003
 40
1.0
 40
1.0
 40
1.0
 40
1.0
 10
475.1863153809085
 20
131.4427416838216
 30
0.0
 10
474.9898750966992
 20
132.0473227125633
 30
0.0
 10
474.6321215986197
 20
132.598979616732
 30
0.0
 10
473.5564258146304
 20
133.2917963674541
 30
0.0
 10
472.8713716218715
 20
133.3883279682523
 30
0.0
 10
471.6663596281815
 20
133.0006060376745
 30
0.0
 10
471.1626237031841
 20
132.5163696413098
 30
0.0
 10
470.697814721226
 20
131.3326933580454
 30
0.0
 10
470.7298626479885
 20
130.6646803053815
 30
0.0
 10
470.9267495148539
 20
130.0587248365391
 30
0.0
  0
LINE
  5
13E
330
124
100
AcDbEntity
  8
DV5_Standard
  6
Continuous
 62
     7
100
AcDbLine
 10
479.0172522779
 20
119.6523302639
 30
0.0
 11
475.1863153809
 21
131.4427416838
 31
0.0
  0
LINE
  5
13F
330
124
100
AcDbEntity
  8
DV5_Standard
  6
Continuous
 62
     7
100
AcDbLine
 10
479.667539979
 20
137.6106182022
 30
0.0
 11
492.0647121953
 21
137.6106182022
 31
0.0
  0
ARC
  5
140
330
124
100
AcDbEntity
  8
DV5_Standard
  6
Continuous
 62
     7
100
AcDbCircle
 10
452.7231941686
 20
126.3482358826
 30
0.0
 40
2.948864523956571
100
AcDbArc
 50
125.4256558019
 51
147.8010464985
  0
LINE
  5
141
330
124
100
AcDbEntity
  8
DV5_Standard
  6
Continuous
 62
     7
100
AcDbLine
 10
461.0434193213
 20
136.0380471754
 30
0.0
 11
451.0138963162
 21
128.7511721765
 31
0.0
  0
SPLINE
  5
142
330
124
100
AcDbEntity
  8
DV5_Standard
  6
Continuous
 62
     7
100
AcDbSpline
210
0.0
220
0.0
230
1.0
 70
     8
 71
     3
 72
    14
 73
    10
 74
     0
 42
0.0000000012809514
 43
0.0000000001
 40
0.0
 40
0.0
 40
0.0
 40
0.0
 40
0.2500000000000001
 40
0.2500000000000001
 40
0.5000000000000002
 40
0.5000000000000002
 40
0.7500000000000003
 40
0.7500000000000003
 40
1.0
 40
1.0
 40
1.0
 40
1.0
 10
463.6759758038648
 20
132.4146440281731
 30
0.0
 10
464.1902631446744
 20
132.7882956528967
 30
0.0
 10
464.604368127448
 20
133.2990108069214
 30
0.0
 10
464.9308677347938
 20
134.5361504417968
 30
0.0
 10
464.8109813551281
 20
135.2175056009775
 30
0.0
 10
464.0698667020609
 20
136.2437274441478
 30
0.0
 10
463.4536675603675
 20
136.5731715023344
 30
0.0
 10
462.1842906434223
 20
136.6494550260926
 30
0.0
 10
461.5588758307163
 20
136.4125482507811
 30
0.0
 10
461.0434193213239
 20
136.038047175362
 30
0.0
  0
LINE
  5
143
330
124
100
AcDbEntity
  8
DV5_Standard
  6
Continuous
 62
     7
100
AcDbLine
 10
453.6464527987
 20
125.1277690293
 30
0.0
 11
463.6759758039
 21
132.4146440282
 31
0.0
  0
ARC
  5
144
330
124
100
AcDbEntity
  8
DV5_Standard
  6
Continuous
 62
     7
100
AcDbCircle
 10
451.8893264971
 20
127.495956391
 30
0.0
 40
2.948864903634238
100
AcDbArc
 50
284.1989549604
 51
306.5743427389
  0
CIRCLE
  5
145
330
124
100
AcDbEntity
  8
DV5_Standard
  6
Continuous
 62
     7
100
AcDbCircle
 10
470.1
 20
139.8500045022
 30
0.0
 40
47.75
  0
CIRCLE
  5
146
330
124
100
AcDbEntity
  8
DV5_Standard
  6
Continuous
 62
     7
100
AcDbCircle
 10
470.1
 20
139.8500045022
 30
0.0
 40
53.25000000000001
  0
LINE
  5
147
330
124
100
AcDbEntity
  8
DV5_Standard
  6
Continuous
 62
     7
100
AcDbLine
 10
464.35
 20
207.6
 30
0.0
 11
464.35
 21
192.7886482324
 31
0.0
  0
LINE
  5
148
330
124
100
AcDbEntity
  8
DV5_Standard
  6
Continuous
 62
     7
100
AcDbLine
 10
475.85
 20
192.7886482324
 30
0.0
 11
475.85
 21
207.6
 31
0.0
  0
LINE
  5
149
330
124
100
AcDbEntity
  8
DV5_Standard
  6
Continuous
 62
     7
100
AcDbLine
 10
497.1
 20
217.6
 30
0.0
 11
443.1
 21
217.6
 31
0.0
  0
LINE
  5
14A
330
124
100
AcDbEntity
  8
DV5_Standard
  6
Continuous
 62
     7
100
AcDbLine
 10
444.1
 20
207.6
 30
0.0
 11
496.1
 21
207.6
 31
0.0
  0
LINE
  5
14B
330
124
100
AcDbEntity
  8
DV5_Standard
  6
Continuous
 62
     7
100
AcDbLine
 10
497.1
 20
208.6
 30
0.0
 11
497.1
 21
217.6
 31
0.0
  0
LINE
  5
14C
330
124
100
AcDbEntity
  8
DV5_Standard
  6
Continuous
 62
     7
100
AcDbLine
 10
443.1
 20
217.6
 30
0.0
 11
443.1
 21
208.6
 31
0.0
  0
ARC
  5
14D
330
124
100
AcDbEntity
  8
DV5_Standard
  6
Continuous
 62
     7
100
AcDbCircle
 10
496.1
 20
208.6
 30
0.0
 40
0.9999999999999991
100
AcDbArc
 50
270.0
 51
0.0
  0
ARC
  5
14E
330
124
100
AcDbEntity
  8
DV5_Standard
  6
Continuous
 62
     7
100
AcDbCircle
 10
444.1
 20
208.6
 30
0.0
 40
1.000000000000001
100
AcDbArc
 50
180.0
 51
270.0
  0
ENDBLK
  5
150
330
124
100
AcDbEntity
  8
0
100
AcDbBlockEnd
  0
BLOCK
  5
187
330
151
100
AcDbEntity
  8
0
100
AcDbBlockBegin
  2
SE5
 70
     0
 10
0.0
 20
0.0
 30
0.0
  3
SE5
  1

  0
ARC
  5
154
330
151
100
AcDbEntity
  8
DV6_Standard
  6
Continuous
 62
     7
100
AcDbCircle
 10
637.7965536712
 20
299.3018608911
 30
0.0
 40
2.999999999999829
100
AcDbArc
 50
182.7448146742
 51
270.0
  0
ARC
  5
155
330
151
100
AcDbEntity
  8
DV6_Standard
  6
Continuous
 62
     7
100
AcDbCircle
 10
689.8034373245
 20
299.3018608911
 30
0.0
 40
2.999999999999999
100
AcDbArc
 50
270.0
 51
357.2551853258
  0
LINE
  5
156
330
151
100
AcDbEntity
  8
DV6_Standard
  6
Continuous
 62
     7
100
AcDbLine
 10
637.7965536712
 20
296.3018608911
 30
0.0
 11
689.8034373245
 21
296.3018608911
 31
0.0
  0
LINE
  5
157
330
151
100
AcDbEntity
  8
DV6_Standard
  6
Continuous
 62
     7
100
AcDbLine
 10
634.0512761553
 20
314.7751486595
 30
0.0
 11
634.1219096004
 21
313.3018608911
 31
0.0
  0
LINE
  5
158
330
151
100
AcDbEntity
  8
DV6_Standard
  6
Continuous
 62
     7
100
AcDbLine
 10
634.6972224212
 20
301.3018608911
 30
0.0
 11
634.7999954978
 21
299.1581976965
 31
0.0
  0
LINE
  5
159
330
151
100
AcDbEntity
  8
DV6_Standard
  6
Continuous
 62
     7
100
AcDbLine
 10
692.7999954978
 20
299.1581976965
 30
0.0
 11
692.9027685745
 21
301.3018608911
 31
0.0
  0
LINE
  5
15A
330
151
100
AcDbEntity
  8
DV6_Standard
  6
Continuous
 62
     7
100
AcDbLine
 10
693.4780813952
 20
313.3018608911
 30
0.0
 11
693.5487148404
 21
314.7751486595
 31
0.0
  0
ARC
  5
15B
330
151
100
AcDbEntity
  8
DV6_Standard
  6
Continuous
 62
     7
100
AcDbCircle
 10
632.9350164583
 20
338.0583363095
 30
0.0
 40
23.28318764996877
100
AcDbArc
 50
197.009198434
 51
270.0
  0
ARC
  5
15C
330
151
100
AcDbEntity
  8
DV6_Standard
  6
Continuous
 62
     7
100
AcDbCircle
 10
694.6649745374
 20
338.0583363095
 30
0.0
 40
23.28318764997
100
AcDbArc
 50
270.0
 51
342.990801566
  0
LINE
  5
15D
330
151
100
AcDbEntity
  8
DV6_Standard
  6
Continuous
 62
     7
100
AcDbLine
 10
632.9350164583
 20
314.7751486595
 30
0.0
 11
694.6649745374
 21
314.7751486595
 31
0.0
  0
ARC
  5
15E
330
151
100
AcDbEntity
  8
DV6_Standard
  6
Continuous
 62
     7
100
AcDbCircle
 10
613.2999954978
 20
332.0518608911
 30
0.0
 40
2.750000000000003
100
AcDbArc
 50
90.0
 51
197.0091984339
  0
ARC
  5
15F
330
151
100
AcDbEntity
  8
DV6_Standard
  6
Continuous
 62
     7
100
AcDbCircle
 10
714.2999954978
 20
332.0518608911
 30
0.0
 40
2.750000000001291
100
AcDbArc
 50
342.9908015661
 51
90.0
  0
LINE
  5
160
330
151
100
AcDbEntity
  8
DV6_Standard
  6
Continuous
 62
     7
100
AcDbLine
 10
714.2999954978
 20
334.8018608911
 30
0.0
 11
613.2999954978
 21
334.8018608911
 31
0.0
  0
LINE
  5
161
330
151
100
AcDbEntity
  8
DV6_Standard
  6
Continuous
 62
     7
100
AcDbLine
 10
629.55
 20
311.3018608911
 30
0.0
 11
629.55
 21
303.3018608911
 31
0.0
  0
LINE
  5
162
330
151
100
AcDbEntity
  8
DV6_Standard
  6
Continuous
 62
     7
100
AcDbLine
 10
629.55
 20
303.3018608911
 30
0.0
 11
630.9431667478
 21
303.3018608911
 31
0.0
  0
LINE
  5
163
330
151
100
AcDbEntity
  8
DV6_Standard
  6
Continuous
 62
     7
100
AcDbLine
 10
630.9431607665
 20
311.3018608911
 30
0.0
 11
629.55
 21
311.3018608911
 31
0.0
  0
LINE
  5
164
330
151
100
AcDbEntity
  8
DV6_Standard
  6
Continuous
 62
     7
100
AcDbLine
 10
621.022747124
 20
301.643783943
 30
0.0
 11
629.55
 21
303.3018608911
 31
0.0
  0
LINE
  5
165
330
151
100
AcDbEntity
  8
DV6_Standard
  6
Continuous
 62
     7
100
AcDbLine
 10
629.55
 20
311.3018608911
 30
0.0
 11
621.022747124
 21
312.9599378392
 31
0.0
  0
ARC
  5
166
330
151
100
AcDbEntity
  8
DV6_Standard
  6
Continuous
 62
     7
100
AcDbCircle
 10
620.0683988273
 20
306.551860891
 30
0.0
 40
4.999999999884206
100
AcDbArc
 50
270.000000354
 51
281.0035408665
  0
ARC
  5
167
330
151
100
AcDbEntity
  8
DV6_Standard
  6
Continuous
 62
     7
100
AcDbCircle
 10
620.0683988273
 20
308.0518608912
 30
0.0
 40
4.999999999884637
100
AcDbArc
 50
78.9964591335
 51
89.999999646
  0
LINE
  5
168
330
151
100
AcDbEntity
  8
DV6_Standard
  6
Continuous
 62
     7
100
AcDbLine
 10
596.05
 20
301.5518608911
 30
0.0
 11
620.0683988582
 21
301.5518608911
 31
0.0
  0
LINE
  5
169
330
151
100
AcDbEntity
  8
DV6_Standard
  6
Continuous
 62
     7
100
AcDbLine
 10
620.0683988582
 20
313.0518608911
 30
0.0
 11
596.05
 21
313.0518608911
 31
0.0
  0
LINE
  5
16A
330
151
100
AcDbEntity
  8
DV6_Standard
  6
Continuous
 62
     7
100
AcDbLine
 10
586.05
 20
334.3018608911
 30
0.0
 11
586.05
 21
280.3018608911
 31
0.0
  0
ARC
  5
16B
330
151
100
AcDbEntity
  8
DV6_Standard
  6
Continuous
 62
     7
100
AcDbCircle
 10
590.057916104
 20
254.2733165693
 30
0.0
 40
26.15892158360271
100
AcDbArc
 50
90.0173384563
 51
95.7217216732
  0
ARC
  5
16C
330
151
100
AcDbEntity
  8
DV6_Standard
  6
Continuous
 62
     7
100
AcDbCircle
 10
590.0426115964
 20
254.283657307
 30
0.0
 40
26.14858069198384
100
AcDbArc
 50
84.277168216
 51
89.9838106552
  0
LINE
  5
16D
330
151
100
AcDbEntity
  8
DV6_Standard
  6
Continuous
 62
     7
100
AcDbLine
 10
596.05
 20
333.3018608911
 30
0.0
 11
596.05
 21
281.3018608911
 31
0.0
  0
LINE
  5
16E
330
151
100
AcDbEntity
  8
DV6_Standard
  6
Continuous
 62
     7
100
AcDbLine
 10
595.05
 20
334.3018608911
 30
0.0
 11
586.05
 21
334.3018608911
 31
0.0
  0
LINE
  5
16F
330
151
100
AcDbEntity
  8
DV6_Standard
  6
Continuous
 62
     7
100
AcDbLine
 10
592.6500503026
 20
280.3018608911
 30
0.0
 11
595.05
 21
280.3018608911
 31
0.0
  0
LINE
  5
170
330
151
100
AcDbEntity
  8
DV6_Standard
  6
Continuous
 62
     7
100
AcDbLine
 10
586.05
 20
280.3018608911
 30
0.0
 11
587.4499505487
 21
280.3018608911
 31
0.0
  0
ARC
  5
171
330
151
100
AcDbEntity
  8
DV6_Standard
  6
Continuous
 62
     7
100
AcDbCircle
 10
595.05
 20
333.3018608911
 30
0.0
 40
0.9999999999999991
100
AcDbArc
 50
0.0
 51
90.0
  0
ARC
  5
172
330
151
100
AcDbEntity
  8
DV6_Standard
  6
Continuous
 62
     7
100
AcDbCircle
 10
595.05
 20
281.3018608911
 30
0.0
 40
1.000000000000001
100
AcDbArc
 50
270.0
 51
0.0
  0
LINE
  5
173
330
151
100
AcDbEntity
  8
DV6_Standard
  6
Continuous
 62
     7
100
AcDbLine
 10
696.3
 20
312.3018608911
 30
0.0
 11
631.3
 21
312.3018608911
 31
0.0
  0
LINE
  5
174
330
151
100
AcDbEntity
  8
DV6_Standard
  6
Continuous
 62
     7
100
AcDbLine
 10
631.3
 20
302.3018608911
 30
0.0
 11
696.3
 21
302.3018608911
 31
0.0
  0
ARC
  5
175
330
151
100
AcDbEntity
  8
DV6_Standard
  6
Continuous
 62
     7
100
AcDbCircle
 10
651.1582771332
 20
307.3018608911
 30
0.0
 40
20.60680179603015
100
AcDbArc
 50
168.5236501138
 51
191.4763498859
  0
ARC
  5
176
330
151
100
AcDbEntity
  8
DV6_Standard
  6
Continuous
 62
     7
100
AcDbCircle
 10
643.3
 20
307.3018608911
 30
0.0
 40
13.0
100
AcDbArc
 50
198.3833925788
 51
202.619864948
  0
ARC
  5
177
330
151
100
AcDbEntity
  8
DV6_Standard
  6
Continuous
 62
     7
100
AcDbCircle
 10
643.3
 20
307.3018608911
 30
0.0
 40
13.0
100
AcDbArc
 50
157.380135052
 51
161.6167475461
  0
ARC
  5
178
330
151
100
AcDbEntity
  8
DV6_Standard
  6
Continuous
 62
     7
100
AcDbCircle
 10
684.3
 20
307.3018608911
 30
0.0
 40
13.0
100
AcDbArc
 50
337.380135052
 51
22.619864948
  0
LINE
  5
179
330
151
100
AcDbEntity
  8
DV6_Standard
  6
Continuous
 62
     7
100
AcDbLine
 10
631.4999954673
 20
313.3018608911
 30
0.0
 11
696.0999955284
 21
313.3018608911
 31
0.0
  0
LINE
  5
17A
330
151
100
AcDbEntity
  8
DV6_Standard
  6
Continuous
 62
     7
100
AcDbLine
 10
631.4999954712
 20
301.3018608911
 30
0.0
 11
696.0999955244
 21
301.3018608911
 31
0.0
  0
ARC
  5
17B
330
151
100
AcDbEntity
  8
DV6_Standard
  6
Continuous
 62
     7
100
AcDbCircle
 10
631.4999954978
 20
313.1018608911
 30
0.0
 40
0.2000000000000002
100
AcDbArc
 50
90.0000043745
 51
180.0
  0
ARC
  5
17C
330
151
100
AcDbEntity
  8
DV6_Standard
  6
Continuous
 62
     7
100
AcDbCircle
 10
696.0999954978
 20
313.1018608911
 30
0.0
 40
0.2000000000000057
100
AcDbArc
 50
0.0
 51
89.9999956255
  0
LINE
  5
17D
330
151
100
AcDbEntity
  8
DV6_Standard
  6
Continuous
 62
     7
100
AcDbLine
 10
631.2999954978
 20
313.1018608911
 30
0.0
 11
631.2999954978
 21
312.5018608911
 31
0.0
  0
LINE
  5
17E
330
151
100
AcDbEntity
  8
DV6_Standard
  6
Continuous
 62
     7
100
AcDbLine
 10
696.2999954978
 20
312.5018608911
 30
0.0
 11
696.2999954978
 21
313.1018608911
 31
0.0
  0
ARC
  5
17F
330
151
100
AcDbEntity
  8
DV6_Standard
  6
Continuous
 62
     7
100
AcDbCircle
 10
631.4999954978
 20
312.5018608911
 30
0.0
 40
0.1999999999999988
100
AcDbArc
 50
180.0
 51
269.9999961898
  0
ARC
  5
180
330
151
100
AcDbEntity
  8
DV6_Standard
  6
Continuous
 62
     7
100
AcDbCircle
 10
696.0999954978
 20
312.5018608911
 30
0.0
 40
0.2000000000000001
100
AcDbArc
 50
270.0000038102
 51
0.0
  0
ARC
  5
181
330
151
100
AcDbEntity
  8
DV6_Standard
  6
Continuous
 62
     7
100
AcDbCircle
 10
631.4999954978
 20
302.1018608911
 30
0.0
 40
0.2000000000000011
100
AcDbArc
 50
90.0000043745
 51
180.0
  0
ARC
  5
182
330
151
100
AcDbEntity
  8
DV6_Standard
  6
Continuous
 62
     7
100
AcDbCircle
 10
696.0999954978
 20
302.1018608911
 30
0.0
 40
0.2000000000000057
100
AcDbArc
 50
0.0
 51
89.9999956255
  0
LINE
  5
183
330
151
100
AcDbEntity
  8
DV6_Standard
  6
Continuous
 62
     7
100
AcDbLine
 10
631.2999954978
 20
302.1018608911
 30
0.0
 11
631.2999954978
 21
301.5018608911
 31
0.0
  0
LINE
  5
184
330
151
100
AcDbEntity
  8
DV6_Standard
  6
Continuous
 62
     7
100
AcDbLine
 10
696.2999954978
 20
301.5018608911
 30
0.0
 11
696.2999954978
 21
302.1018608911
 31
0.0
  0
ARC
  5
185
330
151
100
AcDbEntity
  8
DV6_Standard
  6
Continuous
 62
     7
100
AcDbCircle
 10
631.4999954978
 20
301.5018608911
 30
0.0
 40
0.1999999999999988
100
AcDbArc
 50
180.0
 51
269.9999961898
  0
ARC
  5
186
330
151
100
AcDbEntity
  8
DV6_Standard
  6
Continuous
 62
     7
100
AcDbCircle
 10
696.0999954978
 20
301.5018608911
 30
0.0
 40
0.200000000000001
100
AcDbArc
 50
270.0000038102
 51
0.0
  0
ENDBLK
  5
188
330
151
100
AcDbEntity
  8
0
100
AcDbBlockEnd
  0
BLOCK
  5
1B3
330
189
100
AcDbEntity
  8
0
100
AcDbBlockBegin
  2
SE6
 70
     0
 10
0.0
 20
0.0
 30
0.0
  3
SE6
  1

  0
ARC
  5
18C
330
189
100
AcDbEntity
  8
DV7_Default
  6
Continuous
 62
     7
100
AcDbCircle
 10
939.85
 20
307.3018608911
 30
0.0
 40
27.0
100
AcDbArc
 50
240.5017074834
 51
299.4982925166
  0
LINE
  5
18D
330
189
100
AcDbEntity
  8
DV7_Default
  6
Continuous
 62
     7
100
AcDbLine
 10
907.5499999695
 20
313.3018608911
 30
0.0
 11
972.1500000305
 21
313.3018608911
 31
0.0
  0
LINE
  5
18E
330
189
100
AcDbEntity
  8
DV7_Default
  6
Continuous
 62
     7
100
AcDbLine
 10
907.5499999734
 20
301.3018608911
 30
0.0
 11
972.1500000266
 21
301.3018608911
 31
0.0
  0
ARC
  5
18F
330
189
100
AcDbEntity
  8
DV7_Default
  6
Continuous
 62
     7
100
AcDbCircle
 10
907.55
 20
313.1018608911
 30
0.0
 40
0.2000000000000002
100
AcDbArc
 50
90.0000043745
 51
180.0
  0
ARC
  5
190
330
189
100
AcDbEntity
  8
DV7_Default
  6
Continuous
 62
     7
100
AcDbCircle
 10
972.15
 20
313.1018608911
 30
0.0
 40
0.1999999999999988
100
AcDbArc
 50
0.0
 51
89.9999956255
  0
LINE
  5
191
330
189
100
AcDbEntity
  8
DV7_Default
  6
Continuous
 62
     7
100
AcDbLine
 10
907.35
 20
313.1018608911
 30
0.0
 11
907.35
 21
312.5018608911
 31
0.0
  0
LINE
  5
192
330
189
100
AcDbEntity
  8
DV7_Default
  6
Continuous
 62
     7
100
AcDbLine
 10
972.35
 20
312.5018608911
 30
0.0
 11
972.35
 21
313.1018608911
 31
0.0
  0
ARC
  5
193
330
189
100
AcDbEntity
  8
DV7_Default
  6
Continuous
 62
     7
100
AcDbCircle
 10
907.55
 20
312.5018608911
 30
0.0
 40
0.1999999999999988
100
AcDbArc
 50
180.0
 51
269.9999961898
  0
ARC
  5
194
330
189
100
AcDbEntity
  8
DV7_Default
  6
Continuous
 62
     7
100
AcDbCircle
 10
972.15
 20
312.5018608911
 30
0.0
 40
0.2000000000000001
100
AcDbArc
 50
270.0000038102
 51
0.0
  0
ARC
  5
195
330
189
100
AcDbEntity
  8
DV7_Default
  6
Continuous
 62
     7
100
AcDbCircle
 10
907.55
 20
302.1018608911
 30
0.0
 40
0.2000000000000011
100
AcDbArc
 50
90.0000043745
 51
180.0
  0
ARC
  5
196
330
189
100
AcDbEntity
  8
DV7_Default
  6
Continuous
 62
     7
100
AcDbCircle
 10
972.15
 20
302.1018608911
 30
0.0
 40
0.1999999999999988
100
AcDbArc
 50
0.0
 51
89.9999956255
  0
LINE
  5
197
330
189
100
AcDbEntity
  8
DV7_Default
  6
Continuous
 62
     7
100
AcDbLine
 10
907.35
 20
302.1018608911
 30
0.0
 11
907.35
 21
301.5018608911
 31
0.0
  0
LINE
  5
198
330
189
100
AcDbEntity
  8
DV7_Default
  6
Continuous
 62
     7
100
AcDbLine
 10
972.35
 20
301.5018608911
 30
0.0
 11
972.35
 21
302.1018608911
 31
0.0
  0
ARC
  5
199
330
189
100
AcDbEntity
  8
DV7_Default
  6
Continuous
 62
     7
100
AcDbCircle
 10
907.55
 20
301.5018608911
 30
0.0
 40
0.1999999999999988
100
AcDbArc
 50
180.0
 51
269.9999961898
  0
ARC
  5
19A
330
189
100
AcDbEntity
  8
DV7_Default
  6
Continuous
 62
     7
100
AcDbCircle
 10
972.15
 20
301.5018608911
 30
0.0
 40
0.200000000000001
100
AcDbArc
 50
270.0000038102
 51
0.0
  0
LINE
  5
19B
330
189
100
AcDbEntity
  8
DV7_Default
  6
Continuous
 62
     7
100
AcDbLine
 10
972.8210297106
 20
378.8018608911
 30
0.0
 11
906.8789702894
 21
378.8018608911
 31
0.0
  0
LINE
  5
19C
330
189
100
AcDbEntity
  8
DV7_Default
  6
Continuous
 62
     7
100
AcDbLine
 10
966.3499999782
 20
283.8018608911
 30
0.0
 11
913.3500000218
 21
283.8018608911
 31
0.0
  0
ARC
  5
19D
330
189
100
AcDbEntity
  8
DV7_Default
  6
Continuous
 62
     7
100
AcDbCircle
 10
972.8210297465
 20
378.3018608911
 30
0.0
 40
0.49999999999635
100
AcDbArc
 50
340.4003449045
 51
90.0000020581
  0
ARC
  5
19E
330
189
100
AcDbEntity
  8
DV7_Default
  6
Continuous
 62
     7
100
AcDbCircle
 10
906.8789702535
 20
378.3018608911
 30
0.0
 40
0.5000000000000008
100
AcDbArc
 50
89.9999979419
 51
199.5996550955
  0
ARC
  5
19F
330
189
100
AcDbEntity
  8
DV7_Default
  6
Continuous
 62
     7
100
AcDbCircle
 10
972.35
 20
378.4695838112
 30
0.0
 40
0.9999999999971332
100
AcDbArc
 50
334.1580619403
 51
340.4003466897
  0
ARC
  5
1A0
330
189
100
AcDbEntity
  8
DV7_Default
  6
Continuous
 62
     7
100
AcDbCircle
 10
907.35
 20
378.4695838112
 30
0.0
 40
0.9999999999970005
100
AcDbArc
 50
199.5996533103
 51
205.8419380597
  0
ARC
  5
1A1
330
189
100
AcDbEntity
  8
DV7_Default
  6
Continuous
 62
     7
100
AcDbCircle
 10
973.7
 20
377.8157489696
 30
0.0
 40
0.5000000000000004
100
AcDbArc
 50
154.15807783
 51
180.0
  0
ARC
  5
1A2
330
189
100
AcDbEntity
  8
DV7_Default
  6
Continuous
 62
     7
100
AcDbCircle
 10
906.0
 20
377.8157489696
 30
0.0
 40
0.5000000000026302
100
AcDbArc
 50
0.0
 51
25.84192217
  0
LINE
  5
1A3
330
189
100
AcDbEntity
  8
DV7_Default
  6
Continuous
 62
     7
100
AcDbLine
 10
973.2
 20
322.8791333123
 30
0.0
 11
973.2
 21
377.8157489696
 31
0.0
  0
LINE
  5
1A4
330
189
100
AcDbEntity
  8
DV7_Default
  6
Continuous
 62
     7
100
AcDbLine
 10
906.5
 20
377.8157489696
 30
0.0
 11
906.5
 21
322.8791333123
 31
0.0
  0
ARC
  5
1A5
330
189
100
AcDbEntity
  8
DV7_Default
  6
Continuous
 62
     7
100
AcDbCircle
 10
963.2
 20
322.8791333294
 30
0.0
 40
10.00000000000004
100
AcDbArc
 50
328.32980386
 51
359.999999902
  0
ARC
  5
1A6
330
189
100
AcDbEntity
  8
DV7_Default
  6
Continuous
 62
     7
100
AcDbCircle
 10
916.5
 20
322.8791333294
 30
0.0
 40
9.999999999999998
100
AcDbArc
 50
180.000000098
 51
211.67019614
  0
LINE
  5
1A7
330
189
100
AcDbEntity
  8
DV7_Default
  6
Continuous
 62
     7
100
AcDbLine
 10
907.9891566822
 20
317.6288432403
 30
0.0
 11
908.8608433129
 21
316.2158187823
 31
0.0
  0
LINE
  5
1A8
330
189
100
AcDbEntity
  8
DV7_Default
  6
Continuous
 62
     7
100
AcDbLine
 10
970.8391566871
 20
316.2158187823
 30
0.0
 11
971.7108433178
 21
317.6288432403
 31
0.0
  0
ARC
  5
1A9
330
189
100
AcDbEntity
  8
DV7_Default
  6
Continuous
 62
     7
100
AcDbCircle
 10
979.35
 20
310.9655286852
 30
0.0
 40
10.0
100
AcDbArc
 50
148.3298038067
 51
166.4889305011
  0
ARC
  5
1AA
330
189
100
AcDbEntity
  8
DV7_Default
  6
Continuous
 62
     7
100
AcDbCircle
 10
900.35
 20
310.9655286852
 30
0.0
 40
9.999999999995632
100
AcDbArc
 50
13.5110694989
 51
31.6701961933
  0
LINE
  5
1AB
330
189
100
AcDbEntity
  8
DV7_Default
  6
Continuous
 62
     7
100
AcDbLine
 10
969.35
 20
286.8018608911
 30
0.0
 11
969.35
 21
301.3018608911
 31
0.0
  0
LINE
  5
1AC
330
189
100
AcDbEntity
  8
DV7_Default
  6
Continuous
 62
     7
100
AcDbLine
 10
910.35
 20
301.3018608911
 30
0.0
 11
910.35
 21
286.8018608911
 31
0.0
  0
ARC
  5
1AD
330
189
100
AcDbEntity
  8
DV7_Default
  6
Continuous
 62
     7
100
AcDbCircle
 10
966.35
 20
286.8018608911
 30
0.0
 40
2.999999999999999
100
AcDbArc
 50
269.9999997922
 51
0.0
  0
ARC
  5
1AE
330
189
100
AcDbEntity
  8
DV7_Default
  6
Continuous
 62
     7
100
AcDbCircle
 10
913.35
 20
286.8018608911
 30
0.0
 40
2.999999999999999
100
AcDbArc
 50
180.0
 51
270.0000002078
  0
LINE
  5
1AF
330
189
100
AcDbEntity
  8
DV7_Default
  6
Continuous
 62
     7
100
AcDbLine
 10
907.35
 20
312.3018608911
 30
0.0
 11
972.35
 21
312.3018608911
 31
0.0
  0
LINE
  5
1B0
330
189
100
AcDbEntity
  8
DV7_Default
  6
Continuous
 62
     7
100
AcDbLine
 10
972.35
 20
302.3018608911
 30
0.0
 11
907.35
 21
302.3018608911
 31
0.0
  0
ARC
  5
1B1
330
189
100
AcDbEntity
  8
DV7_Default
  6
Continuous
 62
     7
100
AcDbCircle
 10
919.35
 20
307.3018608911
 30
0.0
 40
13.0
100
AcDbArc
 50
157.380135052
 51
202.619864948
  0
ARC
  5
1B2
330
189
100
AcDbEntity
  8
DV7_Default
  6
Continuous
 62
     7
100
AcDbCircle
 10
960.35
 20
307.3018608911
 30
0.0
 40
13.0
100
AcDbArc
 50
337.380135052
 51
22.619864948
  0
ENDBLK
  5
1B4
330
189
100
AcDbEntity
  8
0
100
AcDbBlockEnd
  0
BLOCK
  5
1F2
330
1B5
100
AcDbEntity
  8
0
100
AcDbBlockBegin
  2
SE7
 70
     0
 10
0.0
 20
0.0
 30
0.0
  3
SE7
  1

  0
LINE
  5
1B8
330
1B5
100
AcDbEntity
  8
DV8_Default
  6
Continuous
 62
     7
100
AcDbLine
 10
1036.05
 20
334.3018608911
 30
0.0
 11
1036.05
 21
280.3018608911
 31
0.0
  0
ARC
  5
1B9
330
1B5
100
AcDbEntity
  8
DV8_Default
  6
Continuous
 62
     7
100
AcDbCircle
 10
1040.057916104
 20
254.2733165693
 30
0.0
 40
26.15892158360271
100
AcDbArc
 50
90.0173384563
 51
95.7217216732
  0
ARC
  5
1BA
330
1B5
100
AcDbEntity
  8
DV8_Default
  6
Continuous
 62
     7
100
AcDbCircle
 10
1040.0426115964
 20
254.283657307
 30
0.0
 40
26.14858069198384
100
AcDbArc
 50
84.277168216
 51
89.9838106552
  0
LINE
  5
1BB
330
1B5
100
AcDbEntity
  8
DV8_Default
  6
Continuous
 62
     7
100
AcDbLine
 10
1046.05
 20
333.3018608911
 30
0.0
 11
1046.05
 21
281.3018608911
 31
0.0
  0
LINE
  5
1BC
330
1B5
100
AcDbEntity
  8
DV8_Default
  6
Continuous
 62
     7
100
AcDbLine
 10
1045.05
 20
334.3018608911
 30
0.0
 11
1036.05
 21
334.3018608911
 31
0.0
  0
LINE
  5
1BD
330
1B5
100
AcDbEntity
  8
DV8_Default
  6
Continuous
 62
     7
100
AcDbLine
 10
1042.6500503026
 20
280.3018608911
 30
0.0
 11
1045.05
 21
280.3018608911
 31
0.0
  0
LINE
  5
1BE
330
1B5
100
AcDbEntity
  8
DV8_Default
  6
Continuous
 62
     7
100
AcDbLine
 10
1036.05
 20
280.3018608911
 30
0.0
 11
1037.4499505487
 21
280.3018608911
 31
0.0
  0
ARC
  5
1BF
330
1B5
100
AcDbEntity
  8
DV8_Default
  6
Continuous
 62
     7
100
AcDbCircle
 10
1045.05
 20
333.3018608911
 30
0.0
 40
0.9999999999999991
100
AcDbArc
 50
0.0
 51
90.0
  0
ARC
  5
1C0
330
1B5
100
AcDbEntity
  8
DV8_Default
  6
Continuous
 62
     7
100
AcDbCircle
 10
1045.05
 20
281.3018608911
 30
0.0
 40
1.000000000000001
100
AcDbArc
 50
270.0
 51
0.0
  0
LINE
  5
1C1
330
1B5
100
AcDbEntity
  8
DV8_Default
  6
Continuous
 62
     7
100
AcDbLine
 10
1081.4999954673
 20
313.3018608911
 30
0.0
 11
1146.0999955284
 21
313.3018608911
 31
0.0
  0
LINE
  5
1C2
330
1B5
100
AcDbEntity
  8
DV8_Default
  6
Continuous
 62
     7
100
AcDbLine
 10
1081.4999954712
 20
301.3018608911
 30
0.0
 11
1146.0999955244
 21
301.3018608911
 31
0.0
  0
ARC
  5
1C3
330
1B5
100
AcDbEntity
  8
DV8_Default
  6
Continuous
 62
     7
100
AcDbCircle
 10
1081.4999954978
 20
313.1018608911
 30
0.0
 40
0.2000000000000002
100
AcDbArc
 50
90.0000043745
 51
180.0
  0
ARC
  5
1C4
330
1B5
100
AcDbEntity
  8
DV8_Default
  6
Continuous
 62
     7
100
AcDbCircle
 10
1146.0999954978
 20
313.1018608911
 30
0.0
 40
0.2000000000000057
100
AcDbArc
 50
0.0
 51
89.9999956255
  0
LINE
  5
1C5
330
1B5
100
AcDbEntity
  8
DV8_Default
  6
Continuous
 62
     7
100
AcDbLine
 10
1081.2999954978
 20
313.1018608911
 30
0.0
 11
1081.2999954978
 21
312.5018608911
 31
0.0
  0
LINE
  5
1C6
330
1B5
100
AcDbEntity
  8
DV8_Default
  6
Continuous
 62
     7
100
AcDbLine
 10
1146.2999954978
 20
312.5018608911
 30
0.0
 11
1146.2999954978
 21
313.1018608911
 31
0.0
  0
ARC
  5
1C7
330
1B5
100
AcDbEntity
  8
DV8_Default
  6
Continuous
 62
     7
100
AcDbCircle
 10
1081.4999954978
 20
312.5018608911
 30
0.0
 40
0.1999999999999988
100
AcDbArc
 50
180.0
 51
269.9999961898
  0
ARC
  5
1C8
330
1B5
100
AcDbEntity
  8
DV8_Default
  6
Continuous
 62
     7
100
AcDbCircle
 10
1146.0999954978
 20
312.5018608911
 30
0.0
 40
0.2000000000000001
100
AcDbArc
 50
270.0000038102
 51
0.0
  0
ARC
  5
1C9
330
1B5
100
AcDbEntity
  8
DV8_Default
  6
Continuous
 62
     7
100
AcDbCircle
 10
1081.4999954978
 20
302.1018608911
 30
0.0
 40
0.2000000000000011
100
AcDbArc
 50
90.0000043745
 51
180.0
  0
ARC
  5
1CA
330
1B5
100
AcDbEntity
  8
DV8_Default
  6
Continuous
 62
     7
100
AcDbCircle
 10
1146.0999954978
 20
302.1018608911
 30
0.0
 40
0.2000000000000057
100
AcDbArc
 50
0.0
 51
89.9999956255
  0
LINE
  5
1CB
330
1B5
100
AcDbEntity
  8
DV8_Default
  6
Continuous
 62
     7
100
AcDbLine
 10
1081.2999954978
 20
302.1018608911
 30
0.0
 11
1081.2999954978
 21
301.5018608911
 31
0.0
  0
LINE
  5
1CC
330
1B5
100
AcDbEntity
  8
DV8_Default
  6
Continuous
 62
     7
100
AcDbLine
 10
1146.2999954978
 20
301.5018608911
 30
0.0
 11
1146.2999954978
 21
302.1018608911
 31
0.0
  0
ARC
  5
1CD
330
1B5
100
AcDbEntity
  8
DV8_Default
  6
Continuous
 62
     7
100
AcDbCircle
 10
1081.4999954978
 20
301.5018608911
 30
0.0
 40
0.1999999999999988
100
AcDbArc
 50
180.0
 51
269.9999961898
  0
ARC
  5
1CE
330
1B5
100
AcDbEntity
  8
DV8_Default
  6
Continuous
 62
     7
100
AcDbCircle
 10
1146.0999954978
 20
301.5018608911
 30
0.0
 40
0.200000000000001
100
AcDbArc
 50
270.0000038102
 51
0.0
  0
LINE
  5
1CF
330
1B5
100
AcDbEntity
  8
DV8_Default
  6
Continuous
 62
     7
100
AcDbLine
 10
1080.8289657873
 20
378.8018608911
 30
0.0
 11
1146.7710252084
 21
378.8018608911
 31
0.0
  0
LINE
  5
1D0
330
1B5
100
AcDbEntity
  8
DV8_Default
  6
Continuous
 62
     7
100
AcDbLine
 10
1087.2999955196
 20
283.8018608911
 30
0.0
 11
1140.2999954761
 21
283.8018608911
 31
0.0
  0
ARC
  5
1D1
330
1B5
100
AcDbEntity
  8
DV8_Default
  6
Continuous
 62
     7
100
AcDbCircle
 10
1146.7710252443
 20
378.3018608911
 30
0.0
 40
0.49999999999635
100
AcDbArc
 50
340.4003449045
 51
90.000002058
  0
ARC
  5
1D2
330
1B5
100
AcDbEntity
  8
DV8_Default
  6
Continuous
 62
     7
100
AcDbCircle
 10
1080.8289657513
 20
378.3018608911
 30
0.0
 40
0.5000000000000008
100
AcDbArc
 50
89.9999979419
 51
199.5996550955
  0
ARC
  5
1D3
330
1B5
100
AcDbEntity
  8
DV8_Default
  6
Continuous
 62
     7
100
AcDbCircle
 10
1146.2999954978
 20
378.4695838112
 30
0.0
 40
0.9999999999971269
100
AcDbArc
 50
334.1580619403
 51
340.4003466897
  0
ARC
  5
1D4
330
1B5
100
AcDbEntity
  8
DV8_Default
  6
Continuous
 62
     7
100
AcDbCircle
 10
1081.2999954978
 20
378.4695838112
 30
0.0
 40
0.9999999999970005
100
AcDbArc
 50
199.5996533103
 51
205.8419380597
  0
ARC
  5
1D5
330
1B5
100
AcDbEntity
  8
DV8_Default
  6
Continuous
 62
     7
100
AcDbCircle
 10
1147.6499954978
 20
377.8157489696
 30
0.0
 40
0.5000000000000004
100
AcDbArc
 50
154.15807783
 51
180.0
  0
ARC
  5
1D6
330
1B5
100
AcDbEntity
  8
DV8_Default
  6
Continuous
 62
     7
100
AcDbCircle
 10
1079.9499954978
 20
377.8157489696
 30
0.0
 40
0.5000000000026302
100
AcDbArc
 50
0.0
 51
25.84192217
  0
LINE
  5
1D7
330
1B5
100
AcDbEntity
  8
DV8_Default
  6
Continuous
 62
     7
100
AcDbLine
 10
1147.1499954978
 20
322.8791333123
 30
0.0
 11
1147.1499954978
 21
377.8157489696
 31
0.0
  0
LINE
  5
1D8
330
1B5
100
AcDbEntity
  8
DV8_Default
  6
Continuous
 62
     7
100
AcDbLine
 10
1080.4499954978
 20
377.8157489696
 30
0.0
 11
1080.4499954978
 21
322.8791333123
 31
0.0
  0
ARC
  5
1D9
330
1B5
100
AcDbEntity
  8
DV8_Default
  6
Continuous
 62
     7
100
AcDbCircle
 10
1137.1499954978
 20
322.8791333294
 30
0.0
 40
10.00000000000004
100
AcDbArc
 50
328.32980386
 51
359.999999902
  0
ARC
  5
1DA
330
1B5
100
AcDbEntity
  8
DV8_Default
  6
Continuous
 62
     7
100
AcDbCircle
 10
1090.4499954978
 20
322.8791333294
 30
0.0
 40
10.0
100
AcDbArc
 50
180.000000098
 51
211.67019614
  0
LINE
  5
1DB
330
1B5
100
AcDbEntity
  8
DV8_Default
  6
Continuous
 62
     7
100
AcDbLine
 10
1081.9391521801
 20
317.6288432403
 30
0.0
 11
1082.8108388107
 21
316.2158187823
 31
0.0
  0
LINE
  5
1DC
330
1B5
100
AcDbEntity
  8
DV8_Default
  6
Continuous
 62
     7
100
AcDbLine
 10
1144.789152185
 20
316.2158187823
 30
0.0
 11
1145.6608388156
 21
317.6288432403
 31
0.0
  0
ARC
  5
1DD
330
1B5
100
AcDbEntity
  8
DV8_Default
  6
Continuous
 62
     7
100
AcDbCircle
 10
1153.2999954978
 20
310.9655286852
 30
0.0
 40
9.999999999999995
100
AcDbArc
 50
148.3298038067
 51
166.4889305011
  0
ARC
  5
1DE
330
1B5
100
AcDbEntity
  8
DV8_Default
  6
Continuous
 62
     7
100
AcDbCircle
 10
1074.2999954978
 20
310.9655286852
 30
0.0
 40
9.999999999995632
100
AcDbArc
 50
13.5110694989
 51
31.6701961933
  0
LINE
  5
1DF
330
1B5
100
AcDbEntity
  8
DV8_Default
  6
Continuous
 62
     7
100
AcDbLine
 10
1143.2999954978
 20
286.8018608911
 30
0.0
 11
1143.2999954978
 21
301.3018608911
 31
0.0
  0
LINE
  5
1E0
330
1B5
100
AcDbEntity
  8
DV8_Default
  6
Continuous
 62
     7
100
AcDbLine
 10
1084.2999954978
 20
301.3018608911
 30
0.0
 11
1084.2999954978
 21
286.8018608911
 31
0.0
  0
ARC
  5
1E1
330
1B5
100
AcDbEntity
  8
DV8_Default
  6
Continuous
 62
     7
100
AcDbCircle
 10
1140.2999954978
 20
286.8018608911
 30
0.0
 40
2.999999999999999
100
AcDbArc
 50
269.9999997922
 51
0.0
  0
ARC
  5
1E2
330
1B5
100
AcDbEntity
  8
DV8_Default
  6
Continuous
 62
     7
100
AcDbCircle
 10
1087.2999954978
 20
286.8018608911
 30
0.0
 40
3.000000000000003
100
AcDbArc
 50
180.0
 51
270.0000002078
  0
LINE
  5
1E3
330
1B5
100
AcDbEntity
  8
DV8_Default
  6
Continuous
 62
     7
100
AcDbLine
 10
1079.55
 20
311.2518608911
 30
0.0
 11
1079.55
 21
303.3518608911
 31
0.0
  0
LINE
  5
1E4
330
1B5
100
AcDbEntity
  8
DV8_Default
  6
Continuous
 62
     7
100
AcDbLine
 10
1079.55
 20
303.3518608911
 30
0.0
 11
1080.933193295
 21
303.3518608911
 31
0.0
  0
LINE
  5
1E5
330
1B5
100
AcDbEntity
  8
DV8_Default
  6
Continuous
 62
     7
100
AcDbLine
 10
1080.9330874249
 20
311.2518608911
 30
0.0
 11
1079.55
 21
311.2518608911
 31
0.0
  0
LINE
  5
1E6
330
1B5
100
AcDbEntity
  8
DV8_Default
  6
Continuous
 62
     7
100
AcDbLine
 10
1071.035483109
 20
301.6489575129
 30
0.0
 11
1079.55
 21
303.3518608911
 31
0.0
  0
LINE
  5
1E7
330
1B5
100
AcDbEntity
  8
DV8_Default
  6
Continuous
 62
     7
100
AcDbLine
 10
1079.55
 20
311.2518608911
 30
0.0
 11
1071.035483109
 21
312.9547642693
 31
0.0
  0
ARC
  5
1E8
330
1B5
100
AcDbEntity
  8
DV8_Default
  6
Continuous
 62
     7
100
AcDbCircle
 10
1070.054902432
 20
306.551860891
 30
0.0
 40
4.999999999904364
100
AcDbArc
 50
270.0000003633
 51
281.3099324891
  0
ARC
  5
1E9
330
1B5
100
AcDbEntity
  8
DV8_Default
  6
Continuous
 62
     7
100
AcDbCircle
 10
1070.054902432
 20
308.0518608912
 30
0.0
 40
4.99999999990521
100
AcDbArc
 50
78.6900675109
 51
89.9999996367
  0
LINE
  5
1EA
330
1B5
100
AcDbEntity
  8
DV8_Default
  6
Continuous
 62
     7
100
AcDbLine
 10
1046.05
 20
301.5518608911
 30
0.0
 11
1070.0549024637
 21
301.5518608911
 31
0.0
  0
LINE
  5
1EB
330
1B5
100
AcDbEntity
  8
DV8_Default
  6
Continuous
 62
     7
100
AcDbLine
 10
1070.0549024637
 20
313.0518608911
 30
0.0
 11
1046.05
 21
313.0518608911
 31
0.0
  0
LINE
  5
1EC
330
1B5
100
AcDbEntity
  8
DV8_Default
  6
Continuous
 62
     7
100
AcDbLine
 10
1146.3
 20
312.3018608911
 30
0.0
 11
1081.3
 21
312.3018608911
 31
0.0
  0
LINE
  5
1ED
330
1B5
100
AcDbEntity
  8
DV8_Default
  6
Continuous
 62
     7
100
AcDbLine
 10
1081.3
 20
302.3018608911
 30
0.0
 11
1146.3
 21
302.3018608911
 31
0.0
  0
ARC
  5
1EE
330
1B5
100
AcDbEntity
  8
DV8_Default
  6
Continuous
 62
     7
100
AcDbCircle
 10
1101.1582771332
 20
307.3018608911
 30
0.0
 40
20.60680179603015
100
AcDbArc
 50
168.5236501138
 51
191.4763498859
  0
ARC
  5
1EF
330
1B5
100
AcDbEntity
  8
DV8_Default
  6
Continuous
 62
     7
100
AcDbCircle
 10
1093.3
 20
307.3018608911
 30
0.0
 40
13.0
100
AcDbArc
 50
198.3823411753
 51
202.619864948
  0
ARC
  5
1F0
330
1B5
100
AcDbEntity
  8
DV8_Default
  6
Continuous
 62
     7
100
AcDbCircle
 10
1093.3
 20
307.3018608911
 30
0.0
 40
13.0
100
AcDbArc
 50
157.380135052
 51
161.6155499971
  0
ARC
  5
1F1
330
1B5
100
AcDbEntity
  8
DV8_Default
  6
Continuous
 62
     7
100
AcDbCircle
 10
1134.3
 20
307.3018608911
 30
0.0
 40
13.0
100
AcDbArc
 50
337.380135052
 51
22.619864948
  0
ENDBLK
  5
1F3
330
1B5
100
AcDbEntity
  8
0
100
AcDbBlockEnd
  0
BLOCK
  5
20B
330
1F4
100
AcDbEntity
  8
0
100
AcDbBlockBegin
  2
SE8
 70
     0
 10
0.0
 20
0.0
 30
0.0
  3
SE8
  1

  0
LINE
  5
1F7
330
1F4
100
AcDbEntity
  8
DV9_Default
  6
Continuous
 62
     7
100
AcDbLine
 10
966.85
 20
217.6
 30
0.0
 11
912.85
 21
217.6
 31
0.0
  0
LINE
  5
1F8
330
1F4
100
AcDbEntity
  8
DV9_Default
  6
Continuous
 62
     7
100
AcDbLine
 10
913.85
 20
207.6
 30
0.0
 11
965.85
 21
207.6
 31
0.0
  0
LINE
  5
1F9
330
1F4
100
AcDbEntity
  8
DV9_Default
  6
Continuous
 62
     7
100
AcDbLine
 10
966.85
 20
208.6
 30
0.0
 11
966.85
 21
217.6
 31
0.0
  0
LINE
  5
1FA
330
1F4
100
AcDbEntity
  8
DV9_Default
  6
Continuous
 62
     7
100
AcDbLine
 10
912.85
 20
217.6
 30
0.0
 11
912.85
 21
208.6
 31
0.0
  0
ARC
  5
1FB
330
1F4
100
AcDbEntity
  8
DV9_Default
  6
Continuous
 62
     7
100
AcDbCircle
 10
965.85
 20
208.6
 30
0.0
 40
0.9999999999999991
100
AcDbArc
 50
270.0
 51
0.0
  0
ARC
  5
1FC
330
1F4
100
AcDbEntity
  8
DV9_Default
  6
Continuous
 62
     7
100
AcDbCircle
 10
913.85
 20
208.6
 30
0.0
 40
1.000000000000001
100
AcDbArc
 50
180.0
 51
270.0
  0
CIRCLE
  5
1FD
330
1F4
100
AcDbEntity
  8
DV9_Default
  6
Continuous
 62
     7
100
AcDbCircle
 10
939.85
 20
139.8500045022
 30
0.0
 40
24.5
  0
CIRCLE
  5
1FE
330
1F4
100
AcDbEntity
  8
DV9_Default
  6
Continuous
 62
     7
100
AcDbCircle
 10
939.85
 20
139.8500045022
 30
0.0
 40
31.01777942875
  0
CIRCLE
  5
1FF
330
1F4
100
AcDbEntity
  8
DV9_Default
  6
Continuous
 62
     7
100
AcDbCircle
 10
939.85
 20
139.8500045022
 30
0.0
 40
33.4710297465
  0
LINE
  5
200
330
1F4
100
AcDbEntity
  8
DV9_Default
  6
Continuous
 62
     7
100
AcDbLine
 10
943.8
 20
174.1
 30
0.0
 11
935.9
 21
174.1
 31
0.0
  0
LINE
  5
201
330
1F4
100
AcDbEntity
  8
DV9_Default
  6
Continuous
 62
     7
100
AcDbLine
 10
935.9
 20
174.1
 30
0.0
 11
935.9
 21
173.0871423496
 31
0.0
  0
LINE
  5
202
330
1F4
100
AcDbEntity
  8
DV9_Default
  6
Continuous
 62
     7
100
AcDbLine
 10
943.8
 20
173.0871423496
 30
0.0
 11
943.8
 21
174.1
 31
0.0
  0
LINE
  5
203
330
1F4
100
AcDbEntity
  8
DV9_Default
  6
Continuous
 62
     7
100
AcDbLine
 10
934.1970966218
 20
182.614516891
 30
0.0
 11
935.9
 21
174.1
 31
0.0
  0
LINE
  5
204
330
1F4
100
AcDbEntity
  8
DV9_Default
  6
Continuous
 62
     7
100
AcDbLine
 10
943.8
 20
174.1
 30
0.0
 11
945.5029033782
 21
182.614516891
 31
0.0
  0
ARC
  5
205
330
1F4
100
AcDbEntity
  8
DV9_Default
  6
Continuous
 62
     7
100
AcDbCircle
 10
939.0999999999
 20
183.595097568
 30
0.0
 40
4.999999999904497
100
AcDbArc
 50
180.0000003633
 51
191.3099324891
  0
ARC
  5
206
330
1F4
100
AcDbEntity
  8
DV9_Default
  6
Continuous
 62
     7
100
AcDbCircle
 10
940.6000000001
 20
183.595097568
 30
0.0
 40
4.999999999905081
100
AcDbArc
 50
348.6900675109
 51
359.9999996367
  0
LINE
  5
207
330
1F4
100
AcDbEntity
  8
DV9_Default
  6
Continuous
 62
     7
100
AcDbLine
 10
934.1
 20
207.6
 30
0.0
 11
934.1
 21
183.5950975363
 31
0.0
  0
LINE
  5
208
330
1F4
100
AcDbEntity
  8
DV9_Default
  6
Continuous
 62
     7
100
AcDbLine
 10
945.6
 20
183.5950975363
 30
0.0
 11
945.6
 21
207.6
 31
0.0
  0
ARC
  5
209
330
1F4
100
AcDbEntity
  8
DV9_Default
  6
Continuous
 62
     7
100
AcDbCircle
 10
939.85
 20
139.85
 30
0.0
 40
33.5
100
AcDbArc
 50
97.00685216
 51
270.0
  0
ARC
  5
20A
330
1F4
100
AcDbEntity
  8
DV9_Default
  6
Continuous
 62
     7
100
AcDbCircle
 10
939.85
 20
139.85
 30
0.0
 40
33.5
100
AcDbArc
 50
270.0
 51
82.993287737
  0
ENDBLK
  5
20C
330
1F4
100
AcDbEntity
  8
0
100
AcDbBlockEnd
  0
ENDSEC
  0
SECTION
  2
ENTITIES
  0
INSERT
  5
5F
330
1F
100
AcDbEntity
  8
Default
100
AcDbBlockReference
  2
SEANNOT_GROUP
 10
0.0
 20
0.0
 30
0.0
  0
INSERT
  5
6A
330
1F
100
AcDbEntity
  8
Default
100
AcDbBlockReference
  2
SEANNOT_GROUP1
 10
0.0
 20
0.0
 30
0.0
  0
INSERT
  5
70
330
1F
100
AcDbEntity
  8
Default
100
AcDbBlockReference
  2
SEANNOT_GROUP2
 10
0.0
 20
0.0
 30
0.0
  0
INSERT
  5
76
330
1F
100
AcDbEntity
  8
Default
100
AcDbBlockReference
  2
SEANNOT_GROUP3
 10
0.0
 20
0.0
 30
0.0
  0
INSERT
  5
80
330
1F
100
AcDbEntity
  8
Default
100
AcDbBlockReference
  2
SEANNOT_GROUP4
 10
0.0
 20
0.0
 30
0.0
  0
INSERT
  5
86
330
1F
100
AcDbEntity
  8
Default
100
AcDbBlockReference
  2
SEANNOT_GROUP5
 10
0.0
 20
0.0
 30
0.0
  0
INSERT
  5
8C
330
1F
100
AcDbEntity
  8
Default
100
AcDbBlockReference
  2
SEANNOT_GROUP6
 10
0.0
 20
0.0
 30
0.0
  0
INSERT
  5
96
330
1F
100
AcDbEntity
  8
Default
100
AcDbBlockReference
  2
SEANNOT_GROUP7
 10
0.0
 20
0.0
 30
0.0
  0
INSERT
  5
9C
330
1F
100
AcDbEntity
  8
Default
100
AcDbBlockReference
  2
SEANNOT_GROUP8
 10
0.0
 20
0.0
 30
0.0
  0
INSERT
  5
A2
330
1F
100
AcDbEntity
  8
Default
100
AcDbBlockReference
  2
SE
 10
0.0
 20
0.0
 30
0.0
  0
INSERT
  5
BB
330
1F
100
AcDbEntity
  8
Default
100
AcDbBlockReference
  2
SE1
 10
0.0
 20
0.0
 30
0.0
  0
INSERT
  5
E6
330
1F
100
AcDbEntity
  8
Default
100
AcDbBlockReference
  2
SE2
 10
0.0
 20
0.0
 30
0.0
  0
INSERT
  5
100
330
1F
100
AcDbEntity
  8
Default
100
AcDbBlockReference
  2
SE3
 10
0.0
 20
0.0
 30
0.0
  0
INSERT
  5
125
330
1F
100
AcDbEntity
  8
Default
100
AcDbBlockReference
  2
SE4
 10
0.0
 20
0.0
 30
0.0
  0
INSERT
  5
152
330
1F
100
AcDbEntity
  8
Default
100
AcDbBlockReference
  2
SE5
 10
0.0
 20
0.0
 30
0.0
  0
INSERT
  5
18A
330
1F
100
AcDbEntity
  8
Default
100
AcDbBlockReference
  2
SE6
 10
0.0
 20
0.0
 30
0.0
  0
INSERT
  5
1B6
330
1F
100
AcDbEntity
  8
Default
100
AcDbBlockReference
  2
SE7
 10
0.0
 20
0.0
 30
0.0
  0
INSERT
  5
1F5
330
1F
100
AcDbEntity
  8
Default
100
AcDbBlockReference
  2
SE8
 10
0.0
 20
0.0
 30
0.0
  0
TEXT
  5
20E
330
1F
100
AcDbEntity
  8
Default
  6
Continuous
 62
     7
100
AcDbText
 10
5.9362635081
 20
53.4225120485
 30
0.0
 40
10.0
  1
Grohe AG^J
  7
SEACAD_seiso_ttf
 11
5.9362635081
 21
63.4225120485
 31
0.0
100
AcDbText
 73
     3
  0
TEXT
  5
20F
330
1F
100
AcDbEntity
  8
Default
  6
Continuous
 62
     7
100
AcDbText
 10
5.9362635081
 20
37.0588756849
 30
0.0
 40
10.0
  1
 
  7
SEACAD_seiso_ttf
 11
5.9362635081
 21
47.0588756849
 31
0.0
100
AcDbText
 73
     3
  0
TEXT
  5
210
330
1F
100
AcDbEntity
  8
Default
  6
Continuous
 62
     7
100
AcDbText
 10
5.9362635081
 20
20.6952393213
 30
0.0
 40
10.0
  1
ecn:
  7
SEACAD_seiso_ttf
 11
5.9362635081
 21
30.6952393213
 31
0.0
100
AcDbText
 73
     3
  0
TEXT
  5
211
330
1F
100
AcDbEntity
  8
Default
  6
Continuous
 62
     7
100
AcDbText
 10
5.9362635081
 20
4.3316029576
 30
0.0
 40
10.0
  1
unit: mm
  7
SEACAD_seiso_ttf
 11
5.9362635081
 21
14.3316029576
 31
0.0
100
AcDbText
 73
     3
  0
LINE
  5
212
330
1F
100
AcDbEntity
  8
Default
  6
Continuous
 62
     7
100
AcDbLine
 10
0.0
 20
0.0
 30
0.0
 11
100.0
 21
0.0
 31
0.0
  0
LINE
  5
213
330
1F
100
AcDbEntity
  8
Default
  6
Continuous
 62
     7
100
AcDbLine
 10
0.0
 20
0.0
 30
0.0
 11
0.0
 21
100.0
 31
0.0
  0
TEXT
  5
214
330
1F
100
AcDbEntity
  8
Default
  6
Continuous
 62
     7
100
AcDbText
 10
24.3923665681
 20
-18.2375342018
 30
0.0
 40
10.0
  1
100 mm
  7
SEACAD_seiso_ttf
 11
24.3923665681
 21
-8.2375342018
 31
0.0
100
AcDbText
 73
     3
  0
TEXT
  5
215
330
1F
100
AcDbEntity
  8
Default
  6
Continuous
 62
     7
100
AcDbText
 10
-7.6150308803
 20
24.6231930421
 30
0.0
 40
10.0
  1
100 mm
 50
90.0
  7
SEACAD_seiso_ttf
 11
-17.6150308803
 21
24.6231930421
 31
0.0
100
AcDbText
 73
     3
  0
TEXT
  5
216
330
1F
100
AcDbEntity
  8
Default
  6
Continuous
 62
     7
100
AcDbText
 10
28.4878128572
 20
20.0907663715
 30
0.0
 40
10.0
  1
223210
  7
SEACAD_seiso_ttf
 11
28.4878128572
 21
30.0907663715
 31
0.0
100
AcDbText
 73
     3
  0
TEXT
  5
217
330
1F
100
AcDbEntity
  8
Default
  6
Continuous
 62
     7
100
AcDbText
 10
5.9012241913
 20
36.7242780188
 30
0.0
 40
10.0
  1
40585000
  7
SEACAD_seiso_ttf
 11
5.9012241913
 21
46.7242780188
 31
0.0
100
AcDbText
 73
     3
  0
ENDSEC
  0
SECTION
  2
OBJECTS
  0
DICTIONARY
  5
C
330
0
100
AcDbDictionary
281
     1
  3
ACAD_GROUP
350
D
  3
ACAD_LAYOUT
350
1A
  3
ACAD_MLEADERSTYLE
350
21B
  3
ACAD_MLINESTYLE
350
17
  3
ACAD_PLOTSETTINGS
350
19
  3
ACAD_PLOTSTYLENAME
350
E
  3
ACAD_SCALELIST
350
3B
  3
ACAD_TABLESTYLE
350
21A
  3
ACAD_VISUALSTYLE
350
2A
  3
AcDbVariableDictionary
350
218
  0
DICTIONARY
  5
D
102
{ACAD_REACTORS
330
C
102
}
330
C
100
AcDbDictionary
281
     1
  0
DICTIONARY
  5
1A
102
{ACAD_REACTORS
330
C
102
}
330
C
100
AcDbDictionary
281
     1
  3
Layout1
350
1E
  3
Model
350
22
  0
DICTIONARY
  5
21B
102
{ACAD_REACTORS
330
C
102
}
330
C
100
AcDbDictionary
281
     1
  0
DICTIONARY
  5
17
102
{ACAD_REACTORS
330
C
102
}
330
C
100
AcDbDictionary
281
     1
  3
Standard
350
18
  0
DICTIONARY
  5
19
102
{ACAD_REACTORS
330
C
102
}
330
C
100
AcDbDictionary
281
     1
  0
ACDBDICTIONARYWDFLT
  5
E
102
{ACAD_REACTORS
330
C
102
}
330
C
100
AcDbDictionary
281
     1
  3
Normal
350
F
100
AcDbDictionaryWithDefault
340
F
  0
DICTIONARY
  5
3B
102
{ACAD_REACTORS
330
C
102
}
330
C
100
AcDbDictionary
281
     1
  3
A0
350
3C
  3
A1
350
3D
  3
A2
350
3E
  3
A3
350
3F
  3
A4
350
40
  3
A5
350
41
  3
A6
350
42
  3
A7
350
43
  3
A8
350
44
  3
A9
350
45
  3
B0
350
46
  3
B1
350
47
  3
B2
350
48
  3
B3
350
49
  3
B4
350
4A
  3
B5
350
4B
  3
B6
350
4C
  3
B7
350
4D
  3
B8
350
4E
  3
B9
350
4F
  3
C0
350
50
  3
C1
350
51
  3
C2
350
52
  3
C3
350
53
  3
C4
350
54
  3
C5
350
55
  3
C6
350
56
  3
C7
350
57
  3
C8
350
58
  3
C9
350
59
  3
D0
350
5A
  3
D1
350
5B
  3
D2
350
5C
  0
DICTIONARY
  5
21A
102
{ACAD_REACTORS
330
C
102
}
330
C
100
AcDbDictionary
281
     1
  0
DICTIONARY
  5
2A
102
{ACAD_REACTORS
330
C
102
}
330
C
100
AcDbDictionary
281
     1
  3
2dWireframe
350
2F
  3
3D Hidden
350
31
  3
3dWireframe
350
30
  3
Basic
350
32
  3
Brighten
350
36
  3
ColorChange
350
3A
  3
Conceptual
350
34
  3
Dim
350
35
  3
Facepattern
350
39
  3
Flat
350
2B
  3
FlatWithEdges
350
2C
  3
Gouraud
350
2D
  3
GouraudWithEdges
350
2E
  3
Linepattern
350
38
  3
Realistic
350
33
  3
Thicken
350
37
  0
DICTIONARY
  5
218
102
{ACAD_REACTORS
330
C
102
}
330
C
100
AcDbDictionary
281
     1
  3
CANNOSCALE
350
219
  3
PSOLHEIGHT
350
21D
  3
PSOLWIDTH
350
21C
  0
LAYOUT
  5
1E
102
{ACAD_REACTORS
330
1A
102
}
330
1A
100
AcDbPlotSettings
  1

  2
none_device
  4

  6

 40
0.0
 41
0.0
 42
0.0
 43
0.0
 44
0.0
 45
0.0
 46
0.0
 47
0.0
 48
0.0
 49
0.0
140
0.0
141
0.0
142
1.0
143
1.0
 70
   688
 72
     0
 73
     0
 74
     5
  7

 75
    16
147
1.0
148
0.0
149
0.0
100
AcDbLayout
  1
Layout1
 70
     1
 71
     1
 10
0.0
 20
0.0
 11
3000.0
 21
4500.0
 12
0.0
 22
0.0
 32
0.0
 14
0.0
 24
0.0
 34
0.0
 15
3000.0
 25
4500.0
 35
0.0
146
0.0
 13
0.0
 23
0.0
 33
0.0
 16
1.0
 26
0.0
 36
0.0
 17
0.0
 27
1.0
 37
0.0
 76
     0
330
1B
  0
LAYOUT
  5
22
102
{ACAD_REACTORS
330
1A
102
}
330
1A
100
AcDbPlotSettings
  1

  2
none_device
  4

  6

 40
0.0
 41
0.0
 42
0.0
 43
0.0
 44
0.0
 45
0.0
 46
0.0
 47
0.0
 48
0.0
 49
0.0
140
0.0
141
0.0
142
1.0
143
1.0
 70
  1712
 72
     0
 73
     0
 74
     0
  7

 75
     0
147
1.0
148
0.0
149
0.0
100
AcDbLayout
  1
Model
 70
     1
 71
     0
 10
0.0
 20
0.0
 11
3000.0
 21
4500.0
 12
0.0
 22
0.0
 32
0.0
 14
0.0
 24
0.0
 34
0.0
 15
3000.0
 25
4500.0
 35
0.0
146
0.0
 13
0.0
 23
0.0
 33
0.0
 16
1.0
 26
0.0
 36
0.0
 17
0.0
 27
1.0
 37
0.0
 76
     0
330
1F
331
29
  0
MLINESTYLE
  5
18
102
{ACAD_REACTORS
330
17
102
}
330
17
100
AcDbMlineStyle
  2
Standard
 70
     0
  3

 62
   256
 51
90.0
 52
90.0
 71
     2
 49
0.5
 62
   256
  6
BYLAYER
 49
-0.5
 62
   256
  6
BYLAYER
  0
ACDBPLACEHOLDER
  5
F
102
{ACAD_REACTORS
330
E
102
}
330
E
  0
SCALE
  5
3C
102
{ACAD_REACTORS
330
3B
102
}
330
3B
100
AcDbScale
 70
     0
300
1:1
140
1.0
141
1.0
290
     1
  0
SCALE
  5
3D
102
{ACAD_REACTORS
330
3B
102
}
330
3B
100
AcDbScale
 70
     0
300
1:2
140
1.0
141
2.0
290
     0
  0
SCALE
  5
3E
102
{ACAD_REACTORS
330
3B
102
}
330
3B
100
AcDbScale
 70
     0
300
1:4
140
1.0
141
4.0
290
     0
  0
SCALE
  5
3F
102
{ACAD_REACTORS
330
3B
102
}
330
3B
100
AcDbScale
 70
     0
300
1:5
140
1.0
141
5.0
290
     0
  0
SCALE
  5
40
102
{ACAD_REACTORS
330
3B
102
}
330
3B
100
AcDbScale
 70
     0
300
1:8
140
1.0
141
8.0
290
     0
  0
SCALE
  5
41
102
{ACAD_REACTORS
330
3B
102
}
330
3B
100
AcDbScale
 70
     0
300
1:10
140
1.0
141
10.0
290
     0
  0
SCALE
  5
42
102
{ACAD_REACTORS
330
3B
102
}
330
3B
100
AcDbScale
 70
     0
300
1:16
140
1.0
141
16.0
290
     0
  0
SCALE
  5
43
102
{ACAD_REACTORS
330
3B
102
}
330
3B
100
AcDbScale
 70
     0
300
1:20
140
1.0
141
20.0
290
     0
  0
SCALE
  5
44
102
{ACAD_REACTORS
330
3B
102
}
330
3B
100
AcDbScale
 70
     0
300
1:30
140
1.0
141
30.0
290
     0
  0
SCALE
  5
45
102
{ACAD_REACTORS
330
3B
102
}
330
3B
100
AcDbScale
 70
     0
300
1:40
140
1.0
141
40.0
290
     0
  0
SCALE
  5
46
102
{ACAD_REACTORS
330
3B
102
}
330
3B
100
AcDbScale
 70
     0
300
1:50
140
1.0
141
50.0
290
     0
  0
SCALE
  5
47
102
{ACAD_REACTORS
330
3B
102
}
330
3B
100
AcDbScale
 70
     0
300
1:100
140
1.0
141
100.0
290
     0
  0
SCALE
  5
48
102
{ACAD_REACTORS
330
3B
102
}
330
3B
100
AcDbScale
 70
     0
300
2:1
140
2.0
141
1.0
290
     0
  0
SCALE
  5
49
102
{ACAD_REACTORS
330
3B
102
}
330
3B
100
AcDbScale
 70
     0
300
4:1
140
4.0
141
1.0
290
     0
  0
SCALE
  5
4A
102
{ACAD_REACTORS
330
3B
102
}
330
3B
100
AcDbScale
 70
     0
300
8:1
140
8.0
141
1.0
290
     0
  0
SCALE
  5
4B
102
{ACAD_REACTORS
330
3B
102
}
330
3B
100
AcDbScale
 70
     0
300
10:1
140
10.0
141
1.0
290
     0
  0
SCALE
  5
4C
102
{ACAD_REACTORS
330
3B
102
}
330
3B
100
AcDbScale
 70
     0
300
100:1
140
100.0
141
1.0
290
     0
  0
SCALE
  5
4D
102
{ACAD_REACTORS
330
3B
102
}
330
3B
100
AcDbScale
 70
     0
300
1/128" = 1'-0"
140
0.0078125
141
12.0
290
     0
  0
SCALE
  5
4E
102
{ACAD_REACTORS
330
3B
102
}
330
3B
100
AcDbScale
 70
     0
300
1/64" = 1'-0"
140
0.015625
141
12.0
290
     0
  0
SCALE
  5
4F
102
{ACAD_REACTORS
330
3B
102
}
330
3B
100
AcDbScale
 70
     0
300
1/32" = 1'-0"
140
0.03125
141
12.0
290
     0
  0
SCALE
  5
50
102
{ACAD_REACTORS
330
3B
102
}
330
3B
100
AcDbScale
 70
     0
300
1/16" = 1'-0"
140
0.0625
141
12.0
290
     0
  0
SCALE
  5
51
102
{ACAD_REACTORS
330
3B
102
}
330
3B
100
AcDbScale
 70
     0
300
3/32" = 1'-0"
140
0.09375
141
12.0
290
     0
  0
SCALE
  5
52
102
{ACAD_REACTORS
330
3B
102
}
330
3B
100
AcDbScale
 70
     0
300
1/8" = 1'-0"
140
0.125
141
12.0
290
     0
  0
SCALE
  5
53
102
{ACAD_REACTORS
330
3B
102
}
330
3B
100
AcDbScale
 70
     0
300
3/16" = 1'-0"
140
0.1875
141
12.0
290
     0
  0
SCALE
  5
54
102
{ACAD_REACTORS
330
3B
102
}
330
3B
100
AcDbScale
 70
     0
300
1/4" = 1'-0"
140
0.25
141
12.0
290
     0
  0
SCALE
  5
55
102
{ACAD_REACTORS
330
3B
102
}
330
3B
100
AcDbScale
 70
     0
300
3/8" = 1'-0"
140
0.375
141
12.0
290
     0
  0
SCALE
  5
56
102
{ACAD_REACTORS
330
3B
102
}
330
3B
100
AcDbScale
 70
     0
300
1/2" = 1'-0"
140
0.5
141
12.0
290
     0
  0
SCALE
  5
57
102
{ACAD_REACTORS
330
3B
102
}
330
3B
100
AcDbScale
 70
     0
300
3/4" = 1'-0"
140
0.75
141
12.0
290
     0
  0
SCALE
  5
58
102
{ACAD_REACTORS
330
3B
102
}
330
3B
100
AcDbScale
 70
     0
300
1" = 1'-0"
140
1.0
141
12.0
290
     0
  0
SCALE
  5
59
102
{ACAD_REACTORS
330
3B
102
}
330
3B
100
AcDbScale
 70
     0
300
1-1/2" = 1'-0"
140
1.5
141
12.0
290
     0
  0
SCALE
  5
5A
102
{ACAD_REACTORS
330
3B
102
}
330
3B
100
AcDbScale
 70
     0
300
3" = 1'-0"
140
3.0
141
12.0
290
     0
  0
SCALE
  5
5B
102
{ACAD_REACTORS
330
3B
102
}
330
3B
100
AcDbScale
 70
     0
300
6" = 1'-0"
140
6.0
141
12.0
290
     0
  0
SCALE
  5
5C
102
{ACAD_REACTORS
330
3B
102
}
330
3B
100
AcDbScale
 70
     0
300
1'-0" = 1'-0"
140
12.0
141
12.0
290
     0
  0
VISUALSTYLE
  5
2F
102
{ACAD_REACTORS
330
2A
102
}
330
2A
100
AcDbVisualStyle
  2
2dWireframe
 70
     4
 71
     0
 72
     2
 73
     0
 90
        0
 40
-0.6
 41
-30.0
 62
     5
 63
     7
 74
     1
 91
        4
 64
     7
 65
   257
 75
     1
175
     1
 42
1.0
 92
        0
 66
   257
 43
1.0
 76
     1
 77
     6
 78
     2
 67
     7
 79
     5
170
     0
171
     0
290
     0
174
     0
 93
        1
 44
0.0
173
     0
291
     0
 45
0.0
1001
ACAD
1000
AcDbSavedByObjectVersion
1070
     0
  0
VISUALSTYLE
  5
31
102
{ACAD_REACTORS
330
2A
102
}
330
2A
100
AcDbVisualStyle
  2
3D Hidden
 70
     6
 71
     1
 72
     2
 73
     2
 90
        0
 40
-0.6
 41
-30.0
 62
     5
 63
     7
 74
     2
 91
        2
 64
     7
 65
   257
 75
     2
175
     1
 42
40.0
 92
        0
 66
   257
 43
1.0
 76
     1
 77
     6
 78
     2
 67
     7
 79
     3
170
     0
171
     0
290
     0
174
     0
 93
        1
 44
0.0
173
     0
291
     0
 45
0.0
1001
ACAD
1000
AcDbSavedByObjectVersion
1070
     0
  0
VISUALSTYLE
  5
30
102
{ACAD_REACTORS
330
2A
102
}
330
2A
100
AcDbVisualStyle
  2
3dWireframe
 70
     5
 71
     0
 72
     2
 73
     0
 90
        0
 40
-0.6
 41
-30.0
 62
     5
 63
     7
 74
     1
 91
        4
 64
     7
 65
   257
 75
     1
175
     1
 42
1.0
 92
        0
 66
   257
 43
1.0
 76
     1
 77
     6
 78
     2
 67
     7
 79
     5
170
     0
171
     0
290
     0
174
     0
 93
        1
 44
0.0
173
     0
291
     0
 45
0.0
1001
ACAD
1000
AcDbSavedByObjectVersion
1070
     0
  0
VISUALSTYLE
  5
32
102
{ACAD_REACTORS
330
2A
102
}
330
2A
100
AcDbVisualStyle
  2
Basic
 70
     7
 71
     1
 72
     0
 73
     1
 90
        0
 40
-0.6
 41
-30.0
 62
     5
 63
     7
 74
     0
 91
        4
 64
     7
 65
   257
 75
     1
175
     1
 42
1.0
 92
        8
 66
     7
 43
1.0
 76
     1
 77
     6
 78
     2
 67
     7
 79
     5
170
     0
171
     0
290
     0
174
     0
 93
        1
 44
0.0
173
     0
291
     1
 45
0.0
1001
ACAD
1000
AcDbSavedByObjectVersion
1070
     0
  0
VISUALSTYLE
  5
36
102
{ACAD_REACTORS
330
2A
102
}
330
2A
100
AcDbVisualStyle
  2
Brighten
 70
    12
 71
     2
 72
     2
 73
     0
 90
        0
 40
-0.6
 41
-30.0
 62
     5
 63
     7
 74
     1
 91
        4
 64
     7
 65
   257
 75
     1
175
     1
 42
1.0
 92
        8
 66
     7
 43
1.0
 76
     1
 77
     6
 78
     2
 67
     7
 79
     5
170
     0
171
     0
290
     0
174
     0
 93
        1
 44
50.0
173
     0
291
     1
 45
0.0
1001
ACAD
1000
AcDbSavedByObjectVersion
1070
     0
  0
VISUALSTYLE
  5
3A
102
{ACAD_REACTORS
330
2A
102
}
330
2A
100
AcDbVisualStyle
  2
ColorChange
 70
    16
 71
     2
 72
     2
 73
     3
 90
        0
 40
-0.6
 41
-30.0
 62
     5
 63
     8
 74
     1
 91
        4
 64
     7
 65
   257
 75
     1
175
     1
 42
1.0
 92
        8
 66
     8
 43
1.0
 76
     1
 77
     6
 78
     2
 67
     7
 79
     5
170
     0
171
     0
290
     0
174
     0
 93
        1
 44
0.0
173
     0
291
     1
 45
0.0
1001
ACAD
1000
AcDbSavedByObjectVersion
1070
     0
  0
VISUALSTYLE
  5
34
102
{ACAD_REACTORS
330
2A
102
}
330
2A
100
AcDbVisualStyle
  2
Conceptual
 70
     9
 71
     3
 72
     2
 73
     0
 90
        0
 40
-0.6
 41
-30.0
 62
     5
 63
     7
 74
     2
 91
        2
 64
     7
 65
   257
 75
     1
175
     1
 42
40.0
 92
        8
 66
     7
 43
1.0
 76
     1
 77
     6
 78
     2
 67
     7
 79
     3
170
     0
171
     0
290
     0
174
     0
 93
        1
 44
0.0
173
     0
291
     0
 45
0.0
1001
ACAD
1000
AcDbSavedByObjectVersion
1070
     0
  0
VISUALSTYLE
  5
35
102
{ACAD_REACTORS
330
2A
102
}
330
2A
100
AcDbVisualStyle
  2
Dim
 70
    11
 71
     2
 72
     2
 73
     0
 90
        0
 40
-0.6
 41
-30.0
 62
     5
 63
     7
 74
     1
 91
        4
 64
     7
 65
   257
 75
     1
175
     1
 42
1.0
 92
        8
 66
     7
 43
1.0
 76
     1
 77
     6
 78
     2
 67
     7
 79
     5
170
     0
171
     0
290
     0
174
     0
 93
        1
 44
-50.0
173
     0
291
     1
 45
0.0
1001
ACAD
1000
AcDbSavedByObjectVersion
1070
     0
  0
VISUALSTYLE
  5
39
102
{ACAD_REACTORS
330
2A
102
}
330
2A
100
AcDbVisualStyle
  2
Facepattern
 70
    15
 71
     2
 72
     2
 73
     0
 90
        0
 40
-0.6
 41
-30.0
 62
     5
 63
     7
 74
     1
 91
        4
 64
     7
 65
   257
 75
     1
175
     1
 42
1.0
 92
        8
 66
     7
 43
1.0
 76
     1
 77
     6
 78
     2
 67
     7
 79
     5
170
     0
171
     0
290
     0
174
     0
 93
        1
 44
0.0
173
     0
291
     1
 45
0.0
1001
ACAD
1000
AcDbSavedByObjectVersion
1070
     0
  0
VISUALSTYLE
  5
2B
102
{ACAD_REACTORS
330
2A
102
}
330
2A
100
AcDbVisualStyle
  2
Flat
 70
     0
 71
     2
 72
     1
 73
     1
 90
        2
 40
-0.6
 41
30.0
 62
     5
 63
     7
 74
     0
 91
        4
 64
     7
 65
   257
 75
     1
175
     1
 42
1.0
 92
        8
 66
     7
 43
1.0
 76
     1
 77
     6
 78
     2
 67
     7
 79
     5
170
     0
171
     0
290
     0
174
     0
 93
       13
 44
0.0
173
     0
291
     1
 45
0.0
1001
ACAD
1000
AcDbSavedByObjectVersion
1070
     0
  0
VISUALSTYLE
  5
2C
102
{ACAD_REACTORS
330
2A
102
}
330
2A
100
AcDbVisualStyle
  2
FlatWithEdges
 70
     1
 71
     2
 72
     1
 73
     1
 90
        2
 40
-0.6
 41
30.0
 62
     5
 63
     7
 74
     1
 91
        4
 64
     7
 65
   257
 75
     1
175
     1
 42
1.0
 92
        0
 66
   257
 43
1.0
 76
     1
 77
     6
 78
     2
 67
     7
 79
     5
170
     0
171
     0
290
     0
174
     0
 93
       13
 44
0.0
173
     0
291
     1
 45
0.0
1001
ACAD
1000
AcDbSavedByObjectVersion
1070
     0
  0
VISUALSTYLE
  5
2D
102
{ACAD_REACTORS
330
2A
102
}
330
2A
100
AcDbVisualStyle
  2
Gouraud
 70
     2
 71
     2
 72
     2
 73
     1
 90
        2
 40
-0.6
 41
30.0
 62
     5
 63
     7
 74
     0
 91
        4
 64
     7
 65
   257
 75
     1
175
     1
 42
1.0
 92
        0
 66
     7
 43
1.0
 76
     1
 77
     6
 78
     2
 67
     7
 79
     5
170
     0
171
     0
290
     0
174
     0
 93
       13
 44
0.0
173
     0
291
     1
 45
0.0
1001
ACAD
1000
AcDbSavedByObjectVersion
1070
     0
  0
VISUALSTYLE
  5
2E
102
{ACAD_REACTORS
330
2A
102
}
330
2A
100
AcDbVisualStyle
  2
GouraudWithEdges
 70
     3
 71
     2
 72
     2
 73
     1
 90
        2
 40
-0.6
 41
30.0
 62
     5
 63
     7
 74
     1
 91
        4
 64
     7
 65
   257
 75
     1
175
     1
 42
1.0
 92
        0
 66
   257
 43
1.0
 76
     1
 77
     6
 78
     2
 67
     7
 79
     5
170
     0
171
     0
290
     0
174
     0
 93
       13
 44
0.0
173
     0
291
     1
 45
0.0
1001
ACAD
1000
AcDbSavedByObjectVersion
1070
     0
  0
VISUALSTYLE
  5
38
102
{ACAD_REACTORS
330
2A
102
}
330
2A
100
AcDbVisualStyle
  2
Linepattern
 70
    14
 71
     2
 72
     2
 73
     0
 90
        0
 40
-0.6
 41
-30.0
 62
     5
 63
     7
 74
     1
 91
        4
 64
     7
 65
   257
 75
     7
175
     7
 42
1.0
 92
        8
 66
     7
 43
1.0
 76
     1
 77
     6
 78
     2
 67
     7
 79
     5
170
     0
171
     0
290
     0
174
     0
 93
        1
 44
0.0
173
     0
291
     1
 45
0.0
1001
ACAD
1000
AcDbSavedByObjectVersion
1070
     0
  0
VISUALSTYLE
  5
33
102
{ACAD_REACTORS
330
2A
102
}
330
2A
100
AcDbVisualStyle
  2
Realistic
 70
     8
 71
     2
 72
     2
 73
     0
 90
        0
 40
-0.6
 41
-30.0
 62
     5
 63
     7
 74
     1
 91
        0
 64
     7
 65
   257
 75
     1
175
     1
 42
1.0
 92
        8
 66
     8
 43
1.0
 76
     1
 77
     6
 78
     2
 67
     7
 79
     5
170
     0
171
     0
290
     0
174
     0
 93
       13
 44
0.0
173
     0
291
     0
 45
0.0
1001
ACAD
1000
AcDbSavedByObjectVersion
1070
     0
  0
VISUALSTYLE
  5
37
102
{ACAD_REACTORS
330
2A
102
}
330
2A
100
AcDbVisualStyle
  2
Thicken
 70
    13
 71
     2
 72
     2
 73
     0
 90
        0
 40
-0.6
 41
-30.0
 62
     5
 63
     7
 74
     1
 91
        4
 64
     7
 65
   257
 75
     1
175
     1
 42
1.0
 92
       12
 66
     7
 43
1.0
 76
     1
 77
     6
 78
     2
 67
     7
 79
     5
170
     0
171
     0
290
     0
174
     0
 93
        1
 44
0.0
173
     0
291
     1
 45
0.0
1001
ACAD
1000
AcDbSavedByObjectVersion
1070
     0
  0
DICTIONARYVAR
  5
219
102
{ACAD_REACTORS
330
218
102
}
330
218
100
DictionaryVariables
280
     0
  1
1:1
  0
DICTIONARYVAR
  5
21D
102
{ACAD_REACTORS
330
218
102
}
330
218
100
DictionaryVariables
280
     0
  1
80.000000
  0
DICTIONARYVAR
  5
21C
102
{ACAD_REACTORS
330
218
102
}
330
218
100
DictionaryVariables
280
     0
  1
5.000000
  0
ENDSEC
  0
EOF
