  0
SECTION
  2
HEADER
  9
$ACADVER
  1
AC1027
  9
$ACADMAINTVER
 70
    55
  9
$DWGCODEPAGE
  3
ANSI_1252
  9
$LASTSAVEDBY
  1
danica
  9
$REQUIREDVERSIONS
160
                 0
  9
$INSBASE
 10
0.0
 20
0.0
 30
0.0
  9
$EXTMIN
 10
-1.287488272601336
 20
-0.0004485706803976
 30
-0.0000000000022887
  9
$EXTMAX
 10
23.39995885346771
 20
17.20533146258133
 30
0.0000000000000001
  9
$LIMMIN
 10
0.0
 20
0.0
  9
$LIMMAX
 10
12.0
 20
9.0
  9
$ORTHOMODE
 70
     0
  9
$REGENMODE
 70
     1
  9
$FILLMODE
 70
     1
  9
$QTEXTMODE
 70
     0
  9
$MIRRTEXT
 70
     0
  9
$LTSCALE
 40
1.0
  9
$ATTMODE
 70
     1
  9
$TEXTSIZE
 40
0.2
  9
$TRACEWID
 40
0.05
  9
$TEXTSTYLE
  7
Standard
  9
$CLAYER
  8
7052807
  9
$CELTYPE
  6
ByLayer
  9
$CECOLOR
 62
   256
  9
$CELTSCALE
 40
1.0
  9
$DISPSILH
 70
     0
  9
$DIMSCALE
 40
1.0
  9
$DIMASZ
 40
0.18
  9
$DIMEXO
 40
0.0625
  9
$DIMDLI
 40
0.38
  9
$DIMRND
 40
0.0
  9
$DIMDLE
 40
0.0
  9
$DIMEXE
 40
0.18
  9
$DIMTP
 40
0.0
  9
$DIMTM
 40
0.0
  9
$DIMTXT
 40
0.18
  9
$DIMCEN
 40
0.09
  9
$DIMTSZ
 40
0.0
  9
$DIMTOL
 70
     0
  9
$DIMLIM
 70
     0
  9
$DIMTIH
 70
     1
  9
$DIMTOH
 70
     1
  9
$DIMSE1
 70
     0
  9
$DIMSE2
 70
     0
  9
$DIMTAD
 70
     0
  9
$DIMZIN
 70
     0
  9
$DIMBLK
  1

  9
$DIMASO
 70
     1
  9
$DIMSHO
 70
     1
  9
$DIMPOST
  1

  9
$DIMAPOST
  1

  9
$DIMALT
 70
     0
  9
$DIMALTD
 70
     2
  9
$DIMALTF
 40
25.4
  9
$DIMLFAC
 40
1.0
  9
$DIMTOFL
 70
     0
  9
$DIMTVP
 40
0.0
  9
$DIMTIX
 70
     0
  9
$DIMSOXD
 70
     0
  9
$DIMSAH
 70
     0
  9
$DIMBLK1
  1

  9
$DIMBLK2
  1

  9
$DIMSTYLE
  2
Standard
  9
$DIMCLRD
 70
     0
  9
$DIMCLRE
 70
     0
  9
$DIMCLRT
 70
     0
  9
$DIMTFAC
 40
1.0
  9
$DIMGAP
 40
0.09
  9
$DIMJUST
 70
     0
  9
$DIMSD1
 70
     0
  9
$DIMSD2
 70
     0
  9
$DIMTOLJ
 70
     1
  9
$DIMTZIN
 70
     0
  9
$DIMALTZ
 70
     0
  9
$DIMALTTZ
 70
     0
  9
$DIMUPT
 70
     0
  9
$DIMDEC
 70
     4
  9
$DIMTDEC
 70
     4
  9
$DIMALTU
 70
     4
  9
$DIMALTTD
 70
     2
  9
$DIMTXSTY
  7
Standard
  9
$DIMAUNIT
 70
     0
  9
$DIMADEC
 70
     0
  9
$DIMALTRND
 40
0.0
  9
$DIMAZIN
 70
     0
  9
$DIMDSEP
 70
    46
  9
$DIMATFIT
 70
     3
  9
$DIMFRAC
 70
     0
  9
$DIMLDRBLK
  1

  9
$DIMLUNIT
 70
     4
  9
$DIMLWD
 70
    -2
  9
$DIMLWE
 70
    -2
  9
$DIMTMOVE
 70
     0
  9
$DIMFXL
 40
1.0
  9
$DIMFXLON
 70
     0
  9
$DIMJOGANG
 40
0.7853981633974483
  9
$DIMTFILL
 70
     0
  9
$DIMTFILLCLR
 70
     0
  9
$DIMARCSYM
 70
     0
  9
$DIMLTYPE
  6

  9
$DIMLTEX1
  6

  9
$DIMLTEX2
  6

  9
$DIMTXTDIRECTION
 70
     0
  9
$LUNITS
 70
     4
  9
$LUPREC
 70
     4
  9
$SKETCHINC
 40
0.1
  9
$FILLETRAD
 40
0.0
  9
$AUNITS
 70
     0
  9
$AUPREC
 70
     0
  9
$MENU
  1
.
  9
$ELEVATION
 40
0.0
  9
$PELEVATION
 40
0.0
  9
$THICKNESS
 40
0.0
  9
$LIMCHECK
 70
     0
  9
$CHAMFERA
 40
0.0
  9
$CHAMFERB
 40
0.0
  9
$CHAMFERC
 40
0.0
  9
$CHAMFERD
 40
0.0
  9
$SKPOLY
 70
     0
  9
$TDCREATE
 40
2458528.435518495
  9
$TDUCREATE
 40
2458528.643851829
  9
$TDUPDATE
 40
2458547.700847882
  9
$TDUUPDATE
 40
2458547.909181215
  9
$TDINDWG
 40
0.0056331019
  9
$TDUSRTIMER
 40
0.0056331019
  9
$USRTIMER
 70
     1
  9
$ANGBASE
 50
0.0
  9
$ANGDIR
 70
     0
  9
$PDMODE
 70
     0
  9
$PDSIZE
 40
0.0
  9
$PLINEWID
 40
0.0
  9
$SPLFRAME
 70
     0
  9
$SPLINETYPE
 70
     6
  9
$SPLINESEGS
 70
     8
  9
$HANDSEED
  5
5E7
  9
$SURFTAB1
 70
     6
  9
$SURFTAB2
 70
     6
  9
$SURFTYPE
 70
     6
  9
$SURFU
 70
     6
  9
$SURFV
 70
     6
  9
$UCSBASE
  2

  9
$UCSNAME
  2

  9
$UCSORG
 10
0.0
 20
0.0
 30
0.0
  9
$UCSXDIR
 10
1.0
 20
0.0
 30
0.0
  9
$UCSYDIR
 10
0.0
 20
1.0
 30
0.0
  9
$UCSORTHOREF
  2

  9
$UCSORTHOVIEW
 70
     0
  9
$UCSORGTOP
 10
0.0
 20
0.0
 30
0.0
  9
$UCSORGBOTTOM
 10
0.0
 20
0.0
 30
0.0
  9
$UCSORGLEFT
 10
0.0
 20
0.0
 30
0.0
  9
$UCSORGRIGHT
 10
0.0
 20
0.0
 30
0.0
  9
$UCSORGFRONT
 10
0.0
 20
0.0
 30
0.0
  9
$UCSORGBACK
 10
0.0
 20
0.0
 30
0.0
  9
$PUCSBASE
  2

  9
$PUCSNAME
  2

  9
$PUCSORG
 10
0.0
 20
0.0
 30
0.0
  9
$PUCSXDIR
 10
1.0
 20
0.0
 30
0.0
  9
$PUCSYDIR
 10
0.0
 20
1.0
 30
0.0
  9
$PUCSORTHOREF
  2

  9
$PUCSORTHOVIEW
 70
     0
  9
$PUCSORGTOP
 10
0.0
 20
0.0
 30
0.0
  9
$PUCSORGBOTTOM
 10
0.0
 20
0.0
 30
0.0
  9
$PUCSORGLEFT
 10
0.0
 20
0.0
 30
0.0
  9
$PUCSORGRIGHT
 10
0.0
 20
0.0
 30
0.0
  9
$PUCSORGFRONT
 10
0.0
 20
0.0
 30
0.0
  9
$PUCSORGBACK
 10
0.0
 20
0.0
 30
0.0
  9
$USERI1
 70
     0
  9
$USERI2
 70
     0
  9
$USERI3
 70
     0
  9
$USERI4
 70
     0
  9
$USERI5
 70
     0
  9
$USERR1
 40
0.0
  9
$USERR2
 40
0.0
  9
$USERR3
 40
0.0
  9
$USERR4
 40
0.0
  9
$USERR5
 40
0.0
  9
$WORLDVIEW
 70
     1
  9
$SHADEDGE
 70
     3
  9
$SHADEDIF
 70
    70
  9
$TILEMODE
 70
     1
  9
$MAXACTVP
 70
    64
  9
$PINSBASE
 10
0.0
 20
0.0
 30
0.0
  9
$PLIMCHECK
 70
     0
  9
$PEXTMIN
 10
1.000000000000000E+20
 20
1.000000000000000E+20
 30
1.000000000000000E+20
  9
$PEXTMAX
 10
-1.000000000000000E+20
 20
-1.000000000000000E+20
 30
-1.000000000000000E+20
  9
$PLIMMIN
 10
0.0
 20
0.0
  9
$PLIMMAX
 10
12.0
 20
9.0
  9
$UNITMODE
 70
     0
  9
$VISRETAIN
 70
     1
  9
$PLINEGEN
 70
     0
  9
$PSLTSCALE
 70
     1
  9
$TREEDEPTH
 70
  3020
  9
$CMLSTYLE
  2
Standard
  9
$CMLJUST
 70
     0
  9
$CMLSCALE
 40
1.0
  9
$PROXYGRAPHICS
 70
     1
  9
$MEASUREMENT
 70
     0
  9
$CELWEIGHT
370
    -1
  9
$ENDCAPS
280
     0
  9
$JOINSTYLE
280
     0
  9
$LWDISPLAY
290
     0
  9
$INSUNITS
 70
     1
  9
$HYPERLINKBASE
  1

  9
$STYLESHEET
  1

  9
$XEDIT
290
     1
  9
$CEPSNTYPE
380
     0
  9
$PSTYLEMODE
290
     1
  9
$FINGERPRINTGUID
  2
{0331CF1F-9B4D-45FE-A056-6F6D9D4847AA}
  9
$VERSIONGUID
  2
{5B363E8F-AD12-4EE5-BFBD-C1DB97010849}
  9
$EXTNAMES
290
     1
  9
$PSVPSCALE
 40
0.0
  9
$OLESTARTUP
290
     0
  9
$SORTENTS
280
   127
  9
$INDEXCTL
280
     0
  9
$HIDETEXT
280
     1
  9
$XCLIPFRAME
280
     2
  9
$HALOGAP
280
     0
  9
$OBSCOLOR
 70
   257
  9
$OBSLTYPE
280
     0
  9
$INTERSECTIONDISPLAY
280
     0
  9
$INTERSECTIONCOLOR
 70
   257
  9
$DIMASSOC
280
     2
  9
$PROJECTNAME
  1

  9
$CAMERADISPLAY
290
     0
  9
$LENSLENGTH
 40
50.0
  9
$CAMERAHEIGHT
 40
0.0
  9
$STEPSPERSEC
 40
2.0
  9
$STEPSIZE
 40
6.0
  9
$3DDWFPREC
 40
2.0
  9
$PSOLWIDTH
 40
0.25
  9
$PSOLHEIGHT
 40
4.0
  9
$LOFTANG1
 40
1.570796326794896
  9
$LOFTANG2
 40
1.570796326794896
  9
$LOFTMAG1
 40
0.0
  9
$LOFTMAG2
 40
0.0
  9
$LOFTPARAM
 70
     7
  9
$LOFTNORMALS
280
     1
  9
$LATITUDE
 40
0.0
  9
$LONGITUDE
 40
0.0
  9
$NORTHDIRECTION
 40
0.0
  9
$TIMEZONE
 70
     0
  9
$LIGHTGLYPHDISPLAY
280
     1
  9
$TILEMODELIGHTSYNCH
280
     1
  9
$CMATERIAL
347
11
  9
$SOLIDHIST
280
     0
  9
$SHOWHIST
280
     1
  9
$DWFFRAME
280
     2
  9
$DGNFRAME
280
     0
  9
$REALWORLDSCALE
290
     1
  9
$INTERFERECOLOR
 62
     1
  9
$INTERFEREOBJVS
345
33
  9
$INTERFEREVPVS
346
30
  9
$CSHADOW
280
     0
  9
$SHADOWPLANELOCATION
 40
0.0
  0
ENDSEC
  0
SECTION
  2
CLASSES
  0
CLASS
  1
ACDBDICTIONARYWDFLT
  2
AcDbDictionaryWithDefault
  3
ObjectDBX Classes
 90
        0
 91
        1
280
     0
281
     0
  0
CLASS
  1
MATERIAL
  2
AcDbMaterial
  3
ObjectDBX Classes
 90
     1153
 91
        3
280
     0
281
     0
  0
CLASS
  1
VISUALSTYLE
  2
AcDbVisualStyle
  3
ObjectDBX Classes
 90
     4095
 91
       24
280
     0
281
     0
  0
CLASS
  1
SCALE
  2
AcDbScale
  3
ObjectDBX Classes
 90
     1153
 91
       17
280
     0
281
     0
  0
CLASS
  1
TABLESTYLE
  2
AcDbTableStyle
  3
ObjectDBX Classes
 90
     4095
 91
        1
280
     0
281
     0
  0
CLASS
  1
MLEADERSTYLE
  2
AcDbMLeaderStyle
  3
ACDB_MLEADERSTYLE_CLASS
 90
     4095
 91
        1
280
     0
281
     0
  0
CLASS
  1
ACDBSECTIONVIEWSTYLE
  2
AcDbSectionViewStyle
  3
ObjectDBX Classes
 90
     1025
 91
        1
280
     0
281
     0
  0
CLASS
  1
ACDBDETAILVIEWSTYLE
  2
AcDbDetailViewStyle
  3
ObjectDBX Classes
 90
     1025
 91
        1
280
     0
281
     0
  0
CLASS
  1
RASTERVARIABLES
  2
AcDbRasterVariables
  3
ISM
 90
        0
 91
        1
280
     0
281
     0
  0
CLASS
  1
DICTIONARYVAR
  2
AcDbDictionaryVar
  3
ObjectDBX Classes
 90
        0
 91
        5
280
     0
281
     0
  0
CLASS
  1
SORTENTSTABLE
  2
AcDbSortentsTable
  3
ObjectDBX Classes
 90
        0
 91
        3
280
     0
281
     0
  0
CLASS
  1
EXACXREFPANELOBJECT
  2
ExAcXREFPanelObject
  3
EXAC_ESW
 90
     1025
 91
        1
280
     0
281
     0
  0
CLASS
  1
NPOCOLLECTION
  2
AcDbImpNonPersistentObjectsCollection
  3
ObjectDBX Classes
 90
     1153
 91
        1
280
     0
281
     0
  0
CLASS
  1
CELLSTYLEMAP
  2
AcDbCellStyleMap
  3
ObjectDBX Classes
 90
     1152
 91
        1
280
     0
281
     0
  0
ENDSEC
  0
SECTION
  2
TABLES
  0
TABLE
  2
VPORT
  5
8
330
0
100
AcDbSymbolTable
 70
     1
  0
VPORT
  5
57
330
8
100
AcDbSymbolTableRecord
100
AcDbViewportTableRecord
  2
*Active
 70
     0
 10
0.0
 20
0.0
 11
1.0
 21
1.0
 12
11.05623529043318
 22
8.602441445950464
 13
0.0
 23
0.0
 14
1.0
 24
1.0
 15
0.0
 25
0.0
 16
0.0
 26
0.0
 36
1.0
 17
0.0
 27
0.0
 37
0.0
 40
17.33121706874115
 41
2.329683698296836
 42
50.0
 43
0.0
 44
0.0
 50
0.0
 51
0.0
 71
     0
 72
  1000
 73
     1
 74
     1
 75
     0
 76
     0
 77
     0
 78
     0
281
     0
 65
     1
110
0.0
120
0.0
130
0.0
111
1.0
121
0.0
131
0.0
112
0.0
122
1.0
132
0.0
 79
     0
146
0.0
348
2F
 60
     3
 61
     5
292
     1
282
     1
141
0.0
142
0.0
 63
   250
421
  3355443
1001
ACAD_NAV_VCDISPLAY
1070
     3
  0
ENDTAB
  0
TABLE
  2
LTYPE
  5
5
330
0
100
AcDbSymbolTable
 70
     2
  0
LTYPE
  5
5B
330
5
100
AcDbSymbolTableRecord
100
AcDbLinetypeTableRecord
  2
ByBlock
 70
     0
  3

 72
    65
 73
     0
 40
0.0
  0
LTYPE
  5
5C
330
5
100
AcDbSymbolTableRecord
100
AcDbLinetypeTableRecord
  2
ByLayer
 70
     0
  3

 72
    65
 73
     0
 40
0.0
  0
LTYPE
  5
5D
330
5
100
AcDbSymbolTableRecord
100
AcDbLinetypeTableRecord
  2
Continuous
 70
     0
  3
Solid line
 72
    65
 73
     0
 40
0.0
  0
ENDTAB
  0
TABLE
  2
LAYER
  5
2
330
0
100
AcDbSymbolTable
 70
     3
  0
LAYER
  5
54
330
2
100
AcDbSymbolTableRecord
100
AcDbLayerTableRecord
  2
0
 70
     0
 62
     7
  6
Continuous
370
    -3
390
F
347
21
348
0
  0
LAYER
  5
8B
330
2
100
AcDbSymbolTableRecord
100
AcDbLayerTableRecord
  2
7052807
 70
     0
 62
     7
  6
Continuous
370
     9
390
F
347
21
348
0
  0
ENDTAB
  0
TABLE
  2
STYLE
  5
3
330
0
100
AcDbSymbolTable
 70
     3
  0
STYLE
  5
55
330
3
100
AcDbSymbolTableRecord
100
AcDbTextStyleTableRecord
  2
Standard
 70
     0
 40
0.0
 41
1.0
 50
0.0
 71
     0
 42
0.2
  3
txt
  4

  0
ENDTAB
  0
TABLE
  2
VIEW
  5
6
330
0
100
AcDbSymbolTable
 70
     0
  0
ENDTAB
  0
TABLE
  2
UCS
  5
7
330
0
100
AcDbSymbolTable
 70
     0
  0
ENDTAB
  0
TABLE
  2
APPID
  5
9
330
0
100
AcDbSymbolTable
 70
     4
  0
APPID
  5
56
330
9
100
AcDbSymbolTableRecord
100
AcDbRegAppTableRecord
  2
ACAD
 70
     0
  0
APPID
  5
5E
330
9
100
AcDbSymbolTableRecord
100
AcDbRegAppTableRecord
  2
AcadAnnotative
 70
     0
  0
APPID
  5
78
330
9
100
AcDbSymbolTableRecord
100
AcDbRegAppTableRecord
  2
REVIT
 70
     0
  0
APPID
  5
23A
330
9
100
AcDbSymbolTableRecord
100
AcDbRegAppTableRecord
  2
ACAD_NAV_VCDISPLAY
 70
     0
  0
ENDTAB
  0
TABLE
  2
DIMSTYLE
  5
A
330
0
100
AcDbSymbolTable
 70
     3
100
AcDbDimStyleTable
 71
     1
340
58
  0
DIMSTYLE
105
58
330
A
100
AcDbSymbolTableRecord
100
AcDbDimStyleTableRecord
  2
Standard
 70
     0
340
55
  0
ENDTAB
  0
TABLE
  2
BLOCK_RECORD
  5
1
330
0
100
AcDbSymbolTable
 70
    18
  0
BLOCK_RECORD
  5
70
102
{ACAD_XDICTIONARY
360
13F
102
}
330
1
100
AcDbSymbolTableRecord
100
AcDbBlockTableRecord
  2
*Model_Space
340
73
 70
     0
280
     1
281
     0
  0
BLOCK_RECORD
  5
6C
330
1
100
AcDbSymbolTableRecord
100
AcDbBlockTableRecord
  2
*Paper_Space
340
6F
 70
     0
280
     1
281
     0
  0
BLOCK_RECORD
  5
74
330
1
100
AcDbSymbolTableRecord
100
AcDbBlockTableRecord
  2
*Paper_Space0
340
77
 70
     0
280
     1
281
     0
  0
BLOCK_RECORD
  5
47C
330
1
100
AcDbSymbolTableRecord
100
AcDbBlockTableRecord
  2
AMSTN_Delancey_7052807_Side View
340
0
310
2800000020000000200000000100080000000000000400000000000000000000000000000000000000000000000080000080000000808000800000008000800080800000C0C0C000C0DCC000F0CAA6000020400000206000002080000020A0000020C0000020E00000400000004020000040400000406000004080000040A0
310
000040C0000040E00000600000006020000060400000606000006080000060A0000060C0000060E00000800000008020000080400000806000008080000080A0000080C0000080E00000A0000000A0200000A0400000A0600000A0800000A0A00000A0C00000A0E00000C0000000C0200000C0400000C0600000C0800000C0
310
A00000C0C00000C0E00000E0000000E0200000E0400000E0600000E0800000E0A00000E0C00000E0E00040000000400020004000400040006000400080004000A0004000C0004000E00040200000402020004020400040206000402080004020A0004020C0004020E000404000004040200040404000404060004040800040
310
40A0004040C0004040E00040600000406020004060400040606000406080004060A0004060C0004060E00040800000408020004080400040806000408080004080A0004080C0004080E00040A0000040A0200040A0400040A0600040A0800040A0A00040A0C00040A0E00040C0000040C0200040C0400040C0600040C08000
310
40C0A00040C0C00040C0E00040E0000040E0200040E0400040E0600040E0800040E0A00040E0C00040E0E00080000000800020008000400080006000800080008000A0008000C0008000E00080200000802020008020400080206000802080008020A0008020C0008020E00080400000804020008040400080406000804080
310
008040A0008040C0008040E00080600000806020008060400080606000806080008060A0008060C0008060E00080800000808020008080400080806000808080008080A0008080C0008080E00080A0000080A0200080A0400080A0600080A0800080A0A00080A0C00080A0E00080C0000080C0200080C0400080C0600080C0
310
800080C0A00080C0C00080C0E00080E0000080E0200080E0400080E0600080E0800080E0A00080E0C00080E0E000C0000000C0002000C0004000C0006000C0008000C000A000C000C000C000E000C0200000C0202000C0204000C0206000C0208000C020A000C020C000C020E000C0400000C0402000C0404000C0406000C0
310
408000C040A000C040C000C040E000C0600000C0602000C0604000C0606000C0608000C060A000C060C000C060E000C0800000C0802000C0804000C0806000C0808000C080A000C080C000C080E000C0A00000C0A02000C0A04000C0A06000C0A08000C0A0A000C0A0C000C0A0E000C0C00000C0C02000C0C04000C0C06000
310
C0C08000C0C0A000F0FBFF00A4A0A000808080000000FF0000FF000000FFFF00FF000000FF00FF00FFFF0000FFFFFF0049494949494949494949494949494949494949494949494949494949494949494949495D5D5D5D5D5D5D5D5D5D494949494949494949494949494949494949494949495D5D5D5D5D5D5D5D5D5D4949
310
4949494949494949494949494949494949494949495D4949494949495D5D49494949494949494949494949494949494949494949495D5D49494949495D494949494949494949494949494949494949494949494949495D494949495D5D494949494949494949494949494949494949494949494949495D494949495DFD4949
310
49494949494949494949494949494949494949494949FDFD5D4949495DFD494949494949494949494949494949494949494949494949FDFD5D4949495DFDFD4949494949494949494949494949494949494949494949FD495D4949495DFD494949494949494949494949494949494949494949494949FD495D4949495DFD49
310
4949494949494949494949494949494949494949494949FD495D4949495DFD494949494949494949494949494949494949494949494949FD495D49495D49FD49494949494949494949494949494949494949494949494949FD5D4949495DFD49494949494949494949494949494949494949494949494949FD495D5D5D49FD
310
49494949494949494949494949494949494949494949494949FD5D5D5D5D49FD49494949494949494949494949494949494949494949494949FD5D5D5D5D49FD49494949494949494949494949494949494949494949494949FD5D5D5D5D49FD49494949494949494949494949494949494949494949494949FD495D5D5D49
310
FD4949494949494949494949494949494949494949494949494949FD49494949FD4949494949494949494949494949494949494949494949494949FD49494949FD49494949494949494949FDFDFDFD49494949494949494949494949FD49494949FD494949494949494949FDFD49FDFDFDFD49494949494949494949FD4949
310
4949FD49494949494949494949FDFDFDFDFDFD4949494949494949494949FD49494949FD4949494949494949FD49494949FD494949494949494949494949FD4949494949FD494949494949FDFD494949FD4949494949494949494949494949FD4949494949FDFD494949FDFD49494949FD4949494949494949494949494949
310
FDFD494949494949FDFDFD4949494949FD4949494949494949494949494949494949FDFD494949494949494949494949FD49494949494949494949494949494949494949FD49494949494949494949FD494949494949494949494949494949494949494949FDFD4949494949FDFDFD49494949494949494949494949494949
310
4949494949494949FDFDFDFDFD49494949494949494949494949494949494949494949494949494949494949494949494949494949494949
102
{BLKREFS
331
4E6
102
}
 70
     1
280
     1
281
     0
  0
BLOCK_RECORD
  5
4E7
330
1
100
AcDbSymbolTableRecord
100
AcDbBlockTableRecord
  2
AMSTN_Delancey_7052807_Front View
340
0
310
2800000020000000200000000100080000000000000400000000000000000000000000000000000000000000000080000080000000808000800000008000800080800000C0C0C000C0DCC000F0CAA6000020400000206000002080000020A0000020C0000020E00000400000004020000040400000406000004080000040A0
310
000040C0000040E00000600000006020000060400000606000006080000060A0000060C0000060E00000800000008020000080400000806000008080000080A0000080C0000080E00000A0000000A0200000A0400000A0600000A0800000A0A00000A0C00000A0E00000C0000000C0200000C0400000C0600000C0800000C0
310
A00000C0C00000C0E00000E0000000E0200000E0400000E0600000E0800000E0A00000E0C00000E0E00040000000400020004000400040006000400080004000A0004000C0004000E00040200000402020004020400040206000402080004020A0004020C0004020E000404000004040200040404000404060004040800040
310
40A0004040C0004040E00040600000406020004060400040606000406080004060A0004060C0004060E00040800000408020004080400040806000408080004080A0004080C0004080E00040A0000040A0200040A0400040A0600040A0800040A0A00040A0C00040A0E00040C0000040C0200040C0400040C0600040C08000
310
40C0A00040C0C00040C0E00040E0000040E0200040E0400040E0600040E0800040E0A00040E0C00040E0E00080000000800020008000400080006000800080008000A0008000C0008000E00080200000802020008020400080206000802080008020A0008020C0008020E00080400000804020008040400080406000804080
310
008040A0008040C0008040E00080600000806020008060400080606000806080008060A0008060C0008060E00080800000808020008080400080806000808080008080A0008080C0008080E00080A0000080A0200080A0400080A0600080A0800080A0A00080A0C00080A0E00080C0000080C0200080C0400080C0600080C0
310
800080C0A00080C0C00080C0E00080E0000080E0200080E0400080E0600080E0800080E0A00080E0C00080E0E000C0000000C0002000C0004000C0006000C0008000C000A000C000C000C000E000C0200000C0202000C0204000C0206000C0208000C020A000C020C000C020E000C0400000C0402000C0404000C0406000C0
310
408000C040A000C040C000C040E000C0600000C0602000C0604000C0606000C0608000C060A000C060C000C060E000C0800000C0802000C0804000C0806000C0808000C080A000C080C000C080E000C0A00000C0A02000C0A04000C0A06000C0A08000C0A0A000C0A0C000C0A0E000C0C00000C0C02000C0C04000C0C06000
310
C0C08000C0C0A000F0FBFF00A4A0A000808080000000FF0000FF000000FFFF00FF000000FF00FF00FFFF0000FFFFFF0049494949494949494949494949494949494949494949494949494949494949494949494949494949494949494949494949494949494949494949494949494949494949494949494949494949494949
310
49494949494949494949494949494949494949494949494949494949494949494949494949494949494949494949494949494949494949494949494949494949494949494949494949494949494949494949494949494949494949494949494949494949494949494949494949494949494949494949494949494949494949
310
494949494949494949494949494949494949494949494949494949494949494949494949494949494949494949494949494949494949495D5D5D5D5D5D4949FDFDFDFDFDFD49495D5D5D5D5D5D49494949494949494949495D49495D5D4949FDFD4949FDFD49495D5D49495D4949494949494949494949495D49495D494949
310
49FD4949FD494949495D49495D4949494949494949494949495D5D495D494949FDFDFDFDFDFD4949495D495D5D494949494949494949494949495D495D49494949FD4949FD494949495D495D49494949494949494949494949495D495D49494949FD4949FD494949495D495D49494949494949494949494949495D5D5D4949
310
4949FD4949FD494949495D5D5D4949494949494949495D5D5D5D5D5D5D4949494949FD4949FD49494949495D5D5D5D5D5D5D4949495D5D495D5D5D5D5D4949494949FD4949FD49494949495D5D5D5D5D495D5D4949495D5D49494949494949494949FD4949FD494949494949494949495D5D49494949494949494949494949
310
494949FDFDFDFD49494949494949494949494949494949494949494949494949494949FDFDFDFD49494949494949494949494949494949494949494949494949494949FD4949FD49494949494949494949494949494949494949494949494949494949FD4949FD494949494949494949494949494949494949494949494949
310
49494949FDFDFDFD4949494949494949494949494949494949494949494949494949494949FDFD49494949494949494949494949494949494949494949494949494949494949494949494949494949494949494949494949494949494949494949494949494949494949494949494949494949494949494949494949494949
310
49494949494949494949494949494949494949494949494949494949494949494949494949494949494949494949494949494949494949494949494949494949494949494949494949494949494949494949494949494949494949494949494949494949494949494949494949494949494949494949494949494949494949
310
4949494949494949494949494949494949494949494949494949494949494949494949494949494949494949494949494949494949494949
102
{BLKREFS
331
59F
102
}
 70
     1
280
     1
281
     0
  0
BLOCK_RECORD
  5
5A0
330
1
100
AcDbSymbolTableRecord
100
AcDbBlockTableRecord
  2
AMSTN_Delancey_7052807_Plan View
340
0
310
2800000020000000200000000100080000000000000400000000000000000000000000000000000000000000000080000080000000808000800000008000800080800000C0C0C000C0DCC000F0CAA6000020400000206000002080000020A0000020C0000020E00000400000004020000040400000406000004080000040A0
310
000040C0000040E00000600000006020000060400000606000006080000060A0000060C0000060E00000800000008020000080400000806000008080000080A0000080C0000080E00000A0000000A0200000A0400000A0600000A0800000A0A00000A0C00000A0E00000C0000000C0200000C0400000C0600000C0800000C0
310
A00000C0C00000C0E00000E0000000E0200000E0400000E0600000E0800000E0A00000E0C00000E0E00040000000400020004000400040006000400080004000A0004000C0004000E00040200000402020004020400040206000402080004020A0004020C0004020E000404000004040200040404000404060004040800040
310
40A0004040C0004040E00040600000406020004060400040606000406080004060A0004060C0004060E00040800000408020004080400040806000408080004080A0004080C0004080E00040A0000040A0200040A0400040A0600040A0800040A0A00040A0C00040A0E00040C0000040C0200040C0400040C0600040C08000
310
40C0A00040C0C00040C0E00040E0000040E0200040E0400040E0600040E0800040E0A00040E0C00040E0E00080000000800020008000400080006000800080008000A0008000C0008000E00080200000802020008020400080206000802080008020A0008020C0008020E00080400000804020008040400080406000804080
310
008040A0008040C0008040E00080600000806020008060400080606000806080008060A0008060C0008060E00080800000808020008080400080806000808080008080A0008080C0008080E00080A0000080A0200080A0400080A0600080A0800080A0A00080A0C00080A0E00080C0000080C0200080C0400080C0600080C0
310
800080C0A00080C0C00080C0E00080E0000080E0200080E0400080E0600080E0800080E0A00080E0C00080E0E000C0000000C0002000C0004000C0006000C0008000C000A000C000C000C000E000C0200000C0202000C0204000C0206000C0208000C020A000C020C000C020E000C0400000C0402000C0404000C0406000C0
310
408000C040A000C040C000C040E000C0600000C0602000C0604000C0606000C0608000C060A000C060C000C060E000C0800000C0802000C0804000C0806000C0808000C080A000C080C000C080E000C0A00000C0A02000C0A04000C0A06000C0A08000C0A0A000C0A0C000C0A0E000C0C00000C0C02000C0C04000C0C06000
310
C0C08000C0C0A000F0FBFF00A4A0A000808080000000FF0000FF000000FFFF00FF000000FF00FF00FFFF0000FFFFFF0049494949494949494949494949494949494949494949494949494949494949494949494949494949494949494949494949494949494949494949494949494949494949494949494949494949494949
310
49494949494949494949494949494949494949494949494949494949494949494949494949494949494949494949494949494949494949494949494949494949494949494949494949494949494949494949494949494949494949494949494949494949494949494949494949494949494949494949494949494949494949
310
494949494949494949494949494949494949494949494949494949494949494949494949494949494949494949494949494949494949494949494949494949494949494949494949494949494949494949494949494949494949494949494949FDFDFDFD494949494949494949494949494949494949494949494949494949
310
49FDFDFDFD49494949494949494949494949494949494949494949494949494949FD4949FD49494949494949494949494949494949494949494949494949494949FD4949FD49494949494949494949494949494949494949494949494949494949FD4949FD4949494949494949494949494949494949494949494949494949
310
4949FD4949FD49494949494949494949494949494949494949494949494949494949FD4949FD49494949494949494949494949494949494949494949494949494949FD4949FD4949494949494949494949494949494949494949495D5D5D49494949FD4949FD494949495D5D5D494949494949494949494949495D5D5D5D5D
310
4949FDFD4949FDFD49495D5D5D5D5D494949494949495D5D5D5D5D5D5D5D5D5D4949FDFD4949FDFD49495D5D5D5D5D5D5D5D5D5D49495D5D5D5D5D5D5D5D5D5D4949FDFD4949FDFD49495D5D5D5D5D5D5D5D5D5D4949495D49495D5D5D5D5D5D4949FDFDFDFDFDFD49495D5D5D5D5D5D49495D49494949494949495D5D5D5D
310
49494949FDFDFDFD494949495D5D5D5D494949494949494949494949494949494949494949494949494949494949494949494949494949494949494949494949494949494949494949494949494949494949494949494949494949494949494949494949494949494949494949494949494949494949494949494949494949
310
49494949494949494949494949494949494949494949494949494949494949494949494949494949494949494949494949494949494949494949494949494949494949494949494949494949494949494949494949494949494949494949494949494949494949494949494949494949494949494949494949494949494949
310
4949494949494949494949494949494949494949494949494949494949494949494949494949494949494949494949494949494949494949
102
{BLKREFS
331
5DE
102
}
 70
     1
280
     1
281
     0
  0
ENDTAB
  0
ENDSEC
  0
SECTION
  2
BLOCKS
  0
BLOCK
  5
71
330
70
100
AcDbEntity
  8
0
100
AcDbBlockBegin
  2
*Model_Space
 70
     0
 10
0.0
 20
0.0
 30
0.0
  3
*Model_Space
  1

  0
ENDBLK
  5
72
330
70
100
AcDbEntity
  8
0
100
AcDbBlockEnd
  0
BLOCK
  5
6D
330
6C
100
AcDbEntity
 67
     1
  8
0
100
AcDbBlockBegin
  2
*Paper_Space
 70
     0
 10
0.0
 20
0.0
 30
0.0
  3
*Paper_Space
  1

  0
ENDBLK
  5
6E
330
6C
100
AcDbEntity
 67
     1
  8
0
100
AcDbBlockEnd
  0
BLOCK
  5
75
330
74
100
AcDbEntity
 67
     1
  8
0
100
AcDbBlockBegin
  2
*Paper_Space0
 70
     0
 10
0.0
 20
0.0
 30
0.0
  3
*Paper_Space0
  1

  0
ENDBLK
  5
76
330
74
100
AcDbEntity
 67
     1
  8
0
100
AcDbBlockEnd
  0
BLOCK
  5
47D
330
47C
100
AcDbEntity
  8
0
100
AcDbBlockBegin
  2
AMSTN_Delancey_7052807_Side View
 70
     0
 10
0.0
 20
0.0
 30
0.0
  3
AMSTN_Delancey_7052807_Side View
  1

  0
LWPOLYLINE
  5
47F
330
47C
100
AcDbEntity
  8
7052807
100
AcDbPolyline
 90
       22
 70
   128
 43
0.0
 10
-1.28668038975749
 20
0.0909997752255309
 10
-1.286480925947884
 20
0.0929877600911779
 10
-1.286202123496902
 20
0.0949661783560307
 10
-1.285844428428988
 20
0.0969318649729063
 10
-1.285408412979948
 20
0.0988816752625437
 10
-1.28489477468149
 20
0.1008124899444156
 10
-1.284304335245318
 20
0.102721220126917
 10
-1.283638039248578
 20
0.1046048122489278
 10
-1.282896952622729
 20
0.106460252964867
 10
-1.282082260948283
 20
0.108284573965395
 10
-1.281195267558128
 20
0.1100748567260776
 10
-1.28023739145247
 20
0.1118282371764047
 10
-1.279210165028746
 20
0.1135419102816892
 10
-1.278115231630102
 20
0.1152131345305278
 10
-1.276954342916401
 20
0.1168392363206329
 10
-1.275729356061945
 20
0.1184176142360207
 10
-1.274442230784382
 20
0.1199457432087309
 10
-1.273095026209585
 20
0.1214211785583896
 10
-1.271689897577487
 20
0.1228415599031827
 10
-1.27022909279415
 20
0.1242046149359517
 10
-1.268714948835611
 20
0.1255081630594192
 10
-1.267218402701221
 20
0.1266978541360108
1001
REVIT
1002
{
1070
     2
1000
-2001160
1002
}
  0
LWPOLYLINE
  5
480
330
47C
100
AcDbEntity
  8
7052807
100
AcDbPolyline
 90
       22
 70
   128
 43
0.0
 10
1.267218402701889
 20
0.1266978541359762
 10
1.268781318691752
 20
0.1254532002700355
 10
1.270293211636137
 20
0.1241470420246067
 10
1.271751662828847
 20
0.1227814689742525
 10
1.273154339059096
 20
0.1213586657445415
 10
1.274498996344137
 20
0.1198809085171315
 10
1.275783483519161
 20
0.1183505613883477
 10
1.277005745678691
 20
0.1167700725871365
 10
1.278163827464015
 20
0.11514197055843
 10
1.279255876191316
 20
0.1134688599181617
 10
1.280280144815589
 20
0.1117534172864465
 10
1.281234994725533
 20
0.1099983870055525
 10
1.282118898364986
 20
0.1082065767495437
 10
1.282930441676677
 20
0.1063808530325953
 10
1.283668326364431
 20
0.1045241366231906
 10
1.284331371970152
 20
0.1026393978715045
 10
1.284918517762314
 20
0.1007296519574816
 10
1.285428824432899
 20
0.0987979540671953
 10
1.285861475600096
 20
0.0968473945051991
 10
1.286215779114331
 20
0.0948810937506921
 10
1.286491168165562
 20
0.0929021974654254
 10
1.286687202190052
 20
0.0909138714613156
1001
REVIT
1002
{
1070
     2
1000
-2001160
1002
}
  0
LWPOLYLINE
  5
481
330
47C
100
AcDbEntity
  8
7052807
100
AcDbPolyline
 90
       16
 70
   128
 43
0.0
 10
-1.267218402701221
 20
0.1266978541360108
 10
-1.253126052474282
 20
0.1379205291255156
 10
-1.239493761925044
 20
0.1496977708747477
 10
-1.226343339810319
 20
0.1620107383092572
 10
-1.213695824000218
 20
0.1748397333077713
 10
-1.201571447822041
 20
0.1881642322150027
 10
-1.18998960769128
 20
0.2019629186751057
 10
-1.178968832081483
 20
0.2162137177333067
 10
-1.168526751882651
 20
0.2308938311511208
 10
-1.15868007219558
 20
0.2459797738786724
 10
-1.149444545607254
 20
0.2614474116257565
 10
-1.140834946990074
 20
0.2772719994715675
 10
-1.132865049865211
 20
0.2934282214512808
 10
-1.125547604367913
 20
0.3098902310562112
 10
-1.118894316850001
 20
0.3266316925826941
 10
-1.113091337730512
 20
0.3430942508910073
1001
REVIT
1002
{
1070
     2
1000
-2001160
1002
}
  0
LWPOLYLINE
  5
482
330
47C
100
AcDbEntity
  8
7052807
100
AcDbPolyline
 90
       16
 70
   128
 43
0.0
 10
1.113091337731186
 20
0.3430942508909766
 10
1.119090940267684
 20
0.3261075638024717
 10
1.125765030068782
 20
0.3093743843626399
 10
1.133102930014527
 20
0.292921482089032
 10
1.141092901030345
 20
0.2767751781155163
 10
1.149722160867043
 20
0.2609613030840929
 10
1.158976904549695
 20
0.2455051558213661
 10
1.168842326462647
 20
0.2304314628658166
 10
1.179302644035351
 20
0.2157643389106254
 10
1.190341122991104
 20
0.2015272482253038
 10
1.201940104118331
 20
0.1877429671178609
 10
1.21408103152154
 20
0.174433547497582
 10
1.226744482306816
 20
0.1616202815966643
 10
1.239910197654295
 20
0.1493236679072009
 10
1.253557115227954
 20
0.1375633783879553
 10
1.267218402701889
 20
0.1266978541359762
1001
REVIT
1002
{
1070
     2
1000
-2001160
1002
}
  0
LWPOLYLINE
  5
483
330
47C
100
AcDbEntity
  8
7052807
100
AcDbPolyline
 90
       11
 70
   128
 43
0.0
 10
-1.113091337730513
 20
0.3430942508910073
 10
-1.105951424553994
 20
0.3633095018565168
 10
-1.098008828119939
 20
0.3832230624033514
 10
-1.089276254888314
 20
0.4028030750826401
 10
-1.079767675113438
 20
0.4220182160509384
 10
-1.069498300494564
 20
0.4408377451817089
 10
-1.058484559840396
 20
0.4592315552429653
 10
-1.046744072786513
 20
0.4771702200624088
 10
-1.034295621607693
 20
0.4946250416030393
 10
-1.021159121170295
 20
0.5115680958738906
 10
-1.007479469943391
 20
0.5278308434729721
1001
REVIT
1002
{
1070
     2
1000
-2001160
1002
}
  0
LWPOLYLINE
  5
484
330
47C
100
AcDbEntity
  8
7052807
100
AcDbPolyline
 90
       11
 70
   128
 43
0.0
 10
1.00747946994407
 20
0.5278308434729455
 10
1.021277249091895
 20
0.5114218208830827
 10
1.034407805600065
 20
0.4944741597597159
 10
1.046850133379204
 20
0.4770149727453296
 10
1.058584327359083
 20
0.4590721908147235
 10
1.069591615332498
 20
0.4406745185913942
 10
1.079854387986789
 20
0.4218513884262731
 10
1.089356227074981
 20
0.4026329133122366
 10
1.098081931681487
 20
0.3830498387097449
 10
1.106017542540318
 20
0.3631334933606615
 10
1.113091337731186
 20
0.3430942508909766
1001
REVIT
1002
{
1070
     2
1000
-2001160
1002
}
  0
LWPOLYLINE
  5
485
330
47C
100
AcDbEntity
  8
7052807
100
AcDbPolyline
 90
       19
 70
   128
 43
0.0
 10
-1.007479469943391
 20
0.5278308434729721
 10
-1.005846828779845
 20
0.5297724636023235
 10
-1.004293137651307
 20
0.5317778188757626
 10
-1.002820882132146
 20
0.5338437011526377
 10
-1.001432417517128
 20
0.5359668054620039
 10
-1.000129965053447
 20
0.5381437352898723
 10
-0.9989156083872051
 20
0.5403710080129027
 10
-0.9977912902300179
 20
0.5426450604698676
 10
-0.9967588092510929
 20
0.5449622546619381
 10
-0.9958198171997485
 20
0.5473188835727165
 10
-0.9949758162629585
 20
0.549711177098668
 10
-0.9942281566621787
 20
0.5521353080804778
 10
-0.9935780344932755
 20
0.5545873984256961
 10
-0.9930264898130362
 20
0.5570635253128539
 10
-0.9925744049752921
 20
0.5595597274671444
 10
-0.9922225032193438
 20
0.5620720114976176
 10
-0.9919713475129329
 20
0.5645963582857476
 10
-0.991821339651611
 20
0.567128729415173
 10
-0.9917726976105999
 20
0.5696122403439596
1001
REVIT
1002
{
1070
     2
1000
-2001160
1002
}
  0
LWPOLYLINE
  5
486
330
47C
100
AcDbEntity
  8
7052807
100
AcDbPolyline
 90
       19
 70
   128
 43
0.0
 10
0.9917726976112794
 20
0.5696122403439316
 10
0.9918234304325579
 20
0.5670759375078233
 10
0.9919755477347019
 20
0.5645436922152029
 10
0.9922288061624792
 20
0.562019555518356
 10
0.9925828005564303
 20
0.5595075654975434
 10
0.9930369646010397
 20
0.557011740800938
 10
0.993590571730717
 20
0.5545360742156368
 10
0.994242736292154
 20
0.5520845262800637
 10
0.9949924149611717
 20
0.5496610189479458
 10
0.995838408411825
 20
0.5472694293140296
 10
0.9967793632350597
 20
0.5449135834115468
 10
0.9978137741038846
 20
0.5425972500913913
 10
0.998939986181575
 20
0.5403241349927494
 10
1.000156197769048
 20
0.5380978746148734
 10
1.001460463187213
 20
0.5359220304994569
 10
1.002850695889626
 20
0.533800083532931
 10
1.004324671800529
 20
0.5317354283777828
 10
1.005880032872901
 20
0.5297313680418249
 10
1.00747946994407
 20
0.5278308434729455
1001
REVIT
1002
{
1070
     2
1000
-2001160
1002
}
  0
LINE
  5
487
330
47C
100
AcDbEntity
  8
7052807
100
AcDbLine
 10
0.9917726976113046
 20
0.5696122403439316
 30
0.0
 11
0.991772697611306
 21
0.6713114365847299
 31
0.0
1001
REVIT
1002
{
1070
     2
1000
-2001160
1002
}
  0
LINE
  5
488
330
47C
100
AcDbEntity
  8
7052807
100
AcDbLine
 10
-0.9917726976106225
 20
0.6713114365847565
 30
0.0
 11
-0.9917726976106239
 21
0.5696122403439596
 31
0.0
1001
REVIT
1002
{
1070
     2
1000
-2001160
1002
}
  0
LWPOLYLINE
  5
489
330
47C
100
AcDbEntity
  8
7052807
100
AcDbPolyline
 90
       25
 70
   128
 43
0.0
 10
-0.9917726976106026
 20
0.6713114365847565
 10
-0.9917402118067116
 20
0.6729355102014924
 10
-0.9916428063653949
 20
0.6745569856468915
 10
-0.9914806371145814
 20
0.6761732689061377
 10
-0.9912539634904774
 20
0.6777817742708061
 10
-0.990963148122525
 20
0.6793799284754427
 10
-0.9906086562532795
 20
0.6809651748142391
 10
-0.990191054994108
 20
0.6825349772312248
 10
-0.9897110124179423
 20
0.6840868243774016
 10
-0.9891692964904999
 20
0.6856182336283809
 10
-0.9885667738417062
 20
0.6871267550560462
 10
-0.9879044083792679
 20
0.6886099753479104
 10
-0.9871832597466262
 20
0.6900655216679125
 10
-0.9864044816277573
 20
0.6914910654524386
 10
-0.9855693199015215
 20
0.6928843261355353
 10
-0.9846791106485234
 20
0.6942430747973218
 10
-0.9837352780136637
 20
0.6955651377297886
 10
-0.9827393319278202
 20
0.6968483999142716
 10
-0.9816928656922717
 20
0.6980908084050225
 10
-0.9805975534297626
 20
0.6992903756134878
 10
-0.9794551474062574
 20
0.7004451824880311
 10
-0.9782674752276932
 20
0.7015533815839964
 10
-0.9770364369162004
 20
0.7026132000192335
 10
-0.9757640018704696
 20
0.7036229423103272
 10
-0.9751858714141391
 20
0.7040551043801679
1001
REVIT
1002
{
1070
     2
1000
-2001160
1002
}
  0
LWPOLYLINE
  5
48A
330
47C
100
AcDbEntity
  8
7052807
100
AcDbPolyline
 90
       25
 70
   128
 43
0.0
 10
0.9751858714148225
 20
0.7040551043801386
 10
0.9764760507766883
 20
0.7030681354575052
 10
0.9777257299025972
 20
0.7020303625910759
 10
0.9789329095725317
 20
0.7009434459960575
 10
0.9800956585565398
 20
0.6998091245071393
 10
0.9812121167042823
 20
0.6986292127967272
 10
0.9822804979208939
 20
0.6974055984718572
 10
0.9832990930243322
 20
0.6961402390544257
 10
0.9842662724797234
 20
0.6948351588495724
 10
0.9851804890062572
 20
0.6934924457072209
 10
0.9860402800525152
 20
0.6921142476819706
 10
0.9868442701362345
 20
0.6907027695966605
 10
0.9875911730447922
 20
0.6892602695151279
 10
0.9882797938928627
 20
0.6877890551297873
 10
0.9889090310339881
 20
0.6862914800698116
 10
0.9894778778229731
 20
0.6847699401358333
 10
0.9899854242263014
 20
0.6832268694671665
 10
0.9904308582780009
 20
0.6816647366477126
 10
0.9908134673786083
 20
0.680086040756743
 10
0.9911326394351805
 20
0.6784933073709136
 10
0.9913878638405172
 20
0.6768890845238777
 10
0.9915787322900094
 20
0.6752759386299724
 10
0.9917049394348577
 20
0.6736564503785107
 10
0.9917662833705527
 20
0.6720332106052251
 10
0.9917726976112833
 20
0.6713114365847285
1001
REVIT
1002
{
1070
     2
1000
-2001160
1002
}
  0
LWPOLYLINE
  5
48B
330
47C
100
AcDbEntity
  8
7052807
100
AcDbPolyline
 90
       15
 70
   128
 43
0.0
 10
-0.9751858714141391
 20
0.7040551043801679
 10
-0.9584894141626961
 20
0.7168276574935816
 10
-0.942317078191062
 20
0.7302576741355988
 10
-0.9266947357868783
 20
0.7443236691445109
 10
-0.9116473793654023
 20
0.7590031399288879
 10
-0.897199081486978
 20
0.7742726024669264
 10
-0.8833729563460689
 20
0.7901076288758805
 10
-0.8701911227934887
 20
0.8064828864914506
 10
-0.8576746689509436
 20
0.8233721783946561
 10
-0.8458436184745469
 20
0.8407484853213096
 10
-0.8347168985212414
 20
0.8585840088870753
 10
-0.8243123094693761
 20
0.8768502160589569
 10
-0.8146464964419067
 20
0.8955178848020624
 10
-0.805734922677748
 20
0.914557150828624
 10
-0.7935170464479019
 20
0.9436355149807241
1001
REVIT
1002
{
1070
     2
1000
-2001160
1002
}
  0
LWPOLYLINE
  5
48C
330
47C
100
AcDbEntity
  8
7052807
100
AcDbPolyline
 90
        3
 70
   128
 43
0.0
 10
-0.7935170464479017
 20
0.9436355149807246
 10
-0.7836620351469383
 20
0.9735972658238857
 10
-0.7810383399220883
 20
0.9824211349327821
1001
REVIT
1002
{
1070
     2
1000
-2001160
1002
}
  0
LWPOLYLINE
  5
48D
330
47C
100
AcDbEntity
  8
7052807
100
AcDbPolyline
 90
        3
 70
   128
 43
0.0
 10
0.780067192225248
 20
0.985557730810884
 10
0.7872558327794036
 20
0.9623399850562684
 10
0.7942713841181925
 20
0.9425235313573871
1001
REVIT
1002
{
1070
     2
1000
-2001160
1002
}
  0
LWPOLYLINE
  5
48E
330
47C
100
AcDbEntity
  8
7052807
100
AcDbPolyline
 90
       16
 70
   128
 43
0.0
 10
0.7942713841181924
 20
0.9425235313573873
 10
0.8020737705535053
 20
0.9230034759349379
 10
0.8106505099315345
 20
0.903811046713351
 10
0.8199878812988602
 20
0.8849769474852772
 10
0.8300709468531607
 20
0.8665313087917562
 10
0.8408835758404901
 20
0.8485036397198351
 10
0.8524084703610371
 20
0.8309227806943345
 10
0.8646271930420839
 20
0.8138168573393105
 10
0.8775201965338611
 20
0.7972132354830616
 10
0.891066854781142
 20
0.7811384773786431
 10
0.905245496020535
 20
0.7656182992099189
 10
0.9200334374506667
 20
0.7506775299511669
 10
0.9354070215198463
 20
0.7363400716460088
 10
0.9513416537730824
 20
0.7226288611692348
 10
0.967811842197978
 20
0.7095658335327077
 10
0.9751858714148225
 20
0.7040551043801386
1001
REVIT
1002
{
1070
     2
1000
-2001160
1002
}
  0
LWPOLYLINE
  5
48F
330
47C
100
AcDbEntity
  8
7052807
100
AcDbPolyline
 90
       25
 70
   128
 43
0.0
 10
-0.7733963533372563
 20
1.021842027711855
 10
-0.7728319003899724
 20
1.027453185902751
 10
-0.7722797097219964
 20
1.036605947700891
 10
-0.7720939735979355
 20
1.045773470002994
 10
-0.772274989155965
 20
1.054941086729007
 10
-0.772822466809806
 20
1.064094131647824
 10
-0.7737355307120026
 20
1.073217961840118
 10
-0.7750127201550878
 20
1.082297981123896
 10
-0.7766519919084049
 20
1.091319663405273
 10
-0.7786507234868409
 20
1.100268575917119
 10
-0.7810057173462436
 20
1.109130402308415
 10
-0.7837132059988114
 20
1.11789096554736
 10
-0.7867688580402649
 20
1.126536250601588
 10
-0.7901677850791766
 20
1.135052426859245
 10
-0.7939045495573506
 20
1.143425870255003
 10
-0.7979731734487529
 20
1.151643185065672
 10
-0.8023671478230872
 20
1.159691225340484
 10
-0.8070794432586863
 20
1.167557115931827
 10
-0.8121025210880853
 20
1.175228273092719
 10
-0.817428345458293
 20
1.18269242460813
 10
-0.8230483961864315
 20
1.189937629427904
 10
-0.8289536823902155
 20
1.196952296769888
 10
-0.835134756871448
 20
1.20372520466272
 10
-0.841581731229516
 20
1.210245517898579
 10
-0.8422594262669237
 20
1.210901339666283
1001
REVIT
1002
{
1070
     2
1000
-2001160
1002
}
  0
LWPOLYLINE
  5
490
330
47C
100
AcDbEntity
  8
7052807
100
AcDbPolyline
 90
       24
 70
   128
 43
0.0
 10
0.8422594262676204
 20
1.21090133966626
 10
0.8357856839499703
 20
1.204407602416264
 10
0.8295768001646901
 20
1.197660178818461
 10
0.8236427078013418
 20
1.190669863311235
 10
0.8179929001418363
 20
1.183447838908208
 10
0.8126364156732032
 20
1.176005659307808
 10
0.8075818236279326
 20
1.168355230409818
 10
0.8028372102750445
 20
1.160508791268468
 10
0.7984101659837721
 20
1.152478894512567
 10
0.7943077730805949
 20
1.144278386263972
 10
0.7905365945190285
 20
1.135920385586531
 10
0.7871026633802968
 20
1.127418263498383
 10
0.7840114732216876
 20
1.118785621581182
 10
0.7812679692880357
 20
1.11003627022046
 10
0.7788765406003879
 20
1.101184206511967
 10
0.7768410129344962
 20
1.092243591869298
 10
0.7751646427004064
 20
1.083228729368652
 10
0.7738501117328859
 20
1.074154040866959
 10
0.7728995230010644
 20
1.065034043929994
 10
0.7723143972441297
 20
1.05588332860736
 10
0.7720956705384756
 20
1.046716534091524
 10
0.7722436928001688
 20
1.037548325298234
 10
0.7727582272251689
 20
1.028393369405779
 10
0.7733900458443536
 20
1.02184202769083
1001
REVIT
1002
{
1070
     2
1000
-2001160
1002
}
  0
LINE
  5
491
330
47C
100
AcDbEntity
  8
7052807
100
AcDbLine
 10
0.7807793496882187
 20
0.9833279407626504
 30
0.0
 11
0.7810383399227798
 21
0.9824211349327608
 31
0.0
1001
REVIT
1002
{
1070
     2
1000
-2001160
1002
}
  0
LWPOLYLINE
  5
492
330
47C
100
AcDbEntity
  8
7052807
100
AcDbPolyline
 90
       49
 70
   128
 43
0.0
 10
-0.842259426266921
 20
1.210901339666283
 10
-0.8444718370225412
 20
1.213120583718813
 10
-0.8465937319934754
 20
1.215426525445873
 10
-0.8486217166004189
 20
1.217815475832606
 10
-0.8505525465006121
 20
1.22028361306801
 10
-0.8523831327781053
 20
1.222826988659016
 10
-0.8541105468853567
 20
1.225441533747236
 10
-0.8557320253282915
 20
1.228123065618269
 10
-0.8572449740872983
 20
1.230867294393152
 10
-0.8586469727671065
 20
1.233669829891247
 10
-0.8599357784689066
 20
1.236526188653601
 10
-0.8611093293785046
 20
1.23943180111552
 10
-0.8621657480647927
 20
1.242382018916892
 10
-0.8631033444832263
 20
1.245372122338583
 10
-0.8639206186795476
 20
1.248397327852973
 10
-0.8646162631893851
 20
1.251452795776581
 10
-0.8651891651299193
 20
1.25453363801253
 10
-0.8656384079802579
 20
1.257634925870451
 10
-0.8659632730476744
 20
1.260751697951346
 10
-0.8661632406173586
 20
1.263878968084759
 10
-0.8662379907838605
 20
1.267011733305595
 10
-0.8661874039628576
 20
1.270144981857787
 10
-0.8660115610824718
 20
1.273273701212042
 10
-0.8657107434538023
 20
1.276392886084816
 10
-0.8652854323208821
 20
1.279497546445707
 10
-0.8647363080907965
 20
1.282582715500428
 10
-0.8640642492451741
 20
1.285643457636626
 10
-0.863270330934802
 20
1.288674876319803
 10
-0.8623558232596163
 20
1.29167212192674
 10
-0.8613221892368136
 20
1.29463039950384
 10
-0.8601710824603328
 20
1.297544976438047
 10
-0.8589043444554611
 20
1.300411190028009
 10
-0.857524001732782
 20
1.303224454943407
 10
-0.856032262546196
 20
1.305980270560512
 10
-0.854431513360179
 20
1.308674228162208
 10
-0.8527243150319543
 20
1.311302017991014
 10
-0.8509133987146645
 20
1.31385943614377
 10
-0.8490016614881094
 20
1.316342391296984
 10
-0.8469921617240341
 20
1.318746911252079
 10
-0.8448881141933938
 20
1.321069149290066
 10
-0.8426928849233958
 20
1.323305390325468
 10
-0.8404099858125814
 20
1.325452056849667
 10
-0.8380430690125372
 20
1.327505714654154
 10
-0.8355959210852244
 20
1.329463078324535
 10
-0.833072456945301
 20
1.331321016496483
 10
-0.8304767135970763
 20
1.333076556865266
 10
-0.8278128436761818
 20
1.334726890940784
 10
-0.8250851088062274
 20
1.336269378540573
 10
-0.8228439058756324
 20
1.337432013627924
1001
REVIT
1002
{
1070
     2
1000
-2001160
1002
}
  0
LWPOLYLINE
  5
493
330
47C
100
AcDbEntity
  8
7052807
100
AcDbPolyline
 90
       49
 70
   128
 43
0.0
 10
0.8228439058763331
 20
1.3374320136279
 10
0.8256199264726287
 20
1.335978220257022
 10
0.8283355903195939
 20
1.334414578550442
 10
0.8309865529343845
 20
1.332743590001332
 10
0.8335685733423238
 20
1.330967927834914
 10
0.8360775208615644
 20
1.329090432731865
 10
0.8385093817112853
 20
1.32711410828384
 10
0.8408602654328978
 20
1.325042116188362
 10
0.8431264111139448
 20
1.322877771190782
 10
0.8453041934047494
 20
1.320624535781394
 10
0.8473901283182197
 20
1.318286014656186
 10
0.849380878803468
 20
1.315865948950106
 10
0.8512732600843916
 20
1.313368210252027
 10
0.8530642447546247
 20
1.310796794411042
 10
0.8547509676207502
 20
1.308155815143961
 10
0.8563307302860007
 20
1.305449497454229
 10
0.8578010054671068
 20
1.302682170872835
 10
0.8591594410374247
 20
1.299858262531976
 10
0.8604038637898211
 20
1.296982290082598
 10
0.8615322829133575
 20
1.294058854467109
 10
0.862542893178152
 20
1.291092632558863
 10
0.8634340778233678
 20
1.288088369680152
 10
0.8642044111436803
 20
1.285050872010707
 10
0.8648526607701064
 20
1.281984998898833
 10
0.8653777896415293
 20
1.278895655087492
 10
0.8657789576637776
 20
1.275787782867758
 10
0.8660555230535925
 20
1.272666354172205
 10
0.8662070433653473
 20
1.269536362620874
 10
0.8662332761988674
 20
1.266402815532555
 10
0.8661341795872136
 20
1.263270725914133
 10
0.8659099120638268
 20
1.260145104440854
 10
0.8655608324089019
 20
1.257030951440311
 10
0.8650874990754216
 20
1.253933248892989
 10
0.8644906692957439
 20
1.250856952462154
 10
0.8637712978702037
 20
1.247806983565857
 10
0.8629305356396223
 20
1.244788221503704
 10
0.8619697276442147
 20
1.241805495651026
 10
0.8608904109718128
 20
1.238863577732908
 10
0.8596943122988516
 20
1.235967174190442
 10
0.8583833451280503
 20
1.23312091865143
 10
0.8569596067272295
 20
1.230329364517566
 10
0.8554253747741102
 20
1.227596977679964
 10
0.8537831037125352
 20
1.224928129374685
 10
0.8520354208258703
 20
1.222327089189697
 10
0.8501851220339164
 20
1.219798018234433
 10
0.8482351674200291
 20
1.217344962482916
 10
0.8461886764956217
 20
1.21497184630106
 10
0.844048923209613
 20
1.212682466168516
 10
0.8422594262676192
 20
1.21090133966626
1001
REVIT
1002
{
1070
     2
1000
-2001160
1002
}
  0
LWPOLYLINE
  5
494
330
47C
100
AcDbEntity
  8
7052807
100
AcDbPolyline
 90
       30
 70
   128
 43
0.0
 10
-0.8228439058756324
 20
1.337432013627924
 10
-0.8218271501313523
 20
1.337964485455694
 10
-0.820832500877087
 20
1.33853719074804
 10
-0.81986154933946
 20
1.339149213298665
 10
-0.8189158488338076
 20
1.339799574002044
 10
-0.8179969122791986
 20
1.340487232419791
 10
-0.8171062097780941
 20
1.341211088445128
 10
-0.816245166264485
 20
1.34196998406283
 10
-0.8154151592243177
 20
1.342762705201796
 10
-0.8146175164917965
 20
1.343587983677312
 10
-0.8138535141251374
 20
1.344444499219864
 10
-0.8131243743651491
 20
1.345330881587299
 10
-0.8124312636799071
 20
1.346245712756912
 10
-0.8117752908986521
 20
1.347187529193986
 10
-0.8111575054378999
 20
1.348154824193134
 10
-0.8105788956226009
 20
1.3491460502887
 10
-0.8100403871050268
 20
1.350159621730383
 10
-0.8095428413839343
 20
1.351193917020093
 10
-0.8090870544263383
 20
1.352247281506003
 10
-0.8086737553941402
 20
1.353318030029643
 10
-0.8083036054776279
 20
1.354404449621789
 10
-0.8079771968377031
 20
1.355504802242851
 10
-0.8076950516585641
 20
1.356617327563363
 10
-0.8074576213123071
 20
1.35774024578014
 10
-0.8072652856368367
 20
1.358871760463578
 10
-0.807118352328206
 20
1.36001006143156
 10
-0.8070170564483632
 20
1.36115332764536
 10
-0.8069615600491085
 20
1.362299730122924
 10
-0.8069519519128405
 20
1.363447434864837
 10
-0.8069671356876993
 20
1.364104948447778
1001
REVIT
1002
{
1070
     2
1000
-2001160
1002
}
  0
LWPOLYLINE
  5
495
330
47C
100
AcDbEntity
  8
7052807
100
AcDbPolyline
 90
       30
 70
   128
 43
0.0
 10
0.8069671356884015
 20
1.364104948447756
 10
0.8069504381488677
 20
1.362957324954155
 10
0.8069796466649895
 20
1.361809951713453
 10
0.8070547145093755
 20
1.360664664278075
 10
0.8071755215894842
 20
1.359523294863606
 10
0.8073418746397605
 20
1.358387669417625
 10
0.807553507530811
 20
1.357259604698596
 10
0.8078100816951534
 20
1.356140905369426
 10
0.8081111866688587
 20
1.3550333611104
 10
0.8084563407482042
 20
1.353938743756067
 10
0.8088449917602881
 20
1.352858804460691
 10
0.8092765179464016
 20
1.351795270896767
 10
0.8097502289566985
 20
1.350749844491124
 10
0.8102653669546169
 20
1.349724197702998
 10
0.8108211078292496
 20
1.348719971348457
 10
0.8114165625137495
 20
1.347738771975444
 10
0.8120507784076449
 20
1.346782169293646
 10
0.8127227409007973
 20
1.345851693663288
 10
0.8134313749965617
 20
1.344948833646889
 10
0.8141755470315533
 20
1.344075033627874
 10
0.8149540664892644
 20
1.343231691499874
 10
0.8157656879046369
 20
1.342420156430389
 10
0.8166091128565419
 20
1.341641726702414
 10
0.8174829920449793
 20
1.340897647637457
 10
0.8183859274496645
 20
1.340189109603291
 10
0.8193164745665665
 20
1.339517246109627
 10
0.8202731447188032
 20
1.33888313199473
 10
0.8212544074382121
 20
1.338287781705915
 10
0.822258692913765
 20
1.337732147676641
 10
0.8228439058763331
 20
1.3374320136279
1001
REVIT
1002
{
1070
     2
1000
-2001160
1002
}
  0
LWPOLYLINE
  5
496
330
47C
100
AcDbEntity
  8
7052807
100
AcDbPolyline
 90
       22
 70
   128
 43
0.0
 10
-0.8069671356877007
 20
1.364104948447778
 10
-0.8078718021681952
 20
1.380673079246433
 10
-0.8094382935313525
 20
1.397191780297405
 10
-0.8116641037251598
 20
1.413634625202815
 10
-0.8145456719281208
 20
1.429975308918436
 10
-0.818078388245812
 20
1.446187689836146
 10
-0.8222566010857303
 20
1.462245831604937
 10
-0.8270736261986398
 20
1.478124044623532
 10
-0.8325217573719328
 20
1.493796927138271
 10
-0.8385922787579403
 20
1.509239405880502
 10
-0.8452754788174202
 20
1.524426776178456
 10
-0.8525606658559492
 20
1.53933474147946
 10
-0.8604361851283586
 20
1.553939452219223
 10
-0.868889437483831
 20
1.568217543976069
 10
-0.8779068995218642
 20
1.582146174849019
 10
-0.8874741452268189
 20
1.595703061999956
 10
-0.8975758690464695
 20
1.608866517301424
 10
-0.9081959103776256
 20
1.621615482032992
 10
-0.9193172794196463
 20
1.633929560570724
 10
-0.9309221843544953
 20
1.645789053015824
 10
-0.9429920598098558
 20
1.657174986710269
 10
-0.9472225706238919
 20
1.660956442728637
1001
REVIT
1002
{
1070
     2
1000
-2001160
1002
}
  0
LWPOLYLINE
  5
497
330
47C
100
AcDbEntity
  8
7052807
100
AcDbPolyline
 90
       22
 70
   128
 43
0.0
 10
0.9472225706246007
 20
1.660956442728612
 10
0.9349980933033881
 20
1.649736659583408
 10
0.9232320659178524
 20
1.638037002359154
 10
0.9119433116018583
 20
1.625876188011612
 10
0.9011498899541731
 20
1.613273671249572
 10
0.8908690681469581
 20
1.600249613411458
 10
0.8811172933019818
 20
1.586824850211493
 10
0.8719101661787286
 20
1.573020858407002
 10
0.8632624162165106
 20
1.558859721440175
 10
0.8551878779705134
 20
1.54436409410928
 10
0.8476994689794569
 20
1.52955716632581
 10
0.8408091691002809
 20
1.514462626015576
 10
0.8345280013429421
 20
1.499104621223079
 10
0.8288660142359407
 20
1.483507721479783
 10
0.8238322657508229
 20
1.46769687849812
 10
0.8194348088113535
 20
1.451697386254059
 10
0.8156806784105635
 20
1.435534840522149
 10
0.8125758803562559
 20
1.419235097927734
 10
0.8101253816629933
 20
1.402824234581871
 10
0.8083331026059438
 20
1.386328504365118
 10
0.807201910449263
 20
1.36977429692692
 10
0.8069671356884027
 20
1.364104948447756
1001
REVIT
1002
{
1070
     2
1000
-2001160
1002
}
  0
LWPOLYLINE
  5
498
330
47C
100
AcDbEntity
  8
7052807
100
AcDbPolyline
 90
       11
 70
   128
 43
0.0
 10
-0.9472225706238919
 20
1.660956442728637
 10
-0.950846445683886
 20
1.664024744498747
 10
-0.9545901213752284
 20
1.666945675603882
 10
-0.9584476086154214
 20
1.669714563177377
 10
-0.9624127362477688
 20
1.672326977589775
 10
-0.9664791609139038
 20
1.674778739535305
 10
-0.9706403772018216
 20
1.677065926717866
 10
-0.9748897280531386
 20
1.679184880125873
 10
-0.9792204154129747
 20
1.681132209885896
 10
-0.9836255111053823
 20
1.682904800685723
 10
-0.987781673547089
 20
1.684393602958232
1001
REVIT
1002
{
1070
     2
1000
-2001160
1002
}
  0
LWPOLYLINE
  5
499
330
47C
100
AcDbEntity
  8
7052807
100
AcDbPolyline
 90
       11
 70
   128
 43
0.0
 10
0.9877816735477992
 20
1.684393602958204
 10
0.9833137171571262
 20
1.682786023444172
 10
0.9789136206894262
 20
1.681001059221045
 10
0.9745884233604121
 20
1.679041565850812
 10
0.9703450445631503
 20
1.676910678104859
 10
0.966190272798509
 20
1.674611804949018
 10
0.9621307548150118
 20
1.672148624089935
 10
0.9581729849754422
 20
1.669525076091535
 10
0.9543232948672692
 20
1.666745358070955
 10
0.9505878431734389
 20
1.663813916984056
 10
0.9472225706246007
 20
1.66095644272861
1001
REVIT
1002
{
1070
     2
1000
-2001160
1002
}
  0
LWPOLYLINE
  5
49A
330
47C
100
AcDbEntity
  8
7052807
100
AcDbPolyline
 90
       60
 70
   128
 43
0.0
 10
-0.987781673547089
 20
1.684393602958232
 10
-0.9909945945934575
 20
1.68554961828218
 10
-0.9941587173625684
 20
1.686833191490608
 10
-0.9972689799329675
 20
1.688242269140198
 10
-1.000320406548029
 20
1.6897745970073
 10
-1.003308115576106
 20
1.691427723694201
 10
-1.006227327320097
 20
1.693199004550853
 10
-1.009073371663945
 20
1.695085605905739
 10
-1.01184169554382
 20
1.697084509599144
 10
-1.014527870232062
 20
1.699192517811568
 10
-1.017127598422189
 20
1.701406258179558
 10
-1.019636721103674
 20
1.703722189190761
 10
-1.02205122421548
 20
1.706136605849599
 10
-1.024367245067695
 20
1.708645645604469
 10
-1.02658107852101
 20
1.711245294526992
 10
-1.028689182914162
 20
1.713931393733456
 10
-1.030688185729828
 20
1.716699646038136
 10
-1.03257488898993
 20
1.719545622827873
 10
-1.034346274371731
 20
1.722464771146911
 10
-1.035999508036492
 20
1.725452420980659
 10
-1.037531945163024
 20
1.728503792726715
 10
-1.038941134178826
 20
1.73161400484121
 10
-1.040224820682081
 20
1.734778081648235
 10
-1.041380951048225
 20
1.737990961299869
 10
-1.0424076757153
 20
1.741247503874043
 10
-1.04330335214286
 20
1.744542499597336
 10
-1.044066547439691
 20
1.747870677179482
 10
-1.044696040656121
 20
1.751226712246323
 10
-1.045190824737292
 20
1.754605235857669
 10
-1.045550108134219
 20
1.758000843096454
 10
-1.045773316070113
 20
1.761408101715454
 10
-1.045860091459889
 20
1.764821560827724
 10
-1.045810295481437
 20
1.768235759626847
 10
-1.045624007797698
 20
1.771645236123067
 10
-1.045301526429228
 20
1.77504453588131
 10
-1.044843367277424
 20
1.778428220747106
 10
-1.044250263299192
 20
1.781790877546485
 10
-1.043523163334377
 20
1.785127126745895
 10
-1.042663230587817
 20
1.788431631058313
 10
-1.04167184076846
 20
1.791699103981763
 10
-1.040550579888535
 20
1.794924318256591
 10
-1.039301241726261
 20
1.798102114227965
 10
-1.037925824956183
 20
1.801227408100226
 10
-1.03642652995173
 20
1.80429520006987
 10
-1.034805755265074
 20
1.807300582324176
 10
-1.033066093789968
 20
1.81023874689265
 10
-1.031210328613663
 20
1.813104993338757
 10
-1.029241428564569
 20
1.815894736279616
 10
-1.027162543462753
 20
1.818603512721636
 10
-1.024976999080904
 20
1.821226989200351
 10
-1.022688291823809
 20
1.82376096871304
 10
-1.02030008313485
 20
1.826201397433037
 10
-1.017816193638472
 20
1.828544371194986
 10
-1.015240597028
 20
1.830786141740675
 10
-1.012577413708577
 20
1.832923122715451
 10
-1.009830904205404
 20
1.83495189540562
 10
-1.00700546234779
 20
1.836869214207657
 10
-1.004105608239982
 20
1.838672011820487
 10
-1.001135981029948
 20
1.840357404152506
 10
-0.999569894533819
 20
1.841184385253137
1001
REVIT
1002
{
1070
     2
1000
-2001160
1002
}
  0
LWPOLYLINE
  5
49B
330
47C
100
AcDbEntity
  8
7052807
100
AcDbPolyline
 90
       60
 70
   128
 43
0.0
 10
0.9995698945345331
 20
1.84118438525311
 10
1.002573844870323
 20
1.839560958180676
 10
1.00551047259852
 20
1.837818703702886
 10
1.008375079741209
 20
1.835960409055242
 10
1.011163083538043
 20
1.833989047112768
 10
1.01387002377769
 20
1.831907771634034
 10
1.016491569933219
 20
1.829719912215827
 10
1.01902352809001
 20
1.827428968966495
 10
1.021461847655136
 20
1.82503860690653
 10
1.023802627837442
 20
1.822552650105312
 10
1.026042123887973
 20
1.819975075563412
 10
1.028176753090786
 20
1.817310006850244
 10
1.030203100494515
 20
1.814561707507233
 10
1.032117924375582
 20
1.811734574227052
 10
1.033918161424249
 20
1.808833129819865
 10
1.035600931645267
 20
1.805862015977776
 10
1.037163542965261
 20
1.802825985849132
 10
1.038603495539451
 20
1.799729896434486
 10
1.039918485750894
 20
1.796578700816438
 10
1.041106409895769
 20
1.793377440235757
 10
1.042165367548854
 20
1.790131236026472
 10
1.043093664603803
 20
1.786845281422835
 10
1.043889815983354
 20
1.78352483325124
 10
1.044552548015135
 20
1.780175203520441
 10
1.045080800469273
 20
1.776801750923458
 10
1.045473728254528
 20
1.773409872264812
 10
1.045730702770264
 20
1.770004993826796
 10
1.045851312912074
 20
1.766592562688578
 10
1.04583536572946
 20
1.763178038012027
 10
1.045682886734511
 20
1.759766882308238
 10
1.045394119861094
 20
1.756364552698659
 10
1.044969527074604
 20
1.752976492184874
 10
1.044409787632927
 20
1.749608120940959
 10
1.043715796999763
 20
1.746264827642357
 10
1.042888665412081
 20
1.742951960845146
 10
1.041929716103979
 20
1.739674820429497
 10
1.04084048318978
 20
1.736438649120985
 10
1.039622709209793
 20
1.733248624103361
 10
1.03827834234261
 20
1.730109848736149
 10
1.036809533288432
 20
1.727027344390368
 10
1.035218631828417
 20
1.724006042415403
 10
1.033508183065527
 20
1.721050776249906
 10
1.031680923352907
 20
1.718166273689319
 10
1.029739775916302
 20
1.715357149322409
 10
1.027687846177522
 20
1.712627897148917
 10
1.025528416786428
 20
1.709982883390112
 10
1.023264942369389
 20
1.707426339503767
 10
1.020901044002626
 20
1.704962355414732
 10
1.018440503419255
 20
1.702594872971928
 10
1.015887256959317
 20
1.700327679642231
 10
1.013245389272492
 20
1.698164402451323
 10
1.010519126783504
 20
1.696108502181236
 10
1.007712830930768
 20
1.694163267833833
 10
1.004830991189004
 20
1.692331811369108
 10
1.001878217887035
 20
1.690617062726716
 10
0.9988592348322569
 20
1.689021765138692
 10
0.995778871753539
 20
1.687548470740864
 10
0.9926420565746985
 20
1.686199536489982
 10
0.9894538075308737
 20
1.68497712039309
 10
0.9877816735477992
 20
1.684393602958204
1001
REVIT
1002
{
1070
     2
1000
-2001160
1002
}
  0
LWPOLYLINE
  5
49C
330
47C
100
AcDbEntity
  8
7052807
100
AcDbPolyline
 90
        6
 70
   128
 43
0.0
 10
4.819305889377349
 20
5.254918263884952
 10
4.653913314220613
 20
5.214128371085196
 10
4.487021874828461
 20
5.17998504480892
 10
4.318898561902313
 20
5.152542907094647
 10
4.149812336878458
 20
5.131845859508707
 10
4.05313681999653
 20
5.123082213489304
1001
REVIT
1002
{
1070
     2
1000
-2001160
1002
}
  0
LWPOLYLINE
  5
49D
330
47C
100
AcDbEntity
  8
7052807
100
AcDbPolyline
 90
        6
 70
   128
 43
0.0
 10
5.548745792252804
 20
5.523829429798117
 10
5.393523321456758
 20
5.453654620702804
 10
5.235618768188776
 20
5.389743187227793
 10
5.075284746049571
 20
5.332197374032929
 10
4.912777755271807
 20
5.281109242143541
 10
4.819305889377312
 20
5.254918263884941
1001
REVIT
1002
{
1070
     2
1000
-2001160
1002
}
  0
LWPOLYLINE
  5
49E
330
47C
100
AcDbEntity
  8
7052807
100
AcDbPolyline
 90
       43
 70
   128
 43
0.0
 10
4.053136819996506
 20
5.123082213489307
 10
4.050238073821896
 20
5.126948612515468
 10
4.047496261057796
 20
5.130927837764303
 10
4.044915768019744
 20
5.135013523324266
 10
4.042500722946121
 20
5.139199132970029
 10
4.040254989393865
 20
5.143477970619042
 10
4.038182160057599
 20
5.147843191043836
 10
4.036285551022075
 20
5.152287810822929
 10
4.034568196457163
 20
5.156804719512809
 10
4.033032843763821
 20
5.161386691023128
 10
4.031681949178831
 20
5.166026395176905
 10
4.030517673845352
 20
5.170716409437244
 10
4.029541880355553
 20
5.175449230781813
 10
4.028756129770862
 20
5.180217287706073
 10
4.028161679124597
 20
5.185012952336079
 10
4.027759479410976
 20
5.189828552631442
 10
4.02755017406375
 20
5.194656384658962
 10
4.027534097926823
 20
5.19948872491728
 10
4.027711276718584
 20
5.204317842692825
 10
4.028081426990762
 20
5.209136012427313
 10
4.028643956581882
 20
5.213935526076991
 10
4.029397965564602
 20
5.218708705443861
 10
4.030342247685391
 20
5.22344791445916
 10
4.031475292294296
 20
5.228145571399441
 10
4.032795286761645
 20
5.232794161015711
 10
4.034300119377872
 20
5.237386246556233
 10
4.035987382731811
 20
5.241914481663734
 10
4.037854377562013
 20
5.246371622128013
 10
4.039898117075038
 20
5.250750537475132
 10
4.042115331723628
 20
5.255044222374658
 10
4.044502474437325
 20
5.259245807846688
 10
4.047055726297024
 20
5.263348572250754
 10
4.049771002644409
 20
5.267345952039024
 10
4.052643959616556
 20
5.271231552256561
 10
4.055670001095172
 20
5.274999156771904
 10
4.058844286059411
 20
5.278642738221539
 10
4.062161736330478
 20
5.282156467652405
 10
4.065617044695623
 20
5.285534723846967
 10
4.069204683398557
 20
5.288772102315968
 10
4.072918912982672
 20
5.291863423944464
 10
4.076753791472966
 20
5.294803743277297
 10
4.080703183881912
 20
5.297588356430766
 10
4.084321572522451
 20
5.299939733538923
1001
REVIT
1002
{
1070
     2
1000
-2001160
1002
}
  0
LWPOLYLINE
  5
49F
330
47C
100
AcDbEntity
  8
7052807
100
AcDbPolyline
 90
       43
 70
   128
 43
0.0
 10
5.433310244329813
 20
5.661400158748441
 10
5.438135355943351
 20
5.661135453759395
 10
5.442946022605983
 20
5.660678007505305
 10
5.447734548277266
 20
5.660028551802593
 10
5.452493272337629
 20
5.659188125641843
 10
5.45721458184371
 20
5.658158073525627
 10
5.461890923707461
 20
5.656940043317602
 10
5.466514816779466
 20
5.655535983606266
 10
5.471078863817187
 20
5.653948140587639
 10
5.475575763318977
 20
5.652179054471835
 10
5.47999832120492
 20
5.650231555419248
 10
5.484339462325826
 20
5.648108759012921
 10
5.488592241781961
 20
5.645814061274263
 10
5.492749856033408
 20
5.643351133230149
 10
5.496805653784278
 20
5.640723915040052
 10
5.500753146623357
 20
5.637936609692633
 10
5.504586019404191
 20
5.634993676281853
 10
5.508298140347966
 20
5.631899822873377
 10
5.511883570853043
 20
5.628659998972674
 10
5.515336574995476
 20
5.625279387606857
 10
5.51865162870523
 20
5.621763397032954
 10
5.521823428603546
 20
5.618117652085846
 10
5.524846900487203
 20
5.614347985179731
 10
5.527717207446158
 20
5.610460426977502
 10
5.530429757601579
 20
5.606461196742986
 10
5.532980211451858
 20
5.602356692391433
 10
5.535364488814908
 20
5.598153480254223
 10
5.537578775355567
 20
5.593858284574142
 10
5.539619528687721
 20
5.589477976748012
 10
5.541483484041378
 20
5.585019564333947
 10
5.543167659485595
 20
5.580490179840727
 10
5.544669360698932
 20
5.575897069317324
 10
5.5459861852798
 20
5.571247580760767
 10
5.547116026589769
 20
5.566549152360905
 10
5.548057077123766
 20
5.561809300600902
 10
5.548807831401684
 20
5.55703560823246
 10
5.54936708837683
 20
5.552235712145034
 10
5.549733953357342
 20
5.547417291148443
 10
5.549907839437519
 20
5.542588053688402
 10
5.549888468436724
 20
5.537755725514669
 10
5.54967587134442
 20
5.532928037321478
 10
5.549270388270612
 20
5.528112712380087
 10
5.54874579225282
 20
5.523829429798131
1001
REVIT
1002
{
1070
     2
1000
-2001160
1002
}
  0
LWPOLYLINE
  5
4A0
330
47C
100
AcDbEntity
  8
7052807
100
AcDbPolyline
 90
       63
 70
   128
 43
0.0
 10
4.084321572522455
 20
5.299939733538922
 10
4.085648742478162
 20
5.30080622865101
 10
4.086940200276854
 20
5.30172510330231
 10
4.088193879861548
 20
5.302694887489399
 10
4.089407775612348
 20
5.303714029764451
 10
4.090579945554999
 20
5.304780899717231
 10
4.091708514467649
 20
5.305893790583403
 10
4.092791676880779
 20
5.307050921974986
 10
4.093827699965597
 20
5.308250442728592
 10
4.094814926306167
 20
5.309490433866902
 10
4.095751776550948
 20
5.31076891166861
 10
4.096636751939395
 20
5.312083830841963
 10
4.097468436699672
 20
5.313433087796783
 10
4.09824550031358
 20
5.314814524009768
 10
4.098966699645098
 20
5.316225929477669
 10
4.099630880929147
 20
5.31766504625282
 10
4.100236981617356
 20
5.319129572055379
 10
4.100784032077919
 20
5.320617163956473
 10
4.101271157146793
 20
5.322125442126401
 10
4.101697577527791
 20
5.323651993641836
 10
4.102062611039261
 20
5.325194376346002
 10
4.102365673705454
 20
5.326750122755596
 10
4.102606280690757
 20
5.328316744008238
 10
4.10278404707532
 20
5.329891733844117
 10
4.102898688470848
 20
5.331472572615478
 10
4.102950021475565
 20
5.333056731317512
 10
4.102937963967613
 20
5.334641675634235
 10
4.102862535236432
 20
5.336224869992839
 10
4.1027238559519
 20
5.337803781620083
 10
4.102522147971294
 20
5.339375884594181
 10
4.102257733984351
 20
5.340938663885736
 10
4.101931036997044
 20
5.342489619381258
 10
4.101542579654862
 20
5.344026269882807
 10
4.101092983406685
 20
5.345546157077381
 10
4.100582967510606
 20
5.347046849469696
 10
4.100013347883254
 20
5.348525946272054
 10
4.099385035794524
 20
5.349981081245092
 10
4.098699036409727
 20
5.351409926483269
 10
4.097956447181538
 20
5.352810196139007
 10
4.097158456094309
 20
5.354179650079567
 10
4.096306339763554
 20
5.355516097470774
 10
4.095401461393628
 20
5.3568174002819
 10
4.094445268596888
 20
5.358081476706042
 10
4.093439291077835
 20
5.359306304490575
 10
4.092385138185904
 20
5.36048992417233
 10
4.091284496340844
 20
5.361630442212305
 10
4.090139126334819
 20
5.362726034024936
 10
4.088950860515505
 20
5.363774946897036
 10
4.08772159985473
 20
5.364775502791764
 10
4.086453310907324
 20
5.365726101033131
 10
4.085148022665046
 20
5.366625220866733
 10
4.083807823310639
 20
5.36747142389264
 10
4.082434856877173
 20
5.368263356366522
 10
4.081031319818065
 20
5.368999751365358
 10
4.079599457493197
 20
5.369679430814239
 10
4.078141560576846
 20
5.370301307371041
 10
4.076659961393072
 20
5.370864386165926
 10
4.075157030184517
 20
5.371367766392943
 10
4.073635171320503
 20
5.371810642751114
 10
4.072096819450566
 20
5.372192306732737
 10
4.070544435609535
 20
5.37251214775686
 10
4.068980503280398
 20
5.372769654146072
 10
4.067520623930577
 20
5.372952537676569
1001
REVIT
1002
{
1070
     2
1000
-2001160
1002
}
  0
LWPOLYLINE
  5
4A1
330
47C
100
AcDbEntity
  8
7052807
100
AcDbPolyline
 90
       63
 70
   128
 43
0.0
 10
5.41135389054923
 20
5.733031576229119
 10
5.410091777077771
 20
5.732072793951555
 10
5.408869014227382
 20
5.731064307520159
 10
5.407687558157779
 20
5.730007730298085
 10
5.406549298946645
 20
5.728904752583499
 10
5.405456057565899
 20
5.727757138905456
 10
5.404409582968541
 20
5.726566725201028
 10
5.40341154929069
 20
5.725335415878201
 10
5.402463553173329
 20
5.724065180769226
 10
5.401567111208014
 20
5.72275805197931
 10
5.400723657510662
 20
5.721416120635676
 10
5.399934541427259
 20
5.720041533542211
 10
5.399201025375203
 20
5.718636489745034
 10
5.398524282823705
 20
5.717203237014496
 10
5.397905396416484
 20
5.715744068249218
 10
5.397345356239762
 20
5.714261317807955
 10
5.396845058238362
 20
5.712757357775109
 10
5.396405302782355
 20
5.711234594165905
 10
5.396026793386667
 20
5.709695463077276
 10
5.39571013558558
 20
5.708142426790637
 10
5.395455835964033
 20
5.706577969832749
 10
5.395264301347165
 20
5.70500459500101
 10
5.395135838149509
 20
5.703424819359518
 10
5.395070651884779
 20
5.701841170212297
 10
5.395068846837089
 20
5.700256181060153
 10
5.395130425894135
 20
5.698672387547621
 10
5.395255290542553
 20
5.697092323406462
 10
5.395443241025551
 20
5.695518516402237
 10
5.395693976662447
 20
5.693953484290427
 10
5.396007096329708
 20
5.692399730788555
 10
5.396382099102665
 20
5.690859741570774
 10
5.396818385056872
 20
5.68933598029132
 10
5.397315256227879
 20
5.687830884643187
 10
5.397871917727798
 20
5.686346862458341
 10
5.398487479016985
 20
5.684886287855706
 10
5.399160955328685
 20
5.683451497443073
 10
5.399891269244467
 20
5.682044786579028
 10
5.400677252417859
 20
5.680668405700874
 10
5.40151764744345
 20
5.679324556724401
 10
5.402411109868475
 20
5.678015389521301
 10
5.403356210343649
 20
5.676742998479824
 10
5.404351436909821
 20
5.675509419154207
 10
5.405395197416789
 20
5.674316625008222
 10
5.406485822070404
 20
5.673166524258052
 10
5.407621566103867
 20
5.672060956819557
 10
5.408800612569008
 20
5.671001691364798
 10
5.410021075242995
 20
5.669990422492536
 10
5.411281001645904
 20
5.66902876801724
 10
5.412578376164262
 20
5.668118266380932
 10
5.413911123275597
 20
5.667260374191996
 10
5.415277110868832
 20
5.66645646389493
 10
5.416674153655218
 20
5.665707821574716
 10
5.418100016664314
 20
5.665015644899365
 10
5.419552418819471
 20
5.664381041203902
 10
5.421029036587072
 20
5.663805025718862
 10
5.422527507693689
 20
5.663288519946149
 10
5.424045434905201
 20
5.662832350184812
 10
5.425580389861878
 20
5.662437246209162
 10
5.427129916963234
 20
5.662103840101274
 10
5.428691537296447
 20
5.661832665239798
 10
5.430262752602118
 20
5.661624155446665
 10
5.431841049270929
 20
5.661478644293066
 10
5.433310244329813
 20
5.66140015874844
1001
REVIT
1002
{
1070
     2
1000
-2001160
1002
}
  0
LWPOLYLINE
  5
4A2
330
47C
100
AcDbEntity
  8
7052807
100
AcDbPolyline
 90
       35
 70
   128
 43
0.0
 10
4.067520623930584
 20
5.372952537676565
 10
4.066500200754454
 20
5.373081856628999
 10
4.065485765186832
 20
5.373251878183467
 10
4.064478940108222
 20
5.37346233034175
 10
4.063481336223975
 20
5.373712876425289
 10
4.062494549487494
 20
5.374003115613798
 10
4.061520158547056
 20
5.37433258358649
 10
4.060559722220299
 20
5.374700753264891
 10
4.059614777000475
 20
5.375107035656053
 10
4.058686834598349
 20
5.375550780794822
 10
4.057777379523817
 20
5.376031278783632
 10
4.056887866710995
 20
5.376547760928207
 10
4.056019719190624
 20
5.377099400967289
 10
4.055174325813548
 20
5.377685316394495
 10
4.054353039028826
 20
5.378304569870127
 10
4.053557172720115
 20
5.378956170720726
 10
4.052788000103737
 20
5.379639076523933
 10
4.052046751691792
 20
5.38035219477614
 10
4.051334613323613
 20
5.381094384640267
 10
4.050652724268685
 20
5.381864458770857
 10
4.05000217540402
 20
5.382661185213578
 10
4.049384007469035
 20
5.383483289376076
 10
4.048799209400553
 20
5.384329456067066
 10
4.048248716750734
 20
5.385198331600348
 10
4.047733410190388
 20
5.386088525960421
 10
4.047254114100081
 20
5.386998615026205
 10
4.046811595251313
 20
5.387927142849336
 10
4.046406561579851
 20
5.388872623983374
 10
4.046039661053157
 20
5.389833545860196
 10
4.04571148063381
 20
5.390808371209785
 10
4.045422545340474
 20
5.391795540519531
 10
4.04517331740798
 20
5.392793474529126
 10
4.044964195547857
 20
5.393800576757035
 10
4.044795514310468
 20
5.39481523605453
 10
4.044754801808312
 20
5.395106188892342
1001
REVIT
1002
{
1070
     2
1000
-2001160
1002
}
  0
LWPOLYLINE
  5
4A3
330
47C
100
AcDbEntity
  8
7052807
100
AcDbPolyline
 90
       35
 70
   128
 43
0.0
 10
5.419992845237263
 20
5.76360011202969
 10
5.42036507105961
 20
5.762641240407927
 10
5.420698654503272
 20
5.761668250718386
 10
5.42099306190591
 20
5.760682699537009
 10
5.421247822278476
 20
5.759686163535445
 10
5.421462528058719
 20
5.758680236958714
 10
5.421636835763194
 20
5.757666529074756
 10
5.421770466536761
 20
5.756646661599934
 10
5.421863206598684
 20
5.755622266104651
 10
5.421914907584649
 20
5.754594981403173
 10
5.421925486784109
 20
5.753566450931879
 10
5.421894927272599
 20
5.752538320120114
 10
5.421823277938821
 20
5.751512233757858
 10
5.421710653406419
 20
5.750489833364399
 10
5.421557233850626
 20
5.749472754562269
 10
5.421363264710002
 20
5.748462624460586
 10
5.421129056293792
 20
5.747461059052028
 10
5.420854983285503
 20
5.746469660627594
 10
5.420541484143481
 20
5.745490015213278
 10
5.420189060399478
 20
5.744523690032759
 10
5.419798275856299
 20
5.74357223100019
 10
5.419369755685861
 20
5.742637160247056
 10
5.418904185429012
 20
5.741719973687091
 10
5.418402309898857
 20
5.740822138623134
 10
5.417864931989177
 20
5.73994509139976
 10
5.41729291138999
 20
5.739090235105432
 10
5.416687163212239
 20
5.738258937327861
 10
5.416048656523787
 20
5.737452527966159
 10
5.415378412799122
 20
5.73667229710328
 10
5.414677504285229
 20
5.735919492942162
 10
5.413947052286214
 20
5.735195319808875
 10
5.41318822536945
 20
5.734500936225948
 10
5.412402237496134
 20
5.73383745305899
 10
5.411590346079186
 20
5.73320593173953
 10
5.411353890549225
 20
5.733031576229111
1001
REVIT
1002
{
1070
     2
1000
-2001160
1002
}
  0
LWPOLYLINE
  5
4A4
330
47C
100
AcDbEntity
  8
7052807
100
AcDbPolyline
 90
       37
 70
   128
 43
0.0
 10
4.044754801808302
 20
5.395106188892346
 10
4.044376458536448
 20
5.39843079655352
 10
4.044131366745663
 20
5.401767874578704
 10
4.044019918530524
 20
5.405112084354934
 10
4.044042292184401
 20
5.408458075859959
 10
4.044198451914222
 20
5.411800496221145
 10
4.044488147897729
 20
5.415133998278925
 10
4.04491091668315
 20
5.418453249141118
 10
4.045466081930614
 20
5.42175293871441
 10
4.046152755494152
 20
5.425027788199383
 10
4.046969838842545
 20
5.428272558535457
 10
4.04791602481674
 20
5.431482058782274
 10
4.04898979972102
 20
5.434651154424099
 10
4.050189445744595
 20
5.43777477558394
 10
4.05151304370974
 20
5.44084792513428
 10
4.052958476142062
 20
5.443865686691405
 10
4.054523430658016
 20
5.446823232480585
 10
4.056205403664209
 20
5.449715831059461
 10
4.05800170436264
 20
5.452538854887365
 10
4.059909459055377
 20
5.455287787728383
 10
4.061925615741877
 20
5.457958231876378
 10
4.064046949001536
 20
5.460545915190378
 10
4.066270065153662
 20
5.463046697929091
 10
4.068591407686653
 20
5.465456579373604
 10
4.071007262947651
 20
5.467771704227689
 10
4.073513766083589
 20
5.469988368785446
 10
4.076106907224147
 20
5.472103026856445
 10
4.078782537896668
 20
5.474112295438876
 10
4.081536377662851
 20
5.476012960131629
 10
4.084364020966524
 20
5.477801980276647
 10
4.087260944181598
 20
5.479476493823337
 10
4.090222512848909
 20
5.481033821907235
 10
4.093243989090352
 20
5.482471473135617
 10
4.096320539188496
 20
5.483787147573202
 10
4.099447241319471
 20
5.484978740421551
 10
4.102619093426867
 20
5.486044345386301
 10
4.105452676544207
 20
5.486878990832595
1001
REVIT
1002
{
1070
     2
1000
-2001160
1002
}
  0
LWPOLYLINE
  5
4A5
330
47C
100
AcDbEntity
  8
7052807
100
AcDbPolyline
 90
       37
 70
   128
 43
0.0
 10
5.321540542790122
 20
5.812728752518478
 10
5.324794795196212
 20
5.813507213185152
 10
5.328077574671228
 20
5.814154915779329
 10
5.331383629468297
 20
5.814670824115028
 10
5.334707670605008
 20
5.815054112848966
 10
5.338044380324622
 20
5.815304168800934
 10
5.341388420603385
 20
5.815420591934748
 10
5.344734441690212
 20
5.815403195998233
 10
5.34807709066514
 20
5.815252008821175
 10
5.351411020002869
 20
5.814967272270807
 10
5.35473089612766
 20
5.814549441864866
 10
5.358031407945915
 20
5.813999186042872
 10
5.3613072753428
 20
5.813317385096758
 10
5.364553257629287
 20
5.812505129762594
 10
5.367764161926168
 20
5.811563719475643
 10
5.370934851471515
 20
5.810494660291539
 10
5.374060253838436
 20
5.809299662476927
 10
5.377135369049861
 20
5.807980637773387
 10
5.380155277577441
 20
5.80653969633907
 10
5.383115148211747
 20
5.804979143372886
 10
5.386010245791166
 20
5.80330147542668
 10
5.388835938777161
 20
5.801509376411282
 10
5.391587706663734
 20
5.799605713302824
 10
5.394261147209284
 20
5.797593531556187
 10
5.396851983479239
 20
5.795476050232921
 10
5.399356070688248
 20
5.79325665685144
 10
5.401769402830955
 20
5.790938901967707
 10
5.404088119090746
 20
5.788526493495109
 10
5.406308510016242
 20
5.786023290772583
 10
5.408427023455616
 20
5.783433298390495
 10
5.410440270239297
 20
5.780760659784156
 10
5.412345029601896
 20
5.778009650605205
 10
5.41413825433476
 20
5.775184671881474
 10
5.41581707566085
 20
5.772290242976293
 10
5.417378807824177
 20
5.769330994358464
 10
5.418820952386432
 20
5.766311660194505
 10
5.419992845237271
 20
5.7636001120297
1001
REVIT
1002
{
1070
     2
1000
-2001160
1002
}
  0
LINE
  5
4A6
330
47C
100
AcDbEntity
  8
7052807
100
AcDbLine
 10
0.9995698945345317
 20
1.841184385253107
 30
0.0
 11
0.5789491551861151
 21
1.841184385253149
 31
0.0
1001
REVIT
1002
{
1070
     2
1000
-2001160
1002
}
  0
LINE
  5
4A7
330
47C
100
AcDbEntity
  8
7052807
100
AcDbLine
 10
-0.5788199977907788
 20
1.841184385253163
 30
0.0
 11
-0.9995698945338173
 21
1.841184385253136
 31
0.0
1001
REVIT
1002
{
1070
     2
1000
-2001160
1002
}
  0
LINE
  5
4A8
330
47C
100
AcDbEntity
  8
7052807
100
AcDbLine
 10
5.548745792252813
 20
5.523829429798124
 30
0.0
 11
4.053136819996503
 21
5.123082213489301
 31
0.0
1001
REVIT
1002
{
1070
     2
1000
-2001160
1002
}
  0
LINE
  5
4A9
330
47C
100
AcDbEntity
  8
7052807
100
AcDbLine
 10
5.321540542790117
 20
5.812728752518471
 30
0.0
 11
4.556123848788906
 21
5.607635967487551
 31
0.0
1001
REVIT
1002
{
1070
     2
1000
-2001160
1002
}
  0
LINE
  5
4AA
330
47C
100
AcDbEntity
  8
7052807
100
AcDbLine
 10
4.5561232595159
 20
5.607635809592324
 30
0.0
 11
4.105452676544205
 21
5.486878990832588
 31
0.0
1001
REVIT
1002
{
1070
     2
1000
-2001160
1002
}
  0
LWPOLYLINE
  5
4AB
330
47C
100
AcDbEntity
  8
7052807
100
AcDbPolyline
 90
        4
 70
   128
 43
0.0
 10
-0.633976809620576
 20
4.389824549013709
 10
-0.8040556931999709
 20
3.59668134836798
 10
-0.9188077161775821
 20
2.749195471323702
 10
-0.9962661449463752
 20
1.841184385253136
1001
REVIT
1002
{
1070
     2
1000
-2001160
1002
}
  0
LWPOLYLINE
  5
4AC
330
47C
100
AcDbEntity
  8
7052807
100
AcDbPolyline
 90
        6
 70
   128
 43
0.0
 10
0.9971324307560546
 20
1.841184385253108
 10
0.9200673561420357
 20
3.017499322945839
 10
0.9088144272324203
 20
3.995974139217975
 10
1.012353588151479
 20
4.930155286549302
 10
1.256734766961215
 20
5.800664855301297
 10
1.588469373367997
 20
6.336004670632658
1001
REVIT
1002
{
1070
     2
1000
-2001160
1002
}
  0
LWPOLYLINE
  5
4AD
330
47C
100
AcDbEntity
  8
7052807
100
AcDbPolyline
 90
        2
 70
   128
 43
0.0
 10
-0.633976809620576
 20
4.389824549013709
 10
-0.3898948458189757
 20
5.16862292499025
1001
REVIT
1002
{
1070
     2
1000
-2001160
1002
}
  0
LWPOLYLINE
  5
4AE
330
47C
100
AcDbEntity
  8
7052807
100
AcDbPolyline
 90
       12
 70
   128
 43
0.0
 10
1.588464659856052
 20
6.336012515233878
 10
2.140540936261354
 20
6.600315169127187
 10
2.557995346001578
 20
6.706571820045182
 10
2.87667076926841
 20
6.711919760250393
 10
3.150896920409269
 20
6.657298610097078
 10
3.383130972730973
 20
6.568103289611965
 10
3.565284853884596
 20
6.45939337069052
 10
3.697526641009115
 20
6.344423843159906
 10
3.791917461153589
 20
6.225280421405243
 10
3.88918485608098
 20
6.062713939223721
 10
3.991279968111144
 20
5.856357358479438
 10
4.105452676544225
 20
5.486878990832593
1001
REVIT
1002
{
1070
     2
1000
-2001160
1002
}
  0
LWPOLYLINE
  5
4AF
330
47C
100
AcDbEntity
  8
7052807
100
AcDbPolyline
 90
       11
 70
   128
 43
0.0
 10
5.321540542790112
 20
5.812728752518464
 10
5.08938327496009
 20
6.420872081766565
 10
4.883671674754527
 20
6.7532110932039
 10
4.658052439809219
 20
7.036695715970481
 10
4.366622581137973
 20
7.297048976192313
 10
4.006887973126607
 20
7.514684276325851
 10
3.581391432654748
 20
7.677292229960889
 10
3.091791860896194
 20
7.770289103297018
 10
2.505526640557152
 20
7.758656131325619
 10
1.833004741061148
 20
7.579678739177342
 10
1.073436011969883
 20
7.19316412673356
1001
REVIT
1002
{
1070
     2
1000
-2001160
1002
}
  0
LWPOLYLINE
  5
4B0
330
47C
100
AcDbEntity
  8
7052807
100
AcDbPolyline
 90
       80
 70
   128
 43
0.0
 10
0.0000000000010594
 20
4.588334311740084
 10
-0.0182440611662706
 20
4.587969881878574
 10
-0.0364589975603675
 20
4.586877171594737
 10
-0.054615730116122
 20
4.585057917916853
 10
-0.0726852711241161
 20
4.582515012980004
 10
-0.0906387697570132
 20
4.579252499660303
 10
-0.1084475574140026
 20
4.57527556546741
 10
-0.1260831928222663
 20
4.570590534700066
 10
-0.1435175068342029
 20
4.565204858870747
 10
-0.1607226468587683
 20
4.559127105407133
 10
-0.1776711208649068
 20
4.552366944639636
 10
-0.1943358408946644
 20
4.544935135086036
 10
-0.2106901660231069
 20
4.536843507046015
 10
-0.2267079447017824
 20
4.528104944520431
 10
-0.2423635564220095
 20
4.518733365472235
 10
-0.2576319526339926
 20
4.508743700448161
 10
-0.2724886968573537
 20
4.498151869582742
 10
-0.2869100039185622
 20
4.48697475800871
 10
-0.3008727782505326
 20
4.475230189700511
 10
-0.31435465118973
 20
4.46293689978047
 10
-0.3273340172062401
 20
4.450114505320086
 10
-0.3397900690026124
 20
4.436783474671993
 10
-0.3517028314177565
 20
4.422965095371266
 10
-0.3630531940729075
 20
4.408681440648028
 10
-0.3738229426976148
 20
4.393955334596639
 10
-0.3839947890748513
 20
4.378810316050073
 10
-0.393552399545786
 20
4.363270601211591
 10
-0.402480422016447
 20
4.34736104509913
 10
-0.4107645114104074
 20
4.331107101861296
 10
-0.4183913535139118
 20
4.314534784027143
 10
-0.4253486871622913
 20
4.297670620755233
 10
-0.4316253247193257
 20
4.280541615150588
 10
-0.4372111708042158
 20
4.263175200721245
 10
-0.4420972392241397
 20
4.245599197048927
 10
-0.4462756680738972
 20
4.227841764751096
 10
-0.4497397329678959
 20
4.209931359814087
 10
-0.4524838583737615
 20
4.191896687379262
 10
-0.4545036270210005
 20
4.173766655066155
 10
-0.455795787362476
 20
4.155570325918169
 10
-0.4563582590710055
 20
4.137336871057887
 10
-0.4561901365579303
 20
4.119095522140098
 10
-0.4552916905052446
 20
4.100875523691386
 10
-0.4536643674076176
 20
4.082706085425599
 10
-0.4513107871253782
 20
4.064616334624562
 10
-0.4482347384543687
 20
4.046635268673193
 10
-0.4444411727232268
 20
4.028791707837561
 10
-0.4399361954333704
 20
4.011114248373549
 10
-0.4347270559614823
 20
3.993631216052523
 10
-0.4288221353487344
 20
3.976370620188892
 10
-0.422230932205281
 20
3.959360108252608
 10
-0.414964046762584
 20
3.942626921147557
 10
-0.4070331631101022
 20
3.926197849234449
 10
-0.3984510296564641
 20
3.910099189174217
 10
-0.3892314378587357
 20
3.894356701665194
 10
-0.3793891992665062
 20
3.878995570144344
 10
-0.3689401209304882
 20
3.864040360519766
 10
-0.3579009792279143
 20
3.849514981998428
 10
-0.3462894921594098
 20
3.835442649069814
 10
-0.3341242901741116
 20
3.821845844702794
 10
-0.3214248855816303
 20
3.808746284809585
 10
-0.3082116406109875
 20
3.796164884027331
 10
-0.2945057341779936
 20
3.784121722864337
 10
-0.2803291274235998
 20
3.772636016254733
 10
-0.2657045280865248
 20
3.761726083561984
 10
-0.2506553537741563
 20
3.75140932006848
 10
-0.235205694196087
 20
3.741702169985305
 10
-0.2193802724249033
 20
3.732620101013316
 10
-0.2032044052489415
 20
3.724177580483733
 10
-0.1867039626816466
 20
3.716388053103766
 10
-0.1699053266920238
 20
3.70926392033011
 10
-0.1528353492204097
 20
3.70281652139078
 10
-0.1355213095434486
 20
3.697056115973331
 10
-0.117990871051756
 20
3.691991868595448
 10
-0.1002720375034018
 20
3.687631834671728
 10
-0.082393108815818
 20
3.683982948288689
 10
-0.0643826364584188
 20
3.681051011698157
 10
-0.0462693785077294
 20
3.678840686537595
 10
-0.028082254426512
 20
3.677355486784288
 10
-0.0098502996280307
 20
3.676597773448869
 10
0.0000000000010448
 20
3.676491568004726
  0
LWPOLYLINE
  5
4B1
330
47C
100
AcDbEntity
  8
7052807
100
AcDbPolyline
 90
       80
 70
   128
 43
0.0
 10
0.0000000000010448
 20
3.676491568004725
 10
0.0182440611683748
 20
3.676855997866236
 10
0.036458997562473
 20
3.677948708150072
 10
0.0546157301182289
 20
3.679767961827957
 10
0.0726852711262216
 20
3.682310866764806
 10
0.0906387697591187
 20
3.685573380084508
 10
0.1084475574161081
 20
3.689550314277399
 10
0.1260831928243731
 20
3.694235345044744
 10
0.1435175068363097
 20
3.699621020874062
 10
0.1607226468608751
 20
3.705698774337677
 10
0.1776711208670137
 20
3.712458935105173
 10
0.1943358408967713
 20
3.719890744658774
 10
0.2106901660252139
 20
3.727982372698796
 10
0.2267079447038894
 20
3.736720935224379
 10
0.2423635564241165
 20
3.746092514272574
 10
0.2576319526360982
 20
3.756082179296648
 10
0.2724886968594607
 20
3.766674010162069
 10
0.2869100039206691
 20
3.7778511217361
 10
0.3008727782526395
 20
3.7895956900443
 10
0.3143546511918369
 20
3.80188897996434
 10
0.327334017208347
 20
3.814711374424723
 10
0.3397900690047206
 20
3.828042405072817
 10
0.3517028314198634
 20
3.841860784373544
 10
0.3630531940750143
 20
3.856144439096781
 10
0.373822942699723
 20
3.870870545148171
 10
0.3839947890769568
 20
3.886015563694736
 10
0.3935523995478929
 20
3.901555278533218
 10
0.4024804220185538
 20
3.917464834645679
 10
0.4107645114125142
 20
3.933718777883514
 10
0.41839135351602
 20
3.950291095717666
 10
0.4253486871643994
 20
3.967155258989578
 10
0.4316253247214326
 20
3.984284264594221
 10
0.4372111708063213
 20
4.001650679023565
 10
0.4420972392262465
 20
4.019226682695882
 10
0.4462756680760054
 20
4.036984114993713
 10
0.4497397329700015
 20
4.054894519930724
 10
0.4524838583758697
 20
4.072929192365547
 10
0.4545036270231073
 20
4.091059224678654
 10
0.4557957873645828
 20
4.109255553826641
 10
0.4563582590731137
 20
4.127489008686923
 10
0.4561901365600385
 20
4.145730357604712
 10
0.4552916905073541
 20
4.163950356053423
 10
0.4536643674097245
 20
4.18211979431921
 10
0.4513107871274864
 20
4.200209545120247
 10
0.4482347384564769
 20
4.218190611071618
 10
0.4444411727253363
 20
4.23603417190725
 10
0.4399361954354799
 20
4.253711631371261
 10
0.4347270559635905
 20
4.271194663692288
 10
0.4288221353508426
 20
4.288455259555918
 10
0.4222309322073892
 20
4.305465771492203
 10
0.4149640467646922
 20
4.322198958597253
 10
0.4070331631122104
 20
4.338628030510362
 10
0.3984510296585737
 20
4.354726690570593
 10
0.3892314378608439
 20
4.370469178079617
 10
0.3793891992686131
 20
4.385830309600467
 10
0.3689401209325964
 20
4.400785519225044
 10
0.3579009792300225
 20
4.415310897746383
 10
0.3462894921615167
 20
4.429383230674996
 10
0.3341242901762198
 20
4.442980035042018
 10
0.3214248855837398
 20
4.456079594935227
 10
0.3082116406130957
 20
4.46866099571748
 10
0.2945057341801018
 20
4.480704156880475
 10
0.2803291274257094
 20
4.492189863490079
 10
0.265704528088633
 20
4.503099796182826
 10
0.2506553537762659
 20
4.513416559676332
 10
0.2352056941981953
 20
4.523123709759505
 10
0.2193802724270129
 20
4.532205778731496
 10
0.2032044052510525
 20
4.540648299261078
 10
0.1867039626837548
 20
4.548437826641046
 10
0.169905326694132
 20
4.5555619594147
 10
0.1528353492225192
 20
4.562009358354032
 10
0.1355213095455568
 20
4.56776976377148
 10
0.1179908710538642
 20
4.572834011149363
 10
0.10027203750551
 20
4.577194045073082
 10
0.0823931088179262
 20
4.580842931456123
 10
0.0643826364605269
 20
4.583774868046655
 10
0.0462693785098377
 20
4.585985193207217
 10
0.0280822544286202
 20
4.587470392960525
 10
0.0098502996301389
 20
4.588228106295941
 10
0.0000000000010634
 20
4.588334311740086
  0
ELLIPSE
  5
4B2
330
47C
100
AcDbEntity
  8
7052807
100
AcDbEllipse
 10
0.0000000000010528
 20
4.138588755448985
 30
0.0
 11
0.3445875731936467
 21
0.0
 31
0.0
210
0.0
220
0.0
230
0.9999999999999998
 40
0.9986295347545722
 41
1.570796326794889
 42
4.712388980384673
  0
ELLIPSE
  5
4B3
330
47C
100
AcDbEntity
  8
7052807
100
AcDbEllipse
 10
0.0000000000010528
 20
4.138588755448985
 30
0.0
 11
0.3445875731936471
 21
0.0
 31
0.0
210
0.0
220
0.0
230
1.0
 40
0.9986295347545752
 41
4.712388980384672
 42
7.853981633974468
  0
ELLIPSE
  5
4B4
330
47C
100
AcDbEntity
  8
7052807
100
AcDbEllipse
 10
0.0000000000010529
 20
4.145261998895452
 30
0.0
 11
0.2256846117494876
 21
0.0
 31
0.0
210
0.0
220
0.0
230
1.0
 40
0.9986295347545731
 41
1.570796326794889
 42
4.712388980384673
  0
ELLIPSE
  5
4B5
330
47C
100
AcDbEntity
  8
7052807
100
AcDbEllipse
 10
0.0000000000010529
 20
4.145261998895452
 30
0.0
 11
0.2256846117494888
 21
0.0
 31
0.0
210
0.0
220
0.0
230
1.0
 40
0.9986295347545736
 41
4.712388980384672
 42
7.853981633974468
  0
LINE
  5
4B6
330
47C
100
AcDbEntity
  8
7052807
100
AcDbLine
 10
-0.1992608584570171
 20
3.722315911283977
 30
0.0
 11
-0.1992608584570209
 21
3.485179785363681
 31
0.0
  0
LINE
  5
4B7
330
47C
100
AcDbEntity
  8
7052807
100
AcDbLine
 10
0.1992608584591105
 20
3.485179785363675
 30
0.0
 11
0.1992608584591181
 21
3.722327495175356
 31
0.0
  0
LWPOLYLINE
  5
4B8
330
47C
100
AcDbEntity
  8
7052807
100
AcDbPolyline
 90
       41
 70
   128
 43
0.0
 10
-0.3045633413632932
 20
3.379877302457396
 10
-0.3003523651836711
 20
3.379961533212054
 10
-0.2961481256676427
 20
3.380214090724793
 10
-0.2919573487015771
 20
3.380634570957466
 10
-0.2877867386346354
 20
3.381222301231401
 10
-0.2836429675532425
 20
3.381976341303532
 10
-0.2795326646071699
 20
3.382895484870599
 10
-0.2754624054043134
 20
3.383978261498967
 10
-0.2714387014911242
 20
3.385222938977014
 10
-0.2674679899355184
 20
3.386627526086288
 10
-0.2635566230289409
 20
3.388189775787047
 10
-0.2597108581240676
 20
3.389907188813027
 10
-0.2559368476243558
 20
3.391777017669754
 10
-0.2522406291415296
 20
3.393796271029928
 10
-0.2486281158366724
 20
3.395961718518928
 10
-0.2451050869604488
 20
3.398269895882706
 10
-0.2416771786075179
 20
3.400717110529866
 10
-0.2383498746999947
 20
3.403299447439018
 10
-0.2351284982143494
 20
3.406012775421974
 10
-0.2320182026657648
 20
3.408852753732777
 10
-0.2290239638636252
 20
3.411814839011957
 10
-0.2261505719512781
 20
3.414894292554945
 10
-0.2234026237428234
 20
3.418086187892989
 10
-0.220784515369199
 20
3.421385418674449
 10
-0.2183004352453027
 20
3.424786706833873
 10
-0.2159543573694234
 20
3.428284611035775
 10
-0.2137500349656914
 20
3.431873535379611
 10
-0.2116909944797248
 20
3.435547738352028
 10
-0.20978052993706
 20
3.439301342012059
 10
-0.2080216976734227
 20
3.443128341394573
 10
-0.2064173114452382
 20
3.447022614116941
 10
-0.2049699379282171
 20
3.450977930173542
 10
-0.2036818926112348
 20
3.45498796190244
 10
-0.2025552360920276
 20
3.459046294108297
 10
-0.2015917707806848
 20
3.463146434325316
 10
-0.2007930380161787
 20
3.467281823203799
 10
-0.200160315600543
 20
3.471445845003708
 10
-0.1996946157546701
 20
3.475631838178442
 10
-0.1993966834989679
 20
3.479833106031887
 10
-0.1992669954614935
 20
3.484042927431699
 10
-0.1992608584570076
 20
3.485179785363681
  0
LWPOLYLINE
  5
4B9
330
47C
100
AcDbEntity
  8
7052807
100
AcDbPolyline
 90
       41
 70
   128
 43
0.0
 10
0.1992608584590958
 20
3.485179785363675
 10
0.1993450892137549
 20
3.480968809184054
 10
0.1995976467264928
 20
3.476764569668025
 10
0.2000181269591666
 20
3.472573792701961
 10
0.2006058572331007
 20
3.468403182635018
 10
0.2013598973052304
 20
3.464259411553626
 10
0.2022790408722986
 20
3.460149108607553
 10
0.2033618175006689
 20
3.456078849404697
 10
0.2046064949787139
 20
3.452055145491507
 10
0.2060110820879888
 20
3.448084433935901
 10
0.2075733317887447
 20
3.444173067029324
 10
0.2092907448147264
 20
3.44032730212445
 10
0.2111605736714511
 20
3.436553291624739
 10
0.2131798270316263
 20
3.432857073141912
 10
0.2153452745206271
 20
3.429244559837056
 10
0.2176534518844043
 20
3.425721530960831
 10
0.2201006665315639
 20
3.422293622607899
 10
0.2226830034407164
 20
3.418966318700378
 10
0.2253963314236727
 20
3.415744942214732
 10
0.2282363097344755
 20
3.412634646666147
 10
0.231198395013655
 20
3.409640407864008
 10
0.2342778485566448
 20
3.40676701595166
 10
0.2374697438946883
 20
3.404019067743206
 10
0.2407689746761477
 20
3.401400959369582
 10
0.2441702628355718
 20
3.398916879245685
 10
0.2476681670374717
 20
3.396570801369806
 10
0.2512570913813084
 20
3.394366478966074
 10
0.2549312943537252
 20
3.392307438480106
 10
0.2586848980137575
 20
3.390396973937441
 10
0.2625118973962708
 20
3.388638141673805
 10
0.2664061701186389
 20
3.38703375544562
 10
0.2703614861752397
 20
3.385586381928601
 10
0.2743715179041375
 20
3.384298336611617
 10
0.278429850109996
 20
3.383171680092408
 10
0.2825299903270129
 20
3.382208214781066
 10
0.2866653792054954
 20
3.38140948201656
 10
0.2908294010054051
 20
3.380776759600923
 10
0.295015394180141
 20
3.38031105975505
 10
0.2992166620335854
 20
3.380013127499351
 10
0.3034264834333971
 20
3.379883439461875
 10
0.3045633413653788
 20
3.379877302457386
  0
LINE
  5
4BA
330
47C
100
AcDbEntity
  8
7052807
100
AcDbLine
 10
-0.3464562786905892
 20
3.379877302457396
 30
0.0
 11
-0.48048070303267
 21
3.286032390228856
 31
0.0
  0
LINE
  5
4BB
330
47C
100
AcDbEntity
  8
7052807
100
AcDbLine
 10
0.4804807030347542
 20
3.286032390228843
 30
0.0
 11
0.3464562786926761
 21
3.379877302457386
 31
0.0
  0
LINE
  5
4BC
330
47C
100
AcDbEntity
  8
7052807
100
AcDbLine
 10
-0.481289263720695
 20
3.095745014282334
 30
0.0
 11
-0.4185482798511285
 21
3.051813304422169
 31
0.0
  0
LINE
  5
4BD
330
47C
100
AcDbEntity
  8
7052807
100
AcDbLine
 10
0.4185482798532061
 20
3.051813304422158
 30
0.0
 11
0.4812892637227726
 21
3.095745014282321
 31
0.0
  0
LWPOLYLINE
  5
4BE
330
47C
100
AcDbEntity
  8
7052807
100
AcDbPolyline
 90
       32
 70
   128
 43
0.0
 10
-0.4075824936602409
 20
3.022142739313899
 10
-0.4073272068062154
 20
3.023223773858601
 10
-0.4071153540061193
 20
3.02431415244229
 10
-0.4069472741792401
 20
3.025412130691837
 10
-0.406823236217445
 20
3.02651595207626
 10
-0.4067434385550138
 20
3.027623850716816
 10
-0.4067080088511831
 20
3.028734054212022
 10
-0.4067170037859228
 20
3.029844786473113
 10
-0.4067704089692544
 20
3.030954270565414
 10
-0.4068681389642764
 20
3.032060731551057
 10
-0.4070100374238456
 20
3.033162399328498
 10
-0.4071958773406982
 20
3.034257511464301
 10
-0.4074253614106077
 20
3.035344316012661
 10
-0.4076981225080202
 20
3.03642107431814
 10
-0.4080137242733618
 20
3.037486063797144
 10
-0.4083716618111365
 20
3.038537580693694
 10
-0.4087713624976371
 20
3.039573942805067
 10
-0.4092121868970301
 20
3.040593492172963
 10
-0.409693429784317
 20
3.041594597735885
 10
-0.4102143212735349
 20
3.042575657938492
 10
-0.4107740280494189
 20
3.04353510329374
 10
-0.4113716547005267
 20
3.044471398893732
 10
-0.412006245151702
 20
3.04538304686524
 10
-0.4126767841935949
 20
3.046268588765984
 10
-0.4133821991067813
 20
3.04712660791783
 10
-0.4141213613778786
 20
3.047955731673167
 10
-0.414893088504933
 20
3.048754633610858
 10
-0.4156961458891667
 20
3.049522035658226
 10
-0.4165292488100764
 20
3.050256710135699
 10
-0.4173910644807065
 20
3.050957481720835
 10
-0.4182802141798293
 20
3.051623229328588
 10
-0.4185482798511299
 20
3.051813304422169
  0
LWPOLYLINE
  5
4BF
330
47C
100
AcDbEntity
  8
7052807
100
AcDbPolyline
 90
       32
 70
   128
 43
0.0
 10
0.4185482798532061
 20
3.051813304422158
 10
0.4176513147537018
 20
3.051158124542318
 10
0.4167812673377715
 20
3.050467599699381
 10
0.4159395294956825
 20
3.049742834585793
 10
0.4151274478284213
 20
3.048984988671127
 10
0.4143463214934202
 20
3.048195274347181
 10
0.4135974001261824
 20
3.047374954988411
 10
0.4128818818411368
 20
3.046525342930797
 10
0.4122009113149023
 20
3.045647797372392
 10
0.4115555779550537
 20
3.044743722198889
 10
0.4109469141573052
 20
3.043814563737705
 10
0.4103758936538904
 20
3.042861808444171
 10
0.4098434299558027
 20
3.041886980523511
 10
0.4093503748913754
 20
3.040891639492447
 10
0.4088975172435301
 20
3.039877377684299
 10
0.4084855814879009
 20
3.038845817701597
 10
0.408115226633819
 20
3.03779860982026
 10
0.4077870451700478
 20
3.036737429349503
 10
0.4075015621169224
 20
3.035663973951708
 10
0.4072592341864258
 20
3.034579960926519
 10
0.407060449051553
 20
3.033487124463531
 10
0.4069055247261166
 20
3.032387212867964
 10
0.4067947090559845
 20
3.031281985763731
 10
0.4067281793225941
 20
3.030173211278431
 10
0.4067060419593236
 20
3.029062663214713
 10
0.4067283323812345
 20
3.027952118212577
 10
0.4067950149284052
 20
3.026843352907122
 10
0.4069059829229824
 20
3.025738141086312
 10
0.4070610588398515
 20
3.024638250853296
 10
0.4072599945906228
 20
3.023545441797814
 10
0.4075024719205349
 20
3.022461462181236
 10
0.4075824936623185
 20
3.022142739313888
  0
LWPOLYLINE
  5
4C0
330
47C
100
AcDbEntity
  8
7052807
100
AcDbPolyline
 90
        4
 70
   128
 43
0.0
 10
-0.5264755836419429
 20
2.427597503608412
 10
-0.4904097509679081
 20
2.647119949859965
 10
-0.445594210648575
 20
2.865024552933476
 10
-0.4075824936602316
 20
3.022142739313935
  0
LWPOLYLINE
  5
4C1
330
47C
100
AcDbEntity
  8
7052807
100
AcDbPolyline
 90
        4
 70
   128
 43
0.0
 10
0.4075824936623078
 20
3.022142739313922
 10
0.4587114909628249
 20
2.805632521703341
 10
0.5011414910721197
 20
2.587250874613979
 10
0.5264755836440019
 20
2.427597503608398
  0
LWPOLYLINE
  5
4C2
330
47C
100
AcDbEntity
  8
7052807
100
AcDbPolyline
 90
        4
 70
   128
 43
0.0
 10
-0.5803251998153015
 20
1.81209357426314
 10
-0.5688298855203661
 20
2.034261768284085
 10
-0.5484594080944217
 20
2.255792561481567
 10
-0.5264755836419309
 20
2.427597503608486
  0
LWPOLYLINE
  5
4C3
330
47C
100
AcDbEntity
  8
7052807
100
AcDbPolyline
 90
        4
 70
   128
 43
0.0
 10
0.5264755836439912
 20
2.427597503608471
 10
0.5537340110303053
 20
2.206808403284901
 10
0.5721414254645138
 20
1.985105864329853
 10
0.5803251998173457
 20
1.812093574263125
  0
LWPOLYLINE
  5
4C4
330
47C
100
AcDbEntity
  8
7052807
100
AcDbPolyline
 90
       12
 70
   128
 43
0.0
 10
-0.7690648803760958
 20
1.033709222679396
 10
-0.736871837282108
 20
1.105016590503296
 10
-0.7075560793507335
 20
1.17755429839742
 10
-0.6811645055409673
 20
1.251206301503023
 10
-0.6577393367410031
 20
1.325854772326725
 10
-0.6373180482238176
 20
1.401380289239368
 10
-0.6199333096947292
 20
1.477662027525143
 10
-0.6056129330268384
 20
1.554577952675361
 10
-0.5943798277679641
 20
1.632005015617636
 10
-0.5862519644902472
 20
1.709819349568155
 10
-0.5812423460410879
 20
1.787896468192101
 10
-0.5803251998153029
 20
1.812093574263117
  0
LWPOLYLINE
  5
4C5
330
47C
100
AcDbEntity
  8
7052807
100
AcDbPolyline
 90
       12
 70
   128
 43
0.0
 10
0.5803251998173457
 20
1.812093574263101
 10
0.5843679257246387
 20
1.733960424468262
 10
0.5915319105206055
 20
1.656051438776834
 10
0.6018056933578097
 20
1.578491254946224
 10
0.6151728383753349
 20
1.501403952725271
 10
0.6316119609926602
 20
1.424912855353115
 10
0.6510967621204206
 20
1.34914033226832
 10
0.6735960702333498
 20
1.274207603343881
 10
0.6990738912380606
 20
1.200234544961277
 10
0.7274894660559276
 20
1.127339498233847
 10
0.7587973358289089
 20
1.055639079686239
 10
0.7690648803781162
 20
1.033709222679376
  0
LINE
  5
4C6
330
47C
100
AcDbEntity
  8
7052807
100
AcDbLine
 10
-0.7800715017303541
 20
0.9849554939152024
 30
0.0
 11
-0.7800715017303581
 21
0.8888554846950583
 31
0.0
  0
LINE
  5
4C7
330
47C
100
AcDbEntity
  8
7052807
100
AcDbLine
 10
0.7800715017323681
 20
0.8888554847248375
 30
0.0
 11
0.7800715017323759
 21
0.9849554939151811
 31
0.0
  0
LWPOLYLINE
  5
4C8
330
47C
100
AcDbEntity
  8
7052807
100
AcDbPolyline
 90
       17
 70
   128
 43
0.0
 10
-0.7948443114923261
 20
0.8413198438294282
 10
-0.7929986600490633
 20
0.8441208581314901
 10
-0.7912664956270837
 20
0.8469934382932279
 10
-0.7896505893199524
 20
0.8499329887991638
 10
-0.7881535262330539
 20
0.8529348069955624
 10
-0.7867777013479694
 20
0.8559940906136606
 10
-0.7855253156910225
 20
0.8591059454522836
 10
-0.784398372812102
 20
0.8622653932075131
 10
-0.7833986755794134
 20
0.865467379436923
 10
-0.7825278232952697
 20
0.8687067816455998
 10
-0.7817872091375562
 20
0.8719784174810458
 10
-0.7811780179309351
 20
0.8752770530238361
 10
-0.7807012242513825
 20
0.8785974111607714
 10
-0.7803575908670762
 20
0.8819341800271393
 10
-0.7801476675181243
 20
0.8852820215045619
 10
-0.780071790037106
 20
0.8886355797608414
 10
-0.7800715017303168
 20
0.8888554847264693
  0
LWPOLYLINE
  5
4C9
330
47C
100
AcDbEntity
  8
7052807
100
AcDbPolyline
 90
       17
 70
   128
 43
0.0
 10
0.7800715017323359
 20
0.8888554847264479
 10
0.7801385855908081
 20
0.8855017390404565
 10
0.7803397298463624
 20
0.882153358632134
 10
0.7806746127111011
 20
0.8788157001958524
 10
0.7811426984438754
 20
0.8754941032731126
 10
0.7817432382073653
 20
0.8721938817104227
 10
0.7824752712660594
 20
0.8689203151582731
 10
0.7833376265232238
 20
0.8656786406248212
 10
0.7843289243944034
 20
0.8624740440978039
 10
0.7854475790144699
 20
0.859311652248053
 10
0.7866918007746675
 20
0.8561965242279173
 10
0.7880595991855975
 20
0.8531336435777056
 10
0.7895487860615857
 20
0.8501279102530801
 10
0.7911569790213042
 20
0.8471841327861696
 10
0.7928816052990817
 20
0.8443070205929497
 10
0.7947199058607757
 20
0.8415011764391772
 10
0.7948443114943411
 20
0.8413198438294068
  0
LWPOLYLINE
  5
4CA
330
47C
100
AcDbEntity
  8
7052807
100
AcDbPolyline
 90
       11
 70
   128
 43
0.0
 10
-0.9506654872064617
 20
0.6869582270477875
 10
-0.931419214577739
 20
0.700502011531548
 10
-0.9127299438381658
 20
0.7148046080603111
 10
-0.8946275738340956
 20
0.7298431355306902
 10
-0.8771410644958992
 20
0.7455935355067803
 10
-0.8602983905082615
 20
0.7620306107085245
 10
-0.8441264965566519
 20
0.7791280653219911
 10
-0.8286512542215724
 20
0.7968585470670578
 10
-0.8138974205895493
 20
0.8151936909552361
 10
-0.7998885986470783
 20
0.8341041646675947
 10
-0.7948443114923234
 20
0.8413198438294294
  0
LWPOLYLINE
  5
4CB
330
47C
100
AcDbEntity
  8
7052807
100
AcDbPolyline
 90
       11
 70
   128
 43
0.0
 10
0.7948443114943398
 20
0.8413198438294081
 10
0.8085686181231192
 20
0.8222018806585868
 10
0.8230464613886486
 20
0.8036480357034189
 10
0.8382546798301476
 20
0.7856879911578926
 10
0.8541689435423538
 20
0.7683504792620056
 10
0.8707637930981901
 20
0.7516632363363224
 10
0.8880126802784149
 20
0.7356529584097663
 10
0.9058880105431017
 20
0.7203452585116775
 10
0.9243611871770333
 20
0.7057646256964231
 10
0.9434026570383242
 20
0.6919343858661408
 10
0.9506654872084727
 20
0.6869582270477609
  0
LWPOLYLINE
  5
4CC
330
47C
100
AcDbEntity
  8
7052807
100
AcDbPolyline
 90
       26
 70
   128
 43
0.0
 10
-0.9686516180994114
 20
0.6531394236277956
 10
-0.968618992589009
 20
0.6547704816387238
 10
-0.968521168251657
 20
0.6563989303047732
 10
-0.9683583015854303
 20
0.658022164455463
 10
-0.9681306531422499
 20
0.6596375872624237
 10
-0.9678385871110606
 20
0.6612426143937721
 10
-0.9674825707352114
 20
0.6628346781484843
 10
-0.9670631735649561
 20
0.6644112315641714
 10
-0.9665810665463014
 20
0.6659697524916851
 10
-0.9660370209476326
 20
0.6675077476300092
 10
-0.9654319071258479
 20
0.6690227565150072
 10
-0.9647666931339827
 20
0.6705123554556499
 10
-0.9640424431725165
 20
0.6719741614113938
 10
-0.9632603158868917
 20
0.67340583580455
 10
-0.9624215625139171
 20
0.674805088261493
 10
-0.9615275248800667
 20
0.6761696802767846
 10
-0.9605796332548365
 20
0.6774974287942942
 10
-0.9595794040626209
 20
0.6787862096996388
 10
-0.958528437456756
 20
0.6800339612182885
 10
-0.9574284147596179
 20
0.6812386872139899
 10
-0.9562810957728631
 20
0.6823984603821428
 10
-0.9550883159621204
 20
0.6835114253330829
 10
-0.9538519835206425
 20
0.6845758015603117
 10
-0.9525740763165998
 20
0.6855898862889164
 10
-0.9512566387289108
 20
0.6865520571996592
 10
-0.9506654872064643
 20
0.6869582270477849
  0
LWPOLYLINE
  5
4CD
330
47C
100
AcDbEntity
  8
7052807
100
AcDbPolyline
 90
       26
 70
   128
 43
0.0
 10
0.9506654872084753
 20
0.6869582270477582
 10
0.9519996401161233
 20
0.6860193710002448
 10
0.953295181615511
 20
0.6850279140509504
 10
0.9545500391166045
 20
0.6839854423194948
 10
0.9557622051150918
 20
0.6828936235382647
 10
0.9569297404039575
 20
0.6817542043844017
 10
0.9580507771758
 20
0.6805690076854895
 10
0.9591235220109261
 20
0.6793399295034167
 10
0.9601462587464403
 20
0.6780689361010867
 10
0.9611173512217369
 20
0.6767580607968104
 10
0.9620352458960105
 20
0.6754094007114394
 10
0.9628984743335921
 20
0.6740251134134098
 10
0.9637056555531245
 20
0.6726074134670973
 10
0.9644554982368466
 20
0.6711585688899945
 10
0.9651468027964195
 20
0.6696808975243488
 10
0.9657784632920247
 20
0.6681767633291301
 10
0.9663494692016108
 20
0.6666485725981813
 10
0.9668589070375334
 20
0.6650987701106802
 10
0.9673059618079308
 20
0.663529835219996
 10
0.9676899183205309
 20
0.661944277887269
 10
0.9680101623268242
 20
0.6603446346659944
 10
0.9682661815047167
 20
0.6587334646440871
 10
0.9684575662781364
 20
0.6571133453498873
 10
0.9685840104722702
 20
0.6554868686286574
 10
0.9686453118033854
 20
0.6538566364961868
 10
0.9686516181014226
 20
0.6531394236277689
  0
LINE
  5
4CE
330
47C
100
AcDbEntity
  8
7052807
100
AcDbLine
 10
-0.9686516180994528
 20
0.6531394236277956
 30
0.0
 11
-0.9686516180994541
 21
0.5480588666228191
 31
0.0
  0
LINE
  5
4CF
330
47C
100
AcDbEntity
  8
7052807
100
AcDbLine
 10
0.9686516181014626
 20
0.5480588666227925
 30
0.0
 11
0.9686516181014638
 21
0.6531394236277689
 31
0.0
  0
LWPOLYLINE
  5
4D0
330
47C
100
AcDbEntity
  8
7052807
100
AcDbPolyline
 90
       25
 70
   128
 43
0.0
 10
-0.9839795929195682
 20
0.5180808847397668
 10
-0.9827981118906677
 20
0.5189706738110701
 10
-0.9816531579931
 20
0.5199069977857215
 10
-0.980546562908858
 20
0.5208883587451011
 10
-0.9794800969540155
 20
0.5219131867210188
 10
-0.978455466246598
 20
0.5229798422073319
 10
-0.9774743099771633
 20
0.5240866187828038
 10
-0.9765381977864397
 20
0.525231745841012
 10
-0.9756486272542392
 20
0.5264133914229451
 10
-0.9748070215036479
 20
0.5276296651477447
 10
-0.9740147269243335
 20
0.5288786212369058
 10
-0.9732730110186098
 20
0.5301582616271176
 10
-0.9725830603737012
 20
0.5314665391667292
 10
-0.971945978763459
 20
0.5328013608907619
 10
-0.9713627853825542
 20
0.5341605913692084
 10
-0.9708344132159894
 20
0.5355420561232501
 10
-0.9703617075465192
 20
0.5369435451039807
 10
-0.9699454246023728
 20
0.5383628162280011
 10
-0.9695862303474612
 20
0.5397975989642735
 10
-0.9692846994159669
 20
0.5412455979664889
 10
-0.969041314193058
 20
0.5427044967451323
 10
-0.9688564640431724
 20
0.5441719613733774
 10
-0.9687304446871142
 20
0.5456456442208594
 10
-0.9686634577289749
 20
0.5471231877093909
 10
-0.9686516180994129
 20
0.5480588666228165
  0
LWPOLYLINE
  5
4D1
330
47C
100
AcDbEntity
  8
7052807
100
AcDbPolyline
 90
       25
 70
   128
 43
0.0
 10
0.9686516181014212
 20
0.5480588666227898
 10
0.9686811973532398
 20
0.5465801012320256
 10
0.9687698877882093
 20
0.5451037015504327
 10
0.9689175475205519
 20
0.5436320295025535
 10
0.9691239403261915
 20
0.5421674394497261
 10
0.9693887360206707
 20
0.5407122744236045
 10
0.9697115109873639
 20
0.5392688623778118
 10
0.9700917488551798
 20
0.5378395124637102
 10
0.9705288413246424
 20
0.5364265113362504
 10
0.9710220891410427
 20
0.5350321194958127
 10
0.9715707032130927
 20
0.533658567671886
 10
0.972173805875313
 20
0.5323080532543819
 10
0.9728304322920953
 20
0.5309827367782726
 10
0.9735395320012461
 20
0.5296847384672013
 10
0.9742999705944994
 20
0.5284161348415731
 10
0.9751105315323222
 20
0.5271789553965706
 10
0.9759699180901229
 20
0.5259751793553843
 10
0.9768767554327409
 20
0.5248067325028926
 10
0.9778295928138705
 20
0.5236754841048003
 10
0.9788269058969653
 20
0.522583243917227
 10
0.9798670991938413
 20
0.5215317592914725
 10
0.9809485086171186
 20
0.520522712378635
 10
0.9820694041424092
 20
0.5195577174385192
 10
0.983227992575985
 20
0.5186383182571787
 10
0.9839795929215766
 20
0.5180808847397401
  0
LWPOLYLINE
  5
4D2
330
47C
100
AcDbEntity
  8
7052807
100
AcDbPolyline
 90
       20
 70
   128
 43
0.0
 10
-1.088397151426109
 20
0.3573458460778307
 10
-1.086007384872095
 20
0.3676958751667538
 10
-1.08320563910435
 20
0.3779420601629934
 10
-1.079996396318428
 20
0.3880680093562924
 10
-1.076384790618189
 20
0.3980575233880283
 10
-1.072376599802313
 20
0.4078946211667336
 10
-1.067978236121074
 20
0.4175635654344301
 10
-1.063196736018094
 20
0.4270488879428875
 10
-1.058039748873538
 20
0.4363354141995221
 10
-1.052515524766739
 20
0.4454082877433392
 10
-1.046632901277829
 20
0.4542529939121158
 10
-1.040401289349498
 20
0.4628553830627509
 10
-1.033830658231492
 20
0.4712016932076788
 10
-1.026931519531939
 20
0.4792785720311239
 10
-1.019714910401023
 20
0.48707309824994
 10
-1.012192375873888
 20
0.4945728022849221
 10
-1.004375950401059
 20
0.5017656862094656
 10
-0.9962781385958766
 20
0.5086402429436926
 10
-0.9879118952297872
 20
0.5151854746633223
 10
-0.983979592919567
 20
0.5180808847397681
  0
LWPOLYLINE
  5
4D3
330
47C
100
AcDbEntity
  8
7052807
100
AcDbPolyline
 90
       20
 70
   128
 43
0.0
 10
0.9839795929215753
 20
0.5180808847397415
 10
0.9924647672312422
 20
0.5116905871520837
 10
1.000687610560716
 20
0.504966084649802
 10
1.008634968114778
 20
0.4979181350024129
 10
1.01629412581669
 20
0.4905580134258691
 10
1.023652830647995
 20
0.4828974945446196
 10
1.030699310250738
 20
0.4749488335547156
 10
1.03742229176072
 20
0.4667247466181219
 10
1.043811019841688
 20
0.4582383905195522
 10
1.049855273891566
 20
0.4495033416184417
 10
1.055545384393245
 20
0.4405335741296532
 10
1.060872248383752
 20
0.4313434377677205
 10
1.065827344017038
 20
0.421947634790367
 10
1.070402744197117
 20
0.4123611964780223
 10
1.074591129259739
 20
0.4025994590869886
 10
1.078385798682274
 20
0.3926780393147024
 10
1.081780681803136
 20
0.3826128093163407
 10
1.084770347533533
 20
0.3724198713127629
 10
1.087350013046056
 20
0.3621155318304019
 10
1.088397151428112
 20
0.3573458460777987
  0
LWPOLYLINE
  5
4D4
330
47C
100
AcDbEntity
  8
7052807
100
AcDbPolyline
 90
       17
 70
   128
 43
0.0
 10
-1.229746388414655
 20
0.1125217860025829
 10
-1.216469282242016
 20
0.1249035118429747
 10
-1.203697933310603
 20
0.1378062762591126
 10
-1.1914527730543
 20
0.1512094375803692
 10
-1.179753391117356
 20
0.1650915536078201
 10
-1.16861850401513
 20
0.1794304159171858
 10
-1.158065925191676
 20
0.1942030853875607
 10
-1.14811253652201
 20
0.2093859288991291
 10
-1.138774261304729
 20
0.224954657141107
 10
-1.130066038788123
 20
0.2408843634694564
 10
-1.122001800270561
 20
0.2571495637522088
 10
-1.114594446813394
 20
0.2737242371386366
 10
-1.107855828602
 20
0.2905818676870655
 10
-1.101796725988025
 20
0.3076954867847166
 10
-1.09642683224311
 20
0.3250377162917466
 10
-1.091754738051729
 20
0.342580812340423
 10
-1.088397151426109
 20
0.3573458460778307
  0
LWPOLYLINE
  5
4D5
330
47C
100
AcDbEntity
  8
7052807
100
AcDbPolyline
 90
       17
 70
   128
 43
0.0
 10
1.088397151428112
 20
0.3573458460778001
 10
1.092481487462265
 20
0.339656671923356
 10
1.097269934759981
 20
0.3221449771000888
 10
1.102754832827058
 20
0.3048387765840907
 10
1.108927406996644
 20
0.2877657566043925
 10
1.115777782466808
 20
0.2709532303509119
 10
1.123295000098135
 20
0.2544280942791743
 10
1.131467033946005
 20
0.2382167850817203
 10
1.140280810499533
 20
0.2223452373950361
 10
1.149722229596407
 20
0.2068388423096732
 10
1.159776186980132
 20
0.1917224067499117
 10
1.170426598463624
 20
0.177020113787979
 10
1.181656425660479
 20
0.1627554839562955
 10
1.193447703242747
 20
0.1489513376196283
 10
1.205781567681638
 20
0.1356297584673933
 10
1.218638287425132
 20
0.1228120581844461
 10
1.229746388416651
 20
0.1125217860025482
  0
LWPOLYLINE
  5
4D6
330
47C
100
AcDbEntity
  8
7052807
100
AcDbPolyline
 90
       41
 70
   128
 43
0.0
 10
-1.286840152489725
 20
0.0887216853104882
 10
-1.286821114947714
 20
0.0896734354907405
 10
-1.286764032777685
 20
0.0906236630737338
 10
-1.286668997298934
 20
0.0915708478980369
 10
-1.286536160547954
 20
0.092513474669991
 10
-1.286365735035209
 20
0.0934500353878434
 10
-1.286157993405164
 20
0.0943790317542293
 10
-1.285913268000113
 20
0.0952989775731423
 10
-1.285631950328495
 20
0.0962084011275171
 10
-1.285314490438576
 20
0.0971058475336653
 10
-1.284961396198459
 20
0.0979898810687836
 10
-1.284573232483606
 20
0.0988590874677977
 10
-1.284150620273154
 20
0.0997120761858883
 10
-1.283694235656489
 20
0.1005474826230717
 10
-1.283204808751643
 20
0.1013639703072562
 10
-1.282683122537252
 20
0.1021602330323239
 10
-1.282130011599978
 20
0.1029349969477724
 10
-1.281546360799327
 20
0.1036870225966153
 10
-1.280933103852078
 20
0.1044151068982348
 10
-1.28029122183852
 20
0.1051180850730622
 10
-1.279621741632951
 20
0.1057948325059843
 10
-1.278925734260884
 20
0.1064442665454714
 10
-1.27820431318564
 20
0.1070653482355957
 10
-1.277458632527045
 20
0.1076570839781492
 10
-1.276689885215083
 20
0.1082185271221678
 10
-1.275899301081463
 20
0.1087487794783926
 10
-1.275088144892149
 20
0.1092469927561683
 10
-1.274257714324005
 20
0.1097123699205278
 10
-1.273409337888794
 20
0.1101441664672886
 10
-1.272544372807833
 20
0.1105416916140809
 10
-1.271664202840736
 20
0.1109043094054762
 10
-1.270770236071692
 20
0.1112314397303595
 10
-1.269863902656827
 20
0.1115225592499944
 10
-1.268946652536262
 20
0.1117772022352563
 10
-1.268019953114525
 20
0.1119949613116844
 10
-1.267085286913003
 20
0.1121754881112109
 10
-1.266144149198235
 20
0.1123184938294688
 10
-1.265198045589797
 20
0.1124237496878113
 10
-1.264248489651638
 20
0.1124910872993248
 10
-1.2632970004707
 20
0.1125203989381889
 10
-1.26304005179763
 20
0.1125217860025829
  0
LWPOLYLINE
  5
4D7
330
47C
100
AcDbEntity
  8
7052807
100
AcDbPolyline
 90
       41
 70
   128
 43
0.0
 10
1.263040051799625
 20
0.1125217860025482
 10
1.263991801979878
 20
0.1125027484605374
 10
1.264942029562871
 20
0.112445666290508
 10
1.265889214387175
 20
0.1123506308117561
 10
1.266831841159128
 20
0.1122177940607758
 10
1.267768401876979
 20
0.112047368548031
 10
1.268697398243366
 20
0.111839626917986
 10
1.269617344062281
 20
0.1115949015129358
 10
1.270526767616656
 20
0.1113135838413182
 10
1.271424214022804
 20
0.1109961239513997
 10
1.272308247557921
 20
0.1106430297112826
 10
1.273177453956934
 20
0.1102548659964293
 10
1.274030442675025
 20
0.1098322537859773
 10
1.274865849112209
 20
0.1093758691693123
 10
1.275682336796395
 20
0.1088864422644644
 10
1.276478599521462
 20
0.1083647560500756
 10
1.277253363436911
 20
0.1078116451128015
 10
1.278005389085754
 20
0.1072279943121506
 10
1.278733473387371
 20
0.1066147373648987
 10
1.279436451562201
 20
0.1059728553513415
 10
1.280113198995121
 20
0.1053033751457739
 10
1.280762633034607
 20
0.1046073677737056
 10
1.281383714724734
 20
0.1038859466984621
 10
1.281975450467285
 20
0.103140266039867
 10
1.282536893611305
 20
0.1023715187279059
 10
1.283067145967531
 20
0.1015809345942846
 10
1.283565359245307
 20
0.100769778404971
 10
1.284030736409668
 20
0.0999393478368271
 10
1.284462532956426
 20
0.0990909714016175
 10
1.284860058103219
 20
0.0982260063206562
 10
1.285222675894615
 20
0.097345836353558
 10
1.285549806219497
 20
0.0964518695845136
 10
1.285840925739134
 20
0.0955455361696485
 10
1.286095568724394
 20
0.0946282860490853
 10
1.286313327800822
 20
0.0937015866273472
 10
1.286493854600349
 20
0.0927669204258266
 10
1.286636860318607
 20
0.0918257827110567
 10
1.286742116176951
 20
0.0908796791026185
 10
1.286809453788461
 20
0.0899301231644609
 10
1.286838765427326
 20
0.0889786339835228
 10
1.286840152491721
 20
0.0887216853104536
  0
LINE
  5
4D8
330
47C
100
AcDbEntity
  8
7052807
100
AcDbLine
 10
-1.286840152489778
 20
0.0887216853104882
 30
0.0
 11
-1.286840152489778
 21
0.0000000000034699
 31
0.0
  0
LINE
  5
4D9
330
47C
100
AcDbEntity
  8
7052807
100
AcDbLine
 10
1.286840152491771
 20
0.0000000000034326
 30
0.0
 11
1.286840152491773
 21
0.0887216853104509
 31
0.0
  0
LWPOLYLINE
  5
4DA
330
47C
100
AcDbEntity
  8
7052807
100
AcDbPolyline
 90
       13
 70
   128
 43
0.0
 10
-0.7800715017303168
 20
0.9849554939152037
 10
-0.7799807295071908
 20
0.9894934999072161
 10
-0.7797085580540051
 20
0.9940242460576966
 10
-0.7792554227870268
 20
0.9985404841393121
 10
-0.7786220486260187
 20
1.003034989134546
 10
-0.7778094488345233
 20
1.007500570794181
 10
-0.7768189233988645
 20
1.011930085140172
 10
-0.7756520569484367
 20
1.016316445894475
 10
-0.7743107162206431
 20
1.020652635815591
 10
-0.7727970470745116
 20
1.02493171792465
 10
-0.7711134710577765
 20
1.0291468466031
 10
-0.7692626815329203
 20
1.033291278544234
 10
-0.7690648803760998
 20
1.033709222679387
  0
LWPOLYLINE
  5
4DB
330
47C
100
AcDbEntity
  8
7052807
100
AcDbPolyline
 90
       13
 70
   128
 43
0.0
 10
0.7690648803781216
 20
1.033709222679366
 10
0.7709325414304969
 20
1.029572366364063
 10
0.772633278423564
 20
1.0253641325706
 10
0.7741643705409331
 20
1.02109125357534
 10
0.7755233683618384
 20
1.016760565073173
 10
0.7767080977796674
 20
1.012378995241874
 10
0.7777166634800804
 20
1.007953553658487
 10
0.7785474519731047
 20
1.0034913200855
 10
0.7791991341743805
 20
0.9989994331447423
 10
0.779670667531401
 20
0.994485078897097
 10
0.779961297691383
 20
0.989955479346349
 10
0.780070559708072
 20
0.9854178808855202
 10
0.7800715017323372
 20
0.9849554939151824
  0
LWPOLYLINE
  5
4DC
330
47C
100
AcDbEntity
  8
7052807
100
AcDbPolyline
 90
       25
 70
   128
 43
0.0
 10
-0.5021350246242179
 20
3.244434825479804
 10
-0.5020944050405959
 20
3.24646553385647
 10
-0.5019726112723985
 20
3.248492993532928
 10
-0.5017698381636718
 20
3.250513961006196
 10
-0.5014864101081372
 20
3.252525203159435
 10
-0.501122780530218
 20
3.254523502434242
 10
-0.5006795311596718
 20
3.256505661978058
 10
-0.5001573711009365
 20
3.258468510758452
 10
-0.4995571356987162
 20
3.260408908636093
 10
-0.4988797852016128
 20
3.262323751388307
 10
-0.4981264032259271
 20
3.264209975675167
 10
-0.4972981950221064
 20
3.266064563940188
 10
-0.4963964855466033
 20
3.267884549237772
 10
-0.4954227173422231
 20
3.269667019979683
 10
-0.4943784482303683
 20
3.271409124592976
 10
-0.4932653488188496
 20
3.273108076081896
 10
-0.4920851998292798
 20
3.27476115648649
 10
-0.4908398892482874
 20
3.276365721230743
 10
-0.4895314093071536
 20
3.277919203353357
 10
-0.488161853294654
 20
3.279419117614326
 10
-0.4867334122082535
 20
3.280863064470796
 10
-0.4852483712489711
 20
3.282248733915825
 10
-0.4837091061655513
 20
3.283573909173894
 10
-0.482118079453768
 20
3.284836470247277
 10
-0.48048070303267
 20
3.286032390228856
  0
LWPOLYLINE
  5
4DD
330
47C
100
AcDbEntity
  8
7052807
100
AcDbPolyline
 90
       25
 70
   128
 43
0.0
 10
0.4804807030347542
 20
3.286032390228843
 10
0.4821208635168326
 20
3.284834350139925
 10
0.4837118032199836
 20
3.283571679429655
 10
0.4852509769800612
 20
3.282246398101818
 10
0.4867359224473919
 20
3.280860626323822
 10
0.4881642640259971
 20
3.2794165810349
 10
0.489533716674049
 20
3.277916572399467
 10
0.4908420895594439
 20
3.276363000111352
 10
0.4920872895646704
 20
3.274758349554809
 10
0.4932673246353485
 20
3.27310518782842
 10
0.494380306967092
 20
3.27140615963829
 10
0.4954244560255956
 20
3.269663983067083
 10
0.4963981013951042
 20
3.267881445225672
 10
0.4972996854507248
 20
3.266061397794344
 10
0.4981277658502996
 20
3.264206752460736
 10
0.4988810178418339
 20
3.262320476261745
 10
0.4995582363828286
 20
3.260405586836906
 10
0.5001583380680835
 20
3.258465147600809
 10
0.5006803628629159
 20
3.256502262842294
 10
0.5011234756390158
 20
3.254520072758247
 10
0.5014869675104635
 20
3.252521748429961
 10
0.5017702569678065
 20
3.250510486750072
 10
0.5019728908083455
 20
3.248489505308223
 10
0.5020945448611636
 20
3.2464620372436
 10
0.5021350246263009
 20
3.244434825479791
  0
LINE
  5
4DE
330
47C
100
AcDbEntity
  8
7052807
100
AcDbLine
 10
-0.5021350246242339
 20
3.244434825479805
 30
0.0
 11
-0.5021350246242352
 21
3.135789348401119
 31
0.0
  0
LINE
  5
4DF
330
47C
100
AcDbEntity
  8
7052807
100
AcDbLine
 10
0.5021350246263142
 20
3.135789348401104
 30
0.0
 11
0.5021350246263154
 21
3.244434825479791
 31
0.0
  0
LWPOLYLINE
  5
4E0
330
47C
100
AcDbEntity
  8
7052807
100
AcDbPolyline
 90
       25
 70
   128
 43
0.0
 10
-0.481289263720695
 20
3.095745014282334
 10
-0.4828681814950656
 20
3.096898320200547
 10
-0.4843997163678432
 20
3.098113843467571
 10
-0.4858814182099415
 20
3.099389639505475
 10
-0.487310916614491
 20
3.100723667312756
 10
-0.4886859246889898
 20
3.102113792729499
 10
-0.4900042427138379
 20
3.103557791851581
 10
-0.4912637616614203
 20
3.105053354588443
 10
-0.4924624665701046
 20
3.106598088358745
 10
-0.4935984397677472
 20
3.108189521917976
 10
-0.4946698639395587
 20
3.109825109311933
 10
-0.4956750250354253
 20
3.111502233949688
 10
-0.4966123150120138
 20
3.113218212789591
 10
-0.4974802344053072
 20
3.114970300631554
 10
-0.4982773947294234
 20
3.116755694508789
 10
-0.4990025206978938
 20
3.118571538171956
 10
-0.4996544522638559
 20
3.120414926658551
 10
-0.5002321464758725
 20
3.122282910940233
 10
-0.5007346791464437
 20
3.124172502640633
 10
-0.5011612463304937
 20
3.126080678816121
 10
-0.5015111656115271
 20
3.128004386791874
 10
-0.5017838771933386
 20
3.129940549045497
 10
-0.5019789447955724
 20
3.131886068130413
 10
-0.5020960563516771
 20
3.133837831631105
 10
-0.5021350246242179
 20
3.135789348401119
  0
LWPOLYLINE
  5
4E1
330
47C
100
AcDbEntity
  8
7052807
100
AcDbPolyline
 90
       25
 70
   128
 43
0.0
 10
0.5021350246262994
 20
3.135789348401104
 10
0.5020959217560178
 20
3.133834465579872
 10
0.5019786757014313
 20
3.131882710154135
 10
0.5017834740312088
 20
3.129937204516222
 10
0.5015106290263887
 20
3.128001061060133
 10
0.501160577180772
 20
3.126077377202379
 10
0.5007338785026356
 20
3.124169230426763
 10
0.500231215618843
 20
3.122279673361081
 10
0.4996533926827789
 20
3.120411728893553
 10
0.4990013340878774
 20
3.118568385336854
 10
0.4982760829887944
 20
3.116752591647448
 10
0.4974787996325738
 20
3.114967252707887
 10
0.4966107595025091
 20
3.113215224679628
 10
0.4956733512776374
 20
3.111499310433765
 10
0.4946680746111458
 20
3.109822255067054
 10
0.4935965377312554
 20
3.108186741510325
 10
0.4924604548683906
 20
3.106595386236379
 10
0.4912616435127803
 20
3.105050735074183
 10
0.4900020215068614
 20
3.103555259136089
 10
0.4886836039771396
 20
3.102111350864581
 10
0.4873085001104134
 20
3.100721320204875
 10
0.485878909779528
 20
3.099387390909502
 10
0.4843971200240544
 20
3.09811169698078
 10
0.4828655013914991
 20
3.096896279256859
 10
0.4812892637227726
 20
3.095745014282321
  0
LINE
  5
4E2
330
47C
100
AcDbEntity
  8
7052807
100
AcDbLine
 10
1.286840152491769
 20
0.0000000000034341
 30
0.0
 11
-1.286840152489778
 21
0.0000000000034697
 31
0.0
  0
LINE
  5
4E3
330
47C
100
AcDbEntity
  8
7052807
100
AcDbLine
 10
-0.3411928293342354
 20
3.379877302457392
 30
0.0
 11
0.3411928293363206
 21
3.379877302457384
 31
0.0
  0
LWPOLYLINE
  5
4E4
330
47C
100
AcDbEntity
  8
7052807
100
AcDbPolyline
 90
        4
 70
   128
 43
0.0
 10
1.07343129845794
 20
7.193171971334772
 10
0.4179173111291527
 20
6.662512625716956
 10
-0.0500125253740964
 20
5.950666777093977
 10
-0.3898948458189757
 20
5.16862292499025
1001
REVIT
1002
{
1070
     2
1000
-2001160
1002
}
  0
LINE
  5
4E5
330
47C
100
AcDbEntity
  8
7052807
100
AcDbLine
 10
1.263040051799625
 20
0.1125217860025482
 30
0.0
 11
-1.26304005179763
 21
0.1125217860025829
 31
0.0
  0
ENDBLK
  5
47E
330
47C
100
AcDbEntity
  8
0
100
AcDbBlockEnd
  0
BLOCK
  5
4E8
330
4E7
100
AcDbEntity
  8
0
100
AcDbBlockBegin
  2
AMSTN_Delancey_7052807_Front View
 70
     0
 10
0.0
 20
0.0
 30
0.0
  3
AMSTN_Delancey_7052807_Front View
  1

  0
LINE
  5
4EA
330
4E7
100
AcDbEntity
  8
7052807
100
AcDbLine
 10
-1.286840152490142
 20
0.0870078373153315
 30
0.0
 11
-1.286840152490142
 21
0.0000000000000123
 31
0.0
1001
REVIT
1002
{
1070
     2
1000
-2001160
1002
}
  0
LINE
  5
4EB
330
4E7
100
AcDbEntity
  8
7052807
100
AcDbLine
 10
1.286840152490139
 20
-0.0000000000000143
 30
0.0
 11
1.286840152490139
 21
0.0870078373153035
 31
0.0
1001
REVIT
1002
{
1070
     2
1000
-2001160
1002
}
  0
LWPOLYLINE
  5
4EC
330
4E7
100
AcDbEntity
  8
7052807
100
AcDbPolyline
 90
       24
 70
   128
 43
0.0
 10
-1.286840152490114
 20
0.0870078373153315
 10
-1.286800195826508
 20
0.0890054041108107
 10
-1.286680389757824
 20
0.0909997752255446
 10
-1.28648092594822
 20
0.0929877600911903
 10
-1.286202123497236
 20
0.0949661783560444
 10
-1.285844428429323
 20
0.09693186497292
 10
-1.285408412980281
 20
0.0988816752625573
 10
-1.284894774681824
 20
0.1008124899444279
 10
-1.284304335245652
 20
0.1027212201269293
 10
-1.283638039248913
 20
0.1046048122489401
 10
-1.282896952623065
 20
0.1064602529648807
 10
-1.282082260948618
 20
0.1082845739654087
 10
-1.281195267558462
 20
0.1100748567260899
 10
-1.280237391452805
 20
0.1118282371764171
 10
-1.279210165029081
 20
0.1135419102817015
 10
-1.278115231630435
 20
0.1152131345305415
 10
-1.276954342916736
 20
0.1168392363206453
 10
-1.27572935606228
 20
0.1184176142360343
 10
-1.274442230784716
 20
0.1199457432087446
 10
-1.27309502620992
 20
0.1214211785584033
 10
-1.27168989757782
 20
0.122841559903195
 10
-1.270229092794485
 20
0.1242046149359653
 10
-1.268714948835945
 20
0.1255081630594329
 10
-1.267218402701555
 20
0.1266978541360245
1001
REVIT
1002
{
1070
     2
1000
-2001160
1002
}
  0
LWPOLYLINE
  5
4ED
330
4E7
100
AcDbEntity
  8
7052807
100
AcDbPolyline
 90
       24
 70
   128
 43
0.0
 10
1.267218402701555
 20
0.1266978541359992
 10
1.26878131869142
 20
0.1254532002700584
 10
1.270293211635802
 20
0.1241470420246283
 10
1.271751662828513
 20
0.1227814689742742
 10
1.273154339058759
 20
0.1213586657445645
 10
1.274498996343805
 20
0.1198809085171558
 10
1.275783483518825
 20
0.1183505613883707
 10
1.277005745678359
 20
0.1167700725871595
 10
1.278163827463682
 20
0.115141970558453
 10
1.27925587619098
 20
0.1134688599181846
 10
1.280280144815254
 20
0.1117534172864681
 10
1.281234994725199
 20
0.1099983870055742
 10
1.28211889836465
 20
0.1082065767495653
 10
1.282930441676342
 20
0.1063808530326183
 10
1.283668326364097
 20
0.1045241366232122
 10
1.284331371969816
 20
0.1026393978715248
 10
1.28491851776198
 20
0.1007296519575032
 10
1.285428824432564
 20
0.0987979540672183
 10
1.285861475599762
 20
0.0968473945052207
 10
1.286215779113994
 20
0.0948810937507124
 10
1.286491168165227
 20
0.092902197465447
 10
1.286687202189717
 20
0.0909138714613386
 10
1.28680356757485
 20
0.0889192966358378
 10
1.28684015249011
 20
0.0870078373153035
1001
REVIT
1002
{
1070
     2
1000
-2001160
1002
}
  0
LWPOLYLINE
  5
4EE
330
4E7
100
AcDbEntity
  8
7052807
100
AcDbPolyline
 90
       16
 70
   128
 43
0.0
 10
-1.267218402701555
 20
0.1266978541360245
 10
-1.253126052474616
 20
0.137920529125528
 10
-1.239493761925379
 20
0.1496977708747601
 10
-1.226343339810654
 20
0.1620107383092696
 10
-1.213695824000552
 20
0.174839733307785
 10
-1.201571447822376
 20
0.1881642322150151
 10
-1.189989607691614
 20
0.201962918675118
 10
-1.178968832081817
 20
0.2162137177333191
 10
-1.168526751882987
 20
0.2308938311511345
 10
-1.158680072195915
 20
0.2459797738786847
 10
-1.149444545607588
 20
0.2614474116257688
 10
-1.140834946990407
 20
0.2772719994715798
 10
-1.132865049865548
 20
0.2934282214512945
 10
-1.125547604368248
 20
0.3098902310562249
 10
-1.118894316850337
 20
0.3266316925827091
 10
-1.113091337730848
 20
0.3430942508910209
1001
REVIT
1002
{
1070
     2
1000
-2001160
1002
}
  0
LWPOLYLINE
  5
4EF
330
4E7
100
AcDbEntity
  8
7052807
100
AcDbPolyline
 90
       16
 70
   128
 43
0.0
 10
1.11309133773085
 20
0.3430942508909969
 10
1.119090940267348
 20
0.3261075638024933
 10
1.125765030068446
 20
0.3093743843626629
 10
1.133102930014192
 20
0.2929214820890523
 10
1.14109290103001
 20
0.2767751781155392
 10
1.149722160866708
 20
0.2609613030841145
 10
1.158976904549358
 20
0.2455051558213877
 10
1.168842326462311
 20
0.2304314628658382
 10
1.179302644035015
 20
0.2157643389106484
 10
1.190341122990769
 20
0.2015272482253255
 10
1.201940104117994
 20
0.1877429671178839
 10
1.214081031521207
 20
0.1744335474976023
 10
1.226744482306482
 20
0.1616202815966859
 10
1.239910197653959
 20
0.1493236679072213
 10
1.253557115227621
 20
0.1375633783879782
 10
1.267218402701555
 20
0.1266978541359965
1001
REVIT
1002
{
1070
     2
1000
-2001160
1002
}
  0
LWPOLYLINE
  5
4F0
330
4E7
100
AcDbEntity
  8
7052807
100
AcDbPolyline
 90
       11
 70
   128
 43
0.0
 10
-1.113091337730848
 20
0.3430942508910209
 10
-1.10595142455433
 20
0.3633095018565305
 10
-1.098008828120276
 20
0.3832230624033664
 10
-1.08927625488865
 20
0.4028030750826538
 10
-1.079767675113775
 20
0.4220182160509521
 10
-1.069498300494899
 20
0.4408377451817252
 10
-1.058484559840733
 20
0.4592315552429776
 10
-1.046744072786848
 20
0.4771702200624225
 10
-1.034295621608031
 20
0.494625041603053
 10
-1.021159121170631
 20
0.5115680958739056
 10
-1.007479469943726
 20
0.5278308434729857
1001
REVIT
1002
{
1070
     2
1000
-2001160
1002
}
  0
LWPOLYLINE
  5
4F1
330
4E7
100
AcDbEntity
  8
7052807
100
AcDbPolyline
 90
       11
 70
   128
 43
0.0
 10
1.007479469943731
 20
0.5278308434729658
 10
1.021277249091557
 20
0.5114218208831043
 10
1.03440780559973
 20
0.4944741597597363
 10
1.046850133378868
 20
0.4770149727453526
 10
1.058584327358747
 20
0.4590721908147465
 10
1.069591615332164
 20
0.4406745185914159
 10
1.079854387986454
 20
0.4218513884262961
 10
1.089356227074645
 20
0.4026329133122582
 10
1.09808193168115
 20
0.3830498387097665
 10
1.10601754253998
 20
0.3631334933606818
 10
1.11309133773085
 20
0.3430942508909969
1001
REVIT
1002
{
1070
     2
1000
-2001160
1002
}
  0
LWPOLYLINE
  5
4F2
330
4E7
100
AcDbEntity
  8
7052807
100
AcDbPolyline
 90
       19
 70
   128
 43
0.0
 10
-1.007479469943726
 20
0.5278308434729857
 10
-1.005846828780182
 20
0.5297724636023372
 10
-1.004293137651643
 20
0.5317778188757762
 10
-1.002820882132482
 20
0.5338437011526514
 10
-1.001432417517463
 20
0.5359668054620175
 10
-1.000129965053783
 20
0.5381437352898859
 10
-0.9989156083875414
 20
0.5403710080129177
 10
-0.9977912902303529
 20
0.5426450604698826
 10
-0.9967588092514283
 20
0.5449622546619518
 10
-0.9958198172000845
 20
0.5473188835727328
 10
-0.9949758162632953
 20
0.5497111770986816
 10
-0.9942281566625137
 20
0.5521353080804927
 10
-0.9935780344936127
 20
0.5545873984257098
 10
-0.9930264898133724
 20
0.5570635253128675
 10
-0.9925744049756293
 20
0.5595597274671594
 10
-0.9922225032196809
 20
0.5620720114976326
 10
-0.9919713475132692
 20
0.5645963582857612
 10
-0.9918213396519472
 20
0.567128729415188
 10
-0.9917726976109371
 20
0.5696122403439733
1001
REVIT
1002
{
1070
     2
1000
-2001160
1002
}
  0
LWPOLYLINE
  5
4F3
330
4E7
100
AcDbEntity
  8
7052807
100
AcDbPolyline
 90
       19
 70
   128
 43
0.0
 10
0.9917726976109442
 20
0.5696122403439519
 10
0.9918234304322197
 20
0.5670759375078449
 10
0.9919755477343663
 20
0.5645436922152232
 10
0.9922288061621422
 20
0.5620195555183776
 10
0.992582800556093
 20
0.5595075654975651
 10
0.9930369646007015
 20
0.5570117408009584
 10
0.9935905717303796
 20
0.5545360742156572
 10
0.9942427362918166
 20
0.5520845262800841
 10
0.9949924149608371
 20
0.5496610189479674
 10
0.9958384084114868
 20
0.54726942931405
 10
0.9967793632347223
 20
0.5449135834115671
 10
0.9978137741035482
 20
0.5425972500914116
 10
0.998939986181238
 20
0.540324134992771
 10
1.00015619776871
 20
0.5380978746148938
 10
1.001460463186873
 20
0.5359220304994786
 10
1.002850695889289
 20
0.5338000835329526
 10
1.004324671800194
 20
0.5317354283778045
 10
1.005880032872564
 20
0.5297313680418466
 10
1.007479469943731
 20
0.5278308434729658
1001
REVIT
1002
{
1070
     2
1000
-2001160
1002
}
  0
LINE
  5
4F4
330
4E7
100
AcDbEntity
  8
7052807
100
AcDbLine
 10
-0.9917726976109602
 20
0.6713114365847702
 30
0.0
 11
-0.9917726976109602
 21
0.5696122403439733
 31
0.0
1001
REVIT
1002
{
1070
     2
1000
-2001160
1002
}
  0
LINE
  5
4F5
330
4E7
100
AcDbEntity
  8
7052807
100
AcDbLine
 10
0.991772697610969
 20
0.5696122403439519
 30
0.0
 11
0.991772697610969
 21
0.6713114365847501
 31
0.0
1001
REVIT
1002
{
1070
     2
1000
-2001160
1002
}
  0
LWPOLYLINE
  5
4F6
330
4E7
100
AcDbEntity
  8
7052807
100
AcDbPolyline
 90
       25
 70
   128
 43
0.0
 10
-0.9917726976109371
 20
0.6713114365847702
 10
-0.9917402118070484
 20
0.672935510201506
 10
-0.991642806365732
 20
0.6745569856469052
 10
-0.9914806371149182
 20
0.6761732689061527
 10
-0.9912539634908146
 20
0.6777817742708211
 10
-0.9909631481228622
 20
0.6793799284754576
 10
-0.9906086562536167
 20
0.6809651748142541
 10
-0.9901910549944439
 20
0.6825349772312384
 10
-0.9897110124182795
 20
0.6840868243774166
 10
-0.9891692964908358
 20
0.6856182336283958
 10
-0.9885667738420416
 20
0.6871267550560586
 10
-0.9879044083796024
 20
0.688609975347924
 10
-0.9871832597469634
 20
0.6900655216679248
 10
-0.9864044816280941
 20
0.6914910654524535
 10
-0.9855693199018595
 20
0.6928843261355489
 10
-0.9846791106488588
 20
0.6942430747973355
 10
-0.9837352780140005
 20
0.6955651377298022
 10
-0.9827393319281565
 20
0.6968483999142851
 10
-0.9816928656926098
 20
0.6980908084050361
 10
-0.9805975534300994
 20
0.6992903756135027
 10
-0.9794551474065933
 20
0.7004451824880461
 10
-0.97826747522803
 20
0.7015533815840087
 10
-0.9770364369165367
 20
0.7026132000192471
 10
-0.9757640018708055
 20
0.7036229423103409
 10
-0.9751858714144745
 20
0.7040551043801815
1001
REVIT
1002
{
1070
     2
1000
-2001160
1002
}
  0
LWPOLYLINE
  5
4F7
330
4E7
100
AcDbEntity
  8
7052807
100
AcDbPolyline
 90
       25
 70
   128
 43
0.0
 10
0.9751858714144852
 20
0.7040551043801616
 10
0.9764760507763519
 20
0.7030681354575269
 10
0.9777257299022608
 20
0.7020303625910963
 10
0.9789329095721974
 20
0.7009434459960778
 10
0.9800956585562019
 20
0.6998091245071596
 10
0.9812121167039471
 20
0.6986292127967476
 10
0.9822804979205557
 20
0.6974055984718789
 10
0.9832990930239944
 20
0.6961402390544473
 10
0.9842662724793882
 20
0.6948351588495941
 10
0.9851804890059199
 20
0.6934924457072425
 10
0.9860402800521761
 20
0.6921142476819908
 10
0.9868442701358972
 20
0.6907027695966822
 10
0.9875911730444535
 20
0.6892602695151482
 10
0.9882797938925271
 20
0.6877890551298077
 10
0.9889090310336499
 20
0.6862914800698333
 10
0.9894778778226367
 20
0.6847699401358537
 10
0.9899854242259635
 20
0.6832268694671868
 10
0.9904308582776657
 20
0.6816647366477316
 10
0.9908134673782704
 20
0.6800860407567633
 10
0.9911326394348449
 20
0.6784933073709338
 10
0.9913878638401776
 20
0.676889084523898
 10
0.9915787322896711
 20
0.6752759386299941
 10
0.9917049394345198
 20
0.6736564503785337
 10
0.9917662833702145
 20
0.6720332106052453
 10
0.9917726976109477
 20
0.6713114365847501
1001
REVIT
1002
{
1070
     2
1000
-2001160
1002
}
  0
LWPOLYLINE
  5
4F8
330
4E7
100
AcDbEntity
  8
7052807
100
AcDbPolyline
 90
       18
 70
   128
 43
0.0
 10
-0.9751858714144745
 20
0.7040551043801815
 10
-0.9584894141630329
 20
0.7168276574935952
 10
-0.9423170781913992
 20
0.730257674135615
 10
-0.9266947357872155
 20
0.7443236691445259
 10
-0.9116473793657391
 20
0.7590031399289029
 10
-0.8971990814873151
 20
0.77427260246694
 10
-0.8833729563464061
 20
0.7901076288758942
 10
-0.8701911227938268
 20
0.8064828864914657
 10
-0.8576746689512795
 20
0.8233721783946712
 10
-0.845843618474884
 20
0.8407484853213247
 10
-0.8347168985215791
 20
0.8585840088870916
 10
-0.8243123094697129
 20
0.8768502160589719
 10
-0.8146464964422452
 20
0.8955178848020761
 10
-0.8057349226780843
 20
0.9145571508286389
 10
-0.7975918447942263
 20
0.9339375553745121
 10
-0.7902302899781813
 20
0.9536280939266841
 10
-0.783662035147275
 20
0.9735972658239006
 10
-0.7810383399224268
 20
0.9824211349327971
1001
REVIT
1002
{
1070
     2
1000
-2001160
1002
}
  0
LWPOLYLINE
  5
4F9
330
4E7
100
AcDbEntity
  8
7052807
100
AcDbPolyline
 90
       18
 70
   128
 43
0.0
 10
0.7810383399224428
 20
0.9824211349327798
 10
0.7872558327790671
 20
0.9623399850562888
 10
0.7942713841178311
 20
0.9425235313574702
 10
0.8020737705531644
 20
0.9230034759349583
 10
0.8106505099311966
 20
0.9038110467133712
 10
0.8199878812985232
 20
0.8849769474852974
 10
0.8300709468528246
 20
0.8665313087917752
 10
0.8408835758401522
 20
0.8485036397198555
 10
0.8524084703607002
 20
0.8309227806943548
 10
0.8646271930417448
 20
0.8138168573393322
 10
0.8775201965335241
 20
0.797213235483082
 10
0.8910668547808064
 20
0.7811384773786621
 10
0.9052454960201963
 20
0.7656182992099393
 10
0.9200334374503285
 20
0.7506775299511885
 10
0.9354070215195093
 20
0.7363400716460291
 10
0.9513416537727437
 20
0.7226288611692551
 10
0.9678118421976407
 20
0.7095658335327267
 10
0.9751858714144852
 20
0.7040551043801616
1001
REVIT
1002
{
1070
     2
1000
-2001160
1002
}
  0
LWPOLYLINE
  5
4FA
330
4E7
100
AcDbEntity
  8
7052807
100
AcDbPolyline
 90
       29
 70
   128
 43
0.0
 10
-0.7810383399224268
 20
0.9824211349327971
 10
-0.7786787832427838
 20
0.9912817475156197
 10
-0.7766754439544883
 20
1.00022962965405
 10
-0.7750315269730379
 20
1.009250466645452
 10
-0.7737496622149252
 20
1.018329827074977
 10
-0.77283190039031
 20
1.027453185902766
 10
-0.7722797097223353
 20
1.036605947700907
 10
-0.772093973598274
 20
1.045773470003009
 10
-0.7722749891563013
 20
1.054941086729023
 10
-0.772822466810144
 20
1.064094131647838
 10
-0.7737355307123402
 20
1.073217961840133
 10
-0.7750127201554271
 20
1.082297981123911
 10
-0.7766519919087429
 20
1.091319663405287
 10
-0.7786507234871803
 20
1.100268575917133
 10
-0.7810057173465808
 20
1.10913040230843
 10
-0.783713205999149
 20
1.117890965547375
 10
-0.7867688580406025
 20
1.126536250601603
 10
-0.7901677850795164
 20
1.13505242685926
 10
-0.7939045495576878
 20
1.143425870255019
 10
-0.7979731734490905
 20
1.151643185065686
 10
-0.8023671478234248
 20
1.1596912253405
 10
-0.8070794432590222
 20
1.167557115931841
 10
-0.8121025210884251
 20
1.175228273092733
 10
-0.8174283454586301
 20
1.182692424608144
 10
-0.8230483961867687
 20
1.189937629427919
 10
-0.828953682390555
 20
1.196952296769903
 10
-0.8351347568717866
 20
1.203725204662735
 10
-0.841581731229855
 20
1.210245517898595
 10
-0.8422594262672635
 20
1.210901339666298
1001
REVIT
1002
{
1070
     2
1000
-2001160
1002
}
  0
LWPOLYLINE
  5
4FB
330
4E7
100
AcDbEntity
  8
7052807
100
AcDbPolyline
 90
       29
 70
   128
 43
0.0
 10
0.8422594262672831
 20
1.210901339666281
 10
0.8357856839496307
 20
1.204407602416285
 10
0.8295768001643502
 20
1.197660178818483
 10
0.8236427078010031
 20
1.190669863311255
 10
0.8179929001414976
 20
1.183447838908228
 10
0.8126364156728662
 20
1.17600565930783
 10
0.8075818236275935
 20
1.168355230409839
 10
0.8028372102747063
 20
1.160508791268488
 10
0.7984101659834338
 20
1.152478894512588
 10
0.7943077730802557
 20
1.144278386263992
 10
0.7905365945186916
 20
1.135920385586551
 10
0.7871026633799581
 20
1.127418263498404
 10
0.7840114732213479
 20
1.118785621581202
 10
0.781267969287697
 20
1.11003627022048
 10
0.7788765406000487
 20
1.101184206511989
 10
0.7768410129341597
 20
1.092243591869319
 10
0.7751646427000694
 20
1.083228729368672
 10
0.7738501117325463
 20
1.074154040866979
 10
0.7728995230007243
 20
1.065034043930015
 10
0.7723143972437932
 20
1.05588332860738
 10
0.7720956705381355
 20
1.046716534091545
 10
0.7722436927998296
 20
1.037548325298254
 10
0.7727582272248306
 20
1.028393369405799
 10
0.7736384506678214
 20
1.019266312390653
 10
0.7748829549590575
 20
1.010181755597039
 10
0.776489749157161
 20
1.001154232377892
 10
0.7784562627341778
 20
0.9921981848445915
 10
0.7807793496878795
 20
0.9833279407626706
 10
0.7810383399224428
 20
0.9824211349327798
1001
REVIT
1002
{
1070
     2
1000
-2001160
1002
}
  0
LWPOLYLINE
  5
4FC
330
4E7
100
AcDbEntity
  8
7052807
100
AcDbPolyline
 90
       49
 70
   128
 43
0.0
 10
-0.84225942626726
 20
1.210901339666298
 10
-0.8444718370228798
 20
1.213120583718828
 10
-0.8465937319938134
 20
1.215426525445887
 10
-0.848621716600757
 20
1.217815475832621
 10
-0.8505525465009515
 20
1.220283613068025
 10
-0.8523831327784421
 20
1.22282698865903
 10
-0.8541105468856962
 20
1.225441533747251
 10
-0.8557320253286295
 20
1.228123065618284
 10
-0.8572449740876368
 20
1.230867294393166
 10
-0.8586469727674437
 20
1.233669829891262
 10
-0.8599357784692447
 20
1.236526188653616
 10
-0.8611093293788432
 20
1.239431801115533
 10
-0.8621657480651307
 20
1.242382018916906
 10
-0.863103344483564
 20
1.245372122338596
 10
-0.8639206186798862
 20
1.248397327852986
 10
-0.8646162631897222
 20
1.251452795776596
 10
-0.8651891651302587
 20
1.254533638012544
 10
-0.8656384079805974
 20
1.257634925870465
 10
-0.8659632730480115
 20
1.26075169795136
 10
-0.8661632406176966
 20
1.263878968084774
 10
-0.8662379907841994
 20
1.26701173330561
 10
-0.8661874039631971
 20
1.270144981857802
 10
-0.8660115610828107
 20
1.273273701212057
 10
-0.8657107434541408
 20
1.276392886084831
 10
-0.8652854323212206
 20
1.279497546445722
 10
-0.8647363080911354
 20
1.282582715500441
 10
-0.8640642492455139
 20
1.285643457636639
 10
-0.8632703309351406
 20
1.288674876319818
 10
-0.8623558232599553
 20
1.291672121926753
 10
-0.8613221892371534
 20
1.294630399503854
 10
-0.8601710824606723
 20
1.297544976438061
 10
-0.8589043444557997
 20
1.300411190028023
 10
-0.8575240017331218
 20
1.303224454943424
 10
-0.8560322625465346
 20
1.305980270560527
 10
-0.8544315133605184
 20
1.308674228162223
 10
-0.8527243150322938
 20
1.311302017991029
 10
-0.8509133987150043
 20
1.313859436143784
 10
-0.8490016614884492
 20
1.316342391296999
 10
-0.8469921617243727
 20
1.318746911252094
 10
-0.8448881141937327
 20
1.321069149290081
 10
-0.8426928849237338
 20
1.323305390325482
 10
-0.8404099858129185
 20
1.325452056849682
 10
-0.8380430690128743
 20
1.327505714654169
 10
-0.8355959210855647
 20
1.329463078324549
 10
-0.83307245694564
 20
1.331321016496498
 10
-0.8304767135974149
 20
1.33307655686528
 10
-0.8278128436765204
 20
1.334726890940799
 10
-0.8250851088065669
 20
1.336269378540589
 10
-0.8228439058759704
 20
1.337432013627938
1001
REVIT
1002
{
1070
     2
1000
-2001160
1002
}
  0
LWPOLYLINE
  5
4FD
330
4E7
100
AcDbEntity
  8
7052807
100
AcDbPolyline
 90
       49
 70
   128
 43
0.0
 10
0.8228439058759953
 20
1.337432013627921
 10
0.8256199264722887
 20
1.335978220257042
 10
0.8283355903192557
 20
1.334414578550462
 10
0.8309865529340463
 20
1.332743590001353
 10
0.833568573341985
 20
1.330967927834936
 10
0.8360775208612238
 20
1.329090432731885
 10
0.8385093817109456
 20
1.327114108283861
 10
0.8408602654325569
 20
1.325042116188382
 10
0.8431264111136052
 20
1.322877771190801
 10
0.8453041934044094
 20
1.320624535781414
 10
0.8473901283178797
 20
1.318286014656208
 10
0.8493808788031316
 20
1.315865948950126
 10
0.8512732600840529
 20
1.313368210252046
 10
0.8530642447542859
 20
1.310796794411064
 10
0.8547509676204114
 20
1.308155815143982
 10
0.8563307302856628
 20
1.30544949745425
 10
0.8578010054667686
 20
1.302682170872855
 10
0.8591594410370824
 20
1.299858262531998
 10
0.8604038637894824
 20
1.296982290082618
 10
0.8615322829130178
 20
1.29405885446713
 10
0.8625428931778138
 20
1.291092632558884
 10
0.8634340778230296
 20
1.288088369680173
 10
0.8642044111433406
 20
1.285050872010727
 10
0.8648526607697668
 20
1.281984998898854
 10
0.8653777896411902
 20
1.278895655087512
 10
0.8657789576634371
 20
1.275787782867779
 10
0.8660555230532516
 20
1.272666354172226
 10
0.8662070433650086
 20
1.269536362620895
 10
0.8662332761985283
 20
1.266402815532575
 10
0.8661341795868757
 20
1.263270725914154
 10
0.8659099120634898
 20
1.260145104440874
 10
0.8655608324085655
 20
1.257030951440332
 10
0.8650874990750843
 20
1.25393324889301
 10
0.8644906692954066
 20
1.250856952462176
 10
0.8637712978698672
 20
1.247806983565877
 10
0.8629305356392826
 20
1.244788221503724
 10
0.8619697276438742
 20
1.241805495651046
 10
0.860890410971475
 20
1.238863577732929
 10
0.8596943122985116
 20
1.235967174190464
 10
0.8583833451277129
 20
1.233120918651452
 10
0.8569596067268889
 20
1.230329364517586
 10
0.8554253747737732
 20
1.227596977679985
 10
0.8537831037121961
 20
1.224928129374707
 10
0.8520354208255334
 20
1.222327089189717
 10
0.8501851220335794
 20
1.219798018234454
 10
0.8482351674196912
 20
1.217344962482938
 10
0.8461886764952808
 20
1.21497184630108
 10
0.8440489232092751
 20
1.212682466168536
 10
0.8422594262672795
 20
1.210901339666281
1001
REVIT
1002
{
1070
     2
1000
-2001160
1002
}
  0
LWPOLYLINE
  5
4FE
330
4E7
100
AcDbEntity
  8
7052807
100
AcDbPolyline
 90
       30
 70
   128
 43
0.0
 10
-0.8228439058759704
 20
1.337432013627938
 10
-0.8218271501316927
 20
1.337964485455708
 10
-0.8208325008774259
 20
1.338537190748054
 10
-0.8198615493397998
 20
1.33914921329868
 10
-0.8189158488341465
 20
1.339799574002059
 10
-0.8179969122795398
 20
1.340487232419805
 10
-0.8171062097784318
 20
1.341211088445143
 10
-0.8162451662648244
 20
1.341969984062844
 10
-0.8154151592246563
 20
1.342762705201811
 10
-0.8146175164921345
 20
1.343587983677325
 10
-0.8138535141254745
 20
1.344444499219878
 10
-0.8131243743654898
 20
1.345330881587313
 10
-0.8124312636802457
 20
1.346245712756926
 10
-0.811775290898991
 20
1.347187529194002
 10
-0.8111575054382385
 20
1.348154824193149
 10
-0.8105788956229389
 20
1.349146050288715
 10
-0.8100403871053654
 20
1.350159621730398
 10
-0.8095428413842729
 20
1.351193917020107
 10
-0.8090870544266763
 20
1.352247281506018
 10
-0.80867375539448
 20
1.353318030029659
 10
-0.808303605477965
 20
1.354404449621804
 10
-0.8079771968380438
 20
1.355504802242865
 10
-0.8076950516589036
 20
1.356617327563378
 10
-0.8074576213126469
 20
1.357740245780155
 10
-0.8072652856371753
 20
1.358871760463592
 10
-0.8071183523285458
 20
1.360010061431574
 10
-0.8070170564487018
 20
1.361153327645375
 10
-0.8069615600494479
 20
1.362299730122938
 10
-0.8069519519131791
 20
1.363447434864852
 10
-0.8069671356880387
 20
1.364104948447794
1001
REVIT
1002
{
1070
     2
1000
-2001160
1002
}
  0
LWPOLYLINE
  5
4FF
330
4E7
100
AcDbEntity
  8
7052807
100
AcDbPolyline
 90
       30
 70
   128
 43
0.0
 10
0.8069671356880618
 20
1.364104948447776
 10
0.8069504381485295
 20
1.362957324954175
 10
0.8069796466646508
 20
1.361809951713472
 10
0.8070547145090358
 20
1.360664664278097
 10
0.8071755215891442
 20
1.359523294863626
 10
0.8073418746394196
 20
1.358387669417645
 10
0.8075535075304713
 20
1.357259604698616
 10
0.8078100816948143
 20
1.356140905369447
 10
0.8081111866685191
 20
1.355033361110421
 10
0.8084563407478633
 20
1.353938743756089
 10
0.8088449917599476
 20
1.352858804460711
 10
0.8092765179460634
 20
1.351795270896788
 10
0.8097502289563607
 20
1.350749844491145
 10
0.810265366954276
 20
1.349724197703018
 10
0.8108211078289109
 20
1.348719971348477
 10
0.8114165625134113
 20
1.347738771975465
 10
0.8120507784073041
 20
1.346782169293667
 10
0.8127227409004582
 20
1.345851693663308
 10
0.8134313749962238
 20
1.344948833646909
 10
0.8141755470312155
 20
1.344075033627895
 10
0.8149540664889229
 20
1.343231691499895
 10
0.815765687904296
 20
1.34242015643041
 10
0.8166091128562023
 20
1.341641726702434
 10
0.8174829920446384
 20
1.340897647637477
 10
0.8183859274493237
 20
1.340189109603312
 10
0.8193164745662286
 20
1.339517246109648
 10
0.8202731447184667
 20
1.338883131994751
 10
0.8212544074378733
 20
1.338287781705935
 10
0.8222586929134259
 20
1.337732147676662
 10
0.8228439058759953
 20
1.337432013627921
1001
REVIT
1002
{
1070
     2
1000
-2001160
1002
}
  0
LWPOLYLINE
  5
500
330
4E7
100
AcDbEntity
  8
7052807
100
AcDbPolyline
 90
       22
 70
   128
 43
0.0
 10
-0.8069671356880405
 20
1.364104948447794
 10
-0.8078718021685347
 20
1.380673079246447
 10
-0.8094382935316914
 20
1.397191780297419
 10
-0.8116641037254979
 20
1.41363462520283
 10
-0.8145456719284585
 20
1.429975308918451
 10
-0.8180783882461515
 20
1.446187689836161
 10
-0.8222566010860692
 20
1.462245831604951
 10
-0.8270736261989792
 20
1.478124044623546
 10
-0.8325217573722714
 20
1.493796927138286
 10
-0.8385922787582789
 20
1.509239405880516
 10
-0.8452754788177578
 20
1.524426776178471
 10
-0.8525606658562878
 20
1.539334741479475
 10
-0.8604361851286981
 20
1.553939452219237
 10
-0.8688894374841709
 20
1.568217543976083
 10
-0.8779068995222036
 20
1.582146174849033
 10
-0.8874741452271575
 20
1.595703061999971
 10
-0.8975758690468094
 20
1.608866517301439
 10
-0.9081959103779659
 20
1.621615482033006
 10
-0.9193172794199853
 20
1.63392956057074
 10
-0.9309221843548343
 20
1.645789053015838
 10
-0.9429920598101961
 20
1.657174986710283
 10
-0.9472225706242323
 20
1.660956442728652
1001
REVIT
1002
{
1070
     2
1000
-2001160
1002
}
  0
LWPOLYLINE
  5
501
330
4E7
100
AcDbEntity
  8
7052807
100
AcDbPolyline
 90
       22
 70
   128
 43
0.0
 10
0.9472225706242625
 20
1.660956442728632
 10
0.9349980933030472
 20
1.64973665958343
 10
0.9232320659175101
 20
1.638037002359176
 10
0.9119433116015187
 20
1.625876188011633
 10
0.9011498899538317
 20
1.613273671249593
 10
0.8908690681466175
 20
1.600249613411478
 10
0.8811172933016422
 20
1.586824850211513
 10
0.8719101661783881
 20
1.573020858407023
 10
0.8632624162161697
 20
1.558859721440196
 10
0.8551878779701738
 20
1.544364094109302
 10
0.8476994689791155
 20
1.529557166325832
 10
0.8408091690999413
 20
1.514462626015598
 10
0.8345280013426012
 20
1.499104621223099
 10
0.8288660142356008
 20
1.483507721479803
 10
0.8238322657504824
 20
1.46769687849814
 10
0.8194348088110139
 20
1.451697386254079
 10
0.8156806784102244
 20
1.435534840522169
 10
0.8125758803559151
 20
1.419235097927753
 10
0.8101253816626545
 20
1.402824234581892
 10
0.808333102605605
 20
1.386328504365138
 10
0.8072019104489207
 20
1.36977429692694
 10
0.8069671356880618
 20
1.364104948447776
1001
REVIT
1002
{
1070
     2
1000
-2001160
1002
}
  0
LWPOLYLINE
  5
502
330
4E7
100
AcDbEntity
  8
7052807
100
AcDbPolyline
 90
       11
 70
   128
 43
0.0
 10
-0.9472225706242323
 20
1.660956442728652
 10
-0.9508464456842258
 20
1.664024744498761
 10
-0.9545901213755687
 20
1.666945675603897
 10
-0.9584476086157618
 20
1.669714563177391
 10
-0.9624127362481083
 20
1.67232697758979
 10
-0.9664791609142451
 20
1.67477873953532
 10
-0.9706403772021605
 20
1.67706592671788
 10
-0.9748897280534798
 20
1.679184880125889
 10
-0.9792204154133141
 20
1.68113220988591
 10
-0.9836255111057212
 20
1.682904800685737
 10
-0.9877816735474294
 20
1.684393602958246
1001
REVIT
1002
{
1070
     2
1000
-2001160
1002
}
  0
LWPOLYLINE
  5
503
330
4E7
100
AcDbEntity
  8
7052807
100
AcDbPolyline
 90
       11
 70
   128
 43
0.0
 10
0.9877816735474596
 20
1.684393602958226
 10
0.9833137171567827
 20
1.682786023444192
 10
0.9789136206890844
 20
1.681001059221067
 10
0.9745884233600712
 20
1.679041565850833
 10
0.9703450445628085
 20
1.676910678104881
 10
0.966190272798169
 20
1.674611804949039
 10
0.9621307548146695
 20
1.672148624089956
 10
0.9581729849750999
 20
1.669525076091557
 10
0.9543232948669277
 20
1.666745358070977
 10
0.9505878431730998
 20
1.663813916984076
 10
0.9472225706242625
 20
1.660956442728632
1001
REVIT
1002
{
1070
     2
1000
-2001160
1002
}
  0
LWPOLYLINE
  5
504
330
4E7
100
AcDbEntity
  8
7052807
100
AcDbPolyline
 90
       60
 70
   128
 43
0.0
 10
-0.9877816735474294
 20
1.684393602958246
 10
-0.990994594593797
 20
1.685549618282194
 10
-0.9941587173629091
 20
1.686833191490622
 10
-0.997268979933306
 20
1.688242269140212
 10
-1.000320406548368
 20
1.689774597007313
 10
-1.003308115576444
 20
1.691427723694215
 10
-1.006227327320438
 20
1.693199004550867
 10
-1.009073371664284
 20
1.695085605905753
 10
-1.011841695544161
 20
1.697084509599158
 10
-1.014527870232402
 20
1.699192517811582
 10
-1.017127598422527
 20
1.701406258179572
 10
-1.019636721104014
 20
1.703722189190773
 10
-1.02205122421582
 20
1.706136605849613
 10
-1.024367245068035
 20
1.708645645604481
 10
-1.026581078521351
 20
1.711245294527006
 10
-1.028689182914503
 20
1.713931393733471
 10
-1.030688185730168
 20
1.71669964603815
 10
-1.03257488899027
 20
1.719545622827886
 10
-1.034346274372072
 20
1.722464771146925
 10
-1.035999508036834
 20
1.725452420980673
 10
-1.037531945163363
 20
1.728503792726729
 10
-1.038941134179165
 20
1.731614004841224
 10
-1.04022482068242
 20
1.734778081648248
 10
-1.041380951048564
 20
1.737990961299882
 10
-1.042407675715638
 20
1.741247503874058
 10
-1.043303352143201
 20
1.744542499597351
 10
-1.044066547440031
 20
1.747870677179496
 10
-1.044696040656461
 20
1.751226712246336
 10
-1.045190824737632
 20
1.754605235857683
 10
-1.045550108134559
 20
1.758000843096468
 10
-1.045773316070452
 20
1.761408101715469
 10
-1.04586009146023
 20
1.764821560827738
 10
-1.045810295481777
 20
1.768235759626859
 10
-1.045624007798039
 20
1.771645236123081
 10
-1.045301526429568
 20
1.775044535881324
 10
-1.044843367277765
 20
1.77842822074712
 10
-1.044250263299533
 20
1.781790877546499
 10
-1.043523163334718
 20
1.785127126745909
 10
-1.042663230588155
 20
1.788431631058327
 10
-1.041671840768801
 20
1.791699103981778
 10
-1.040550579888877
 20
1.794924318256604
 10
-1.039301241726601
 20
1.798102114227979
 10
-1.037925824956523
 20
1.80122740810024
 10
-1.03642652995207
 20
1.804295200069885
 10
-1.034805755265413
 20
1.807300582324191
 10
-1.033066093790308
 20
1.810238746892664
 10
-1.031210328614005
 20
1.813104993338771
 10
-1.02924142856491
 20
1.81589473627963
 10
-1.027162543463091
 20
1.81860351272165
 10
-1.024976999081244
 20
1.821226989200364
 10
-1.022688291824151
 20
1.823760968713055
 10
-1.020300083135193
 20
1.82620139743305
 10
-1.017816193638815
 20
1.828544371194998
 10
-1.01524059702834
 20
1.830786141740689
 10
-1.012577413708918
 20
1.832923122715465
 10
-1.009830904205745
 20
1.834951895405632
 10
-1.00700546234813
 20
1.836869214207671
 10
-1.004105608240324
 20
1.838672011820502
 10
-1.001135981030289
 20
1.840357404152521
 10
-0.999569894534158
 20
1.841184385253151
1001
REVIT
1002
{
1070
     2
1000
-2001160
1002
}
  0
LWPOLYLINE
  5
505
330
4E7
100
AcDbEntity
  8
7052807
100
AcDbPolyline
 90
       60
 70
   128
 43
0.0
 10
0.9995698945341935
 20
1.841184385253131
 10
1.002573844869981
 20
1.839560958180697
 10
1.005510472598178
 20
1.837818703702908
 10
1.008375079740869
 20
1.835960409055264
 10
1.011163083537702
 20
1.833989047112788
 10
1.01387002377735
 20
1.831907771634056
 10
1.016491569932878
 20
1.829719912215848
 10
1.019023528089668
 20
1.827428968966516
 10
1.021461847654794
 20
1.825038606906552
 10
1.023802627837099
 20
1.822552650105332
 10
1.026042123887634
 20
1.819975075563433
 10
1.028176753090445
 20
1.817310006850266
 10
1.030203100494173
 20
1.814561707507254
 10
1.032117924375238
 20
1.811734574227074
 10
1.033918161423908
 20
1.808833129819885
 10
1.035600931644928
 20
1.805862015977798
 10
1.037163542964918
 20
1.802825985849153
 10
1.03860349553911
 20
1.799729896434507
 10
1.039918485750554
 20
1.79657870081646
 10
1.041106409895427
 20
1.793377440235779
 10
1.042165367548513
 20
1.790131236026494
 10
1.04309366460346
 20
1.786845281422855
 10
1.043889815983011
 20
1.783524833251262
 10
1.044552548014795
 20
1.780175203520463
 10
1.045080800468934
 20
1.776801750923479
 10
1.045473728254187
 20
1.773409872264832
 10
1.045730702769922
 20
1.770004993826818
 10
1.045851312911732
 20
1.766592562688598
 10
1.045835365729118
 20
1.763178038012049
 10
1.045682886734173
 20
1.759766882308259
 10
1.045394119860755
 20
1.756364552698679
 10
1.044969527074265
 20
1.752976492184896
 10
1.044409787632584
 20
1.749608120940981
 10
1.043715796999421
 20
1.746264827642379
 10
1.042888665411741
 20
1.742951960845168
 10
1.041929716103638
 20
1.739674820429517
 10
1.040840483189438
 20
1.736438649121007
 10
1.039622709209453
 20
1.733248624103383
 10
1.03827834234227
 20
1.730109848736171
 10
1.036809533288092
 20
1.727027344390389
 10
1.035218631828076
 20
1.724006042415424
 10
1.033508183065187
 20
1.721050776249928
 10
1.031680923352567
 20
1.718166273689339
 10
1.029739775915963
 20
1.71535714932243
 10
1.027687846177183
 20
1.712627897148939
 10
1.025528416786087
 20
1.709982883390132
 10
1.023264942369049
 20
1.707426339503787
 10
1.020901044002286
 20
1.704962355414752
 10
1.018440503418911
 20
1.70259487297195
 10
1.015887256958976
 20
1.700327679642251
 10
1.013245389272153
 20
1.698164402451344
 10
1.010519126783165
 20
1.696108502181257
 10
1.007712830930429
 20
1.694163267833854
 10
1.004830991188661
 20
1.692331811369129
 10
1.001878217886694
 20
1.690617062726738
 10
0.9988592348319151
 20
1.689021765138714
 10
0.995778871753199
 20
1.687548470740885
 10
0.9926420565743576
 20
1.686199536490002
 10
0.9894538075305341
 20
1.68497712039311
 10
0.9877816735474596
 20
1.684393602958226
1001
REVIT
1002
{
1070
     2
1000
-2001160
1002
}
  0
LWPOLYLINE
  5
506
330
4E7
100
AcDbEntity
  8
7052807
100
AcDbPolyline
 90
       31
 70
   128
 43
0.0
 10
-0.7691574980941152
 20
5.300659350095878
 10
-0.7773053688070846
 20
5.323100639716972
 10
-0.7823788609810834
 20
5.347479783896946
 10
-0.7837492157101842
 20
5.372884227004874
 10
-0.78122716974001
 20
5.398101368760601
 10
-0.7751544414385521
 20
5.421976017800149
 10
-0.7662421656680341
 20
5.443730560583115
 10
-0.7552894137690825
 20
5.463064744346967
 10
-0.7429673670287312
 20
5.480052803477946
 10
-0.7297388394505547
 20
5.49497159949601
 10
-0.7158749462109153
 20
5.508161039586213
 10
-0.7015082721119921
 20
5.519944472473244
 10
-0.6866852802290513
 20
5.530596030705149
 10
-0.6714051213088741
 20
5.540334432722137
 10
-0.6556445526745556
 20
5.549328421529388
 10
-0.6393725399317347
 20
5.557705761134871
 10
-0.6225581899391859
 20
5.565562169568189
 10
-0.6051747000953967
 20
5.572968905817239
 10
-0.5872010541623212
 20
5.579978778656934
 10
-0.5686225036949076
 20
5.586630743784839
 10
-0.5494304321377364
 20
5.592953362036571
 10
-0.5296219333115442
 20
5.598967382736565
 10
-0.5091992825431433
 20
5.604687671368132
 10
-0.4881693921523809
 20
5.610124651571899
 10
-0.4665432952522402
 20
5.615285388953434
 10
-0.4443356760861104
 20
5.620174410671118
 10
-0.4215644517165434
 20
5.624794329533663
 10
-0.3982504032654308
 20
5.629146322757601
 10
-0.3744168519719206
 20
5.633230502016121
 10
-0.3500893743427156
 20
5.637046201620199
 10
-0.3358504341601538
 20
5.639123545087396
1001
REVIT
1002
{
1070
     2
1000
-2001160
1002
}
  0
LWPOLYLINE
  5
507
330
4E7
100
AcDbEntity
  8
7052807
100
AcDbPolyline
 90
       31
 70
   128
 43
0.0
 10
0.76915749809422
 20
5.300659350095864
 10
0.7773053688071912
 20
5.323100639716956
 10
0.78237886098119
 20
5.347479783896931
 10
0.7837492157102908
 20
5.372884227004858
 10
0.7812271697401201
 20
5.398101368760585
 10
0.7751544414386587
 20
5.421976017800134
 10
0.7662421656681424
 20
5.4437305605831
 10
0.7552894137691908
 20
5.463064744346952
 10
0.7429673670288395
 20
5.480052803477932
 10
0.7297388394506648
 20
5.494971599495995
 10
0.7158749462110237
 20
5.5081610395862
 10
0.7015082721121005
 20
5.51994447247323
 10
0.6866852802291632
 20
5.530596030705136
 10
0.671405121308986
 20
5.540334432722126
 10
0.6556445526746657
 20
5.549328421529374
 10
0.6393725399318449
 20
5.557705761134858
 10
0.6225581899392943
 20
5.565562169568178
 10
0.6051747000955068
 20
5.572968905817228
 10
0.5872010541624313
 20
5.579978778656923
 10
0.5686225036950212
 20
5.586630743784829
 10
0.5494304321378501
 20
5.592953362036561
 10
0.5296219333116526
 20
5.598967382736555
 10
0.5091992825432535
 20
5.604687671368123
 10
0.4881693921524928
 20
5.61012465157189
 10
0.4665432952523503
 20
5.615285388953425
 10
0.4443356760862223
 20
5.62017441067111
 10
0.4215644517166553
 20
5.624794329533655
 10
0.3982504032655427
 20
5.629146322757593
 10
0.3744168519720326
 20
5.633230502016115
 10
0.3500893743428257
 20
5.637046201620193
 10
0.3358504341602639
 20
5.639123545087391
1001
REVIT
1002
{
1070
     2
1000
-2001160
1002
}
  0
LWPOLYLINE
  5
508
330
4E7
100
AcDbEntity
  8
7052807
100
AcDbPolyline
 90
        7
 70
   128
 43
0.0
 10
-0.7114488979622529
 20
5.585731490805542
 10
-0.7120721168361861
 20
5.574681625475315
 10
-0.71099429086593
 20
5.563668794171784
 10
-0.7082874594482682
 20
5.5529486945616
 10
-0.7041045136932916
 20
5.542697373129704
 10
-0.698619337593323
 20
5.532989177951345
 10
-0.693396094231364
 20
5.525773750109328
1001
REVIT
1002
{
1070
     2
1000
-2001160
1002
}
  0
LWPOLYLINE
  5
509
330
4E7
100
AcDbEntity
  8
7052807
100
AcDbPolyline
 90
        7
 70
   128
 43
0.0
 10
0.711448897962363
 20
5.585731490805526
 10
0.7120721168362963
 20
5.574681625475299
 10
0.7109942908660401
 20
5.56366879417177
 10
0.7082874594483784
 20
5.552948694561587
 10
0.7041045136933981
 20
5.542697373129691
 10
0.6986193375934313
 20
5.532989177951331
 10
0.6919804606351363
 20
5.523818183164172
1001
REVIT
1002
{
1070
     2
1000
-2001160
1002
}
  0
LWPOLYLINE
  5
50A
330
4E7
100
AcDbEntity
  8
7052807
100
AcDbPolyline
 90
       40
 70
   128
 43
0.0
 10
-0.7114488979622618
 20
5.585731490805547
 10
-0.7075287495962819
 20
5.604351462279199
 10
-0.7012169204465817
 20
5.621617204188823
 10
-0.6930693992357285
 20
5.637226819452776
 10
-0.6835871863978796
 20
5.651167079106238
 10
-0.6731345053471945
 20
5.663598619804263
 10
-0.6619357879089219
 20
5.674749026618115
 10
-0.6501088226178045
 20
5.684846163147176
 10
-0.6377026813704348
 20
5.694087828492024
 10
-0.6247275134839417
 20
5.702633536483969
 10
-0.6111743177242826
 20
5.71060674512436
 10
-0.5970267967450376
 20
5.718100747691901
 10
-0.5822679332148156
 20
5.725185014153946
 10
-0.566883352508004
 20
5.731910749904286
 10
-0.5508628413889465
 20
5.738315365690577
 10
-0.5342008586560354
 20
5.744425924049066
 10
-0.5168965233960936
 20
5.750261741962997
 10
-0.498953353152972
 20
5.755836338387689
 10
-0.4803788998124113
 20
5.761158888114325
 10
-0.4611843603398782
 20
5.766235309057401
 10
-0.4413842002728253
 20
5.771069078968975
 10
-0.4209958065717956
 20
5.775661852607265
 10
-0.4000391752143547
 20
5.780013931387292
 10
-0.378536633275564
 20
5.784124623485401
 10
-0.3565125926387616
 20
5.787992522117041
 10
-0.3339933314980517
 20
5.791615722276191
 10
-0.3110067996606922
 20
5.794991990847388
 10
-0.2875824439012042
 20
5.798118901104236
 10
-0.2637510500271905
 20
5.800993939774715
 10
-0.2395445987684805
 20
5.803614592783484
 10
-0.2149961330361165
 20
5.805978414260532
 10
-0.1901396344895225
 20
5.808083082281322
 10
-0.1650099076894484
 20
5.809926443966371
 10
-0.139642470400986
 20
5.811506551940391
 10
-0.1140734488486963
 20
5.812821693675778
 10
-0.0883394769201722
 20
5.813870414881947
 10
-0.0624775984706005
 20
5.814651537820756
 10
-0.0365251720043567
 20
5.81516417520705
 10
-0.0105197771045518
 20
5.815407740175757
 10
0.0000000000000533
 20
5.815429755214028
1001
REVIT
1002
{
1070
     2
1000
-2001160
1002
}
  0
LWPOLYLINE
  5
50B
330
4E7
100
AcDbEntity
  8
7052807
100
AcDbPolyline
 90
        7
 70
   128
 43
0.0
 10
0.7114488979623737
 20
5.585731490805533
 10
0.707528749596392
 20
5.604351462279185
 10
0.7012169204466936
 20
5.621617204188809
 10
0.6930693992358421
 20
5.637226819452762
 10
0.6835871863979932
 20
5.651167079106224
 10
0.6731345053473064
 20
5.66359861980425
 10
0.661937499999997
 20
5.674747321913
1001
REVIT
1002
{
1070
     2
1000
-2001160
1002
}
  0
LWPOLYLINE
  5
50C
330
4E7
100
AcDbEntity
  8
7052807
100
AcDbPolyline
 90
       34
 70
   128
 43
0.0
 10
0.6619357879090338
 20
5.674749026618102
 10
0.6501088226179164
 20
5.684846163147162
 10
0.6377026813705449
 20
5.694087828492013
 10
0.6247275134840536
 20
5.702633536483957
 10
0.6111743177243945
 20
5.710606745124348
 10
0.5970267967451513
 20
5.718100747691889
 10
0.5822679332149292
 20
5.725185014153934
 10
0.5668833525081176
 20
5.731910749904275
 10
0.5508628413890584
 20
5.738315365690565
 10
0.5342008586561491
 20
5.744425924049056
 10
0.5168965233962055
 20
5.750261741962988
 10
0.4989533531530875
 20
5.75583633838768
 10
0.4803788998125249
 20
5.761158888114317
 10
0.4611843603399955
 20
5.766235309057393
 10
0.4413842002729389
 20
5.771069078968967
 10
0.4209958065719093
 20
5.775661852607258
 10
0.4000391752144701
 20
5.780013931387284
 10
0.3785366332756759
 20
5.784124623485393
 10
0.3565125926388752
 20
5.787992522117034
 10
0.3339933314981671
 20
5.791615722276184
 10
0.3110067996608095
 20
5.794991990847384
 10
0.2875824439013215
 20
5.79811890110423
 10
0.2637510500273059
 20
5.800993939774711
 10
0.239544598768596
 20
5.803614592783479
 10
0.2149961330362302
 20
5.805978414260529
 10
0.1901396344896398
 20
5.808083082281319
 10
0.1650099076895657
 20
5.809926443966369
 10
0.1396424704010997
 20
5.811506551940389
 10
0.1140734488488135
 20
5.812821693675777
 10
0.0883394769202894
 20
5.813870414881946
 10
0.0624775984707142
 20
5.814651537820755
 10
0.0365251720044739
 20
5.81516417520705
 10
0.0105197771046655
 20
5.815407740175759
 10
0.0000000000000533
 20
5.815429755214029
1001
REVIT
1002
{
1070
     2
1000
-2001160
1002
}
  0
LINE
  5
50D
330
4E7
100
AcDbEntity
  8
7052807
100
AcDbLine
 10
-1.286840152490142
 20
0.0000000000000132
 30
0.0
 11
1.286840152490139
 21
-0.0000000000000132
 31
0.0
1001
REVIT
1002
{
1070
     2
1000
-2001160
1002
}
  0
LINE
  5
50E
330
4E7
100
AcDbEntity
  8
7052807
100
AcDbLine
 10
0.9972173156918024
 20
1.841184385252993
 30
0.0
 11
-0.9995698945341615
 21
1.841184385253148
 31
0.0
1001
REVIT
1002
{
1070
     2
1000
-2001160
1002
}
  0
LINE
  5
50F
330
4E7
100
AcDbEntity
  8
7052807
100
AcDbLine
 10
0.999569894534197
 20
1.841184385253128
 30
0.0
 11
0.9725331910864376
 21
1.841184385253126
 31
0.0
1001
REVIT
1002
{
1070
     2
1000
-2001160
1002
}
  0
ELLIPSE
  5
510
330
4E7
100
AcDbEntity
  8
7052807
100
AcDbEllipse
 10
0.0000000000000533
 20
5.323455821643729
 30
0.0
 11
-0.7741841720922821
 21
0.0000000000000083
 31
0.0
210
0.0
220
0.0
230
1.0
 40
0.2588190451025234
 41
4.712388980384681
 42
7.853981633974478
1001
REVIT
1002
{
1070
     2
1000
-2001160
1002
}
  0
ELLIPSE
  5
511
330
4E7
100
AcDbEntity
  8
7052807
100
AcDbEllipse
 10
0.0000000000000533
 20
5.32345582164373
 30
0.0
 11
-0.7741841720922831
 21
0.000000000000008
 31
0.0
210
0.0
220
0.0
230
1.0
 40
0.258819045102523
 41
1.570796326794892
 42
4.712388980384681
1001
REVIT
1002
{
1070
     2
1000
-2001160
1002
}
  0
LWPOLYLINE
  5
512
330
4E7
100
AcDbEntity
  8
7052807
100
AcDbPolyline
 90
        3
 70
   128
 43
0.0
 10
-0.6236051399890333
 20
5.885566896853975
 10
-0.6317906321430442
 20
5.813544208460662
 10
-0.6441392007817957
 20
5.689293093594255
1001
REVIT
1002
{
1070
     2
1000
-2001160
1002
}
  0
LWPOLYLINE
  5
513
330
4E7
100
AcDbEntity
  8
7052807
100
AcDbPolyline
 90
        4
 70
   128
 43
0.0
 10
-0.689285654115917
 20
5.235030148379312
 10
-0.7163979754682064
 20
4.962226372234245
 10
-0.8680585828712832
 20
3.409806812194337
 10
-0.9972173156917456
 20
1.841184385253148
1001
REVIT
1002
{
1070
     2
1000
-2001160
1002
}
  0
LWPOLYLINE
  5
514
330
4E7
100
AcDbEntity
  8
7052807
100
AcDbPolyline
 90
        3
 70
   128
 43
0.0
 10
0.623784363275707
 20
5.883989943058546
 10
0.6317906321431615
 20
5.813544208460728
 10
0.6441392007819218
 20
5.689293093594232
1001
REVIT
1002
{
1070
     2
1000
-2001160
1002
}
  0
LWPOLYLINE
  5
515
330
4E7
100
AcDbEntity
  8
7052807
100
AcDbPolyline
 90
        4
 70
   128
 43
0.0
 10
0.6892856541160306
 20
5.235030148379305
 10
0.7163979754683006
 20
4.962226372234381
 10
0.868058582871356
 20
3.409806812194406
 10
0.9972173156917918
 20
1.841184385253128
1001
REVIT
1002
{
1070
     2
1000
-2001160
1002
}
  0
LWPOLYLINE
  5
516
330
4E7
100
AcDbEntity
  8
7052807
100
AcDbPolyline
 90
       18
 70
   128
 43
0.0
 10
0.0000000000000817
 20
7.782310917728085
 10
-0.0914996461667137
 20
7.774403166454488
 10
-0.1802348179036848
 20
7.750932482334007
 10
-0.2636802646833285
 20
7.712578643407794
 10
-0.3393271102313911
 20
7.660493846547876
 10
-0.404879639040118
 20
7.59633396706831
 10
-0.4582634383873004
 20
7.522489456827651
 10
-0.4799916179619928
 20
7.482729291873059
 10
-0.4981326377069877
 20
7.441962312373494
 10
-0.5126589912514384
 20
7.401043900634475
 10
-0.5240068711145636
 20
7.360082446448231
 10
-0.5394857903589081
 20
7.278573115472164
 10
-0.5575430383492659
 20
7.118081022440413
 10
-0.5788496121836709
 20
6.838922482319864
 10
-0.593146903435736
 20
6.616843384362036
 10
-0.6117083549022038
 20
6.267511651852172
 10
-0.6268053272544663
 20
5.786833113380866
 10
-0.6285110567874348
 20
5.700141618342379
1001
REVIT
1002
{
1070
     2
1000
-2001160
1002
}
  0
LWPOLYLINE
  5
517
330
4E7
100
AcDbEntity
  8
7052807
100
AcDbPolyline
 90
       18
 70
   128
 43
0.0
 10
0.0000000000000817
 20
7.782310917728085
 10
0.0914996461670121
 20
7.774403166454463
 10
0.1802348179039903
 20
7.750932482333953
 10
0.2636802646836251
 20
7.712578643407711
 10
0.3393271102316717
 20
7.660493846547777
 10
0.4048796390403738
 20
7.59633396706819
 10
0.4582634383875331
 20
7.52248945682752
 10
0.4799916179622131
 20
7.482729291872921
 10
0.4981326377071973
 20
7.44196231237335
 10
0.5126589912516373
 20
7.401043900634328
 10
0.5240068711147501
 20
7.360082446448091
 10
0.5394857903590911
 20
7.278573115471969
 10
0.5575430383494613
 20
7.118081022439938
 10
0.5788496121838414
 20
6.838922482319464
 10
0.5931469034358905
 20
6.616843384361742
 10
0.6117083549023441
 20
6.267511651852005
 10
0.6268053272545906
 20
5.786833113380768
 10
0.6285110567875556
 20
5.70014161834236
1001
REVIT
1002
{
1070
     2
1000
-2001160
1002
}
  0
LINE
  5
518
330
4E7
100
AcDbEntity
  8
7052807
100
AcDbLine
 10
-4.316360233693163
 20
4.199779817516957
 30
0.0
 11
-4.633929047438996
 21
4.216422893814919
 31
0.0
  0
LINE
  5
519
330
4E7
100
AcDbEntity
  8
7052807
100
AcDbLine
 10
-4.654786062577386
 20
3.818447337061379
 30
0.0
 11
-4.337217248831557
 21
3.801804260763403
 31
0.0
  0
LWPOLYLINE
  5
51A
330
4E7
100
AcDbEntity
  8
7052807
100
AcDbPolyline
 90
       66
 70
   128
 43
0.0
 10
-4.656537295330107
 20
3.78503182553471
 10
-4.656820326804265
 20
3.781127212488875
 10
-4.657259274759391
 20
3.777237040957212
 10
-4.657853436972395
 20
3.773367534384312
 10
-4.658601862910483
 20
3.769524883155244
 10
-4.659503355251811
 20
3.765715234692249
 10
-4.660556471800941
 20
3.761944683620188
 10
-4.661759527796045
 20
3.758219262016434
 10
-4.663110598604172
 20
3.754544929760839
 10
-4.664607522800238
 20
3.750927565001199
 10
-4.666247905624862
 20
3.747372954749462
 10
-4.66802912281545
 20
3.743886785623756
 10
-4.669948324804471
 20
3.740474634751006
 10
-4.672002441278149
 20
3.737141960844722
 10
-4.674188186088318
 20
3.733894095472219
 10
-4.676502062509545
 20
3.730736234525256
 10
-4.678940368833158
 20
3.727673429907705
 10
-4.681499204289185
 20
3.72471058145359
 10
-4.684174475286752
 20
3.721852429088397
 10
-4.686961901962954
 20
3.719103545246206
 10
-4.689857025029731
 20
3.716468327554764
 10
-4.692855212907769
 20
3.71395099180023
 10
-4.695951669136043
 20
3.711555565182806
 10
-4.699141440045126
 20
3.709285879874086
 10
-4.702419422682018
 20
3.707145566886388
 10
-4.705780372973762
 20
3.705138050263915
 10
-4.709218914116855
 20
3.70326654160502
 10
-4.712729545178985
 20
3.701534034924319
 10
-4.716306649899349
 20
3.699943301862922
 10
-4.719944505673469
 20
3.698496887254388
 10
-4.723637292708138
 20
3.697197105053539
 10
-4.727379103331855
 20
3.696046034634623
 10
-4.731163951445834
 20
3.695045517464764
 10
-4.734985782100482
 20
3.694197154158
 10
-4.738838481182034
 20
3.693502301914648
 10
-4.74271588519382
 20
3.692962072350069
 10
-4.74661179111656
 20
3.692577329716325
 10
-4.750519966331863
 20
3.692348689519555
 10
-4.754434158593078
 20
3.6922765175353
 10
-4.758348106027574
 20
3.692360929223337
 10
-4.762255547154383
 20
3.692601789542977
 10
-4.766150230901249
 20
3.692998713169084
 10
-4.770025926605001
 20
3.693551065108533
 10
-4.773876433979275
 20
3.694257961716046
 10
-4.777695593033678
 20
3.69511827210785
 10
-4.781477293928428
 20
3.696130619970841
 10
-4.785215486748819
 20
3.697293385764393
 10
-4.788904191183775
 20
3.698604709311281
 10
-4.792537506093077
 20
3.700062492773564
 10
-4.796109618947941
 20
3.701664404008678
 10
-4.799614815129807
 20
3.703407880300372
 10
-4.803047487072522
 20
3.7052901324585
 10
-4.806402143233238
 20
3.707308149281133
 10
-4.809673416877723
 20
3.709458702371846
 10
-4.81285607466598
 20
3.71173835130445
 10
-4.815945025024475
 20
3.714143449126954
 10
-4.81893532629158
 20
3.716670148195902
 10
-4.821822194623161
 20
3.719314406331785
 10
-4.824601011645722
 20
3.722071993285661
 10
-4.827267331844808
 20
3.724938497506661
 10
-4.829816889676891
 20
3.727909333199518
 10
-4.832245606393305
 20
3.730979747660868
 10
-4.834549596565413
 20
3.734144828882559
 10
-4.836725174300426
 20
3.737399513409819
 10
-4.838768859138067
 20
3.7407385944417
 10
-4.839879447385069
 20
3.742688347823612
  0
LWPOLYLINE
  5
51B
330
4E7
100
AcDbEntity
  8
7052807
100
AcDbPolyline
 90
       66
 70
   128
 43
0.0
 10
-4.810089500594326
 20
4.311114394457806
 10
-4.807779835689606
 20
4.314275337019919
 10
-4.805345614282
 20
4.317341389203398
 10
-4.802790730606483
 20
4.320307645978806
 10
-4.800119271931924
 20
4.323169361968068
 10
-4.797335512022325
 20
4.32592195903607
 10
-4.794443904299701
 20
4.328561033614691
 10
-4.791449074719565
 20
4.331082363747579
 10
-4.788355814370381
 20
4.333481915844377
 10
-4.785169071808851
 20
4.335755851133606
 10
-4.781893945143268
 20
4.337900531803884
 10
-4.778535673877644
 20
4.339912526823645
 10
-4.775099630529608
 20
4.341788617430063
 10
-4.771591312035534
 20
4.343525802278375
 10
-4.76801633095661
 20
4.345121302243407
 10
-4.764380406499945
 20
4.346572564865568
 10
-4.760689355369041
 20
4.347877268434251
 10
-4.75694908245833
 20
4.349033325702064
 10
-4.753165571406583
 20
4.350038887223994
 10
-4.74934487502438
 20
4.350892344316115
 10
-4.745493105610893
 20
4.351592331629137
 10
-4.741616425175518
 20
4.352137729332686
 10
-4.737721035579966
 20
4.352527664906778
 10
-4.73381316861662
 20
4.35276151453768
 10
-4.729899076038991
 20
4.352838904115864
 10
-4.725985019560237
 20
4.352759709834517
 10
-4.722077260835773
 20
4.352524058387593
 10
-4.718182051445944
 20
4.352132326767139
 10
-4.714305622894842
 20
4.351585141660183
 10
-4.710454176641224
 20
4.350883378446166
 10
-4.706633874177491
 20
4.350028159796533
 10
-4.702850827172637
 20
4.349020853878685
 10
-4.699111087694861
 20
4.347863072167211
 10
-4.695420638529556
 20
4.346556666865867
 10
-4.691785383608138
 20
4.345103727944453
 10
-4.688211138562994
 20
4.343506579795297
 10
-4.684703621423739
 20
4.341767777514731
 10
-4.681268443469562
 20
4.339890102815481
 10
-4.677911100252391
 20
4.337876559576517
 10
-4.674636962805177
 20
4.335730369037485
 10
-4.671451269049393
 20
4.333454964645421
 10
-4.668359115415467
 20
4.331053986561956
 10
-4.665365448689593
 20
4.328531275839845
 10
-4.662475058099913
 20
4.325890868278093
 10
-4.65969256765479
 20
4.32313698796554
 10
-4.657022428745367
 20
4.320274040523225
 10
-4.654468913024302
 20
4.317306606056324
 10
-4.652036105572026
 20
4.314239431826967
 10
-4.649727898361495
 20
4.311077424659626
 10
-4.647547984031852
 20
4.307825643091243
 10
-4.645499849981
 20
4.304489289278649
 10
-4.643586772786509
 20
4.301073700676227
 10
-4.641811812963789
 20
4.297584341497123
 10
-4.640177810069921
 20
4.294026793971664
 10
-4.638687378160961
 20
4.29040674941699
 10
-4.637342901610026
 20
4.286729999132151
 10
-4.636146531292791
 20
4.283002425133274
 10
-4.635100181146547
 20
4.279229990743583
 10
-4.634205525108324
 20
4.275418731053356
 10
-4.633463994436933
 20
4.271574743265076
 10
-4.632876775423259
 20
4.267704176939193
 10
-4.632444807492461
 20
4.263813224156155
 10
-4.632168781701077
 20
4.259908109610388
 10
-4.632049139631494
 20
4.25599508065212
 10
-4.632086072685499
 20
4.252080397292945
 10
-4.632177814686276
 20
4.249838405341587
  0
LWPOLYLINE
  5
51C
330
4E7
100
AcDbEntity
  8
7052807
100
AcDbPolyline
 90
        2
 70
   128
 43
0.0
 10
-4.632180653933399
 20
4.249784229279156
 10
-4.632177814686276
 20
4.249838405341589
  0
LWPOLYLINE
  5
51D
330
4E7
100
AcDbEntity
  8
7052807
100
AcDbPolyline
 90
        7
 70
   128
 43
0.0
 10
-4.839879447385063
 20
3.742688347823679
 10
-5.173583594500698
 20
3.774217584282926
 10
-5.50828164706527
 20
3.792376994057472
 10
-5.843438159593119
 20
3.797137525965475
 10
-6.178516953160439
 20
3.788491564171415
 10
-6.512981973177193
 20
3.766452940369785
 10
-6.749835216947403
 20
3.74268834782373
  0
LWPOLYLINE
  5
51E
330
4E7
100
AcDbEntity
  8
7052807
100
AcDbPolyline
 90
        7
 70
   128
 43
0.0
 10
-6.709582332609034
 20
4.510759135959276
 10
-6.381001954362425
 20
4.444521038272279
 10
-6.050035587947416
 20
4.391475634551292
 10
-5.717212708947879
 20
4.351707786126506
 10
-5.383065762971787
 20
4.325281113072056
 10
-5.04812931385182
 20
4.312237892427435
 10
-4.810089500594326
 20
4.31111439445774
  0
LWPOLYLINE
  5
51F
330
4E7
100
AcDbEntity
  8
7052807
100
AcDbPolyline
 90
       69
 70
   128
 43
0.0
 10
-6.74983521694742
 20
3.742688347823664
 10
-6.75199870644969
 20
3.7384858400425
 10
-6.754328520879198
 20
3.734373210324032
 10
-6.756820933029864
 20
3.730357037998496
 10
-6.759471955573925
 20
3.726443748084875
 10
-6.762277347440841
 20
3.722639601012242
 10
-6.76523262060207
 20
3.718950682604402
 10
-6.76833304725098
 20
3.715382894343882
 10
-6.771573667366324
 20
3.711941943930812
 10
-6.774949296647211
 20
3.708633336151822
 10
-6.778454534806886
 20
3.705462364073558
 10
-6.78208377421204
 20
3.702434100574908
 10
-6.785831208853821
 20
3.699553390231477
 10
-6.789690843636215
 20
3.696824841565294
 10
-6.793656503966907
 20
3.694252819672165
 10
-6.797721845635338
 20
3.691841439238452
 10
-6.801880364962064
 20
3.689594557958446
 10
-6.806125409203261
 20
3.687515770362888
 10
-6.810450187193708
 20
3.685608402068481
 10
-6.814847780211193
 20
3.683875504457608
 10
-6.819311153044985
 20
3.682319849796786
 10
-6.823833165250688
 20
3.680943926801615
 10
-6.828406582573418
 20
3.679749936655371
 10
-6.833024088521071
 20
3.678739789487587
 10
-6.837678296069141
 20
3.677915101318243
 10
-6.8423617594784
 20
3.677277191472486
 10
-6.847066986206478
 20
3.676827080469989
 10
-6.851786448894333
 20
3.676565488392339
 10
-6.856512597408439
 20
3.676492833731054
 10
-6.861237870919358
 20
3.676609232718096
 10
-6.865954709997479
 20
3.676914499139914
 10
-6.870655568706482
 20
3.677408144635355
 10
-6.875332926675229
 20
3.67808937947693
 10
-6.879979301128752
 20
3.678957113834217
 10
-6.884587258859102
 20
3.680009959517348
 10
-6.889149428116887
 20
3.681246232197828
 10
-6.893658510404506
 20
3.68266395410309
 10
-6.898107292152184
 20
3.684260857180519
 10
-6.90248865625815
 20
3.686034386725846
 10
-6.906795593474473
 20
3.687981705470127
 10
-6.911021213620369
 20
3.690099698118781
 10
-6.915158756605029
 20
3.692384976335384
 10
-6.919201603242301
 20
3.694833884162289
 10
-6.923143285839994
 20
3.697442503869378
 10
-6.926977498546801
 20
3.700206662221597
 10
-6.930698107440314
 20
3.703121937155235
 10
-6.934299160339985
 20
3.706183664852294
 10
-6.937774896329363
 20
3.70938694720159
 10
-6.941119754972316
 20
3.712726659634697
 10
-6.944328385208546
 20
3.716197459324154
 10
-6.947395653914144
 20
3.719793793730856
 10
-6.9503166541135
 20
3.72350990948693
 10
-6.953086712829406
 20
3.727339861599894
 10
-6.955701398558836
 20
3.731277522963382
 10
-6.958156528362385
 20
3.735316594159201
 10
-6.960448174556107
 20
3.73945061353506
 10
-6.962572670994948
 20
3.743672967541836
 10
-6.964526618937807
 20
3.747976901313838
 10
-6.966306892484794
 20
3.752355529475154
 10
-6.96791064357801
 20
3.756801847154783
 10
-6.969335306557816
 20
3.761308741192937
 10
-6.970578602267362
 20
3.765869001520572
 10
-6.97163854169873
 20
3.770475332693969
 10
-6.97251342917494
 20
3.775120365565881
 10
-6.973201865062661
 20
3.779796669074602
 10
-6.973702748011334
 20
3.784496762132075
 10
-6.974015276715089
 20
3.789213125592042
 10
-6.974138951194669
 20
3.793938214279069
 10
-6.974141040423141
 20
3.794473427548441
  0
LWPOLYLINE
  5
520
330
4E7
100
AcDbEntity
  8
7052807
100
AcDbPolyline
 90
       69
 70
   128
 43
0.0
 10
-6.938072400118084
 20
4.482704083349571
 10
-6.937476727311295
 20
4.487393105889976
 10
-6.936694020089841
 20
4.492054557153549
 10
-6.935725530618306
 20
4.496680979812656
 10
-6.934572808273244
 20
4.501264972577962
 10
-6.933237697164507
 20
4.505799202038907
 10
-6.931722333185058
 20
4.510276414395605
 10
-6.930029140594008
 20
4.514689447063373
 10
-6.928160828138306
 20
4.519031240131339
 10
-6.926120384719325
 20
4.523294847656796
 10
-6.923911074611272
 20
4.527473448777221
 10
-6.921536432239017
 20
4.53156035862221
 10
-6.919000256523798
 20
4.535549039007841
 10
-6.916306604805736
 20
4.539433108896367
 10
-6.913459786352962
 20
4.543206354604525
 10
-6.910464355467716
 20
4.546862739744097
 10
-6.90732510420042
 20
4.550396414878849
 10
-6.904047054683434
 20
4.553801726882375
 10
-6.9006354510967
 20
4.557073227981897
 10
-6.897095751278193
 20
4.560205684473537
 10
-6.893433617992521
 20
4.563194085095133
 10
-6.88965490987173
 20
4.566033649043181
 10
-6.885765672042733
 20
4.568719833621105
 10
-6.881772126456397
 20
4.571248341506602
 10
-6.877680661933748
 20
4.573615127626443
 10
-6.87349782394522
 20
4.575816405627723
 10
-6.869230304139307
 20
4.57784865393522
 10
-6.864884929637344
 20
4.579708621385167
 10
-6.860468652111567
 20
4.581393332426413
 10
-6.855988536663932
 20
4.582900091880681
 10
-6.851451750523443
 20
4.584226489254268
 10
-6.846865551580133
 20
4.585370402594325
 10
-6.842237276773975
 20
4.58633000188353
 10
-6.837574330357341
 20
4.587103751967726
 10
-6.832884172049794
 20
4.587690415011833
 10
-6.828174305104113
 20
4.588089052480131
 10
-6.823452264302687
 20
4.588299026637708
 10
-6.818725603903484
 20
4.588320001570703
 10
-6.81400188555485
 20
4.588151943723699
 10
-6.809288666198465
 20
4.587795121953401
 10
-6.804593485979861
 20
4.587250107098522
 10
-6.799923856185813
 20
4.586517771066566
 10
-6.79528724722785
 20
4.585599285438962
 10
-6.790691076691214
 20
4.584496119596782
 10
-6.786142697468305
 20
4.583210038370042
 10
-6.781649385995606
 20
4.581743099214357
 10
-6.777218330612953
 20
4.580097648919444
 10
-6.772856620063713
 20
4.578276319854767
 10
-6.768571232154322
 20
4.576282025758295
 10
-6.764369022591264
 20
4.574117957075162
 10
-6.760256714013417
 20
4.571787575853613
 10
-6.756240885237263
 20
4.569294610206481
 10
-6.752327960732174
 20
4.566643048347001
 10
-6.748524200342647
 20
4.563837132208508
 10
-6.744835689273884
 20
4.560881350658261
 10
-6.741268328356747
 20
4.557780432316209
 10
-6.737827824607714
 20
4.554539337990203
 10
-6.734519682098845
 20
4.55116325273977
 10
-6.731349193152457
 20
4.547657577581117
 10
-6.728321429874528
 20
4.544027920846658
 10
-6.725441236040413
 20
4.540280089212886
 10
-6.722713219345838
 20
4.536420078410919
 10
-6.72014174403557
 20
4.532454063634615
 10
-6.717730923921555
 20
4.528388389661578
 10
-6.715484615801692
 20
4.524229560702867
 10
-6.713406413289785
 20
4.519984229997647
 10
-6.711499641066527
 20
4.515659189169425
 10
-6.709767349560724
 20
4.511261357360897
 10
-6.709582332609045
 20
4.510759135959344
  0
LWPOLYLINE
  5
521
330
4E7
100
AcDbEntity
  8
7052807
100
AcDbPolyline
 90
       32
 70
   128
 43
0.0
 10
-6.974141040423155
 20
3.794473427548428
 10
-6.980107477079048
 20
3.795777962241019
 10
-6.98601697374822
 20
3.797320047274335
 10
-6.991860076496632
 20
3.799097215641283
 10
-6.99762743760634
 20
3.801106624251585
 10
-7.003309830529879
 20
3.803345058480116
 10
-7.008898164650751
 20
3.805808937309616
 10
-7.014383499826475
 20
3.808494319059559
 10
-7.01975706069091
 20
3.811396907691995
 10
-7.025010250692977
 20
3.814512059684299
 10
-7.030134665849288
 20
3.817834791457811
 10
-7.035122108188748
 20
3.821359787350508
 10
-7.039964598867541
 20
3.825081408120919
 10
-7.044654390933592
 20
3.828993699969716
 10
-7.04918398172003
 20
3.833090404064517
 10
-7.053546124847859
 20
3.837364966552689
 10
-7.057733841818615
 20
3.841810549046108
 10
-7.061740433178478
 20
3.846420039561125
 10
-7.065559489235962
 20
3.851186063896221
 10
-7.06918490031607
 20
3.856100997429159
 10
-7.072610866534448
 20
3.861156977314748
 10
-7.075831907075983
 20
3.866345915063724
 10
-7.078842868962926
 20
3.871659509482601
 10
-7.081638935298563
 20
3.877089259953816
 10
-7.084215632973222
 20
3.882626480034902
 10
-7.086568839820284
 20
3.888262311354937
 10
-7.088694791210787
 20
3.893987737786057
 10
-7.090590086076019
 20
3.899793599867332
 10
-7.092251692348504
 20
3.905670609457947
 10
-7.093676951812662
 20
3.911609364596255
 10
-7.094863584357391
 20
3.9176003645409
 10
-7.095251210588351
 20
3.91988668006283
  0
LWPOLYLINE
  5
522
330
4E7
100
AcDbEntity
  8
7052807
100
AcDbPolyline
 90
       32
 70
   128
 43
0.0
 10
-7.07162837065789
 20
4.370637317728118
 10
-7.069910816164313
 20
4.376498220704157
 10
-7.067960261923388
 20
4.382285751722317
 10
-7.065779828405808
 20
4.387990651967577
 10
-7.063373003840066
 20
4.393603794816525
 10
-7.06074363863204
 20
4.399116200438008
 10
-7.057895939205158
 20
4.404519050158952
 10
-7.054834461271028
 20
4.409803700572346
 10
-7.051564102541265
 20
4.414961697364863
 10
-7.048090094892195
 20
4.419984788841947
 10
-7.044417995994979
 20
4.424864939128774
 10
-7.040553680424508
 20
4.429594341025924
 10
-7.036503330261355
 20
4.434165428499249
 10
-7.032273425201751
 20
4.438570888783905
 10
-7.027870732191459
 20
4.442803674083219
 10
-7.023302294600103
 20
4.446857012843655
 10
-7.018575420953286
 20
4.450724420587865
 10
-7.013697673240496
 20
4.454399710288461
 10
-7.008676854817538
 20
4.457877002265941
 10
-7.003520997922841
 20
4.461150733594924
 10
-6.99823835082758
 20
4.464215667003644
 10
-6.992837364640202
 20
4.467066899252463
 10
-6.987326679786459
 20
4.469699868978013
 10
-6.981715112186563
 20
4.472110363990403
 10
-6.976011639151607
 20
4.474294528011828
 10
-6.97022538502177
 20
4.476248866845781
 10
-6.964365606569323
 20
4.477970253967032
 10
-6.958441678189775
 20
4.479455935523396
 10
-6.952463076904823
 20
4.48070353474131
 10
-6.946439367201161
 20
4.481711055728171
 10
-6.940380185729324
 20
4.482476886665319
 10
-6.938072400118095
 20
4.482704083349585
  0
LWPOLYLINE
  5
523
330
4E7
100
AcDbEntity
  8
7052807
100
AcDbPolyline
 90
       25
 70
   128
 43
0.0
 10
-7.09525121058834
 20
3.919886680062815
 10
-7.103763303883891
 20
3.927313903345903
 10
-7.111971578698767
 20
3.935075578585983
 10
-7.119862903544269
 20
3.943159288758406
 10
-7.127424653984041
 20
3.95155210165133
 10
-7.134644732830462
 20
3.960240590554498
 10
-7.141511589497582
 20
3.969210855739109
 10
-7.148014238479582
 20
3.978448546694422
 10
-7.154142276925252
 20
3.987938885085512
 10
-7.159885901280322
 20
3.997666688395451
 10
-7.165235922971067
 20
4.007616394214096
 10
-7.170183783104057
 20
4.017772085134628
 10
-7.174721566158563
 20
4.028117514218006
 10
-7.178842012649713
 20
4.038636130984605
 10
-7.182538530742101
 20
4.049311107891449
 10
-7.185805206795327
 20
4.060125367252695
 10
-7.18863681482456
 20
4.071061608560282
 10
-7.191028824860996
 20
4.082102336161061
 10
-7.192977410198846
 20
4.093229887246098
 10
-7.194479453517246
 20
4.10442646010741
 10
-7.195532551867303
 20
4.115674142616891
 10
-7.19613502051631
 20
4.126954940881907
 10
-7.196285895642942
 20
4.138250808031672
 10
-7.195984935879188
 20
4.149543673088407
 10
-7.195905054554376
 20
4.151156053624501
  0
LWPOLYLINE
  5
524
330
4E7
100
AcDbEntity
  8
7052807
100
AcDbPolyline
 90
       25
 70
   128
 43
0.0
 10
-7.195905054554367
 20
4.151156053624685
 10
-7.195088327244089
 20
4.162423366279869
 10
-7.193821680897396
 20
4.173649005905359
 10
-7.192107141878235
 20
4.184815013872434
 10
-7.189947453083288
 20
4.1959035269503
 10
-7.187346069553919
 20
4.206896805883454
 10
-7.184307152948843
 20
4.217777263770712
 10
-7.180835564886361
 20
4.228527494200495
 10
-7.176936859166804
 20
4.239130299097375
 10
-7.172617272887649
 20
4.249568716235328
 10
-7.167883716465475
 20
4.259826046373678
 10
-7.162743762580788
 20
4.269885879972316
 10
-7.157205634063338
 20
4.279732123443469
 10
-7.151278190737347
 20
4.289349024898002
 10
-7.144970915247688
 20
4.298721199345084
 10
-7.13829389788966
 20
4.30783365330489
 10
-7.131257820466682
 20
4.316671808794971
 10
-7.123873939201681
 20
4.325221526651916
 10
-7.116154066729535
 20
4.333469129150996
 10
-7.108110553199388
 20
4.341401421887608
 10
-7.099756266517022
 20
4.349005714885505
 10
-7.091104571758981
 20
4.356269842898053
 10
-7.082169309791279
 20
4.363182184870029
 10
-7.072964775126976
 20
4.369731682528834
 10
-7.071628370657879
 20
4.370637317728131
  0
LWPOLYLINE
  5
525
330
4E7
100
AcDbEntity
  8
7052807
100
AcDbPolyline
 90
       39
 70
   128
 43
0.0
 10
-3.800739141541933
 20
3.656428558432269
 10
-3.801174361048031
 20
3.678186632196435
 10
-3.802479323307958
 20
3.699909897684053
 10
-3.804651940660475
 20
3.721563602304392
 10
-3.807688737381283
 20
3.74311310474927
 10
-3.811584855243449
 20
3.764523930411759
 10
-3.816334061289516
 20
3.785761826538196
 10
-3.821928757802922
 20
3.806792817025289
 10
-3.828359994462719
 20
3.827583256774632
 10
-3.835617482662172
 20
3.848099885517682
 10
-3.843689611968347
 20
3.868309881025098
 10
-3.852563468696313
 20
3.888180911615302
 10
-3.862224856568296
 20
3.90768118787828
 10
-3.872658319424687
 20
3.926779513531847
 10
-3.883847165950601
 20
3.945445335329049
 10
-3.895773496378424
 20
3.963648791936839
 10
-3.90841823112362
 20
3.981360761707844
 10
-3.921761141307998
 20
3.998552909268781
 10
-3.935780881121592
 20
4.015197730851014
 10
-3.950455021971427
 20
4.031268598290721
 10
-3.965760088362454
 20
4.046739801628264
 10
-3.981671595453356
 20
4.061586590238651
 10
-3.998164088227062
 20
4.075785212427251
 10
-4.015211182213345
 20
4.089312953427442
 10
-4.032785605698343
 20
4.102148171739385
 10
-4.050859243353494
 20
4.114270333751817
 10
-4.069403181214052
 20
4.125660046591442
 10
-4.088387752935272
 20
4.136299089147389
 10
-4.107782587252222
 20
4.146170441221112
 10
-4.127556656567339
 20
4.155258310755071
 10
-4.147678326587966
 20
4.163548159096651
 10
-4.168115406934459
 20
4.171026724256913
 10
-4.188835202637946
 20
4.177682042126944
 10
-4.209804566445287
 20
4.183503465617874
 10
-4.230989951847615
 20
4.188481681693959
 10
-4.252357466747593
 20
4.192608726271437
 10
-4.273872927679544
 20
4.195877996959375
 10
-4.295501914495698
 20
4.198284263622079
 10
-4.316360233693165
 20
4.19977981751692
  0
LWPOLYLINE
  5
526
330
4E7
100
AcDbEntity
  8
7052807
100
AcDbPolyline
 90
       39
 70
   128
 43
0.0
 10
-4.33721724883156
 20
3.801804260763367
 10
-4.33140986552997
 20
3.801383304259468
 10
-4.325623961285916
 20
3.800730451084277
 10
-4.319868792311922
 20
3.799846745663605
 10
-4.314153565650645
 20
3.79873360173761
 10
-4.30848742444556
 20
3.797392800099117
 10
-4.302879433313883
 20
3.795826485744724
 10
-4.297338563845116
 20
3.794037164443271
 10
-4.291873680248423
 20
3.792027698727137
 10
-4.286493525171774
 20
3.789801303312804
 10
-4.281206705715591
 20
3.787361539957999
 10
-4.276021679663205
 20
3.78471231176363
 10
-4.270946741950224
 20
3.781857856929674
 10
-4.265990011394393
 20
3.778802741974945
 10
-4.261159417707215
 20
3.775551854431647
 10
-4.256462688808127
 20
3.772110395026365
 10
-4.251907338461446
 20
3.76848386936001
 10
-4.247500654255976
 20
3.764678079100026
 10
-4.243249685946395
 20
3.760699112698974
 10
-4.239161234175181
 20
3.756553335654294
 10
-4.235241839593008
 20
3.752247380324873
 10
-4.231497772395115
 20
3.747788135320681
 10
-4.227935022290328
 20
3.743182734482471
 10
-4.224559288918802
 20
3.738438545469152
 10
-4.22137597273381
 20
3.733563157971104
 10
-4.218390166362183
 20
3.728564371568299
 10
-4.215606646457171
 20
3.723450183252628
 10
-4.213029866056837
 20
3.718228774634428
 10
-4.21066394746014
 20
3.712908498853649
 10
-4.208512675632135
 20
3.707497867216607
 10
-4.206579492148827
 20
3.702005535579714
 10
-4.204867489691404
 20
3.696440290501955
 10
-4.203379407098587
 20
3.690811035188267
 10
-4.202117624985085
 20
3.685126775246306
 10
-4.201084161933113
 20
3.679396604279401
 10
-4.200280671263096
 20
3.67362968933873
 10
-4.1997084383887
 20
3.667835256257987
 10
-4.199368378760459
 20
3.662022574894022
 10
-4.199260858458069
 20
3.656428558432276
  0
LINE
  5
527
330
4E7
100
AcDbEntity
  8
7052807
100
AcDbLine
 10
-4.810089500594319
 20
4.311114394457735
 30
0.0
 11
-4.839879447385058
 21
3.742688347823675
 31
0.0
  0
LINE
  5
528
330
4E7
100
AcDbEntity
  8
7052807
100
AcDbLine
 10
-6.709582332609036
 20
4.51075913595934
 30
0.0
 11
-6.749835216947413
 21
3.74268834782366
 31
0.0
  0
LINE
  5
529
330
4E7
100
AcDbEntity
  8
7052807
100
AcDbLine
 10
-6.938072400118088
 20
4.482704083349583
 30
0.0
 11
-6.974141040423148
 21
3.794473427548423
 31
0.0
  0
LINE
  5
52A
330
4E7
100
AcDbEntity
  8
7052807
100
AcDbLine
 10
-7.071628370657872
 20
4.370637317728128
 30
0.0
 11
-7.095251210588331
 21
3.919886680062811
 31
0.0
  0
LINE
  5
52B
330
4E7
100
AcDbEntity
  8
7052807
100
AcDbLine
 10
-4.199260858458032
 20
3.656428558432277
 30
0.0
 11
-4.199260858458035
 21
3.485179785363697
 31
0.0
  0
LINE
  5
52C
330
4E7
100
AcDbEntity
  8
7052807
100
AcDbLine
 10
-3.800739141541905
 20
3.485179785363694
 30
0.0
 11
-3.800739141541896
 21
3.656428558432276
 31
0.0
  0
LWPOLYLINE
  5
52D
330
4E7
100
AcDbEntity
  8
7052807
100
AcDbPolyline
 90
       41
 70
   128
 43
0.0
 10
-3.800739141541919
 20
3.485179785363694
 10
-3.80065491078726
 20
3.480968809184072
 10
-3.800402353274522
 20
3.476764569668043
 10
-3.799981873041849
 20
3.472573792701979
 10
-3.799394142767914
 20
3.468403182635037
 10
-3.798640102695783
 20
3.464259411553644
 10
-3.797720959128717
 20
3.460149108607572
 10
-3.796638182500348
 20
3.456078849404715
 10
-3.795393505022301
 20
3.452055145491526
 10
-3.793988917913027
 20
3.448084433935919
 10
-3.79242666821227
 20
3.444173067029344
 10
-3.790709255186289
 20
3.440327302124468
 10
-3.788839426329563
 20
3.436553291624758
 10
-3.786820172969388
 20
3.432857073141931
 10
-3.784654725480388
 20
3.429244559837074
 10
-3.78234654811661
 20
3.425721530960849
 10
-3.779899333469449
 20
3.422293622607918
 10
-3.777316996560298
 20
3.418966318700396
 10
-3.774603668577341
 20
3.41574494221475
 10
-3.771763690266539
 20
3.412634646666165
 10
-3.768801604987359
 20
3.409640407864027
 10
-3.765722151444371
 20
3.406767015951679
 10
-3.762530256106327
 20
3.404019067743225
 10
-3.759231025324867
 20
3.4014009593696
 10
-3.755829737165443
 20
3.398916879245703
 10
-3.752331832963541
 20
3.396570801369823
 10
-3.748742908619707
 20
3.394366478966092
 10
-3.745068705647287
 20
3.392307438480126
 10
-3.741315101987257
 20
3.39039697393746
 10
-3.737488102604745
 20
3.388638141673824
 10
-3.733593829882376
 20
3.387033755445639
 10
-3.729638513825776
 20
3.38558638192862
 10
-3.725628482096878
 20
3.384298336611636
 10
-3.721570149891018
 20
3.383171680092427
 10
-3.717470009674
 20
3.382208214781086
 10
-3.713334620795517
 20
3.381409482016579
 10
-3.709170598995608
 20
3.380776759600942
 10
-3.704984605820873
 20
3.380311059755069
 10
-3.700783337967429
 20
3.380013127499368
 10
-3.696573516567617
 20
3.379883439461895
 10
-3.695436658635635
 20
3.379877302457405
  0
LWPOLYLINE
  5
52E
330
4E7
100
AcDbEntity
  8
7052807
100
AcDbPolyline
 90
       41
 70
   128
 43
0.0
 10
-4.304563341364307
 20
3.379877302457412
 10
-4.300352365184686
 20
3.379961533212071
 10
-4.296148125668658
 20
3.38021409072481
 10
-4.291957348702592
 20
3.380634570957484
 10
-4.28778673863565
 20
3.381222301231418
 10
-4.283642967554257
 20
3.381976341303548
 10
-4.279532664608186
 20
3.382895484870616
 10
-4.275462405405328
 20
3.383978261498985
 10
-4.27143870149214
 20
3.385222938977031
 10
-4.267467989936532
 20
3.386627526086306
 10
-4.263556623029955
 20
3.388189775787062
 10
-4.259710858125082
 20
3.389907188813045
 10
-4.25593684762537
 20
3.391777017669771
 10
-4.252240629142544
 20
3.393796271029945
 10
-4.248628115837689
 20
3.395961718518945
 10
-4.245105086961462
 20
3.398269895882723
 10
-4.241677178608533
 20
3.400717110529883
 10
-4.238349874701011
 20
3.403299447439035
 10
-4.235128498215365
 20
3.406012775421991
 10
-4.232018202666779
 20
3.408852753732794
 10
-4.229023963864641
 20
3.411814839011974
 10
-4.226150571952292
 20
3.414894292554963
 10
-4.223402623743838
 20
3.418086187893006
 10
-4.220784515370215
 20
3.421385418674467
 10
-4.218300435246318
 20
3.424786706833889
 10
-4.215954357370438
 20
3.428284611035792
 10
-4.213750034966707
 20
3.431873535379628
 10
-4.21169099448074
 20
3.435547738352045
 10
-4.209780529938075
 20
3.439301342012075
 10
-4.208021697674439
 20
3.443128341394591
 10
-4.206417311446253
 20
3.447022614116959
 10
-4.204969937929233
 20
3.450977930173559
 10
-4.20368189261225
 20
3.454987961902457
 10
-4.202555236093044
 20
3.459046294108314
 10
-4.201591770781702
 20
3.463146434325334
 10
-4.200793038017192
 20
3.467281823203815
 10
-4.200160315601557
 20
3.471445845003725
 10
-4.199694615755685
 20
3.475631838178459
 10
-4.199396683499983
 20
3.479833106031904
 10
-4.199266995462508
 20
3.484042927431715
 10
-4.199260858458021
 20
3.485179785363699
  0
LINE
  5
52F
330
4E7
100
AcDbEntity
  8
7052807
100
AcDbLine
 10
-4.346456278691604
 20
3.379877302457412
 30
0.0
 11
-4.480480703033684
 21
3.286032390228871
 31
0.0
  0
LINE
  5
530
330
4E7
100
AcDbEntity
  8
7052807
100
AcDbLine
 10
-3.519519296966262
 20
3.286032390228863
 30
0.0
 11
-3.653543721308338
 21
3.379877302457405
 31
0.0
  0
LINE
  5
531
330
4E7
100
AcDbEntity
  8
7052807
100
AcDbLine
 10
-4.481289263721707
 20
3.09574501428235
 30
0.0
 11
-4.418548279852142
 21
3.051813304422186
 31
0.0
  0
LINE
  5
532
330
4E7
100
AcDbEntity
  8
7052807
100
AcDbLine
 10
-3.581451720147807
 20
3.051813304422176
 30
0.0
 11
-3.51871073627824
 21
3.09574501428234
 31
0.0
  0
LWPOLYLINE
  5
533
330
4E7
100
AcDbEntity
  8
7052807
100
AcDbPolyline
 90
       32
 70
   128
 43
0.0
 10
-3.581451720147807
 20
3.051813304422176
 10
-3.582348685247312
 20
3.051158124542337
 10
-3.583218732663242
 20
3.0504675996994
 10
-3.584060470505331
 20
3.049742834585812
 10
-3.584872552172592
 20
3.048984988671147
 10
-3.585653678507593
 20
3.0481952743472
 10
-3.58640259987483
 20
3.04737495498843
 10
-3.587118118159876
 20
3.046525342930816
 10
-3.587799088686113
 20
3.045647797372411
 10
-3.588444422045959
 20
3.044743722198907
 10
-3.58905308584371
 20
3.043814563737724
 10
-3.589624106347123
 20
3.042861808444191
 10
-3.590156570045211
 20
3.04188698052353
 10
-3.590649625109637
 20
3.040891639492466
 10
-3.591102482757484
 20
3.039877377684318
 10
-3.591514418513114
 20
3.038845817701616
 10
-3.591884773367194
 20
3.037798609820279
 10
-3.592212954830964
 20
3.036737429349522
 10
-3.592498437884092
 20
3.035663973951727
 10
-3.592740765814587
 20
3.034579960926538
 10
-3.592939550949461
 20
3.033487124463551
 10
-3.593094475274897
 20
3.032387212867984
 10
-3.593205290945029
 20
3.03128198576375
 10
-3.593271820678419
 20
3.03017321127845
 10
-3.593293958041689
 20
3.029062663214733
 10
-3.593271667619779
 20
3.027952118212597
 10
-3.59320498507261
 20
3.026843352907141
 10
-3.593094017078032
 20
3.025738141086332
 10
-3.592938941161163
 20
3.024638250853315
 10
-3.592740005410391
 20
3.023545441797833
 10
-3.592497528080478
 20
3.022461462181255
 10
-3.592417506338696
 20
3.022142739313906
  0
LWPOLYLINE
  5
534
330
4E7
100
AcDbEntity
  8
7052807
100
AcDbPolyline
 90
       32
 70
   128
 43
0.0
 10
-4.407582493661253
 20
3.022142739313915
 10
-4.407327206807229
 20
3.023223773858617
 10
-4.407115354007133
 20
3.024314152442307
 10
-4.406947274180254
 20
3.025412130691853
 10
-4.406823236218459
 20
3.026515952076276
 10
-4.406743438556027
 20
3.027623850716833
 10
-4.406708008852197
 20
3.028734054212038
 10
-4.406717003786937
 20
3.029844786473129
 10
-4.406770408970267
 20
3.03095427056543
 10
-4.40686813896529
 20
3.032060731551073
 10
-4.407010037424861
 20
3.033162399328515
 10
-4.407195877341713
 20
3.034257511464317
 10
-4.407425361411622
 20
3.035344316012677
 10
-4.407698122509035
 20
3.036421074318156
 10
-4.408013724274375
 20
3.03748606379716
 10
-4.40837166181215
 20
3.038537580693711
 10
-4.408771362498651
 20
3.039573942805083
 10
-4.409212186898045
 20
3.040593492172979
 10
-4.409693429785331
 20
3.041594597735902
 10
-4.410214321274548
 20
3.042575657938509
 10
-4.410774028050433
 20
3.043535103293756
 10
-4.41137165470154
 20
3.044471398893748
 10
-4.412006245152717
 20
3.045383046865256
 10
-4.412676784194609
 20
3.046268588766002
 10
-4.413382199107795
 20
3.047126607917847
 10
-4.414121361378892
 20
3.047955731673184
 10
-4.414893088505948
 20
3.048754633610875
 10
-4.41569614589018
 20
3.049522035658243
 10
-4.416529248811091
 20
3.050256710135715
 10
-4.417391064481723
 20
3.050957481720852
 10
-4.418280214180844
 20
3.051623229328604
 10
-4.418548279852142
 20
3.051813304422186
  0
LWPOLYLINE
  5
535
330
4E7
100
AcDbEntity
  8
7052807
100
AcDbPolyline
 90
        4
 70
   128
 43
0.0
 10
-3.592417506338705
 20
3.02214273931394
 10
-3.541288509038187
 20
2.80563252170336
 10
-3.498858508928893
 20
2.587250874613999
 10
-3.473524416357008
 20
2.427597503608418
  0
LWPOLYLINE
  5
536
330
4E7
100
AcDbEntity
  8
7052807
100
AcDbPolyline
 90
        4
 70
   128
 43
0.0
 10
-4.526475583642953
 20
2.427597503608429
 10
-4.490409750968922
 20
2.647119949859982
 10
-4.445594210649588
 20
2.865024552933492
 10
-4.407582493661244
 20
3.02214273931395
  0
LWPOLYLINE
  5
537
330
4E7
100
AcDbEntity
  8
7052807
100
AcDbPolyline
 90
        4
 70
   128
 43
0.0
 10
-3.473524416357019
 20
2.427597503608491
 10
-3.446265988970704
 20
2.20680840328492
 10
-3.427858574536497
 20
1.985105864329872
 10
-3.419674800183663
 20
1.812093574263144
  0
LWPOLYLINE
  5
538
330
4E7
100
AcDbEntity
  8
7052807
100
AcDbPolyline
 90
        4
 70
   128
 43
0.0
 10
-4.580325199816311
 20
1.812093574263156
 10
-4.568829885521376
 20
2.0342617682841
 10
-4.548459408095432
 20
2.255792561481584
 10
-4.526475583642941
 20
2.427597503608502
  0
LWPOLYLINE
  5
539
330
4E7
100
AcDbEntity
  8
7052807
100
AcDbPolyline
 90
       12
 70
   128
 43
0.0
 10
-3.419674800183663
 20
1.81209357426312
 10
-3.41563207427637
 20
1.733960424468283
 10
-3.408468089480402
 20
1.656051438776855
 10
-3.398194306643198
 20
1.578491254946243
 10
-3.384827161625672
 20
1.501403952725291
 10
-3.368388039008348
 20
1.424912855353135
 10
-3.348903237880586
 20
1.34914033226834
 10
-3.326403929767659
 20
1.274207603343901
 10
-3.300926108762947
 20
1.200234544961298
 10
-3.272510533945078
 20
1.127339498233868
 10
-3.241202664172098
 20
1.055639079686259
 10
-3.230935119622889
 20
1.033709222679397
  0
LWPOLYLINE
  5
53A
330
4E7
100
AcDbEntity
  8
7052807
100
AcDbPolyline
 90
       12
 70
   128
 43
0.0
 10
-4.769064880377101
 20
1.033709222679413
 10
-4.736871837283114
 20
1.105016590503311
 10
-4.707556079351741
 20
1.177554298397435
 10
-4.681164505541975
 20
1.251206301503039
 10
-4.657739336742011
 20
1.32585477232674
 10
-4.637318048224825
 20
1.401380289239384
 10
-4.619933309695738
 20
1.477662027525159
 10
-4.605612933027845
 20
1.554577952675376
 10
-4.594379827768971
 20
1.632005015617651
 10
-4.586251964491257
 20
1.70981934956817
 10
-4.581242346042095
 20
1.787896468192118
 10
-4.580325199816311
 20
1.812093574263132
  0
LINE
  5
53B
330
4E7
100
AcDbEntity
  8
7052807
100
AcDbLine
 10
-4.780071501731359
 20
0.9849554939152174
 30
0.0
 11
-4.780071501731365
 21
0.8888554846940886
 31
0.0
  0
LINE
  5
53C
330
4E7
100
AcDbEntity
  8
7052807
100
AcDbLine
 10
-3.219928498268631
 20
0.8888554847244256
 30
0.0
 11
-3.219928498268631
 21
0.9849554939152014
 31
0.0
  0
LWPOLYLINE
  5
53D
330
4E7
100
AcDbEntity
  8
7052807
100
AcDbPolyline
 90
       17
 70
   128
 43
0.0
 10
-3.219928498268672
 20
0.8888554847264682
 10
-3.2198614144102
 20
0.8855017390404782
 10
-3.219660270154644
 20
0.8821533586321557
 10
-3.219325387289906
 20
0.8788157001958726
 10
-3.218857301557132
 20
0.8754941032731329
 10
-3.218256761793639
 20
0.872193881710443
 10
-3.217524728734947
 20
0.8689203151582933
 10
-3.216662373477781
 20
0.8656786406248414
 10
-3.215671075606602
 20
0.8624740440978255
 10
-3.214552420986535
 20
0.8593116522480732
 10
-3.213308199226338
 20
0.8561965242279377
 10
-3.211940400815407
 20
0.8531336435777273
 10
-3.210451213939419
 20
0.8501279102531004
 10
-3.208843020979701
 20
0.8471841327861913
 10
-3.207118394701922
 20
0.84430702059297
 10
-3.205280094140229
 20
0.8415011764391975
 10
-3.205155688506664
 20
0.8413198438294271
  0
LWPOLYLINE
  5
53E
330
4E7
100
AcDbEntity
  8
7052807
100
AcDbPolyline
 90
       17
 70
   128
 43
0.0
 10
-4.794844311493331
 20
0.8413198438294418
 10
-4.79299866005007
 20
0.8441208581315065
 10
-4.791266495628089
 20
0.8469934382932429
 10
-4.789650589320958
 20
0.8499329887991802
 10
-4.78815352623406
 20
0.8529348069955787
 10
-4.786777701348974
 20
0.8559940906136755
 10
-4.785525315692028
 20
0.8591059454522973
 10
-4.784398372813107
 20
0.862265393207528
 10
-4.783398675580418
 20
0.8654673794369379
 10
-4.782527823296277
 20
0.8687067816456162
 10
-4.781787209138563
 20
0.8719784174810619
 10
-4.78117801793194
 20
0.875277053023851
 10
-4.780701224252389
 20
0.8785974111607863
 10
-4.780357590868081
 20
0.8819341800271542
 10
-4.780147667519131
 20
0.8852820215045781
 10
-4.78007179003811
 20
0.8886355797608551
 10
-4.780071501731322
 20
0.8888554847264856
  0
LWPOLYLINE
  5
53F
330
4E7
100
AcDbEntity
  8
7052807
100
AcDbPolyline
 90
       11
 70
   128
 43
0.0
 10
-3.205155688506666
 20
0.8413198438294283
 10
-3.191431381877887
 20
0.8222018806586085
 10
-3.176953538612355
 20
0.8036480357034406
 10
-3.161745320170858
 20
0.7856879911579143
 10
-3.145831056458652
 20
0.7683504792620273
 10
-3.129236206902813
 20
0.7516632363363427
 10
-3.11198731972259
 20
0.735652958409788
 10
-3.094111989457903
 20
0.7203452585116992
 10
-3.075638812823973
 20
0.7057646256964448
 10
-3.05659734296268
 20
0.6919343858661611
 10
-3.049334512792531
 20
0.6869582270477826
  0
LWPOLYLINE
  5
540
330
4E7
100
AcDbEntity
  8
7052807
100
AcDbPolyline
 90
       11
 70
   128
 43
0.0
 10
-4.950665487207466
 20
0.6869582270478026
 10
-4.931419214578745
 20
0.700502011531563
 10
-4.912729943839172
 20
0.7148046080603248
 10
-4.894627573835101
 20
0.7298431355307052
 10
-4.877141064496903
 20
0.7455935355067953
 10
-4.860298390509267
 20
0.7620306107085395
 10
-4.844126496557656
 20
0.7791280653220048
 10
-4.828651254222577
 20
0.7968585470670742
 10
-4.813897420590555
 20
0.8151936909552537
 10
-4.799888598648085
 20
0.834104164667611
 10
-4.794844311493328
 20
0.8413198438294458
  0
LWPOLYLINE
  5
541
330
4E7
100
AcDbEntity
  8
7052807
100
AcDbPolyline
 90
       26
 70
   128
 43
0.0
 10
-3.049334512792528
 20
0.6869582270477786
 10
-3.048000359884881
 20
0.6860193710002678
 10
-3.046704818385494
 20
0.6850279140509721
 10
-3.045449960884402
 20
0.6839854423195165
 10
-3.044237794885914
 20
0.6828936235382863
 10
-3.043070259597048
 20
0.6817542043844221
 10
-3.041949222825206
 20
0.6805690076855098
 10
-3.040876477990078
 20
0.6793399295034384
 10
-3.039853741254566
 20
0.6780689361011083
 10
-3.038882648779267
 20
0.6767580607968334
 10
-3.037964754104994
 20
0.6754094007114611
 10
-3.037101525667413
 20
0.6740251134134314
 10
-3.036294344447881
 20
0.6726074134671203
 10
-3.03554450176416
 20
0.6711585688900148
 10
-3.034853197204583
 20
0.6696808975243691
 10
-3.034221536708979
 20
0.6681767633291505
 10
-3.033650530799391
 20
0.666648572598203
 10
-3.033141092963472
 20
0.6650987701107005
 10
-3.032694038193074
 20
0.6635298352200177
 10
-3.032310081680474
 20
0.6619442778872906
 10
-3.03198983767418
 20
0.6603446346660147
 10
-3.031733818496288
 20
0.6587334646441088
 10
-3.031542433722869
 20
0.6571133453499103
 10
-3.031415989528733
 20
0.655486868628679
 10
-3.03135468819762
 20
0.6538566364962071
 10
-3.031348381899583
 20
0.6531394236277906
  0
LWPOLYLINE
  5
542
330
4E7
100
AcDbEntity
  8
7052807
100
AcDbPolyline
 90
       26
 70
   128
 43
0.0
 10
-4.968651618100416
 20
0.6531394236278106
 10
-4.968618992590013
 20
0.6547704816387375
 10
-4.968521168252662
 20
0.6563989303047868
 10
-4.968358301586436
 20
0.658022164455478
 10
-4.968130653143255
 20
0.6596375872624401
 10
-4.967838587112066
 20
0.6612426143937858
 10
-4.967482570736216
 20
0.662834678148498
 10
-4.967063173565961
 20
0.6644112315641877
 10
-4.966581066547306
 20
0.6659697524917001
 10
-4.966037020948636
 20
0.6675077476300229
 10
-4.965431907126854
 20
0.6690227565150209
 10
-4.964766693134988
 20
0.6705123554556636
 10
-4.964042443173521
 20
0.6719741614114101
 10
-4.963260315887897
 20
0.673405835804565
 10
-4.962421562514922
 20
0.6748050882615067
 10
-4.961527524881072
 20
0.6761696802767983
 10
-4.960579633255841
 20
0.6774974287943106
 10
-4.959579404063624
 20
0.6787862096996525
 10
-4.958528437457761
 20
0.6800339612183035
 10
-4.957428414760624
 20
0.6812386872140049
 10
-4.956281095773867
 20
0.6823984603821565
 10
-4.955088315963127
 20
0.6835114253330992
 10
-4.953851983521648
 20
0.6845758015603268
 10
-4.952574076317604
 20
0.6855898862889314
 10
-4.951256638729915
 20
0.6865520571996742
 10
-4.950665487207469
 20
0.6869582270477986
  0
LINE
  5
543
330
4E7
100
AcDbEntity
  8
7052807
100
AcDbLine
 10
-4.968651618100457
 20
0.6531394236278092
 30
0.0
 11
-4.968651618100459
 21
0.5480588666228328
 31
0.0
  0
LINE
  5
544
330
4E7
100
AcDbEntity
  8
7052807
100
AcDbLine
 10
-3.031348381899544
 20
0.5480588666228115
 30
0.0
 11
-3.03134838189954
 21
0.6531394236277892
 31
0.0
  0
LWPOLYLINE
  5
545
330
4E7
100
AcDbEntity
  8
7052807
100
AcDbPolyline
 90
       25
 70
   128
 43
0.0
 10
-3.031348381899585
 20
0.5480588666228115
 10
-3.031318802647763
 20
0.5465801012320473
 10
-3.031230112212796
 20
0.545103701550453
 10
-3.031082452480454
 20
0.5436320295025752
 10
-3.030876059674813
 20
0.5421674394497465
 10
-3.030611263980333
 20
0.5407122744236248
 10
-3.03028848901364
 20
0.5392688623778322
 10
-3.029908251145826
 20
0.5378395124637319
 10
-3.029471158676361
 20
0.5364265113362708
 10
-3.028977910859962
 20
0.535032119495833
 10
-3.02842929678791
 20
0.5336585676719077
 10
-3.027826194125692
 20
0.5323080532544023
 10
-3.027169567708909
 20
0.5309827367782943
 10
-3.026460467999759
 20
0.5296847384672217
 10
-3.025700029406506
 20
0.5284161348415948
 10
-3.024889468468684
 20
0.5271789553965909
 10
-3.024030081910881
 20
0.5259751793554046
 10
-3.023123244568264
 20
0.5248067325029142
 10
-3.022170407187134
 20
0.5236754841048219
 10
-3.021173094104041
 20
0.5225832439172487
 10
-3.020132900807164
 20
0.5215317592914941
 10
-3.019051491383887
 20
0.5205227123786567
 10
-3.017930595858596
 20
0.5195577174385409
 10
-3.016772007425021
 20
0.5186383182572003
 10
-3.016020407079428
 20
0.5180808847397605
  0
LWPOLYLINE
  5
546
330
4E7
100
AcDbEntity
  8
7052807
100
AcDbPolyline
 90
       25
 70
   128
 43
0.0
 10
-4.983979592920572
 20
0.5180808847397805
 10
-4.982798111891673
 20
0.5189706738110838
 10
-4.981653157994104
 20
0.5199069977857365
 10
-4.980546562909861
 20
0.5208883587451161
 10
-4.979480096955018
 20
0.5219131867210339
 10
-4.978455466247602
 20
0.5229798422073469
 10
-4.977474309978168
 20
0.5240866187828175
 10
-4.976538197787444
 20
0.525231745841027
 10
-4.975648627255242
 20
0.5264133914229601
 10
-4.974807021504652
 20
0.5276296651477597
 10
-4.974014726925338
 20
0.5288786212369195
 10
-4.973273011019614
 20
0.5301582616271299
 10
-4.972583060374706
 20
0.5314665391667442
 10
-4.971945978764463
 20
0.5328013608907783
 10
-4.97136278538356
 20
0.534160591369222
 10
-4.970834413216994
 20
0.5355420561232651
 10
-4.970361707547523
 20
0.536943545103997
 10
-4.969945424603377
 20
0.5383628162280161
 10
-4.969586230348465
 20
0.5397975989642885
 10
-4.96928469941697
 20
0.5412455979665026
 10
-4.969041314194063
 20
0.5427044967451487
 10
-4.968856464044176
 20
0.5441719613733924
 10
-4.968730444688119
 20
0.5456456442208744
 10
-4.968663457729979
 20
0.5471231877094059
 10
-4.968651618100416
 20
0.5480588666228328
  0
LWPOLYLINE
  5
547
330
4E7
100
AcDbEntity
  8
7052807
100
AcDbPolyline
 90
       20
 70
   128
 43
0.0
 10
-3.016020407079428
 20
0.5180808847397618
 10
-3.007535232769761
 20
0.5116905871521067
 10
-2.999312389440289
 20
0.5049660846498237
 10
-2.991365031886227
 20
0.4979181350024332
 10
-2.983705874184314
 20
0.4905580134258908
 10
-2.976347169353008
 20
0.4828974945446413
 10
-2.969300689750266
 20
0.4749488335547373
 10
-2.962577708240285
 20
0.4667247466181422
 10
-2.956188980159316
 20
0.4582383905195738
 10
-2.950144726109439
 20
0.4495033416184634
 10
-2.944454615607758
 20
0.4405335741296735
 10
-2.939127751617251
 20
0.4313434377677435
 10
-2.934172655983967
 20
0.4219476347903887
 10
-2.929597255803887
 20
0.4123611964780426
 10
-2.925408870741264
 20
0.4025994590870116
 10
-2.92161420131873
 20
0.3926780393147254
 10
-2.918219318197866
 20
0.382612809316361
 10
-2.915229652467473
 20
0.3724198713127845
 10
-2.912649986954948
 20
0.3621155318304222
 10
-2.911602848572892
 20
0.3573458460778217
  0
LWPOLYLINE
  5
548
330
4E7
100
AcDbEntity
  8
7052807
100
AcDbPolyline
 90
       20
 70
   128
 43
0.0
 10
-5.088397151427113
 20
0.3573458460778443
 10
-5.086007384873099
 20
0.3676958751667675
 10
-5.083205639105354
 20
0.3779420601630084
 10
-5.079996396319433
 20
0.3880680093563087
 10
-5.076384790619194
 20
0.3980575233880433
 10
-5.072376599803318
 20
0.4078946211667486
 10
-5.06797823612208
 20
0.4175635654344451
 10
-5.063196736019099
 20
0.4270488879429025
 10
-5.058039748874543
 20
0.4363354141995358
 10
-5.052515524767743
 20
0.4454082877433542
 10
-5.046632901278833
 20
0.4542529939121295
 10
-5.040401289350503
 20
0.4628553830627645
 10
-5.033830658232496
 20
0.4712016932076938
 10
-5.026931519532944
 20
0.4792785720311376
 10
-5.019714910402026
 20
0.4870730982499537
 10
-5.012192375874892
 20
0.4945728022849357
 10
-5.004375950402064
 20
0.5017656862094793
 10
-4.996278138596881
 20
0.5086402429437063
 10
-4.987911895230791
 20
0.515185474663336
 10
-4.983979592920572
 20
0.5180808847397818
  0
LWPOLYLINE
  5
549
330
4E7
100
AcDbEntity
  8
7052807
100
AcDbPolyline
 90
       17
 70
   128
 43
0.0
 10
-2.911602848572892
 20
0.357345846077823
 10
-2.907518512538738
 20
0.3396566719233763
 10
-2.902730065241023
 20
0.3221449771001118
 10
-2.897245167173945
 20
0.3048387765841137
 10
-2.891072593004361
 20
0.2877657566044142
 10
-2.884222217534196
 20
0.2709532303509335
 10
-2.876704999902866
 20
0.254428094279196
 10
-2.868532966054999
 20
0.2382167850817432
 10
-2.85971918950147
 20
0.222345237395059
 10
-2.850277770404598
 20
0.2068388423096948
 10
-2.840223813020873
 20
0.1917224067499333
 10
-2.829573401537379
 20
0.177020113788002
 10
-2.818343574340525
 20
0.1627554839563171
 10
-2.806552296758257
 20
0.1489513376196513
 10
-2.794218432319365
 20
0.1356297584674163
 10
-2.781361712575872
 20
0.122812058184469
 10
-2.770253611584351
 20
0.1125217860025726
  0
LWPOLYLINE
  5
54A
330
4E7
100
AcDbEntity
  8
7052807
100
AcDbPolyline
 90
       17
 70
   128
 43
0.0
 10
-5.229746388415659
 20
0.1125217860025979
 10
-5.21646928224302
 20
0.1249035118429883
 10
-5.203697933311607
 20
0.1378062762591249
 10
-5.191452773055303
 20
0.1512094375803815
 10
-5.179753391118358
 20
0.1650915536078364
 10
-5.168618504016134
 20
0.1794304159171994
 10
-5.15806592519268
 20
0.1942030853875757
 10
-5.148112536523015
 20
0.2093859288991441
 10
-5.138774261305734
 20
0.2249546571411219
 10
-5.130066038789127
 20
0.24088436346947
 10
-5.122001800271565
 20
0.2571495637522224
 10
-5.114594446814397
 20
0.2737242371386515
 10
-5.107855828603003
 20
0.2905818676870791
 10
-5.101796725989029
 20
0.3076954867847315
 10
-5.096426832244112
 20
0.3250377162917616
 10
-5.091754738052733
 20
0.3425808123404367
 10
-5.088397151427113
 20
0.3573458460778457
  0
LWPOLYLINE
  5
54B
330
4E7
100
AcDbEntity
  8
7052807
100
AcDbPolyline
 90
       41
 70
   128
 43
0.0
 10
-2.736959948201377
 20
0.1125217860025726
 10
-2.736008198021124
 20
0.1125027484605591
 10
-2.735057970438132
 20
0.1124456662905296
 10
-2.734110785613827
 20
0.1123506308117791
 10
-2.733168158841873
 20
0.1122177940607988
 10
-2.732231598124023
 20
0.112047368548054
 10
-2.731302601757635
 20
0.111839626918009
 10
-2.730382655938722
 20
0.1115949015129575
 10
-2.729473232384346
 20
0.1113135838413412
 10
-2.728575785978197
 20
0.1109961239514213
 10
-2.727691752443082
 20
0.1106430297113056
 10
-2.726822546044068
 20
0.110254865996451
 10
-2.725969557325978
 20
0.1098322537859989
 10
-2.725134150888795
 20
0.1093758691693353
 10
-2.72431766320461
 20
0.1088864422644874
 10
-2.72352140047954
 20
0.1083647560500985
 10
-2.722746636564092
 20
0.1078116451128231
 10
-2.721994610915249
 20
0.1072279943121749
 10
-2.721266526613632
 20
0.1066147373649217
 10
-2.720563548438802
 20
0.1059728553513658
 10
-2.71988680100588
 20
0.1053033751457956
 10
-2.719237366966394
 20
0.1046073677737299
 10
-2.718616285276269
 20
0.103885946698485
 10
-2.718024549533717
 20
0.10314026603989
 10
-2.717463106389697
 20
0.1023715187279289
 10
-2.716932854033473
 20
0.1015809345943076
 10
-2.716434640755696
 20
0.1007697784049927
 10
-2.715969263591336
 20
0.0999393478368514
 10
-2.715537467044576
 20
0.0990909714016392
 10
-2.715139941897783
 20
0.0982260063206791
 10
-2.714777324106389
 20
0.0973458363535823
 10
-2.714450193781505
 20
0.0964518695845366
 10
-2.714159074261868
 20
0.0955455361696714
 10
-2.71390443127661
 20
0.0946282860491082
 10
-2.713686672200182
 20
0.0937015866273702
 10
-2.713506145400653
 20
0.0927669204258483
 10
-2.713363139682396
 20
0.0918257827110797
 10
-2.713257883824052
 20
0.0908796791026415
 10
-2.71319054621254
 20
0.0899301231644826
 10
-2.713161234573677
 20
0.0889786339835458
 10
-2.713159847509283
 20
0.0887216853104752
  0
LWPOLYLINE
  5
54C
330
4E7
100
AcDbEntity
  8
7052807
100
AcDbPolyline
 90
       41
 70
   128
 43
0.0
 10
-5.286840152490729
 20
0.0887216853105019
 10
-5.286821114948718
 20
0.0896734354907542
 10
-5.286764032778688
 20
0.0906236630737462
 10
-5.286668997299937
 20
0.0915708478980518
 10
-5.286536160548957
 20
0.092513474670006
 10
-5.286365735036213
 20
0.0934500353878557
 10
-5.286157993406167
 20
0.0943790317542429
 10
-5.285913268001117
 20
0.095298977573156
 10
-5.285631950329499
 20
0.0962084011275321
 10
-5.28531449043958
 20
0.0971058475336803
 10
-5.284961396199463
 20
0.0979898810687973
 10
-5.284573232484609
 20
0.0988590874678114
 10
-5.284150620274157
 20
0.099712076185902
 10
-5.283694235657494
 20
0.100547482623084
 10
-5.283204808752644
 20
0.1013639703072698
 10
-5.282683122538255
 20
0.1021602330323376
 10
-5.282130011600981
 20
0.1029349969477874
 10
-5.281546360800332
 20
0.1036870225966276
 10
-5.280933103853081
 20
0.1044151068982472
 10
-5.280291221839522
 20
0.1051180850730772
 10
-5.279621741633953
 20
0.1057948325059993
 10
-5.278925734261886
 20
0.1064442665454838
 10
-5.278204313186645
 20
0.1070653482356106
 10
-5.277458632528048
 20
0.1076570839781615
 10
-5.276689885216086
 20
0.1082185271221802
 10
-5.275899301082466
 20
0.1087487794784062
 10
-5.275088144893151
 20
0.109246992756182
 10
-5.27425771432501
 20
0.1097123699205441
 10
-5.273409337889798
 20
0.1101441664673036
 10
-5.272544372808837
 20
0.1105416916140959
 10
-5.271664202841741
 20
0.1109043094054899
 10
-5.270770236072696
 20
0.1112314397303732
 10
-5.269863902657828
 20
0.1115225592500094
 10
-5.268946652537266
 20
0.11177720223527
 10
-5.26801995311553
 20
0.1119949613116981
 10
-5.267085286914007
 20
0.1121754881112259
 10
-5.266144149199238
 20
0.1123184938294824
 10
-5.2651980455908
 20
0.1124237496878263
 10
-5.264248489652642
 20
0.1124910872993384
 10
-5.263297000471704
 20
0.1125203989382012
 10
-5.263040051798633
 20
0.1125217860025979
  0
LWPOLYLINE
  5
54D
330
4E7
100
AcDbEntity
  8
7052807
100
AcDbPolyline
 90
        2
 70
   128
 43
0.0
 10
-2.736959948201377
 20
0.1125217860025726
 10
-5.263040051798633
 20
0.1125217860025979
  0
LINE
  5
54E
330
4E7
100
AcDbEntity
  8
7052807
100
AcDbLine
 10
-5.286840152490782
 20
0.0887216853105005
 30
0.0
 11
-5.286840152490782
 21
0.0000000000034822
 31
0.0
  0
LINE
  5
54F
330
4E7
100
AcDbEntity
  8
7052807
100
AcDbLine
 10
-2.713159847509231
 20
0.0000000000034556
 30
0.0
 11
-2.713159847509231
 21
0.0887216853104739
 31
0.0
  0
LWPOLYLINE
  5
550
330
4E7
100
AcDbEntity
  8
7052807
100
AcDbPolyline
 90
       13
 70
   128
 43
0.0
 10
-3.230935119622884
 20
1.033709222679386
 10
-3.229067458570508
 20
1.029572366364083
 10
-3.227366721577443
 20
1.025364132570621
 10
-3.225835629460073
 20
1.02109125357536
 10
-3.224476631639166
 20
1.016760565073194
 10
-3.22329190222134
 20
1.012378995241895
 10
-3.222283336520927
 20
1.007953553658508
 10
-3.221452548027901
 20
1.003491320085522
 10
-3.220800865826625
 20
0.9989994331447626
 10
-3.220329332469606
 20
0.9944850788971187
 10
-3.220038702309622
 20
0.9899554793463707
 10
-3.219929440292935
 20
0.9854178808855404
 10
-3.21992849826867
 20
0.9849554939152028
  0
LWPOLYLINE
  5
551
330
4E7
100
AcDbEntity
  8
7052807
100
AcDbPolyline
 90
       13
 70
   128
 43
0.0
 10
-4.780071501731322
 20
0.9849554939152174
 10
-4.779980729508197
 20
0.9894934999072312
 10
-4.779708558055013
 20
0.9940242460577103
 10
-4.779255422788033
 20
0.9985404841393258
 10
-4.778622048627024
 20
1.00303498913456
 10
-4.77780944883553
 20
1.007500570794198
 10
-4.77681892339987
 20
1.011930085140187
 10
-4.775652056949443
 20
1.01631644589449
 10
-4.77431071622165
 20
1.020652635815606
 10
-4.772797047075519
 20
1.024931717924665
 10
-4.771113471058782
 20
1.029146846603115
 10
-4.769262681533927
 20
1.033291278544251
 10
-4.769064880377104
 20
1.033709222679402
  0
LWPOLYLINE
  5
552
330
4E7
100
AcDbEntity
  8
7052807
100
AcDbPolyline
 90
       25
 70
   128
 43
0.0
 10
-3.519519296966262
 20
3.286032390228862
 10
-3.517879136484181
 20
3.284834350139944
 10
-3.516288196781031
 20
3.283571679429675
 10
-3.514749023020952
 20
3.282246398101837
 10
-3.513264077553621
 20
3.280860626323842
 10
-3.511835735975017
 20
3.27941658103492
 10
-3.510466283326966
 20
3.277916572399485
 10
-3.509157910441569
 20
3.276363000111372
 10
-3.507912710436345
 20
3.27475834955483
 10
-3.506732675365665
 20
3.27310518782844
 10
-3.505619693033921
 20
3.271406159638308
 10
-3.50457554397542
 20
3.269663983067104
 10
-3.503601898605911
 20
3.26788144522569
 10
-3.502700314550288
 20
3.266061397794363
 10
-3.501872234150715
 20
3.264206752460756
 10
-3.50111898215918
 20
3.262320476261765
 10
-3.500441763618185
 20
3.260405586836927
 10
-3.499841661932929
 20
3.258465147600828
 10
-3.499319637138098
 20
3.256502262842313
 10
-3.498876524362
 20
3.254520072758267
 10
-3.498513032490551
 20
3.25252174842998
 10
-3.498229743033208
 20
3.250510486750093
 10
-3.498027109192669
 20
3.248489505308243
 10
-3.49790545513985
 20
3.246462037243619
 10
-3.497864975374714
 20
3.244434825479811
  0
LWPOLYLINE
  5
553
330
4E7
100
AcDbEntity
  8
7052807
100
AcDbPolyline
 90
       25
 70
   128
 43
0.0
 10
-4.502135024625232
 20
3.244434825479822
 10
-4.50209440504161
 20
3.246465533856486
 10
-4.501972611273412
 20
3.248492993532943
 10
-4.501769838164685
 20
3.250513961006211
 10
-4.501486410109151
 20
3.252525203159451
 10
-4.501122780531233
 20
3.254523502434257
 10
-4.500679531160686
 20
3.256505661978073
 10
-4.500157371101952
 20
3.258468510758467
 10
-4.499557135699731
 20
3.260408908636108
 10
-4.498879785202626
 20
3.262323751388322
 10
-4.49812640322694
 20
3.264209975675182
 10
-4.49729819502312
 20
3.266064563940203
 10
-4.496396485547618
 20
3.267884549237787
 10
-4.495422717343238
 20
3.269667019979698
 10
-4.494378448231383
 20
3.271409124592991
 10
-4.493265348819864
 20
3.273108076081912
 10
-4.492085199830293
 20
3.274761156486506
 10
-4.490839889249302
 20
3.276365721230758
 10
-4.489531409308169
 20
3.277919203353373
 10
-4.488161853295668
 20
3.279419117614341
 10
-4.486733412209268
 20
3.280863064470813
 10
-4.485248371249987
 20
3.282248733915841
 10
-4.483709106166564
 20
3.283573909173909
 10
-4.482118079454783
 20
3.284836470247293
 10
-4.480480703033684
 20
3.286032390228871
  0
LINE
  5
554
330
4E7
100
AcDbEntity
  8
7052807
100
AcDbLine
 10
-4.502135024625246
 20
3.244434825479822
 30
0.0
 11
-4.50213502462525
 21
3.135789348401134
 31
0.0
  0
LINE
  5
555
330
4E7
100
AcDbEntity
  8
7052807
100
AcDbLine
 10
-3.497864975374698
 20
3.135789348401123
 30
0.0
 11
-3.497864975374698
 21
3.244434825479812
 31
0.0
  0
LWPOLYLINE
  5
556
330
4E7
100
AcDbEntity
  8
7052807
100
AcDbPolyline
 90
       25
 70
   128
 43
0.0
 10
-3.497864975374715
 20
3.135789348401123
 10
-3.497904078244994
 20
3.133834465579892
 10
-3.498021324299584
 20
3.131882710154155
 10
-3.498216525969803
 20
3.129937204516242
 10
-3.498489370974624
 20
3.128001061060152
 10
-3.498839422820243
 20
3.126077377202397
 10
-3.499266121498379
 20
3.124169230426782
 10
-3.499768784382172
 20
3.1222796733611
 10
-3.500346607318235
 20
3.120411728893572
 10
-3.500998665913137
 20
3.118568385336873
 10
-3.501723917012219
 20
3.116752591647466
 10
-3.502521200368439
 20
3.114967252707909
 10
-3.503389240498504
 20
3.113215224679648
 10
-3.504326648723376
 20
3.111499310433786
 10
-3.505331925389867
 20
3.109822255067073
 10
-3.506403462269759
 20
3.108186741510345
 10
-3.507539545132623
 20
3.106595386236398
 10
-3.508738356488233
 20
3.105050735074203
 10
-3.509997978494151
 20
3.103555259136108
 10
-3.511316396023874
 20
3.1021113508646
 10
-3.512691499890602
 20
3.100721320204894
 10
-3.514121090221484
 20
3.099387390909521
 10
-3.51560287997696
 20
3.098111696980799
 10
-3.517134498609514
 20
3.096896279256878
 10
-3.51871073627824
 20
3.09574501428234
  0
LWPOLYLINE
  5
557
330
4E7
100
AcDbEntity
  8
7052807
100
AcDbPolyline
 90
       25
 70
   128
 43
0.0
 10
-4.481289263721709
 20
3.09574501428235
 10
-4.48286818149608
 20
3.096898320200562
 10
-4.484399716368859
 20
3.098113843467587
 10
-4.485881418210954
 20
3.099389639505493
 10
-4.487310916615506
 20
3.100723667312772
 10
-4.488685924690006
 20
3.102113792729516
 10
-4.490004242714853
 20
3.103557791851598
 10
-4.491263761662434
 20
3.105053354588459
 10
-4.492462466571119
 20
3.10659808835876
 10
-4.49359843976876
 20
3.108189521917992
 10
-4.494669863940572
 20
3.109825109311948
 10
-4.49567502503644
 20
3.111502233949704
 10
-4.496612315013027
 20
3.113218212789607
 10
-4.497480234406321
 20
3.114970300631572
 10
-4.498277394730436
 20
3.116755694508805
 10
-4.499002520698908
 20
3.118571538171972
 10
-4.499654452264868
 20
3.120414926658567
 10
-4.500232146476887
 20
3.122282910940249
 10
-4.500734679147457
 20
3.124172502640649
 10
-4.501161246331509
 20
3.126080678816137
 10
-4.501511165612541
 20
3.12800438679189
 10
-4.501783877194352
 20
3.129940549045513
 10
-4.501978944796587
 20
3.131886068130429
 10
-4.502096056352691
 20
3.133837831631121
 10
-4.502135024625232
 20
3.135789348401134
  0
LINE
  5
558
330
4E7
100
AcDbEntity
  8
7052807
100
AcDbLine
 10
-2.713159847509228
 20
0.0000000000034564
 30
0.0
 11
-5.286840152490775
 21
0.0000000000034828
 31
0.0
  0
LINE
  5
559
330
4E7
100
AcDbEntity
  8
7052807
100
AcDbLine
 10
-4.346456278691599
 20
3.37987730245741
 30
0.0
 11
-3.653543721308334
 21
3.379877302457404
 31
0.0
  0
LWPOLYLINE
  5
55A
330
4E7
100
AcDbEntity
  8
7052807
100
AcDbPolyline
 90
       66
 70
   128
 43
0.0
 10
4.839879447385062
 20
3.742688347823592
 10
4.837912843534851
 20
3.739303295512416
 10
4.83581244676985
 20
3.735999594060614
 10
4.83358161727682
 20
3.732782528685757
 10
4.831223923907067
 20
3.729657246006176
 10
4.828743138467032
 20
3.726628745807466
 10
4.82614322968422
 20
3.723701873043898
 10
4.823428356858059
 20
3.720881310087528
 10
4.820602863205934
 20
3.718171569237399
 10
4.817671268914942
 20
3.715576985500824
 10
4.81463826391058
 20
3.713101709658299
 10
4.811508700353847
 20
3.710749701623143
 10
4.808287584878829
 20
3.708524724106475
 10
4.804980070583155
 20
3.706430336597686
 10
4.80159144878413
 20
3.704469889670012
 10
4.798127140553759
 20
3.70264651962033
 10
4.794592688046204
 20
3.700963143451756
 10
4.790993745631503
 20
3.699422454207056
 10
4.787336070849782
 20
3.698026916660361
 10
4.783625515200434
 20
3.696778763374048
 10
4.779868014780944
 20
3.695679991127113
 10
4.776069580790441
 20
3.69473235772076
 10
4.77223628991301
 20
3.693937379166289
 10
4.768374274596329
 20
3.693296327259802
 10
4.764489713241058
 20
3.692810227547596
 10
4.760588820316701
 20
3.692479857685518
 10
4.756677836419793
 20
3.69230574619487
 10
4.752763018290266
 20
3.692288171616895
 10
4.74885062880201
 20
3.692427162067169
 10
4.744946926943608
 20
3.692722495190623
 10
4.741058157805298
 20
3.693173698517258
 10
4.73719054258813
 20
3.693780050218005
 10
4.733350268651406
 20
3.694540580259491
 10
4.729543479614214
 20
3.695454071955885
 10
4.725776265526938
 20
3.696519063915342
 10
4.722054653128491
 20
3.697733852377914
 10
4.718384596204813
 20
3.6990964939412
 10
4.714771966064066
 20
3.700604808669382
 10
4.711222542143829
 20
3.702256383580651
 10
4.707742002765208
 20
3.704048576507466
 10
4.704335916048727
 20
3.705978520323458
 10
4.701009731006539
 20
3.70804312753022
 10
4.69776876882517
 20
3.710239095196649
 10
4.694618214352736
 20
3.712562910242925
 10
4.691563107804313
 20
3.715010855060698
 10
4.68860833669866
 20
3.717579013460455
 10
4.68575862803922
 20
3.720263276936605
 10
4.683018540751948
 20
3.723059351240196
 10
4.680392458391985
 20
3.725962763248809
 10
4.6778845821309
 20
3.728968868122589
 10
4.675498924035732
 20
3.732072856735008
 10
4.673239300650514
 20
3.735269763366432
 10
4.67110932689064
 20
3.738554473648226
 10
4.669112410259756
 20
3.741921732744636
 10
4.66725174539848
 20
3.74536615375942
 10
4.665530308973671
 20
3.748882226353725
 10
4.663950854916389
 20
3.752464325561453
 10
4.662515910016203
 20
3.756106720788015
 10
4.661227769878831
 20
3.759803584978052
 10
4.660088495253717
 20
3.763549003937479
 10
4.659099908737218
 20
3.767336985794943
 10
4.658263591856886
 20
3.771161470587531
 10
4.657580882541317
 20
3.775016339955421
 10
4.657052872979775
 20
3.778895426929956
 10
4.656680407874937
 20
3.782792525799466
 10
4.656537295330103
 20
3.785031825534689
  0
LWPOLYLINE
  5
55B
330
4E7
100
AcDbEntity
  8
7052807
100
AcDbPolyline
 90
       66
 70
   128
 43
0.0
 10
4.632177814686272
 20
4.249838405341572
 10
4.632051152483061
 20
4.253751213353646
 10
4.63208106218331
 20
4.257665956673827
 10
4.632267495937874
 20
4.261576372547904
 10
4.632610155492514
 20
4.265476205144654
 10
4.633108492665044
 20
4.269359215563845
 10
4.633761710222294
 20
4.273219191817137
 10
4.634568763155517
 20
4.27704995876594
 10
4.635528360352175
 20
4.280845388000326
 10
4.636638966661472
 20
4.284599407643166
 10
4.637898805350214
 20
4.288306012063848
 10
4.639305860945256
 20
4.291959271485998
 10
4.640857882457808
 20
4.29555334147386
 10
4.642552386984519
 20
4.299082472282148
 10
4.644386663679632
 20
4.302541018054412
 10
4.646357778091726
 20
4.305923445855198
 10
4.648462576858211
 20
4.309224344521571
 10
4.650697692750068
 20
4.31243843331982
 10
4.653059550058671
 20
4.315560570393502
 10
4.655544370316167
 20
4.318585760989321
 10
4.658148178340198
 20
4.321509165447662
 10
4.660866808593382
 20
4.32432610694502
 10
4.663695911847263
 20
4.327032078975912
 10
4.666630962140132
 20
4.329622752562332
 10
4.66966726401764
 20
4.332093983179193
 10
4.672799960044493
 20
4.334441817384672
 10
4.67602403857532
 20
4.336662499144884
 10
4.679334341772232
 20
4.338752475842738
 10
4.682725573856281
 20
4.340708403961351
 10
4.68619230957956
 20
4.342527154432977
 10
4.689729002904435
 20
4.344205817644841
 10
4.693329995876041
 20
4.345741708093898
 10
4.696989527673796
 20
4.34713236868307
 10
4.700701743827483
 20
4.348375574652073
 10
4.704460705583155
 20
4.349469337136561
 10
4.708260399403869
 20
4.350411906349879
 10
4.712094746590071
 20
4.351201774382359
 10
4.715957613004214
 20
4.351837677613645
 10
4.719842818884067
 20
4.352318598734219
 10
4.723744148729025
 20
4.352643768372877
 10
4.727655361243577
 20
4.352812666327565
 10
4.731570199322042
 20
4.352825022397587
 10
4.735482400058618
 20
4.352680816815862
 10
4.739385704766689
 20
4.352380280280562
 10
4.743273868991373
 20
4.351923893586031
 10
4.747140672499348
 20
4.351312386853624
 10
4.750979929229874
 20
4.350546738363664
 10
4.754785497191178
 20
4.349628172990406
 10
4.758551288286341
 20
4.348558160242498
 10
4.762271278052928
 20
4.347338411912078
 10
4.765939515300871
 20
4.345970879336276
 10
4.769550131633085
 20
4.344457750275488
 10
4.773097350833666
 20
4.342801445413428
 10
4.776575498108599
 20
4.341004614484549
 10
4.7799790091642
 20
4.339070132035034
 10
4.783302439108823
 20
4.337001092824135
 10
4.786540471163519
 20
4.334800806873216
 10
4.789687925167754
 20
4.332472794170433
 10
4.792739765866524
 20
4.33002077903949
 10
4.795691110965755
 20
4.327448684181531
 10
4.798537238942856
 20
4.324760624399642
 10
4.801273596600221
 20
4.321960900016055
 10
4.803895806349316
 20
4.319053989992537
 10
4.806399673213917
 20
4.316044544765022
 10
4.808781191541172
 20
4.312937378803889
 10
4.810089500594322
 20
4.31111439445779
  0
LWPOLYLINE
  5
55C
330
4E7
100
AcDbEntity
  8
7052807
100
AcDbPolyline
 90
        2
 70
   128
 43
0.0
 10
4.656537295330103
 20
3.785031825534689
 10
4.656527552836944
 20
3.785217723378249
  0
LWPOLYLINE
  5
55D
330
4E7
100
AcDbEntity
  8
7052807
100
AcDbPolyline
 90
        2
 70
   128
 43
0.0
 10
4.632177814686272
 20
4.249838405341574
 10
4.65653445608298
 20
3.785086001597121
  0
LWPOLYLINE
  5
55E
330
4E7
100
AcDbEntity
  8
7052807
100
AcDbPolyline
 90
        7
 70
   128
 43
0.0
 10
6.749835216947396
 20
3.742688347823713
 10
6.416131069831756
 20
3.774217584282943
 10
6.081433017267183
 20
3.792376994057467
 10
5.746276504739334
 20
3.797137525965457
 10
5.411197711172015
 20
3.788491564171377
 10
5.076732691155264
 20
3.766452940369727
 10
4.839879447385058
 20
3.742688347823661
  0
LWPOLYLINE
  5
55F
330
4E7
100
AcDbEntity
  8
7052807
100
AcDbPolyline
 90
        7
 70
   128
 43
0.0
 10
4.810089500594322
 20
4.311114394457721
 10
5.1452612841111
 20
4.314639460138805
 10
5.480024000921272
 20
4.331565002604315
 10
5.813842102090163
 20
4.361863944596896
 10
6.146181549866646
 20
4.405487814272788
 10
6.476510672029576
 20
4.462366822746438
 10
6.709582332609027
 20
4.510759135959259
  0
LWPOLYLINE
  5
560
330
4E7
100
AcDbEntity
  8
7052807
100
AcDbPolyline
 90
       69
 70
   128
 43
0.0
 10
6.974141040423134
 20
3.79447342754842
 10
6.974038767094683
 20
3.789747827201007
 10
6.973747601962465
 20
3.785030096672146
 10
6.973268010828572
 20
3.780327783324285
 10
6.972600760936511
 20
3.775648409855675
 10
6.971746919743779
 20
3.770999462265654
 10
6.970707853214136
 20
3.766388377878642
 10
6.969485223632375
 20
3.761822533446012
 10
6.968080986945011
 20
3.757309233344862
 10
6.966497389631186
 20
3.752855697892568
 10
6.964736965108791
 20
3.748469051795819
 10
6.962802529681525
 20
3.744156312752598
 10
6.960697178033417
 20
3.739924380225375
 10
6.958424278277981
 20
3.735780024403427
 10
6.955987466569965
 20
3.73172987537199
 10
6.953390641288279
 20
3.727780412505525
 10
6.950637956799415
 20
3.723937954102115
 10
6.947733816811343
 20
3.720208647275523
 10
6.944682867328534
 20
3.716598458121128
 10
6.94148998921932
 20
3.713113162171444
 10
6.938160290407566
 20
3.709758335156503
 10
6.934699097701074
 20
3.706539344083867
 10
6.931111948269823
 20
3.703461338652574
 10
6.92740458078769
 20
3.700529243014706
 10
6.923582926251786
 20
3.697747747897804
 10
6.919653098494116
 20
3.6951213031007
 10
6.915621384400779
 20
3.692654110374792
 10
6.91149423385427
 20
3.690350116702136
 10
6.907278249415057
 20
3.688213007981115
 10
6.902980175758873
 20
3.686246203129789
 10
6.898606888886696
 20
3.684452848616359
 10
6.894165385124608
 20
3.682835813425484
 10
6.889662769931156
 20
3.68139768446852
 10
6.885106246530138
 20
3.680140762445015
 10
6.880503104386999
 20
3.679067058162076
 10
6.875860707547204
 20
3.678178289317513
 10
6.871186482855382
 20
3.677475877751881
 10
6.866487908073921
 20
3.676960947173847
 10
6.861772499920164
 20
3.676634321362488
 10
6.85704780204125
 20
3.676496522849429
 10
6.852321372945915
 20
3.676547772082892
 10
6.847600773912454
 20
3.676787987075037
 10
6.842893556892313
 20
3.67721678353312
 10
6.838207252428571
 20
3.67783347547428
 10
6.833549357608678
 20
3.678637076322966
 10
6.828927324070722
 20
3.679626300489244
 10
6.824348546082369
 20
3.680799565425471
 10
6.819820348711658
 20
3.682154994158034
 10
6.815349976108414
 20
3.683690418290103
 10
6.810944579915172
 20
3.685403381470606
 10
6.806611207826076
 20
3.687291143323867
 10
6.802356792312068
 20
3.689350683833621
 10
6.798188139530402
 20
3.691578708174399
 10
6.794111918436271
 20
3.693971651982542
 10
6.79013465011387
 20
3.696525687058424
 10
6.786262697344088
 20
3.699236727490756
 10
6.782502254425377
 20
3.702100436193169
 10
6.778859337264218
 20
3.705112231842631
 10
6.77533977375096
 20
3.708267296208588
 10
6.771949194436427
 20
3.711560581861097
 10
6.768693023524228
 20
3.714986820245644
 10
6.76557647019322
 20
3.718540530111706
 10
6.762604520263899
 20
3.722216026281582
 10
6.759781928222164
 20
3.726007428745464
 10
6.757113209613169
 20
3.729908672068198
 10
6.754602633817388
 20
3.73391351509269
 10
6.752254217220539
 20
3.738015550924421
 10
6.750071716788198
 20
3.742208217181115
 10
6.749835216947413
 20
3.742688347823644
  0
LWPOLYLINE
  5
561
330
4E7
100
AcDbEntity
  8
7052807
100
AcDbPolyline
 90
       69
 70
   128
 43
0.0
 10
6.709582332609038
 20
4.510759135959329
 10
6.711294688609207
 20
4.515164768196121
 10
6.713181853207039
 20
4.519498400420694
 10
6.71524080734175
 20
4.523753099745951
 10
6.717468257125943
 20
4.527922059560589
 10
6.719860639115132
 20
4.531998610418236
 10
6.72241412600848
 20
4.53597623070714
 10
6.725124632771667
 20
4.53984855708335
 10
6.727987823172089
 20
4.543609394650716
 10
6.730999116715882
 20
4.547252726871399
 10
6.734153695975756
 20
4.550772725191053
 10
6.737446514297829
 20
4.554163758363254
 10
6.740872303875224
 20
4.557420401458313
 10
6.744425584175409
 20
4.560537444541989
 10
6.748100670707898
 20
4.563509901010279
 10
6.751891684118216
 20
4.566333015566931
 10
6.755792559593615
 20
4.569002271830879
 10
6.759797056565467
 20
4.571513399561518
 10
6.763898768692879
 20
4.573862381490154
 10
6.768091134111415
 20
4.576045459746791
 10
6.772367445930743
 20
4.578059141871918
 10
6.776720862964179
 20
4.579900206403697
 10
6.78114442067315
 20
4.581565708031616
 10
6.785631042308956
 20
4.583052982308359
 10
6.790173550234086
 20
4.584359649912351
 10
6.79476467740487
 20
4.585483620454168
 10
6.799397078997223
 20
4.586423095820709
 10
6.804063344156791
 20
4.587176573051798
 10
6.808756007854739
 20
4.587742846744601
 10
6.81346756283019
 20
4.588121010982004
 10
6.818190471600271
 20
4.588310460781903
 10
6.822917178518444
 20
4.588310893065028
 10
6.827640121861954
 20
4.588122307139819
 10
6.832351745928956
 20
4.587745004703528
 10
6.837044513126034
 20
4.587179589359564
 10
6.841710916026748
 20
4.586426965651866
 10
6.846343489381901
 20
4.58548833761781
 10
6.850934822062352
 20
4.584365206862025
 10
6.855477568915247
 20
4.583059370154129
 10
6.859964462514689
 20
4.581572916554291
 10
6.864388324788066
 20
4.579908224071179
 10
6.868742078499462
 20
4.57806795585765
 10
6.873018758571674
 20
4.576055055950276
 10
6.877211523228904
 20
4.573872744559513
 10
6.881313664942108
 20
4.571524512918051
 10
6.885318621159626
 20
4.569014117695587
 10
6.889219984805848
 20
4.566345574988955
 10
6.893011514531185
 20
4.563523153897226
 10
6.896687144696905
 20
4.560551369692063
 10
6.900240995078821
 20
4.557434976594248
 10
6.903667380274448
 20
4.554178960167942
 10
6.906960818798388
 20
4.550788529344848
 10
6.910116041851573
 20
4.547269108091028
 10
6.913128001750187
 20
4.543626326729719
 10
6.915991880000916
 20
4.539866012934012
 10
6.91870309500949
 20
4.535994182403827
 10
6.921257309410247
 20
4.532017029242062
 10
6.923650437005022
 20
4.527940916045364
 10
6.925878649300173
 20
4.523772363725322
 10
6.927938381631346
 20
4.519518041076405
 10
6.929826338866206
 20
4.515184754107311
 10
6.931539500675913
 20
4.510779435152802
 10
6.933075126367029
 20
4.506309131783461
 10
6.934430759266032
 20
4.501780995531058
 10
6.935604230649467
 20
4.497202270447649
 10
6.936593663213454
 20
4.492580281516627
 10
6.937397474076949
 20
4.487922422934306
 10
6.938014377314051
 20
4.483236146280797
 10
6.93807240011808
 20
4.482704083349556
  0
LWPOLYLINE
  5
562
330
4E7
100
AcDbEntity
  8
7052807
100
AcDbPolyline
 90
       32
 70
   128
 43
0.0
 10
7.095251210588344
 20
3.919886680062808
 10
7.094155696219438
 20
3.913878350394717
 10
7.092820789042178
 20
3.907918635639709
 10
7.091248624623283
 20
3.902017070070057
 10
7.089441718090444
 20
3.896183094931736
 10
7.087402960108665
 20
3.890426043340455
 10
7.0851356122558
 20
3.884755125350654
 10
7.08264330180474
 20
3.879179413221383
 10
7.079930015920542
 20
3.87370782690263
 10
7.077000095281821
 20
3.868349119765293
 10
7.073858227136575
 20
3.863111864597664
 10
7.070509437803615
 20
3.858004439890788
 10
7.066959084631498
 20
3.853035016434673
 10
7.063212847427934
 20
3.848211544246758
 10
7.059276719373293
 20
3.843541739853593
 10
7.055156997432799
 20
3.839033073946036
 10
7.050860272282733
 20
3.83469275942774
 10
7.046393417766743
 20
3.830527739876051
 10
7.041763579899185
 20
3.82654467843376
 10
7.036978165432994
 20
3.822749947149502
 10
7.032044830010484
 20
3.819149616783833
 10
7.026971465915941
 20
3.815749447097306
 10
7.021766189449664
 20
3.81255487763609
 10
7.016437327943592
 20
3.80957101902985
 10
7.010993406439368
 20
3.806802644815836
 10
7.005443134050096
 20
3.804254183802233
 10
6.999795390027603
 20
3.801929712983022
 10
6.994059209557541
 20
3.799832951015651
 10
6.988243769305004
 20
3.797967252271984
 10
6.982358372733838
 20
3.796335601472015
 10
6.976412435223064
 20
3.794940608908959
 10
6.974141040423148
 20
3.794473427548407
  0
LWPOLYLINE
  5
563
330
4E7
100
AcDbEntity
  8
7052807
100
AcDbPolyline
 90
       32
 70
   128
 43
0.0
 10
6.938072400118091
 20
4.482704083349571
 10
6.944142513016398
 20
4.482030357489346
 10
6.95018082862326
 20
4.481114430764708
 10
6.956177686921801
 20
4.479957768463028
 10
6.962123494218019
 20
4.478562220997248
 10
6.968008738488599
 20
4.476930020945613
 10
6.973824004598164
 20
4.475063779480022
 10
6.979559989361462
 20
4.472966482188708
 10
6.985207516426484
 20
4.470641484299938
 10
6.990757550954668
 20
4.468092505314362
 10
6.996201214074716
 20
4.465323623054602
 10
7.001529797086881
 20
4.462339267141611
 10
7.006734775395056
 20
4.459144211908222
 10
7.011807822144277
 20
4.455743568761233
 10
7.016740821541937
 20
4.452142778004246
 10
7.021525881841327
 20
4.448347600134345
 10
7.026155347966717
 20
4.444364106626528
 10
7.030621813759871
 20
4.440198670220638
 10
7.034918133828327
 20
4.435857954726349
 10
7.039037434976464
 20
4.43134890436248
 10
7.042973127201182
 20
4.426678732647734
 10
7.046718914234499
 20
4.421854910860605
 10
7.050268803616219
 20
4.416885156086925
 10
7.053617116280598
 20
4.411777418874173
 10
7.056758495641641
 20
4.406539870512298
 10
7.059687916162491
 20
4.401180889961395
 10
7.062400691395236
 20
4.395709050447156
 10
7.064892481478189
 20
4.390133105745543
 10
7.06715930007877
 20
4.384461976178605
 10
7.069197520770785
 20
4.378704734343874
 10
7.071003882835924
 20
4.372870590600137
 10
7.071628370657883
 20
4.370637317728102
  0
LWPOLYLINE
  5
564
330
4E7
100
AcDbEntity
  8
7052807
100
AcDbPolyline
 90
       25
 70
   128
 43
0.0
 10
7.195905054554369
 20
4.151156053624481
 10
7.196270556238758
 20
4.139865093236289
 10
7.196184247572531
 20
4.1285685482431
 10
7.195646266631147
 20
4.117284490707103
 10
7.194657474069341
 20
4.106030972713217
 10
7.19321945174429
 20
4.094825997489609
 10
7.191334500184947
 20
4.083687490606371
 10
7.189005634911708
 20
4.072633271298427
 10
7.18623658161221
 20
4.061681023958565
 10
7.183031770181035
 20
4.05084826984617
 10
7.179396327632812
 20
4.04015233905696
 10
7.175336069900101
 20
4.029610342798519
 10
7.17085749252913
 20
4.019239146016023
 10
7.165967760288321
 20
4.00905534041192
 10
7.160674695706163
 20
3.999075217902746
 10
7.15498676655687
 20
3.989314744555536
 10
7.14891307231371
 20
3.979789535045526
 10
7.142463329591823
 20
3.970514827675991
 10
7.135647856603696
 20
3.961505460000225
 10
7.128477556652221
 20
3.952775845084615
 10
7.12096390068773
 20
3.944339948450806
 10
7.113118908956945
 20
3.93621126573385
 10
7.104955131773127
 20
3.928402801092068
 10
7.096485629438255
 20
3.92092704640317
 10
7.095251210588333
 20
3.919886680062795
  0
LWPOLYLINE
  5
565
330
4E7
100
AcDbEntity
  8
7052807
100
AcDbPolyline
 90
       25
 70
   128
 43
0.0
 10
7.071628370657872
 20
4.370637317728116
 10
7.080870190051843
 20
4.364140537582672
 10
7.089844815063667
 20
4.357279379964152
 10
7.098537888207808
 20
4.350064821261112
 10
7.106935502421659
 20
4.342508403228452
 10
7.115024223313881
 20
4.334622214523077
 10
7.122791110656535
 20
4.326418871364615
 10
7.13022373908673
 20
4.317911497352167
 10
7.13731021798452
 20
4.309113702469345
 10
7.144039210495364
 20
4.300039561311199
 10
7.150399951666692
 20
4.290703590567866
 10
7.156382265669513
 20
4.281120725800967
 10
7.161976582077585
 20
4.271306297549897
 10
7.167173951178043
 20
4.261276006806224
 10
7.171966058289036
 20
4.251045899895456
 10
7.176345237061454
 20
4.240632342806343
 10
7.180304481743434
 20
4.230051995008787
 10
7.183837458388072
 20
4.219321782802247
 10
7.186938514986408
 20
4.208458872237259
 10
7.189602690509406
 20
4.197480641653433
 10
7.191825722844555
 20
4.186404653877803
 10
7.19360405561434
 20
4.175248628128061
 10
7.194934843865684
 20
4.164030411665579
 10
7.195815958621274
 20
4.152767951243607
 10
7.195905054554359
 20
4.15115605362467
  0
LINE
  5
566
330
4E7
100
AcDbEntity
  8
7052807
100
AcDbLine
 10
4.633929047438993
 20
4.216422893814901
 30
0.0
 11
4.316360233693153
 21
4.199779817516939
 31
0.0
  0
LINE
  5
567
330
4E7
100
AcDbEntity
  8
7052807
100
AcDbLine
 10
4.337217248831549
 20
3.801804260763386
 30
0.0
 11
4.654786062577382
 21
3.81844733706136
 31
0.0
  0
LWPOLYLINE
  5
568
330
4E7
100
AcDbEntity
  8
7052807
100
AcDbPolyline
 90
       39
 70
   128
 43
0.0
 10
4.316360233693156
 20
4.199779817516902
 10
4.294654756241918
 20
4.198206464867559
 10
4.273029558182408
 20
4.195766383141041
 10
4.251519235218378
 20
4.192463475947589
 10
4.230158199277955
 20
4.18830302723413
 10
4.208980623461865
 20
4.18329169283109
 10
4.188020387373772
 20
4.177437489804487
 10
4.167311022920134
 20
4.170749783630331
 10
4.14688566066632
 20
4.163239273211868
 10
4.126776976834758
 20
4.154917973763612
 10
4.107017141029949
 20
4.14579919758956
 10
4.087637764773983
 20
4.135897532786361
 10
4.068669850934814
 20
4.125228819905453
 10
4.050143744128316
 20
4.113810126611578
 10
4.032089082173353
 20
4.101659720378147
 10
4.014534748677601
 20
4.088797039263184
 10
3.997508826829921
 20
4.075242660812581
 10
3.981038554473276
 20
4.061018269140414
 10
3.965150280529957
 20
4.046146620238982
 10
3.949869422848966
 20
4.03065150557408
 10
3.935220427542837
 20
4.014557714023719
 10
3.921226729879119
 20
3.997890992221225
 10
3.907910716788901
 20
3.980678003366104
 10
3.895293691052536
 20
3.962946284568613
 10
3.883395837219712
 20
3.944724202796266
 10
3.872236189318492
 20
3.926040909492726
 10
3.861832600404913
 20
3.906926293941724
 10
3.852201714001925
 20
3.887410935450573
 10
3.843358937473293
 20
3.867526054429808
 10
3.835318417375109
 20
3.847303462447174
 10
3.828093016824304
 20
3.826775511335926
 10
3.82169429492043
 20
3.805975041438777
 10
3.81613248825354
 20
3.784935329070365
 10
3.811416494527847
 20
3.763690033282249
 10
3.807553858327281
 20
3.742273142015601
 10
3.804550759045792
 20
3.720718917727752
 10
3.802412001001592
 20
3.699061842579576
 10
3.801141005751311
 20
3.677336563271381
 10
3.800739141541928
 20
3.656428558432258
  0
LWPOLYLINE
  5
569
330
4E7
100
AcDbEntity
  8
7052807
100
AcDbPolyline
 90
       39
 70
   128
 43
0.0
 10
4.19926085845806
 20
3.65642855843226
 10
4.199377303097342
 20
3.662250014078035
 10
4.199726450728604
 20
3.668062156636621
 10
4.200307742790116
 20
3.673855687919782
 10
4.201120249338586
 20
3.679621339513352
 10
4.202162670536857
 20
3.685349887604722
 10
4.203433338733383
 20
3.691032167738971
 10
4.204930221130116
 20
3.696659089480037
 10
4.206650923034537
 20
3.702221650953484
 10
4.208592691690657
 20
3.707710953247568
 10
4.210752420682851
 20
3.713118214649609
 10
4.213126654905458
 20
3.718434784694852
 10
4.215711596090187
 20
3.723652158005362
 10
4.218503108882572
 20
3.728761987896825
 10
4.221496727457637
 20
3.733756099731453
 10
4.224687662664262
 20
3.738626503995666
 10
4.228070809686816
 20
3.743365409081604
 10
4.23164075621176
 20
3.747965233752042
 10
4.235391791086208
 20
3.75241861926875
 10
4.239317913454531
 20
3.756718441164908
 10
4.243412842358477
 20
3.760857820642727
 10
4.247670026785328
 20
3.764830135578064
 10
4.252082656148161
 20
3.768629031114405
 10
4.256643671181297
 20
3.772248429829278
 10
4.261345775233657
 20
3.775682541456837
 10
4.266181445941811
 20
3.778925872151051
 10
4.271142947264188
 20
3.78197323327468
 10
4.276222341857064
 20
3.784819749699998
 10
4.281411503772638
 20
3.787460867607946
 10
4.28670213145881
 20
3.789892361773282
 10
4.292085761039885
 20
3.792110342324032
 10
4.297553779856983
 20
3.794111260964459
 10
4.303097440246443
 20
3.795891916651578
 10
4.308707873534228
 20
3.797449460716142
 10
4.314376104223907
 20
3.798781401419907
 10
4.320093064355528
 20
3.799885607941878
 10
4.32584960801244
 20
3.800760313787172
 10
4.331636525952792
 20
3.801404119613032
 10
4.337217248831549
 20
3.801804260763348
  0
LINE
  5
56A
330
4E7
100
AcDbEntity
  8
7052807
100
AcDbLine
 10
4.839879447385051
 20
3.742688347823657
 30
0.0
 11
4.810089500594315
 21
4.311114394457717
 31
0.0
  0
LINE
  5
56B
330
4E7
100
AcDbEntity
  8
7052807
100
AcDbLine
 10
6.74983521694741
 20
3.74268834782364
 30
0.0
 11
6.709582332609031
 21
4.510759135959324
 31
0.0
  0
LINE
  5
56C
330
4E7
100
AcDbEntity
  8
7052807
100
AcDbLine
 10
6.974141040423141
 20
3.794473427548403
 30
0.0
 11
6.938072400118084
 21
4.482704083349567
 31
0.0
  0
LINE
  5
56D
330
4E7
100
AcDbEntity
  8
7052807
100
AcDbLine
 10
7.095251210588326
 20
3.919886680062791
 30
0.0
 11
7.071628370657869
 21
4.370637317728112
 31
0.0
  0
LINE
  5
56E
330
4E7
100
AcDbEntity
  8
7052807
100
AcDbLine
 10
4.199260858458025
 20
3.485179785363679
 30
0.0
 11
4.199260858458025
 21
3.656428558432259
 31
0.0
  0
LINE
  5
56F
330
4E7
100
AcDbEntity
  8
7052807
100
AcDbLine
 10
3.800739141541889
 20
3.656428558432258
 30
0.0
 11
3.8007391415419
 21
3.485179785363676
 31
0.0
  0
LWPOLYLINE
  5
570
330
4E7
100
AcDbEntity
  8
7052807
100
AcDbPolyline
 90
       41
 70
   128
 43
0.0
 10
3.695436658635628
 20
3.379877302457388
 10
3.699647634815249
 20
3.379961533212047
 10
3.703851874331281
 20
3.380214090724787
 10
3.708042651297343
 20
3.38063457095746
 10
3.712213261364286
 20
3.381222301231394
 10
3.716357032445678
 20
3.381976341303525
 10
3.720467335391752
 20
3.382895484870592
 10
3.724537594594607
 20
3.383978261498962
 10
3.728561298507795
 20
3.385222938977007
 10
3.732532010063405
 20
3.386627526086282
 10
3.73644337696998
 20
3.38818977578704
 10
3.740289141874853
 20
3.389907188813021
 10
3.744063152374565
 20
3.391777017669747
 10
3.747759370857391
 20
3.393796271029922
 10
3.751371884162249
 20
3.395961718518922
 10
3.754894913038473
 20
3.3982698958827
 10
3.758322821391402
 20
3.40071711052986
 10
3.761650125298924
 20
3.403299447439012
 10
3.764871501784568
 20
3.406012775421969
 10
3.767981797333156
 20
3.40885275373277
 10
3.770976036135294
 20
3.411814839011951
 10
3.773849428047643
 20
3.414894292554941
 10
3.776597376256098
 20
3.418086187892984
 10
3.77921548462972
 20
3.421385418674445
 10
3.781699564753619
 20
3.424786706833868
 10
3.784045642629497
 20
3.42828461103577
 10
3.786249965033228
 20
3.431873535379606
 10
3.788309005519195
 20
3.435547738352023
 10
3.79021947006186
 20
3.439301342012055
 10
3.791978302325496
 20
3.443128341394568
 10
3.79358268855368
 20
3.447022614116936
 10
3.795030062070701
 20
3.450977930173537
 10
3.796318107387683
 20
3.454987961902435
 10
3.797444763906892
 20
3.459046294108292
 10
3.798408229218232
 20
3.46314643432531
 10
3.79920696198274
 20
3.467281823203793
 10
3.799839684398378
 20
3.471445845003704
 10
3.80030538424425
 20
3.475631838178439
 10
3.800603316499948
 20
3.479833106031883
 10
3.800733004537423
 20
3.484042927431693
 10
3.80073914154191
 20
3.485179785363676
  0
LWPOLYLINE
  5
571
330
4E7
100
AcDbEntity
  8
7052807
100
AcDbPolyline
 90
       41
 70
   128
 43
0.0
 10
4.199260858458014
 20
3.485179785363681
 10
4.199345089212673
 20
3.480968809184059
 10
4.199597646725415
 20
3.476764569668031
 10
4.200018126958084
 20
3.472573792701965
 10
4.200605857232019
 20
3.468403182635023
 10
4.201359897304151
 20
3.46425941155363
 10
4.202279040871218
 20
3.460149108607557
 10
4.203361817499587
 20
3.456078849404703
 10
4.204606494977632
 20
3.452055145491513
 10
4.206011082086906
 20
3.448084433935904
 10
4.207573331787664
 20
3.44417306702933
 10
4.209290744813646
 20
3.440327302124455
 10
4.211160573670372
 20
3.436553291624745
 10
4.213179827030547
 20
3.432857073141918
 10
4.215345274519545
 20
3.429244559837062
 10
4.217653451883325
 20
3.425721530960837
 10
4.220100666530484
 20
3.422293622607905
 10
4.222683003439634
 20
3.418966318700384
 10
4.225396331422594
 20
3.415744942214737
 10
4.228236309733397
 20
3.412634646666153
 10
4.231198395012576
 20
3.409640407864014
 10
4.234277848555564
 20
3.406767015951665
 10
4.237469743893608
 20
3.404019067743212
 10
4.240768974675066
 20
3.401400959369587
 10
4.244170262834494
 20
3.398916879245691
 10
4.247668167036394
 20
3.396570801369811
 10
4.251257091380232
 20
3.39436647896608
 10
4.254931294352648
 20
3.392307438480113
 10
4.258684898012678
 20
3.390396973937448
 10
4.262511897395189
 20
3.388638141673811
 10
4.266406170117562
 20
3.387033755445626
 10
4.270361486174159
 20
3.385586381928607
 10
4.274371517903059
 20
3.384298336611623
 10
4.278429850108917
 20
3.383171680092416
 10
4.282529990325933
 20
3.382208214781073
 10
4.286665379204418
 20
3.381409482016567
 10
4.290829401004327
 20
3.380776759600931
 10
4.295015394179063
 20
3.380311059755058
 10
4.299216662032506
 20
3.380013127499358
 10
4.303426483432318
 20
3.379883439461882
 10
4.3045633413643
 20
3.379877302457395
  0
LINE
  5
572
330
4E7
100
AcDbEntity
  8
7052807
100
AcDbLine
 10
4.480480703033677
 20
3.286032390228854
 30
0.0
 11
4.346456278691597
 21
3.379877302457395
 31
0.0
  0
LINE
  5
573
330
4E7
100
AcDbEntity
  8
7052807
100
AcDbLine
 10
3.653543721308331
 20
3.379877302457388
 30
0.0
 11
3.519519296966254
 21
3.286032390228845
 31
0.0
  0
LINE
  5
574
330
4E7
100
AcDbEntity
  8
7052807
100
AcDbLine
 10
4.418548279852135
 20
3.051813304422168
 30
0.0
 11
4.481289263721699
 21
3.095745014282333
 31
0.0
  0
LINE
  5
575
330
4E7
100
AcDbEntity
  8
7052807
100
AcDbLine
 10
3.518710736278233
 20
3.095745014282322
 30
0.0
 11
3.5814517201478
 21
3.051813304422159
 31
0.0
  0
LWPOLYLINE
  5
576
330
4E7
100
AcDbEntity
  8
7052807
100
AcDbPolyline
 90
       32
 70
   128
 43
0.0
 10
3.592417506338687
 20
3.022142739313888
 10
3.592672793192715
 20
3.023223773858591
 10
3.59288464599281
 20
3.024314152442281
 10
3.593052725819688
 20
3.025412130691826
 10
3.593176763781485
 20
3.026515952076249
 10
3.593256561443915
 20
3.027623850716808
 10
3.593291991147747
 20
3.028734054212011
 10
3.593282996213009
 20
3.029844786473103
 10
3.593229591029675
 20
3.030954270565404
 10
3.593131861034656
 20
3.032060731551049
 10
3.592989962575082
 20
3.033162399328488
 10
3.592804122658233
 20
3.034257511464291
 10
3.59257463858832
 20
3.035344316012651
 10
3.592301877490907
 20
3.036421074318129
 10
3.591986275725567
 20
3.037486063797134
 10
3.591628338187792
 20
3.038537580693684
 10
3.591228637501291
 20
3.039573942805056
 10
3.590787813101897
 20
3.040593492172952
 10
3.590306570214611
 20
3.041594597735875
 10
3.589785678725395
 20
3.042575657938482
 10
3.58922597194951
 20
3.04353510329373
 10
3.588628345298403
 20
3.044471398893722
 10
3.587993754847225
 20
3.04538304686523
 10
3.587323215805334
 20
3.046268588765975
 10
3.586617800892149
 20
3.04712660791782
 10
3.58587863862105
 20
3.047955731673157
 10
3.585106911493994
 20
3.048754633610849
 10
3.584303854109762
 20
3.049522035658217
 10
3.583470751188855
 20
3.05025671013569
 10
3.582608935518219
 20
3.050957481720824
 10
3.5817197858191
 20
3.051623229328578
 10
3.5814517201478
 20
3.051813304422159
  0
LWPOLYLINE
  5
577
330
4E7
100
AcDbEntity
  8
7052807
100
AcDbPolyline
 90
       32
 70
   128
 43
0.0
 10
4.418548279852139
 20
3.051813304422168
 10
4.417651314752632
 20
3.051158124542328
 10
4.416781267336702
 20
3.050467599699391
 10
4.415939529494611
 20
3.049742834585804
 10
4.415127447827352
 20
3.048984988671137
 10
4.414346321492349
 20
3.048195274347192
 10
4.413597400125112
 20
3.047374954988422
 10
4.412881881840064
 20
3.046525342930808
 10
4.412200911313831
 20
3.045647797372402
 10
4.411555577953983
 20
3.044743722198898
 10
4.410946914156234
 20
3.043814563737716
 10
4.410375893652819
 20
3.042861808444182
 10
4.409843429954733
 20
3.041886980523522
 10
4.409350374890305
 20
3.040891639492456
 10
4.408897517242458
 20
3.039877377684309
 10
4.408485581486829
 20
3.038845817701608
 10
4.408115226632748
 20
3.037798609820269
 10
4.407787045168976
 20
3.036737429349512
 10
4.407501562115854
 20
3.035663973951717
 10
4.407259234185353
 20
3.034579960926529
 10
4.407060449050483
 20
3.033487124463543
 10
4.406905524725043
 20
3.032387212867974
 10
4.406794709054913
 20
3.031281985763741
 10
4.406728179321525
 20
3.03017321127844
 10
4.406706041958251
 20
3.029062663214723
 10
4.406728332380165
 20
3.027952118212587
 10
4.406795014927332
 20
3.026843352907132
 10
4.406905982921912
 20
3.025738141086323
 10
4.407061058838777
 20
3.024638250853306
 10
4.407259994589551
 20
3.023545441797825
 10
4.407502471919464
 20
3.022461462181246
 10
4.407582493661244
 20
3.022142739313898
  0
LWPOLYLINE
  5
578
330
4E7
100
AcDbEntity
  8
7052807
100
AcDbPolyline
 90
        4
 70
   128
 43
0.0
 10
3.473524416357001
 20
2.427597503608399
 10
3.509590249031031
 20
2.647119949859953
 10
3.554405789350358
 20
2.865024552933464
 10
3.592417506338698
 20
3.022142739313923
  0
LWPOLYLINE
  5
579
330
4E7
100
AcDbEntity
  8
7052807
100
AcDbPolyline
 90
        4
 70
   128
 43
0.0
 10
4.407582493661237
 20
3.022142739313933
 10
4.458711490961761
 20
2.805632521703352
 10
4.501141491071059
 20
2.58725087461399
 10
4.526475583642945
 20
2.42759750360841
  0
LWPOLYLINE
  5
57A
330
4E7
100
AcDbEntity
  8
7052807
100
AcDbPolyline
 90
        4
 70
   128
 43
0.0
 10
3.419674800183656
 20
1.812093574263126
 10
3.431170114478586
 20
2.03426176828407
 10
3.451540591904528
 20
2.255792561481553
 10
3.473524416357015
 20
2.427597503608473
  0
LWPOLYLINE
  5
57B
330
4E7
100
AcDbEntity
  8
7052807
100
AcDbPolyline
 90
        4
 70
   128
 43
0.0
 10
4.526475583642934
 20
2.427597503608483
 10
4.553734011029256
 20
2.206808403284914
 10
4.57214142546347
 20
1.985105864329866
 10
4.5803251998163
 20
1.812093574263138
  0
LWPOLYLINE
  5
57C
330
4E7
100
AcDbEntity
  8
7052807
100
AcDbPolyline
 90
       12
 70
   128
 43
0.0
 10
3.230935119622881
 20
1.033709222679378
 10
3.263128162716867
 20
1.105016590503278
 10
3.292443920648238
 20
1.177554298397402
 10
3.318835494458006
 20
1.251206301503006
 10
3.342260663257967
 20
1.32585477232671
 10
3.362681951775151
 20
1.401380289239353
 10
3.380066690304236
 20
1.477662027525129
 10
3.394387066972129
 20
1.554577952675346
 10
3.405620172230999
 20
1.632005015617622
 10
3.413748035508714
 20
1.709819349568141
 10
3.418757653957872
 20
1.787896468192087
 10
3.419674800183656
 20
1.812093574263103
  0
LWPOLYLINE
  5
57D
330
4E7
100
AcDbEntity
  8
7052807
100
AcDbPolyline
 90
       12
 70
   128
 43
0.0
 10
4.5803251998163
 20
1.812093574263114
 10
4.584367925723597
 20
1.733960424468276
 10
4.591531910519567
 20
1.656051438776848
 10
4.601805693356773
 20
1.578491254946238
 10
4.615172838374299
 20
1.501403952725286
 10
4.631611960991627
 20
1.42491285535313
 10
4.65109676211939
 20
1.349140332268335
 10
4.673596070232321
 20
1.274207603343896
 10
4.699073891237034
 20
1.200234544961295
 10
4.727489466054905
 20
1.127339498233864
 10
4.758797335827885
 20
1.055639079686257
 10
4.769064880377094
 20
1.033709222679394
  0
LINE
  5
57E
330
4E7
100
AcDbEntity
  8
7052807
100
AcDbLine
 10
4.780071501731352
 20
0.8888554847246911
 30
0.0
 11
4.780071501731352
 21
0.9849554939152003
 31
0.0
  0
LINE
  5
57F
330
4E7
100
AcDbEntity
  8
7052807
100
AcDbLine
 10
3.219928498268625
 20
0.9849554939151843
 30
0.0
 11
3.219928498268625
 21
0.8888554846966432
 31
0.0
  0
LWPOLYLINE
  5
580
330
4E7
100
AcDbEntity
  8
7052807
100
AcDbPolyline
 90
       17
 70
   128
 43
0.0
 10
3.205155688506657
 20
0.8413198438294088
 10
3.207001339949918
 20
0.8441208581314722
 10
3.208733504371899
 20
0.8469934382932098
 10
3.210349410679029
 20
0.8499329887991459
 10
3.211846473765927
 20
0.852934806995543
 10
3.213222298651011
 20
0.8559940906136425
 10
3.214474684307958
 20
0.859105945452263
 10
3.215601627186881
 20
0.8622653932074952
 10
3.216601324419567
 20
0.8654673794369037
 10
3.217472176703711
 20
0.8687067816455805
 10
3.218212790861425
 20
0.8719784174810264
 10
3.218821982068046
 20
0.8752770530238167
 10
3.219298775747599
 20
0.878597411160752
 10
3.219642409131907
 20
0.8819341800271212
 10
3.219852332480858
 20
0.8852820215045426
 10
3.219928209961874
 20
0.8886355797608208
 10
3.219928498268664
 20
0.8888554847264511
  0
LWPOLYLINE
  5
581
330
4E7
100
AcDbEntity
  8
7052807
100
AcDbPolyline
 90
       17
 70
   128
 43
0.0
 10
4.780071501731317
 20
0.8888554847264671
 10
4.780138585589789
 20
0.8855017390404745
 10
4.780339729845344
 20
0.8821533586321519
 10
4.780674612710079
 20
0.8788157001958717
 10
4.781142698442856
 20
0.8754941032731318
 10
4.781743238206345
 20
0.8721938817104406
 10
4.782475271265042
 20
0.868920315158291
 10
4.783337626522204
 20
0.8656786406248405
 10
4.784328924393385
 20
0.8624740440978218
 10
4.78544757901345
 20
0.8593116522480695
 10
4.786691800773645
 20
0.856196524227934
 10
4.788059599184581
 20
0.8531336435777236
 10
4.789548786060564
 20
0.8501279102530995
 10
4.791156979020286
 20
0.8471841327861875
 10
4.792881605298063
 20
0.8443070205929677
 10
4.794719905859757
 20
0.8415011764391964
 10
4.794844311493321
 20
0.8413198438294248
  0
LWPOLYLINE
  5
582
330
4E7
100
AcDbEntity
  8
7052807
100
AcDbPolyline
 90
       11
 70
   128
 43
0.0
 10
3.049334512792523
 20
0.6869582270477644
 10
3.068580785421247
 20
0.7005020115315262
 10
3.087270056160818
 20
0.7148046080602879
 10
3.10537242616489
 20
0.729843135530667
 10
3.122858935503085
 20
0.7455935355067585
 10
3.139701609490725
 20
0.7620306107085039
 10
3.155873503442332
 20
0.7791280653219705
 10
3.171348745777411
 20
0.7968585470670372
 10
3.186102579409432
 20
0.8151936909552167
 10
3.200111401351904
 20
0.8341041646675753
 10
3.205155688506657
 20
0.8413198438294115
  0
LWPOLYLINE
  5
583
330
4E7
100
AcDbEntity
  8
7052807
100
AcDbPolyline
 90
       11
 70
   128
 43
0.0
 10
4.794844311493321
 20
0.841319843829426
 10
4.808568618122102
 20
0.822201880658606
 10
4.823046461387633
 20
0.8036480357034381
 10
4.83825467982913
 20
0.7856879911579119
 10
4.854168943541338
 20
0.768350479262025
 10
4.870763793097175
 20
0.7516632363363431
 10
4.888012680277398
 20
0.7356529584097884
 10
4.905888010542085
 20
0.7203452585116997
 10
4.924361187176018
 20
0.7057646256964452
 10
4.94340265703731
 20
0.6919343858661629
 10
4.950665487207459
 20
0.6869582270477843
  0
LWPOLYLINE
  5
584
330
4E7
100
AcDbEntity
  8
7052807
100
AcDbPolyline
 90
       26
 70
   128
 43
0.0
 10
3.031348381899576
 20
0.6531394236277724
 10
3.031381007409979
 20
0.6547704816386993
 10
3.031478831747328
 20
0.6563989303047486
 10
3.031641698413558
 20
0.6580221644554399
 10
3.031869346856737
 20
0.6596375872624019
 10
3.032161412887926
 20
0.6612426143937502
 10
3.032517429263773
 20
0.6628346781484611
 10
3.032936826434028
 20
0.6644112315641482
 10
3.033418933452686
 20
0.6659697524916619
 10
3.033962979051356
 20
0.667507747629986
 10
3.034568092873136
 20
0.669022756514984
 10
3.035233306865006
 20
0.6705123554556267
 10
3.03595755682647
 20
0.6719741614113719
 10
3.036739684112095
 20
0.6734058358045268
 10
3.03757843748507
 20
0.6748050882614685
 10
3.038472475118918
 20
0.6761696802767601
 10
3.039420366744149
 20
0.6774974287942724
 10
3.040420595936367
 20
0.6787862096996143
 10
3.041471562542231
 20
0.6800339612182654
 10
3.042571585239368
 20
0.6812386872139667
 10
3.043718904226121
 20
0.6823984603821183
 10
3.044911684036865
 20
0.683511425333061
 10
3.04614801647834
 20
0.6845758015602886
 10
3.047425923682386
 20
0.6855898862888932
 10
3.048743361270073
 20
0.686552057199636
 10
3.049334512792523
 20
0.686958227047763
  0
LWPOLYLINE
  5
585
330
4E7
100
AcDbEntity
  8
7052807
100
AcDbPolyline
 90
       26
 70
   128
 43
0.0
 10
4.950665487207462
 20
0.686958227047783
 10
4.951999640115108
 20
0.6860193710002696
 10
4.953295181614496
 20
0.6850279140509739
 10
4.954550039115591
 20
0.6839854423195182
 10
4.955762205114076
 20
0.6828936235382881
 10
4.956929740402944
 20
0.6817542043844238
 10
4.958050777174786
 20
0.6805690076855116
 10
4.959123522009914
 20
0.6793399295034402
 10
4.960146258745428
 20
0.6780689361011101
 10
4.961117351220721
 20
0.6767580607968351
 10
4.962035245894998
 20
0.6754094007114629
 10
4.962898474332579
 20
0.6740251134134332
 10
4.963705655552111
 20
0.6726074134671208
 10
4.964455498235832
 20
0.6711585688900179
 10
4.965146802795405
 20
0.6696808975243722
 10
4.965778463291012
 20
0.6681767633291523
 10
4.966349469200601
 20
0.6666485725982048
 10
4.96685890703652
 20
0.6650987701107037
 10
4.967305961806914
 20
0.6635298352200208
 10
4.967689918319518
 20
0.6619442778872924
 10
4.968010162325811
 20
0.6603446346660178
 10
4.968266181503704
 20
0.6587334646441106
 10
4.96845756627712
 20
0.6571133453499121
 10
4.968584010471261
 20
0.6554868686286808
 10
4.968645311802372
 20
0.6538566364962102
 10
4.968651618100409
 20
0.6531394236277937
  0
LINE
  5
586
330
4E7
100
AcDbEntity
  8
7052807
100
AcDbLine
 10
4.968651618100448
 20
0.5480588666228146
 30
0.0
 11
4.968651618100448
 21
0.653139423627791
 31
0.0
  0
LINE
  5
587
330
4E7
100
AcDbEntity
  8
7052807
100
AcDbLine
 10
3.031348381899533
 20
0.653139423627771
 30
0.0
 11
3.031348381899537
 21
0.5480588666227946
 31
0.0
  0
LWPOLYLINE
  5
588
330
4E7
100
AcDbEntity
  8
7052807
100
AcDbPolyline
 90
       25
 70
   128
 43
0.0
 10
3.016020407079423
 20
0.5180808847397423
 10
3.017201888108321
 20
0.5189706738110469
 10
3.01834684200589
 20
0.5199069977856983
 10
3.019453437090131
 20
0.5208883587450779
 10
3.020519903044974
 20
0.5219131867209957
 10
3.02154453375239
 20
0.5229798422073087
 10
3.022525690021826
 20
0.5240866187827793
 10
3.023461802212551
 20
0.5252317458409888
 10
3.024351372744749
 20
0.5264133914229232
 10
3.025192978495343
 20
0.5276296651477215
 10
3.025985273074656
 20
0.5288786212368813
 10
3.026726988980378
 20
0.5301582616270944
 10
3.02741693962529
 20
0.531466539166706
 10
3.028054021235529
 20
0.5328013608907401
 10
3.028637214616434
 20
0.5341605913691839
 10
3.029165586782998
 20
0.5355420561232283
 10
3.029638292452471
 20
0.5369435451039588
 10
3.030054575396615
 20
0.5383628162279779
 10
3.030413769651527
 20
0.5397975989642503
 10
3.030715300583022
 20
0.5412455979664644
 10
3.030958685805931
 20
0.5427044967451105
 10
3.03114353595582
 20
0.5441719613733543
 10
3.031269555311876
 20
0.5456456442208362
 10
3.031336542270015
 20
0.547123187709369
 10
3.031348381899579
 20
0.5480588666227946
  0
LWPOLYLINE
  5
589
330
4E7
100
AcDbEntity
  8
7052807
100
AcDbPolyline
 90
       25
 70
   128
 43
0.0
 10
4.968651618100409
 20
0.5480588666228146
 10
4.968681197352228
 20
0.5465801012320491
 10
4.9687698877872
 20
0.5451037015504574
 10
4.968917547519538
 20
0.543632029502577
 10
4.969123940325182
 20
0.5421674394497483
 10
4.969388736019659
 20
0.5407122744236279
 10
4.969711510986353
 20
0.5392688623778353
 10
4.970091748854169
 20
0.5378395124637337
 10
4.970528841323631
 20
0.5364265113362725
 10
4.971022089140031
 20
0.5350321194958361
 10
4.971570703212083
 20
0.5336585676719095
 10
4.972173805874302
 20
0.5323080532544054
 10
4.972830432291086
 20
0.530982736778296
 10
4.973539532000234
 20
0.5296847384672248
 10
4.974299970593488
 20
0.5284161348415966
 10
4.975110531531313
 20
0.5271789553965927
 10
4.975969918089113
 20
0.5259751793554078
 10
4.976876755431728
 20
0.524806732502916
 10
4.977829592812859
 20
0.5236754841048237
 10
4.978826905895953
 20
0.5225832439172491
 10
4.97986709919283
 20
0.5215317592914959
 10
4.980948508616108
 20
0.5205227123786571
 10
4.982069404141398
 20
0.5195577174385427
 10
4.983227992574974
 20
0.5186383182572021
 10
4.983979592920562
 20
0.5180808847397623
  0
LWPOLYLINE
  5
58A
330
4E7
100
AcDbEntity
  8
7052807
100
AcDbPolyline
 90
       20
 70
   128
 43
0.0
 10
2.911602848572883
 20
0.3573458460778034
 10
2.913992615126897
 20
0.3676958751667279
 10
2.916794360894645
 20
0.3779420601629675
 10
2.920003603680562
 20
0.3880680093562665
 10
2.923615209380805
 20
0.3980575233880024
 10
2.927623400196676
 20
0.4078946211667076
 10
2.932021763877916
 20
0.4175635654344055
 10
2.936803263980895
 20
0.4270488879428629
 10
2.941960251125454
 20
0.4363354141994962
 10
2.947484475232251
 20
0.4454082877433146
 10
2.953367098721162
 20
0.4542529939120912
 10
2.959598710649494
 20
0.4628553830627249
 10
2.9661693417675
 20
0.4712016932076542
 10
2.973068480467052
 20
0.479278572031098
 10
2.98028508959797
 20
0.4870730982499141
 10
2.987807624125103
 20
0.4945728022848975
 10
2.995624049597932
 20
0.5017656862094411
 10
3.003721861403114
 20
0.5086402429436681
 10
3.012088104769201
 20
0.5151854746632978
 10
3.016020407079423
 20
0.5180808847397449
  0
LWPOLYLINE
  5
58B
330
4E7
100
AcDbEntity
  8
7052807
100
AcDbPolyline
 90
       20
 70
   128
 43
0.0
 10
4.983979592920562
 20
0.5180808847397649
 10
4.992464767230231
 20
0.5116905871521085
 10
5.000687610559705
 20
0.5049660846498254
 10
5.008634968113767
 20
0.4979181350024376
 10
5.016294125815679
 20
0.4905580134258938
 10
5.023652830646987
 20
0.4828974945446443
 10
5.030699310249726
 20
0.4749488335547416
 10
5.03742229175971
 20
0.4667247466181466
 10
5.043811019840681
 20
0.4582383905195769
 10
5.049855273890557
 20
0.4495033416184664
 10
5.055545384392239
 20
0.4405335741296779
 10
5.060872248382743
 20
0.4313434377677452
 10
5.065827344016032
 20
0.4219476347903917
 10
5.070402744196108
 20
0.4123611964780483
 10
5.074591129258735
 20
0.4025994590870159
 10
5.078385798681267
 20
0.3926780393147284
 10
5.081780681802129
 20
0.3826128093163667
 10
5.084770347532526
 20
0.3724198713127902
 10
5.08735001304505
 20
0.3621155318304279
 10
5.088397151427109
 20
0.3573458460778261
  0
LWPOLYLINE
  5
58C
330
4E7
100
AcDbEntity
  8
7052807
100
AcDbPolyline
 90
       17
 70
   128
 43
0.0
 10
2.770253611584344
 20
0.1125217860025543
 10
2.783530717756985
 20
0.1249035118429461
 10
2.796302066688394
 20
0.1378062762590826
 10
2.808547226944696
 20
0.1512094375803406
 10
2.820246608881642
 20
0.1650915536077929
 10
2.831381495983865
 20
0.1794304159171585
 10
2.841934074807323
 20
0.1942030853875334
 10
2.851887463476987
 20
0.2093859288991032
 10
2.861225738694265
 20
0.2249546571410784
 10
2.869933961210875
 20
0.2408843634694291
 10
2.877998199728434
 20
0.2571495637521815
 10
2.885405553185602
 20
0.2737242371386106
 10
2.892144171396992
 20
0.2905818676870382
 10
2.89820327401097
 20
0.3076954867846893
 10
2.903573167755883
 20
0.3250377162917207
 10
2.908245261947264
 20
0.3425808123403958
 10
2.911602848572883
 20
0.3573458460778048
  0
LWPOLYLINE
  5
58D
330
4E7
100
AcDbEntity
  8
7052807
100
AcDbPolyline
 90
       17
 70
   128
 43
0.0
 10
5.088397151427109
 20
0.3573458460778287
 10
5.09248148746126
 20
0.339656671923382
 10
5.097269934758976
 20
0.3221449771001162
 10
5.102754832826054
 20
0.3048387765841168
 10
5.10892740699564
 20
0.2877657566044185
 10
5.115777782465805
 20
0.2709532303509393
 10
5.123295000097133
 20
0.2544280942792017
 10
5.131467033945
 20
0.2382167850817463
 10
5.140280810498527
 20
0.2223452373950634
 10
5.149722229595404
 20
0.2068388423097005
 10
5.159776186979129
 20
0.1917224067499404
 10
5.170426598462622
 20
0.1770201137880077
 10
5.181656425659479
 20
0.1627554839563241
 10
5.193447703241744
 20
0.1489513376196583
 10
5.205781567680638
 20
0.1356297584674234
 10
5.218638287424134
 20
0.1228120581844761
 10
5.229746388415652
 20
0.1125217860025796
  0
LWPOLYLINE
  5
58E
330
4E7
100
AcDbEntity
  8
7052807
100
AcDbPolyline
 90
       41
 70
   128
 43
0.0
 10
2.713159847509274
 20
0.0887216853104583
 10
2.713178885051284
 20
0.0896734354907092
 10
2.713235967221315
 20
0.0906236630737013
 10
2.713331002700066
 20
0.0915708478980069
 10
2.713463839451048
 20
0.092513474669961
 10
2.713634264963793
 20
0.0934500353878108
 10
2.713842006593836
 20
0.094379031754198
 10
2.714086731998886
 20
0.0952989775731111
 10
2.714368049670504
 20
0.0962084011274872
 10
2.714685509560421
 20
0.0971058475336354
 10
2.71503860380054
 20
0.0979898810687524
 10
2.715426767515396
 20
0.0988590874677665
 10
2.715849379725845
 20
0.0997120761858584
 10
2.716305764342511
 20
0.1005474826230391
 10
2.71679519124736
 20
0.1013639703072249
 10
2.717316877461747
 20
0.1021602330322927
 10
2.717869988399023
 20
0.1029349969477425
 10
2.718453639199672
 20
0.1036870225965841
 10
2.719066896146923
 20
0.1044151068982023
 10
2.71970877816048
 20
0.1051180850730323
 10
2.72037825836605
 20
0.1057948325059544
 10
2.721074265738113
 20
0.1064442665454389
 10
2.721795686813358
 20
0.1070653482355657
 10
2.722541367471954
 20
0.1076570839781166
 10
2.723310114783917
 20
0.1082185271221353
 10
2.724100698917538
 20
0.1087487794783613
 10
2.724911855106849
 20
0.1092469927561371
 10
2.725742285674993
 20
0.1097123699204992
 10
2.726590662110204
 20
0.1101441664672587
 10
2.727455627191165
 20
0.110541691614051
 10
2.728335797158262
 20
0.110904309405445
 10
2.729229763927307
 20
0.1112314397303296
 10
2.730136097342175
 20
0.1115225592499645
 10
2.731053347462736
 20
0.1117772022352251
 10
2.731980046884473
 20
0.1119949613116545
 10
2.732914713085996
 20
0.112175488111181
 10
2.733855850800765
 20
0.1123184938294375
 10
2.734801954409203
 20
0.1124237496877827
 10
2.735751510347359
 20
0.1124910872992935
 10
2.736702999528297
 20
0.1125203989381576
 10
2.73695994820137
 20
0.1125217860025543
  0
LWPOLYLINE
  5
58F
330
4E7
100
AcDbEntity
  8
7052807
100
AcDbPolyline
 90
       41
 70
   128
 43
0.0
 10
5.263040051798625
 20
0.1125217860025796
 10
5.263991801978875
 20
0.1125027484605661
 10
5.264942029561872
 20
0.112445666290538
 10
5.265889214386174
 20
0.1123506308117875
 10
5.266831841158129
 20
0.1122177940608072
 10
5.267768401875983
 20
0.1120473685480624
 10
5.268697398242366
 20
0.1118396269180187
 10
5.269617344061281
 20
0.1115949015129659
 10
5.270526767615656
 20
0.1113135838413495
 10
5.271424214021802
 20
0.1109961239514297
 10
5.272308247556921
 20
0.110643029711314
 10
5.273177453955934
 20
0.1102548659964593
 10
5.274030442674025
 20
0.1098322537860086
 10
5.274865849111208
 20
0.1093758691693437
 10
5.275682336795394
 20
0.1088864422644958
 10
5.276478599520459
 20
0.1083647560501069
 10
5.27725336343591
 20
0.1078116451128329
 10
5.278005389084754
 20
0.1072279943121833
 10
5.27873347338637
 20
0.1066147373649314
 10
5.279436451561199
 20
0.1059728553513742
 10
5.280113198994122
 20
0.1053033751458053
 10
5.28076263303361
 20
0.104607367773737
 10
5.28138371472373
 20
0.1038859466984934
 10
5.281975450466283
 20
0.1031402660398984
 10
5.282536893610306
 20
0.1023715187279373
 10
5.283067145966533
 20
0.101580934594316
 10
5.283565359244306
 20
0.1007697784050011
 10
5.284030736408666
 20
0.0999393478368599
 10
5.284462532955426
 20
0.0990909714016476
 10
5.284860058102221
 20
0.0982260063206875
 10
5.285222675893614
 20
0.0973458363535907
 10
5.285549806218497
 20
0.096451869584545
 10
5.285840925738135
 20
0.0955455361696798
 10
5.286095568723393
 20
0.0946282860491166
 10
5.286313327799824
 20
0.0937015866273786
 10
5.286493854599349
 20
0.0927669204258566
 10
5.286636860317603
 20
0.0918257827110881
 10
5.28674211617595
 20
0.0908796791026499
 10
5.286809453787462
 20
0.0899301231644923
 10
5.286838765426328
 20
0.0889786339835542
 10
5.286840152490722
 20
0.0887216853104849
  0
LWPOLYLINE
  5
590
330
4E7
100
AcDbEntity
  8
7052807
100
AcDbPolyline
 90
        2
 70
   128
 43
0.0
 10
5.263040051798625
 20
0.1125217860025796
 10
2.73695994820137
 20
0.1125217860025543
  0
LINE
  5
591
330
4E7
100
AcDbEntity
  8
7052807
100
AcDbLine
 10
5.286840152490775
 20
0.000000000003464
 30
0.0
 11
5.286840152490775
 21
0.0887216853104823
 31
0.0
  0
LINE
  5
592
330
4E7
100
AcDbEntity
  8
7052807
100
AcDbLine
 10
2.713159847509224
 20
0.0887216853104556
 30
0.0
 11
2.713159847509224
 21
0.0000000000034373
 31
0.0
  0
LWPOLYLINE
  5
593
330
4E7
100
AcDbEntity
  8
7052807
100
AcDbPolyline
 90
       13
 70
   128
 43
0.0
 10
3.219928498268661
 20
0.9849554939151843
 10
3.220019270491789
 20
0.9894934999071967
 10
3.220291441944972
 20
0.9940242460576772
 10
3.220744577211952
 20
0.9985404841392927
 10
3.221377951372961
 20
1.003034989134527
 10
3.222190551164455
 20
1.007500570794162
 10
3.223181076600113
 20
1.011930085140153
 10
3.224347943050542
 20
1.016316445894457
 10
3.225689283778333
 20
1.020652635815572
 10
3.227202952924464
 20
1.024931717924631
 10
3.228886528941202
 20
1.029146846603081
 10
3.230737318466058
 20
1.033291278544217
 10
3.230935119622881
 20
1.033709222679369
  0
LWPOLYLINE
  5
594
330
4E7
100
AcDbEntity
  8
7052807
100
AcDbPolyline
 90
       13
 70
   128
 43
0.0
 10
4.769064880377101
 20
1.033709222679385
 10
4.770932541429473
 20
1.029572366364081
 10
4.772633278422539
 20
1.02536413257062
 10
4.774164370539914
 20
1.021091253575359
 10
4.775523368360815
 20
1.016760565073193
 10
4.776708097778644
 20
1.012378995241892
 10
4.777716663479058
 20
1.007953553658506
 10
4.77854745197208
 20
1.00349132008552
 10
4.779199134173357
 20
0.9989994331447617
 10
4.779670667530375
 20
0.994485078897115
 10
4.779961297690363
 20
0.9899554793463684
 10
4.780070559707048
 20
0.9854178808855381
 10
4.780071501731317
 20
0.9849554939152003
  0
LWPOLYLINE
  5
595
330
4E7
100
AcDbEntity
  8
7052807
100
AcDbPolyline
 90
       25
 70
   128
 43
0.0
 10
3.497864975374707
 20
3.244434825479793
 10
3.497905594958329
 20
3.246465533856458
 10
3.498027388726526
 20
3.248492993532916
 10
3.498230161835255
 20
3.250513961006184
 10
3.498513589890787
 20
3.252525203159422
 10
3.498877219468706
 20
3.25452350243423
 10
3.499320468839254
 20
3.256505661978047
 10
3.499842628897987
 20
3.25846851075844
 10
3.500442864300207
 20
3.260408908636081
 10
3.50112021479731
 20
3.262323751388294
 10
3.501873596772995
 20
3.264209975675155
 10
3.502701804976815
 20
3.266064563940176
 10
3.503603514452318
 20
3.267884549237759
 10
3.5045772826567
 20
3.26966701997967
 10
3.505621551768555
 20
3.271409124592964
 10
3.506734651180074
 20
3.273108076081884
 10
3.507914800169643
 20
3.274761156486477
 10
3.509160110750634
 20
3.276365721230732
 10
3.510468590691768
 20
3.277919203353345
 10
3.51183814670427
 20
3.279419117614314
 10
3.513266587790671
 20
3.280863064470785
 10
3.514751628749952
 20
3.282248733915813
 10
3.516290893833371
 20
3.283573909173882
 10
3.517881920545153
 20
3.284836470247265
 10
3.519519296966254
 20
3.286032390228844
  0
LWPOLYLINE
  5
596
330
4E7
100
AcDbEntity
  8
7052807
100
AcDbPolyline
 90
       25
 70
   128
 43
0.0
 10
4.480480703033677
 20
3.286032390228854
 10
4.482120863515756
 20
3.284834350139936
 10
4.483711803218906
 20
3.283571679429667
 10
4.485250976978985
 20
3.282246398101829
 10
4.486735922446314
 20
3.280860626323834
 10
4.48816426402492
 20
3.279416581034912
 10
4.489533716672973
 20
3.277916572399479
 10
4.490842089558366
 20
3.276363000111364
 10
4.492087289563592
 20
3.27475834955482
 10
4.49326732463427
 20
3.273105187828432
 10
4.494380306966014
 20
3.271406159638301
 10
4.495424456024519
 20
3.269663983067096
 10
4.496398101394024
 20
3.267881445225683
 10
4.497299685449647
 20
3.266061397794357
 10
4.498127765849222
 20
3.264206752460749
 10
4.498881017840759
 20
3.262320476261758
 10
4.499558236381751
 20
3.260405586836918
 10
4.500158338067009
 20
3.25846514760082
 10
4.500680362861842
 20
3.256502262842306
 10
4.501123475637939
 20
3.25452007275826
 10
4.501486967509386
 20
3.252521748429972
 10
4.501770256966729
 20
3.250510486750084
 10
4.50197289080727
 20
3.248489505308235
 10
4.502094544860089
 20
3.246462037243612
 10
4.502135024625225
 20
3.244434825479804
  0
LINE
  5
597
330
4E7
100
AcDbEntity
  8
7052807
100
AcDbLine
 10
4.502135024625239
 20
3.135789348401116
 30
0.0
 11
4.502135024625239
 21
3.244434825479804
 31
0.0
  0
LINE
  5
598
330
4E7
100
AcDbEntity
  8
7052807
100
AcDbLine
 10
3.497864975374692
 20
3.244434825479794
 30
0.0
 11
3.497864975374692
 21
3.135789348401106
 31
0.0
  0
LWPOLYLINE
  5
599
330
4E7
100
AcDbEntity
  8
7052807
100
AcDbPolyline
 90
       25
 70
   128
 43
0.0
 10
3.518710736278233
 20
3.095745014282322
 10
3.517131818503859
 20
3.096898320200535
 10
3.515600283631084
 20
3.098113843467559
 10
3.514118581788984
 20
3.099389639505464
 10
3.512689083384437
 20
3.100723667312746
 10
3.511314075309936
 20
3.102113792729487
 10
3.509995757285089
 20
3.10355779185157
 10
3.508736238337508
 20
3.105053354588433
 10
3.50753753342882
 20
3.106598088358734
 10
3.506401560231179
 20
3.108189521917965
 10
3.505330136059367
 20
3.10982510931192
 10
3.504324974963502
 20
3.111502233949676
 10
3.503387684986915
 20
3.113218212789579
 10
3.502519765593621
 20
3.114970300631542
 10
3.501722605269502
 20
3.116755694508777
 10
3.500997479301034
 20
3.118571538171944
 10
3.500345547735072
 20
3.12041492665854
 10
3.499767853523053
 20
3.122282910940221
 10
3.499265320852483
 20
3.124172502640621
 10
3.498838753668433
 20
3.12608067881611
 10
3.498488834387401
 20
3.128004386791862
 10
3.49821612280559
 20
3.129940549045485
 10
3.498021055203352
 20
3.131886068130401
 10
3.497903943647251
 20
3.133837831631093
 10
3.497864975374707
 20
3.135789348401106
  0
LWPOLYLINE
  5
59A
330
4E7
100
AcDbEntity
  8
7052807
100
AcDbPolyline
 90
       25
 70
   128
 43
0.0
 10
4.502135024625225
 20
3.135789348401116
 10
4.502095921754943
 20
3.133834465579885
 10
4.501978675700357
 20
3.131882710154147
 10
4.501783474030137
 20
3.129937204516234
 10
4.501510629025315
 20
3.128001061060145
 10
4.501160577179696
 20
3.12607737720239
 10
4.500733878501563
 20
3.124169230426776
 10
4.50023121561777
 20
3.122279673361093
 10
4.499653392681707
 20
3.120411728893566
 10
4.499001334086802
 20
3.118568385336865
 10
4.498276082987722
 20
3.116752591647459
 10
4.497478799631501
 20
3.114967252707899
 10
4.496610759501439
 20
3.11321522467964
 10
4.495673351276565
 20
3.111499310433778
 10
4.494668074610071
 20
3.109822255067065
 10
4.49359653773018
 20
3.108186741510336
 10
4.492460454867316
 20
3.10659538623639
 10
4.491261643511705
 20
3.105050735074195
 10
4.490002021505791
 20
3.103555259136101
 10
4.488683603976063
 20
3.102111350864593
 10
4.487308500109339
 20
3.100721320204887
 10
4.485878909778456
 20
3.099387390909514
 10
4.484397120022983
 20
3.098111696980791
 10
4.482865501390428
 20
3.09689627925687
 10
4.481289263721699
 20
3.095745014282333
  0
LINE
  5
59B
330
4E7
100
AcDbEntity
  8
7052807
100
AcDbLine
 10
5.286840152490771
 20
0.0000000000034645
 30
0.0
 11
2.713159847509221
 21
0.0000000000034381
 31
0.0
  0
LINE
  5
59C
330
4E7
100
AcDbEntity
  8
7052807
100
AcDbLine
 10
3.653543721308327
 20
3.379877302457384
 30
0.0
 11
4.346456278691594
 21
3.379877302457391
 31
0.0
  0
LINE
  5
59D
330
4E7
100
AcDbEntity
  8
7052807
100
AcDbLine
 10
-4.656537295330107
 20
3.785031825534709
 30
0.0
 11
-4.632177814686276
 21
4.249838405341588
 31
0.0
  0
ARC
  5
59E
330
4E7
100
AcDbEntity
  8
7052807
100
AcDbCircle
 10
0.0009315397468868
 20
3.920956212812639
 30
0.0
 40
1.750862952844932
100
AcDbArc
 50
78.73458652614345
 51
101.0900755918753
  0
ENDBLK
  5
4E9
330
4E7
100
AcDbEntity
  8
0
100
AcDbBlockEnd
  0
BLOCK
  5
5A1
330
5A0
100
AcDbEntity
  8
0
100
AcDbBlockBegin
  2
AMSTN_Delancey_7052807_Plan View
 70
     0
 10
0.0
 20
0.0
 30
0.0
  3
AMSTN_Delancey_7052807_Plan View
  1

  0
ARC
  5
5A3
330
5A0
100
AcDbEntity
  8
7052807
100
AcDbCircle
 10
-3.784246246648148
 20
0.0000000000006626
 30
0.0
 40
0.8764290878106793
100
AcDbArc
 50
166.9105897823557
 51
193.0894102176432
  0
ARC
  5
5A4
330
5A0
100
AcDbEntity
  8
7052807
100
AcDbCircle
 10
-1.822470145630635
 20
0.000000000000659
 30
0.0
 40
3.01740930175491
100
AcDbArc
 50
174.5940016285473
 51
185.4059983714517
  0
ARC
  5
5A5
330
5A0
100
AcDbEntity
  8
7052807
100
AcDbCircle
 10
-5.436718219223688
 20
-0.0010320183765291
 30
0.0
 40
1.658533312450622
100
AcDbArc
 50
172.2047473967193
 51
187.7952526032796
  0
ARC
  5
5A6
330
5A0
100
AcDbEntity
  8
7052807
100
AcDbCircle
 10
-2.838841119659097
 20
0.0000000000005862
 30
0.0
 40
4.135299920764506
100
AcDbArc
 50
175.2276953880738
 51
184.7723046119246
  0
ARC
  5
5A7
330
5A0
100
AcDbEntity
  8
7052807
100
AcDbCircle
 10
-2.429927366482433
 20
0.0000000000005969
 30
0.0
 40
4.31990785046545
100
AcDbArc
 50
174.9541491325705
 51
185.045850867428
  0
ARC
  5
5A8
330
5A0
100
AcDbEntity
  8
7052807
100
AcDbCircle
 10
-4.000000000000484
 20
0.0000000000006644
 30
0.0
 40
1.229746388415649
100
AcDbArc
 50
193.3638711727706
 51
166.7410652358082
  0
ARC
  5
5A9
330
5A0
100
AcDbEntity
  8
7052807
100
AcDbCircle
 10
-3.997531363400055
 20
0.0000000000006644
 30
0.0
 40
0.9674169830762464
100
AcDbArc
 50
197.4826321591322
 51
162.6496369998179
  0
ARC
  5
5AA
330
5A0
100
AcDbEntity
  8
7052807
100
AcDbCircle
 10
-4.000000000000488
 20
0.0000000000006608
 30
0.0
 40
1.286840152490766
100
AcDbArc
 50
192.7420764366677
 51
167.3509848919843
  0
ARC
  5
5AB
330
5A0
100
AcDbEntity
  8
7052807
100
AcDbCircle
 10
-4.736071937318227
 20
0.2223520632190556
 30
0.0
 40
0.1095650335004208
100
AcDbArc
 50
79.9601274491704
 51
145.584089915444
  0
ARC
  5
5AC
330
5A0
100
AcDbEntity
  8
7052807
100
AcDbCircle
 10
-5.370769129721772
 20
8.483274557526076
 30
0.0
 40
8.217044613909679
100
AcDbArc
 50
260.4567210524209
 51
273.798149538983
  0
ARC
  5
5AD
330
5A0
100
AcDbEntity
  8
7052807
100
AcDbCircle
 10
-6.843568303021532
 20
0.3438044575825714
 30
0.0
 40
0.1162366818237083
100
AcDbArc
 50
18.11661977826149
 51
179.8833802217495
  0
ARC
  5
5AE
330
5A0
100
AcDbEntity
  8
7052807
100
AcDbCircle
 10
-6.959804744069783
 20
0.2239206279425545
 30
0.0
 40
0.1201204175146251
100
AcDbArc
 50
89.9999999999998
 51
179.9999999999999
  0
ARC
  5
5AF
330
5A0
100
AcDbEntity
  8
7052807
100
AcDbCircle
 10
-6.912726142988466
 20
-0.0010320183765291
 30
0.0
 40
0.2802841502928857
100
AcDbArc
 50
126.6220631973049
 51
233.3779368026941
  0
ARC
  5
5B0
330
5A0
100
AcDbEntity
  8
7052807
100
AcDbCircle
 10
-6.959804744069785
 20
-0.225984664695611
 30
0.0
 40
0.1201204175146258
100
AcDbArc
 50
179.999999999999
 51
269.9999999999986
  0
ARC
  5
5B1
330
5A0
100
AcDbEntity
  8
7052807
100
AcDbCircle
 10
-6.843568303021534
 20
-0.3458684943356278
 30
0.0
 40
0.1162366818237085
100
AcDbArc
 50
180.1166197782493
 51
341.8833802217376
  0
ARC
  5
5B2
330
5A0
100
AcDbEntity
  8
7052807
100
AcDbCircle
 10
-5.370769129721828
 20
-8.48533859427922
 30
0.0
 40
8.217044613909751
100
AcDbArc
 50
86.20185046101687
 51
99.54327894757874
  0
ARC
  5
5B3
330
5A0
100
AcDbEntity
  8
7052807
100
AcDbCircle
 10
-4.736071937318229
 20
-0.2244160999721281
 30
0.0
 40
0.1095650335004205
100
AcDbArc
 50
214.415910084555
 51
280.0398725508284
  0
ARC
  5
5B4
330
5A0
100
AcDbEntity
  8
7052807
100
AcDbCircle
 10
-4.764475848223503
 20
-0.2141935420216203
 30
0.0
 40
0.1273052399650999
100
AcDbArc
 50
291.9104120690359
 51
7.087483693309594
  0
LINE
  5
5B5
330
5A0
100
AcDbEntity
  8
7052807
100
AcDbLine
 10
-4.638143358412238
 20
-0.1984860234187806
 30
0.0
 11
-3.988309011216875
 21
-0.1984860234187824
 31
0.0
  0
ARC
  5
5B6
330
5A0
100
AcDbEntity
  8
7052807
100
AcDbCircle
 10
-3.988309011216875
 20
0.0000000000006626
 30
0.0
 40
0.1984860234194437
100
AcDbArc
 50
269.9999999999994
 51
89.99999999999939
  0
LINE
  5
5B7
330
5A0
100
AcDbEntity
  8
7052807
100
AcDbLine
 10
-3.988309011216877
 20
0.1984860234201058
 30
0.0
 11
-4.637903815271419
 21
0.1984860234201093
 31
0.0
  0
ARC
  5
5B8
330
5A0
100
AcDbEntity
  8
7052807
100
AcDbCircle
 10
-4.764475848223501
 20
0.2121295052685497
 30
0.0
 40
0.1273052399651
100
AcDbArc
 50
353.8477148387507
 51
68.08958793096296
  0
ARC
  5
5B9
330
5A0
100
AcDbEntity
  8
7052807
100
AcDbCircle
 10
3.784246246647168
 20
0.0000000000006626
 30
0.0
 40
0.8764290878106793
100
AcDbArc
 50
346.9105897823563
 51
13.08941021764385
  0
ARC
  5
5BA
330
5A0
100
AcDbEntity
  8
7052807
100
AcDbCircle
 10
1.822470145629655
 20
0.000000000000659
 30
0.0
 40
3.01740930175491
100
AcDbArc
 50
354.5940016285479
 51
5.405998371452305
  0
ARC
  5
5BB
330
5A0
100
AcDbEntity
  8
7052807
100
AcDbCircle
 10
5.436718219222708
 20
-0.0010320183765291
 30
0.0
 40
1.658533312450622
100
AcDbArc
 50
352.2047473967202
 51
7.79525260328026
  0
ARC
  5
5BC
330
5A0
100
AcDbEntity
  8
7052807
100
AcDbCircle
 10
2.838841119658116
 20
0.0000000000005862
 30
0.0
 40
4.135299920764506
100
AcDbArc
 50
355.227695388075
 51
4.772304611925807
  0
ARC
  5
5BD
330
5A0
100
AcDbEntity
  8
7052807
100
AcDbCircle
 10
2.42992736648145
 20
0.0000000000005969
 30
0.0
 40
4.31990785046545
100
AcDbArc
 50
354.9541491325718
 51
5.045850867429055
  0
ARC
  5
5BE
330
5A0
100
AcDbEntity
  8
7052807
100
AcDbCircle
 10
3.999999999999506
 20
0.0000000000006644
 30
0.0
 40
1.229746388415649
100
AcDbArc
 50
13.25893476419045
 51
346.6361288272283
  0
ARC
  5
5BF
330
5A0
100
AcDbEntity
  8
7052807
100
AcDbCircle
 10
3.997531363399073
 20
0.0000000000006644
 30
0.0
 40
0.9674169830762467
100
AcDbArc
 50
17.35037282907257
 51
342.5173784928589
  0
ARC
  5
5C0
330
5A0
100
AcDbEntity
  8
7052807
100
AcDbCircle
 10
3.999999999999506
 20
0.0000000000006608
 30
0.0
 40
1.286840152490766
100
AcDbArc
 50
12.64901924717342
 51
347.2579166982121
  0
ARC
  5
5C1
330
5A0
100
AcDbEntity
  8
7052807
100
AcDbCircle
 10
4.76447584822252
 20
0.2121295052685497
 30
0.0
 40
0.1273052399651
100
AcDbArc
 50
111.9104120690369
 51
186.1522851612491
  0
LINE
  5
5C2
330
5A0
100
AcDbEntity
  8
7052807
100
AcDbLine
 10
3.988309011215896
 20
0.1984860234201058
 30
0.0
 11
4.637903815270437
 21
0.1984860234201093
 31
0.0
  0
ARC
  5
5C3
330
5A0
100
AcDbEntity
  8
7052807
100
AcDbCircle
 10
3.988309011215896
 20
0.0000000000006626
 30
0.0
 40
0.198486023419444
100
AcDbArc
 50
90.00000000000019
 51
270.0000000000002
  0
LINE
  5
5C4
330
5A0
100
AcDbEntity
  8
7052807
100
AcDbLine
 10
4.638143358411259
 20
-0.1984860234187806
 30
0.0
 11
3.988309011215896
 21
-0.1984860234187824
 31
0.0
  0
ARC
  5
5C5
330
5A0
100
AcDbEntity
  8
7052807
100
AcDbCircle
 10
4.76447584822252
 20
-0.2141935420216203
 30
0.0
 40
0.1273052399651
100
AcDbArc
 50
172.9125163066902
 51
248.0895879309641
  0
ARC
  5
5C6
330
5A0
100
AcDbEntity
  8
7052807
100
AcDbCircle
 10
4.736071937317248
 20
-0.2244160999721281
 30
0.0
 40
0.1095650335004205
100
AcDbArc
 50
259.9601274491714
 51
325.584089915445
  0
ARC
  5
5C7
330
5A0
100
AcDbEntity
  8
7052807
100
AcDbCircle
 10
5.370769129720848
 20
-8.48533859427922
 30
0.0
 40
8.217044613909751
100
AcDbArc
 50
80.45672105242063
 51
93.79814953898231
  0
ARC
  5
5C8
330
5A0
100
AcDbEntity
  8
7052807
100
AcDbCircle
 10
6.843568303020553
 20
-0.3458684943356278
 30
0.0
 40
0.1162366818237085
100
AcDbArc
 50
198.1166197782624
 51
359.8833802217507
  0
ARC
  5
5C9
330
5A0
100
AcDbEntity
  8
7052807
100
AcDbCircle
 10
6.959804744068804
 20
-0.2259846646956127
 30
0.0
 40
0.1201204175146255
100
AcDbArc
 50
270.0000000000012
 51
0.0000000000014249
  0
ARC
  5
5CA
330
5A0
100
AcDbEntity
  8
7052807
100
AcDbCircle
 10
6.912726142987484
 20
-0.0010320183765291
 30
0.0
 40
0.2802841502928859
100
AcDbArc
 50
306.6220631973059
 51
53.3779368026951
  0
ARC
  5
5CB
330
5A0
100
AcDbEntity
  8
7052807
100
AcDbCircle
 10
6.959804744068804
 20
0.2239206279425545
 30
0.0
 40
0.1201204175146255
100
AcDbArc
 50
0.0000000000004071
 51
90.0
  0
ARC
  5
5CC
330
5A0
100
AcDbEntity
  8
7052807
100
AcDbCircle
 10
6.84356830302055
 20
0.3438044575825714
 30
0.0
 40
0.1162366818237082
100
AcDbArc
 50
0.116619778250489
 51
161.8833802217385
  0
ARC
  5
5CD
330
5A0
100
AcDbEntity
  8
7052807
100
AcDbCircle
 10
5.370769129720791
 20
8.483274557526076
 30
0.0
 40
8.217044613909679
100
AcDbArc
 50
266.2018504610164
 51
279.5432789475784
  0
ARC
  5
5CE
330
5A0
100
AcDbEntity
  8
7052807
100
AcDbCircle
 10
4.736071937317245
 20
0.2223520632190556
 30
0.0
 40
0.1095650335004207
100
AcDbArc
 50
34.41591008455602
 51
100.0398725508296
  0
ARC
  5
5CF
330
5A0
100
AcDbEntity
  8
7052807
100
AcDbCircle
 10
-31.04469977265508
 20
-2.037879036496848
 30
0.0
 40
30.53137966854479
100
AcDbArc
 50
355.7474359375466
 51
1.620186403641396
1001
REVIT
1002
{
1070
     1
1000
129673
1002
}
1002
{
1070
     2
1000
-2001160
1002
}
  0
ARC
  5
5D0
330
5A0
100
AcDbEntity
  8
7052807
100
AcDbCircle
 10
-0.0000000000004867
 20
-4.782208835220398
 30
0.0
 40
0.7665369570314205
100
AcDbArc
 50
141.1982919611322
 51
38.80170803888002
1001
REVIT
1002
{
1070
     1
1000
129673
1002
}
1002
{
1070
     2
1000
-2001160
1002
}
  0
ARC
  5
5D1
330
5A0
100
AcDbEntity
  8
7052807
100
AcDbCircle
 10
31.04469977265547
 20
-2.03787903649677
 30
0.0
 40
30.53137966854615
100
AcDbArc
 50
178.37981359636
 51
184.2525640624529
1001
REVIT
1002
{
1070
     1
1000
129673
1002
}
1002
{
1070
     2
1000
-2001160
1002
}
  0
ARC
  5
5D2
330
5A0
100
AcDbEntity
  8
7052807
100
AcDbCircle
 10
0.0
 20
0.0
 30
0.0
 40
1.28684015249061
100
AcDbArc
 50
294.1034162844721
 51
245.8965837154783
1001
REVIT
1002
{
1070
     1
1000
129673
1002
}
1002
{
1070
     2
1000
-2001160
1002
}
  0
ARC
  5
5D3
330
5A0
100
AcDbEntity
  8
7052807
100
AcDbCircle
 10
0.0000000000000036
 20
0.0000000000000036
 30
0.0
 40
0.9995698945348539
100
AcDbArc
 50
306.2055082445454
 51
233.794491755367
1001
REVIT
1002
{
1070
     1
1000
129878
1002
}
1002
{
1070
     2
1000
-2001160
1002
}
  0
ARC
  5
5D4
330
5A0
100
AcDbEntity
  8
7052807
100
AcDbCircle
 10
-2.829142019240117
 20
-1.39106596702569
 30
0.0
 40
2.313760248641873
100
AcDbArc
 50
5.367206573084755
 51
14.63279342691495
1001
REVIT
1002
{
1070
     1
1000
129901
1002
}
1002
{
1070
     2
1000
-2001160
1002
}
  0
ARC
  5
5D5
330
5A0
100
AcDbEntity
  8
7052807
100
AcDbCircle
 10
2.829142019239139
 20
-1.39106596702569
 30
0.0
 40
2.313760248641873
100
AcDbArc
 50
165.3672065731081
 51
174.6327934269152
1001
REVIT
1002
{
1070
     1
1000
129924
1002
}
1002
{
1070
     2
1000
-2001160
1002
}
  0
ARC
  5
5D6
330
5A0
100
AcDbEntity
  8
7052807
100
AcDbCircle
 10
-10.20435873101163
 20
-3.236515773428092
 30
0.0
 40
9.916266608716359
100
AcDbArc
 50
14.18465846339216
 51
15.81534153660688
1001
REVIT
1002
{
1070
     1
1000
129970
1002
}
1002
{
1070
     2
1000
-2001160
1002
}
  0
ARC
  5
5D7
330
5A0
100
AcDbEntity
  8
7052807
100
AcDbCircle
 10
10.20435873101065
 20
-3.236515773428092
 30
0.0
 40
9.916266608716361
100
AcDbArc
 50
164.184658463393
 51
165.8153415366077
1001
REVIT
1002
{
1070
     1
1000
130023
1002
}
1002
{
1070
     2
1000
-2001160
1002
}
  0
ARC
  5
5D8
330
5A0
100
AcDbEntity
  8
7052807
100
AcDbCircle
 10
-0.0000000000007354
 20
0.0010587038472245
 30
0.0
 40
0.8677613029885545
100
AcDbArc
 50
318.840114737467
 51
221.1598852626066
1001
REVIT
1002
{
1070
     1
1000
130067
1002
}
1002
{
1070
     2
1000
-2001160
1002
}
  0
ARC
  5
5D9
330
5A0
100
AcDbEntity
  8
7052807
100
AcDbCircle
 10
-4.098429280874974
 20
-4.183625666902701
 30
0.0
 40
3.503048671256256
100
AcDbArc
 50
351.9344678812678
 51
358.0655321187314
1001
REVIT
1002
{
1070
     1
1000
130120
1002
}
1002
{
1070
     2
1000
-2001160
1002
}
  0
ARC
  5
5DA
330
5A0
100
AcDbEntity
  8
7052807
100
AcDbCircle
 10
4.098429280873997
 20
-4.183625666902704
 30
0.0
 40
3.503048671256257
100
AcDbArc
 50
181.934467881268
 51
188.0655321187318
1001
REVIT
1002
{
1070
     1
1000
130167
1002
}
1002
{
1070
     2
1000
-2001160
1002
}
  0
ARC
  5
5DB
330
5A0
100
AcDbEntity
  8
7052807
100
AcDbCircle
 10
-0.0000000000004867
 20
-4.675123117684506
 30
0.0
 40
0.6300319205558606
100
AcDbArc
 50
180.0000000000009
 51
359.9999999999978
1001
REVIT
1002
{
1070
     1
1000
130226
1002
}
1002
{
1070
     2
1000
-2001160
1002
}
  0
ARC
  5
5DC
330
5A0
100
AcDbEntity
  8
7052807
100
AcDbCircle
 10
-0.0000000000004903
 20
-4.735233145491939
 30
0.0
 40
0.7007179091652641
100
AcDbArc
 50
148.9900979795515
 51
15.41009858616997
1001
REVIT
1002
{
1070
     1
1000
130296
1002
}
1002
{
1070
     2
1000
-2001160
1002
}
  0
ARC
  5
5DD
330
5A0
100
AcDbEntity
  8
7052807
100
AcDbCircle
 10
-0.0000000000004903
 20
-4.735233145491939
 30
0.0
 40
0.7007179091652633
100
AcDbArc
 50
15.41063774813581
 51
31.00990202044787
1001
REVIT
1002
{
1070
     1
1000
130296
1002
}
1002
{
1070
     2
1000
-2001160
1002
}
  0
ENDBLK
  5
5A2
330
5A0
100
AcDbEntity
  8
0
100
AcDbBlockEnd
  0
ENDSEC
  0
SECTION
  2
ENTITIES
  0
INSERT
  5
4E6
330
70
100
AcDbEntity
  8
7052807
100
AcDbBlockReference
  2
AMSTN_Delancey_7052807_Side View
 10
0.0000000000009958
 20
0.0000000000034519
 30
0.0
  0
INSERT
  5
59F
330
70
100
AcDbEntity
  8
7052807
100
AcDbBlockReference
  2
AMSTN_Delancey_7052807_Front View
 10
16.20363252675156
 20
-0.0000000083932505
 30
0.0
  0
INSERT
  5
5DE
330
70
100
AcDbEntity
  8
7052807
100
AcDbBlockReference
  2
AMSTN_Delancey_7052807_Plan View
 10
16.19677763248537
 20
15.91751934757268
 30
0.0
  0
ENDSEC
  0
SECTION
  2
OBJECTS
  0
DICTIONARY
  5
C
330
0
100
AcDbDictionary
281
     1
  3
ACAD_CIP_PREVIOUS_PRODUCT_INFO
350
79
  3
ACAD_COLOR
350
63
  3
ACAD_DETAILVIEWSTYLE
350
6A
  3
ACAD_GROUP
350
D
  3
ACAD_IMAGE_VARS
350
7A
  3
ACAD_LAYOUT
350
62
  3
ACAD_MATERIAL
350
10
  3
ACAD_MLEADERSTYLE
350
66
  3
ACAD_MLINESTYLE
350
5F
  3
ACAD_PLOTSETTINGS
350
61
  3
ACAD_PLOTSTYLENAME
350
E
  3
ACAD_SCALELIST
350
42
  3
ACAD_SECTIONVIEWSTYLE
350
68
  3
ACAD_TABLESTYLE
350
64
  3
ACAD_VISUALSTYLE
350
29
  3
ACDB_RECOMPOSE_DATA
350
5E6
  3
AcDbVariableDictionary
350
147
  3
REVIT_DICTIONARY
350
13B
  0
DICTIONARY
  5
13F
330
70
100
AcDbDictionary
280
     1
281
     1
  3
ACAD_SORTENTS
360
140
  0
XRECORD
  5
79
102
{ACAD_REACTORS
330
C
102
}
330
C
100
AcDbXrecord
280
     1
300
ACD
300
2014
300
86071BDSPRM_2014_0F
  0
DICTIONARY
  5
63
102
{ACAD_REACTORS
330
C
102
}
330
C
100
AcDbDictionary
281
     1
  0
DICTIONARY
  5
6A
102
{ACAD_REACTORS
330
C
102
}
330
C
100
AcDbDictionary
281
     1
  3
Imperial24
350
6B
  0
DICTIONARY
  5
D
102
{ACAD_REACTORS
330
C
102
}
330
C
100
AcDbDictionary
281
     1
  0
RASTERVARIABLES
  5
7A
102
{ACAD_REACTORS
330
C
102
}
330
C
100
AcDbRasterVariables
 90
        0
 70
     0
 71
     1
 72
     5
  0
DICTIONARY
  5
62
102
{ACAD_REACTORS
330
C
102
}
330
C
100
AcDbDictionary
281
     1
  3
Layout1
350
6F
  3
Layout2
350
77
  3
Model
350
73
  0
DICTIONARY
  5
10
102
{ACAD_REACTORS
330
C
102
}
330
C
100
AcDbDictionary
281
     1
  3
ByBlock
350
19
  3
ByLayer
350
11
  3
Global
350
21
  0
DICTIONARY
  5
66
102
{ACAD_REACTORS
330
C
102
}
330
C
100
AcDbDictionary
281
     1
  3
Standard
350
67
  0
DICTIONARY
  5
5F
102
{ACAD_REACTORS
330
C
102
}
330
C
100
AcDbDictionary
281
     1
  3
Standard
350
60
  0
DICTIONARY
  5
61
102
{ACAD_REACTORS
330
C
102
}
330
C
100
AcDbDictionary
281
     1
  0
ACDBDICTIONARYWDFLT
  5
E
102
{ACAD_REACTORS
330
C
102
}
330
C
100
AcDbDictionary
281
     1
  3
Normal
350
F
100
AcDbDictionaryWithDefault
340
F
  0
DICTIONARY
  5
42
102
{ACAD_REACTORS
330
C
102
}
330
C
100
AcDbDictionary
281
     1
  3
A0
350
43
  3
A1
350
44
  3
A2
350
45
  3
A3
350
46
  3
A4
350
47
  3
A5
350
48
  3
A6
350
49
  3
A7
350
4A
  3
A8
350
4B
  3
A9
350
4C
  3
B0
350
4D
  3
B1
350
4E
  3
B2
350
4F
  3
B3
350
50
  3
B4
350
51
  3
B5
350
52
  3
B6
350
53
  0
DICTIONARY
  5
68
102
{ACAD_REACTORS
330
C
102
}
330
C
100
AcDbDictionary
281
     1
  3
Imperial24
350
69
  0
DICTIONARY
  5
64
102
{ACAD_REACTORS
330
C
102
}
330
C
100
AcDbDictionary
281
     1
  3
Standard
350
65
  0
DICTIONARY
  5
29
102
{ACAD_REACTORS
330
C
102
}
330
C
100
AcDbDictionary
281
     1
  3
2dWireframe
350
2F
  3
Basic
350
2E
  3
Brighten
350
35
  3
ColorChange
350
39
  3
Conceptual
350
32
  3
Dim
350
34
  3
EdgeColorOff
350
41
  3
Facepattern
350
38
  3
Flat
350
2A
  3
FlatWithEdges
350
2B
  3
Gouraud
350
2C
  3
GouraudWithEdges
350
2D
  3
Hidden
350
31
  3
JitterOff
350
3F
  3
Linepattern
350
37
  3
OverhangOff
350
40
  3
Realistic
350
33
  3
Shaded
350
3E
  3
Shaded with edges
350
3D
  3
Shades of Gray
350
3A
  3
Sketchy
350
3B
  3
Thicken
350
36
  3
Wireframe
350
30
  3
X-Ray
350
3C
  0
XRECORD
  5
5E6
102
{ACAD_REACTORS
330
C
102
}
330
C
100
AcDbXrecord
280
     1
 90
        1
330
65
330
69
330
6B
  0
DICTIONARY
  5
147
102
{ACAD_REACTORS
330
C
102
}
330
C
100
AcDbDictionary
281
     1
  3
CANNOSCALE
350
14C
  3
CMLEADERSTYLE
350
149
  3
CTABLESTYLE
350
148
  3
CVIEWDETAILSTYLE
350
14A
  3
CVIEWSECTIONSTYLE
350
14B
  0
DICTIONARY
  5
13B
102
{ACAD_REACTORS
330
C
102
}
330
C
100
AcDbDictionary
281
     1
  3
DRAWING_TOOL
350
13E
  3
REVIT_CATEGORY_MAPPING
350
13D
  3
REVIT_TYPE_MAPPING
350
13C
  0
SORTENTSTABLE
  5
140
102
{ACAD_REACTORS
330
13F
102
}
330
13F
100
AcDbSortentsTable
330
70
  0
ACDBDETAILVIEWSTYLE
  5
6B
102
{ACAD_XDICTIONARY
360
144
102
}
102
{ACAD_REACTORS
330
6A
102
}
330
6A
100
AcDbModelDocViewStyle
 70
     0
  3
Imperial24
290
     0
100
AcDbDetailViewStyle
 70
     0
 71
     0
 90
        3
 71
     1
340
55
 62
   256
 40
0.24
340
0
 62
   256
 40
0.24
300

 40
0.36
280
     3
 71
     2
340
5D
 90
       25
 62
   256
 71
     3
340
55
 62
   256
 40
0.24
 90
        1
 40
0.75
 90
        1
300
%<\AcVar ViewType \f "%tc1">% %<\AcVar ViewDetailId>%\PSCALE %<\AcVar ViewScale \f "%sn">%
 71
     4
340
5D
 90
       25
 62
   256
340
5D
 90
       25
 62
   256
280
     0
  0
LAYOUT
  5
6F
102
{ACAD_REACTORS
330
62
102
}
330
62
100
AcDbPlotSettings
  1

  2

  4

  6

 40
0.0
 41
0.0
 42
0.0
 43
0.0
 44
0.0
 45
0.0
 46
0.0
 47
0.0
 48
0.0
 49
0.0
140
0.0
141
0.0
142
1.0
143
1.0
 70
   688
 72
     0
 73
     0
 74
     5
  7

 75
    16
147
1.0
 76
     0
 77
     2
 78
   300
148
0.0
149
0.0
100
AcDbLayout
  1
Layout1
 70
     1
 71
     1
 10
0.0
 20
0.0
 11
12.0
 21
9.0
 12
0.0
 22
0.0
 32
0.0
 14
1.000000000000000E+20
 24
1.000000000000000E+20
 34
1.000000000000000E+20
 15
-1.000000000000000E+20
 25
-1.000000000000000E+20
 35
-1.000000000000000E+20
146
0.0
 13
0.0
 23
0.0
 33
0.0
 16
1.0
 26
0.0
 36
0.0
 17
0.0
 27
1.0
 37
0.0
 76
     0
330
6C
  0
LAYOUT
  5
77
102
{ACAD_REACTORS
330
62
102
}
330
62
100
AcDbPlotSettings
  1

  2

  4

  6

 40
0.0
 41
0.0
 42
0.0
 43
0.0
 44
0.0
 45
0.0
 46
0.0
 47
0.0
 48
0.0
 49
0.0
140
0.0
141
0.0
142
1.0
143
1.0
 70
   688
 72
     0
 73
     0
 74
     5
  7

 75
    16
147
1.0
 76
     0
 77
     2
 78
   300
148
0.0
149
0.0
100
AcDbLayout
  1
Layout2
 70
     1
 71
     2
 10
0.0
 20
0.0
 11
12.0
 21
9.0
 12
0.0
 22
0.0
 32
0.0
 14
0.0
 24
0.0
 34
0.0
 15
0.0
 25
0.0
 35
0.0
146
0.0
 13
0.0
 23
0.0
 33
0.0
 16
1.0
 26
0.0
 36
0.0
 17
0.0
 27
1.0
 37
0.0
 76
     0
330
74
  0
LAYOUT
  5
73
102
{ACAD_REACTORS
330
62
102
}
330
62
100
AcDbPlotSettings
  1

  2

  4

  6

 40
0.0
 41
0.0
 42
0.0
 43
0.0
 44
0.0
 45
0.0
 46
0.0
 47
0.0
 48
0.0
 49
0.0
140
0.0
141
0.0
142
1.0
143
1.0
 70
  1712
 72
     0
 73
     0
 74
     0
  7

 75
     0
147
1.0
 76
     0
 77
     2
 78
   300
148
0.0
149
0.0
100
AcDbLayout
  1
Model
 70
     1
 71
     0
 10
0.0
 20
0.0
 11
12.0
 21
9.0
 12
0.0
 22
0.0
 32
0.0
 14
0.0
 24
0.0
 34
0.0
 15
0.0
 25
0.0
 35
0.0
146
0.0
 13
0.0
 23
0.0
 33
0.0
 16
1.0
 26
0.0
 36
0.0
 17
0.0
 27
1.0
 37
0.0
 76
     0
330
70
331
57
  0
MATERIAL
  5
19
102
{ACAD_XDICTIONARY
360
1A
102
}
102
{ACAD_REACTORS
330
10
102
}
330
10
100
AcDbMaterial
  1
ByBlock
 72
     0
 43
0.0208333333333333
 43
0.0
 43
0.0
 43
0.0
 43
0.0
 43
0.0208333333333333
 43
0.0
 43
0.0
 43
0.0
 43
0.0
 43
1.0
 43
0.0
 43
0.0
 43
0.0
 43
0.0
 43
1.0
 77
     0
 47
0.0208333333333333
 47
0.0
 47
0.0
 47
0.0
 47
0.0
 47
0.0208333333333333
 47
0.0
 47
0.0
 47
0.0
 47
0.0
 47
1.0
 47
0.0
 47
0.0
 47
0.0
 47
0.0
 47
1.0
171
     0
 49
0.0208333333333333
 49
0.0
 49
0.0
 49
0.0
 49
0.0
 49
0.0208333333333333
 49
0.0
 49
0.0
 49
0.0
 49
0.0
 49
1.0
 49
0.0
 49
0.0
 49
0.0
 49
0.0
 49
1.0
175
     0
142
0.0208333333333333
142
0.0
142
0.0
142
0.0
142
0.0
142
0.0208333333333333
142
0.0
142
0.0
142
0.0
142
0.0
142
1.0
142
0.0
142
0.0
142
0.0
142
0.0
142
1.0
179
     0
144
0.0208333333333333
144
0.0
144
0.0
144
0.0
144
0.0
144
0.0208333333333333
144
0.0
144
0.0
144
0.0
144
0.0
144
1.0
144
0.0
144
0.0
144
0.0
144
0.0
144
1.0
147
0.0208333333333333
147
0.0
147
0.0
147
0.0
147
0.0
147
0.0208333333333333
147
0.0
147
0.0
147
0.0
147
0.0
147
1.0
147
0.0
147
0.0
147
0.0
147
0.0
147
1.0
  0
MATERIAL
  5
11
102
{ACAD_XDICTIONARY
360
12
102
}
102
{ACAD_REACTORS
330
10
102
}
330
10
100
AcDbMaterial
  1
ByLayer
 72
     0
 43
0.0208333333333333
 43
0.0
 43
0.0
 43
0.0
 43
0.0
 43
0.0208333333333333
 43
0.0
 43
0.0
 43
0.0
 43
0.0
 43
1.0
 43
0.0
 43
0.0
 43
0.0
 43
0.0
 43
1.0
 77
     0
 47
0.0208333333333333
 47
0.0
 47
0.0
 47
0.0
 47
0.0
 47
0.0208333333333333
 47
0.0
 47
0.0
 47
0.0
 47
0.0
 47
1.0
 47
0.0
 47
0.0
 47
0.0
 47
0.0
 47
1.0
171
     0
 49
0.0208333333333333
 49
0.0
 49
0.0
 49
0.0
 49
0.0
 49
0.0208333333333333
 49
0.0
 49
0.0
 49
0.0
 49
0.0
 49
1.0
 49
0.0
 49
0.0
 49
0.0
 49
0.0
 49
1.0
175
     0
142
0.0208333333333333
142
0.0
142
0.0
142
0.0
142
0.0
142
0.0208333333333333
142
0.0
142
0.0
142
0.0
142
0.0
142
1.0
142
0.0
142
0.0
142
0.0
142
0.0
142
1.0
179
     0
144
0.0208333333333333
144
0.0
144
0.0
144
0.0
144
0.0
144
0.0208333333333333
144
0.0
144
0.0
144
0.0
144
0.0
144
1.0
144
0.0
144
0.0
144
0.0
144
0.0
144
1.0
147
0.0208333333333333
147
0.0
147
0.0
147
0.0
147
0.0
147
0.0208333333333333
147
0.0
147
0.0
147
0.0
147
0.0
147
1.0
147
0.0
147
0.0
147
0.0
147
0.0
147
1.0
  0
MATERIAL
  5
21
102
{ACAD_XDICTIONARY
360
22
102
}
102
{ACAD_REACTORS
330
10
102
}
330
10
100
AcDbMaterial
  1
Global
 72
     0
 43
0.0208333333333333
 43
0.0
 43
0.0
 43
0.0
 43
0.0
 43
0.0208333333333333
 43
0.0
 43
0.0
 43
0.0
 43
0.0
 43
1.0
 43
0.0
 43
0.0
 43
0.0
 43
0.0
 43
1.0
 77
     0
 47
0.0208333333333333
 47
0.0
 47
0.0
 47
0.0
 47
0.0
 47
0.0208333333333333
 47
0.0
 47
0.0
 47
0.0
 47
0.0
 47
1.0
 47
0.0
 47
0.0
 47
0.0
 47
0.0
 47
1.0
171
     0
 49
0.0208333333333333
 49
0.0
 49
0.0
 49
0.0
 49
0.0
 49
0.0208333333333333
 49
0.0
 49
0.0
 49
0.0
 49
0.0
 49
1.0
 49
0.0
 49
0.0
 49
0.0
 49
0.0
 49
1.0
175
     0
142
0.0208333333333333
142
0.0
142
0.0
142
0.0
142
0.0
142
0.0208333333333333
142
0.0
142
0.0
142
0.0
142
0.0
142
1.0
142
0.0
142
0.0
142
0.0
142
0.0
142
1.0
179
     0
144
0.0208333333333333
144
0.0
144
0.0
144
0.0
144
0.0
144
0.0208333333333333
144
0.0
144
0.0
144
0.0
144
0.0
144
1.0
144
0.0
144
0.0
144
0.0
144
0.0
144
1.0
147
0.0208333333333333
147
0.0
147
0.0
147
0.0
147
0.0
147
0.0208333333333333
147
0.0
147
0.0
147
0.0
147
0.0
147
1.0
147
0.0
147
0.0
147
0.0
147
0.0
147
1.0
  0
MLEADERSTYLE
  5
67
102
{ACAD_REACTORS
330
66
102
}
330
66
100
AcDbMLeaderStyle
179
     2
170
     2
171
     1
172
     0
 90
        2
 40
0.0
 41
0.0
173
     1
 91
-1056964608
340
5B
 92
       -2
290
     1
 42
0.09
291
     1
 43
0.36
  3
Standard
 44
0.18
300

342
55
174
     1
178
     6
175
     1
176
     0
 93
-1056964608
 45
0.18
292
     0
297
     0
 46
0.18
 94
-1056964608
 47
1.0
 49
1.0
140
1.0
293
     1
141
0.0
294
     1
177
     0
142
1.0
295
     1
296
     0
143
0.125
271
     0
272
     9
273
     9
298
     1
  0
MLINESTYLE
  5
60
102
{ACAD_REACTORS
330
5F
102
}
330
5F
100
AcDbMlineStyle
  2
STANDARD
 70
     0
  3

 62
   256
 51
90.0
 52
90.0
 71
     2
 49
0.5
 62
   256
  6
BYLAYER
 49
-0.5
 62
   256
  6
BYLAYER
  0
ACDBPLACEHOLDER
  5
F
102
{ACAD_REACTORS
330
E
102
}
330
E
  0
SCALE
  5
43
102
{ACAD_REACTORS
330
42
102
}
330
42
100
AcDbScale
 70
     0
300
1:1
140
1.0
141
1.0
290
     1
  0
SCALE
  5
44
102
{ACAD_REACTORS
330
42
102
}
330
42
100
AcDbScale
 70
     0
300
1/128" = 1'-0"
140
0.0078125
141
12.0
290
     0
  0
SCALE
  5
45
102
{ACAD_REACTORS
330
42
102
}
330
42
100
AcDbScale
 70
     0
300
1/64" = 1'-0"
140
0.015625
141
12.0
290
     0
  0
SCALE
  5
46
102
{ACAD_REACTORS
330
42
102
}
330
42
100
AcDbScale
 70
     0
300
1/32" = 1'-0"
140
0.03125
141
12.0
290
     0
  0
SCALE
  5
47
102
{ACAD_REACTORS
330
42
102
}
330
42
100
AcDbScale
 70
     0
300
1/16" = 1'-0"
140
0.0625
141
12.0
290
     0
  0
SCALE
  5
48
102
{ACAD_REACTORS
330
42
102
}
330
42
100
AcDbScale
 70
     0
300
3/32" = 1'-0"
140
0.09375
141
12.0
290
     0
  0
SCALE
  5
49
102
{ACAD_REACTORS
330
42
102
}
330
42
100
AcDbScale
 70
     0
300
1/8" = 1'-0"
140
0.125
141
12.0
290
     0
  0
SCALE
  5
4A
102
{ACAD_REACTORS
330
42
102
}
330
42
100
AcDbScale
 70
     0
300
3/16" = 1'-0"
140
0.1875
141
12.0
290
     0
  0
SCALE
  5
4B
102
{ACAD_REACTORS
330
42
102
}
330
42
100
AcDbScale
 70
     0
300
1/4" = 1'-0"
140
0.25
141
12.0
290
     0
  0
SCALE
  5
4C
102
{ACAD_REACTORS
330
42
102
}
330
42
100
AcDbScale
 70
     0
300
3/8" = 1'-0"
140
0.375
141
12.0
290
     0
  0
SCALE
  5
4D
102
{ACAD_REACTORS
330
42
102
}
330
42
100
AcDbScale
 70
     0
300
1/2" = 1'-0"
140
0.5
141
12.0
290
     0
  0
SCALE
  5
4E
102
{ACAD_REACTORS
330
42
102
}
330
42
100
AcDbScale
 70
     0
300
3/4" = 1'-0"
140
0.75
141
12.0
290
     0
  0
SCALE
  5
4F
102
{ACAD_REACTORS
330
42
102
}
330
42
100
AcDbScale
 70
     0
300
1" = 1'-0"
140
1.0
141
12.0
290
     0
  0
SCALE
  5
50
102
{ACAD_REACTORS
330
42
102
}
330
42
100
AcDbScale
 70
     0
300
1-1/2" = 1'-0"
140
1.5
141
12.0
290
     0
  0
SCALE
  5
51
102
{ACAD_REACTORS
330
42
102
}
330
42
100
AcDbScale
 70
     0
300
3" = 1'-0"
140
3.0
141
12.0
290
     0
  0
SCALE
  5
52
102
{ACAD_REACTORS
330
42
102
}
330
42
100
AcDbScale
 70
     0
300
6" = 1'-0"
140
6.0
141
12.0
290
     0
  0
SCALE
  5
53
102
{ACAD_REACTORS
330
42
102
}
330
42
100
AcDbScale
 70
     0
300
1'-0" = 1'-0"
140
12.0
141
12.0
290
     0
  0
ACDBSECTIONVIEWSTYLE
  5
69
102
{ACAD_XDICTIONARY
360
142
102
}
102
{ACAD_REACTORS
330
68
102
}
330
68
100
AcDbModelDocViewStyle
 70
     0
  3
Imperial24
290
     0
100
AcDbSectionViewStyle
 70
     0
 71
     0
 90
       78
 71
     1
340
55
 62
   256
 40
0.24
340
0
340
0
 62
   256
 40
0.24
300
I, O, Q, S, X, Z
 40
0.48
 90
        3
 40
0.18
 90
        1
 71
     2
340
5D
 90
       25
 62
   256
340
5D
 90
       50
 62
   256
 40
0.24
 40
0.0
 40
0.24
 71
     3
340
55
 62
   256
 40
0.24
 90
        1
 40
0.75
 90
        1
300
%<\AcVar ViewType \f "%tc1">% %<\AcVar ViewSectionStartId>%-%<\AcVar ViewSectionEndId>%\PSCALE %<\AcVar ViewScale \f "%sn">%
 71
     4
 62
   256
 62
   257
300
ANSI31
 40
1.0
 90
        0
290
     0
290
     0
 90
        6
 40
0.0
 40
1.570796326794896
 40
0.2617993877991494
 40
1.308996938995747
 40
-0.2617993877991494
 40
1.832595714594046
  0
TABLESTYLE
  5
65
102
{ACAD_XDICTIONARY
360
5E2
102
}
102
{ACAD_REACTORS
330
64
102
}
330
64
100
AcDbTableStyle
280
     0
  3
Standard
 70
     0
 71
     0
 40
0.06
 41
0.06
280
     0
281
     0
  7
Standard
140
0.18
170
     2
 62
     0
 63
     7
283
     0
 90
      512
 91
        0
  1

274
    -2
284
     1
 64
     0
275
    -2
285
     1
 65
     0
276
    -2
286
     1
 66
     0
277
    -2
287
     1
 67
     0
278
    -2
288
     1
 68
     0
279
    -2
289
     1
 69
     0
  7
Standard
140
0.25
170
     5
 62
     0
 63
     7
283
     0
 90
      512
 91
        0
  1

274
    -2
284
     1
 64
     0
275
    -2
285
     1
 65
     0
276
    -2
286
     1
 66
     0
277
    -2
287
     1
 67
     0
278
    -2
288
     1
 68
     0
279
    -2
289
     1
 69
     0
  7
Standard
140
0.18
170
     5
 62
     0
 63
     7
283
     0
 90
      512
 91
        0
  1

274
    -2
284
     1
 64
     0
275
    -2
285
     1
 65
     0
276
    -2
286
     1
 66
     0
277
    -2
287
     1
 67
     0
278
    -2
288
     1
 68
     0
279
    -2
289
     1
 69
     0
  0
VISUALSTYLE
  5
2F
102
{ACAD_REACTORS
330
29
102
}
330
29
100
AcDbVisualStyle
  2
2dWireframe
 70
     4
177
     3
291
     0
 70
    58
 90
        0
176
     1
 90
        2
176
     1
 90
        0
176
     1
 90
        0
176
     1
 40
0.6
176
     1
 40
30.0
176
     1
 62
     7
420
 16777215
176
     1
 90
        1
176
     1
 90
        4
176
     1
 62
     7
176
     1
 62
   257
176
     1
 90
        1
176
     1
 90
        1
176
     1
 40
1.0
176
     1
 90
        0
176
     1
 62
   257
176
     1
 40
1.0
176
     1
 90
        1
176
     1
 90
        6
176
     1
 90
        2
176
     1
 62
     7
176
     1
 90
        5
176
     1
 90
        0
176
     1
 90
        0
176
     1
290
     0
176
     1
 90
        1
176
     1
 40
0.0
176
     1
 90
        0
176
     1
290
     1
176
     1
290
     1
176
     1
290
     0
176
     1
290
     0
176
     1
290
     0
176
     1
290
     0
176
     1
290
     0
176
     1
290
     0
176
     1
290
     0
176
     1
 90
       50
176
     1
 40
0.0
176
     1
 40
1.0
176
     1
 90
        0
176
     1
 62
    18
420
        0
176
     1
 90
       50
176
     1
 90
        3
176
     1
 62
     5
420
      255
176
     1
290
     0
176
     1
 90
       50
176
     1
 90
       50
176
     1
 90
       50
176
     1
290
     0
176
     1
 90
       50
176
     1
 62
   256
176
     0
 40
1.0
176
     0
 90
        2
176
     1
  1
strokes_ogs.tif
176
     1
290
     0
176
     1
 40
1.0
176
     1
 40
1.0
176
     1
  0
VISUALSTYLE
  5
2E
102
{ACAD_REACTORS
330
29
102
}
330
29
100
AcDbVisualStyle
  2
Basic
 70
     7
177
     3
291
     1
 70
    58
 90
        1
176
     1
 90
        0
176
     1
 90
        1
176
     1
 90
        0
176
     1
 40
0.6
176
     1
 40
30.0
176
     1
 62
     7
420
 16777215
176
     1
 90
        0
176
     1
 90
        4
176
     1
 62
     7
176
     1
 62
   257
176
     1
 90
        1
176
     1
 90
        1
176
     1
 40
1.0
176
     1
 90
        8
176
     1
 62
     7
176
     1
 40
1.0
176
     1
 90
        1
176
     1
 90
        6
176
     1
 90
        2
176
     1
 62
     7
176
     1
 90
        5
176
     1
 90
        0
176
     1
 90
        0
176
     1
290
     0
176
     1
 90
        1
176
     1
 40
0.0
176
     1
 90
        0
176
     1
290
     0
176
     1
290
     1
176
     1
290
     1
176
     1
290
     0
176
     1
290
     0
176
     1
290
     0
176
     1
290
     0
176
     1
290
     0
176
     1
290
     0
176
     1
 90
       50
176
     1
 40
0.0
176
     1
 40
1.0
176
     1
 90
        0
176
     1
 62
    18
420
        0
176
     1
 90
       50
176
     1
 90
        3
176
     1
 62
     5
420
      255
176
     1
290
     0
176
     1
 90
       50
176
     1
 90
       50
176
     1
 90
       50
176
     1
290
     0
176
     1
 90
       50
176
     1
 62
   256
176
     0
 40
1.0
176
     0
 90
        2
176
     1
  1
strokes_ogs.tif
176
     1
290
     0
176
     1
 40
1.0
176
     1
 40
1.0
176
     1
  0
VISUALSTYLE
  5
35
102
{ACAD_REACTORS
330
29
102
}
330
29
100
AcDbVisualStyle
  2
Brighten
 70
    12
177
     3
291
     1
 70
    58
 90
        2
176
     1
 90
        2
176
     1
 90
        0
176
     1
 90
        0
176
     1
 40
0.6
176
     1
 40
30.0
176
     1
 62
     7
420
 16777215
176
     1
 90
        1
176
     1
 90
        4
176
     1
 62
     7
176
     1
 62
   257
176
     1
 90
        1
176
     1
 90
        1
176
     1
 40
1.0
176
     1
 90
        8
176
     1
 62
     7
176
     1
 40
1.0
176
     1
 90
        1
176
     1
 90
        6
176
     1
 90
        2
176
     1
 62
     7
176
     1
 90
        5
176
     1
 90
        0
176
     1
 90
        0
176
     1
290
     0
176
     1
 90
        1
176
     1
 40
50.0
176
     1
 90
        0
176
     1
290
     0
176
     1
290
     1
176
     1
290
     1
176
     1
290
     0
176
     1
290
     0
176
     1
290
     0
176
     1
290
     0
176
     1
290
     0
176
     1
290
     0
176
     1
 90
       50
176
     1
 40
0.0
176
     1
 40
1.0
176
     1
 90
        0
176
     1
 62
    18
420
        0
176
     1
 90
       50
176
     1
 90
        3
176
     1
 62
     5
420
      255
176
     1
290
     0
176
     1
 90
       50
176
     1
 90
       50
176
     1
 90
       50
176
     1
290
     0
176
     1
 90
       50
176
     1
 62
   256
176
     0
 40
1.0
176
     0
 90
        2
176
     1
  1
strokes_ogs.tif
176
     1
290
     0
176
     1
 40
1.0
176
     1
 40
1.0
176
     1
  0
VISUALSTYLE
  5
39
102
{ACAD_REACTORS
330
29
102
}
330
29
100
AcDbVisualStyle
  2
ColorChange
 70
    16
177
     3
291
     1
 70
    58
 90
        2
176
     1
 90
        2
176
     1
 90
        3
176
     1
 90
        0
176
     1
 40
0.6
176
     1
 40
30.0
176
     1
 62
     8
420
  8421504
176
     1
 90
        1
176
     1
 90
        4
176
     1
 62
     7
176
     1
 62
   257
176
     1
 90
        1
176
     1
 90
        1
176
     1
 40
1.0
176
     1
 90
        8
176
     1
 62
     8
420
  8421504
176
     1
 40
1.0
176
     1
 90
        1
176
     1
 90
        6
176
     1
 90
        2
176
     1
 62
     7
176
     1
 90
        5
176
     1
 90
        0
176
     1
 90
        0
176
     1
290
     0
176
     1
 90
        1
176
     1
 40
0.0
176
     1
 90
        0
176
     1
290
     0
176
     1
290
     1
176
     1
290
     1
176
     1
290
     0
176
     1
290
     0
176
     1
290
     0
176
     1
290
     0
176
     1
290
     0
176
     1
290
     0
176
     1
 90
       50
176
     1
 40
0.0
176
     1
 40
1.0
176
     1
 90
        0
176
     1
 62
    18
420
        0
176
     1
 90
       50
176
     1
 90
        3
176
     1
 62
     5
420
      255
176
     1
290
     0
176
     1
 90
       50
176
     1
 90
       50
176
     1
 90
       50
176
     1
290
     0
176
     1
 90
       50
176
     1
 62
   256
176
     0
 40
1.0
176
     0
 90
        2
176
     1
  1
strokes_ogs.tif
176
     1
290
     0
176
     1
 40
1.0
176
     1
 40
1.0
176
     1
  0
VISUALSTYLE
  5
32
102
{ACAD_REACTORS
330
29
102
}
330
29
100
AcDbVisualStyle
  2
Conceptual
 70
     9
177
     3
291
     0
 70
    58
 90
        3
176
     1
 90
        2
176
     1
 90
        0
176
     1
 90
        0
176
     1
 40
0.6
176
     1
 40
30.0
176
     1
 62
     7
420
 16777215
176
     1
 90
        2
176
     1
 90
        2
176
     1
 62
     7
176
     1
 62
   257
176
     1
 90
        1
176
     1
 90
        1
176
     1
 40
179.0
176
     1
 90
        8
176
     1
 62
     7
176
     1
 40
1.0
176
     1
 90
        1
176
     1
 90
        6
176
     1
 90
        2
176
     1
 62
     7
176
     1
 90
        3
176
     1
 90
        0
176
     1
 90
        0
176
     1
290
     0
176
     1
 90
        1
176
     1
 40
0.0
176
     1
 90
        0
176
     1
290
     0
176
     1
290
     1
176
     1
290
     1
176
     1
290
     0
176
     1
290
     0
176
     1
290
     0
176
     1
290
     0
176
     1
290
     0
176
     1
290
     0
176
     1
 90
       50
176
     1
 40
0.0
176
     1
 40
1.0
176
     1
 90
        0
176
     1
 62
    18
420
        0
176
     1
 90
       50
176
     1
 90
        3
176
     1
 62
     5
420
      255
176
     1
290
     0
176
     1
 90
       50
176
     1
 90
       50
176
     1
 90
       50
176
     1
290
     0
176
     1
 90
       50
176
     1
 62
   256
176
     0
 40
1.0
176
     0
 90
        2
176
     1
  1
strokes_ogs.tif
176
     1
290
     0
176
     1
 40
1.0
176
     1
 40
1.0
176
     1
  0
VISUALSTYLE
  5
34
102
{ACAD_REACTORS
330
29
102
}
330
29
100
AcDbVisualStyle
  2
Dim
 70
    11
177
     3
291
     1
 70
    58
 90
        2
176
     1
 90
        2
176
     1
 90
        0
176
     1
 90
        0
176
     1
 40
0.6
176
     1
 40
30.0
176
     1
 62
     7
420
 16777215
176
     1
 90
        1
176
     1
 90
        4
176
     1
 62
     7
176
     1
 62
   257
176
     1
 90
        1
176
     1
 90
        1
176
     1
 40
1.0
176
     1
 90
        8
176
     1
 62
     7
176
     1
 40
1.0
176
     1
 90
        1
176
     1
 90
        6
176
     1
 90
        2
176
     1
 62
     7
176
     1
 90
        5
176
     1
 90
        0
176
     1
 90
        0
176
     1
290
     0
176
     1
 90
        1
176
     1
 40
-50.0
176
     1
 90
        0
176
     1
290
     0
176
     1
290
     1
176
     1
290
     1
176
     1
290
     0
176
     1
290
     0
176
     1
290
     0
176
     1
290
     0
176
     1
290
     0
176
     1
290
     0
176
     1
 90
       50
176
     1
 40
0.0
176
     1
 40
1.0
176
     1
 90
        0
176
     1
 62
    18
420
        0
176
     1
 90
       50
176
     1
 90
        3
176
     1
 62
     5
420
      255
176
     1
290
     0
176
     1
 90
       50
176
     1
 90
       50
176
     1
 90
       50
176
     1
290
     0
176
     1
 90
       50
176
     1
 62
   256
176
     0
 40
1.0
176
     0
 90
        2
176
     1
  1
strokes_ogs.tif
176
     1
290
     0
176
     1
 40
1.0
176
     1
 40
1.0
176
     1
  0
VISUALSTYLE
  5
41
102
{ACAD_REACTORS
330
29
102
}
330
29
100
AcDbVisualStyle
  2
EdgeColorOff
 70
    22
177
     3
291
     1
 70
    58
 90
        2
176
     0
 90
        2
176
     0
 90
        0
176
     0
 90
        0
176
     0
 40
0.6
176
     0
 40
30.0
176
     0
 62
     7
420
 16777215
176
     0
 90
        1
176
     0
 90
        4
176
     0
 62
     7
176
     0
 62
   257
176
     0
 90
        1
176
     0
 90
        1
176
     0
 40
1.0
176
     0
 90
        8
176
     2
 62
     7
176
     0
 40
1.0
176
     0
 90
        1
176
     0
 90
        6
176
     0
 90
        2
176
     0
 62
     7
176
     0
 90
        5
176
     0
 90
        0
176
     0
 90
        0
176
     0
290
     0
176
     0
 90
        1
176
     0
 40
0.0
176
     0
 90
        0
176
     0
290
     0
176
     0
290
     1
176
     0
290
     1
176
     0
290
     0
176
     0
290
     0
176
     0
290
     0
176
     0
290
     0
176
     0
290
     0
176
     0
290
     0
176
     0
 90
       50
176
     0
 40
0.0
176
     0
 40
1.0
176
     0
 90
        0
176
     0
 62
    18
420
        0
176
     0
 90
       50
176
     0
 90
        3
176
     0
 62
     5
420
      255
176
     0
290
     0
176
     0
 90
       50
176
     0
 90
       50
176
     0
 90
       50
176
     0
290
     0
176
     0
 90
       50
176
     0
 62
   256
176
     0
 40
1.0
176
     0
 90
        2
176
     0
  1
strokes_ogs.tif
176
     0
290
     0
176
     0
 40
1.0
176
     0
 40
1.0
176
     0
  0
VISUALSTYLE
  5
38
102
{ACAD_REACTORS
330
29
102
}
330
29
100
AcDbVisualStyle
  2
Facepattern
 70
    15
177
     3
291
     1
 70
    58
 90
        2
176
     1
 90
        2
176
     1
 90
        0
176
     1
 90
        0
176
     1
 40
0.6
176
     1
 40
30.0
176
     1
 62
     7
420
 16777215
176
     1
 90
        1
176
     1
 90
        4
176
     1
 62
     7
176
     1
 62
   257
176
     1
 90
        1
176
     1
 90
        1
176
     1
 40
1.0
176
     1
 90
        8
176
     1
 62
     7
176
     1
 40
1.0
176
     1
 90
        1
176
     1
 90
        6
176
     1
 90
        2
176
     1
 62
     7
176
     1
 90
        5
176
     1
 90
        0
176
     1
 90
        0
176
     1
290
     0
176
     1
 90
        1
176
     1
 40
0.0
176
     1
 90
        0
176
     1
290
     0
176
     1
290
     1
176
     1
290
     1
176
     1
290
     0
176
     1
290
     0
176
     1
290
     0
176
     1
290
     0
176
     1
290
     0
176
     1
290
     0
176
     1
 90
       50
176
     1
 40
0.0
176
     1
 40
1.0
176
     1
 90
        0
176
     1
 62
    18
420
        0
176
     1
 90
       50
176
     1
 90
        3
176
     1
 62
     5
420
      255
176
     1
290
     0
176
     1
 90
       50
176
     1
 90
       50
176
     1
 90
       50
176
     1
290
     0
176
     1
 90
       50
176
     1
 62
   256
176
     0
 40
1.0
176
     0
 90
        2
176
     1
  1
strokes_ogs.tif
176
     1
290
     0
176
     1
 40
1.0
176
     1
 40
1.0
176
     1
  0
VISUALSTYLE
  5
2A
102
{ACAD_REACTORS
330
29
102
}
330
29
100
AcDbVisualStyle
  2
Flat
 70
     0
177
     3
291
     1
 70
    58
 90
        2
176
     1
 90
        1
176
     1
 90
        1
176
     1
 90
        2
176
     1
 40
0.6
176
     1
 40
30.0
176
     1
 62
     7
420
 16777215
176
     1
 90
        0
176
     1
 90
        0
176
     1
 62
     7
176
     1
 62
   257
176
     1
 90
        1
176
     1
 90
        1
176
     1
 40
1.0
176
     1
 90
        8
176
     1
 62
     7
176
     1
 40
1.0
176
     1
 90
        1
176
     1
 90
        6
176
     1
 90
        2
176
     1
 62
     7
176
     1
 90
        5
176
     1
 90
        0
176
     1
 90
        0
176
     1
290
     0
176
     1
 90
       13
176
     1
 40
0.0
176
     1
 90
        0
176
     1
290
     0
176
     1
290
     1
176
     1
290
     1
176
     1
290
     0
176
     1
290
     0
176
     1
290
     0
176
     1
290
     0
176
     1
290
     0
176
     1
290
     0
176
     1
 90
       50
176
     1
 40
0.0
176
     1
 40
1.0
176
     1
 90
        0
176
     1
 62
    18
420
        0
176
     1
 90
       50
176
     1
 90
        3
176
     1
 62
     5
420
      255
176
     1
290
     0
176
     1
 90
       50
176
     1
 90
       50
176
     1
 90
       50
176
     1
290
     0
176
     1
 90
       50
176
     1
 62
   256
176
     0
 40
1.0
176
     0
 90
        2
176
     1
  1
strokes_ogs.tif
176
     1
290
     0
176
     1
 40
1.0
176
     1
 40
1.0
176
     1
  0
VISUALSTYLE
  5
2B
102
{ACAD_REACTORS
330
29
102
}
330
29
100
AcDbVisualStyle
  2
FlatWithEdges
 70
     1
177
     3
291
     1
 70
    58
 90
        2
176
     1
 90
        1
176
     1
 90
        1
176
     1
 90
        2
176
     1
 40
0.6
176
     1
 40
30.0
176
     1
 62
     7
420
 16777215
176
     1
 90
        1
176
     1
 90
        0
176
     1
 62
     7
176
     1
 62
   257
176
     1
 90
        1
176
     1
 90
        1
176
     1
 40
1.0
176
     1
 90
        0
176
     1
 62
   257
176
     1
 40
1.0
176
     1
 90
        1
176
     1
 90
        6
176
     1
 90
        2
176
     1
 62
     7
176
     1
 90
        5
176
     1
 90
        0
176
     1
 90
        0
176
     1
290
     0
176
     1
 90
       13
176
     1
 40
0.0
176
     1
 90
        0
176
     1
290
     0
176
     1
290
     1
176
     1
290
     1
176
     1
290
     0
176
     1
290
     0
176
     1
290
     0
176
     1
290
     0
176
     1
290
     0
176
     1
290
     0
176
     1
 90
       50
176
     1
 40
0.0
176
     1
 40
1.0
176
     1
 90
        0
176
     1
 62
    18
420
        0
176
     1
 90
       50
176
     1
 90
        3
176
     1
 62
     5
420
      255
176
     1
290
     0
176
     1
 90
       50
176
     1
 90
       50
176
     1
 90
       50
176
     1
290
     0
176
     1
 90
       50
176
     1
 62
   256
176
     0
 40
1.0
176
     0
 90
        2
176
     1
  1
strokes_ogs.tif
176
     1
290
     0
176
     1
 40
1.0
176
     1
 40
1.0
176
     1
  0
VISUALSTYLE
  5
2C
102
{ACAD_REACTORS
330
29
102
}
330
29
100
AcDbVisualStyle
  2
Gouraud
 70
     2
177
     3
291
     1
 70
    58
 90
        2
176
     1
 90
        2
176
     1
 90
        1
176
     1
 90
        2
176
     1
 40
0.6
176
     1
 40
30.0
176
     1
 62
     7
420
 16777215
176
     1
 90
        0
176
     1
 90
        0
176
     1
 62
     7
176
     1
 62
   257
176
     1
 90
        1
176
     1
 90
        1
176
     1
 40
1.0
176
     1
 90
        0
176
     1
 62
     7
176
     1
 40
1.0
176
     1
 90
        1
176
     1
 90
        6
176
     1
 90
        2
176
     1
 62
     7
176
     1
 90
        5
176
     1
 90
        0
176
     1
 90
        0
176
     1
290
     0
176
     1
 90
       13
176
     1
 40
0.0
176
     1
 90
        0
176
     1
290
     0
176
     1
290
     1
176
     1
290
     1
176
     1
290
     0
176
     1
290
     0
176
     1
290
     0
176
     1
290
     0
176
     1
290
     0
176
     1
290
     0
176
     1
 90
       50
176
     1
 40
0.0
176
     1
 40
1.0
176
     1
 90
        0
176
     1
 62
    18
420
        0
176
     1
 90
       50
176
     1
 90
        3
176
     1
 62
     5
420
      255
176
     1
290
     0
176
     1
 90
       50
176
     1
 90
       50
176
     1
 90
       50
176
     1
290
     0
176
     1
 90
       50
176
     1
 62
   256
176
     0
 40
1.0
176
     0
 90
        2
176
     1
  1
strokes_ogs.tif
176
     1
290
     0
176
     1
 40
1.0
176
     1
 40
1.0
176
     1
  0
VISUALSTYLE
  5
2D
102
{ACAD_REACTORS
330
29
102
}
330
29
100
AcDbVisualStyle
  2
GouraudWithEdges
 70
     3
177
     3
291
     1
 70
    58
 90
        2
176
     1
 90
        2
176
     1
 90
        1
176
     1
 90
        2
176
     1
 40
0.6
176
     1
 40
30.0
176
     1
 62
     7
420
 16777215
176
     1
 90
        1
176
     1
 90
        0
176
     1
 62
     7
176
     1
 62
   257
176
     1
 90
        1
176
     1
 90
        1
176
     1
 40
1.0
176
     1
 90
        0
176
     1
 62
   257
176
     1
 40
1.0
176
     1
 90
        1
176
     1
 90
        6
176
     1
 90
        2
176
     1
 62
     7
176
     1
 90
        5
176
     1
 90
        0
176
     1
 90
        0
176
     1
290
     0
176
     1
 90
       13
176
     1
 40
0.0
176
     1
 90
        0
176
     1
290
     0
176
     1
290
     1
176
     1
290
     1
176
     1
290
     0
176
     1
290
     0
176
     1
290
     0
176
     1
290
     0
176
     1
290
     0
176
     1
290
     0
176
     1
 90
       50
176
     1
 40
0.0
176
     1
 40
1.0
176
     1
 90
        0
176
     1
 62
    18
420
        0
176
     1
 90
       50
176
     1
 90
        3
176
     1
 62
     5
420
      255
176
     1
290
     0
176
     1
 90
       50
176
     1
 90
       50
176
     1
 90
       50
176
     1
290
     0
176
     1
 90
       50
176
     1
 62
   256
176
     0
 40
1.0
176
     0
 90
        2
176
     1
  1
strokes_ogs.tif
176
     1
290
     0
176
     1
 40
1.0
176
     1
 40
1.0
176
     1
  0
VISUALSTYLE
  5
31
102
{ACAD_REACTORS
330
29
102
}
330
29
100
AcDbVisualStyle
  2
Hidden
 70
     6
177
     3
291
     0
 70
    58
 90
        1
176
     1
 90
        2
176
     1
 90
        2
176
     1
 90
        0
176
     1
 40
0.6
176
     1
 40
30.0
176
     1
 62
     7
420
 16777215
176
     1
 90
        2
176
     1
 90
        2
176
     1
 62
     7
176
     1
 62
   257
176
     1
 90
        2
176
     1
 90
        1
176
     1
 40
40.0
176
     1
 90
        0
176
     1
 62
   257
176
     1
 40
1.0
176
     1
 90
        1
176
     1
 90
        6
176
     1
 90
        2
176
     1
 62
     7
176
     1
 90
        3
176
     1
 90
        0
176
     1
 90
        0
176
     1
290
     0
176
     1
 90
        1
176
     1
 40
0.0
176
     1
 90
        0
176
     1
290
     0
176
     1
290
     1
176
     1
290
     1
176
     1
290
     0
176
     1
290
     0
176
     1
290
     0
176
     1
290
     0
176
     1
290
     0
176
     1
290
     0
176
     1
 90
       50
176
     1
 40
0.0
176
     1
 40
1.0
176
     1
 90
        0
176
     1
 62
    18
420
        0
176
     1
 90
       50
176
     1
 90
        3
176
     1
 62
     5
420
      255
176
     1
290
     0
176
     1
 90
       50
176
     1
 90
       50
176
     1
 90
       50
176
     1
290
     0
176
     1
 90
       50
176
     1
 62
   256
176
     0
 40
1.0
176
     0
 90
        2
176
     1
  1
strokes_ogs.tif
176
     1
290
     0
176
     1
 40
1.0
176
     1
 40
1.0
176
     1
  0
VISUALSTYLE
  5
3F
102
{ACAD_REACTORS
330
29
102
}
330
29
100
AcDbVisualStyle
  2
JitterOff
 70
    20
177
     3
291
     1
 70
    58
 90
        2
176
     0
 90
        2
176
     0
 90
        0
176
     0
 90
        0
176
     0
 40
0.6
176
     0
 40
30.0
176
     0
 62
     7
420
 16777215
176
     0
 90
        1
176
     0
 90
        4
176
     0
 62
     7
176
     0
 62
   257
176
     0
 90
        1
176
     0
 90
        1
176
     0
 40
1.0
176
     0
 90
       10
176
     2
 62
     7
176
     0
 40
1.0
176
     0
 90
        1
176
     0
 90
        6
176
     0
 90
        2
176
     0
 62
     7
176
     0
 90
        5
176
     0
 90
        0
176
     0
 90
        0
176
     0
290
     0
176
     0
 90
        1
176
     0
 40
0.0
176
     0
 90
        0
176
     0
290
     0
176
     0
290
     1
176
     0
290
     1
176
     0
290
     0
176
     0
290
     0
176
     0
290
     0
176
     0
290
     0
176
     0
290
     0
176
     0
290
     0
176
     0
 90
       50
176
     0
 40
0.0
176
     0
 40
1.0
176
     0
 90
        0
176
     0
 62
    18
420
        0
176
     0
 90
       50
176
     0
 90
        3
176
     0
 62
     5
420
      255
176
     0
290
     0
176
     0
 90
       50
176
     0
 90
       50
176
     0
 90
       50
176
     0
290
     0
176
     0
 90
       50
176
     0
 62
   256
176
     0
 40
1.0
176
     0
 90
        2
176
     0
  1
strokes_ogs.tif
176
     0
290
     0
176
     0
 40
1.0
176
     0
 40
1.0
176
     0
  0
VISUALSTYLE
  5
37
102
{ACAD_REACTORS
330
29
102
}
330
29
100
AcDbVisualStyle
  2
Linepattern
 70
    14
177
     3
291
     1
 70
    58
 90
        2
176
     1
 90
        2
176
     1
 90
        0
176
     1
 90
        0
176
     1
 40
0.6
176
     1
 40
30.0
176
     1
 62
     7
420
 16777215
176
     1
 90
        1
176
     1
 90
        4
176
     1
 62
     7
176
     1
 62
   257
176
     1
 90
        7
176
     1
 90
        7
176
     1
 40
1.0
176
     1
 90
        8
176
     1
 62
     7
176
     1
 40
1.0
176
     1
 90
        1
176
     1
 90
        6
176
     1
 90
        2
176
     1
 62
     7
176
     1
 90
        5
176
     1
 90
        0
176
     1
 90
        0
176
     1
290
     0
176
     1
 90
        1
176
     1
 40
0.0
176
     1
 90
        0
176
     1
290
     0
176
     1
290
     1
176
     1
290
     1
176
     1
290
     0
176
     1
290
     0
176
     1
290
     0
176
     1
290
     0
176
     1
290
     0
176
     1
290
     0
176
     1
 90
       50
176
     1
 40
0.0
176
     1
 40
1.0
176
     1
 90
        0
176
     1
 62
    18
420
        0
176
     1
 90
       50
176
     1
 90
        3
176
     1
 62
     5
420
      255
176
     1
290
     0
176
     1
 90
       50
176
     1
 90
       50
176
     1
 90
       50
176
     1
290
     0
176
     1
 90
       50
176
     1
 62
   256
176
     0
 40
1.0
176
     0
 90
        2
176
     1
  1
strokes_ogs.tif
176
     1
290
     0
176
     1
 40
1.0
176
     1
 40
1.0
176
     1
  0
VISUALSTYLE
  5
40
102
{ACAD_REACTORS
330
29
102
}
330
29
100
AcDbVisualStyle
  2
OverhangOff
 70
    21
177
     3
291
     1
 70
    58
 90
        2
176
     0
 90
        2
176
     0
 90
        0
176
     0
 90
        0
176
     0
 40
0.6
176
     0
 40
30.0
176
     0
 62
     7
420
 16777215
176
     0
 90
        1
176
     0
 90
        4
176
     0
 62
     7
176
     0
 62
   257
176
     0
 90
        1
176
     0
 90
        1
176
     0
 40
1.0
176
     0
 90
        9
176
     2
 62
     7
176
     0
 40
1.0
176
     0
 90
        1
176
     0
 90
        6
176
     0
 90
        2
176
     0
 62
     7
176
     0
 90
        5
176
     0
 90
        0
176
     0
 90
        0
176
     0
290
     0
176
     0
 90
        1
176
     0
 40
0.0
176
     0
 90
        0
176
     0
290
     0
176
     0
290
     1
176
     0
290
     1
176
     0
290
     0
176
     0
290
     0
176
     0
290
     0
176
     0
290
     0
176
     0
290
     0
176
     0
290
     0
176
     0
 90
       50
176
     0
 40
0.0
176
     0
 40
1.0
176
     0
 90
        0
176
     0
 62
    18
420
        0
176
     0
 90
       50
176
     0
 90
        3
176
     0
 62
     5
420
      255
176
     0
290
     0
176
     0
 90
       50
176
     0
 90
       50
176
     0
 90
       50
176
     0
290
     0
176
     0
 90
       50
176
     0
 62
   256
176
     0
 40
1.0
176
     0
 90
        2
176
     0
  1
strokes_ogs.tif
176
     0
290
     0
176
     0
 40
1.0
176
     0
 40
1.0
176
     0
  0
VISUALSTYLE
  5
33
102
{ACAD_REACTORS
330
29
102
}
330
29
100
AcDbVisualStyle
  2
Realistic
 70
     8
177
     3
291
     0
 70
    58
 90
        2
176
     1
 90
        3
176
     1
 90
        0
176
     1
 90
        2
176
     1
 40
0.6
176
     1
 40
30.0
176
     1
 62
     7
420
 16777215
176
     1
 90
        0
176
     1
 90
        0
176
     1
 62
     7
176
     1
 62
   257
176
     1
 90
        1
176
     1
 90
        1
176
     1
 40
1.0
176
     1
 90
        8
176
     1
 62
   257
176
     1
 40
1.0
176
     1
 90
        1
176
     1
 90
        6
176
     1
 90
        2
176
     1
 62
     7
176
     1
 90
        3
176
     1
 90
        0
176
     1
 90
        0
176
     1
290
     0
176
     1
 90
       13
176
     1
 40
0.0
176
     1
 90
        0
176
     1
290
     0
176
     1
290
     1
176
     1
290
     1
176
     1
290
     0
176
     1
290
     0
176
     1
290
     0
176
     1
290
     0
176
     1
290
     0
176
     1
290
     0
176
     1
 90
       50
176
     1
 40
0.0
176
     1
 40
1.0
176
     1
 90
        0
176
     1
 62
    18
420
        0
176
     1
 90
       50
176
     1
 90
        3
176
     1
 62
     5
420
      255
176
     1
290
     0
176
     1
 90
       50
176
     1
 90
       50
176
     1
 90
       50
176
     1
290
     0
176
     1
 90
       50
176
     1
 62
   256
176
     0
 40
1.0
176
     0
 90
        2
176
     1
  1
strokes_ogs.tif
176
     1
290
     0
176
     1
 40
1.0
176
     1
 40
1.0
176
     1
  0
VISUALSTYLE
  5
3E
102
{ACAD_REACTORS
330
29
102
}
330
29
100
AcDbVisualStyle
  2
Shaded
 70
    27
177
     3
291
     0
 70
    58
 90
        2
176
     1
 90
        2
176
     1
 90
        1
176
     1
 90
        2
176
     1
 40
0.6
176
     1
 40
30.0
176
     1
 62
     7
420
 16777215
176
     1
 90
        0
176
     1
 90
        4
176
     1
 62
     7
176
     1
 62
   257
176
     1
 90
        1
176
     1
 90
        1
176
     1
 40
1.0
176
     1
 90
        8
176
     1
 62
   257
176
     1
 40
1.0
176
     1
 90
        1
176
     1
 90
        6
176
     1
 90
        2
176
     1
 62
     8
420
  7895160
176
     1
 90
        3
176
     1
 90
        0
176
     1
 90
        0
176
     1
290
     0
176
     1
 90
        5
176
     1
 40
0.0
176
     1
 90
        0
176
     1
290
     0
176
     1
290
     1
176
     1
290
     1
176
     1
290
     0
176
     1
290
     0
176
     1
290
     0
176
     1
290
     0
176
     1
290
     0
176
     1
290
     0
176
     1
 90
       50
176
     1
 40
0.0
176
     1
 40
1.0
176
     1
 90
        0
176
     1
 62
    18
420
        0
176
     1
 90
       50
176
     1
 90
        3
176
     1
 62
     5
420
      255
176
     1
290
     0
176
     1
 90
       50
176
     1
 90
       50
176
     1
 90
       50
176
     1
290
     0
176
     1
 90
       50
176
     1
 62
   256
176
     0
 40
1.0
176
     0
 90
        2
176
     1
  1
strokes_ogs.tif
176
     1
290
     0
176
     1
 40
1.0
176
     1
 40
1.0
176
     1
  0
VISUALSTYLE
  5
3D
102
{ACAD_REACTORS
330
29
102
}
330
29
100
AcDbVisualStyle
  2
Shaded with edges
 70
    26
177
     3
291
     0
 70
    58
 90
        2
176
     1
 90
        2
176
     1
 90
        1
176
     1
 90
        2
176
     1
 40
0.6
176
     1
 40
30.0
176
     1
 62
     7
420
 16777215
176
     1
 90
        1
176
     1
 90
       10
176
     1
 62
     7
176
     1
 62
   257
176
     1
 90
        2
176
     1
 90
        1
176
     1
 40
1.0
176
     1
 90
        8
176
     1
 62
   257
176
     1
 40
1.0
176
     1
 90
        1
176
     1
 90
        6
176
     1
 90
        2
176
     1
 62
     7
176
     1
 90
        3
176
     1
 90
        0
176
     1
 90
        0
176
     1
290
     0
176
     1
 90
        5
176
     1
 40
0.0
176
     1
 90
        0
176
     1
290
     0
176
     1
290
     1
176
     1
290
     1
176
     1
290
     0
176
     1
290
     0
176
     1
290
     0
176
     1
290
     0
176
     1
290
     0
176
     1
290
     0
176
     1
 90
       50
176
     1
 40
0.0
176
     1
 40
1.0
176
     1
 90
        0
176
     1
 62
    18
420
        0
176
     1
 90
       50
176
     1
 90
        3
176
     1
 62
     5
420
      255
176
     1
290
     0
176
     1
 90
       50
176
     1
 90
       50
176
     1
 90
       50
176
     1
290
     0
176
     1
 90
       50
176
     1
 62
   256
176
     0
 40
1.0
176
     0
 90
        2
176
     1
  1
strokes_ogs.tif
176
     1
290
     0
176
     1
 40
1.0
176
     1
 40
1.0
176
     1
  0
VISUALSTYLE
  5
3A
102
{ACAD_REACTORS
330
29
102
}
330
29
100
AcDbVisualStyle
  2
Shades of Gray
 70
    23
177
     3
291
     0
 70
    58
 90
        2
176
     1
 90
        2
176
     1
 90
        3
176
     1
 90
        0
176
     1
 40
0.6
176
     1
 40
30.0
176
     1
 62
     7
420
 16777215
176
     1
 90
        2
176
     1
 90
        2
176
     1
 62
     7
176
     1
 62
     7
176
     1
 90
        1
176
     1
 90
        1
176
     1
 40
40.0
176
     1
 90
        8
176
     1
 62
     7
176
     1
 40
1.0
176
     1
 90
        1
176
     1
 90
        6
176
     1
 90
        2
176
     1
 62
     7
176
     1
 90
        3
176
     1
 90
        0
176
     1
 90
        0
176
     1
290
     0
176
     1
 90
        1
176
     1
 40
0.0
176
     1
 90
        0
176
     1
290
     0
176
     1
290
     1
176
     1
290
     1
176
     1
290
     0
176
     1
290
     0
176
     1
290
     0
176
     1
290
     0
176
     1
290
     0
176
     1
290
     0
176
     1
 90
       50
176
     1
 40
0.0
176
     1
 40
1.0
176
     1
 90
        0
176
     1
 62
    18
420
        0
176
     1
 90
       50
176
     1
 90
        3
176
     1
 62
     5
420
      255
176
     1
290
     0
176
     1
 90
       50
176
     1
 90
       50
176
     1
 90
       50
176
     1
290
     0
176
     1
 90
       50
176
     1
 62
   256
176
     0
 40
1.0
176
     0
 90
        2
176
     1
  1
strokes_ogs.tif
176
     1
290
     0
176
     1
 40
1.0
176
     1
 40
1.0
176
     1
  0
VISUALSTYLE
  5
3B
102
{ACAD_REACTORS
330
29
102
}
330
29
100
AcDbVisualStyle
  2
Sketchy
 70
    24
177
     3
291
     0
 70
    58
 90
        1
176
     1
 90
        2
176
     1
 90
        2
176
     1
 90
        0
176
     1
 40
0.6
176
     1
 40
30.0
176
     1
 62
     7
420
 16777215
176
     1
 90
        2
176
     1
 90
        2
176
     1
 62
     7
176
     1
 62
     7
176
     1
 90
        1
176
     1
 90
        1
176
     1
 40
40.0
176
     1
 90
       11
176
     1
 62
     7
176
     1
 40
1.0
176
     1
 90
        1
176
     1
 90
        6
176
     1
 90
        2
176
     1
 62
     7
176
     1
 90
        6
176
     1
 90
        0
176
     1
 90
        0
176
     1
290
     0
176
     1
 90
        1
176
     1
 40
0.0
176
     1
 90
        0
176
     1
290
     0
176
     1
290
     1
176
     1
290
     1
176
     1
290
     0
176
     1
290
     0
176
     1
290
     0
176
     1
290
     0
176
     1
290
     0
176
     1
290
     0
176
     1
 90
       50
176
     1
 40
0.0
176
     1
 40
1.0
176
     1
 90
        0
176
     1
 62
    18
420
        0
176
     1
 90
       50
176
     1
 90
        3
176
     1
 62
     5
420
      255
176
     1
290
     0
176
     1
 90
       50
176
     1
 90
       50
176
     1
 90
       50
176
     1
290
     0
176
     1
 90
       50
176
     1
 62
   256
176
     0
 40
1.0
176
     0
 90
        2
176
     1
  1
strokes_ogs.tif
176
     1
290
     0
176
     1
 40
1.0
176
     1
 40
1.0
176
     1
  0
VISUALSTYLE
  5
36
102
{ACAD_REACTORS
330
29
102
}
330
29
100
AcDbVisualStyle
  2
Thicken
 70
    13
177
     3
291
     1
 70
    58
 90
        2
176
     1
 90
        2
176
     1
 90
        0
176
     1
 90
        0
176
     1
 40
0.6
176
     1
 40
30.0
176
     1
 62
     7
420
 16777215
176
     1
 90
        1
176
     1
 90
        4
176
     1
 62
     7
176
     1
 62
   257
176
     1
 90
        1
176
     1
 90
        1
176
     1
 40
1.0
176
     1
 90
       12
176
     1
 62
     7
176
     1
 40
1.0
176
     1
 90
        1
176
     1
 90
        6
176
     1
 90
        2
176
     1
 62
     7
176
     1
 90
        5
176
     1
 90
        0
176
     1
 90
        0
176
     1
290
     0
176
     1
 90
        1
176
     1
 40
0.0
176
     1
 90
        0
176
     1
290
     0
176
     1
290
     1
176
     1
290
     1
176
     1
290
     0
176
     1
290
     0
176
     1
290
     0
176
     1
290
     0
176
     1
290
     0
176
     1
290
     0
176
     1
 90
       50
176
     1
 40
0.0
176
     1
 40
1.0
176
     1
 90
        0
176
     1
 62
    18
420
        0
176
     1
 90
       50
176
     1
 90
        3
176
     1
 62
     5
420
      255
176
     1
290
     0
176
     1
 90
       50
176
     1
 90
       50
176
     1
 90
       50
176
     1
290
     0
176
     1
 90
       50
176
     1
 62
   256
176
     0
 40
1.0
176
     0
 90
        2
176
     1
  1
strokes_ogs.tif
176
     1
290
     0
176
     1
 40
1.0
176
     1
 40
1.0
176
     1
  0
VISUALSTYLE
  5
30
102
{ACAD_REACTORS
330
29
102
}
330
29
100
AcDbVisualStyle
  2
Wireframe
 70
     5
177
     3
291
     0
 70
    58
 90
        0
176
     1
 90
        2
176
     1
 90
        0
176
     1
 90
        0
176
     1
 40
0.6
176
     1
 40
30.0
176
     1
 62
     7
420
 16777215
176
     1
 90
        1
176
     1
 90
        4
176
     1
 62
     7
176
     1
 62
   257
176
     1
 90
        1
176
     1
 90
        1
176
     1
 40
1.0
176
     1
 90
        0
176
     1
 62
   257
176
     1
 40
1.0
176
     1
 90
        1
176
     1
 90
        6
176
     1
 90
        2
176
     1
 62
     7
176
     1
 90
        3
176
     1
 90
        0
176
     1
 90
        0
176
     1
290
     0
176
     1
 90
        1
176
     1
 40
0.0
176
     1
 90
        0
176
     1
290
     0
176
     1
290
     1
176
     1
290
     1
176
     1
290
     0
176
     1
290
     0
176
     1
290
     0
176
     1
290
     0
176
     1
290
     0
176
     1
290
     0
176
     1
 90
       50
176
     1
 40
0.0
176
     1
 40
1.0
176
     1
 90
        0
176
     1
 62
    18
420
        0
176
     1
 90
       50
176
     1
 90
        3
176
     1
 62
     5
420
      255
176
     1
290
     0
176
     1
 90
       50
176
     1
 90
       50
176
     1
 90
       50
176
     1
290
     0
176
     1
 90
       50
176
     1
 62
   256
176
     0
 40
1.0
176
     0
 90
        2
176
     1
  1
strokes_ogs.tif
176
     1
290
     0
176
     1
 40
1.0
176
     1
 40
1.0
176
     1
  0
VISUALSTYLE
  5
3C
102
{ACAD_REACTORS
330
29
102
}
330
29
100
AcDbVisualStyle
  2
X-Ray
 70
    25
177
     3
291
     0
 70
    58
 90
        2
176
     1
 90
        2
176
     1
 90
        1
176
     1
 90
        1
176
     1
 40
0.5
176
     1
 40
30.0
176
     1
 62
     7
420
 16777215
176
     1
 90
        1
176
     1
 90
        0
176
     1
 62
     7
176
     1
 62
   257
176
     1
 90
        1
176
     1
 90
        1
176
     1
 40
1.0
176
     1
 90
        8
176
     1
 62
     7
176
     1
 40
1.0
176
     1
 90
        1
176
     1
 90
        6
176
     1
 90
        2
176
     1
 62
     7
176
     1
 90
        3
176
     1
 90
        0
176
     1
 90
        0
176
     1
290
     0
176
     1
 90
       13
176
     1
 40
0.0
176
     1
 90
        0
176
     1
290
     0
176
     1
290
     1
176
     1
290
     1
176
     1
290
     0
176
     1
290
     0
176
     1
290
     0
176
     1
290
     0
176
     1
290
     0
176
     1
290
     0
176
     1
 90
       50
176
     1
 40
0.0
176
     1
 40
1.0
176
     1
 90
        0
176
     1
 62
    18
420
        0
176
     1
 90
       50
176
     1
 90
        3
176
     1
 62
     5
420
      255
176
     1
290
     0
176
     1
 90
       50
176
     1
 90
       50
176
     1
 90
       50
176
     1
290
     0
176
     1
 90
       50
176
     1
 62
   256
176
     0
 40
1.0
176
     0
 90
        2
176
     1
  1
strokes_ogs.tif
176
     1
290
     0
176
     1
 40
1.0
176
     1
 40
1.0
176
     1
  0
DICTIONARYVAR
  5
14C
102
{ACAD_REACTORS
330
147
102
}
330
147
100
DictionaryVariables
280
     0
  1
1:1
  0
DICTIONARYVAR
  5
149
102
{ACAD_REACTORS
330
147
102
}
330
147
100
DictionaryVariables
280
     0
  1
STANDARD
  0
DICTIONARYVAR
  5
148
102
{ACAD_REACTORS
330
147
102
}
330
147
100
DictionaryVariables
280
     0
  1
STANDARD
  0
DICTIONARYVAR
  5
14A
102
{ACAD_REACTORS
330
147
102
}
330
147
100
DictionaryVariables
280
     0
  1
Imperial24
  0
DICTIONARYVAR
  5
14B
102
{ACAD_REACTORS
330
147
102
}
330
147
100
DictionaryVariables
280
     0
  1
Imperial24
  0
XRECORD
  5
13E
102
{ACAD_REACTORS
330
13B
102
}
330
13B
100
AcDbXrecord
280
     1
  1
BUILDING_ID
  1
Faucet-Widespread-American_Standard-Delancey-70528XX_Series
  1
FLOOR_ID
  1
39
  0
XRECORD
  5
13D
102
{ACAD_REACTORS
330
13B
102
}
330
13B
100
AcDbXrecord
280
     1
  1
-2000151
  1
Generic Models
  1
-2001160
  1
Plumbing Fixtures
  1
-2007000
  1
Connector Element
  0
XRECORD
  5
13C
102
{ACAD_REACTORS
330
13B
102
}
330
13B
100
AcDbXrecord
280
     1
  1
127044
  1
Handle : 002 Lever
  0
DICTIONARY
  5
144
330
6B
100
AcDbDictionary
280
     1
281
     1
  3
ACAD_XREC_ROUNDTRIP
360
5E5
  0
DICTIONARY
  5
1A
330
19
100
AcDbDictionary
280
     1
281
     1
  3
BUMPTILE
360
1C
  3
DIFFUSETILE
360
1B
  3
OPACITYTILE
360
1F
  3
REFLECTIONTILE
360
1E
  3
REFRACTIONTILE
360
20
  3
SPECULARTILE
360
1D
  0
DICTIONARY
  5
12
330
11
100
AcDbDictionary
280
     1
281
     1
  3
BUMPTILE
360
14
  3
DIFFUSETILE
360
13
  3
OPACITYTILE
360
17
  3
REFLECTIONTILE
360
16
  3
REFRACTIONTILE
360
18
  3
SPECULARTILE
360
15
  0
DICTIONARY
  5
22
330
21
100
AcDbDictionary
280
     1
281
     1
  3
BUMPTILE
360
24
  3
DIFFUSETILE
360
23
  3
OPACITYTILE
360
27
  3
REFLECTIONTILE
360
26
  3
REFRACTIONTILE
360
28
  3
SPECULARTILE
360
25
  0
DICTIONARY
  5
142
330
69
100
AcDbDictionary
280
     1
281
     1
  3
ACAD_XREC_ROUNDTRIP
360
5E4
  0
DICTIONARY
  5
5E2
330
65
100
AcDbDictionary
280
     1
281
     1
  3
ACAD_ROUNDTRIP_2008_TABLESTYLE_CELLSTYLEMAP
360
5E3
  0
XRECORD
  5
5E5
102
{ACAD_REACTORS
330
144
102
}
330
144
100
AcDbXrecord
280
     1
102
DISPLAYNAME
  1
Imperial24
102
FLAGS
 90
        0
  0
XRECORD
  5
1C
102
{ACAD_REACTORS
330
1A
102
}
330
1A
100
AcDbXrecord
280
     1
270
     1
271
     1
  0
XRECORD
  5
1B
102
{ACAD_REACTORS
330
1A
102
}
330
1A
100
AcDbXrecord
280
     1
270
     1
271
     1
  0
XRECORD
  5
1F
102
{ACAD_REACTORS
330
1A
102
}
330
1A
100
AcDbXrecord
280
     1
270
     1
271
     1
  0
XRECORD
  5
1E
102
{ACAD_REACTORS
330
1A
102
}
330
1A
100
AcDbXrecord
280
     1
270
     1
271
     1
  0
XRECORD
  5
20
102
{ACAD_REACTORS
330
1A
102
}
330
1A
100
AcDbXrecord
280
     1
270
     1
271
     1
  0
XRECORD
  5
1D
102
{ACAD_REACTORS
330
1A
102
}
330
1A
100
AcDbXrecord
280
     1
270
     1
271
     1
  0
XRECORD
  5
14
102
{ACAD_REACTORS
330
12
102
}
330
12
100
AcDbXrecord
280
     1
270
     1
271
     1
  0
XRECORD
  5
13
102
{ACAD_REACTORS
330
12
102
}
330
12
100
AcDbXrecord
280
     1
270
     1
271
     1
  0
XRECORD
  5
17
102
{ACAD_REACTORS
330
12
102
}
330
12
100
AcDbXrecord
280
     1
270
     1
271
     1
  0
XRECORD
  5
16
102
{ACAD_REACTORS
330
12
102
}
330
12
100
AcDbXrecord
280
     1
270
     1
271
     1
  0
XRECORD
  5
18
102
{ACAD_REACTORS
330
12
102
}
330
12
100
AcDbXrecord
280
     1
270
     1
271
     1
  0
XRECORD
  5
15
102
{ACAD_REACTORS
330
12
102
}
330
12
100
AcDbXrecord
280
     1
270
     1
271
     1
  0
XRECORD
  5
24
102
{ACAD_REACTORS
330
22
102
}
330
22
100
AcDbXrecord
280
     1
270
     1
271
     1
  0
XRECORD
  5
23
102
{ACAD_REACTORS
330
22
102
}
330
22
100
AcDbXrecord
280
     1
270
     1
271
     1
  0
XRECORD
  5
27
102
{ACAD_REACTORS
330
22
102
}
330
22
100
AcDbXrecord
280
     1
270
     1
271
     1
  0
XRECORD
  5
26
102
{ACAD_REACTORS
330
22
102
}
330
22
100
AcDbXrecord
280
     1
270
     1
271
     1
  0
XRECORD
  5
28
102
{ACAD_REACTORS
330
22
102
}
330
22
100
AcDbXrecord
280
     1
270
     1
271
     1
  0
XRECORD
  5
25
102
{ACAD_REACTORS
330
22
102
}
330
22
100
AcDbXrecord
280
     1
270
     1
271
     1
  0
XRECORD
  5
5E4
102
{ACAD_REACTORS
330
142
102
}
330
142
100
AcDbXrecord
280
     1
102
DISPLAYNAME
  1
Imperial24
102
FLAGS
 90
        0
  0
CELLSTYLEMAP
  5
5E3
102
{ACAD_REACTORS
330
5E2
102
}
330
5E2
100
AcDbCellStyleMap
 90
        3
300
CELLSTYLE
  1
TABLEFORMAT_BEGIN
 90
        5
170
     1
 91
        0
 92
    32768
 62
   257
 93
        1
300
CONTENTFORMAT
  1
CONTENTFORMAT_BEGIN
 90
        0
 91
        0
 92
      512
 93
        0
300

 40
0.0
140
1.0
 94
        5
 62
     0
340
55
144
0.25
309
CONTENTFORMAT_END
171
     0
 94
        0
309
TABLEFORMAT_END
  1
CELLSTYLE_BEGIN
 90
        1
 91
        1
300
_TITLE
309
CELLSTYLE_END
300
CELLSTYLE
  1
TABLEFORMAT_BEGIN
 90
        5
170
     1
 91
        0
 92
        0
 62
   257
 93
        1
300
CONTENTFORMAT
  1
CONTENTFORMAT_BEGIN
 90
        0
 91
        0
 92
      512
 93
        0
300

 40
0.0
140
1.0
 94
        5
 62
     0
340
55
144
0.18
309
CONTENTFORMAT_END
171
     0
 94
        0
309
TABLEFORMAT_END
  1
CELLSTYLE_BEGIN
 90
        2
 91
        1
300
_HEADER
309
CELLSTYLE_END
300
CELLSTYLE
  1
TABLEFORMAT_BEGIN
 90
        5
170
     1
 91
        0
 92
        0
 62
   257
 93
        1
300
CONTENTFORMAT
  1
CONTENTFORMAT_BEGIN
 90
        0
 91
        0
 92
      512
 93
        0
300

 40
0.0
140
1.0
 94
        2
 62
     0
340
55
144
0.18
309
CONTENTFORMAT_END
171
     0
 94
        0
309
TABLEFORMAT_END
  1
CELLSTYLE_BEGIN
 90
        3
 91
        2
300
_DATA
309
CELLSTYLE_END
  0
ENDSEC
  0
EOF
