999
Converted by 3D Exploration 
999
XDimension Software, LLC
999
http://www.xdsoft.com/explorer/
0
SECTION
2
HEADER
9
$ACADVER
1
AC1008
9
$UCSORG
10
0.0
20
0.0
30
0.0
9
$UCSXDIR
10
1.0
20
0.0
30
0.0
9
$TILEMODE
70
1
9
$UCSYDIR
10
0.0
20
1.0
30
0.0
9
$EXTMIN
10
0.000000
20
-78.000000
30
-78.000000
9
$EXTMAX
10
12.316000
20
78.000000
30
98.500000
0
ENDSEC
0
SECTION
2
TABLES
0
TABLE
2
LTYPE
70
1
0
LTYPE
2
CONTINUOUS
70
64
3
Solid line
72
65
73
0
40
0.0
0
ENDTAB
0
TABLE
2
LAYER
70
106
0
LAYER
2
OBJECT__0
70
0
62
253
6
CONTINUOUS
0
LAYER
2
OBJECT__1
70
0
62
253
6
CONTINUOUS
0
LAYER
2
OBJECT__3
70
0
62
253
6
CONTINUOUS
0
LAYER
2
OBJECT__4
70
0
62
253
6
CONTINUOUS
0
LAYER
2
OBJECT__5
70
0
62
253
6
CONTINUOUS
0
LAYER
2
OBJECT__6
70
0
62
253
6
CONTINUOUS
0
LAYER
2
OBJECT__7
70
0
62
253
6
CONTINUOUS
0
LAYER
2
OBJECT__8
70
0
62
253
6
CONTINUOUS
0
LAYER
2
OBJECT__9
70
0
62
253
6
CONTINUOUS
0
LAYER
2
OBJECT__10
70
0
62
253
6
CONTINUOUS
0
LAYER
2
OBJECT__11
70
0
62
253
6
CONTINUOUS
0
LAYER
2
OBJECT__12
70
0
62
253
6
CONTINUOUS
0
LAYER
2
OBJECT__13
70
0
62
253
6
CONTINUOUS
0
LAYER
2
OBJECT__14
70
0
62
253
6
CONTINUOUS
0
LAYER
2
OBJECT__15
70
0
62
253
6
CONTINUOUS
0
LAYER
2
OBJECT__16
70
0
62
253
6
CONTINUOUS
0
LAYER
2
OBJECT__17
70
0
62
253
6
CONTINUOUS
0
LAYER
2
OBJECT__18
70
0
62
253
6
CONTINUOUS
0
LAYER
2
OBJECT__19
70
0
62
253
6
CONTINUOUS
0
LAYER
2
OBJECT__20
70
0
62
253
6
CONTINUOUS
0
LAYER
2
OBJECT__21
70
0
62
253
6
CONTINUOUS
0
LAYER
2
OBJECT__22
70
0
62
253
6
CONTINUOUS
0
LAYER
2
OBJECT__23
70
0
62
253
6
CONTINUOUS
0
LAYER
2
OBJECT__24
70
0
62
253
6
CONTINUOUS
0
LAYER
2
OBJECT__25
70
0
62
253
6
CONTINUOUS
0
LAYER
2
OBJECT__26
70
0
62
253
6
CONTINUOUS
0
LAYER
2
OBJECT__27
70
0
62
253
6
CONTINUOUS
0
LAYER
2
OBJECT__28
70
0
62
253
6
CONTINUOUS
0
LAYER
2
OBJECT__29
70
0
62
253
6
CONTINUOUS
0
LAYER
2
OBJECT__30
70
0
62
253
6
CONTINUOUS
0
LAYER
2
OBJECT__31
70
0
62
253
6
CONTINUOUS
0
LAYER
2
OBJECT__32
70
0
62
253
6
CONTINUOUS
0
LAYER
2
OBJECT__33
70
0
62
253
6
CONTINUOUS
0
LAYER
2
OBJECT__34
70
0
62
253
6
CONTINUOUS
0
LAYER
2
OBJECT__35
70
0
62
253
6
CONTINUOUS
0
LAYER
2
OBJECT__36
70
0
62
253
6
CONTINUOUS
0
LAYER
2
OBJECT__37
70
0
62
253
6
CONTINUOUS
0
LAYER
2
OBJECT__38
70
0
62
253
6
CONTINUOUS
0
LAYER
2
OBJECT__39
70
0
62
253
6
CONTINUOUS
0
LAYER
2
OBJECT__40
70
0
62
253
6
CONTINUOUS
0
LAYER
2
OBJECT__41
70
0
62
253
6
CONTINUOUS
0
LAYER
2
OBJECT__42
70
0
62
253
6
CONTINUOUS
0
LAYER
2
OBJECT__43
70
0
62
253
6
CONTINUOUS
0
LAYER
2
OBJECT__44
70
0
62
253
6
CONTINUOUS
0
LAYER
2
OBJECT__45
70
0
62
253
6
CONTINUOUS
0
LAYER
2
OBJECT__46
70
0
62
253
6
CONTINUOUS
0
LAYER
2
OBJECT__47
70
0
62
253
6
CONTINUOUS
0
LAYER
2
OBJECT__48
70
0
62
253
6
CONTINUOUS
0
LAYER
2
OBJECT__49
70
0
62
253
6
CONTINUOUS
0
LAYER
2
OBJECT__51
70
0
62
253
6
CONTINUOUS
0
LAYER
2
OBJECT__52
70
0
62
253
6
CONTINUOUS
0
LAYER
2
OBJECT__53
70
0
62
253
6
CONTINUOUS
0
LAYER
2
OBJECT__54
70
0
62
253
6
CONTINUOUS
0
LAYER
2
OBJECT__55
70
0
62
253
6
CONTINUOUS
0
LAYER
2
OBJECT__56
70
0
62
253
6
CONTINUOUS
0
LAYER
2
OBJECT__57
70
0
62
253
6
CONTINUOUS
0
LAYER
2
OBJECT__58
70
0
62
253
6
CONTINUOUS
0
LAYER
2
OBJECT__59
70
0
62
253
6
CONTINUOUS
0
LAYER
2
OBJECT__61
70
0
62
253
6
CONTINUOUS
0
LAYER
2
OBJECT__62
70
0
62
253
6
CONTINUOUS
0
LAYER
2
OBJECT__63
70
0
62
253
6
CONTINUOUS
0
LAYER
2
OBJECT__64
70
0
62
253
6
CONTINUOUS
0
LAYER
2
OBJECT__65
70
0
62
253
6
CONTINUOUS
0
LAYER
2
OBJECT__66
70
0
62
253
6
CONTINUOUS
0
LAYER
2
OBJECT__67
70
0
62
253
6
CONTINUOUS
0
LAYER
2
OBJECT__68
70
0
62
253
6
CONTINUOUS
0
LAYER
2
OBJECT__69
70
0
62
253
6
CONTINUOUS
0
LAYER
2
OBJECT__70
70
0
62
253
6
CONTINUOUS
0
LAYER
2
OBJECT__71
70
0
62
253
6
CONTINUOUS
0
LAYER
2
OBJECT__73
70
0
62
253
6
CONTINUOUS
0
LAYER
2
OBJECT__74
70
0
62
253
6
CONTINUOUS
0
LAYER
2
OBJECT__75
70
0
62
253
6
CONTINUOUS
0
LAYER
2
OBJECT__76
70
0
62
253
6
CONTINUOUS
0
LAYER
2
OBJECT__77
70
0
62
253
6
CONTINUOUS
0
LAYER
2
OBJECT__78
70
0
62
253
6
CONTINUOUS
0
LAYER
2
OBJECT__79
70
0
62
253
6
CONTINUOUS
0
LAYER
2
OBJECT__80
70
0
62
253
6
CONTINUOUS
0
LAYER
2
OBJECT__81
70
0
62
253
6
CONTINUOUS
0
LAYER
2
OBJECT__82
70
0
62
253
6
CONTINUOUS
0
LAYER
2
OBJECT__83
70
0
62
253
6
CONTINUOUS
0
LAYER
2
OBJECT__84
70
0
62
253
6
CONTINUOUS
0
LAYER
2
OBJECT__85
70
0
62
253
6
CONTINUOUS
0
LAYER
2
OBJECT__86
70
0
62
253
6
CONTINUOUS
0
LAYER
2
OBJECT__87
70
0
62
253
6
CONTINUOUS
0
LAYER
2
OBJECT__88
70
0
62
253
6
CONTINUOUS
0
LAYER
2
OBJECT__89
70
0
62
253
6
CONTINUOUS
0
LAYER
2
OBJECT__91
70
0
62
253
6
CONTINUOUS
0
LAYER
2
OBJECT__92
70
0
62
253
6
CONTINUOUS
0
LAYER
2
OBJECT__93
70
0
62
253
6
CONTINUOUS
0
LAYER
2
OBJECT__94
70
0
62
253
6
CONTINUOUS
0
LAYER
2
OBJECT__95
70
0
62
253
6
CONTINUOUS
0
LAYER
2
OBJECT__96
70
0
62
253
6
CONTINUOUS
0
LAYER
2
OBJECT__97
70
0
62
253
6
CONTINUOUS
0
LAYER
2
OBJECT__98
70
0
62
253
6
CONTINUOUS
0
LAYER
2
OBJECT__99
70
0
62
253
6
CONTINUOUS
0
LAYER
2
OBJECT__100
70
0
62
253
6
CONTINUOUS
0
LAYER
2
OBJECT__101
70
0
62
253
6
CONTINUOUS
0
LAYER
2
OBJECT__102
70
0
62
253
6
CONTINUOUS
0
LAYER
2
OBJECT__103
70
0
62
253
6
CONTINUOUS
0
LAYER
2
OBJECT__104
70
0
62
253
6
CONTINUOUS
0
LAYER
2
OBJECT__105
70
0
62
253
6
CONTINUOUS
0
ENDTAB
0
TABLE
2
STYLE
70
1
0
STYLE
2
STANDARD
70
0
40
0.0
41
1.0
50
0.0
71
0
42
0.2
3
txt
4
1
0
ENDTAB
0
TABLE
2
UCS
70
0
0
ENDTAB
0
ENDSEC
0
SECTION
2
ENTITIES
0
POLYLINE
8
OBJECT__0
66
1
70
64
71
6
72
4
62
253
0
VERTEX
8
OBJECT__0
10
6.993000
20
33.997002
30
-50.717999
70
192
0
VERTEX
8
OBJECT__0
10
6.993000
20
-34.000999
30
-50.717999
70
192
0
VERTEX
8
OBJECT__0
10
0.000000
20
-33.987000
30
-50.657001
70
192
0
VERTEX
8
OBJECT__0
10
0.000000
20
33.987000
30
-50.657001
70
192
0
VERTEX
8
OBJECT__0
10
6.993000
20
34.048000
30
-50.717999
70
192
0
VERTEX
8
OBJECT__0
10
6.993000
20
-34.048000
30
-50.717999
70
192
0
VERTEX
8
OBJECT__0
10
0
20
0
30
0
70
128
71
1
72
2
73
3
0
VERTEX
8
OBJECT__0
10
0
20
0
30
0
70
128
71
4
72
5
73
1
0
VERTEX
8
OBJECT__0
10
0
20
0
30
0
70
128
71
3
72
4
73
1
0
VERTEX
8
OBJECT__0
10
0
20
0
30
0
70
128
71
2
72
6
73
3
0
SEQEND
8
OBJECT__0
0
POLYLINE
8
OBJECT__1
66
1
70
64
71
8
72
6
62
253
0
VERTEX
8
OBJECT__1
10
0.000000
20
35.106998
30
-50.226002
70
192
0
VERTEX
8
OBJECT__1
10
7.002000
20
35.007000
30
-49.951000
70
192
0
VERTEX
8
OBJECT__1
10
6.993000
20
34.048000
30
-50.717999
70
192
0
VERTEX
8
OBJECT__1
10
0.000000
20
33.987000
30
-50.657001
70
192
0
VERTEX
8
OBJECT__1
10
0.000000
20
35.139000
30
-50.154999
70
192
0
VERTEX
8
OBJECT__1
10
0.000000
20
35.657001
30
-48.987000
70
192
0
VERTEX
8
OBJECT__1
10
7.008000
20
35.676998
30
-49.415001
70
192
0
VERTEX
8
OBJECT__1
10
7.008000
20
35.717999
30
-49.048000
70
192
0
VERTEX
8
OBJECT__1
10
0
20
0
30
0
70
128
71
1
72
2
73
3
0
VERTEX
8
OBJECT__1
10
0
20
0
30
0
70
128
71
3
72
4
73
1
0
VERTEX
8
OBJECT__1
10
0
20
0
30
0
70
128
71
5
72
6
73
7
0
VERTEX
8
OBJECT__1
10
0
20
0
30
0
70
128
71
6
72
8
73
7
0
VERTEX
8
OBJECT__1
10
0
20
0
30
0
70
128
71
7
72
2
73
5
0
VERTEX
8
OBJECT__1
10
0
20
0
30
0
70
128
71
1
72
5
73
2
0
SEQEND
8
OBJECT__1
0
POLYLINE
8
OBJECT__3
66
1
70
64
71
8
72
6
62
253
0
VERTEX
8
OBJECT__3
10
0.000000
20
35.657001
30
-48.987000
70
192
0
VERTEX
8
OBJECT__3
10
0.000000
20
35.657001
30
48.987000
70
192
0
VERTEX
8
OBJECT__3
10
7.240000
20
35.720001
30
0.344000
70
192
0
VERTEX
8
OBJECT__3
10
7.008000
20
35.717999
30
49.048000
70
192
0
VERTEX
8
OBJECT__3
10
7.008000
20
35.717999
30
49.000999
70
192
0
VERTEX
8
OBJECT__3
10
7.093000
20
35.719002
30
-39.132000
70
192
0
VERTEX
8
OBJECT__3
10
7.009000
20
35.717999
30
-49.000999
70
192
0
VERTEX
8
OBJECT__3
10
7.008000
20
35.717999
30
-49.048000
70
192
0
VERTEX
8
OBJECT__3
10
0
20
0
30
0
70
128
71
1
72
2
73
3
0
VERTEX
8
OBJECT__3
10
0
20
0
30
0
70
128
71
2
72
4
73
5
0
VERTEX
8
OBJECT__3
10
0
20
0
30
0
70
128
71
1
72
6
73
7
0
VERTEX
8
OBJECT__3
10
0
20
0
30
0
70
128
71
5
72
3
73
2
0
VERTEX
8
OBJECT__3
10
0
20
0
30
0
70
128
71
3
72
6
73
1
0
VERTEX
8
OBJECT__3
10
0
20
0
30
0
70
128
71
7
72
8
73
1
0
SEQEND
8
OBJECT__3
0
POLYLINE
8
OBJECT__4
66
1
70
64
71
8
72
6
62
253
0
VERTEX
8
OBJECT__4
10
7.219000
20
35.806999
30
-49.002998
70
192
0
VERTEX
8
OBJECT__4
10
7.009000
20
35.717999
30
-49.000999
70
192
0
VERTEX
8
OBJECT__4
10
7.093000
20
35.719002
30
-39.132000
70
192
0
VERTEX
8
OBJECT__4
10
7.303000
20
35.807999
30
-39.133999
70
192
0
VERTEX
8
OBJECT__4
10
7.240000
20
35.720001
30
0.344000
70
192
0
VERTEX
8
OBJECT__4
10
7.451000
20
35.808998
30
0.344000
70
192
0
VERTEX
8
OBJECT__4
10
7.008000
20
35.717999
30
49.000999
70
192
0
VERTEX
8
OBJECT__4
10
7.219000
20
35.806999
30
49.002998
70
192
0
VERTEX
8
OBJECT__4
10
0
20
0
30
0
70
128
71
1
72
2
73
3
0
VERTEX
8
OBJECT__4
10
0
20
0
30
0
70
128
71
4
72
3
73
5
0
VERTEX
8
OBJECT__4
10
0
20
0
30
0
70
128
71
6
72
5
73
7
0
VERTEX
8
OBJECT__4
10
0
20
0
30
0
70
128
71
7
72
8
73
6
0
VERTEX
8
OBJECT__4
10
0
20
0
30
0
70
128
71
5
72
6
73
4
0
VERTEX
8
OBJECT__4
10
0
20
0
30
0
70
128
71
3
72
4
73
1
0
SEQEND
8
OBJECT__4
0
POLYLINE
8
OBJECT__5
66
1
70
64
71
11
72
9
62
253
0
VERTEX
8
OBJECT__5
10
0.000000
20
-35.226002
30
-50.106998
70
192
0
VERTEX
8
OBJECT__5
10
7.006000
20
-35.352001
30
-50.091000
70
192
0
VERTEX
8
OBJECT__5
10
7.009000
20
-35.624001
30
-49.601002
70
192
0
VERTEX
8
OBJECT__5
10
0.000000
20
-35.657001
30
-48.987000
70
192
0
VERTEX
8
OBJECT__5
10
7.005000
20
-35.215000
30
-50.214001
70
192
0
VERTEX
8
OBJECT__5
10
7.008000
20
-35.717999
30
-49.048000
70
192
0
VERTEX
8
OBJECT__5
10
0.000000
20
-35.154999
30
-50.139000
70
192
0
VERTEX
8
OBJECT__5
10
0.000000
20
-33.987000
30
-50.657001
70
192
0
VERTEX
8
OBJECT__5
10
6.997000
20
-34.415001
30
-50.676998
70
192
0
VERTEX
8
OBJECT__5
10
7.002000
20
-34.933998
30
-50.464001
70
192
0
VERTEX
8
OBJECT__5
10
6.993000
20
-34.048000
30
-50.717999
70
192
0
VERTEX
8
OBJECT__5
10
0
20
0
30
0
70
128
71
1
72
2
73
3
0
VERTEX
8
OBJECT__5
10
0
20
0
30
0
70
128
71
3
72
4
73
1
0
VERTEX
8
OBJECT__5
10
0
20
0
30
0
70
128
71
1
72
5
73
2
0
VERTEX
8
OBJECT__5
10
0
20
0
30
0
70
128
71
3
72
6
73
4
0
VERTEX
8
OBJECT__5
10
0
20
0
30
0
70
128
71
7
72
8
73
9
0
VERTEX
8
OBJECT__5
10
0
20
0
30
0
70
128
71
9
72
10
73
7
0
VERTEX
8
OBJECT__5
10
0
20
0
30
0
70
128
71
8
72
11
73
9
0
VERTEX
8
OBJECT__5
10
0
20
0
30
0
70
128
71
10
72
5
73
7
0
VERTEX
8
OBJECT__5
10
0
20
0
30
0
70
128
71
1
72
7
73
5
0
SEQEND
8
OBJECT__5
0
POLYLINE
8
OBJECT__6
66
1
70
64
71
14
72
12
62
253
0
VERTEX
8
OBJECT__6
10
7.218000
20
-35.806999
30
-49.049000
70
192
0
VERTEX
8
OBJECT__6
10
7.008000
20
-35.717999
30
-49.048000
70
192
0
VERTEX
8
OBJECT__6
10
7.009000
20
-35.624001
30
-49.601002
70
192
0
VERTEX
8
OBJECT__6
10
7.216000
20
-35.421001
30
-50.147999
70
192
0
VERTEX
8
OBJECT__6
10
7.219000
20
-35.708000
30
-49.631001
70
192
0
VERTEX
8
OBJECT__6
10
7.215000
20
-35.278000
30
-50.276001
70
192
0
VERTEX
8
OBJECT__6
10
7.006000
20
-35.352001
30
-50.091000
70
192
0
VERTEX
8
OBJECT__6
10
7.005000
20
-35.215000
30
-50.214001
70
192
0
VERTEX
8
OBJECT__6
10
7.002000
20
-34.933998
30
-50.464001
70
192
0
VERTEX
8
OBJECT__6
10
7.212000
20
-34.980000
30
-50.540001
70
192
0
VERTEX
8
OBJECT__6
10
7.207000
20
-34.432999
30
-50.764999
70
192
0
VERTEX
8
OBJECT__6
10
7.204000
20
-34.047001
30
-50.806999
70
192
0
VERTEX
8
OBJECT__6
10
6.997000
20
-34.415001
30
-50.676998
70
192
0
VERTEX
8
OBJECT__6
10
6.993000
20
-34.048000
30
-50.717999
70
192
0
VERTEX
8
OBJECT__6
10
0
20
0
30
0
70
128
71
1
72
2
73
3
0
VERTEX
8
OBJECT__6
10
0
20
0
30
0
70
128
71
4
72
5
73
3
0
VERTEX
8
OBJECT__6
10
0
20
0
30
0
70
128
71
6
72
4
73
7
0
VERTEX
8
OBJECT__6
10
0
20
0
30
0
70
128
71
6
72
8
73
9
0
VERTEX
8
OBJECT__6
10
0
20
0
30
0
70
128
71
9
72
10
73
6
0
VERTEX
8
OBJECT__6
10
0
20
0
30
0
70
128
71
11
72
10
73
9
0
VERTEX
8
OBJECT__6
10
0
20
0
30
0
70
128
71
12
72
11
73
13
0
VERTEX
8
OBJECT__6
10
0
20
0
30
0
70
128
71
13
72
14
73
12
0
VERTEX
8
OBJECT__6
10
0
20
0
30
0
70
128
71
9
72
13
73
11
0
VERTEX
8
OBJECT__6
10
0
20
0
30
0
70
128
71
7
72
8
73
6
0
VERTEX
8
OBJECT__6
10
0
20
0
30
0
70
128
71
3
72
7
73
4
0
VERTEX
8
OBJECT__6
10
0
20
0
30
0
70
128
71
3
72
5
73
1
0
SEQEND
8
OBJECT__6
0
POLYLINE
8
OBJECT__7
66
1
70
64
71
8
72
6
62
253
0
VERTEX
8
OBJECT__7
10
0.000000
20
-35.657001
30
48.987000
70
192
0
VERTEX
8
OBJECT__7
10
0.000000
20
-35.657001
30
-48.987000
70
192
0
VERTEX
8
OBJECT__7
10
7.240000
20
-35.720001
30
-0.344000
70
192
0
VERTEX
8
OBJECT__7
10
7.008000
20
-35.717999
30
-49.048000
70
192
0
VERTEX
8
OBJECT__7
10
7.009000
20
-35.717999
30
-48.997002
70
192
0
VERTEX
8
OBJECT__7
10
7.093000
20
-35.719002
30
39.132000
70
192
0
VERTEX
8
OBJECT__7
10
7.009000
20
-35.717999
30
48.997002
70
192
0
VERTEX
8
OBJECT__7
10
7.008000
20
-35.717999
30
49.048000
70
192
0
VERTEX
8
OBJECT__7
10
0
20
0
30
0
70
128
71
1
72
2
73
3
0
VERTEX
8
OBJECT__7
10
0
20
0
30
0
70
128
71
2
72
4
73
5
0
VERTEX
8
OBJECT__7
10
0
20
0
30
0
70
128
71
1
72
6
73
7
0
VERTEX
8
OBJECT__7
10
0
20
0
30
0
70
128
71
5
72
3
73
2
0
VERTEX
8
OBJECT__7
10
0
20
0
30
0
70
128
71
3
72
6
73
1
0
VERTEX
8
OBJECT__7
10
0
20
0
30
0
70
128
71
7
72
8
73
1
0
SEQEND
8
OBJECT__7
0
POLYLINE
8
OBJECT__8
66
1
70
64
71
8
72
6
62
253
0
VERTEX
8
OBJECT__8
10
7.303000
20
-35.807999
30
39.133999
70
192
0
VERTEX
8
OBJECT__8
10
7.093000
20
-35.719002
30
39.132000
70
192
0
VERTEX
8
OBJECT__8
10
7.240000
20
-35.720001
30
-0.344000
70
192
0
VERTEX
8
OBJECT__8
10
7.219000
20
-35.806999
30
49.002998
70
192
0
VERTEX
8
OBJECT__8
10
7.009000
20
-35.717999
30
48.997002
70
192
0
VERTEX
8
OBJECT__8
10
7.451000
20
-35.808998
30
-0.344000
70
192
0
VERTEX
8
OBJECT__8
10
7.009000
20
-35.717999
30
-48.997002
70
192
0
VERTEX
8
OBJECT__8
10
7.219000
20
-35.806999
30
-49.002998
70
192
0
VERTEX
8
OBJECT__8
10
0
20
0
30
0
70
128
71
1
72
2
73
3
0
VERTEX
8
OBJECT__8
10
0
20
0
30
0
70
128
71
1
72
4
73
5
0
VERTEX
8
OBJECT__8
10
0
20
0
30
0
70
128
71
6
72
3
73
7
0
VERTEX
8
OBJECT__8
10
0
20
0
30
0
70
128
71
7
72
8
73
6
0
VERTEX
8
OBJECT__8
10
0
20
0
30
0
70
128
71
5
72
2
73
1
0
VERTEX
8
OBJECT__8
10
0
20
0
30
0
70
128
71
3
72
6
73
1
0
SEQEND
8
OBJECT__8
0
POLYLINE
8
OBJECT__9
66
1
70
64
71
8
72
6
62
253
0
VERTEX
8
OBJECT__9
10
0.000000
20
-35.106998
30
50.226002
70
192
0
VERTEX
8
OBJECT__9
10
7.002000
20
-35.007000
30
49.951000
70
192
0
VERTEX
8
OBJECT__9
10
6.993000
20
-34.048000
30
50.717999
70
192
0
VERTEX
8
OBJECT__9
10
0.000000
20
-33.987000
30
50.657001
70
192
0
VERTEX
8
OBJECT__9
10
0.000000
20
-35.139000
30
50.154999
70
192
0
VERTEX
8
OBJECT__9
10
0.000000
20
-35.657001
30
48.987000
70
192
0
VERTEX
8
OBJECT__9
10
7.008000
20
-35.676998
30
49.415001
70
192
0
VERTEX
8
OBJECT__9
10
7.008000
20
-35.717999
30
49.048000
70
192
0
VERTEX
8
OBJECT__9
10
0
20
0
30
0
70
128
71
1
72
2
73
3
0
VERTEX
8
OBJECT__9
10
0
20
0
30
0
70
128
71
3
72
4
73
1
0
VERTEX
8
OBJECT__9
10
0
20
0
30
0
70
128
71
5
72
6
73
7
0
VERTEX
8
OBJECT__9
10
0
20
0
30
0
70
128
71
6
72
8
73
7
0
VERTEX
8
OBJECT__9
10
0
20
0
30
0
70
128
71
7
72
2
73
5
0
VERTEX
8
OBJECT__9
10
0
20
0
30
0
70
128
71
1
72
5
73
2
0
SEQEND
8
OBJECT__9
0
POLYLINE
8
OBJECT__10
66
1
70
64
71
8
72
6
62
253
0
VERTEX
8
OBJECT__10
10
0.000000
20
33.987000
30
50.657001
70
192
0
VERTEX
8
OBJECT__10
10
0.000000
20
-33.987000
30
50.657001
70
192
0
VERTEX
8
OBJECT__10
10
7.105000
20
-0.695000
30
50.719002
70
192
0
VERTEX
8
OBJECT__10
10
6.993000
20
-34.000999
30
50.717999
70
192
0
VERTEX
8
OBJECT__10
10
6.993000
20
-34.048000
30
50.717999
70
192
0
VERTEX
8
OBJECT__10
10
7.078000
20
16.653000
30
50.719002
70
192
0
VERTEX
8
OBJECT__10
10
6.993000
20
33.997002
30
50.717999
70
192
0
VERTEX
8
OBJECT__10
10
6.993000
20
34.048000
30
50.717999
70
192
0
VERTEX
8
OBJECT__10
10
0
20
0
30
0
70
128
71
1
72
2
73
3
0
VERTEX
8
OBJECT__10
10
0
20
0
30
0
70
128
71
2
72
4
73
3
0
VERTEX
8
OBJECT__10
10
0
20
0
30
0
70
128
71
2
72
5
73
4
0
VERTEX
8
OBJECT__10
10
0
20
0
30
0
70
128
71
3
72
6
73
1
0
VERTEX
8
OBJECT__10
10
0
20
0
30
0
70
128
71
6
72
7
73
1
0
VERTEX
8
OBJECT__10
10
0
20
0
30
0
70
128
71
7
72
8
73
1
0
SEQEND
8
OBJECT__10
0
POLYLINE
8
OBJECT__11
66
1
70
64
71
11
72
9
62
253
0
VERTEX
8
OBJECT__11
10
0.000000
20
35.226002
30
50.106998
70
192
0
VERTEX
8
OBJECT__11
10
7.006000
20
35.352001
30
50.091000
70
192
0
VERTEX
8
OBJECT__11
10
7.008000
20
35.624001
30
49.601002
70
192
0
VERTEX
8
OBJECT__11
10
0.000000
20
35.657001
30
48.987000
70
192
0
VERTEX
8
OBJECT__11
10
7.005000
20
35.215000
30
50.214001
70
192
0
VERTEX
8
OBJECT__11
10
7.008000
20
35.717999
30
49.048000
70
192
0
VERTEX
8
OBJECT__11
10
0.000000
20
35.154999
30
50.139000
70
192
0
VERTEX
8
OBJECT__11
10
0.000000
20
33.987000
30
50.657001
70
192
0
VERTEX
8
OBJECT__11
10
6.997000
20
34.415001
30
50.676998
70
192
0
VERTEX
8
OBJECT__11
10
7.002000
20
34.933998
30
50.464001
70
192
0
VERTEX
8
OBJECT__11
10
6.993000
20
34.048000
30
50.717999
70
192
0
VERTEX
8
OBJECT__11
10
0
20
0
30
0
70
128
71
1
72
2
73
3
0
VERTEX
8
OBJECT__11
10
0
20
0
30
0
70
128
71
3
72
4
73
1
0
VERTEX
8
OBJECT__11
10
0
20
0
30
0
70
128
71
1
72
5
73
2
0
VERTEX
8
OBJECT__11
10
0
20
0
30
0
70
128
71
3
72
6
73
4
0
VERTEX
8
OBJECT__11
10
0
20
0
30
0
70
128
71
7
72
8
73
9
0
VERTEX
8
OBJECT__11
10
0
20
0
30
0
70
128
71
9
72
10
73
7
0
VERTEX
8
OBJECT__11
10
0
20
0
30
0
70
128
71
8
72
11
73
9
0
VERTEX
8
OBJECT__11
10
0
20
0
30
0
70
128
71
10
72
5
73
7
0
VERTEX
8
OBJECT__11
10
0
20
0
30
0
70
128
71
1
72
7
73
5
0
SEQEND
8
OBJECT__11
0
POLYLINE
8
OBJECT__12
66
1
70
64
71
14
72
12
62
253
0
VERTEX
8
OBJECT__12
10
7.218000
20
35.806999
30
49.049000
70
192
0
VERTEX
8
OBJECT__12
10
7.008000
20
35.717999
30
49.048000
70
192
0
VERTEX
8
OBJECT__12
10
7.008000
20
35.624001
30
49.601002
70
192
0
VERTEX
8
OBJECT__12
10
7.215000
20
35.421001
30
50.147999
70
192
0
VERTEX
8
OBJECT__12
10
7.218000
20
35.708000
30
49.631001
70
192
0
VERTEX
8
OBJECT__12
10
7.214000
20
35.278000
30
50.276001
70
192
0
VERTEX
8
OBJECT__12
10
7.006000
20
35.352001
30
50.091000
70
192
0
VERTEX
8
OBJECT__12
10
7.005000
20
35.215000
30
50.214001
70
192
0
VERTEX
8
OBJECT__12
10
7.002000
20
34.933998
30
50.464001
70
192
0
VERTEX
8
OBJECT__12
10
7.212000
20
34.980000
30
50.540001
70
192
0
VERTEX
8
OBJECT__12
10
7.207000
20
34.432999
30
50.764999
70
192
0
VERTEX
8
OBJECT__12
10
7.203000
20
34.047001
30
50.806999
70
192
0
VERTEX
8
OBJECT__12
10
6.997000
20
34.415001
30
50.676998
70
192
0
VERTEX
8
OBJECT__12
10
6.993000
20
34.048000
30
50.717999
70
192
0
VERTEX
8
OBJECT__12
10
0
20
0
30
0
70
128
71
1
72
2
73
3
0
VERTEX
8
OBJECT__12
10
0
20
0
30
0
70
128
71
4
72
5
73
3
0
VERTEX
8
OBJECT__12
10
0
20
0
30
0
70
128
71
6
72
4
73
7
0
VERTEX
8
OBJECT__12
10
0
20
0
30
0
70
128
71
6
72
8
73
9
0
VERTEX
8
OBJECT__12
10
0
20
0
30
0
70
128
71
9
72
10
73
6
0
VERTEX
8
OBJECT__12
10
0
20
0
30
0
70
128
71
11
72
10
73
9
0
VERTEX
8
OBJECT__12
10
0
20
0
30
0
70
128
71
12
72
11
73
13
0
VERTEX
8
OBJECT__12
10
0
20
0
30
0
70
128
71
13
72
14
73
12
0
VERTEX
8
OBJECT__12
10
0
20
0
30
0
70
128
71
9
72
13
73
11
0
VERTEX
8
OBJECT__12
10
0
20
0
30
0
70
128
71
7
72
8
73
6
0
VERTEX
8
OBJECT__12
10
0
20
0
30
0
70
128
71
3
72
7
73
4
0
VERTEX
8
OBJECT__12
10
0
20
0
30
0
70
128
71
3
72
5
73
1
0
SEQEND
8
OBJECT__12
0
POLYLINE
8
OBJECT__13
66
1
70
64
71
9
72
7
62
253
0
VERTEX
8
OBJECT__13
10
7.078000
20
16.653000
30
50.719002
70
192
0
VERTEX
8
OBJECT__13
10
7.105000
20
-0.695000
30
50.719002
70
192
0
VERTEX
8
OBJECT__13
10
7.314000
20
0.000000
30
50.807999
70
192
0
VERTEX
8
OBJECT__13
10
7.315000
20
-0.695000
30
50.807999
70
192
0
VERTEX
8
OBJECT__13
10
6.993000
20
-34.000999
30
50.717999
70
192
0
VERTEX
8
OBJECT__13
10
7.289000
20
16.653999
30
50.807999
70
192
0
VERTEX
8
OBJECT__13
10
7.204000
20
34.001999
30
50.806999
70
192
0
VERTEX
8
OBJECT__13
10
6.993000
20
33.997002
30
50.717999
70
192
0
VERTEX
8
OBJECT__13
10
7.204000
20
-34.001999
30
50.806999
70
192
0
VERTEX
8
OBJECT__13
10
0
20
0
30
0
70
128
71
1
72
2
73
3
0
VERTEX
8
OBJECT__13
10
0
20
0
30
0
70
128
71
2
72
4
73
3
0
VERTEX
8
OBJECT__13
10
0
20
0
30
0
70
128
71
4
72
2
73
5
0
VERTEX
8
OBJECT__13
10
0
20
0
30
0
70
128
71
6
72
7
73
8
0
VERTEX
8
OBJECT__13
10
0
20
0
30
0
70
128
71
8
72
1
73
6
0
VERTEX
8
OBJECT__13
10
0
20
0
30
0
70
128
71
5
72
9
73
4
0
VERTEX
8
OBJECT__13
10
0
20
0
30
0
70
128
71
3
72
6
73
1
0
SEQEND
8
OBJECT__13
0
POLYLINE
8
OBJECT__14
66
1
70
64
71
17
72
15
62
253
0
VERTEX
8
OBJECT__14
10
9.789000
20
34.019001
30
53.418999
70
192
0
VERTEX
8
OBJECT__14
10
9.780000
20
35.512001
30
53.154999
70
192
0
VERTEX
8
OBJECT__14
10
7.207000
20
34.432999
30
50.764999
70
192
0
VERTEX
8
OBJECT__14
10
7.203000
20
34.047001
30
50.806999
70
192
0
VERTEX
8
OBJECT__14
10
9.779000
20
36.782001
30
52.439999
70
192
0
VERTEX
8
OBJECT__14
10
7.212000
20
34.980000
30
50.540001
70
192
0
VERTEX
8
OBJECT__14
10
9.780000
20
37.084000
30
52.095001
70
192
0
VERTEX
8
OBJECT__14
10
7.214000
20
35.278000
30
50.276001
70
192
0
VERTEX
8
OBJECT__14
10
9.783000
20
37.757999
30
51.326000
70
192
0
VERTEX
8
OBJECT__14
10
9.794000
20
38.307999
30
49.969002
70
192
0
VERTEX
8
OBJECT__14
10
7.218000
20
35.708000
30
49.631001
70
192
0
VERTEX
8
OBJECT__14
10
7.215000
20
35.421001
30
50.147999
70
192
0
VERTEX
8
OBJECT__14
10
9.804000
20
38.410999
30
49.027000
70
192
0
VERTEX
8
OBJECT__14
10
7.218000
20
35.806999
30
49.049000
70
192
0
VERTEX
8
OBJECT__14
10
8.511000
20
37.109001
30
49.014999
70
192
0
VERTEX
8
OBJECT__14
10
7.219000
20
35.806999
30
49.002998
70
192
0
VERTEX
8
OBJECT__14
10
7.204000
20
34.001999
30
50.806999
70
192
0
VERTEX
8
OBJECT__14
10
0
20
0
30
0
70
128
71
1
72
2
73
3
0
VERTEX
8
OBJECT__14
10
0
20
0
30
0
70
128
71
3
72
4
73
1
0
VERTEX
8
OBJECT__14
10
0
20
0
30
0
70
128
71
2
72
5
73
6
0
VERTEX
8
OBJECT__14
10
0
20
0
30
0
70
128
71
6
72
3
73
2
0
VERTEX
8
OBJECT__14
10
0
20
0
30
0
70
128
71
6
72
5
73
7
0
VERTEX
8
OBJECT__14
10
0
20
0
30
0
70
128
71
7
72
8
73
6
0
VERTEX
8
OBJECT__14
10
0
20
0
30
0
70
128
71
9
72
10
73
11
0
VERTEX
8
OBJECT__14
10
0
20
0
30
0
70
128
71
12
72
7
73
9
0
VERTEX
8
OBJECT__14
10
0
20
0
30
0
70
128
71
10
72
13
73
14
0
VERTEX
8
OBJECT__14
10
0
20
0
30
0
70
128
71
14
72
13
73
15
0
VERTEX
8
OBJECT__14
10
0
20
0
30
0
70
128
71
15
72
16
73
14
0
VERTEX
8
OBJECT__14
10
0
20
0
30
0
70
128
71
14
72
11
73
10
0
VERTEX
8
OBJECT__14
10
0
20
0
30
0
70
128
71
11
72
12
73
9
0
VERTEX
8
OBJECT__14
10
0
20
0
30
0
70
128
71
12
72
8
73
7
0
VERTEX
8
OBJECT__14
10
0
20
0
30
0
70
128
71
4
72
17
73
1
0
SEQEND
8
OBJECT__14
0
POLYLINE
8
OBJECT__15
66
1
70
64
71
11
72
9
62
253
0
VERTEX
8
OBJECT__15
10
7.314000
20
0.000000
30
50.807999
70
192
0
VERTEX
8
OBJECT__15
10
9.893000
20
0.000000
30
53.418999
70
192
0
VERTEX
8
OBJECT__15
10
9.879000
20
14.833000
30
53.418999
70
192
0
VERTEX
8
OBJECT__15
10
9.789000
20
34.019001
30
53.418999
70
192
0
VERTEX
8
OBJECT__15
10
7.204000
20
34.001999
30
50.806999
70
192
0
VERTEX
8
OBJECT__15
10
7.289000
20
16.653999
30
50.807999
70
192
0
VERTEX
8
OBJECT__15
10
7.315000
20
-0.695000
30
50.807999
70
192
0
VERTEX
8
OBJECT__15
10
7.204000
20
-34.001999
30
50.806999
70
192
0
VERTEX
8
OBJECT__15
10
9.844000
20
-24.129999
30
53.418999
70
192
0
VERTEX
8
OBJECT__15
10
9.898000
20
-4.353000
30
53.418999
70
192
0
VERTEX
8
OBJECT__15
10
9.789000
20
-34.019001
30
53.418999
70
192
0
VERTEX
8
OBJECT__15
10
0
20
0
30
0
70
128
71
1
72
2
73
3
0
VERTEX
8
OBJECT__15
10
0
20
0
30
0
70
128
71
4
72
5
73
6
0
VERTEX
8
OBJECT__15
10
0
20
0
30
0
70
128
71
6
72
3
73
4
0
VERTEX
8
OBJECT__15
10
0
20
0
30
0
70
128
71
7
72
8
73
9
0
VERTEX
8
OBJECT__15
10
0
20
0
30
0
70
128
71
9
72
10
73
7
0
VERTEX
8
OBJECT__15
10
0
20
0
30
0
70
128
71
8
72
11
73
9
0
VERTEX
8
OBJECT__15
10
0
20
0
30
0
70
128
71
2
72
1
73
7
0
VERTEX
8
OBJECT__15
10
0
20
0
30
0
70
128
71
10
72
2
73
7
0
VERTEX
8
OBJECT__15
10
0
20
0
30
0
70
128
71
3
72
6
73
1
0
SEQEND
8
OBJECT__15
0
POLYLINE
8
OBJECT__16
66
1
70
64
71
10
72
8
62
253
0
VERTEX
8
OBJECT__16
10
8.511000
20
-37.109001
30
49.014999
70
192
0
VERTEX
8
OBJECT__16
10
8.511000
20
-37.109001
30
-49.014999
70
192
0
VERTEX
8
OBJECT__16
10
10.034000
20
-38.410999
30
0.345000
70
192
0
VERTEX
8
OBJECT__16
10
9.887000
20
-38.410999
30
-39.153000
70
192
0
VERTEX
8
OBJECT__16
10
9.804000
20
-38.410999
30
-49.027000
70
192
0
VERTEX
8
OBJECT__16
10
7.303000
20
-35.807999
30
39.133999
70
192
0
VERTEX
8
OBJECT__16
10
7.451000
20
-35.808998
30
-0.344000
70
192
0
VERTEX
8
OBJECT__16
10
7.219000
20
-35.806999
30
49.002998
70
192
0
VERTEX
8
OBJECT__16
10
7.219000
20
-35.806999
30
-49.002998
70
192
0
VERTEX
8
OBJECT__16
10
9.804000
20
-38.410999
30
49.027000
70
192
0
VERTEX
8
OBJECT__16
10
0
20
0
30
0
70
128
71
1
72
2
73
3
0
VERTEX
8
OBJECT__16
10
0
20
0
30
0
70
128
71
2
72
4
73
3
0
VERTEX
8
OBJECT__16
10
0
20
0
30
0
70
128
71
2
72
5
73
4
0
VERTEX
8
OBJECT__16
10
0
20
0
30
0
70
128
71
1
72
6
73
7
0
VERTEX
8
OBJECT__16
10
0
20
0
30
0
70
128
71
1
72
8
73
6
0
VERTEX
8
OBJECT__16
10
0
20
0
30
0
70
128
71
7
72
2
73
1
0
VERTEX
8
OBJECT__16
10
0
20
0
30
0
70
128
71
7
72
9
73
2
0
VERTEX
8
OBJECT__16
10
0
20
0
30
0
70
128
71
3
72
10
73
1
0
SEQEND
8
OBJECT__16
0
POLYLINE
8
OBJECT__17
66
1
70
64
71
14
72
12
62
253
0
VERTEX
8
OBJECT__17
10
7.218000
20
-35.806999
30
49.049000
70
192
0
VERTEX
8
OBJECT__17
10
7.219000
20
-35.806999
30
49.002998
70
192
0
VERTEX
8
OBJECT__17
10
8.511000
20
-37.109001
30
49.014999
70
192
0
VERTEX
8
OBJECT__17
10
9.789000
20
-38.145000
30
50.527000
70
192
0
VERTEX
8
OBJECT__17
10
9.781000
20
-37.426998
30
51.796001
70
192
0
VERTEX
8
OBJECT__17
10
7.212000
20
-35.000000
30
50.057999
70
192
0
VERTEX
8
OBJECT__17
10
9.780000
20
-37.087002
30
52.092999
70
192
0
VERTEX
8
OBJECT__17
10
9.778000
20
-36.312000
30
52.770000
70
192
0
VERTEX
8
OBJECT__17
10
7.207000
20
-34.436001
30
50.764000
70
192
0
VERTEX
8
OBJECT__17
10
9.783000
20
-34.953999
30
53.317001
70
192
0
VERTEX
8
OBJECT__17
10
9.789000
20
-34.019001
30
53.418999
70
192
0
VERTEX
8
OBJECT__17
10
7.203000
20
-34.047001
30
50.806999
70
192
0
VERTEX
8
OBJECT__17
10
7.204000
20
-34.001999
30
50.806999
70
192
0
VERTEX
8
OBJECT__17
10
9.804000
20
-38.410999
30
49.027000
70
192
0
VERTEX
8
OBJECT__17
10
0
20
0
30
0
70
128
71
1
72
2
73
3
0
VERTEX
8
OBJECT__17
10
0
20
0
30
0
70
128
71
3
72
4
73
1
0
VERTEX
8
OBJECT__17
10
0
20
0
30
0
70
128
71
5
72
6
73
1
0
VERTEX
8
OBJECT__17
10
0
20
0
30
0
70
128
71
1
72
4
73
5
0
VERTEX
8
OBJECT__17
10
0
20
0
30
0
70
128
71
5
72
7
73
6
0
VERTEX
8
OBJECT__17
10
0
20
0
30
0
70
128
71
7
72
8
73
9
0
VERTEX
8
OBJECT__17
10
0
20
0
30
0
70
128
71
10
72
11
73
12
0
VERTEX
8
OBJECT__17
10
0
20
0
30
0
70
128
71
9
72
8
73
10
0
VERTEX
8
OBJECT__17
10
0
20
0
30
0
70
128
71
11
72
13
73
12
0
VERTEX
8
OBJECT__17
10
0
20
0
30
0
70
128
71
12
72
9
73
10
0
VERTEX
8
OBJECT__17
10
0
20
0
30
0
70
128
71
9
72
6
73
7
0
VERTEX
8
OBJECT__17
10
0
20
0
30
0
70
128
71
3
72
14
73
4
0
SEQEND
8
OBJECT__17
0
POLYLINE
8
OBJECT__18
66
1
70
64
71
13
72
11
62
253
0
VERTEX
8
OBJECT__18
10
10.368000
20
-39.485001
30
51.020000
70
192
0
VERTEX
8
OBJECT__18
10
9.789000
20
-38.145000
30
50.527000
70
192
0
VERTEX
8
OBJECT__18
10
9.804000
20
-38.410999
30
49.027000
70
192
0
VERTEX
8
OBJECT__18
10
10.358000
20
-38.537998
30
52.696999
70
192
0
VERTEX
8
OBJECT__18
10
9.781000
20
-37.426998
30
51.796001
70
192
0
VERTEX
8
OBJECT__18
10
10.356000
20
-37.056999
30
53.991001
70
192
0
VERTEX
8
OBJECT__18
10
9.778000
20
-36.312000
30
52.770000
70
192
0
VERTEX
8
OBJECT__18
10
9.780000
20
-37.087002
30
52.092999
70
192
0
VERTEX
8
OBJECT__18
10
10.360000
20
-35.264000
30
54.713001
70
192
0
VERTEX
8
OBJECT__18
10
9.783000
20
-34.953999
30
53.317001
70
192
0
VERTEX
8
OBJECT__18
10
10.367000
20
-34.022999
30
54.847000
70
192
0
VERTEX
8
OBJECT__18
10
9.789000
20
-34.019001
30
53.418999
70
192
0
VERTEX
8
OBJECT__18
10
10.384000
20
-39.834999
30
49.026001
70
192
0
VERTEX
8
OBJECT__18
10
0
20
0
30
0
70
128
71
1
72
2
73
3
0
VERTEX
8
OBJECT__18
10
0
20
0
30
0
70
128
71
4
72
5
73
2
0
VERTEX
8
OBJECT__18
10
0
20
0
30
0
70
128
71
6
72
7
73
8
0
VERTEX
8
OBJECT__18
10
0
20
0
30
0
70
128
71
8
72
4
73
6
0
VERTEX
8
OBJECT__18
10
0
20
0
30
0
70
128
71
6
72
9
73
10
0
VERTEX
8
OBJECT__18
10
0
20
0
30
0
70
128
71
9
72
11
73
12
0
VERTEX
8
OBJECT__18
10
0
20
0
30
0
70
128
71
12
72
10
73
9
0
VERTEX
8
OBJECT__18
10
0
20
0
30
0
70
128
71
10
72
7
73
6
0
VERTEX
8
OBJECT__18
10
0
20
0
30
0
70
128
71
8
72
5
73
4
0
VERTEX
8
OBJECT__18
10
0
20
0
30
0
70
128
71
2
72
1
73
4
0
VERTEX
8
OBJECT__18
10
0
20
0
30
0
70
128
71
3
72
13
73
1
0
SEQEND
8
OBJECT__18
0
POLYLINE
8
OBJECT__19
66
1
70
64
71
12
72
10
62
253
0
VERTEX
8
OBJECT__19
10
9.879000
20
14.833000
30
53.418999
70
192
0
VERTEX
8
OBJECT__19
10
10.457000
20
14.834000
30
54.847000
70
192
0
VERTEX
8
OBJECT__19
10
10.367000
20
34.015999
30
54.847000
70
192
0
VERTEX
8
OBJECT__19
10
10.472000
20
0.000000
30
54.847000
70
192
0
VERTEX
8
OBJECT__19
10
9.893000
20
0.000000
30
53.418999
70
192
0
VERTEX
8
OBJECT__19
10
9.898000
20
-4.353000
30
53.418999
70
192
0
VERTEX
8
OBJECT__19
10
10.476000
20
-4.354000
30
54.847000
70
192
0
VERTEX
8
OBJECT__19
10
9.844000
20
-24.129999
30
53.418999
70
192
0
VERTEX
8
OBJECT__19
10
10.367000
20
-34.022999
30
54.847000
70
192
0
VERTEX
8
OBJECT__19
10
10.422000
20
-24.132999
30
54.847000
70
192
0
VERTEX
8
OBJECT__19
10
9.789000
20
-34.019001
30
53.418999
70
192
0
VERTEX
8
OBJECT__19
10
9.789000
20
34.019001
30
53.418999
70
192
0
VERTEX
8
OBJECT__19
10
0
20
0
30
0
70
128
71
1
72
2
73
3
0
VERTEX
8
OBJECT__19
10
0
20
0
30
0
70
128
71
4
72
5
73
6
0
VERTEX
8
OBJECT__19
10
0
20
0
30
0
70
128
71
4
72
2
73
1
0
VERTEX
8
OBJECT__19
10
0
20
0
30
0
70
128
71
1
72
5
73
4
0
VERTEX
8
OBJECT__19
10
0
20
0
30
0
70
128
71
7
72
6
73
8
0
VERTEX
8
OBJECT__19
10
0
20
0
30
0
70
128
71
9
72
10
73
8
0
VERTEX
8
OBJECT__19
10
0
20
0
30
0
70
128
71
8
72
11
73
9
0
VERTEX
8
OBJECT__19
10
0
20
0
30
0
70
128
71
8
72
10
73
7
0
VERTEX
8
OBJECT__19
10
0
20
0
30
0
70
128
71
6
72
7
73
4
0
VERTEX
8
OBJECT__19
10
0
20
0
30
0
70
128
71
3
72
12
73
1
0
SEQEND
8
OBJECT__19
0
POLYLINE
8
OBJECT__20
66
1
70
64
71
10
72
8
62
253
0
VERTEX
8
OBJECT__20
10
9.887000
20
-38.410999
30
-39.153000
70
192
0
VERTEX
8
OBJECT__20
10
10.467000
20
-39.834999
30
-39.157001
70
192
0
VERTEX
8
OBJECT__20
10
10.613000
20
-39.834999
30
0.007000
70
192
0
VERTEX
8
OBJECT__20
10
10.034000
20
-38.410999
30
0.345000
70
192
0
VERTEX
8
OBJECT__20
10
10.614000
20
-39.834999
30
0.345000
70
192
0
VERTEX
8
OBJECT__20
10
10.384000
20
-39.834999
30
49.026001
70
192
0
VERTEX
8
OBJECT__20
10
9.804000
20
-38.410999
30
-49.027000
70
192
0
VERTEX
8
OBJECT__20
10
10.381000
20
-39.710999
30
-49.026001
70
192
0
VERTEX
8
OBJECT__20
10
10.384000
20
-39.834999
30
-49.026001
70
192
0
VERTEX
8
OBJECT__20
10
9.804000
20
-38.410999
30
49.027000
70
192
0
VERTEX
8
OBJECT__20
10
0
20
0
30
0
70
128
71
1
72
2
73
3
0
VERTEX
8
OBJECT__20
10
0
20
0
30
0
70
128
71
3
72
4
73
1
0
VERTEX
8
OBJECT__20
10
0
20
0
30
0
70
128
71
4
72
5
73
6
0
VERTEX
8
OBJECT__20
10
0
20
0
30
0
70
128
71
1
72
7
73
8
0
VERTEX
8
OBJECT__20
10
0
20
0
30
0
70
128
71
8
72
2
73
1
0
VERTEX
8
OBJECT__20
10
0
20
0
30
0
70
128
71
8
72
9
73
2
0
VERTEX
8
OBJECT__20
10
0
20
0
30
0
70
128
71
6
72
10
73
4
0
VERTEX
8
OBJECT__20
10
0
20
0
30
0
70
128
71
3
72
5
73
4
0
SEQEND
8
OBJECT__20
0
POLYLINE
8
OBJECT__21
66
1
70
64
71
15
72
13
62
253
0
VERTEX
8
OBJECT__21
10
10.358000
20
-36.001999
30
-54.499001
70
192
0
VERTEX
8
OBJECT__21
10
9.780000
20
-35.512001
30
-53.154999
70
192
0
VERTEX
8
OBJECT__21
10
9.875000
20
-34.019001
30
-53.512001
70
192
0
VERTEX
8
OBJECT__21
10
9.789000
20
-34.019001
30
-53.418999
70
192
0
VERTEX
8
OBJECT__21
10
10.356000
20
-37.680000
30
-53.553001
70
192
0
VERTEX
8
OBJECT__21
10
9.779000
20
-36.782001
30
-52.439999
70
192
0
VERTEX
8
OBJECT__21
10
10.361000
20
-38.976002
30
-52.074001
70
192
0
VERTEX
8
OBJECT__21
10
9.783000
20
-37.757999
30
-51.326000
70
192
0
VERTEX
8
OBJECT__21
10
9.780000
20
-37.084000
30
-52.095001
70
192
0
VERTEX
8
OBJECT__21
10
10.373000
20
-39.700001
30
-50.282001
70
192
0
VERTEX
8
OBJECT__21
10
9.794000
20
-38.307999
30
-49.969002
70
192
0
VERTEX
8
OBJECT__21
10
10.381000
20
-39.710999
30
-49.026001
70
192
0
VERTEX
8
OBJECT__21
10
9.804000
20
-38.410999
30
-49.027000
70
192
0
VERTEX
8
OBJECT__21
10
10.384000
20
-39.834999
30
-49.026001
70
192
0
VERTEX
8
OBJECT__21
10
10.368000
20
-34.015999
30
-54.847000
70
192
0
VERTEX
8
OBJECT__21
10
0
20
0
30
0
70
128
71
1
72
2
73
3
0
VERTEX
8
OBJECT__21
10
0
20
0
30
0
70
128
71
2
72
4
73
3
0
VERTEX
8
OBJECT__21
10
0
20
0
30
0
70
128
71
1
72
5
73
6
0
VERTEX
8
OBJECT__21
10
0
20
0
30
0
70
128
71
7
72
8
73
9
0
VERTEX
8
OBJECT__21
10
0
20
0
30
0
70
128
71
9
72
5
73
7
0
VERTEX
8
OBJECT__21
10
0
20
0
30
0
70
128
71
7
72
10
73
11
0
VERTEX
8
OBJECT__21
10
0
20
0
30
0
70
128
71
10
72
12
73
13
0
VERTEX
8
OBJECT__21
10
0
20
0
30
0
70
128
71
10
72
14
73
12
0
VERTEX
8
OBJECT__21
10
0
20
0
30
0
70
128
71
13
72
11
73
10
0
VERTEX
8
OBJECT__21
10
0
20
0
30
0
70
128
71
11
72
8
73
7
0
VERTEX
8
OBJECT__21
10
0
20
0
30
0
70
128
71
9
72
6
73
5
0
VERTEX
8
OBJECT__21
10
0
20
0
30
0
70
128
71
6
72
2
73
1
0
VERTEX
8
OBJECT__21
10
0
20
0
30
0
70
128
71
3
72
15
73
1
0
SEQEND
8
OBJECT__21
0
POLYLINE
8
OBJECT__22
66
1
70
64
71
13
72
11
62
253
0
VERTEX
8
OBJECT__22
10
10.358000
20
36.001999
30
54.499001
70
192
0
VERTEX
8
OBJECT__22
10
9.780000
20
35.512001
30
53.154999
70
192
0
VERTEX
8
OBJECT__22
10
9.789000
20
34.019001
30
53.418999
70
192
0
VERTEX
8
OBJECT__22
10
10.356000
20
37.680000
30
53.553001
70
192
0
VERTEX
8
OBJECT__22
10
9.779000
20
36.782001
30
52.439999
70
192
0
VERTEX
8
OBJECT__22
10
10.361000
20
38.976002
30
52.074001
70
192
0
VERTEX
8
OBJECT__22
10
9.783000
20
37.757999
30
51.326000
70
192
0
VERTEX
8
OBJECT__22
10
9.780000
20
37.084000
30
52.095001
70
192
0
VERTEX
8
OBJECT__22
10
10.373000
20
39.700001
30
50.282001
70
192
0
VERTEX
8
OBJECT__22
10
9.794000
20
38.307999
30
49.969002
70
192
0
VERTEX
8
OBJECT__22
10
10.384000
20
39.834999
30
49.033001
70
192
0
VERTEX
8
OBJECT__22
10
9.804000
20
38.410999
30
49.027000
70
192
0
VERTEX
8
OBJECT__22
10
10.367000
20
34.015999
30
54.847000
70
192
0
VERTEX
8
OBJECT__22
10
0
20
0
30
0
70
128
71
1
72
2
73
3
0
VERTEX
8
OBJECT__22
10
0
20
0
30
0
70
128
71
1
72
4
73
5
0
VERTEX
8
OBJECT__22
10
0
20
0
30
0
70
128
71
6
72
7
73
8
0
VERTEX
8
OBJECT__22
10
0
20
0
30
0
70
128
71
8
72
4
73
6
0
VERTEX
8
OBJECT__22
10
0
20
0
30
0
70
128
71
6
72
9
73
10
0
VERTEX
8
OBJECT__22
10
0
20
0
30
0
70
128
71
9
72
11
73
12
0
VERTEX
8
OBJECT__22
10
0
20
0
30
0
70
128
71
12
72
10
73
9
0
VERTEX
8
OBJECT__22
10
0
20
0
30
0
70
128
71
10
72
7
73
6
0
VERTEX
8
OBJECT__22
10
0
20
0
30
0
70
128
71
8
72
5
73
4
0
VERTEX
8
OBJECT__22
10
0
20
0
30
0
70
128
71
5
72
2
73
1
0
VERTEX
8
OBJECT__22
10
0
20
0
30
0
70
128
71
3
72
13
73
1
0
SEQEND
8
OBJECT__22
0
POLYLINE
8
OBJECT__23
66
1
70
64
71
10
72
8
62
253
0
VERTEX
8
OBJECT__23
10
10.384000
20
39.834999
30
49.033001
70
192
0
VERTEX
8
OBJECT__23
10
10.467000
20
39.834999
30
39.157001
70
192
0
VERTEX
8
OBJECT__23
10
9.887000
20
38.410999
30
39.153000
70
192
0
VERTEX
8
OBJECT__23
10
10.613000
20
39.834999
30
0.007000
70
192
0
VERTEX
8
OBJECT__23
10
10.034000
20
38.410999
30
-0.345000
70
192
0
VERTEX
8
OBJECT__23
10
10.614000
20
39.834999
30
-0.345000
70
192
0
VERTEX
8
OBJECT__23
10
10.384000
20
39.834999
30
-49.026001
70
192
0
VERTEX
8
OBJECT__23
10
9.888000
20
38.501999
30
-49.027000
70
192
0
VERTEX
8
OBJECT__23
10
9.804000
20
38.410999
30
-49.027000
70
192
0
VERTEX
8
OBJECT__23
10
9.804000
20
38.410999
30
49.027000
70
192
0
VERTEX
8
OBJECT__23
10
0
20
0
30
0
70
128
71
1
72
2
73
3
0
VERTEX
8
OBJECT__23
10
0
20
0
30
0
70
128
71
3
72
2
73
4
0
VERTEX
8
OBJECT__23
10
0
20
0
30
0
70
128
71
4
72
5
73
3
0
VERTEX
8
OBJECT__23
10
0
20
0
30
0
70
128
71
5
72
6
73
7
0
VERTEX
8
OBJECT__23
10
0
20
0
30
0
70
128
71
7
72
8
73
5
0
VERTEX
8
OBJECT__23
10
0
20
0
30
0
70
128
71
8
72
9
73
5
0
VERTEX
8
OBJECT__23
10
0
20
0
30
0
70
128
71
4
72
6
73
5
0
VERTEX
8
OBJECT__23
10
0
20
0
30
0
70
128
71
3
72
10
73
1
0
SEQEND
8
OBJECT__23
0
POLYLINE
8
OBJECT__24
66
1
70
64
71
13
72
11
62
253
0
VERTEX
8
OBJECT__24
10
10.367000
20
34.022999
30
-54.847000
70
192
0
VERTEX
8
OBJECT__24
10
10.423000
20
24.132999
30
-54.847000
70
192
0
VERTEX
8
OBJECT__24
10
9.844000
20
24.129999
30
-53.418999
70
192
0
VERTEX
8
OBJECT__24
10
10.476000
20
4.354000
30
-54.847000
70
192
0
VERTEX
8
OBJECT__24
10
9.898000
20
4.353000
30
-53.418999
70
192
0
VERTEX
8
OBJECT__24
10
10.472000
20
0.000000
30
-54.847000
70
192
0
VERTEX
8
OBJECT__24
10
10.457000
20
-14.834000
30
-54.847000
70
192
0
VERTEX
8
OBJECT__24
10
9.879000
20
-14.833000
30
-53.418999
70
192
0
VERTEX
8
OBJECT__24
10
9.894000
20
0.000000
30
-53.418999
70
192
0
VERTEX
8
OBJECT__24
10
10.368000
20
-34.015999
30
-54.847000
70
192
0
VERTEX
8
OBJECT__24
10
9.875000
20
-34.019001
30
-53.512001
70
192
0
VERTEX
8
OBJECT__24
10
9.789000
20
-34.019001
30
-53.418999
70
192
0
VERTEX
8
OBJECT__24
10
9.789000
20
34.019001
30
-53.418999
70
192
0
VERTEX
8
OBJECT__24
10
0
20
0
30
0
70
128
71
1
72
2
73
3
0
VERTEX
8
OBJECT__24
10
0
20
0
30
0
70
128
71
4
72
5
73
3
0
VERTEX
8
OBJECT__24
10
0
20
0
30
0
70
128
71
6
72
7
73
8
0
VERTEX
8
OBJECT__24
10
0
20
0
30
0
70
128
71
6
72
9
73
5
0
VERTEX
8
OBJECT__24
10
0
20
0
30
0
70
128
71
5
72
4
73
6
0
VERTEX
8
OBJECT__24
10
0
20
0
30
0
70
128
71
8
72
7
73
10
0
VERTEX
8
OBJECT__24
10
0
20
0
30
0
70
128
71
10
72
11
73
8
0
VERTEX
8
OBJECT__24
10
0
20
0
30
0
70
128
71
11
72
12
73
8
0
VERTEX
8
OBJECT__24
10
0
20
0
30
0
70
128
71
8
72
9
73
6
0
VERTEX
8
OBJECT__24
10
0
20
0
30
0
70
128
71
3
72
2
73
4
0
VERTEX
8
OBJECT__24
10
0
20
0
30
0
70
128
71
3
72
13
73
1
0
SEQEND
8
OBJECT__24
0
POLYLINE
8
OBJECT__25
66
1
70
64
71
17
72
15
62
253
0
VERTEX
8
OBJECT__25
10
9.783000
20
-37.757999
30
-51.326000
70
192
0
VERTEX
8
OBJECT__25
10
9.794000
20
-38.307999
30
-49.969002
70
192
0
VERTEX
8
OBJECT__25
10
7.219000
20
-35.708000
30
-49.631001
70
192
0
VERTEX
8
OBJECT__25
10
7.216000
20
-35.421001
30
-50.147999
70
192
0
VERTEX
8
OBJECT__25
10
9.780000
20
-37.084000
30
-52.095001
70
192
0
VERTEX
8
OBJECT__25
10
9.804000
20
-38.410999
30
-49.027000
70
192
0
VERTEX
8
OBJECT__25
10
7.218000
20
-35.806999
30
-49.049000
70
192
0
VERTEX
8
OBJECT__25
10
8.511000
20
-37.109001
30
-49.014999
70
192
0
VERTEX
8
OBJECT__25
10
7.219000
20
-35.806999
30
-49.002998
70
192
0
VERTEX
8
OBJECT__25
10
9.789000
20
-34.019001
30
-53.418999
70
192
0
VERTEX
8
OBJECT__25
10
9.780000
20
-35.512001
30
-53.154999
70
192
0
VERTEX
8
OBJECT__25
10
7.207000
20
-34.432999
30
-50.764999
70
192
0
VERTEX
8
OBJECT__25
10
7.204000
20
-34.047001
30
-50.806999
70
192
0
VERTEX
8
OBJECT__25
10
9.779000
20
-36.782001
30
-52.439999
70
192
0
VERTEX
8
OBJECT__25
10
7.212000
20
-34.980000
30
-50.540001
70
192
0
VERTEX
8
OBJECT__25
10
7.215000
20
-35.278000
30
-50.276001
70
192
0
VERTEX
8
OBJECT__25
10
7.204000
20
-34.001999
30
-50.806999
70
192
0
VERTEX
8
OBJECT__25
10
0
20
0
30
0
70
128
71
1
72
2
73
3
0
VERTEX
8
OBJECT__25
10
0
20
0
30
0
70
128
71
4
72
5
73
1
0
VERTEX
8
OBJECT__25
10
0
20
0
30
0
70
128
71
2
72
6
73
7
0
VERTEX
8
OBJECT__25
10
0
20
0
30
0
70
128
71
7
72
6
73
8
0
VERTEX
8
OBJECT__25
10
0
20
0
30
0
70
128
71
8
72
9
73
7
0
VERTEX
8
OBJECT__25
10
0
20
0
30
0
70
128
71
7
72
3
73
2
0
VERTEX
8
OBJECT__25
10
0
20
0
30
0
70
128
71
3
72
4
73
1
0
VERTEX
8
OBJECT__25
10
0
20
0
30
0
70
128
71
10
72
11
73
12
0
VERTEX
8
OBJECT__25
10
0
20
0
30
0
70
128
71
12
72
13
73
10
0
VERTEX
8
OBJECT__25
10
0
20
0
30
0
70
128
71
11
72
14
73
15
0
VERTEX
8
OBJECT__25
10
0
20
0
30
0
70
128
71
15
72
12
73
11
0
VERTEX
8
OBJECT__25
10
0
20
0
30
0
70
128
71
15
72
14
73
5
0
VERTEX
8
OBJECT__25
10
0
20
0
30
0
70
128
71
5
72
16
73
15
0
VERTEX
8
OBJECT__25
10
0
20
0
30
0
70
128
71
13
72
17
73
10
0
VERTEX
8
OBJECT__25
10
0
20
0
30
0
70
128
71
4
72
16
73
5
0
SEQEND
8
OBJECT__25
0
POLYLINE
8
OBJECT__26
66
1
70
64
71
14
72
12
62
253
0
VERTEX
8
OBJECT__26
10
10.368000
20
39.485001
30
-51.020000
70
192
0
VERTEX
8
OBJECT__26
10
9.789000
20
38.145000
30
-50.527000
70
192
0
VERTEX
8
OBJECT__26
10
9.888000
20
38.501999
30
-49.027000
70
192
0
VERTEX
8
OBJECT__26
10
9.804000
20
38.410999
30
-49.027000
70
192
0
VERTEX
8
OBJECT__26
10
10.358000
20
38.537998
30
-52.696999
70
192
0
VERTEX
8
OBJECT__26
10
9.781000
20
37.426998
30
-51.796001
70
192
0
VERTEX
8
OBJECT__26
10
10.356000
20
37.056999
30
-53.991001
70
192
0
VERTEX
8
OBJECT__26
10
9.779000
20
36.312000
30
-52.770000
70
192
0
VERTEX
8
OBJECT__26
10
9.780000
20
37.087002
30
-52.092999
70
192
0
VERTEX
8
OBJECT__26
10
10.361000
20
35.264000
30
-54.713001
70
192
0
VERTEX
8
OBJECT__26
10
9.783000
20
34.953999
30
-53.317001
70
192
0
VERTEX
8
OBJECT__26
10
10.367000
20
34.022999
30
-54.847000
70
192
0
VERTEX
8
OBJECT__26
10
9.789000
20
34.019001
30
-53.418999
70
192
0
VERTEX
8
OBJECT__26
10
10.384000
20
39.834999
30
-49.026001
70
192
0
VERTEX
8
OBJECT__26
10
0
20
0
30
0
70
128
71
1
72
2
73
3
0
VERTEX
8
OBJECT__26
10
0
20
0
30
0
70
128
71
2
72
4
73
3
0
VERTEX
8
OBJECT__26
10
0
20
0
30
0
70
128
71
5
72
6
73
2
0
VERTEX
8
OBJECT__26
10
0
20
0
30
0
70
128
71
7
72
8
73
9
0
VERTEX
8
OBJECT__26
10
0
20
0
30
0
70
128
71
9
72
5
73
7
0
VERTEX
8
OBJECT__26
10
0
20
0
30
0
70
128
71
7
72
10
73
11
0
VERTEX
8
OBJECT__26
10
0
20
0
30
0
70
128
71
10
72
12
73
13
0
VERTEX
8
OBJECT__26
10
0
20
0
30
0
70
128
71
13
72
11
73
10
0
VERTEX
8
OBJECT__26
10
0
20
0
30
0
70
128
71
11
72
8
73
7
0
VERTEX
8
OBJECT__26
10
0
20
0
30
0
70
128
71
9
72
6
73
5
0
VERTEX
8
OBJECT__26
10
0
20
0
30
0
70
128
71
2
72
1
73
5
0
VERTEX
8
OBJECT__26
10
0
20
0
30
0
70
128
71
3
72
14
73
1
0
SEQEND
8
OBJECT__26
0
POLYLINE
8
OBJECT__27
66
1
70
64
71
10
72
8
62
253
0
VERTEX
8
OBJECT__27
10
8.511000
20
37.109001
30
-49.014999
70
192
0
VERTEX
8
OBJECT__27
10
8.511000
20
37.109001
30
49.014999
70
192
0
VERTEX
8
OBJECT__27
10
10.034000
20
38.410999
30
-0.345000
70
192
0
VERTEX
8
OBJECT__27
10
9.887000
20
38.410999
30
39.153000
70
192
0
VERTEX
8
OBJECT__27
10
9.804000
20
38.410999
30
49.027000
70
192
0
VERTEX
8
OBJECT__27
10
7.303000
20
35.807999
30
-39.133999
70
192
0
VERTEX
8
OBJECT__27
10
7.451000
20
35.808998
30
0.344000
70
192
0
VERTEX
8
OBJECT__27
10
7.219000
20
35.806999
30
-49.002998
70
192
0
VERTEX
8
OBJECT__27
10
7.219000
20
35.806999
30
49.002998
70
192
0
VERTEX
8
OBJECT__27
10
9.804000
20
38.410999
30
-49.027000
70
192
0
VERTEX
8
OBJECT__27
10
0
20
0
30
0
70
128
71
1
72
2
73
3
0
VERTEX
8
OBJECT__27
10
0
20
0
30
0
70
128
71
2
72
4
73
3
0
VERTEX
8
OBJECT__27
10
0
20
0
30
0
70
128
71
2
72
5
73
4
0
VERTEX
8
OBJECT__27
10
0
20
0
30
0
70
128
71
1
72
6
73
7
0
VERTEX
8
OBJECT__27
10
0
20
0
30
0
70
128
71
1
72
8
73
6
0
VERTEX
8
OBJECT__27
10
0
20
0
30
0
70
128
71
7
72
2
73
1
0
VERTEX
8
OBJECT__27
10
0
20
0
30
0
70
128
71
7
72
9
73
2
0
VERTEX
8
OBJECT__27
10
0
20
0
30
0
70
128
71
3
72
10
73
1
0
SEQEND
8
OBJECT__27
0
POLYLINE
8
OBJECT__28
66
1
70
64
71
10
72
8
62
253
0
VERTEX
8
OBJECT__28
10
7.263000
20
0.000000
30
-50.807999
70
192
0
VERTEX
8
OBJECT__28
10
9.894000
20
0.000000
30
-53.418999
70
192
0
VERTEX
8
OBJECT__28
10
9.879000
20
-14.833000
30
-53.418999
70
192
0
VERTEX
8
OBJECT__28
10
9.789000
20
-34.019001
30
-53.418999
70
192
0
VERTEX
8
OBJECT__28
10
7.204000
20
-34.001999
30
-50.806999
70
192
0
VERTEX
8
OBJECT__28
10
7.291000
20
-15.900000
30
-50.807999
70
192
0
VERTEX
8
OBJECT__28
10
7.204000
20
34.001999
30
-50.806999
70
192
0
VERTEX
8
OBJECT__28
10
9.844000
20
24.129999
30
-53.418999
70
192
0
VERTEX
8
OBJECT__28
10
9.898000
20
4.353000
30
-53.418999
70
192
0
VERTEX
8
OBJECT__28
10
9.789000
20
34.019001
30
-53.418999
70
192
0
VERTEX
8
OBJECT__28
10
0
20
0
30
0
70
128
71
1
72
2
73
3
0
VERTEX
8
OBJECT__28
10
0
20
0
30
0
70
128
71
4
72
5
73
6
0
VERTEX
8
OBJECT__28
10
0
20
0
30
0
70
128
71
6
72
3
73
4
0
VERTEX
8
OBJECT__28
10
0
20
0
30
0
70
128
71
1
72
7
73
8
0
VERTEX
8
OBJECT__28
10
0
20
0
30
0
70
128
71
8
72
9
73
1
0
VERTEX
8
OBJECT__28
10
0
20
0
30
0
70
128
71
7
72
10
73
8
0
VERTEX
8
OBJECT__28
10
0
20
0
30
0
70
128
71
9
72
2
73
1
0
VERTEX
8
OBJECT__28
10
0
20
0
30
0
70
128
71
3
72
6
73
1
0
SEQEND
8
OBJECT__28
0
POLYLINE
8
OBJECT__29
66
1
70
64
71
14
72
12
62
253
0
VERTEX
8
OBJECT__29
10
9.780000
20
37.087002
30
-52.092999
70
192
0
VERTEX
8
OBJECT__29
10
9.779000
20
36.312000
30
-52.770000
70
192
0
VERTEX
8
OBJECT__29
10
7.207000
20
34.436001
30
-50.764000
70
192
0
VERTEX
8
OBJECT__29
10
9.783000
20
34.953999
30
-53.317001
70
192
0
VERTEX
8
OBJECT__29
10
9.789000
20
34.019001
30
-53.418999
70
192
0
VERTEX
8
OBJECT__29
10
7.204000
20
34.047001
30
-50.806999
70
192
0
VERTEX
8
OBJECT__29
10
7.204000
20
34.001999
30
-50.806999
70
192
0
VERTEX
8
OBJECT__29
10
7.218000
20
35.806999
30
-49.049000
70
192
0
VERTEX
8
OBJECT__29
10
7.219000
20
35.806999
30
-49.002998
70
192
0
VERTEX
8
OBJECT__29
10
8.511000
20
37.109001
30
-49.014999
70
192
0
VERTEX
8
OBJECT__29
10
9.789000
20
38.145000
30
-50.527000
70
192
0
VERTEX
8
OBJECT__29
10
9.781000
20
37.426998
30
-51.796001
70
192
0
VERTEX
8
OBJECT__29
10
7.212000
20
35.000000
30
-50.057999
70
192
0
VERTEX
8
OBJECT__29
10
9.804000
20
38.410999
30
-49.027000
70
192
0
VERTEX
8
OBJECT__29
10
0
20
0
30
0
70
128
71
1
72
2
73
3
0
VERTEX
8
OBJECT__29
10
0
20
0
30
0
70
128
71
4
72
5
73
6
0
VERTEX
8
OBJECT__29
10
0
20
0
30
0
70
128
71
3
72
2
73
4
0
VERTEX
8
OBJECT__29
10
0
20
0
30
0
70
128
71
5
72
7
73
6
0
VERTEX
8
OBJECT__29
10
0
20
0
30
0
70
128
71
6
72
3
73
4
0
VERTEX
8
OBJECT__29
10
0
20
0
30
0
70
128
71
8
72
9
73
10
0
VERTEX
8
OBJECT__29
10
0
20
0
30
0
70
128
71
10
72
11
73
8
0
VERTEX
8
OBJECT__29
10
0
20
0
30
0
70
128
71
12
72
13
73
8
0
VERTEX
8
OBJECT__29
10
0
20
0
30
0
70
128
71
8
72
11
73
12
0
VERTEX
8
OBJECT__29
10
0
20
0
30
0
70
128
71
12
72
1
73
13
0
VERTEX
8
OBJECT__29
10
0
20
0
30
0
70
128
71
10
72
14
73
11
0
VERTEX
8
OBJECT__29
10
0
20
0
30
0
70
128
71
3
72
13
73
1
0
SEQEND
8
OBJECT__29
0
POLYLINE
8
OBJECT__30
66
1
70
64
71
74
72
74
62
253
0
VERTEX
8
OBJECT__30
10
10.210000
20
-76.079002
30
5.154000
70
192
0
VERTEX
8
OBJECT__30
10
9.359000
20
-76.094002
30
94.401001
70
192
0
VERTEX
8
OBJECT__30
10
10.384000
20
-39.834999
30
49.026001
70
192
0
VERTEX
8
OBJECT__30
10
10.171000
20
-76.080002
30
0.000000
70
192
0
VERTEX
8
OBJECT__30
10
10.614000
20
-39.834999
30
0.345000
70
192
0
VERTEX
8
OBJECT__30
10
10.613000
20
-39.834999
30
0.007000
70
192
0
VERTEX
8
OBJECT__30
10
10.368000
20
-39.485001
30
51.020000
70
192
0
VERTEX
8
OBJECT__30
10
10.356000
20
-37.056999
30
53.991001
70
192
0
VERTEX
8
OBJECT__30
10
9.343000
20
-75.759003
30
95.568001
70
192
0
VERTEX
8
OBJECT__30
10
9.340000
20
-75.267998
30
96.120003
70
192
0
VERTEX
8
OBJECT__30
10
9.342000
20
-74.622002
30
96.476997
70
192
0
VERTEX
8
OBJECT__30
10
9.351000
20
-76.040001
30
94.886002
70
192
0
VERTEX
8
OBJECT__30
10
10.358000
20
-38.537998
30
52.696999
70
192
0
VERTEX
8
OBJECT__30
10
9.350000
20
-73.893997
30
96.600998
70
192
0
VERTEX
8
OBJECT__30
10
9.871000
20
-4.167000
30
96.592003
70
192
0
VERTEX
8
OBJECT__30
10
10.367000
20
-34.022999
30
54.847000
70
192
0
VERTEX
8
OBJECT__30
10
10.472000
20
0.000000
30
54.847000
70
192
0
VERTEX
8
OBJECT__30
10
10.476000
20
-4.354000
30
54.847000
70
192
0
VERTEX
8
OBJECT__30
10
9.859000
20
0.000000
30
96.592003
70
192
0
VERTEX
8
OBJECT__30
10
10.422000
20
-24.132999
30
54.847000
70
192
0
VERTEX
8
OBJECT__30
10
10.360000
20
-35.264000
30
54.713001
70
192
0
VERTEX
8
OBJECT__30
10
9.757000
20
-34.863998
30
-96.594002
70
192
0
VERTEX
8
OBJECT__30
10
10.368000
20
-34.015999
30
-54.847000
70
192
0
VERTEX
8
OBJECT__30
10
10.457000
20
-14.834000
30
-54.847000
70
192
0
VERTEX
8
OBJECT__30
10
9.860000
20
0.000000
30
-96.592003
70
192
0
VERTEX
8
OBJECT__30
10
10.358000
20
-36.001999
30
-54.499001
70
192
0
VERTEX
8
OBJECT__30
10
9.351000
20
-73.893997
30
-96.600998
70
192
0
VERTEX
8
OBJECT__30
10
10.356000
20
-37.680000
30
-53.553001
70
192
0
VERTEX
8
OBJECT__30
10
9.360000
20
-76.094002
30
-94.401001
70
192
0
VERTEX
8
OBJECT__30
10
9.536000
20
-76.091003
30
-84.088997
70
192
0
VERTEX
8
OBJECT__30
10
9.340000
20
-75.060997
30
-96.265999
70
192
0
VERTEX
8
OBJECT__30
10
9.341000
20
-75.612000
30
-95.775002
70
192
0
VERTEX
8
OBJECT__30
10
9.348000
20
-75.970001
30
-95.128998
70
192
0
VERTEX
8
OBJECT__30
10
9.345000
20
-74.377998
30
-96.546997
70
192
0
VERTEX
8
OBJECT__30
10
10.467000
20
-39.834999
30
-39.157001
70
192
0
VERTEX
8
OBJECT__30
10
10.384000
20
-39.834999
30
-49.026001
70
192
0
VERTEX
8
OBJECT__30
10
10.373000
20
-39.700001
30
-50.282001
70
192
0
VERTEX
8
OBJECT__30
10
10.361000
20
-38.976002
30
-52.074001
70
192
0
VERTEX
8
OBJECT__30
10
10.210000
20
76.079002
30
-5.154000
70
192
0
VERTEX
8
OBJECT__30
10
9.360000
20
76.094002
30
-94.401001
70
192
0
VERTEX
8
OBJECT__30
10
10.384000
20
39.834999
30
-49.026001
70
192
0
VERTEX
8
OBJECT__30
10
10.171000
20
76.080002
30
-0.001000
70
192
0
VERTEX
8
OBJECT__30
10
10.614000
20
39.834999
30
-0.345000
70
192
0
VERTEX
8
OBJECT__30
10
10.613000
20
39.834999
30
0.007000
70
192
0
VERTEX
8
OBJECT__30
10
10.368000
20
39.485001
30
-51.020000
70
192
0
VERTEX
8
OBJECT__30
10
10.356000
20
37.056999
30
-53.991001
70
192
0
VERTEX
8
OBJECT__30
10
9.343000
20
75.759003
30
-95.568001
70
192
0
VERTEX
8
OBJECT__30
10
9.340000
20
75.267998
30
-96.120003
70
192
0
VERTEX
8
OBJECT__30
10
9.343000
20
74.622002
30
-96.476997
70
192
0
VERTEX
8
OBJECT__30
10
9.352000
20
76.040001
30
-94.886002
70
192
0
VERTEX
8
OBJECT__30
10
10.358000
20
38.537998
30
-52.696999
70
192
0
VERTEX
8
OBJECT__30
10
9.351000
20
73.893997
30
-96.600998
70
192
0
VERTEX
8
OBJECT__30
10
9.872000
20
4.167000
30
-96.592003
70
192
0
VERTEX
8
OBJECT__30
10
10.367000
20
34.022999
30
-54.847000
70
192
0
VERTEX
8
OBJECT__30
10
10.472000
20
0.000000
30
-54.847000
70
192
0
VERTEX
8
OBJECT__30
10
10.476000
20
4.354000
30
-54.847000
70
192
0
VERTEX
8
OBJECT__30
10
10.423000
20
24.132999
30
-54.847000
70
192
0
VERTEX
8
OBJECT__30
10
10.361000
20
35.264000
30
-54.713001
70
192
0
VERTEX
8
OBJECT__30
10
9.757000
20
34.863998
30
96.594002
70
192
0
VERTEX
8
OBJECT__30
10
10.367000
20
34.015999
30
54.847000
70
192
0
VERTEX
8
OBJECT__30
10
10.457000
20
14.834000
30
54.847000
70
192
0
VERTEX
8
OBJECT__30
10
10.358000
20
36.001999
30
54.499001
70
192
0
VERTEX
8
OBJECT__30
10
9.350000
20
73.893997
30
96.600998
70
192
0
VERTEX
8
OBJECT__30
10
10.356000
20
37.680000
30
53.553001
70
192
0
VERTEX
8
OBJECT__30
10
9.359000
20
76.094002
30
94.401001
70
192
0
VERTEX
8
OBJECT__30
10
9.535000
20
76.091003
30
84.088997
70
192
0
VERTEX
8
OBJECT__30
10
9.340000
20
75.060997
30
96.266998
70
192
0
VERTEX
8
OBJECT__30
10
9.341000
20
75.612000
30
95.775002
70
192
0
VERTEX
8
OBJECT__30
10
9.348000
20
75.970001
30
95.128998
70
192
0
VERTEX
8
OBJECT__30
10
9.345000
20
74.377998
30
96.546997
70
192
0
VERTEX
8
OBJECT__30
10
10.467000
20
39.834999
30
39.157001
70
192
0
VERTEX
8
OBJECT__30
10
10.384000
20
39.834999
30
49.033001
70
192
0
VERTEX
8
OBJECT__30
10
10.373000
20
39.700001
30
50.282001
70
192
0
VERTEX
8
OBJECT__30
10
10.361000
20
38.976002
30
52.074001
70
192
0
VERTEX
8
OBJECT__30
10
0
20
0
30
0
70
128
71
1
72
2
73
3
0
VERTEX
8
OBJECT__30
10
0
20
0
30
0
70
128
71
4
72
1
73
5
0
VERTEX
8
OBJECT__30
10
0
20
0
30
0
70
128
71
5
72
6
73
4
0
VERTEX
8
OBJECT__30
10
0
20
0
30
0
70
128
71
2
72
7
73
3
0
VERTEX
8
OBJECT__30
10
0
20
0
30
0
70
128
71
8
72
9
73
10
0
VERTEX
8
OBJECT__30
10
0
20
0
30
0
70
128
71
10
72
11
73
8
0
VERTEX
8
OBJECT__30
10
0
20
0
30
0
70
128
71
8
72
12
73
9
0
VERTEX
8
OBJECT__30
10
0
20
0
30
0
70
128
71
8
72
13
73
2
0
VERTEX
8
OBJECT__30
10
0
20
0
30
0
70
128
71
2
72
12
73
8
0
VERTEX
8
OBJECT__30
10
0
20
0
30
0
70
128
71
14
72
15
73
16
0
VERTEX
8
OBJECT__30
10
0
20
0
30
0
70
128
71
17
72
18
73
15
0
VERTEX
8
OBJECT__30
10
0
20
0
30
0
70
128
71
15
72
19
73
17
0
VERTEX
8
OBJECT__30
10
0
20
0
30
0
70
128
71
18
72
20
73
15
0
VERTEX
8
OBJECT__30
10
0
20
0
30
0
70
128
71
20
72
16
73
15
0
VERTEX
8
OBJECT__30
10
0
20
0
30
0
70
128
71
16
72
21
73
14
0
VERTEX
8
OBJECT__30
10
0
20
0
30
0
70
128
71
21
72
8
73
14
0
VERTEX
8
OBJECT__30
10
0
20
0
30
0
70
128
71
11
72
14
73
8
0
VERTEX
8
OBJECT__30
10
0
20
0
30
0
70
128
71
13
72
7
73
2
0
VERTEX
8
OBJECT__30
10
0
20
0
30
0
70
128
71
22
72
23
73
24
0
VERTEX
8
OBJECT__30
10
0
20
0
30
0
70
128
71
24
72
25
73
22
0
VERTEX
8
OBJECT__30
10
0
20
0
30
0
70
128
71
22
72
26
73
23
0
VERTEX
8
OBJECT__30
10
0
20
0
30
0
70
128
71
27
72
28
73
26
0
VERTEX
8
OBJECT__30
10
0
20
0
30
0
70
128
71
28
72
29
73
30
0
VERTEX
8
OBJECT__30
10
0
20
0
30
0
70
128
71
28
72
31
73
32
0
VERTEX
8
OBJECT__30
10
0
20
0
30
0
70
128
71
32
72
33
73
28
0
VERTEX
8
OBJECT__30
10
0
20
0
30
0
70
128
71
28
72
34
73
31
0
VERTEX
8
OBJECT__30
10
0
20
0
30
0
70
128
71
28
72
27
73
34
0
VERTEX
8
OBJECT__30
10
0
20
0
30
0
70
128
71
33
72
29
73
28
0
VERTEX
8
OBJECT__30
10
0
20
0
30
0
70
128
71
30
72
4
73
35
0
VERTEX
8
OBJECT__30
10
0
20
0
30
0
70
128
71
4
72
6
73
35
0
VERTEX
8
OBJECT__30
10
0
20
0
30
0
70
128
71
35
72
36
73
30
0
VERTEX
8
OBJECT__30
10
0
20
0
30
0
70
128
71
36
72
37
73
30
0
VERTEX
8
OBJECT__30
10
0
20
0
30
0
70
128
71
37
72
38
73
30
0
VERTEX
8
OBJECT__30
10
0
20
0
30
0
70
128
71
30
72
38
73
28
0
VERTEX
8
OBJECT__30
10
0
20
0
30
0
70
128
71
26
72
22
73
27
0
VERTEX
8
OBJECT__30
10
0
20
0
30
0
70
128
71
39
72
40
73
41
0
VERTEX
8
OBJECT__30
10
0
20
0
30
0
70
128
71
42
72
39
73
43
0
VERTEX
8
OBJECT__30
10
0
20
0
30
0
70
128
71
43
72
44
73
42
0
VERTEX
8
OBJECT__30
10
0
20
0
30
0
70
128
71
40
72
45
73
41
0
VERTEX
8
OBJECT__30
10
0
20
0
30
0
70
128
71
46
72
47
73
48
0
VERTEX
8
OBJECT__30
10
0
20
0
30
0
70
128
71
48
72
49
73
46
0
VERTEX
8
OBJECT__30
10
0
20
0
30
0
70
128
71
46
72
50
73
47
0
VERTEX
8
OBJECT__30
10
0
20
0
30
0
70
128
71
46
72
51
73
40
0
VERTEX
8
OBJECT__30
10
0
20
0
30
0
70
128
71
40
72
50
73
46
0
VERTEX
8
OBJECT__30
10
0
20
0
30
0
70
128
71
52
72
53
73
54
0
VERTEX
8
OBJECT__30
10
0
20
0
30
0
70
128
71
55
72
56
73
53
0
VERTEX
8
OBJECT__30
10
0
20
0
30
0
70
128
71
53
72
25
73
55
0
VERTEX
8
OBJECT__30
10
0
20
0
30
0
70
128
71
56
72
57
73
53
0
VERTEX
8
OBJECT__30
10
0
20
0
30
0
70
128
71
57
72
54
73
53
0
VERTEX
8
OBJECT__30
10
0
20
0
30
0
70
128
71
54
72
58
73
52
0
VERTEX
8
OBJECT__30
10
0
20
0
30
0
70
128
71
58
72
46
73
52
0
VERTEX
8
OBJECT__30
10
0
20
0
30
0
70
128
71
49
72
52
73
46
0
VERTEX
8
OBJECT__30
10
0
20
0
30
0
70
128
71
51
72
45
73
40
0
VERTEX
8
OBJECT__30
10
0
20
0
30
0
70
128
71
59
72
60
73
61
0
VERTEX
8
OBJECT__30
10
0
20
0
30
0
70
128
71
61
72
19
73
59
0
VERTEX
8
OBJECT__30
10
0
20
0
30
0
70
128
71
59
72
62
73
60
0
VERTEX
8
OBJECT__30
10
0
20
0
30
0
70
128
71
63
72
64
73
62
0
VERTEX
8
OBJECT__30
10
0
20
0
30
0
70
128
71
64
72
65
73
66
0
VERTEX
8
OBJECT__30
10
0
20
0
30
0
70
128
71
64
72
67
73
68
0
VERTEX
8
OBJECT__30
10
0
20
0
30
0
70
128
71
68
72
69
73
64
0
VERTEX
8
OBJECT__30
10
0
20
0
30
0
70
128
71
64
72
70
73
67
0
VERTEX
8
OBJECT__30
10
0
20
0
30
0
70
128
71
64
72
63
73
70
0
VERTEX
8
OBJECT__30
10
0
20
0
30
0
70
128
71
69
72
65
73
64
0
VERTEX
8
OBJECT__30
10
0
20
0
30
0
70
128
71
66
72
42
73
71
0
VERTEX
8
OBJECT__30
10
0
20
0
30
0
70
128
71
42
72
44
73
71
0
VERTEX
8
OBJECT__30
10
0
20
0
30
0
70
128
71
71
72
72
73
66
0
VERTEX
8
OBJECT__30
10
0
20
0
30
0
70
128
71
72
72
73
73
66
0
VERTEX
8
OBJECT__30
10
0
20
0
30
0
70
128
71
73
72
74
73
66
0
VERTEX
8
OBJECT__30
10
0
20
0
30
0
70
128
71
66
72
74
73
64
0
VERTEX
8
OBJECT__30
10
0
20
0
30
0
70
128
71
62
72
59
73
63
0
VERTEX
8
OBJECT__30
10
0
20
0
30
0
70
128
71
61
72
17
73
19
0
VERTEX
8
OBJECT__30
10
0
20
0
30
0
70
128
71
41
72
43
73
39
0
VERTEX
8
OBJECT__30
10
0
20
0
30
0
70
128
71
24
72
55
73
25
0
VERTEX
8
OBJECT__30
10
0
20
0
30
0
70
128
71
3
72
5
73
1
0
SEQEND
8
OBJECT__30
0
POLYLINE
8
OBJECT__31
66
1
70
64
71
9
72
7
62
253
0
VERTEX
8
OBJECT__31
10
10.210000
20
-76.079002
30
5.154000
70
192
0
VERTEX
8
OBJECT__31
10
8.441000
20
-77.852997
30
5.152000
70
192
0
VERTEX
8
OBJECT__31
10
7.591000
20
-77.866997
30
94.367996
70
192
0
VERTEX
8
OBJECT__31
10
7.767000
20
-77.863998
30
-84.059998
70
192
0
VERTEX
8
OBJECT__31
10
10.171000
20
-76.080002
30
0.000000
70
192
0
VERTEX
8
OBJECT__31
10
9.536000
20
-76.091003
30
-84.088997
70
192
0
VERTEX
8
OBJECT__31
10
9.360000
20
-76.094002
30
-94.401001
70
192
0
VERTEX
8
OBJECT__31
10
7.591000
20
-77.866997
30
-94.367996
70
192
0
VERTEX
8
OBJECT__31
10
9.359000
20
-76.094002
30
94.401001
70
192
0
VERTEX
8
OBJECT__31
10
0
20
0
30
0
70
128
71
1
72
2
73
3
0
VERTEX
8
OBJECT__31
10
0
20
0
30
0
70
128
71
4
72
2
73
5
0
VERTEX
8
OBJECT__31
10
0
20
0
30
0
70
128
71
2
72
1
73
5
0
VERTEX
8
OBJECT__31
10
0
20
0
30
0
70
128
71
6
72
7
73
8
0
VERTEX
8
OBJECT__31
10
0
20
0
30
0
70
128
71
8
72
4
73
6
0
VERTEX
8
OBJECT__31
10
0
20
0
30
0
70
128
71
5
72
6
73
4
0
VERTEX
8
OBJECT__31
10
0
20
0
30
0
70
128
71
3
72
9
73
1
0
SEQEND
8
OBJECT__31
0
POLYLINE
8
OBJECT__32
66
1
70
64
71
13
72
11
62
253
0
VERTEX
8
OBJECT__32
10
7.591000
20
-77.866997
30
-94.367996
70
192
0
VERTEX
8
OBJECT__32
10
9.360000
20
-76.094002
30
-94.401001
70
192
0
VERTEX
8
OBJECT__32
10
9.348000
20
-75.970001
30
-95.128998
70
192
0
VERTEX
8
OBJECT__32
10
7.589000
20
-77.641998
30
-95.692001
70
192
0
VERTEX
8
OBJECT__32
10
9.341000
20
-75.612000
30
-95.775002
70
192
0
VERTEX
8
OBJECT__32
10
7.585000
20
-76.663002
30
-97.158997
70
192
0
VERTEX
8
OBJECT__32
10
9.340000
20
-75.060997
30
-96.265999
70
192
0
VERTEX
8
OBJECT__32
10
7.584000
20
-75.988998
30
-97.759003
70
192
0
VERTEX
8
OBJECT__32
10
7.583000
20
-74.749001
30
-98.269997
70
192
0
VERTEX
8
OBJECT__32
10
7.583000
20
-73.867996
30
-98.367996
70
192
0
VERTEX
8
OBJECT__32
10
9.345000
20
-74.377998
30
-96.546997
70
192
0
VERTEX
8
OBJECT__32
10
9.351000
20
-73.893997
30
-96.600998
70
192
0
VERTEX
8
OBJECT__32
10
7.586000
20
-76.991997
30
-96.865997
70
192
0
VERTEX
8
OBJECT__32
10
0
20
0
30
0
70
128
71
1
72
2
73
3
0
VERTEX
8
OBJECT__32
10
0
20
0
30
0
70
128
71
4
72
3
73
5
0
VERTEX
8
OBJECT__32
10
0
20
0
30
0
70
128
71
6
72
5
73
7
0
VERTEX
8
OBJECT__32
10
0
20
0
30
0
70
128
71
7
72
8
73
6
0
VERTEX
8
OBJECT__32
10
0
20
0
30
0
70
128
71
9
72
8
73
7
0
VERTEX
8
OBJECT__32
10
0
20
0
30
0
70
128
71
10
72
9
73
11
0
VERTEX
8
OBJECT__32
10
0
20
0
30
0
70
128
71
11
72
12
73
10
0
VERTEX
8
OBJECT__32
10
0
20
0
30
0
70
128
71
7
72
11
73
9
0
VERTEX
8
OBJECT__32
10
0
20
0
30
0
70
128
71
6
72
13
73
5
0
VERTEX
8
OBJECT__32
10
0
20
0
30
0
70
128
71
5
72
13
73
4
0
VERTEX
8
OBJECT__32
10
0
20
0
30
0
70
128
71
3
72
4
73
1
0
SEQEND
8
OBJECT__32
0
POLYLINE
8
OBJECT__33
66
1
70
64
71
13
72
11
62
253
0
VERTEX
8
OBJECT__33
10
7.582000
20
-73.867996
30
98.367996
70
192
0
VERTEX
8
OBJECT__33
10
9.350000
20
-73.893997
30
96.600998
70
192
0
VERTEX
8
OBJECT__33
10
9.342000
20
-74.622002
30
96.476997
70
192
0
VERTEX
8
OBJECT__33
10
7.583000
20
-75.191002
30
98.141998
70
192
0
VERTEX
8
OBJECT__33
10
9.340000
20
-75.267998
30
96.120003
70
192
0
VERTEX
8
OBJECT__33
10
7.585000
20
-76.658997
30
97.163002
70
192
0
VERTEX
8
OBJECT__33
10
9.343000
20
-75.759003
30
95.568001
70
192
0
VERTEX
8
OBJECT__33
10
7.587000
20
-77.258003
30
96.489998
70
192
0
VERTEX
8
OBJECT__33
10
7.589000
20
-77.768997
30
95.250000
70
192
0
VERTEX
8
OBJECT__33
10
7.591000
20
-77.866997
30
94.367996
70
192
0
VERTEX
8
OBJECT__33
10
9.351000
20
-76.040001
30
94.886002
70
192
0
VERTEX
8
OBJECT__33
10
9.359000
20
-76.094002
30
94.401001
70
192
0
VERTEX
8
OBJECT__33
10
7.584000
20
-76.365997
30
97.491997
70
192
0
VERTEX
8
OBJECT__33
10
0
20
0
30
0
70
128
71
1
72
2
73
3
0
VERTEX
8
OBJECT__33
10
0
20
0
30
0
70
128
71
4
72
3
73
5
0
VERTEX
8
OBJECT__33
10
0
20
0
30
0
70
128
71
6
72
5
73
7
0
VERTEX
8
OBJECT__33
10
0
20
0
30
0
70
128
71
7
72
8
73
6
0
VERTEX
8
OBJECT__33
10
0
20
0
30
0
70
128
71
9
72
8
73
7
0
VERTEX
8
OBJECT__33
10
0
20
0
30
0
70
128
71
10
72
9
73
11
0
VERTEX
8
OBJECT__33
10
0
20
0
30
0
70
128
71
11
72
12
73
10
0
VERTEX
8
OBJECT__33
10
0
20
0
30
0
70
128
71
7
72
11
73
9
0
VERTEX
8
OBJECT__33
10
0
20
0
30
0
70
128
71
6
72
13
73
5
0
VERTEX
8
OBJECT__33
10
0
20
0
30
0
70
128
71
5
72
13
73
4
0
VERTEX
8
OBJECT__33
10
0
20
0
30
0
70
128
71
3
72
4
73
1
0
SEQEND
8
OBJECT__33
0
POLYLINE
8
OBJECT__34
66
1
70
64
71
9
72
7
62
253
0
VERTEX
8
OBJECT__34
10
9.351000
20
-73.893997
30
-96.600998
70
192
0
VERTEX
8
OBJECT__34
10
9.757000
20
-34.863998
30
-96.594002
70
192
0
VERTEX
8
OBJECT__34
10
7.989000
20
-34.852001
30
-98.361000
70
192
0
VERTEX
8
OBJECT__34
10
9.860000
20
0.000000
30
-96.592003
70
192
0
VERTEX
8
OBJECT__34
10
8.104000
20
4.166000
30
-98.359001
70
192
0
VERTEX
8
OBJECT__34
10
9.351000
20
73.893997
30
-96.600998
70
192
0
VERTEX
8
OBJECT__34
10
7.583000
20
73.867996
30
-98.367996
70
192
0
VERTEX
8
OBJECT__34
10
9.872000
20
4.167000
30
-96.592003
70
192
0
VERTEX
8
OBJECT__34
10
7.583000
20
-73.867996
30
-98.367996
70
192
0
VERTEX
8
OBJECT__34
10
0
20
0
30
0
70
128
71
1
72
2
73
3
0
VERTEX
8
OBJECT__34
10
0
20
0
30
0
70
128
71
3
72
2
73
4
0
VERTEX
8
OBJECT__34
10
0
20
0
30
0
70
128
71
4
72
5
73
3
0
VERTEX
8
OBJECT__34
10
0
20
0
30
0
70
128
71
6
72
7
73
5
0
VERTEX
8
OBJECT__34
10
0
20
0
30
0
70
128
71
5
72
8
73
6
0
VERTEX
8
OBJECT__34
10
0
20
0
30
0
70
128
71
4
72
8
73
5
0
VERTEX
8
OBJECT__34
10
0
20
0
30
0
70
128
71
3
72
9
73
1
0
SEQEND
8
OBJECT__34
0
POLYLINE
8
OBJECT__35
66
1
70
64
71
9
72
7
62
253
0
VERTEX
8
OBJECT__35
10
9.350000
20
73.893997
30
96.600998
70
192
0
VERTEX
8
OBJECT__35
10
9.757000
20
34.863998
30
96.594002
70
192
0
VERTEX
8
OBJECT__35
10
7.989000
20
34.852001
30
98.361000
70
192
0
VERTEX
8
OBJECT__35
10
9.859000
20
0.000000
30
96.592003
70
192
0
VERTEX
8
OBJECT__35
10
8.103000
20
-4.166000
30
98.359001
70
192
0
VERTEX
8
OBJECT__35
10
9.350000
20
-73.893997
30
96.600998
70
192
0
VERTEX
8
OBJECT__35
10
7.582000
20
-73.867996
30
98.367996
70
192
0
VERTEX
8
OBJECT__35
10
9.871000
20
-4.167000
30
96.592003
70
192
0
VERTEX
8
OBJECT__35
10
7.582000
20
73.867996
30
98.367996
70
192
0
VERTEX
8
OBJECT__35
10
0
20
0
30
0
70
128
71
1
72
2
73
3
0
VERTEX
8
OBJECT__35
10
0
20
0
30
0
70
128
71
3
72
2
73
4
0
VERTEX
8
OBJECT__35
10
0
20
0
30
0
70
128
71
4
72
5
73
3
0
VERTEX
8
OBJECT__35
10
0
20
0
30
0
70
128
71
6
72
7
73
5
0
VERTEX
8
OBJECT__35
10
0
20
0
30
0
70
128
71
5
72
8
73
6
0
VERTEX
8
OBJECT__35
10
0
20
0
30
0
70
128
71
4
72
8
73
5
0
VERTEX
8
OBJECT__35
10
0
20
0
30
0
70
128
71
3
72
9
73
1
0
SEQEND
8
OBJECT__35
0
POLYLINE
8
OBJECT__36
66
1
70
64
71
13
72
11
62
253
0
VERTEX
8
OBJECT__36
10
7.583000
20
73.867996
30
-98.367996
70
192
0
VERTEX
8
OBJECT__36
10
9.351000
20
73.893997
30
-96.600998
70
192
0
VERTEX
8
OBJECT__36
10
9.343000
20
74.622002
30
-96.476997
70
192
0
VERTEX
8
OBJECT__36
10
7.583000
20
75.191002
30
-98.141998
70
192
0
VERTEX
8
OBJECT__36
10
9.340000
20
75.267998
30
-96.120003
70
192
0
VERTEX
8
OBJECT__36
10
7.585000
20
76.658997
30
-97.163002
70
192
0
VERTEX
8
OBJECT__36
10
9.343000
20
75.759003
30
-95.568001
70
192
0
VERTEX
8
OBJECT__36
10
7.587000
20
77.258003
30
-96.489998
70
192
0
VERTEX
8
OBJECT__36
10
7.590000
20
77.768997
30
-95.250000
70
192
0
VERTEX
8
OBJECT__36
10
7.591000
20
77.866997
30
-94.367996
70
192
0
VERTEX
8
OBJECT__36
10
9.352000
20
76.040001
30
-94.886002
70
192
0
VERTEX
8
OBJECT__36
10
9.360000
20
76.094002
30
-94.401001
70
192
0
VERTEX
8
OBJECT__36
10
7.585000
20
76.365997
30
-97.491997
70
192
0
VERTEX
8
OBJECT__36
10
0
20
0
30
0
70
128
71
1
72
2
73
3
0
VERTEX
8
OBJECT__36
10
0
20
0
30
0
70
128
71
4
72
3
73
5
0
VERTEX
8
OBJECT__36
10
0
20
0
30
0
70
128
71
6
72
5
73
7
0
VERTEX
8
OBJECT__36
10
0
20
0
30
0
70
128
71
7
72
8
73
6
0
VERTEX
8
OBJECT__36
10
0
20
0
30
0
70
128
71
9
72
8
73
7
0
VERTEX
8
OBJECT__36
10
0
20
0
30
0
70
128
71
10
72
9
73
11
0
VERTEX
8
OBJECT__36
10
0
20
0
30
0
70
128
71
11
72
12
73
10
0
VERTEX
8
OBJECT__36
10
0
20
0
30
0
70
128
71
7
72
11
73
9
0
VERTEX
8
OBJECT__36
10
0
20
0
30
0
70
128
71
6
72
13
73
5
0
VERTEX
8
OBJECT__36
10
0
20
0
30
0
70
128
71
5
72
13
73
4
0
VERTEX
8
OBJECT__36
10
0
20
0
30
0
70
128
71
3
72
4
73
1
0
SEQEND
8
OBJECT__36
0
POLYLINE
8
OBJECT__37
66
1
70
64
71
13
72
11
62
253
0
VERTEX
8
OBJECT__37
10
7.591000
20
77.866997
30
94.367996
70
192
0
VERTEX
8
OBJECT__37
10
9.359000
20
76.094002
30
94.401001
70
192
0
VERTEX
8
OBJECT__37
10
9.348000
20
75.970001
30
95.128998
70
192
0
VERTEX
8
OBJECT__37
10
7.588000
20
77.641998
30
95.692001
70
192
0
VERTEX
8
OBJECT__37
10
9.341000
20
75.612000
30
95.775002
70
192
0
VERTEX
8
OBJECT__37
10
7.585000
20
76.663002
30
97.158997
70
192
0
VERTEX
8
OBJECT__37
10
9.340000
20
75.060997
30
96.266998
70
192
0
VERTEX
8
OBJECT__37
10
7.584000
20
75.988998
30
97.759003
70
192
0
VERTEX
8
OBJECT__37
10
7.583000
20
74.749001
30
98.269997
70
192
0
VERTEX
8
OBJECT__37
10
7.582000
20
73.867996
30
98.367996
70
192
0
VERTEX
8
OBJECT__37
10
9.345000
20
74.377998
30
96.546997
70
192
0
VERTEX
8
OBJECT__37
10
9.350000
20
73.893997
30
96.600998
70
192
0
VERTEX
8
OBJECT__37
10
7.586000
20
76.991997
30
96.865997
70
192
0
VERTEX
8
OBJECT__37
10
0
20
0
30
0
70
128
71
1
72
2
73
3
0
VERTEX
8
OBJECT__37
10
0
20
0
30
0
70
128
71
4
72
3
73
5
0
VERTEX
8
OBJECT__37
10
0
20
0
30
0
70
128
71
6
72
5
73
7
0
VERTEX
8
OBJECT__37
10
0
20
0
30
0
70
128
71
7
72
8
73
6
0
VERTEX
8
OBJECT__37
10
0
20
0
30
0
70
128
71
9
72
8
73
7
0
VERTEX
8
OBJECT__37
10
0
20
0
30
0
70
128
71
10
72
9
73
11
0
VERTEX
8
OBJECT__37
10
0
20
0
30
0
70
128
71
11
72
12
73
10
0
VERTEX
8
OBJECT__37
10
0
20
0
30
0
70
128
71
7
72
11
73
9
0
VERTEX
8
OBJECT__37
10
0
20
0
30
0
70
128
71
6
72
13
73
5
0
VERTEX
8
OBJECT__37
10
0
20
0
30
0
70
128
71
5
72
13
73
4
0
VERTEX
8
OBJECT__37
10
0
20
0
30
0
70
128
71
3
72
4
73
1
0
SEQEND
8
OBJECT__37
0
POLYLINE
8
OBJECT__38
66
1
70
64
71
9
72
7
62
253
0
VERTEX
8
OBJECT__38
10
9.360000
20
76.094002
30
-94.401001
70
192
0
VERTEX
8
OBJECT__38
10
10.210000
20
76.079002
30
-5.154000
70
192
0
VERTEX
8
OBJECT__38
10
8.441000
20
77.852997
30
-5.152000
70
192
0
VERTEX
8
OBJECT__38
10
7.767000
20
77.863998
30
84.059998
70
192
0
VERTEX
8
OBJECT__38
10
10.171000
20
76.080002
30
-0.001000
70
192
0
VERTEX
8
OBJECT__38
10
9.359000
20
76.094002
30
94.401001
70
192
0
VERTEX
8
OBJECT__38
10
7.591000
20
77.866997
30
94.367996
70
192
0
VERTEX
8
OBJECT__38
10
9.535000
20
76.091003
30
84.088997
70
192
0
VERTEX
8
OBJECT__38
10
7.591000
20
77.866997
30
-94.367996
70
192
0
VERTEX
8
OBJECT__38
10
0
20
0
30
0
70
128
71
1
72
2
73
3
0
VERTEX
8
OBJECT__38
10
0
20
0
30
0
70
128
71
4
72
3
73
5
0
VERTEX
8
OBJECT__38
10
0
20
0
30
0
70
128
71
3
72
2
73
5
0
VERTEX
8
OBJECT__38
10
0
20
0
30
0
70
128
71
6
72
7
73
4
0
VERTEX
8
OBJECT__38
10
0
20
0
30
0
70
128
71
4
72
8
73
6
0
VERTEX
8
OBJECT__38
10
0
20
0
30
0
70
128
71
5
72
8
73
4
0
VERTEX
8
OBJECT__38
10
0
20
0
30
0
70
128
71
3
72
9
73
1
0
SEQEND
8
OBJECT__38
0
POLYLINE
8
OBJECT__39
66
1
70
64
71
11
72
9
62
253
0
VERTEX
8
OBJECT__39
10
0.000000
20
-76.378998
30
-97.042000
70
192
0
VERTEX
8
OBJECT__39
10
0.000000
20
-78.000000
30
-94.500999
70
192
0
VERTEX
8
OBJECT__39
10
7.589000
20
-77.641998
30
-95.692001
70
192
0
VERTEX
8
OBJECT__39
10
7.591000
20
-77.866997
30
-94.367996
70
192
0
VERTEX
8
OBJECT__39
10
7.586000
20
-76.991997
30
-96.865997
70
192
0
VERTEX
8
OBJECT__39
10
0.000000
20
-75.688004
30
-98.126999
70
192
0
VERTEX
8
OBJECT__39
10
7.584000
20
-75.988998
30
-97.759003
70
192
0
VERTEX
8
OBJECT__39
10
7.583000
20
-74.749001
30
-98.269997
70
192
0
VERTEX
8
OBJECT__39
10
0.000000
20
-74.000999
30
-98.500000
70
192
0
VERTEX
8
OBJECT__39
10
7.585000
20
-76.663002
30
-97.158997
70
192
0
VERTEX
8
OBJECT__39
10
7.583000
20
-73.867996
30
-98.367996
70
192
0
VERTEX
8
OBJECT__39
10
0
20
0
30
0
70
128
71
1
72
2
73
3
0
VERTEX
8
OBJECT__39
10
0
20
0
30
0
70
128
71
2
72
4
73
3
0
VERTEX
8
OBJECT__39
10
0
20
0
30
0
70
128
71
3
72
5
73
1
0
VERTEX
8
OBJECT__39
10
0
20
0
30
0
70
128
71
6
72
7
73
8
0
VERTEX
8
OBJECT__39
10
0
20
0
30
0
70
128
71
8
72
9
73
6
0
VERTEX
8
OBJECT__39
10
0
20
0
30
0
70
128
71
1
72
10
73
7
0
VERTEX
8
OBJECT__39
10
0
20
0
30
0
70
128
71
7
72
6
73
1
0
VERTEX
8
OBJECT__39
10
0
20
0
30
0
70
128
71
8
72
11
73
9
0
VERTEX
8
OBJECT__39
10
0
20
0
30
0
70
128
71
5
72
10
73
1
0
SEQEND
8
OBJECT__39
0
POLYLINE
8
OBJECT__40
66
1
70
64
71
16
72
14
62
253
0
VERTEX
8
OBJECT__40
10
0.000000
20
-76.378998
30
-97.042000
70
192
0
VERTEX
8
OBJECT__40
10
0.000000
20
74.000999
30
98.500000
70
192
0
VERTEX
8
OBJECT__40
10
0.000000
20
-74.000999
30
98.500000
70
192
0
VERTEX
8
OBJECT__40
10
0.000000
20
76.378998
30
97.042000
70
192
0
VERTEX
8
OBJECT__40
10
0.000000
20
75.688004
30
98.126999
70
192
0
VERTEX
8
OBJECT__40
10
0.000000
20
78.000000
30
94.500999
70
192
0
VERTEX
8
OBJECT__40
10
0.000000
20
-74.000999
30
-98.500000
70
192
0
VERTEX
8
OBJECT__40
10
0.000000
20
74.000999
30
-98.500000
70
192
0
VERTEX
8
OBJECT__40
10
0.000000
20
-75.688004
30
-98.126999
70
192
0
VERTEX
8
OBJECT__40
10
0.000000
20
-76.542000
30
96.878998
70
192
0
VERTEX
8
OBJECT__40
10
0.000000
20
-78.000000
30
94.500999
70
192
0
VERTEX
8
OBJECT__40
10
0.000000
20
76.542000
30
-96.878998
70
192
0
VERTEX
8
OBJECT__40
10
0.000000
20
77.626999
30
-96.188004
70
192
0
VERTEX
8
OBJECT__40
10
0.000000
20
78.000000
30
-94.500999
70
192
0
VERTEX
8
OBJECT__40
10
0.000000
20
-77.626999
30
96.188004
70
192
0
VERTEX
8
OBJECT__40
10
0.000000
20
-78.000000
30
-94.500999
70
192
0
VERTEX
8
OBJECT__40
10
0
20
0
30
0
70
128
71
1
72
2
73
3
0
VERTEX
8
OBJECT__40
10
0
20
0
30
0
70
128
71
1
72
4
73
5
0
VERTEX
8
OBJECT__40
10
0
20
0
30
0
70
128
71
6
72
7
73
8
0
VERTEX
8
OBJECT__40
10
0
20
0
30
0
70
128
71
6
72
1
73
9
0
VERTEX
8
OBJECT__40
10
0
20
0
30
0
70
128
71
1
72
10
73
11
0
VERTEX
8
OBJECT__40
10
0
20
0
30
0
70
128
71
5
72
2
73
1
0
VERTEX
8
OBJECT__40
10
0
20
0
30
0
70
128
71
12
72
13
73
14
0
VERTEX
8
OBJECT__40
10
0
20
0
30
0
70
128
71
9
72
7
73
6
0
VERTEX
8
OBJECT__40
10
0
20
0
30
0
70
128
71
10
72
15
73
11
0
VERTEX
8
OBJECT__40
10
0
20
0
30
0
70
128
71
1
72
6
73
4
0
VERTEX
8
OBJECT__40
10
0
20
0
30
0
70
128
71
8
72
12
73
6
0
VERTEX
8
OBJECT__40
10
0
20
0
30
0
70
128
71
3
72
10
73
1
0
VERTEX
8
OBJECT__40
10
0
20
0
30
0
70
128
71
11
72
16
73
1
0
VERTEX
8
OBJECT__40
10
0
20
0
30
0
70
128
71
14
72
6
73
12
0
SEQEND
8
OBJECT__40
0
POLYLINE
8
OBJECT__41
66
1
70
64
71
11
72
9
62
253
0
VERTEX
8
OBJECT__41
10
0.000000
20
76.542000
30
-96.878998
70
192
0
VERTEX
8
OBJECT__41
10
0.000000
20
74.000999
30
-98.500000
70
192
0
VERTEX
8
OBJECT__41
10
7.583000
20
75.191002
30
-98.141998
70
192
0
VERTEX
8
OBJECT__41
10
7.583000
20
73.867996
30
-98.367996
70
192
0
VERTEX
8
OBJECT__41
10
7.585000
20
76.365997
30
-97.491997
70
192
0
VERTEX
8
OBJECT__41
10
0.000000
20
77.626999
30
-96.188004
70
192
0
VERTEX
8
OBJECT__41
10
7.587000
20
77.258003
30
-96.489998
70
192
0
VERTEX
8
OBJECT__41
10
7.590000
20
77.768997
30
-95.250000
70
192
0
VERTEX
8
OBJECT__41
10
0.000000
20
78.000000
30
-94.500999
70
192
0
VERTEX
8
OBJECT__41
10
7.585000
20
76.658997
30
-97.163002
70
192
0
VERTEX
8
OBJECT__41
10
7.591000
20
77.866997
30
-94.367996
70
192
0
VERTEX
8
OBJECT__41
10
0
20
0
30
0
70
128
71
1
72
2
73
3
0
VERTEX
8
OBJECT__41
10
0
20
0
30
0
70
128
71
2
72
4
73
3
0
VERTEX
8
OBJECT__41
10
0
20
0
30
0
70
128
71
3
72
5
73
1
0
VERTEX
8
OBJECT__41
10
0
20
0
30
0
70
128
71
6
72
7
73
8
0
VERTEX
8
OBJECT__41
10
0
20
0
30
0
70
128
71
8
72
9
73
6
0
VERTEX
8
OBJECT__41
10
0
20
0
30
0
70
128
71
1
72
10
73
7
0
VERTEX
8
OBJECT__41
10
0
20
0
30
0
70
128
71
7
72
6
73
1
0
VERTEX
8
OBJECT__41
10
0
20
0
30
0
70
128
71
8
72
11
73
9
0
VERTEX
8
OBJECT__41
10
0
20
0
30
0
70
128
71
5
72
10
73
1
0
SEQEND
8
OBJECT__41
0
POLYLINE
8
OBJECT__42
66
1
70
64
71
11
72
9
62
253
0
VERTEX
8
OBJECT__42
10
0.000000
20
76.378998
30
97.042000
70
192
0
VERTEX
8
OBJECT__42
10
0.000000
20
78.000000
30
94.500999
70
192
0
VERTEX
8
OBJECT__42
10
7.588000
20
77.641998
30
95.692001
70
192
0
VERTEX
8
OBJECT__42
10
7.591000
20
77.866997
30
94.367996
70
192
0
VERTEX
8
OBJECT__42
10
7.586000
20
76.991997
30
96.865997
70
192
0
VERTEX
8
OBJECT__42
10
0.000000
20
75.688004
30
98.126999
70
192
0
VERTEX
8
OBJECT__42
10
7.584000
20
75.988998
30
97.759003
70
192
0
VERTEX
8
OBJECT__42
10
7.583000
20
74.749001
30
98.269997
70
192
0
VERTEX
8
OBJECT__42
10
0.000000
20
74.000999
30
98.500000
70
192
0
VERTEX
8
OBJECT__42
10
7.585000
20
76.663002
30
97.158997
70
192
0
VERTEX
8
OBJECT__42
10
7.582000
20
73.867996
30
98.367996
70
192
0
VERTEX
8
OBJECT__42
10
0
20
0
30
0
70
128
71
1
72
2
73
3
0
VERTEX
8
OBJECT__42
10
0
20
0
30
0
70
128
71
2
72
4
73
3
0
VERTEX
8
OBJECT__42
10
0
20
0
30
0
70
128
71
3
72
5
73
1
0
VERTEX
8
OBJECT__42
10
0
20
0
30
0
70
128
71
6
72
7
73
8
0
VERTEX
8
OBJECT__42
10
0
20
0
30
0
70
128
71
8
72
9
73
6
0
VERTEX
8
OBJECT__42
10
0
20
0
30
0
70
128
71
1
72
10
73
7
0
VERTEX
8
OBJECT__42
10
0
20
0
30
0
70
128
71
7
72
6
73
1
0
VERTEX
8
OBJECT__42
10
0
20
0
30
0
70
128
71
8
72
11
73
9
0
VERTEX
8
OBJECT__42
10
0
20
0
30
0
70
128
71
5
72
10
73
1
0
SEQEND
8
OBJECT__42
0
POLYLINE
8
OBJECT__43
66
1
70
64
71
11
72
9
62
253
0
VERTEX
8
OBJECT__43
10
0.000000
20
-76.542000
30
96.878998
70
192
0
VERTEX
8
OBJECT__43
10
0.000000
20
-74.000999
30
98.500000
70
192
0
VERTEX
8
OBJECT__43
10
7.583000
20
-75.191002
30
98.141998
70
192
0
VERTEX
8
OBJECT__43
10
7.582000
20
-73.867996
30
98.367996
70
192
0
VERTEX
8
OBJECT__43
10
7.584000
20
-76.365997
30
97.491997
70
192
0
VERTEX
8
OBJECT__43
10
0.000000
20
-77.626999
30
96.188004
70
192
0
VERTEX
8
OBJECT__43
10
7.587000
20
-77.258003
30
96.489998
70
192
0
VERTEX
8
OBJECT__43
10
7.589000
20
-77.768997
30
95.250000
70
192
0
VERTEX
8
OBJECT__43
10
0.000000
20
-78.000000
30
94.500999
70
192
0
VERTEX
8
OBJECT__43
10
7.585000
20
-76.658997
30
97.163002
70
192
0
VERTEX
8
OBJECT__43
10
7.591000
20
-77.866997
30
94.367996
70
192
0
VERTEX
8
OBJECT__43
10
0
20
0
30
0
70
128
71
1
72
2
73
3
0
VERTEX
8
OBJECT__43
10
0
20
0
30
0
70
128
71
2
72
4
73
3
0
VERTEX
8
OBJECT__43
10
0
20
0
30
0
70
128
71
3
72
5
73
1
0
VERTEX
8
OBJECT__43
10
0
20
0
30
0
70
128
71
6
72
7
73
8
0
VERTEX
8
OBJECT__43
10
0
20
0
30
0
70
128
71
8
72
9
73
6
0
VERTEX
8
OBJECT__43
10
0
20
0
30
0
70
128
71
1
72
10
73
7
0
VERTEX
8
OBJECT__43
10
0
20
0
30
0
70
128
71
7
72
6
73
1
0
VERTEX
8
OBJECT__43
10
0
20
0
30
0
70
128
71
8
72
11
73
9
0
VERTEX
8
OBJECT__43
10
0
20
0
30
0
70
128
71
5
72
10
73
1
0
SEQEND
8
OBJECT__43
0
POLYLINE
8
OBJECT__44
66
1
70
64
71
6
72
4
62
253
0
VERTEX
8
OBJECT__44
10
0.000000
20
74.000999
30
98.500000
70
192
0
VERTEX
8
OBJECT__44
10
7.989000
20
34.852001
30
98.361000
70
192
0
VERTEX
8
OBJECT__44
10
8.103000
20
-4.166000
30
98.359001
70
192
0
VERTEX
8
OBJECT__44
10
0.000000
20
-74.000999
30
98.500000
70
192
0
VERTEX
8
OBJECT__44
10
7.582000
20
73.867996
30
98.367996
70
192
0
VERTEX
8
OBJECT__44
10
7.582000
20
-73.867996
30
98.367996
70
192
0
VERTEX
8
OBJECT__44
10
0
20
0
30
0
70
128
71
1
72
2
73
3
0
VERTEX
8
OBJECT__44
10
0
20
0
30
0
70
128
71
3
72
4
73
1
0
VERTEX
8
OBJECT__44
10
0
20
0
30
0
70
128
71
1
72
5
73
2
0
VERTEX
8
OBJECT__44
10
0
20
0
30
0
70
128
71
3
72
6
73
4
0
SEQEND
8
OBJECT__44
0
POLYLINE
8
OBJECT__45
66
1
70
64
71
6
72
4
62
253
0
VERTEX
8
OBJECT__45
10
0.000000
20
78.000000
30
94.500999
70
192
0
VERTEX
8
OBJECT__45
10
0.000000
20
78.000000
30
-94.500999
70
192
0
VERTEX
8
OBJECT__45
10
8.441000
20
77.852997
30
-5.152000
70
192
0
VERTEX
8
OBJECT__45
10
7.591000
20
77.866997
30
-94.367996
70
192
0
VERTEX
8
OBJECT__45
10
7.767000
20
77.863998
30
84.059998
70
192
0
VERTEX
8
OBJECT__45
10
7.591000
20
77.866997
30
94.367996
70
192
0
VERTEX
8
OBJECT__45
10
0
20
0
30
0
70
128
71
1
72
2
73
3
0
VERTEX
8
OBJECT__45
10
0
20
0
30
0
70
128
71
2
72
4
73
3
0
VERTEX
8
OBJECT__45
10
0
20
0
30
0
70
128
71
3
72
5
73
1
0
VERTEX
8
OBJECT__45
10
0
20
0
30
0
70
128
71
5
72
6
73
1
0
SEQEND
8
OBJECT__45
0
POLYLINE
8
OBJECT__46
66
1
70
64
71
6
72
4
62
253
0
VERTEX
8
OBJECT__46
10
0.000000
20
-74.000999
30
-98.500000
70
192
0
VERTEX
8
OBJECT__46
10
7.989000
20
-34.852001
30
-98.361000
70
192
0
VERTEX
8
OBJECT__46
10
8.104000
20
4.166000
30
-98.359001
70
192
0
VERTEX
8
OBJECT__46
10
0.000000
20
74.000999
30
-98.500000
70
192
0
VERTEX
8
OBJECT__46
10
7.583000
20
-73.867996
30
-98.367996
70
192
0
VERTEX
8
OBJECT__46
10
7.583000
20
73.867996
30
-98.367996
70
192
0
VERTEX
8
OBJECT__46
10
0
20
0
30
0
70
128
71
1
72
2
73
3
0
VERTEX
8
OBJECT__46
10
0
20
0
30
0
70
128
71
3
72
4
73
1
0
VERTEX
8
OBJECT__46
10
0
20
0
30
0
70
128
71
1
72
5
73
2
0
VERTEX
8
OBJECT__46
10
0
20
0
30
0
70
128
71
3
72
6
73
4
0
SEQEND
8
OBJECT__46
0
POLYLINE
8
OBJECT__47
66
1
70
64
71
6
72
4
62
253
0
VERTEX
8
OBJECT__47
10
0.000000
20
-78.000000
30
-94.500999
70
192
0
VERTEX
8
OBJECT__47
10
0.000000
20
-78.000000
30
94.500999
70
192
0
VERTEX
8
OBJECT__47
10
8.441000
20
-77.852997
30
5.152000
70
192
0
VERTEX
8
OBJECT__47
10
7.591000
20
-77.866997
30
94.367996
70
192
0
VERTEX
8
OBJECT__47
10
7.767000
20
-77.863998
30
-84.059998
70
192
0
VERTEX
8
OBJECT__47
10
7.591000
20
-77.866997
30
-94.367996
70
192
0
VERTEX
8
OBJECT__47
10
0
20
0
30
0
70
128
71
1
72
2
73
3
0
VERTEX
8
OBJECT__47
10
0
20
0
30
0
70
128
71
2
72
4
73
3
0
VERTEX
8
OBJECT__47
10
0
20
0
30
0
70
128
71
3
72
5
73
1
0
VERTEX
8
OBJECT__47
10
0
20
0
30
0
70
128
71
5
72
6
73
1
0
SEQEND
8
OBJECT__47
0
POLYLINE
8
OBJECT__48
66
1
70
64
71
4
72
2
62
253
0
VERTEX
8
OBJECT__48
10
4.350000
20
35.349998
30
25.402000
70
192
0
VERTEX
8
OBJECT__48
10
5.300000
20
35.349998
30
25.402000
70
192
0
VERTEX
8
OBJECT__48
10
5.300000
20
35.279999
30
25.250000
70
192
0
VERTEX
8
OBJECT__48
10
4.350000
20
35.279999
30
25.250000
70
192
0
VERTEX
8
OBJECT__48
10
0
20
0
30
0
70
128
71
1
72
2
73
3
0
VERTEX
8
OBJECT__48
10
0
20
0
30
0
70
128
71
3
72
4
73
1
0
SEQEND
8
OBJECT__48
0
POLYLINE
8
OBJECT__49
66
1
70
64
71
150
72
158
62
253
0
VERTEX
8
OBJECT__49
10
5.300000
20
-12.195000
30
20.500000
70
192
0
VERTEX
8
OBJECT__49
10
5.300000
20
-8.443000
30
25.327000
70
192
0
VERTEX
8
OBJECT__49
10
5.300000
20
-10.986000
30
26.959999
70
192
0
VERTEX
8
OBJECT__49
10
5.300000
20
-35.279999
30
25.250000
70
192
0
VERTEX
8
OBJECT__49
10
5.300000
20
-30.305000
30
20.500000
70
192
0
VERTEX
8
OBJECT__49
10
5.300000
20
-26.867001
30
23.798000
70
192
0
VERTEX
8
OBJECT__49
10
5.300000
20
-35.279999
30
21.000000
70
192
0
VERTEX
8
OBJECT__49
10
5.300000
20
-29.992001
30
34.790001
70
192
0
VERTEX
8
OBJECT__49
10
5.300000
20
-26.500000
30
34.790001
70
192
0
VERTEX
8
OBJECT__49
10
5.300000
20
-26.190001
30
35.099998
70
192
0
VERTEX
8
OBJECT__49
10
5.300000
20
-5.536000
30
23.459999
70
192
0
VERTEX
8
OBJECT__49
10
5.300000
20
-34.779999
30
20.500000
70
192
0
VERTEX
8
OBJECT__49
10
5.300000
20
-28.493999
30
26.959999
70
192
0
VERTEX
8
OBJECT__49
10
5.300000
20
-35.349998
30
26.198000
70
192
0
VERTEX
8
OBJECT__49
10
5.300000
20
-35.349998
30
25.402000
70
192
0
VERTEX
8
OBJECT__49
10
5.300000
20
-31.549999
30
29.221001
70
192
0
VERTEX
8
OBJECT__49
10
5.300000
20
-35.279999
30
26.350000
70
192
0
VERTEX
8
OBJECT__49
10
5.300000
20
-26.190001
30
35.150002
70
192
0
VERTEX
8
OBJECT__49
10
5.300000
20
-35.279999
30
35.150002
70
192
0
VERTEX
8
OBJECT__49
10
5.300000
20
-31.690001
30
30.156000
70
192
0
VERTEX
8
OBJECT__49
10
5.300000
20
-1.059000
30
23.459999
70
192
0
VERTEX
8
OBJECT__49
10
5.300000
20
-26.232000
30
24.395000
70
192
0
VERTEX
8
OBJECT__49
10
5.300000
20
-17.768000
30
24.395000
70
192
0
VERTEX
8
OBJECT__49
10
5.300000
20
0.000000
30
27.271999
70
192
0
VERTEX
8
OBJECT__49
10
5.300000
20
-2.593000
30
29.153000
70
192
0
VERTEX
8
OBJECT__49
10
5.300000
20
-3.067000
30
26.981001
70
192
0
VERTEX
8
OBJECT__49
10
5.300000
20
-31.690001
30
33.091999
70
192
0
VERTEX
8
OBJECT__49
10
5.300000
20
-0.360000
30
25.110001
70
192
0
VERTEX
8
OBJECT__49
10
5.300000
20
-0.360000
30
24.159000
70
192
0
VERTEX
8
OBJECT__49
10
5.300000
20
-4.219000
30
29.153000
70
192
0
VERTEX
8
OBJECT__49
10
5.300000
20
-17.132999
30
22.799999
70
192
0
VERTEX
8
OBJECT__49
10
5.300000
20
-12.197000
30
20.400000
70
192
0
VERTEX
8
OBJECT__49
10
5.300000
20
-0.401000
30
25.347000
70
192
0
VERTEX
8
OBJECT__49
10
5.300000
20
-0.912000
30
25.794001
70
192
0
VERTEX
8
OBJECT__49
10
5.300000
20
-28.695000
30
20.500000
70
192
0
VERTEX
8
OBJECT__49
10
5.300000
20
-26.867001
30
22.799999
70
192
0
VERTEX
8
OBJECT__49
10
5.300000
20
-30.302999
30
20.400000
70
192
0
VERTEX
8
OBJECT__49
10
5.300000
20
-17.132999
30
23.798000
70
192
0
VERTEX
8
OBJECT__49
10
5.300000
20
-13.805000
30
20.500000
70
192
0
VERTEX
8
OBJECT__49
10
5.300000
20
0.000000
30
20.500000
70
192
0
VERTEX
8
OBJECT__49
10
5.300000
20
-28.697001
30
20.400000
70
192
0
VERTEX
8
OBJECT__49
10
5.300000
20
-31.690001
30
40.144001
70
192
0
VERTEX
8
OBJECT__49
10
5.300000
20
-29.429001
30
43.200001
70
192
0
VERTEX
8
OBJECT__49
10
5.300000
20
-35.279999
30
42.049999
70
192
0
VERTEX
8
OBJECT__49
10
5.300000
20
-35.349998
30
41.897999
70
192
0
VERTEX
8
OBJECT__49
10
5.300000
20
-35.279999
30
40.950001
70
192
0
VERTEX
8
OBJECT__49
10
5.300000
20
-31.690001
30
37.208000
70
192
0
VERTEX
8
OBJECT__49
10
5.300000
20
-29.992001
30
35.509998
70
192
0
VERTEX
8
OBJECT__49
10
5.300000
20
-26.190001
30
35.200001
70
192
0
VERTEX
8
OBJECT__49
10
5.300000
20
-35.349998
30
41.102001
70
192
0
VERTEX
8
OBJECT__49
10
5.300000
20
-26.500000
30
35.509998
70
192
0
VERTEX
8
OBJECT__49
10
5.300000
20
-11.000000
30
50.299999
70
192
0
VERTEX
8
OBJECT__49
10
5.300000
20
-9.500000
30
50.299999
70
192
0
VERTEX
8
OBJECT__49
10
5.300000
20
-9.652000
30
50.369999
70
192
0
VERTEX
8
OBJECT__49
10
5.300000
20
-26.867001
30
46.501999
70
192
0
VERTEX
8
OBJECT__49
10
5.300000
20
-26.867001
30
47.500000
70
192
0
VERTEX
8
OBJECT__49
10
5.300000
20
-32.779999
30
50.299999
70
192
0
VERTEX
8
OBJECT__49
10
5.300000
20
-28.493999
30
43.340000
70
192
0
VERTEX
8
OBJECT__49
10
5.300000
20
-10.986000
30
43.340000
70
192
0
VERTEX
8
OBJECT__49
10
5.300000
20
-17.768000
30
45.904999
70
192
0
VERTEX
8
OBJECT__49
10
5.300000
20
-0.360000
30
45.141998
70
192
0
VERTEX
8
OBJECT__49
10
5.300000
20
-0.360000
30
41.549999
70
192
0
VERTEX
8
OBJECT__49
10
5.300000
20
-0.050000
30
41.240002
70
192
0
VERTEX
8
OBJECT__49
10
5.300000
20
-5.536000
30
46.840000
70
192
0
VERTEX
8
OBJECT__49
10
5.300000
20
-2.058000
30
46.840000
70
192
0
VERTEX
8
OBJECT__49
10
5.300000
20
-3.266000
30
46.946999
70
192
0
VERTEX
8
OBJECT__49
10
5.300000
20
-17.132999
30
47.500000
70
192
0
VERTEX
8
OBJECT__49
10
5.300000
20
-17.132999
30
46.501999
70
192
0
VERTEX
8
OBJECT__49
10
5.300000
20
-34.548000
30
49.568001
70
192
0
VERTEX
8
OBJECT__49
10
5.300000
20
-26.232000
30
45.904999
70
192
0
VERTEX
8
OBJECT__49
10
5.300000
20
0.000000
30
41.240002
70
192
0
VERTEX
8
OBJECT__49
10
5.300000
20
0.000000
30
46.946999
70
192
0
VERTEX
8
OBJECT__49
10
5.300000
20
-8.443000
30
44.973000
70
192
0
VERTEX
8
OBJECT__49
10
5.300000
20
-3.266000
30
50.299999
70
192
0
VERTEX
8
OBJECT__49
10
5.300000
20
-35.279999
30
47.799999
70
192
0
VERTEX
8
OBJECT__49
10
5.300000
20
-10.848000
30
50.369999
70
192
0
VERTEX
8
OBJECT__49
10
5.300000
20
26.190001
30
35.150002
70
192
0
VERTEX
8
OBJECT__49
10
5.300000
20
29.992001
30
35.509998
70
192
0
VERTEX
8
OBJECT__49
10
5.300000
20
26.500000
30
35.509998
70
192
0
VERTEX
8
OBJECT__49
10
5.300000
20
31.549999
30
41.078999
70
192
0
VERTEX
8
OBJECT__49
10
5.300000
20
35.349998
30
41.102001
70
192
0
VERTEX
8
OBJECT__49
10
5.300000
20
35.349998
30
41.897999
70
192
0
VERTEX
8
OBJECT__49
10
5.300000
20
35.279999
30
40.950001
70
192
0
VERTEX
8
OBJECT__49
10
5.300000
20
31.690001
30
40.144001
70
192
0
VERTEX
8
OBJECT__49
10
5.300000
20
31.690001
30
37.208000
70
192
0
VERTEX
8
OBJECT__49
10
5.300000
20
35.279999
30
35.150002
70
192
0
VERTEX
8
OBJECT__49
10
5.300000
20
26.867001
30
46.501999
70
192
0
VERTEX
8
OBJECT__49
10
5.300000
20
26.232000
30
45.904999
70
192
0
VERTEX
8
OBJECT__49
10
5.300000
20
28.493999
30
43.340000
70
192
0
VERTEX
8
OBJECT__49
10
5.300000
20
34.548000
30
49.568001
70
192
0
VERTEX
8
OBJECT__49
10
5.300000
20
32.779999
30
50.299999
70
192
0
VERTEX
8
OBJECT__49
10
5.300000
20
9.652000
30
50.369999
70
192
0
VERTEX
8
OBJECT__49
10
5.300000
20
10.986000
30
43.340000
70
192
0
VERTEX
8
OBJECT__49
10
5.300000
20
17.132999
30
46.501999
70
192
0
VERTEX
8
OBJECT__49
10
5.300000
20
35.279999
30
42.049999
70
192
0
VERTEX
8
OBJECT__49
10
5.300000
20
35.279999
30
47.799999
70
192
0
VERTEX
8
OBJECT__49
10
5.300000
20
8.443000
30
44.973000
70
192
0
VERTEX
8
OBJECT__49
10
5.300000
20
9.500000
30
50.299999
70
192
0
VERTEX
8
OBJECT__49
10
5.300000
20
0.360000
30
45.141998
70
192
0
VERTEX
8
OBJECT__49
10
5.300000
20
0.050000
30
41.240002
70
192
0
VERTEX
8
OBJECT__49
10
5.300000
20
17.132999
30
47.500000
70
192
0
VERTEX
8
OBJECT__49
10
5.300000
20
11.000000
30
50.299999
70
192
0
VERTEX
8
OBJECT__49
10
5.300000
20
5.536000
30
46.840000
70
192
0
VERTEX
8
OBJECT__49
10
5.300000
20
3.266000
30
50.299999
70
192
0
VERTEX
8
OBJECT__49
10
5.300000
20
3.266000
30
46.946999
70
192
0
VERTEX
8
OBJECT__49
10
5.300000
20
17.768000
30
45.904999
70
192
0
VERTEX
8
OBJECT__49
10
5.300000
20
0.360000
30
41.549999
70
192
0
VERTEX
8
OBJECT__49
10
5.300000
20
26.867001
30
47.500000
70
192
0
VERTEX
8
OBJECT__49
10
5.300000
20
2.058000
30
46.840000
70
192
0
VERTEX
8
OBJECT__49
10
5.300000
20
10.848000
30
50.369999
70
192
0
VERTEX
8
OBJECT__49
10
5.300000
20
26.190001
30
35.200001
70
192
0
VERTEX
8
OBJECT__49
10
5.300000
20
29.429001
30
27.100000
70
192
0
VERTEX
8
OBJECT__49
10
5.300000
20
35.349998
30
25.402000
70
192
0
VERTEX
8
OBJECT__49
10
5.300000
20
35.349998
30
26.198000
70
192
0
VERTEX
8
OBJECT__49
10
5.300000
20
35.279999
30
25.250000
70
192
0
VERTEX
8
OBJECT__49
10
5.300000
20
35.279999
30
26.350000
70
192
0
VERTEX
8
OBJECT__49
10
5.300000
20
34.779999
30
20.500000
70
192
0
VERTEX
8
OBJECT__49
10
5.300000
20
35.279999
30
21.000000
70
192
0
VERTEX
8
OBJECT__49
10
5.300000
20
0.912000
30
25.794001
70
192
0
VERTEX
8
OBJECT__49
10
5.300000
20
3.067000
30
26.981001
70
192
0
VERTEX
8
OBJECT__49
10
5.300000
20
31.690001
30
33.091999
70
192
0
VERTEX
8
OBJECT__49
10
5.300000
20
31.690001
30
30.156000
70
192
0
VERTEX
8
OBJECT__49
10
5.300000
20
2.593000
30
29.153000
70
192
0
VERTEX
8
OBJECT__49
10
5.300000
20
0.360000
30
24.159000
70
192
0
VERTEX
8
OBJECT__49
10
5.300000
20
26.867001
30
23.798000
70
192
0
VERTEX
8
OBJECT__49
10
5.300000
20
30.305000
30
20.500000
70
192
0
VERTEX
8
OBJECT__49
10
5.300000
20
28.493999
30
26.959999
70
192
0
VERTEX
8
OBJECT__49
10
5.300000
20
10.986000
30
26.959999
70
192
0
VERTEX
8
OBJECT__49
10
5.300000
20
17.768000
30
24.395000
70
192
0
VERTEX
8
OBJECT__49
10
5.300000
20
8.443000
30
25.327000
70
192
0
VERTEX
8
OBJECT__49
10
5.300000
20
17.132999
30
23.798000
70
192
0
VERTEX
8
OBJECT__49
10
5.300000
20
26.190001
30
35.099998
70
192
0
VERTEX
8
OBJECT__49
10
5.300000
20
26.500000
30
34.790001
70
192
0
VERTEX
8
OBJECT__49
10
5.300000
20
0.689000
30
25.702999
70
192
0
VERTEX
8
OBJECT__49
10
5.300000
20
0.360000
30
25.110001
70
192
0
VERTEX
8
OBJECT__49
10
5.300000
20
12.195000
30
20.500000
70
192
0
VERTEX
8
OBJECT__49
10
5.300000
20
17.132999
30
22.799999
70
192
0
VERTEX
8
OBJECT__49
10
5.300000
20
26.232000
30
24.395000
70
192
0
VERTEX
8
OBJECT__49
10
5.300000
20
29.992001
30
34.790001
70
192
0
VERTEX
8
OBJECT__49
10
5.300000
20
5.536000
30
23.459999
70
192
0
VERTEX
8
OBJECT__49
10
5.300000
20
1.059000
30
23.459999
70
192
0
VERTEX
8
OBJECT__49
10
5.300000
20
28.695000
30
20.500000
70
192
0
VERTEX
8
OBJECT__49
10
5.300000
20
28.697001
30
20.400000
70
192
0
VERTEX
8
OBJECT__49
10
5.300000
20
26.867001
30
22.799999
70
192
0
VERTEX
8
OBJECT__49
10
5.300000
20
13.805000
30
20.500000
70
192
0
VERTEX
8
OBJECT__49
10
5.300000
20
12.197000
30
20.400000
70
192
0
VERTEX
8
OBJECT__49
10
5.300000
20
4.219000
30
29.153000
70
192
0
VERTEX
8
OBJECT__49
10
5.300000
20
13.803000
30
20.400000
70
192
0
VERTEX
8
OBJECT__49
10
5.300000
20
30.302999
30
20.400000
70
192
0
VERTEX
8
OBJECT__49
10
5.300000
20
-13.803000
30
20.400000
70
192
0
VERTEX
8
OBJECT__49
10
0
20
0
30
0
70
128
71
1
72
2
73
3
0
VERTEX
8
OBJECT__49
10
0
20
0
30
0
70
128
71
4
72
5
73
6
0
VERTEX
8
OBJECT__49
10
0
20
0
30
0
70
128
71
5
72
4
73
7
0
VERTEX
8
OBJECT__49
10
0
20
0
30
0
70
128
71
8
72
9
73
10
0
VERTEX
8
OBJECT__49
10
0
20
0
30
0
70
128
71
1
72
11
73
2
0
VERTEX
8
OBJECT__49
10
0
20
0
30
0
70
128
71
7
72
12
73
5
0
VERTEX
8
OBJECT__49
10
0
20
0
30
0
70
128
71
13
72
14
73
15
0
VERTEX
8
OBJECT__49
10
0
20
0
30
0
70
128
71
13
72
16
73
17
0
VERTEX
8
OBJECT__49
10
0
20
0
30
0
70
128
71
18
72
19
73
8
0
VERTEX
8
OBJECT__49
10
0
20
0
30
0
70
128
71
19
72
17
73
20
0
VERTEX
8
OBJECT__49
10
0
20
0
30
0
70
128
71
1
72
21
73
11
0
VERTEX
8
OBJECT__49
10
0
20
0
30
0
70
128
71
13
72
22
73
23
0
VERTEX
8
OBJECT__49
10
0
20
0
30
0
70
128
71
6
72
13
73
4
0
VERTEX
8
OBJECT__49
10
0
20
0
30
0
70
128
71
17
72
14
73
13
0
VERTEX
8
OBJECT__49
10
0
20
0
30
0
70
128
71
24
72
25
73
26
0
VERTEX
8
OBJECT__49
10
0
20
0
30
0
70
128
71
19
72
27
73
8
0
VERTEX
8
OBJECT__49
10
0
20
0
30
0
70
128
71
17
72
16
73
20
0
VERTEX
8
OBJECT__49
10
0
20
0
30
0
70
128
71
23
72
3
73
13
0
VERTEX
8
OBJECT__49
10
0
20
0
30
0
70
128
71
15
72
4
73
13
0
VERTEX
8
OBJECT__49
10
0
20
0
30
0
70
128
71
24
72
28
73
29
0
VERTEX
8
OBJECT__49
10
0
20
0
30
0
70
128
71
25
72
30
73
26
0
VERTEX
8
OBJECT__49
10
0
20
0
30
0
70
128
71
20
72
27
73
19
0
VERTEX
8
OBJECT__49
10
0
20
0
30
0
70
128
71
6
72
22
73
13
0
VERTEX
8
OBJECT__49
10
0
20
0
30
0
70
128
71
31
72
32
73
1
0
VERTEX
8
OBJECT__49
10
0
20
0
30
0
70
128
71
24
72
33
73
28
0
VERTEX
8
OBJECT__49
10
0
20
0
30
0
70
128
71
26
72
34
73
24
0
VERTEX
8
OBJECT__49
10
0
20
0
30
0
70
128
71
5
72
35
73
36
0
VERTEX
8
OBJECT__49
10
0
20
0
30
0
70
128
71
35
72
5
73
37
0
VERTEX
8
OBJECT__49
10
0
20
0
30
0
70
128
71
3
72
23
73
1
0
VERTEX
8
OBJECT__49
10
0
20
0
30
0
70
128
71
1
72
23
73
38
0
VERTEX
8
OBJECT__49
10
0
20
0
30
0
70
128
71
35
72
39
73
31
0
VERTEX
8
OBJECT__49
10
0
20
0
30
0
70
128
71
40
72
29
73
21
0
VERTEX
8
OBJECT__49
10
0
20
0
30
0
70
128
71
34
72
33
73
24
0
VERTEX
8
OBJECT__49
10
0
20
0
30
0
70
128
71
37
72
41
73
35
0
VERTEX
8
OBJECT__49
10
0
20
0
30
0
70
128
71
1
72
38
73
31
0
VERTEX
8
OBJECT__49
10
0
20
0
30
0
70
128
71
31
72
36
73
35
0
VERTEX
8
OBJECT__49
10
0
20
0
30
0
70
128
71
29
72
40
73
24
0
VERTEX
8
OBJECT__49
10
0
20
0
30
0
70
128
71
10
72
18
73
8
0
VERTEX
8
OBJECT__49
10
0
20
0
30
0
70
128
71
39
72
32
73
31
0
VERTEX
8
OBJECT__49
10
0
20
0
30
0
70
128
71
36
72
6
73
5
0
VERTEX
8
OBJECT__49
10
0
20
0
30
0
70
128
71
21
72
1
73
40
0
VERTEX
8
OBJECT__49
10
0
20
0
30
0
70
128
71
42
72
43
73
44
0
VERTEX
8
OBJECT__49
10
0
20
0
30
0
70
128
71
44
72
45
73
42
0
VERTEX
8
OBJECT__49
10
0
20
0
30
0
70
128
71
46
72
19
73
47
0
VERTEX
8
OBJECT__49
10
0
20
0
30
0
70
128
71
48
72
18
73
49
0
VERTEX
8
OBJECT__49
10
0
20
0
30
0
70
128
71
45
72
50
73
42
0
VERTEX
8
OBJECT__49
10
0
20
0
30
0
70
128
71
42
72
50
73
46
0
VERTEX
8
OBJECT__49
10
0
20
0
30
0
70
128
71
49
72
51
73
48
0
VERTEX
8
OBJECT__49
10
0
20
0
30
0
70
128
71
52
72
53
73
54
0
VERTEX
8
OBJECT__49
10
0
20
0
30
0
70
128
71
55
72
56
73
57
0
VERTEX
8
OBJECT__49
10
0
20
0
30
0
70
128
71
55
72
43
73
58
0
VERTEX
8
OBJECT__49
10
0
20
0
30
0
70
128
71
58
72
59
73
60
0
VERTEX
8
OBJECT__49
10
0
20
0
30
0
70
128
71
47
72
42
73
46
0
VERTEX
8
OBJECT__49
10
0
20
0
30
0
70
128
71
48
72
19
73
18
0
VERTEX
8
OBJECT__49
10
0
20
0
30
0
70
128
71
61
72
62
73
63
0
VERTEX
8
OBJECT__49
10
0
20
0
30
0
70
128
71
64
72
65
73
66
0
VERTEX
8
OBJECT__49
10
0
20
0
30
0
70
128
71
67
72
68
73
59
0
VERTEX
8
OBJECT__49
10
0
20
0
30
0
70
128
71
57
72
56
73
67
0
VERTEX
8
OBJECT__49
10
0
20
0
30
0
70
128
71
52
72
66
73
53
0
VERTEX
8
OBJECT__49
10
0
20
0
30
0
70
128
71
57
72
69
73
55
0
VERTEX
8
OBJECT__49
10
0
20
0
30
0
70
128
71
60
72
70
73
58
0
VERTEX
8
OBJECT__49
10
0
20
0
30
0
70
128
71
48
72
47
73
19
0
VERTEX
8
OBJECT__49
10
0
20
0
30
0
70
128
71
71
72
72
73
61
0
VERTEX
8
OBJECT__49
10
0
20
0
30
0
70
128
71
65
72
72
73
66
0
VERTEX
8
OBJECT__49
10
0
20
0
30
0
70
128
71
59
72
73
73
67
0
VERTEX
8
OBJECT__49
10
0
20
0
30
0
70
128
71
67
72
52
73
57
0
VERTEX
8
OBJECT__49
10
0
20
0
30
0
70
128
71
66
72
74
73
53
0
VERTEX
8
OBJECT__49
10
0
20
0
30
0
70
128
71
69
72
75
73
55
0
VERTEX
8
OBJECT__49
10
0
20
0
30
0
70
128
71
43
72
55
73
44
0
VERTEX
8
OBJECT__49
10
0
20
0
30
0
70
128
71
72
72
65
73
61
0
VERTEX
8
OBJECT__49
10
0
20
0
30
0
70
128
71
73
72
64
73
67
0
VERTEX
8
OBJECT__49
10
0
20
0
30
0
70
128
71
54
72
76
73
52
0
VERTEX
8
OBJECT__49
10
0
20
0
30
0
70
128
71
58
72
70
73
55
0
VERTEX
8
OBJECT__49
10
0
20
0
30
0
70
128
71
66
72
67
73
64
0
VERTEX
8
OBJECT__49
10
0
20
0
30
0
70
128
71
75
72
44
73
55
0
VERTEX
8
OBJECT__49
10
0
20
0
30
0
70
128
71
63
72
71
73
61
0
VERTEX
8
OBJECT__49
10
0
20
0
30
0
70
128
71
68
72
60
73
59
0
VERTEX
8
OBJECT__49
10
0
20
0
30
0
70
128
71
77
72
78
73
79
0
VERTEX
8
OBJECT__49
10
0
20
0
30
0
70
128
71
80
72
81
73
82
0
VERTEX
8
OBJECT__49
10
0
20
0
30
0
70
128
71
83
72
84
73
85
0
VERTEX
8
OBJECT__49
10
0
20
0
30
0
70
128
71
77
72
86
73
78
0
VERTEX
8
OBJECT__49
10
0
20
0
30
0
70
128
71
80
72
83
73
81
0
VERTEX
8
OBJECT__49
10
0
20
0
30
0
70
128
71
83
72
80
73
84
0
VERTEX
8
OBJECT__49
10
0
20
0
30
0
70
128
71
86
72
85
73
78
0
VERTEX
8
OBJECT__49
10
0
20
0
30
0
70
128
71
85
72
86
73
83
0
VERTEX
8
OBJECT__49
10
0
20
0
30
0
70
128
71
87
72
88
73
89
0
VERTEX
8
OBJECT__49
10
0
20
0
30
0
70
128
71
87
72
90
73
91
0
VERTEX
8
OBJECT__49
10
0
20
0
30
0
70
128
71
92
72
93
73
94
0
VERTEX
8
OBJECT__49
10
0
20
0
30
0
70
128
71
82
72
95
73
80
0
VERTEX
8
OBJECT__49
10
0
20
0
30
0
70
128
71
89
72
95
73
87
0
VERTEX
8
OBJECT__49
10
0
20
0
30
0
70
128
71
87
72
96
73
90
0
VERTEX
8
OBJECT__49
10
0
20
0
30
0
70
128
71
92
72
97
73
93
0
VERTEX
8
OBJECT__49
10
0
20
0
30
0
70
128
71
97
72
92
73
98
0
VERTEX
8
OBJECT__49
10
0
20
0
30
0
70
128
71
99
72
71
73
100
0
VERTEX
8
OBJECT__49
10
0
20
0
30
0
70
128
71
89
72
80
73
95
0
VERTEX
8
OBJECT__49
10
0
20
0
30
0
70
128
71
87
72
95
73
96
0
VERTEX
8
OBJECT__49
10
0
20
0
30
0
70
128
71
92
72
101
73
102
0
VERTEX
8
OBJECT__49
10
0
20
0
30
0
70
128
71
91
72
102
73
101
0
VERTEX
8
OBJECT__49
10
0
20
0
30
0
70
128
71
98
72
103
73
97
0
VERTEX
8
OBJECT__49
10
0
20
0
30
0
70
128
71
104
72
105
73
103
0
VERTEX
8
OBJECT__49
10
0
20
0
30
0
70
128
71
89
72
88
73
106
0
VERTEX
8
OBJECT__49
10
0
20
0
30
0
70
128
71
100
72
107
73
99
0
VERTEX
8
OBJECT__49
10
0
20
0
30
0
70
128
71
91
72
108
73
87
0
VERTEX
8
OBJECT__49
10
0
20
0
30
0
70
128
71
101
72
108
73
91
0
VERTEX
8
OBJECT__49
10
0
20
0
30
0
70
128
71
103
72
98
73
104
0
VERTEX
8
OBJECT__49
10
0
20
0
30
0
70
128
71
106
72
93
73
89
0
VERTEX
8
OBJECT__49
10
0
20
0
30
0
70
128
71
109
72
103
73
105
0
VERTEX
8
OBJECT__49
10
0
20
0
30
0
70
128
71
99
72
72
73
71
0
VERTEX
8
OBJECT__49
10
0
20
0
30
0
70
128
71
102
72
110
73
92
0
VERTEX
8
OBJECT__49
10
0
20
0
30
0
70
128
71
106
72
94
73
93
0
VERTEX
8
OBJECT__49
10
0
20
0
30
0
70
128
71
99
72
109
73
72
0
VERTEX
8
OBJECT__49
10
0
20
0
30
0
70
128
71
94
72
101
73
92
0
VERTEX
8
OBJECT__49
10
0
20
0
30
0
70
128
71
79
72
111
73
77
0
VERTEX
8
OBJECT__49
10
0
20
0
30
0
70
128
71
112
72
113
73
114
0
VERTEX
8
OBJECT__49
10
0
20
0
30
0
70
128
71
112
72
115
73
113
0
VERTEX
8
OBJECT__49
10
0
20
0
30
0
70
128
71
114
72
116
73
112
0
VERTEX
8
OBJECT__49
10
0
20
0
30
0
70
128
71
112
72
117
73
118
0
VERTEX
8
OBJECT__49
10
0
20
0
30
0
70
128
71
24
72
119
73
120
0
VERTEX
8
OBJECT__49
10
0
20
0
30
0
70
128
71
118
72
115
73
112
0
VERTEX
8
OBJECT__49
10
0
20
0
30
0
70
128
71
86
72
121
73
122
0
VERTEX
8
OBJECT__49
10
0
20
0
30
0
70
128
71
120
72
123
73
24
0
VERTEX
8
OBJECT__49
10
0
20
0
30
0
70
128
71
24
72
40
73
124
0
VERTEX
8
OBJECT__49
10
0
20
0
30
0
70
128
71
112
72
125
73
126
0
VERTEX
8
OBJECT__49
10
0
20
0
30
0
70
128
71
125
72
112
73
127
0
VERTEX
8
OBJECT__49
10
0
20
0
30
0
70
128
71
127
72
128
73
129
0
VERTEX
8
OBJECT__49
10
0
20
0
30
0
70
128
71
128
72
130
73
131
0
VERTEX
8
OBJECT__49
10
0
20
0
30
0
70
128
71
122
72
116
73
86
0
VERTEX
8
OBJECT__49
10
0
20
0
30
0
70
128
71
77
72
132
73
133
0
VERTEX
8
OBJECT__49
10
0
20
0
30
0
70
128
71
24
72
134
73
119
0
VERTEX
8
OBJECT__49
10
0
20
0
30
0
70
128
71
124
72
135
73
24
0
VERTEX
8
OBJECT__49
10
0
20
0
30
0
70
128
71
130
72
136
73
137
0
VERTEX
8
OBJECT__49
10
0
20
0
30
0
70
128
71
127
72
138
73
125
0
VERTEX
8
OBJECT__49
10
0
20
0
30
0
70
128
71
131
72
129
73
128
0
VERTEX
8
OBJECT__49
10
0
20
0
30
0
70
128
71
86
72
139
73
121
0
VERTEX
8
OBJECT__49
10
0
20
0
30
0
70
128
71
133
72
139
73
77
0
VERTEX
8
OBJECT__49
10
0
20
0
30
0
70
128
71
135
72
134
73
24
0
VERTEX
8
OBJECT__49
10
0
20
0
30
0
70
128
71
40
72
136
73
140
0
VERTEX
8
OBJECT__49
10
0
20
0
30
0
70
128
71
137
72
131
73
130
0
VERTEX
8
OBJECT__49
10
0
20
0
30
0
70
128
71
129
72
138
73
127
0
VERTEX
8
OBJECT__49
10
0
20
0
30
0
70
128
71
139
72
86
73
77
0
VERTEX
8
OBJECT__49
10
0
20
0
30
0
70
128
71
40
72
141
73
124
0
VERTEX
8
OBJECT__49
10
0
20
0
30
0
70
128
71
130
72
140
73
136
0
VERTEX
8
OBJECT__49
10
0
20
0
30
0
70
128
71
116
72
122
73
112
0
VERTEX
8
OBJECT__49
10
0
20
0
30
0
70
128
71
140
72
141
73
40
0
VERTEX
8
OBJECT__49
10
0
20
0
30
0
70
128
71
126
72
142
73
143
0
VERTEX
8
OBJECT__49
10
0
20
0
30
0
70
128
71
126
72
125
73
144
0
VERTEX
8
OBJECT__49
10
0
20
0
30
0
70
128
71
145
72
136
73
146
0
VERTEX
8
OBJECT__49
10
0
20
0
30
0
70
128
71
120
72
147
73
123
0
VERTEX
8
OBJECT__49
10
0
20
0
30
0
70
128
71
144
72
142
73
126
0
VERTEX
8
OBJECT__49
10
0
20
0
30
0
70
128
71
146
72
148
73
145
0
VERTEX
8
OBJECT__49
10
0
20
0
30
0
70
128
71
143
72
149
73
126
0
VERTEX
8
OBJECT__49
10
0
20
0
30
0
70
128
71
126
72
117
73
112
0
VERTEX
8
OBJECT__49
10
0
20
0
30
0
70
128
71
145
72
137
73
136
0
VERTEX
8
OBJECT__49
10
0
20
0
30
0
70
128
71
144
72
137
73
142
0
VERTEX
8
OBJECT__49
10
0
20
0
30
0
70
128
71
137
72
145
73
142
0
VERTEX
8
OBJECT__49
10
0
20
0
30
0
70
128
71
105
72
72
73
109
0
VERTEX
8
OBJECT__49
10
0
20
0
30
0
70
128
71
67
72
66
73
52
0
VERTEX
8
OBJECT__49
10
0
20
0
30
0
70
128
71
39
72
150
73
32
0
SEQEND
8
OBJECT__49
0
POLYLINE
8
OBJECT__51
66
1
70
64
71
4
72
2
62
253
0
VERTEX
8
OBJECT__51
10
4.350000
20
35.349998
30
41.102001
70
192
0
VERTEX
8
OBJECT__51
10
5.300000
20
35.349998
30
41.102001
70
192
0
VERTEX
8
OBJECT__51
10
5.300000
20
35.279999
30
40.950001
70
192
0
VERTEX
8
OBJECT__51
10
4.350000
20
35.279999
30
40.950001
70
192
0
VERTEX
8
OBJECT__51
10
0
20
0
30
0
70
128
71
1
72
2
73
3
0
VERTEX
8
OBJECT__51
10
0
20
0
30
0
70
128
71
3
72
4
73
1
0
SEQEND
8
OBJECT__51
0
POLYLINE
8
OBJECT__52
66
1
70
64
71
4
72
2
62
253
0
VERTEX
8
OBJECT__52
10
4.000000
20
-34.779999
30
20.500000
70
192
0
VERTEX
8
OBJECT__52
10
5.300000
20
-34.779999
30
20.500000
70
192
0
VERTEX
8
OBJECT__52
10
5.300000
20
-35.279999
30
21.000000
70
192
0
VERTEX
8
OBJECT__52
10
4.000000
20
-35.279999
30
21.000000
70
192
0
VERTEX
8
OBJECT__52
10
0
20
0
30
0
70
128
71
1
72
2
73
3
0
VERTEX
8
OBJECT__52
10
0
20
0
30
0
70
128
71
3
72
4
73
1
0
SEQEND
8
OBJECT__52
0
POLYLINE
8
OBJECT__53
66
1
70
64
71
4
72
2
62
253
0
VERTEX
8
OBJECT__53
10
4.000000
20
35.279999
30
21.000000
70
192
0
VERTEX
8
OBJECT__53
10
5.300000
20
35.279999
30
21.000000
70
192
0
VERTEX
8
OBJECT__53
10
5.300000
20
34.779999
30
20.500000
70
192
0
VERTEX
8
OBJECT__53
10
4.000000
20
34.779999
30
20.500000
70
192
0
VERTEX
8
OBJECT__53
10
0
20
0
30
0
70
128
71
1
72
2
73
3
0
VERTEX
8
OBJECT__53
10
0
20
0
30
0
70
128
71
3
72
4
73
1
0
SEQEND
8
OBJECT__53
0
POLYLINE
8
OBJECT__54
66
1
70
64
71
4
72
2
62
253
0
VERTEX
8
OBJECT__54
10
5.300000
20
-3.266000
30
50.299999
70
192
0
VERTEX
8
OBJECT__54
10
5.300000
20
-3.266000
30
46.946999
70
192
0
VERTEX
8
OBJECT__54
10
4.387000
20
-2.270000
30
48.143002
70
192
0
VERTEX
8
OBJECT__54
10
4.387000
20
-2.270000
30
50.299999
70
192
0
VERTEX
8
OBJECT__54
10
0
20
0
30
0
70
128
71
1
72
2
73
3
0
VERTEX
8
OBJECT__54
10
0
20
0
30
0
70
128
71
3
72
4
73
1
0
SEQEND
8
OBJECT__54
0
POLYLINE
8
OBJECT__55
66
1
70
64
71
9
72
7
62
253
0
VERTEX
8
OBJECT__55
10
3.800000
20
-2.219000
30
49.900002
70
192
0
VERTEX
8
OBJECT__55
10
3.800000
20
-2.219000
30
50.099998
70
192
0
VERTEX
8
OBJECT__55
10
4.000000
20
-2.236000
30
50.299999
70
192
0
VERTEX
8
OBJECT__55
10
4.387000
20
-2.270000
30
48.143002
70
192
0
VERTEX
8
OBJECT__55
10
4.304000
20
-2.263000
30
48.146999
70
192
0
VERTEX
8
OBJECT__55
10
1.756000
20
-2.040000
30
48.192001
70
192
0
VERTEX
8
OBJECT__55
10
1.756000
20
-2.040000
30
49.700001
70
192
0
VERTEX
8
OBJECT__55
10
3.600000
20
-2.201000
30
49.700001
70
192
0
VERTEX
8
OBJECT__55
10
4.387000
20
-2.270000
30
50.299999
70
192
0
VERTEX
8
OBJECT__55
10
0
20
0
30
0
70
128
71
1
72
2
73
3
0
VERTEX
8
OBJECT__55
10
0
20
0
30
0
70
128
71
1
72
4
73
5
0
VERTEX
8
OBJECT__55
10
0
20
0
30
0
70
128
71
6
72
7
73
8
0
VERTEX
8
OBJECT__55
10
0
20
0
30
0
70
128
71
9
72
4
73
1
0
VERTEX
8
OBJECT__55
10
0
20
0
30
0
70
128
71
8
72
5
73
6
0
VERTEX
8
OBJECT__55
10
0
20
0
30
0
70
128
71
5
72
8
73
1
0
VERTEX
8
OBJECT__55
10
0
20
0
30
0
70
128
71
3
72
9
73
1
0
SEQEND
8
OBJECT__55
0
POLYLINE
8
OBJECT__56
66
1
70
64
71
4
72
2
62
253
0
VERTEX
8
OBJECT__56
10
5.300000
20
3.266000
30
50.299999
70
192
0
VERTEX
8
OBJECT__56
10
4.387000
20
2.270000
30
50.299999
70
192
0
VERTEX
8
OBJECT__56
10
4.387000
20
2.270000
30
48.143002
70
192
0
VERTEX
8
OBJECT__56
10
5.300000
20
3.266000
30
46.946999
70
192
0
VERTEX
8
OBJECT__56
10
0
20
0
30
0
70
128
71
1
72
2
73
3
0
VERTEX
8
OBJECT__56
10
0
20
0
30
0
70
128
71
3
72
4
73
1
0
SEQEND
8
OBJECT__56
0
POLYLINE
8
OBJECT__57
66
1
70
64
71
9
72
7
62
253
0
VERTEX
8
OBJECT__57
10
1.756000
20
2.040000
30
48.192001
70
192
0
VERTEX
8
OBJECT__57
10
4.304000
20
2.263000
30
48.146999
70
192
0
VERTEX
8
OBJECT__57
10
3.600000
20
2.201000
30
49.700001
70
192
0
VERTEX
8
OBJECT__57
10
3.800000
20
2.219000
30
49.900002
70
192
0
VERTEX
8
OBJECT__57
10
4.387000
20
2.270000
30
50.299999
70
192
0
VERTEX
8
OBJECT__57
10
4.000000
20
2.236000
30
50.299999
70
192
0
VERTEX
8
OBJECT__57
10
4.387000
20
2.270000
30
48.143002
70
192
0
VERTEX
8
OBJECT__57
10
3.800000
20
2.219000
30
50.099998
70
192
0
VERTEX
8
OBJECT__57
10
1.756000
20
2.040000
30
49.700001
70
192
0
VERTEX
8
OBJECT__57
10
0
20
0
30
0
70
128
71
1
72
2
73
3
0
VERTEX
8
OBJECT__57
10
0
20
0
30
0
70
128
71
4
72
3
73
2
0
VERTEX
8
OBJECT__57
10
0
20
0
30
0
70
128
71
4
72
5
73
6
0
VERTEX
8
OBJECT__57
10
0
20
0
30
0
70
128
71
2
72
7
73
4
0
VERTEX
8
OBJECT__57
10
0
20
0
30
0
70
128
71
6
72
8
73
4
0
VERTEX
8
OBJECT__57
10
0
20
0
30
0
70
128
71
4
72
7
73
5
0
VERTEX
8
OBJECT__57
10
0
20
0
30
0
70
128
71
3
72
9
73
1
0
SEQEND
8
OBJECT__57
0
POLYLINE
8
OBJECT__58
66
1
70
64
71
4
72
2
62
253
0
VERTEX
8
OBJECT__58
10
5.300000
20
35.349998
30
-24.673000
70
192
0
VERTEX
8
OBJECT__58
10
4.550000
20
35.349998
30
-24.673000
70
192
0
VERTEX
8
OBJECT__58
10
4.550000
20
35.250000
30
-24.500000
70
192
0
VERTEX
8
OBJECT__58
10
5.300000
20
35.250000
30
-24.500000
70
192
0
VERTEX
8
OBJECT__58
10
0
20
0
30
0
70
128
71
1
72
2
73
3
0
VERTEX
8
OBJECT__58
10
0
20
0
30
0
70
128
71
3
72
4
73
1
0
SEQEND
8
OBJECT__58
0
POLYLINE
8
OBJECT__59
66
1
70
64
71
221
72
225
62
253
0
VERTEX
8
OBJECT__59
10
5.300000
20
-26.021000
30
-45.105000
70
192
0
VERTEX
8
OBJECT__59
10
5.300000
20
-22.098000
30
-24.856001
70
192
0
VERTEX
8
OBJECT__59
10
5.300000
20
-24.267000
30
-23.224001
70
192
0
VERTEX
8
OBJECT__59
10
5.300000
20
-17.979000
30
-45.105000
70
192
0
VERTEX
8
OBJECT__59
10
5.300000
20
-17.110001
30
-32.110001
70
192
0
VERTEX
8
OBJECT__59
10
5.300000
20
-35.250000
30
-27.000000
70
192
0
VERTEX
8
OBJECT__59
10
5.300000
20
-35.104000
30
-43.750000
70
192
0
VERTEX
8
OBJECT__59
10
5.300000
20
-26.867001
30
-45.901001
70
192
0
VERTEX
8
OBJECT__59
10
5.300000
20
-8.197000
30
-39.654999
70
192
0
VERTEX
8
OBJECT__59
10
5.300000
20
-9.512000
30
-37.280998
70
192
0
VERTEX
8
OBJECT__59
10
5.300000
20
-35.250000
30
-26.000000
70
192
0
VERTEX
8
OBJECT__59
10
5.300000
20
-8.197000
30
-43.497002
70
192
0
VERTEX
8
OBJECT__59
10
5.300000
20
-35.250000
30
-24.500000
70
192
0
VERTEX
8
OBJECT__59
10
5.300000
20
-28.497000
30
-23.197001
70
192
0
VERTEX
8
OBJECT__59
10
5.300000
20
-24.655001
30
-23.197001
70
192
0
VERTEX
8
OBJECT__59
10
5.300000
20
-35.349998
30
-24.673000
70
192
0
VERTEX
8
OBJECT__59
10
5.300000
20
-35.349998
30
-25.827000
70
192
0
VERTEX
8
OBJECT__59
10
5.300000
20
-9.856000
30
-37.098000
70
192
0
VERTEX
8
OBJECT__59
10
5.300000
20
-17.132999
30
-45.901001
70
192
0
VERTEX
8
OBJECT__59
10
5.300000
20
-35.250000
30
-18.266001
70
192
0
VERTEX
8
OBJECT__59
10
5.300000
20
-31.556999
30
-20.933001
70
192
0
VERTEX
8
OBJECT__59
10
5.300000
20
-8.057000
30
-44.432999
70
192
0
VERTEX
8
OBJECT__59
10
5.300000
20
-29.886999
30
-2.667000
70
192
0
VERTEX
8
OBJECT__59
10
5.300000
20
-24.655001
30
-6.803000
70
192
0
VERTEX
8
OBJECT__59
10
5.300000
20
-22.281000
30
-5.488000
70
192
0
VERTEX
8
OBJECT__59
10
5.300000
20
-31.697001
30
-19.997000
70
192
0
VERTEX
8
OBJECT__59
10
5.300000
20
-29.997999
30
-15.360000
70
192
0
VERTEX
8
OBJECT__59
10
5.300000
20
-26.190001
30
-14.950000
70
192
0
VERTEX
8
OBJECT__59
10
5.300000
20
-26.500000
30
-14.640000
70
192
0
VERTEX
8
OBJECT__59
10
5.300000
20
-26.500000
30
-15.360000
70
192
0
VERTEX
8
OBJECT__59
10
5.300000
20
-31.947001
30
-11.734000
70
192
0
VERTEX
8
OBJECT__59
10
5.300000
20
-31.697001
30
-17.061001
70
192
0
VERTEX
8
OBJECT__59
10
5.300000
20
-31.697001
30
-12.939000
70
192
0
VERTEX
8
OBJECT__59
10
5.300000
20
-29.886999
30
18.408001
70
192
0
VERTEX
8
OBJECT__59
10
5.300000
20
-12.202000
30
19.799999
70
192
0
VERTEX
8
OBJECT__59
10
5.300000
20
-13.798000
30
19.799999
70
192
0
VERTEX
8
OBJECT__59
10
5.300000
20
-28.702000
30
19.799999
70
192
0
VERTEX
8
OBJECT__59
10
5.300000
20
-35.103001
30
13.750000
70
192
0
VERTEX
8
OBJECT__59
10
5.300000
20
-30.287001
30
18.007999
70
192
0
VERTEX
8
OBJECT__59
10
5.300000
20
-29.433001
30
-6.943000
70
192
0
VERTEX
8
OBJECT__59
10
5.300000
20
-30.287001
30
-2.267000
70
192
0
VERTEX
8
OBJECT__59
10
5.300000
20
-28.497000
30
-6.803000
70
192
0
VERTEX
8
OBJECT__59
10
5.300000
20
-35.250000
30
-11.734000
70
192
0
VERTEX
8
OBJECT__59
10
5.300000
20
-31.697001
30
-10.003000
70
192
0
VERTEX
8
OBJECT__59
10
5.300000
20
-35.250000
30
-4.000000
70
192
0
VERTEX
8
OBJECT__59
10
5.300000
20
-35.349998
30
-4.173000
70
192
0
VERTEX
8
OBJECT__59
10
5.300000
20
13.798000
30
19.799999
70
192
0
VERTEX
8
OBJECT__59
10
5.300000
20
-14.113000
30
18.408001
70
192
0
VERTEX
8
OBJECT__59
10
5.300000
20
-4.997000
30
16.697001
70
192
0
VERTEX
8
OBJECT__59
10
5.300000
20
26.021000
30
-45.105000
70
192
0
VERTEX
8
OBJECT__59
10
5.300000
20
28.497000
30
-23.197001
70
192
0
VERTEX
8
OBJECT__59
10
5.300000
20
22.098000
30
-24.856001
70
192
0
VERTEX
8
OBJECT__59
10
5.300000
20
-26.190001
30
-15.050000
70
192
0
VERTEX
8
OBJECT__59
10
5.300000
20
-31.947001
30
-18.266001
70
192
0
VERTEX
8
OBJECT__59
10
5.300000
20
-22.098000
30
-5.144000
70
192
0
VERTEX
8
OBJECT__59
10
5.300000
20
-35.250000
30
-5.500000
70
192
0
VERTEX
8
OBJECT__59
10
5.300000
20
-35.349998
30
-5.327000
70
192
0
VERTEX
8
OBJECT__59
10
5.300000
20
30.287001
30
18.007999
70
192
0
VERTEX
8
OBJECT__59
10
5.300000
20
31.947001
30
-11.734000
70
192
0
VERTEX
8
OBJECT__59
10
5.300000
20
35.250000
30
-3.000000
70
192
0
VERTEX
8
OBJECT__59
10
5.300000
20
35.250000
30
-4.000000
70
192
0
VERTEX
8
OBJECT__59
10
5.300000
20
35.250000
30
-5.500000
70
192
0
VERTEX
8
OBJECT__59
10
5.300000
20
35.349998
30
-5.327000
70
192
0
VERTEX
8
OBJECT__59
10
5.300000
20
35.250000
30
-11.734000
70
192
0
VERTEX
8
OBJECT__59
10
5.300000
20
-5.933000
30
16.556999
70
192
0
VERTEX
8
OBJECT__59
10
5.300000
20
-18.573999
30
18.500000
70
192
0
VERTEX
8
OBJECT__59
10
5.300000
20
-18.405001
30
18.408001
70
192
0
VERTEX
8
OBJECT__59
10
5.300000
20
17.110001
30
-32.110001
70
192
0
VERTEX
8
OBJECT__59
10
5.300000
20
24.655001
30
-23.197001
70
192
0
VERTEX
8
OBJECT__59
10
5.300000
20
17.979000
30
-45.105000
70
192
0
VERTEX
8
OBJECT__59
10
5.300000
20
9.856000
30
-37.098000
70
192
0
VERTEX
8
OBJECT__59
10
5.300000
20
8.224000
30
-39.266998
70
192
0
VERTEX
8
OBJECT__59
10
5.300000
20
-4.997000
30
-46.696999
70
192
0
VERTEX
8
OBJECT__59
10
5.300000
20
-28.750000
30
-50.055000
70
192
0
VERTEX
8
OBJECT__59
10
5.300000
20
-26.867001
30
-47.500000
70
192
0
VERTEX
8
OBJECT__59
10
5.300000
20
-29.997999
30
-14.640000
70
192
0
VERTEX
8
OBJECT__59
10
5.300000
20
-35.250000
30
-3.000000
70
192
0
VERTEX
8
OBJECT__59
10
5.300000
20
28.702000
30
19.799999
70
192
0
VERTEX
8
OBJECT__59
10
5.300000
20
25.426001
30
18.500000
70
192
0
VERTEX
8
OBJECT__59
10
5.300000
20
25.594999
30
18.408001
70
192
0
VERTEX
8
OBJECT__59
10
5.300000
20
18.573999
30
18.500000
70
192
0
VERTEX
8
OBJECT__59
10
5.300000
20
4.997000
30
16.697001
70
192
0
VERTEX
8
OBJECT__59
10
5.300000
20
8.057000
30
14.433000
70
192
0
VERTEX
8
OBJECT__59
10
5.300000
20
13.713000
30
18.007999
70
192
0
VERTEX
8
OBJECT__59
10
5.300000
20
-2.061000
30
16.697001
70
192
0
VERTEX
8
OBJECT__59
10
5.300000
20
2.061000
30
16.697001
70
192
0
VERTEX
8
OBJECT__59
10
5.300000
20
-25.426001
30
18.500000
70
192
0
VERTEX
8
OBJECT__59
10
5.300000
20
22.281000
30
-24.511999
70
192
0
VERTEX
8
OBJECT__59
10
5.300000
20
8.197000
30
-39.654999
70
192
0
VERTEX
8
OBJECT__59
10
5.300000
20
8.197000
30
-43.497002
70
192
0
VERTEX
8
OBJECT__59
10
5.300000
20
17.132999
30
-45.901001
70
192
0
VERTEX
8
OBJECT__59
10
5.300000
20
29.433001
30
-23.056999
70
192
0
VERTEX
8
OBJECT__59
10
5.300000
20
35.349998
30
-25.827000
70
192
0
VERTEX
8
OBJECT__59
10
5.300000
20
35.349998
30
-24.673000
70
192
0
VERTEX
8
OBJECT__59
10
5.300000
20
9.500000
30
-50.200001
70
192
0
VERTEX
8
OBJECT__59
10
5.300000
20
9.652000
30
-50.270000
70
192
0
VERTEX
8
OBJECT__59
10
5.300000
20
-20.816999
30
-2.667000
70
192
0
VERTEX
8
OBJECT__59
10
5.300000
20
8.197000
30
10.906000
70
192
0
VERTEX
8
OBJECT__59
10
5.300000
20
10.425000
30
8.165000
70
192
0
VERTEX
8
OBJECT__59
10
5.300000
20
35.349998
30
-4.173000
70
192
0
VERTEX
8
OBJECT__59
10
5.300000
20
29.886999
30
18.408001
70
192
0
VERTEX
8
OBJECT__59
10
5.300000
20
14.113000
30
18.408001
70
192
0
VERTEX
8
OBJECT__59
10
5.300000
20
18.405001
30
18.408001
70
192
0
VERTEX
8
OBJECT__59
10
5.300000
20
-0.360000
30
14.998000
70
192
0
VERTEX
8
OBJECT__59
10
5.300000
20
35.250000
30
-18.266001
70
192
0
VERTEX
8
OBJECT__59
10
5.300000
20
31.947001
30
-18.266001
70
192
0
VERTEX
8
OBJECT__59
10
5.300000
20
31.697001
30
-19.997000
70
192
0
VERTEX
8
OBJECT__59
10
5.300000
20
35.250000
30
-26.000000
70
192
0
VERTEX
8
OBJECT__59
10
5.300000
20
35.104000
30
-43.750000
70
192
0
VERTEX
8
OBJECT__59
10
5.300000
20
35.250000
30
-27.000000
70
192
0
VERTEX
8
OBJECT__59
10
5.300000
20
12.000000
30
-50.200001
70
192
0
VERTEX
8
OBJECT__59
10
5.300000
20
17.132999
30
-47.500000
70
192
0
VERTEX
8
OBJECT__59
10
5.300000
20
10.848000
30
-50.270000
70
192
0
VERTEX
8
OBJECT__59
10
5.300000
20
8.197000
30
13.497000
70
192
0
VERTEX
8
OBJECT__59
10
5.300000
20
35.103001
30
13.750000
70
192
0
VERTEX
8
OBJECT__59
10
5.300000
20
-25.594999
30
18.408001
70
192
0
VERTEX
8
OBJECT__59
10
5.300000
20
-13.713000
30
8.107000
70
192
0
VERTEX
8
OBJECT__59
10
5.300000
20
-8.197000
30
10.906000
70
192
0
VERTEX
8
OBJECT__59
10
5.300000
20
-8.197000
30
13.497000
70
192
0
VERTEX
8
OBJECT__59
10
5.300000
20
-10.996000
30
8.107000
70
192
0
VERTEX
8
OBJECT__59
10
5.300000
20
29.997999
30
-14.640000
70
192
0
VERTEX
8
OBJECT__59
10
5.300000
20
26.500000
30
-14.640000
70
192
0
VERTEX
8
OBJECT__59
10
5.300000
20
26.500000
30
-15.360000
70
192
0
VERTEX
8
OBJECT__59
10
5.300000
20
26.190001
30
-14.950000
70
192
0
VERTEX
8
OBJECT__59
10
5.300000
20
35.250000
30
-24.500000
70
192
0
VERTEX
8
OBJECT__59
10
5.300000
20
3.266000
30
-50.200001
70
192
0
VERTEX
8
OBJECT__59
10
5.300000
20
5.933000
30
-46.556999
70
192
0
VERTEX
8
OBJECT__59
10
5.300000
20
11.000000
30
-50.200001
70
192
0
VERTEX
8
OBJECT__59
10
5.300000
20
10.996000
30
8.107000
70
192
0
VERTEX
8
OBJECT__59
10
5.300000
20
-8.255000
30
10.335000
70
192
0
VERTEX
8
OBJECT__59
10
5.300000
20
31.697001
30
-12.939000
70
192
0
VERTEX
8
OBJECT__59
10
5.300000
20
31.697001
30
-17.061001
70
192
0
VERTEX
8
OBJECT__59
10
5.300000
20
26.190001
30
-15.050000
70
192
0
VERTEX
8
OBJECT__59
10
5.300000
20
4.997000
30
-46.696999
70
192
0
VERTEX
8
OBJECT__59
10
5.300000
20
-13.798000
30
19.900000
70
192
0
VERTEX
8
OBJECT__59
10
5.300000
20
0.360000
30
14.998000
70
192
0
VERTEX
8
OBJECT__59
10
5.300000
20
-0.050000
30
11.190000
70
192
0
VERTEX
8
OBJECT__59
10
5.300000
20
0.050000
30
11.190000
70
192
0
VERTEX
8
OBJECT__59
10
5.300000
20
-0.360000
30
11.500000
70
192
0
VERTEX
8
OBJECT__59
10
5.300000
20
-13.713000
30
18.007999
70
192
0
VERTEX
8
OBJECT__59
10
5.300000
20
29.886999
30
-2.667000
70
192
0
VERTEX
8
OBJECT__59
10
5.300000
20
20.816999
30
-2.667000
70
192
0
VERTEX
8
OBJECT__59
10
5.300000
20
24.655001
30
-6.803000
70
192
0
VERTEX
8
OBJECT__59
10
5.300000
20
22.098000
30
-5.144000
70
192
0
VERTEX
8
OBJECT__59
10
5.300000
20
29.997999
30
-15.360000
70
192
0
VERTEX
8
OBJECT__59
10
5.300000
20
0.360000
30
-44.998001
70
192
0
VERTEX
8
OBJECT__59
10
5.300000
20
0.360000
30
-41.500000
70
192
0
VERTEX
8
OBJECT__59
10
5.300000
20
-0.360000
30
-41.500000
70
192
0
VERTEX
8
OBJECT__59
10
5.300000
20
0.050000
30
-41.189999
70
192
0
VERTEX
8
OBJECT__59
10
5.300000
20
-3.266000
30
-46.946999
70
192
0
VERTEX
8
OBJECT__59
10
5.300000
20
2.061000
30
-46.696999
70
192
0
VERTEX
8
OBJECT__59
10
5.300000
20
-2.061000
30
-46.696999
70
192
0
VERTEX
8
OBJECT__59
10
5.300000
20
-9.500000
30
-50.200001
70
192
0
VERTEX
8
OBJECT__59
10
5.300000
20
-11.000000
30
-50.200001
70
192
0
VERTEX
8
OBJECT__59
10
5.300000
20
-10.848000
30
-50.270000
70
192
0
VERTEX
8
OBJECT__59
10
5.300000
20
-12.202000
30
19.900000
70
192
0
VERTEX
8
OBJECT__59
10
5.300000
20
12.202000
30
19.799999
70
192
0
VERTEX
8
OBJECT__59
10
5.300000
20
24.267000
30
-6.776000
70
192
0
VERTEX
8
OBJECT__59
10
5.300000
20
3.266000
30
-46.946999
70
192
0
VERTEX
8
OBJECT__59
10
5.300000
20
-0.050000
30
-41.189999
70
192
0
VERTEX
8
OBJECT__59
10
5.300000
20
-17.132999
30
-47.500000
70
192
0
VERTEX
8
OBJECT__59
10
5.300000
20
-12.000000
30
-50.200001
70
192
0
VERTEX
8
OBJECT__59
10
5.300000
20
35.070999
30
-47.542999
70
192
0
VERTEX
8
OBJECT__59
10
5.300000
20
30.250000
30
-50.042000
70
192
0
VERTEX
8
OBJECT__59
10
5.300000
20
32.592999
30
-50.021000
70
192
0
VERTEX
8
OBJECT__59
10
5.300000
20
12.202000
30
19.900000
70
192
0
VERTEX
8
OBJECT__59
10
5.300000
20
0.360000
30
11.500000
70
192
0
VERTEX
8
OBJECT__59
10
5.300000
20
28.497000
30
-6.803000
70
192
0
VERTEX
8
OBJECT__59
10
5.300000
20
26.867001
30
-45.901001
70
192
0
VERTEX
8
OBJECT__59
10
5.300000
20
28.750000
30
-50.055000
70
192
0
VERTEX
8
OBJECT__59
10
5.300000
20
26.867001
30
-47.500000
70
192
0
VERTEX
8
OBJECT__59
10
5.300000
20
-0.360000
30
-44.998001
70
192
0
VERTEX
8
OBJECT__59
10
5.300000
20
-3.266000
30
-50.200001
70
192
0
VERTEX
8
OBJECT__59
10
5.300000
20
35.150002
30
-45.250000
70
192
0
VERTEX
8
OBJECT__59
10
5.300000
20
35.349998
30
-43.950001
70
192
0
VERTEX
8
OBJECT__59
10
5.300000
20
35.150002
30
-43.750000
70
192
0
VERTEX
8
OBJECT__59
10
5.300000
20
34.339001
30
-49.289001
70
192
0
VERTEX
8
OBJECT__59
10
5.300000
20
13.798000
30
19.900000
70
192
0
VERTEX
8
OBJECT__59
10
5.300000
20
13.713000
30
8.107000
70
192
0
VERTEX
8
OBJECT__59
10
5.300000
20
31.697001
30
-10.003000
70
192
0
VERTEX
8
OBJECT__59
10
5.300000
20
31.556999
30
-9.067000
70
192
0
VERTEX
8
OBJECT__59
10
5.300000
20
30.287001
30
-2.267000
70
192
0
VERTEX
8
OBJECT__59
10
5.300000
20
-9.652000
30
-50.270000
70
192
0
VERTEX
8
OBJECT__59
10
5.300000
20
-30.250000
30
-50.042000
70
192
0
VERTEX
8
OBJECT__59
10
5.300000
20
-35.091000
30
-45.250000
70
192
0
VERTEX
8
OBJECT__59
10
5.300000
20
-35.070999
30
-47.542999
70
192
0
VERTEX
8
OBJECT__59
10
5.300000
20
-35.150002
30
-45.250000
70
192
0
VERTEX
8
OBJECT__59
10
5.300000
20
-35.150002
30
-43.750000
70
192
0
VERTEX
8
OBJECT__59
10
5.300000
20
-35.349998
30
-43.950001
70
192
0
VERTEX
8
OBJECT__59
10
5.300000
20
35.349998
30
-45.049999
70
192
0
VERTEX
8
OBJECT__59
10
5.300000
20
35.091000
30
-45.250000
70
192
0
VERTEX
8
OBJECT__59
10
5.300000
20
30.250000
30
-50.070000
70
192
0
VERTEX
8
OBJECT__59
10
5.300000
20
28.750000
30
-50.070000
70
192
0
VERTEX
8
OBJECT__59
10
5.300000
20
28.950001
30
-50.270000
70
192
0
VERTEX
8
OBJECT__59
10
5.300000
20
-28.750000
30
-50.070000
70
192
0
VERTEX
8
OBJECT__59
10
5.300000
20
-30.250000
30
-50.070000
70
192
0
VERTEX
8
OBJECT__59
10
5.300000
20
-30.049999
30
-50.270000
70
192
0
VERTEX
8
OBJECT__59
10
5.300000
20
30.049999
30
-50.270000
70
192
0
VERTEX
8
OBJECT__59
10
5.300000
20
28.702000
30
19.900000
70
192
0
VERTEX
8
OBJECT__59
10
5.300000
20
-35.150002
30
13.750000
70
192
0
VERTEX
8
OBJECT__59
10
5.300000
20
-35.150002
30
15.250000
70
192
0
VERTEX
8
OBJECT__59
10
5.300000
20
-35.349998
30
15.050000
70
192
0
VERTEX
8
OBJECT__59
10
5.300000
20
-30.298000
30
19.799999
70
192
0
VERTEX
8
OBJECT__59
10
5.300000
20
-34.554001
30
19.799999
70
192
0
VERTEX
8
OBJECT__59
10
5.300000
20
-35.054001
30
19.304001
70
192
0
VERTEX
8
OBJECT__59
10
5.300000
20
35.090000
30
15.250000
70
192
0
VERTEX
8
OBJECT__59
10
5.300000
20
35.054001
30
19.304001
70
192
0
VERTEX
8
OBJECT__59
10
5.300000
20
34.554001
30
19.799999
70
192
0
VERTEX
8
OBJECT__59
10
5.300000
20
-32.592999
30
-50.021000
70
192
0
VERTEX
8
OBJECT__59
10
5.300000
20
-35.349998
30
-45.049999
70
192
0
VERTEX
8
OBJECT__59
10
5.300000
20
-35.090000
30
15.250000
70
192
0
VERTEX
8
OBJECT__59
10
5.300000
20
30.298000
30
19.799999
70
192
0
VERTEX
8
OBJECT__59
10
5.300000
20
35.349998
30
13.950000
70
192
0
VERTEX
8
OBJECT__59
10
5.300000
20
35.349998
30
15.050000
70
192
0
VERTEX
8
OBJECT__59
10
5.300000
20
35.150002
30
13.750000
70
192
0
VERTEX
8
OBJECT__59
10
5.300000
20
-28.950001
30
-50.270000
70
192
0
VERTEX
8
OBJECT__59
10
5.300000
20
-35.349998
30
13.950000
70
192
0
VERTEX
8
OBJECT__59
10
5.300000
20
-28.702000
30
19.900000
70
192
0
VERTEX
8
OBJECT__59
10
5.300000
20
35.150002
30
15.250000
70
192
0
VERTEX
8
OBJECT__59
10
5.300000
20
-30.298000
30
19.900000
70
192
0
VERTEX
8
OBJECT__59
10
5.300000
20
30.298000
30
19.900000
70
192
0
VERTEX
8
OBJECT__59
10
0
20
0
30
0
70
128
71
1
72
2
73
3
0
VERTEX
8
OBJECT__59
10
0
20
0
30
0
70
128
71
1
72
4
73
5
0
VERTEX
8
OBJECT__59
10
0
20
0
30
0
70
128
71
6
72
7
73
8
0
VERTEX
8
OBJECT__59
10
0
20
0
30
0
70
128
71
4
72
9
73
10
0
VERTEX
8
OBJECT__59
10
0
20
0
30
0
70
128
71
5
72
2
73
1
0
VERTEX
8
OBJECT__59
10
0
20
0
30
0
70
128
71
1
72
11
73
6
0
VERTEX
8
OBJECT__59
10
0
20
0
30
0
70
128
71
4
72
12
73
9
0
VERTEX
8
OBJECT__59
10
0
20
0
30
0
70
128
71
13
72
1
73
14
0
VERTEX
8
OBJECT__59
10
0
20
0
30
0
70
128
71
3
72
15
73
1
0
VERTEX
8
OBJECT__59
10
0
20
0
30
0
70
128
71
1
72
13
73
11
0
VERTEX
8
OBJECT__59
10
0
20
0
30
0
70
128
71
13
72
16
73
17
0
VERTEX
8
OBJECT__59
10
0
20
0
30
0
70
128
71
10
72
18
73
4
0
VERTEX
8
OBJECT__59
10
0
20
0
30
0
70
128
71
12
72
4
73
19
0
VERTEX
8
OBJECT__59
10
0
20
0
30
0
70
128
71
15
72
14
73
1
0
VERTEX
8
OBJECT__59
10
0
20
0
30
0
70
128
71
17
72
11
73
13
0
VERTEX
8
OBJECT__59
10
0
20
0
30
0
70
128
71
20
72
13
73
21
0
VERTEX
8
OBJECT__59
10
0
20
0
30
0
70
128
71
19
72
22
73
12
0
VERTEX
8
OBJECT__59
10
0
20
0
30
0
70
128
71
8
72
1
73
6
0
VERTEX
8
OBJECT__59
10
0
20
0
30
0
70
128
71
23
72
24
73
25
0
VERTEX
8
OBJECT__59
10
0
20
0
30
0
70
128
71
21
72
26
73
20
0
VERTEX
8
OBJECT__59
10
0
20
0
30
0
70
128
71
14
72
21
73
13
0
VERTEX
8
OBJECT__59
10
0
20
0
30
0
70
128
71
27
72
28
73
29
0
VERTEX
8
OBJECT__59
10
0
20
0
30
0
70
128
71
28
72
27
73
30
0
VERTEX
8
OBJECT__59
10
0
20
0
30
0
70
128
71
31
72
32
73
33
0
VERTEX
8
OBJECT__59
10
0
20
0
30
0
70
128
71
34
72
35
73
36
0
VERTEX
8
OBJECT__59
10
0
20
0
30
0
70
128
71
37
72
38
73
39
0
VERTEX
8
OBJECT__59
10
0
20
0
30
0
70
128
71
38
72
40
73
41
0
VERTEX
8
OBJECT__59
10
0
20
0
30
0
70
128
71
23
72
42
73
24
0
VERTEX
8
OBJECT__59
10
0
20
0
30
0
70
128
71
43
72
31
73
44
0
VERTEX
8
OBJECT__59
10
0
20
0
30
0
70
128
71
40
72
45
73
46
0
VERTEX
8
OBJECT__59
10
0
20
0
30
0
70
128
71
47
72
48
73
49
0
VERTEX
8
OBJECT__59
10
0
20
0
30
0
70
128
71
50
72
51
73
52
0
VERTEX
8
OBJECT__59
10
0
20
0
30
0
70
128
71
18
72
5
73
4
0
VERTEX
8
OBJECT__59
10
0
20
0
30
0
70
128
71
30
72
53
73
28
0
VERTEX
8
OBJECT__59
10
0
20
0
30
0
70
128
71
32
72
27
73
33
0
VERTEX
8
OBJECT__59
10
0
20
0
30
0
70
128
71
54
72
26
73
32
0
VERTEX
8
OBJECT__59
10
0
20
0
30
0
70
128
71
39
72
34
73
37
0
VERTEX
8
OBJECT__59
10
0
20
0
30
0
70
128
71
40
72
23
73
41
0
VERTEX
8
OBJECT__59
10
0
20
0
30
0
70
128
71
25
72
55
73
23
0
VERTEX
8
OBJECT__59
10
0
20
0
30
0
70
128
71
44
72
56
73
43
0
VERTEX
8
OBJECT__59
10
0
20
0
30
0
70
128
71
46
72
57
73
40
0
VERTEX
8
OBJECT__59
10
0
20
0
30
0
70
128
71
58
72
59
73
60
0
VERTEX
8
OBJECT__59
10
0
20
0
30
0
70
128
71
61
72
62
73
63
0
VERTEX
8
OBJECT__59
10
0
20
0
30
0
70
128
71
59
72
64
73
62
0
VERTEX
8
OBJECT__59
10
0
20
0
30
0
70
128
71
48
72
65
73
49
0
VERTEX
8
OBJECT__59
10
0
20
0
30
0
70
128
71
66
72
67
73
48
0
VERTEX
8
OBJECT__59
10
0
20
0
30
0
70
128
71
52
72
68
73
50
0
VERTEX
8
OBJECT__59
10
0
20
0
30
0
70
128
71
52
72
51
73
69
0
VERTEX
8
OBJECT__59
10
0
20
0
30
0
70
128
71
70
72
71
73
72
0
VERTEX
8
OBJECT__59
10
0
20
0
30
0
70
128
71
19
72
73
73
22
0
VERTEX
8
OBJECT__59
10
0
20
0
30
0
70
128
71
7
72
74
73
75
0
VERTEX
8
OBJECT__59
10
0
20
0
30
0
70
128
71
29
72
76
73
27
0
VERTEX
8
OBJECT__59
10
0
20
0
30
0
70
128
71
32
72
31
73
54
0
VERTEX
8
OBJECT__59
10
0
20
0
30
0
70
128
71
41
72
39
73
38
0
VERTEX
8
OBJECT__59
10
0
20
0
30
0
70
128
71
23
72
40
73
42
0
VERTEX
8
OBJECT__59
10
0
20
0
30
0
70
128
71
57
72
56
73
40
0
VERTEX
8
OBJECT__59
10
0
20
0
30
0
70
128
71
40
72
38
73
77
0
VERTEX
8
OBJECT__59
10
0
20
0
30
0
70
128
71
59
72
61
73
60
0
VERTEX
8
OBJECT__59
10
0
20
0
30
0
70
128
71
62
72
61
73
59
0
VERTEX
8
OBJECT__59
10
0
20
0
30
0
70
128
71
78
72
79
73
80
0
VERTEX
8
OBJECT__59
10
0
20
0
30
0
70
128
71
78
72
47
73
81
0
VERTEX
8
OBJECT__59
10
0
20
0
30
0
70
128
71
82
72
83
73
84
0
VERTEX
8
OBJECT__59
10
0
20
0
30
0
70
128
71
47
72
85
73
86
0
VERTEX
8
OBJECT__59
10
0
20
0
30
0
70
128
71
48
72
47
73
66
0
VERTEX
8
OBJECT__59
10
0
20
0
30
0
70
128
71
47
72
34
73
87
0
VERTEX
8
OBJECT__59
10
0
20
0
30
0
70
128
71
69
72
88
73
52
0
VERTEX
8
OBJECT__59
10
0
20
0
30
0
70
128
71
89
72
90
73
91
0
VERTEX
8
OBJECT__59
10
0
20
0
30
0
70
128
71
70
72
68
73
71
0
VERTEX
8
OBJECT__59
10
0
20
0
30
0
70
128
71
92
72
93
73
94
0
VERTEX
8
OBJECT__59
10
0
20
0
30
0
70
128
71
90
72
95
73
96
0
VERTEX
8
OBJECT__59
10
0
20
0
30
0
70
128
71
75
72
8
73
7
0
VERTEX
8
OBJECT__59
10
0
20
0
30
0
70
128
71
33
72
44
73
31
0
VERTEX
8
OBJECT__59
10
0
20
0
30
0
70
128
71
55
72
97
73
23
0
VERTEX
8
OBJECT__59
10
0
20
0
30
0
70
128
71
77
72
45
73
40
0
VERTEX
8
OBJECT__59
10
0
20
0
30
0
70
128
71
84
72
98
73
99
0
VERTEX
8
OBJECT__59
10
0
20
0
30
0
70
128
71
63
72
100
73
61
0
VERTEX
8
OBJECT__59
10
0
20
0
30
0
70
128
71
78
72
101
73
58
0
VERTEX
8
OBJECT__59
10
0
20
0
30
0
70
128
71
81
72
79
73
78
0
VERTEX
8
OBJECT__59
10
0
20
0
30
0
70
128
71
47
72
102
73
103
0
VERTEX
8
OBJECT__59
10
0
20
0
30
0
70
128
71
84
72
47
73
82
0
VERTEX
8
OBJECT__59
10
0
20
0
30
0
70
128
71
85
72
104
73
86
0
VERTEX
8
OBJECT__59
10
0
20
0
30
0
70
128
71
87
72
66
73
47
0
VERTEX
8
OBJECT__59
10
0
20
0
30
0
70
128
71
50
72
92
73
51
0
VERTEX
8
OBJECT__59
10
0
20
0
30
0
70
128
71
72
72
89
73
70
0
VERTEX
8
OBJECT__59
10
0
20
0
30
0
70
128
71
105
72
106
73
107
0
VERTEX
8
OBJECT__59
10
0
20
0
30
0
70
128
71
92
72
108
73
93
0
VERTEX
8
OBJECT__59
10
0
20
0
30
0
70
128
71
92
72
109
73
110
0
VERTEX
8
OBJECT__59
10
0
20
0
30
0
70
128
71
90
72
111
73
112
0
VERTEX
8
OBJECT__59
10
0
20
0
30
0
70
128
71
96
72
113
73
90
0
VERTEX
8
OBJECT__59
10
0
20
0
30
0
70
128
71
76
72
33
73
27
0
VERTEX
8
OBJECT__59
10
0
20
0
30
0
70
128
71
44
72
40
73
56
0
VERTEX
8
OBJECT__59
10
0
20
0
30
0
70
128
71
84
72
114
73
98
0
VERTEX
8
OBJECT__59
10
0
20
0
30
0
70
128
71
58
72
115
73
78
0
VERTEX
8
OBJECT__59
10
0
20
0
30
0
70
128
71
103
72
81
73
47
0
VERTEX
8
OBJECT__59
10
0
20
0
30
0
70
128
71
86
72
82
73
47
0
VERTEX
8
OBJECT__59
10
0
20
0
30
0
70
128
71
34
72
116
73
87
0
VERTEX
8
OBJECT__59
10
0
20
0
30
0
70
128
71
117
72
118
73
119
0
VERTEX
8
OBJECT__59
10
0
20
0
30
0
70
128
71
118
72
117
73
120
0
VERTEX
8
OBJECT__59
10
0
20
0
30
0
70
128
71
121
72
122
73
123
0
VERTEX
8
OBJECT__59
10
0
20
0
30
0
70
128
71
123
72
122
73
124
0
VERTEX
8
OBJECT__59
10
0
20
0
30
0
70
128
71
109
72
92
73
50
0
VERTEX
8
OBJECT__59
10
0
20
0
30
0
70
128
71
91
72
70
73
89
0
VERTEX
8
OBJECT__59
10
0
20
0
30
0
70
128
71
107
72
125
73
105
0
VERTEX
8
OBJECT__59
10
0
20
0
30
0
70
128
71
110
72
108
73
92
0
VERTEX
8
OBJECT__59
10
0
20
0
30
0
70
128
71
126
72
95
73
127
0
VERTEX
8
OBJECT__59
10
0
20
0
30
0
70
128
71
90
72
128
73
111
0
VERTEX
8
OBJECT__59
10
0
20
0
30
0
70
128
71
90
72
127
73
95
0
VERTEX
8
OBJECT__59
10
0
20
0
30
0
70
128
71
36
72
37
73
34
0
VERTEX
8
OBJECT__59
10
0
20
0
30
0
70
128
71
99
72
129
73
84
0
VERTEX
8
OBJECT__59
10
0
20
0
30
0
70
128
71
80
72
101
73
78
0
VERTEX
8
OBJECT__59
10
0
20
0
30
0
70
128
71
49
72
85
73
47
0
VERTEX
8
OBJECT__59
10
0
20
0
30
0
70
128
71
120
72
130
73
118
0
VERTEX
8
OBJECT__59
10
0
20
0
30
0
70
128
71
106
72
131
73
132
0
VERTEX
8
OBJECT__59
10
0
20
0
30
0
70
128
71
124
72
133
73
123
0
VERTEX
8
OBJECT__59
10
0
20
0
30
0
70
128
71
68
72
70
73
50
0
VERTEX
8
OBJECT__59
10
0
20
0
30
0
70
128
71
94
72
125
73
92
0
VERTEX
8
OBJECT__59
10
0
20
0
30
0
70
128
71
127
72
134
73
126
0
VERTEX
8
OBJECT__59
10
0
20
0
30
0
70
128
71
113
72
128
73
90
0
VERTEX
8
OBJECT__59
10
0
20
0
30
0
70
128
71
26
72
54
73
20
0
VERTEX
8
OBJECT__59
10
0
20
0
30
0
70
128
71
135
72
36
73
35
0
VERTEX
8
OBJECT__59
10
0
20
0
30
0
70
128
71
136
72
137
73
138
0
VERTEX
8
OBJECT__59
10
0
20
0
30
0
70
128
71
136
72
104
73
139
0
VERTEX
8
OBJECT__59
10
0
20
0
30
0
70
128
71
84
72
83
73
114
0
VERTEX
8
OBJECT__59
10
0
20
0
30
0
70
128
71
84
72
102
73
47
0
VERTEX
8
OBJECT__59
10
0
20
0
30
0
70
128
71
119
72
140
73
117
0
VERTEX
8
OBJECT__59
10
0
20
0
30
0
70
128
71
141
72
142
73
143
0
VERTEX
8
OBJECT__59
10
0
20
0
30
0
70
128
71
143
72
142
73
144
0
VERTEX
8
OBJECT__59
10
0
20
0
30
0
70
128
71
131
72
145
73
132
0
VERTEX
8
OBJECT__59
10
0
20
0
30
0
70
128
71
145
72
131
73
121
0
VERTEX
8
OBJECT__59
10
0
20
0
30
0
70
128
71
107
72
92
73
125
0
VERTEX
8
OBJECT__59
10
0
20
0
30
0
70
128
71
112
72
91
73
90
0
VERTEX
8
OBJECT__59
10
0
20
0
30
0
70
128
71
146
72
147
73
148
0
VERTEX
8
OBJECT__59
10
0
20
0
30
0
70
128
71
148
72
147
73
149
0
VERTEX
8
OBJECT__59
10
0
20
0
30
0
70
128
71
150
72
151
73
152
0
VERTEX
8
OBJECT__59
10
0
20
0
30
0
70
128
71
153
72
154
73
155
0
VERTEX
8
OBJECT__59
10
0
20
0
30
0
70
128
71
35
72
156
73
135
0
VERTEX
8
OBJECT__59
10
0
20
0
30
0
70
128
71
34
72
47
73
157
0
VERTEX
8
OBJECT__59
10
0
20
0
30
0
70
128
71
139
72
137
73
136
0
VERTEX
8
OBJECT__59
10
0
20
0
30
0
70
128
71
60
72
115
73
58
0
VERTEX
8
OBJECT__59
10
0
20
0
30
0
70
128
71
65
72
48
73
140
0
VERTEX
8
OBJECT__59
10
0
20
0
30
0
70
128
71
144
72
158
73
143
0
VERTEX
8
OBJECT__59
10
0
20
0
30
0
70
128
71
123
72
145
73
121
0
VERTEX
8
OBJECT__59
10
0
20
0
30
0
70
128
71
134
72
159
73
126
0
VERTEX
8
OBJECT__59
10
0
20
0
30
0
70
128
71
149
72
160
73
148
0
VERTEX
8
OBJECT__59
10
0
20
0
30
0
70
128
71
151
72
146
73
152
0
VERTEX
8
OBJECT__59
10
0
20
0
30
0
70
128
71
159
72
134
73
151
0
VERTEX
8
OBJECT__59
10
0
20
0
30
0
70
128
71
73
72
19
73
153
0
VERTEX
8
OBJECT__59
10
0
20
0
30
0
70
128
71
153
72
19
73
154
0
VERTEX
8
OBJECT__59
10
0
20
0
30
0
70
128
71
19
72
161
73
162
0
VERTEX
8
OBJECT__59
10
0
20
0
30
0
70
128
71
163
72
164
73
165
0
VERTEX
8
OBJECT__59
10
0
20
0
30
0
70
128
71
157
72
35
73
34
0
VERTEX
8
OBJECT__59
10
0
20
0
30
0
70
128
71
166
72
157
73
47
0
VERTEX
8
OBJECT__59
10
0
20
0
30
0
70
128
71
138
72
167
73
136
0
VERTEX
8
OBJECT__59
10
0
20
0
30
0
70
128
71
119
72
65
73
140
0
VERTEX
8
OBJECT__59
10
0
20
0
30
0
70
128
71
143
72
168
73
141
0
VERTEX
8
OBJECT__59
10
0
20
0
30
0
70
128
71
50
72
169
73
109
0
VERTEX
8
OBJECT__59
10
0
20
0
30
0
70
128
71
170
72
171
73
112
0
VERTEX
8
OBJECT__59
10
0
20
0
30
0
70
128
71
148
72
172
73
146
0
VERTEX
8
OBJECT__59
10
0
20
0
30
0
70
128
71
151
72
150
73
159
0
VERTEX
8
OBJECT__59
10
0
20
0
30
0
70
128
71
173
72
150
73
73
0
VERTEX
8
OBJECT__59
10
0
20
0
30
0
70
128
71
162
72
154
73
19
0
VERTEX
8
OBJECT__59
10
0
20
0
30
0
70
128
71
174
72
175
73
176
0
VERTEX
8
OBJECT__59
10
0
20
0
30
0
70
128
71
165
72
177
73
163
0
VERTEX
8
OBJECT__59
10
0
20
0
30
0
70
128
71
47
72
178
73
166
0
VERTEX
8
OBJECT__59
10
0
20
0
30
0
70
128
71
129
72
179
73
84
0
VERTEX
8
OBJECT__59
10
0
20
0
30
0
70
128
71
59
72
180
73
131
0
VERTEX
8
OBJECT__59
10
0
20
0
30
0
70
128
71
58
72
181
73
180
0
VERTEX
8
OBJECT__59
10
0
20
0
30
0
70
128
71
181
72
182
73
141
0
VERTEX
8
OBJECT__59
10
0
20
0
30
0
70
128
71
112
72
111
73
170
0
VERTEX
8
OBJECT__59
10
0
20
0
30
0
70
128
71
152
72
73
73
150
0
VERTEX
8
OBJECT__59
10
0
20
0
30
0
70
128
71
74
72
162
73
161
0
VERTEX
8
OBJECT__59
10
0
20
0
30
0
70
128
71
155
72
183
73
153
0
VERTEX
8
OBJECT__59
10
0
20
0
30
0
70
128
71
184
72
185
73
186
0
VERTEX
8
OBJECT__59
10
0
20
0
30
0
70
128
71
187
72
188
73
189
0
VERTEX
8
OBJECT__59
10
0
20
0
30
0
70
128
71
174
72
190
73
175
0
VERTEX
8
OBJECT__59
10
0
20
0
30
0
70
128
71
163
72
191
73
164
0
VERTEX
8
OBJECT__59
10
0
20
0
30
0
70
128
71
192
72
193
73
194
0
VERTEX
8
OBJECT__59
10
0
20
0
30
0
70
128
71
136
72
86
73
104
0
VERTEX
8
OBJECT__59
10
0
20
0
30
0
70
128
71
180
72
59
73
58
0
VERTEX
8
OBJECT__59
10
0
20
0
30
0
70
128
71
181
72
58
73
182
0
VERTEX
8
OBJECT__59
10
0
20
0
30
0
70
128
71
172
72
152
73
146
0
VERTEX
8
OBJECT__59
10
0
20
0
30
0
70
128
71
153
72
173
73
73
0
VERTEX
8
OBJECT__59
10
0
20
0
30
0
70
128
71
195
72
196
73
197
0
VERTEX
8
OBJECT__59
10
0
20
0
30
0
70
128
71
184
72
7
73
185
0
VERTEX
8
OBJECT__59
10
0
20
0
30
0
70
128
71
187
72
7
73
188
0
VERTEX
8
OBJECT__59
10
0
20
0
30
0
70
128
71
109
72
191
73
174
0
VERTEX
8
OBJECT__59
10
0
20
0
30
0
70
128
71
109
72
170
73
164
0
VERTEX
8
OBJECT__59
10
0
20
0
30
0
70
128
71
194
72
198
73
192
0
VERTEX
8
OBJECT__59
10
0
20
0
30
0
70
128
71
115
72
199
73
78
0
VERTEX
8
OBJECT__59
10
0
20
0
30
0
70
128
71
168
72
181
73
141
0
VERTEX
8
OBJECT__59
10
0
20
0
30
0
70
128
71
161
72
75
73
74
0
VERTEX
8
OBJECT__59
10
0
20
0
30
0
70
128
71
109
72
169
73
171
0
VERTEX
8
OBJECT__59
10
0
20
0
30
0
70
128
71
200
72
201
73
202
0
VERTEX
8
OBJECT__59
10
0
20
0
30
0
70
128
71
203
72
204
73
205
0
VERTEX
8
OBJECT__59
10
0
20
0
30
0
70
128
71
206
72
207
73
208
0
VERTEX
8
OBJECT__59
10
0
20
0
30
0
70
128
71
195
72
184
73
196
0
VERTEX
8
OBJECT__59
10
0
20
0
30
0
70
128
71
186
72
209
73
184
0
VERTEX
8
OBJECT__59
10
0
20
0
30
0
70
128
71
189
72
210
73
187
0
VERTEX
8
OBJECT__59
10
0
20
0
30
0
70
128
71
191
72
109
73
164
0
VERTEX
8
OBJECT__59
10
0
20
0
30
0
70
128
71
164
72
170
73
193
0
VERTEX
8
OBJECT__59
10
0
20
0
30
0
70
128
71
131
72
106
73
59
0
VERTEX
8
OBJECT__59
10
0
20
0
30
0
70
128
71
171
72
170
73
109
0
VERTEX
8
OBJECT__59
10
0
20
0
30
0
70
128
71
200
72
211
73
201
0
VERTEX
8
OBJECT__59
10
0
20
0
30
0
70
128
71
205
72
211
73
203
0
VERTEX
8
OBJECT__59
10
0
20
0
30
0
70
128
71
212
72
115
73
206
0
VERTEX
8
OBJECT__59
10
0
20
0
30
0
70
128
71
206
72
213
73
214
0
VERTEX
8
OBJECT__59
10
0
20
0
30
0
70
128
71
206
72
115
73
215
0
VERTEX
8
OBJECT__59
10
0
20
0
30
0
70
128
71
197
72
216
73
195
0
VERTEX
8
OBJECT__59
10
0
20
0
30
0
70
128
71
187
72
185
73
7
0
VERTEX
8
OBJECT__59
10
0
20
0
30
0
70
128
71
192
72
164
73
193
0
VERTEX
8
OBJECT__59
10
0
20
0
30
0
70
128
71
132
72
107
73
106
0
VERTEX
8
OBJECT__59
10
0
20
0
30
0
70
128
71
202
72
217
73
200
0
VERTEX
8
OBJECT__59
10
0
20
0
30
0
70
128
71
38
72
218
73
203
0
VERTEX
8
OBJECT__59
10
0
20
0
30
0
70
128
71
208
72
212
73
206
0
VERTEX
8
OBJECT__59
10
0
20
0
30
0
70
128
71
215
72
213
73
206
0
VERTEX
8
OBJECT__59
10
0
20
0
30
0
70
128
71
184
72
74
73
7
0
VERTEX
8
OBJECT__59
10
0
20
0
30
0
70
128
71
37
72
218
73
38
0
VERTEX
8
OBJECT__59
10
0
20
0
30
0
70
128
71
211
72
38
73
203
0
VERTEX
8
OBJECT__59
10
0
20
0
30
0
70
128
71
214
72
219
73
206
0
VERTEX
8
OBJECT__59
10
0
20
0
30
0
70
128
71
176
72
109
73
174
0
VERTEX
8
OBJECT__59
10
0
20
0
30
0
70
128
71
218
72
220
73
203
0
VERTEX
8
OBJECT__59
10
0
20
0
30
0
70
128
71
212
72
199
73
115
0
VERTEX
8
OBJECT__59
10
0
20
0
30
0
70
128
71
200
72
38
73
211
0
VERTEX
8
OBJECT__59
10
0
20
0
30
0
70
128
71
195
72
74
73
184
0
VERTEX
8
OBJECT__59
10
0
20
0
30
0
70
128
71
212
72
221
73
199
0
SEQEND
8
OBJECT__59
0
POLYLINE
8
OBJECT__61
66
1
70
64
71
5
72
3
62
253
0
VERTEX
8
OBJECT__61
10
5.300000
20
-35.250000
30
-3.000000
70
192
0
VERTEX
8
OBJECT__61
10
5.300000
20
-35.103001
30
13.750000
70
192
0
VERTEX
8
OBJECT__61
10
4.550000
20
-35.103001
30
13.750000
70
192
0
VERTEX
8
OBJECT__61
10
4.000000
20
-35.250000
30
-3.000000
70
192
0
VERTEX
8
OBJECT__61
10
4.000000
20
-35.101002
30
13.990000
70
192
0
VERTEX
8
OBJECT__61
10
0
20
0
30
0
70
128
71
1
72
2
73
3
0
VERTEX
8
OBJECT__61
10
0
20
0
30
0
70
128
71
3
72
4
73
1
0
VERTEX
8
OBJECT__61
10
0
20
0
30
0
70
128
71
3
72
5
73
4
0
SEQEND
8
OBJECT__61
0
POLYLINE
8
OBJECT__62
66
1
70
64
71
5
72
3
62
253
0
VERTEX
8
OBJECT__62
10
5.300000
20
-35.250000
30
-27.000000
70
192
0
VERTEX
8
OBJECT__62
10
4.000000
20
-35.250000
30
-27.000000
70
192
0
VERTEX
8
OBJECT__62
10
4.550000
20
-35.104000
30
-43.750000
70
192
0
VERTEX
8
OBJECT__62
10
4.000000
20
-35.102001
30
-43.990002
70
192
0
VERTEX
8
OBJECT__62
10
5.300000
20
-35.104000
30
-43.750000
70
192
0
VERTEX
8
OBJECT__62
10
0
20
0
30
0
70
128
71
1
72
2
73
3
0
VERTEX
8
OBJECT__62
10
0
20
0
30
0
70
128
71
2
72
4
73
3
0
VERTEX
8
OBJECT__62
10
0
20
0
30
0
70
128
71
3
72
5
73
1
0
SEQEND
8
OBJECT__62
0
POLYLINE
8
OBJECT__63
66
1
70
64
71
4
72
2
62
253
0
VERTEX
8
OBJECT__63
10
4.000000
20
-32.592999
30
-50.021000
70
192
0
VERTEX
8
OBJECT__63
10
5.300000
20
-32.592999
30
-50.021000
70
192
0
VERTEX
8
OBJECT__63
10
5.300000
20
-35.070999
30
-47.542999
70
192
0
VERTEX
8
OBJECT__63
10
4.000000
20
-35.070999
30
-47.542999
70
192
0
VERTEX
8
OBJECT__63
10
0
20
0
30
0
70
128
71
1
72
2
73
3
0
VERTEX
8
OBJECT__63
10
0
20
0
30
0
70
128
71
3
72
4
73
1
0
SEQEND
8
OBJECT__63
0
POLYLINE
8
OBJECT__64
66
1
70
64
71
4
72
2
62
253
0
VERTEX
8
OBJECT__64
10
5.300000
20
-35.250000
30
-11.734000
70
192
0
VERTEX
8
OBJECT__64
10
4.387000
20
-35.250000
30
-12.730000
70
192
0
VERTEX
8
OBJECT__64
10
4.387000
20
-33.143002
30
-12.730000
70
192
0
VERTEX
8
OBJECT__64
10
5.300000
20
-31.947001
30
-11.734000
70
192
0
VERTEX
8
OBJECT__64
10
0
20
0
30
0
70
128
71
1
72
2
73
3
0
VERTEX
8
OBJECT__64
10
0
20
0
30
0
70
128
71
3
72
4
73
1
0
SEQEND
8
OBJECT__64
0
POLYLINE
8
OBJECT__65
66
1
70
64
71
4
72
2
62
253
0
VERTEX
8
OBJECT__65
10
5.300000
20
-35.250000
30
-18.266001
70
192
0
VERTEX
8
OBJECT__65
10
5.300000
20
-31.947001
30
-18.266001
70
192
0
VERTEX
8
OBJECT__65
10
4.387000
20
-33.143002
30
-17.270000
70
192
0
VERTEX
8
OBJECT__65
10
4.387000
20
-35.250000
30
-17.270000
70
192
0
VERTEX
8
OBJECT__65
10
0
20
0
30
0
70
128
71
1
72
2
73
3
0
VERTEX
8
OBJECT__65
10
0
20
0
30
0
70
128
71
3
72
4
73
1
0
SEQEND
8
OBJECT__65
0
POLYLINE
8
OBJECT__66
66
1
70
64
71
4
72
2
62
253
0
VERTEX
8
OBJECT__66
10
5.300000
20
-3.266000
30
-50.200001
70
192
0
VERTEX
8
OBJECT__66
10
4.387000
20
-2.270000
30
-50.200001
70
192
0
VERTEX
8
OBJECT__66
10
4.387000
20
-2.270000
30
-48.143002
70
192
0
VERTEX
8
OBJECT__66
10
5.300000
20
-3.266000
30
-46.946999
70
192
0
VERTEX
8
OBJECT__66
10
0
20
0
30
0
70
128
71
1
72
2
73
3
0
VERTEX
8
OBJECT__66
10
0
20
0
30
0
70
128
71
3
72
4
73
1
0
SEQEND
8
OBJECT__66
0
POLYLINE
8
OBJECT__67
66
1
70
64
71
4
72
2
62
253
0
VERTEX
8
OBJECT__67
10
5.300000
20
3.266000
30
-50.200001
70
192
0
VERTEX
8
OBJECT__67
10
5.300000
20
3.266000
30
-46.946999
70
192
0
VERTEX
8
OBJECT__67
10
4.387000
20
2.270000
30
-48.143002
70
192
0
VERTEX
8
OBJECT__67
10
4.387000
20
2.270000
30
-50.200001
70
192
0
VERTEX
8
OBJECT__67
10
0
20
0
30
0
70
128
71
1
72
2
73
3
0
VERTEX
8
OBJECT__67
10
0
20
0
30
0
70
128
71
3
72
4
73
1
0
SEQEND
8
OBJECT__67
0
POLYLINE
8
OBJECT__68
66
1
70
64
71
4
72
2
62
253
0
VERTEX
8
OBJECT__68
10
5.300000
20
35.250000
30
-18.266001
70
192
0
VERTEX
8
OBJECT__68
10
4.387000
20
35.250000
30
-17.270000
70
192
0
VERTEX
8
OBJECT__68
10
4.387000
20
33.143002
30
-17.270000
70
192
0
VERTEX
8
OBJECT__68
10
5.300000
20
31.947001
30
-18.266001
70
192
0
VERTEX
8
OBJECT__68
10
0
20
0
30
0
70
128
71
1
72
2
73
3
0
VERTEX
8
OBJECT__68
10
0
20
0
30
0
70
128
71
3
72
4
73
1
0
SEQEND
8
OBJECT__68
0
POLYLINE
8
OBJECT__69
66
1
70
64
71
4
72
2
62
253
0
VERTEX
8
OBJECT__69
10
5.300000
20
35.250000
30
-11.734000
70
192
0
VERTEX
8
OBJECT__69
10
5.300000
20
31.947001
30
-11.734000
70
192
0
VERTEX
8
OBJECT__69
10
4.387000
20
33.143002
30
-12.730000
70
192
0
VERTEX
8
OBJECT__69
10
4.387000
20
35.250000
30
-12.730000
70
192
0
VERTEX
8
OBJECT__69
10
0
20
0
30
0
70
128
71
1
72
2
73
3
0
VERTEX
8
OBJECT__69
10
0
20
0
30
0
70
128
71
3
72
4
73
1
0
SEQEND
8
OBJECT__69
0
POLYLINE
8
OBJECT__70
66
1
70
64
71
8
72
6
62
253
0
VERTEX
8
OBJECT__70
10
5.700000
20
33.799999
30
20.500000
70
192
0
VERTEX
8
OBJECT__70
10
5.700000
20
34.799999
30
21.500000
70
192
0
VERTEX
8
OBJECT__70
10
11.702000
20
34.542999
30
21.075001
70
192
0
VERTEX
8
OBJECT__70
10
11.695000
20
34.695000
30
21.604000
70
192
0
VERTEX
8
OBJECT__70
10
11.698000
20
34.671001
30
21.385000
70
192
0
VERTEX
8
OBJECT__70
10
11.705000
20
34.320000
30
20.823999
70
192
0
VERTEX
8
OBJECT__70
10
11.706000
20
34.026001
30
20.660999
70
192
0
VERTEX
8
OBJECT__70
10
11.705000
20
33.695000
30
20.605000
70
192
0
VERTEX
8
OBJECT__70
10
0
20
0
30
0
70
128
71
1
72
2
73
3
0
VERTEX
8
OBJECT__70
10
0
20
0
30
0
70
128
71
2
72
4
73
5
0
VERTEX
8
OBJECT__70
10
0
20
0
30
0
70
128
71
5
72
3
73
2
0
VERTEX
8
OBJECT__70
10
0
20
0
30
0
70
128
71
3
72
6
73
1
0
VERTEX
8
OBJECT__70
10
0
20
0
30
0
70
128
71
6
72
7
73
1
0
VERTEX
8
OBJECT__70
10
0
20
0
30
0
70
128
71
7
72
8
73
1
0
SEQEND
8
OBJECT__70
0
POLYLINE
8
OBJECT__71
66
1
70
64
71
6
72
4
62
253
0
VERTEX
8
OBJECT__71
10
5.700000
20
-33.799999
30
20.500000
70
192
0
VERTEX
8
OBJECT__71
10
5.700000
20
33.799999
30
20.500000
70
192
0
VERTEX
8
OBJECT__71
10
11.813000
20
1.309000
30
20.607000
70
192
0
VERTEX
8
OBJECT__71
10
11.705000
20
33.695000
30
20.605000
70
192
0
VERTEX
8
OBJECT__71
10
11.788000
20
-16.193001
30
20.606001
70
192
0
VERTEX
8
OBJECT__71
10
11.705000
20
-33.695000
30
20.605000
70
192
0
VERTEX
8
OBJECT__71
10
0
20
0
30
0
70
128
71
1
72
2
73
3
0
VERTEX
8
OBJECT__71
10
0
20
0
30
0
70
128
71
2
72
4
73
3
0
VERTEX
8
OBJECT__71
10
0
20
0
30
0
70
128
71
3
72
5
73
1
0
VERTEX
8
OBJECT__71
10
0
20
0
30
0
70
128
71
5
72
6
73
1
0
SEQEND
8
OBJECT__71
0
POLYLINE
8
OBJECT__73
66
1
70
64
71
9
72
7
62
253
0
VERTEX
8
OBJECT__73
10
12.280000
20
-16.195000
30
21.113001
70
192
0
VERTEX
8
OBJECT__73
10
12.196000
20
-33.699001
30
21.111000
70
192
0
VERTEX
8
OBJECT__73
10
11.705000
20
-33.695000
30
20.605000
70
192
0
VERTEX
8
OBJECT__73
10
11.788000
20
-16.193001
30
20.606001
70
192
0
VERTEX
8
OBJECT__73
10
11.813000
20
1.309000
30
20.607000
70
192
0
VERTEX
8
OBJECT__73
10
12.303000
20
0.000000
30
21.113001
70
192
0
VERTEX
8
OBJECT__73
10
12.305000
20
1.309000
30
21.113001
70
192
0
VERTEX
8
OBJECT__73
10
11.705000
20
33.695000
30
20.605000
70
192
0
VERTEX
8
OBJECT__73
10
12.196000
20
33.699001
30
21.111000
70
192
0
VERTEX
8
OBJECT__73
10
0
20
0
30
0
70
128
71
1
72
2
73
3
0
VERTEX
8
OBJECT__73
10
0
20
0
30
0
70
128
71
4
72
5
73
6
0
VERTEX
8
OBJECT__73
10
0
20
0
30
0
70
128
71
5
72
7
73
6
0
VERTEX
8
OBJECT__73
10
0
20
0
30
0
70
128
71
7
72
5
73
8
0
VERTEX
8
OBJECT__73
10
0
20
0
30
0
70
128
71
8
72
9
73
7
0
VERTEX
8
OBJECT__73
10
0
20
0
30
0
70
128
71
6
72
1
73
4
0
VERTEX
8
OBJECT__73
10
0
20
0
30
0
70
128
71
3
72
4
73
1
0
SEQEND
8
OBJECT__73
0
POLYLINE
8
OBJECT__74
66
1
70
64
71
12
72
10
62
253
0
VERTEX
8
OBJECT__74
10
11.695000
20
-34.695000
30
21.604000
70
192
0
VERTEX
8
OBJECT__74
10
11.700000
20
-34.639000
30
21.274000
70
192
0
VERTEX
8
OBJECT__74
10
12.189000
20
-34.169998
30
21.445999
70
192
0
VERTEX
8
OBJECT__74
10
11.704000
20
-34.476002
30
20.980000
70
192
0
VERTEX
8
OBJECT__74
10
12.191000
20
-34.089001
30
21.299000
70
192
0
VERTEX
8
OBJECT__74
10
11.706000
20
-34.224998
30
20.757000
70
192
0
VERTEX
8
OBJECT__74
10
12.193000
20
-33.964001
30
21.187000
70
192
0
VERTEX
8
OBJECT__74
10
11.706000
20
-33.915001
30
20.629000
70
192
0
VERTEX
8
OBJECT__74
10
12.195000
20
-33.807999
30
21.122999
70
192
0
VERTEX
8
OBJECT__74
10
11.705000
20
-33.695000
30
20.605000
70
192
0
VERTEX
8
OBJECT__74
10
12.196000
20
-33.699001
30
21.111000
70
192
0
VERTEX
8
OBJECT__74
10
12.186000
20
-34.199001
30
21.611000
70
192
0
VERTEX
8
OBJECT__74
10
0
20
0
30
0
70
128
71
1
72
2
73
3
0
VERTEX
8
OBJECT__74
10
0
20
0
30
0
70
128
71
4
72
5
73
3
0
VERTEX
8
OBJECT__74
10
0
20
0
30
0
70
128
71
6
72
7
73
5
0
VERTEX
8
OBJECT__74
10
0
20
0
30
0
70
128
71
8
72
9
73
7
0
VERTEX
8
OBJECT__74
10
0
20
0
30
0
70
128
71
10
72
11
73
9
0
VERTEX
8
OBJECT__74
10
0
20
0
30
0
70
128
71
9
72
8
73
10
0
VERTEX
8
OBJECT__74
10
0
20
0
30
0
70
128
71
7
72
6
73
8
0
VERTEX
8
OBJECT__74
10
0
20
0
30
0
70
128
71
5
72
4
73
6
0
VERTEX
8
OBJECT__74
10
0
20
0
30
0
70
128
71
3
72
2
73
4
0
VERTEX
8
OBJECT__74
10
0
20
0
30
0
70
128
71
3
72
12
73
1
0
SEQEND
8
OBJECT__74
0
POLYLINE
8
OBJECT__75
66
1
70
64
71
12
72
10
62
253
0
VERTEX
8
OBJECT__75
10
11.705000
20
33.695000
30
20.605000
70
192
0
VERTEX
8
OBJECT__75
10
11.706000
20
34.026001
30
20.660999
70
192
0
VERTEX
8
OBJECT__75
10
12.195000
20
33.863998
30
21.139000
70
192
0
VERTEX
8
OBJECT__75
10
11.705000
20
34.320000
30
20.823999
70
192
0
VERTEX
8
OBJECT__75
10
12.193000
20
34.011002
30
21.221001
70
192
0
VERTEX
8
OBJECT__75
10
11.702000
20
34.542999
30
21.075001
70
192
0
VERTEX
8
OBJECT__75
10
12.190000
20
34.123001
30
21.346001
70
192
0
VERTEX
8
OBJECT__75
10
11.698000
20
34.671001
30
21.385000
70
192
0
VERTEX
8
OBJECT__75
10
12.188000
20
34.187000
30
21.500999
70
192
0
VERTEX
8
OBJECT__75
10
11.695000
20
34.695000
30
21.604000
70
192
0
VERTEX
8
OBJECT__75
10
12.186000
20
34.199001
30
21.611000
70
192
0
VERTEX
8
OBJECT__75
10
12.196000
20
33.699001
30
21.111000
70
192
0
VERTEX
8
OBJECT__75
10
0
20
0
30
0
70
128
71
1
72
2
73
3
0
VERTEX
8
OBJECT__75
10
0
20
0
30
0
70
128
71
2
72
4
73
5
0
VERTEX
8
OBJECT__75
10
0
20
0
30
0
70
128
71
4
72
6
73
7
0
VERTEX
8
OBJECT__75
10
0
20
0
30
0
70
128
71
6
72
8
73
9
0
VERTEX
8
OBJECT__75
10
0
20
0
30
0
70
128
71
10
72
11
73
9
0
VERTEX
8
OBJECT__75
10
0
20
0
30
0
70
128
71
9
72
8
73
10
0
VERTEX
8
OBJECT__75
10
0
20
0
30
0
70
128
71
9
72
7
73
6
0
VERTEX
8
OBJECT__75
10
0
20
0
30
0
70
128
71
7
72
5
73
4
0
VERTEX
8
OBJECT__75
10
0
20
0
30
0
70
128
71
5
72
3
73
2
0
VERTEX
8
OBJECT__75
10
0
20
0
30
0
70
128
71
3
72
12
73
1
0
SEQEND
8
OBJECT__75
0
POLYLINE
8
OBJECT__76
66
1
70
64
71
6
72
4
62
253
0
VERTEX
8
OBJECT__76
10
11.993000
20
34.202000
30
35.161999
70
192
0
VERTEX
8
OBJECT__76
10
12.186000
20
34.199001
30
21.611000
70
192
0
VERTEX
8
OBJECT__76
10
11.695000
20
34.695000
30
21.604000
70
192
0
VERTEX
8
OBJECT__76
10
11.765000
20
34.206001
30
48.712002
70
192
0
VERTEX
8
OBJECT__76
10
11.502000
20
34.699001
30
35.153999
70
192
0
VERTEX
8
OBJECT__76
10
11.274000
20
34.702999
30
48.702999
70
192
0
VERTEX
8
OBJECT__76
10
0
20
0
30
0
70
128
71
1
72
2
73
3
0
VERTEX
8
OBJECT__76
10
0
20
0
30
0
70
128
71
4
72
1
73
5
0
VERTEX
8
OBJECT__76
10
0
20
0
30
0
70
128
71
5
72
6
73
4
0
VERTEX
8
OBJECT__76
10
0
20
0
30
0
70
128
71
3
72
5
73
1
0
SEQEND
8
OBJECT__76
0
POLYLINE
8
OBJECT__77
66
1
70
64
71
8
72
6
62
253
0
VERTEX
8
OBJECT__77
10
5.700000
20
-33.799999
30
20.500000
70
192
0
VERTEX
8
OBJECT__77
10
11.706000
20
-34.224998
30
20.757000
70
192
0
VERTEX
8
OBJECT__77
10
11.704000
20
-34.476002
30
20.980000
70
192
0
VERTEX
8
OBJECT__77
10
11.705000
20
-33.695000
30
20.605000
70
192
0
VERTEX
8
OBJECT__77
10
11.706000
20
-33.915001
30
20.629000
70
192
0
VERTEX
8
OBJECT__77
10
5.700000
20
-34.799999
30
21.500000
70
192
0
VERTEX
8
OBJECT__77
10
11.700000
20
-34.639000
30
21.274000
70
192
0
VERTEX
8
OBJECT__77
10
11.695000
20
-34.695000
30
21.604000
70
192
0
VERTEX
8
OBJECT__77
10
0
20
0
30
0
70
128
71
1
72
2
73
3
0
VERTEX
8
OBJECT__77
10
0
20
0
30
0
70
128
71
1
72
4
73
5
0
VERTEX
8
OBJECT__77
10
0
20
0
30
0
70
128
71
5
72
2
73
1
0
VERTEX
8
OBJECT__77
10
0
20
0
30
0
70
128
71
3
72
6
73
1
0
VERTEX
8
OBJECT__77
10
0
20
0
30
0
70
128
71
3
72
7
73
6
0
VERTEX
8
OBJECT__77
10
0
20
0
30
0
70
128
71
7
72
8
73
6
0
SEQEND
8
OBJECT__77
0
POLYLINE
8
OBJECT__78
66
1
70
64
71
6
72
4
62
253
0
VERTEX
8
OBJECT__78
10
11.765000
20
-34.206001
30
48.712002
70
192
0
VERTEX
8
OBJECT__78
10
11.274000
20
-34.702999
30
48.702999
70
192
0
VERTEX
8
OBJECT__78
10
11.502000
20
-34.699001
30
35.153999
70
192
0
VERTEX
8
OBJECT__78
10
11.993000
20
-34.202000
30
35.161999
70
192
0
VERTEX
8
OBJECT__78
10
11.695000
20
-34.695000
30
21.604000
70
192
0
VERTEX
8
OBJECT__78
10
12.186000
20
-34.199001
30
21.611000
70
192
0
VERTEX
8
OBJECT__78
10
0
20
0
30
0
70
128
71
1
72
2
73
3
0
VERTEX
8
OBJECT__78
10
0
20
0
30
0
70
128
71
4
72
3
73
5
0
VERTEX
8
OBJECT__78
10
0
20
0
30
0
70
128
71
5
72
6
73
4
0
VERTEX
8
OBJECT__78
10
0
20
0
30
0
70
128
71
3
72
4
73
1
0
SEQEND
8
OBJECT__78
0
POLYLINE
8
OBJECT__79
66
1
70
64
71
36
72
38
62
253
0
VERTEX
8
OBJECT__79
10
11.866000
20
0.000000
30
49.209999
70
192
0
VERTEX
8
OBJECT__79
10
12.303000
20
0.000000
30
21.113001
70
192
0
VERTEX
8
OBJECT__79
10
12.305000
20
1.309000
30
21.113001
70
192
0
VERTEX
8
OBJECT__79
10
11.993000
20
34.202000
30
35.161999
70
192
0
VERTEX
8
OBJECT__79
10
11.759000
20
33.706001
30
49.212002
70
192
0
VERTEX
8
OBJECT__79
10
11.843000
20
16.202999
30
49.210999
70
192
0
VERTEX
8
OBJECT__79
10
11.762000
20
33.956001
30
48.962002
70
192
0
VERTEX
8
OBJECT__79
10
11.765000
20
34.206001
30
48.712002
70
192
0
VERTEX
8
OBJECT__79
10
11.762000
20
34.178001
30
48.876999
70
192
0
VERTEX
8
OBJECT__79
10
11.760000
20
34.097000
30
49.023998
70
192
0
VERTEX
8
OBJECT__79
10
11.759000
20
33.971001
30
49.136002
70
192
0
VERTEX
8
OBJECT__79
10
11.759000
20
33.816002
30
49.200001
70
192
0
VERTEX
8
OBJECT__79
10
12.191000
20
33.949001
30
21.361000
70
192
0
VERTEX
8
OBJECT__79
10
12.196000
20
33.699001
30
21.111000
70
192
0
VERTEX
8
OBJECT__79
10
12.195000
20
33.863998
30
21.139000
70
192
0
VERTEX
8
OBJECT__79
10
12.193000
20
34.011002
30
21.221001
70
192
0
VERTEX
8
OBJECT__79
10
12.190000
20
34.123001
30
21.346001
70
192
0
VERTEX
8
OBJECT__79
10
12.188000
20
34.187000
30
21.500999
70
192
0
VERTEX
8
OBJECT__79
10
12.186000
20
34.199001
30
21.611000
70
192
0
VERTEX
8
OBJECT__79
10
12.191000
20
-33.949001
30
21.361000
70
192
0
VERTEX
8
OBJECT__79
10
12.186000
20
-34.199001
30
21.611000
70
192
0
VERTEX
8
OBJECT__79
10
12.189000
20
-34.169998
30
21.445999
70
192
0
VERTEX
8
OBJECT__79
10
12.191000
20
-34.089001
30
21.299000
70
192
0
VERTEX
8
OBJECT__79
10
12.193000
20
-33.964001
30
21.187000
70
192
0
VERTEX
8
OBJECT__79
10
12.195000
20
-33.807999
30
21.122999
70
192
0
VERTEX
8
OBJECT__79
10
12.196000
20
-33.699001
30
21.111000
70
192
0
VERTEX
8
OBJECT__79
10
11.993000
20
-34.202000
30
35.161999
70
192
0
VERTEX
8
OBJECT__79
10
12.280000
20
-16.195000
30
21.113001
70
192
0
VERTEX
8
OBJECT__79
10
11.868000
20
-1.301000
30
49.209999
70
192
0
VERTEX
8
OBJECT__79
10
11.765000
20
-34.206001
30
48.712002
70
192
0
VERTEX
8
OBJECT__79
10
11.762000
20
-33.956001
30
48.962002
70
192
0
VERTEX
8
OBJECT__79
10
11.759000
20
-33.706001
30
49.212002
70
192
0
VERTEX
8
OBJECT__79
10
11.759000
20
-33.872002
30
49.183998
70
192
0
VERTEX
8
OBJECT__79
10
11.759000
20
-34.018002
30
49.103001
70
192
0
VERTEX
8
OBJECT__79
10
11.761000
20
-34.130001
30
48.977001
70
192
0
VERTEX
8
OBJECT__79
10
11.763000
20
-34.194000
30
48.821999
70
192
0
VERTEX
8
OBJECT__79
10
0
20
0
30
0
70
128
71
1
72
2
73
3
0
VERTEX
8
OBJECT__79
10
0
20
0
30
0
70
128
71
4
72
5
73
6
0
VERTEX
8
OBJECT__79
10
0
20
0
30
0
70
128
71
7
72
8
73
9
0
VERTEX
8
OBJECT__79
10
0
20
0
30
0
70
128
71
7
72
10
73
11
0
VERTEX
8
OBJECT__79
10
0
20
0
30
0
70
128
71
11
72
12
73
7
0
VERTEX
8
OBJECT__79
10
0
20
0
30
0
70
128
71
12
72
5
73
7
0
VERTEX
8
OBJECT__79
10
0
20
0
30
0
70
128
71
4
72
8
73
7
0
VERTEX
8
OBJECT__79
10
0
20
0
30
0
70
128
71
7
72
5
73
4
0
VERTEX
8
OBJECT__79
10
0
20
0
30
0
70
128
71
9
72
10
73
7
0
VERTEX
8
OBJECT__79
10
0
20
0
30
0
70
128
71
13
72
14
73
15
0
VERTEX
8
OBJECT__79
10
0
20
0
30
0
70
128
71
13
72
16
73
17
0
VERTEX
8
OBJECT__79
10
0
20
0
30
0
70
128
71
17
72
18
73
13
0
VERTEX
8
OBJECT__79
10
0
20
0
30
0
70
128
71
18
72
19
73
13
0
VERTEX
8
OBJECT__79
10
0
20
0
30
0
70
128
71
3
72
14
73
13
0
VERTEX
8
OBJECT__79
10
0
20
0
30
0
70
128
71
13
72
19
73
3
0
VERTEX
8
OBJECT__79
10
0
20
0
30
0
70
128
71
15
72
16
73
13
0
VERTEX
8
OBJECT__79
10
0
20
0
30
0
70
128
71
19
72
4
73
3
0
VERTEX
8
OBJECT__79
10
0
20
0
30
0
70
128
71
6
72
3
73
4
0
VERTEX
8
OBJECT__79
10
0
20
0
30
0
70
128
71
20
72
21
73
22
0
VERTEX
8
OBJECT__79
10
0
20
0
30
0
70
128
71
20
72
23
73
24
0
VERTEX
8
OBJECT__79
10
0
20
0
30
0
70
128
71
24
72
25
73
20
0
VERTEX
8
OBJECT__79
10
0
20
0
30
0
70
128
71
25
72
26
73
20
0
VERTEX
8
OBJECT__79
10
0
20
0
30
0
70
128
71
27
72
21
73
20
0
VERTEX
8
OBJECT__79
10
0
20
0
30
0
70
128
71
20
72
26
73
27
0
VERTEX
8
OBJECT__79
10
0
20
0
30
0
70
128
71
22
72
23
73
20
0
VERTEX
8
OBJECT__79
10
0
20
0
30
0
70
128
71
26
72
28
73
27
0
VERTEX
8
OBJECT__79
10
0
20
0
30
0
70
128
71
29
72
30
73
27
0
VERTEX
8
OBJECT__79
10
0
20
0
30
0
70
128
71
31
72
32
73
33
0
VERTEX
8
OBJECT__79
10
0
20
0
30
0
70
128
71
31
72
34
73
35
0
VERTEX
8
OBJECT__79
10
0
20
0
30
0
70
128
71
35
72
36
73
31
0
VERTEX
8
OBJECT__79
10
0
20
0
30
0
70
128
71
36
72
30
73
31
0
VERTEX
8
OBJECT__79
10
0
20
0
30
0
70
128
71
29
72
32
73
31
0
VERTEX
8
OBJECT__79
10
0
20
0
30
0
70
128
71
31
72
30
73
29
0
VERTEX
8
OBJECT__79
10
0
20
0
30
0
70
128
71
33
72
34
73
31
0
VERTEX
8
OBJECT__79
10
0
20
0
30
0
70
128
71
27
72
2
73
29
0
VERTEX
8
OBJECT__79
10
0
20
0
30
0
70
128
71
2
72
1
73
29
0
VERTEX
8
OBJECT__79
10
0
20
0
30
0
70
128
71
28
72
2
73
27
0
VERTEX
8
OBJECT__79
10
0
20
0
30
0
70
128
71
3
72
6
73
1
0
SEQEND
8
OBJECT__79
0
POLYLINE
8
OBJECT__80
66
1
70
64
71
12
72
10
62
253
0
VERTEX
8
OBJECT__80
10
11.268000
20
-33.702999
30
49.702999
70
192
0
VERTEX
8
OBJECT__80
10
11.270000
20
-34.034000
30
49.646000
70
192
0
VERTEX
8
OBJECT__80
10
11.759000
20
-33.872002
30
49.183998
70
192
0
VERTEX
8
OBJECT__80
10
11.272000
20
-34.327000
30
49.484001
70
192
0
VERTEX
8
OBJECT__80
10
11.759000
20
-34.018002
30
49.103001
70
192
0
VERTEX
8
OBJECT__80
10
11.273000
20
-34.549999
30
49.233002
70
192
0
VERTEX
8
OBJECT__80
10
11.761000
20
-34.130001
30
48.977001
70
192
0
VERTEX
8
OBJECT__80
10
11.274000
20
-34.678001
30
48.923000
70
192
0
VERTEX
8
OBJECT__80
10
11.763000
20
-34.194000
30
48.821999
70
192
0
VERTEX
8
OBJECT__80
10
11.274000
20
-34.702999
30
48.702999
70
192
0
VERTEX
8
OBJECT__80
10
11.765000
20
-34.206001
30
48.712002
70
192
0
VERTEX
8
OBJECT__80
10
11.759000
20
-33.706001
30
49.212002
70
192
0
VERTEX
8
OBJECT__80
10
0
20
0
30
0
70
128
71
1
72
2
73
3
0
VERTEX
8
OBJECT__80
10
0
20
0
30
0
70
128
71
2
72
4
73
5
0
VERTEX
8
OBJECT__80
10
0
20
0
30
0
70
128
71
6
72
7
73
5
0
VERTEX
8
OBJECT__80
10
0
20
0
30
0
70
128
71
8
72
9
73
7
0
VERTEX
8
OBJECT__80
10
0
20
0
30
0
70
128
71
10
72
11
73
9
0
VERTEX
8
OBJECT__80
10
0
20
0
30
0
70
128
71
9
72
8
73
10
0
VERTEX
8
OBJECT__80
10
0
20
0
30
0
70
128
71
7
72
6
73
8
0
VERTEX
8
OBJECT__80
10
0
20
0
30
0
70
128
71
5
72
4
73
6
0
VERTEX
8
OBJECT__80
10
0
20
0
30
0
70
128
71
5
72
3
73
2
0
VERTEX
8
OBJECT__80
10
0
20
0
30
0
70
128
71
3
72
12
73
1
0
SEQEND
8
OBJECT__80
0
POLYLINE
8
OBJECT__81
66
1
70
64
71
5
72
3
62
253
0
VERTEX
8
OBJECT__81
10
5.700000
20
-34.799999
30
48.799999
70
192
0
VERTEX
8
OBJECT__81
10
5.700000
20
-34.799999
30
21.500000
70
192
0
VERTEX
8
OBJECT__81
10
11.502000
20
-34.699001
30
35.153999
70
192
0
VERTEX
8
OBJECT__81
10
11.695000
20
-34.695000
30
21.604000
70
192
0
VERTEX
8
OBJECT__81
10
11.274000
20
-34.702999
30
48.702999
70
192
0
VERTEX
8
OBJECT__81
10
0
20
0
30
0
70
128
71
1
72
2
73
3
0
VERTEX
8
OBJECT__81
10
0
20
0
30
0
70
128
71
2
72
4
73
3
0
VERTEX
8
OBJECT__81
10
0
20
0
30
0
70
128
71
3
72
5
73
1
0
SEQEND
8
OBJECT__81
0
POLYLINE
8
OBJECT__82
66
1
70
64
71
9
72
7
62
253
0
VERTEX
8
OBJECT__82
10
11.843000
20
16.202999
30
49.210999
70
192
0
VERTEX
8
OBJECT__82
10
11.759000
20
33.706001
30
49.212002
70
192
0
VERTEX
8
OBJECT__82
10
11.268000
20
33.702999
30
49.702999
70
192
0
VERTEX
8
OBJECT__82
10
11.352000
20
16.201000
30
49.701000
70
192
0
VERTEX
8
OBJECT__82
10
11.377000
20
-1.301000
30
49.701000
70
192
0
VERTEX
8
OBJECT__82
10
11.866000
20
0.000000
30
49.209999
70
192
0
VERTEX
8
OBJECT__82
10
11.868000
20
-1.301000
30
49.209999
70
192
0
VERTEX
8
OBJECT__82
10
11.268000
20
-33.702999
30
49.702999
70
192
0
VERTEX
8
OBJECT__82
10
11.759000
20
-33.706001
30
49.212002
70
192
0
VERTEX
8
OBJECT__82
10
0
20
0
30
0
70
128
71
1
72
2
73
3
0
VERTEX
8
OBJECT__82
10
0
20
0
30
0
70
128
71
4
72
5
73
6
0
VERTEX
8
OBJECT__82
10
0
20
0
30
0
70
128
71
5
72
7
73
6
0
VERTEX
8
OBJECT__82
10
0
20
0
30
0
70
128
71
7
72
5
73
8
0
VERTEX
8
OBJECT__82
10
0
20
0
30
0
70
128
71
8
72
9
73
7
0
VERTEX
8
OBJECT__82
10
0
20
0
30
0
70
128
71
6
72
1
73
4
0
VERTEX
8
OBJECT__82
10
0
20
0
30
0
70
128
71
3
72
4
73
1
0
SEQEND
8
OBJECT__82
0
POLYLINE
8
OBJECT__83
66
1
70
64
71
8
72
6
62
253
0
VERTEX
8
OBJECT__83
10
5.700000
20
-34.799999
30
48.799999
70
192
0
VERTEX
8
OBJECT__83
10
11.273000
20
-34.549999
30
49.233002
70
192
0
VERTEX
8
OBJECT__83
10
11.272000
20
-34.327000
30
49.484001
70
192
0
VERTEX
8
OBJECT__83
10
11.274000
20
-34.702999
30
48.702999
70
192
0
VERTEX
8
OBJECT__83
10
11.274000
20
-34.678001
30
48.923000
70
192
0
VERTEX
8
OBJECT__83
10
5.700000
20
-33.799999
30
49.799999
70
192
0
VERTEX
8
OBJECT__83
10
11.270000
20
-34.034000
30
49.646000
70
192
0
VERTEX
8
OBJECT__83
10
11.268000
20
-33.702999
30
49.702999
70
192
0
VERTEX
8
OBJECT__83
10
0
20
0
30
0
70
128
71
1
72
2
73
3
0
VERTEX
8
OBJECT__83
10
0
20
0
30
0
70
128
71
1
72
4
73
5
0
VERTEX
8
OBJECT__83
10
0
20
0
30
0
70
128
71
5
72
2
73
1
0
VERTEX
8
OBJECT__83
10
0
20
0
30
0
70
128
71
3
72
6
73
1
0
VERTEX
8
OBJECT__83
10
0
20
0
30
0
70
128
71
3
72
7
73
6
0
VERTEX
8
OBJECT__83
10
0
20
0
30
0
70
128
71
7
72
8
73
6
0
SEQEND
8
OBJECT__83
0
POLYLINE
8
OBJECT__84
66
1
70
64
71
12
72
10
62
253
0
VERTEX
8
OBJECT__84
10
11.274000
20
34.702999
30
48.702999
70
192
0
VERTEX
8
OBJECT__84
10
11.274000
20
34.646000
30
49.034000
70
192
0
VERTEX
8
OBJECT__84
10
11.762000
20
34.178001
30
48.876999
70
192
0
VERTEX
8
OBJECT__84
10
11.273000
20
34.484001
30
49.327999
70
192
0
VERTEX
8
OBJECT__84
10
11.760000
20
34.097000
30
49.023998
70
192
0
VERTEX
8
OBJECT__84
10
11.271000
20
34.233002
30
49.550999
70
192
0
VERTEX
8
OBJECT__84
10
11.759000
20
33.971001
30
49.136002
70
192
0
VERTEX
8
OBJECT__84
10
11.269000
20
33.923000
30
49.678001
70
192
0
VERTEX
8
OBJECT__84
10
11.759000
20
33.816002
30
49.200001
70
192
0
VERTEX
8
OBJECT__84
10
11.268000
20
33.702999
30
49.702999
70
192
0
VERTEX
8
OBJECT__84
10
11.759000
20
33.706001
30
49.212002
70
192
0
VERTEX
8
OBJECT__84
10
11.765000
20
34.206001
30
48.712002
70
192
0
VERTEX
8
OBJECT__84
10
0
20
0
30
0
70
128
71
1
72
2
73
3
0
VERTEX
8
OBJECT__84
10
0
20
0
30
0
70
128
71
2
72
4
73
5
0
VERTEX
8
OBJECT__84
10
0
20
0
30
0
70
128
71
4
72
6
73
7
0
VERTEX
8
OBJECT__84
10
0
20
0
30
0
70
128
71
8
72
9
73
7
0
VERTEX
8
OBJECT__84
10
0
20
0
30
0
70
128
71
10
72
11
73
9
0
VERTEX
8
OBJECT__84
10
0
20
0
30
0
70
128
71
9
72
8
73
10
0
VERTEX
8
OBJECT__84
10
0
20
0
30
0
70
128
71
7
72
6
73
8
0
VERTEX
8
OBJECT__84
10
0
20
0
30
0
70
128
71
7
72
5
73
4
0
VERTEX
8
OBJECT__84
10
0
20
0
30
0
70
128
71
5
72
3
73
2
0
VERTEX
8
OBJECT__84
10
0
20
0
30
0
70
128
71
3
72
12
73
1
0
SEQEND
8
OBJECT__84
0
POLYLINE
8
OBJECT__85
66
1
70
64
71
8
72
6
62
253
0
VERTEX
8
OBJECT__85
10
5.700000
20
34.799999
30
48.799999
70
192
0
VERTEX
8
OBJECT__85
10
5.700000
20
33.799999
30
49.799999
70
192
0
VERTEX
8
OBJECT__85
10
11.271000
20
34.233002
30
49.550999
70
192
0
VERTEX
8
OBJECT__85
10
11.268000
20
33.702999
30
49.702999
70
192
0
VERTEX
8
OBJECT__85
10
11.269000
20
33.923000
30
49.678001
70
192
0
VERTEX
8
OBJECT__85
10
11.273000
20
34.484001
30
49.327999
70
192
0
VERTEX
8
OBJECT__85
10
11.274000
20
34.646000
30
49.034000
70
192
0
VERTEX
8
OBJECT__85
10
11.274000
20
34.702999
30
48.702999
70
192
0
VERTEX
8
OBJECT__85
10
0
20
0
30
0
70
128
71
1
72
2
73
3
0
VERTEX
8
OBJECT__85
10
0
20
0
30
0
70
128
71
2
72
4
73
5
0
VERTEX
8
OBJECT__85
10
0
20
0
30
0
70
128
71
5
72
3
73
2
0
VERTEX
8
OBJECT__85
10
0
20
0
30
0
70
128
71
3
72
6
73
1
0
VERTEX
8
OBJECT__85
10
0
20
0
30
0
70
128
71
6
72
7
73
1
0
VERTEX
8
OBJECT__85
10
0
20
0
30
0
70
128
71
7
72
8
73
1
0
SEQEND
8
OBJECT__85
0
POLYLINE
8
OBJECT__86
66
1
70
64
71
14
72
12
62
253
0
VERTEX
8
OBJECT__86
10
2.656000
20
1.540000
30
49.853001
70
192
0
VERTEX
8
OBJECT__86
10
2.200000
20
1.042000
30
49.861000
70
192
0
VERTEX
8
OBJECT__86
10
2.200000
20
-1.042000
30
49.861000
70
192
0
VERTEX
8
OBJECT__86
10
2.656000
20
-1.540000
30
49.853001
70
192
0
VERTEX
8
OBJECT__86
10
5.517000
20
-1.790000
30
49.803001
70
192
0
VERTEX
8
OBJECT__86
10
5.517000
20
1.790000
30
49.803001
70
192
0
VERTEX
8
OBJECT__86
10
11.377000
20
-1.301000
30
49.701000
70
192
0
VERTEX
8
OBJECT__86
10
5.700000
20
1.989000
30
49.799999
70
192
0
VERTEX
8
OBJECT__86
10
11.268000
20
-33.702999
30
49.702999
70
192
0
VERTEX
8
OBJECT__86
10
5.700000
20
-1.989000
30
49.799999
70
192
0
VERTEX
8
OBJECT__86
10
5.700000
20
33.799999
30
49.799999
70
192
0
VERTEX
8
OBJECT__86
10
11.352000
20
16.201000
30
49.701000
70
192
0
VERTEX
8
OBJECT__86
10
11.268000
20
33.702999
30
49.702999
70
192
0
VERTEX
8
OBJECT__86
10
5.700000
20
-33.799999
30
49.799999
70
192
0
VERTEX
8
OBJECT__86
10
0
20
0
30
0
70
128
71
1
72
2
73
3
0
VERTEX
8
OBJECT__86
10
0
20
0
30
0
70
128
71
3
72
4
73
1
0
VERTEX
8
OBJECT__86
10
0
20
0
30
0
70
128
71
5
72
6
73
1
0
VERTEX
8
OBJECT__86
10
0
20
0
30
0
70
128
71
7
72
8
73
5
0
VERTEX
8
OBJECT__86
10
0
20
0
30
0
70
128
71
5
72
8
73
6
0
VERTEX
8
OBJECT__86
10
0
20
0
30
0
70
128
71
9
72
7
73
10
0
VERTEX
8
OBJECT__86
10
0
20
0
30
0
70
128
71
4
72
5
73
1
0
VERTEX
8
OBJECT__86
10
0
20
0
30
0
70
128
71
11
72
8
73
12
0
VERTEX
8
OBJECT__86
10
0
20
0
30
0
70
128
71
5
72
10
73
7
0
VERTEX
8
OBJECT__86
10
0
20
0
30
0
70
128
71
8
72
7
73
12
0
VERTEX
8
OBJECT__86
10
0
20
0
30
0
70
128
71
12
72
13
73
11
0
VERTEX
8
OBJECT__86
10
0
20
0
30
0
70
128
71
10
72
14
73
9
0
SEQEND
8
OBJECT__86
0
POLYLINE
8
OBJECT__87
66
1
70
64
71
5
72
3
62
253
0
VERTEX
8
OBJECT__87
10
5.700000
20
34.799999
30
48.799999
70
192
0
VERTEX
8
OBJECT__87
10
11.274000
20
34.702999
30
48.702999
70
192
0
VERTEX
8
OBJECT__87
10
11.502000
20
34.699001
30
35.153999
70
192
0
VERTEX
8
OBJECT__87
10
5.700000
20
34.799999
30
21.500000
70
192
0
VERTEX
8
OBJECT__87
10
11.695000
20
34.695000
30
21.604000
70
192
0
VERTEX
8
OBJECT__87
10
0
20
0
30
0
70
128
71
1
72
2
73
3
0
VERTEX
8
OBJECT__87
10
0
20
0
30
0
70
128
71
3
72
4
73
1
0
VERTEX
8
OBJECT__87
10
0
20
0
30
0
70
128
71
3
72
5
73
4
0
SEQEND
8
OBJECT__87
0
POLYLINE
8
OBJECT__88
66
1
70
64
71
14
72
12
62
253
0
VERTEX
8
OBJECT__88
10
2.656000
20
-1.540000
30
-49.853001
70
192
0
VERTEX
8
OBJECT__88
10
2.200000
20
-1.042000
30
-49.861000
70
192
0
VERTEX
8
OBJECT__88
10
2.200000
20
1.042000
30
-49.861000
70
192
0
VERTEX
8
OBJECT__88
10
2.656000
20
1.540000
30
-49.853001
70
192
0
VERTEX
8
OBJECT__88
10
5.517000
20
1.790000
30
-49.803001
70
192
0
VERTEX
8
OBJECT__88
10
5.517000
20
-1.790000
30
-49.803001
70
192
0
VERTEX
8
OBJECT__88
10
11.825000
20
1.328000
30
-49.693001
70
192
0
VERTEX
8
OBJECT__88
10
5.700000
20
-1.989000
30
-49.799999
70
192
0
VERTEX
8
OBJECT__88
10
5.700000
20
-33.799999
30
-49.799999
70
192
0
VERTEX
8
OBJECT__88
10
11.802000
20
-16.184000
30
-49.693001
70
192
0
VERTEX
8
OBJECT__88
10
11.724000
20
33.695000
30
-49.695000
70
192
0
VERTEX
8
OBJECT__88
10
5.700000
20
1.989000
30
-49.799999
70
192
0
VERTEX
8
OBJECT__88
10
11.724000
20
-33.695000
30
-49.695000
70
192
0
VERTEX
8
OBJECT__88
10
5.700000
20
33.799999
30
-49.799999
70
192
0
VERTEX
8
OBJECT__88
10
0
20
0
30
0
70
128
71
1
72
2
73
3
0
VERTEX
8
OBJECT__88
10
0
20
0
30
0
70
128
71
3
72
4
73
1
0
VERTEX
8
OBJECT__88
10
0
20
0
30
0
70
128
71
5
72
6
73
1
0
VERTEX
8
OBJECT__88
10
0
20
0
30
0
70
128
71
7
72
8
73
5
0
VERTEX
8
OBJECT__88
10
0
20
0
30
0
70
128
71
5
72
8
73
6
0
VERTEX
8
OBJECT__88
10
0
20
0
30
0
70
128
71
9
72
8
73
10
0
VERTEX
8
OBJECT__88
10
0
20
0
30
0
70
128
71
4
72
5
73
1
0
VERTEX
8
OBJECT__88
10
0
20
0
30
0
70
128
71
8
72
7
73
10
0
VERTEX
8
OBJECT__88
10
0
20
0
30
0
70
128
71
11
72
7
73
12
0
VERTEX
8
OBJECT__88
10
0
20
0
30
0
70
128
71
10
72
13
73
9
0
VERTEX
8
OBJECT__88
10
0
20
0
30
0
70
128
71
5
72
12
73
7
0
VERTEX
8
OBJECT__88
10
0
20
0
30
0
70
128
71
12
72
14
73
11
0
SEQEND
8
OBJECT__88
0
POLYLINE
8
OBJECT__89
66
1
70
64
71
8
72
6
62
253
0
VERTEX
8
OBJECT__89
10
5.700000
20
33.799999
30
-49.799999
70
192
0
VERTEX
8
OBJECT__89
10
5.700000
20
34.799999
30
-48.799999
70
192
0
VERTEX
8
OBJECT__89
10
11.727000
20
34.476002
30
-49.320000
70
192
0
VERTEX
8
OBJECT__89
10
11.726000
20
34.638000
30
-49.026001
70
192
0
VERTEX
8
OBJECT__89
10
11.726000
20
34.224998
30
-49.542999
70
192
0
VERTEX
8
OBJECT__89
10
11.725000
20
33.915001
30
-49.669998
70
192
0
VERTEX
8
OBJECT__89
10
11.724000
20
34.695000
30
-48.695000
70
192
0
VERTEX
8
OBJECT__89
10
11.724000
20
33.695000
30
-49.695000
70
192
0
VERTEX
8
OBJECT__89
10
0
20
0
30
0
70
128
71
1
72
2
73
3
0
VERTEX
8
OBJECT__89
10
0
20
0
30
0
70
128
71
2
72
4
73
3
0
VERTEX
8
OBJECT__89
10
0
20
0
30
0
70
128
71
3
72
5
73
1
0
VERTEX
8
OBJECT__89
10
0
20
0
30
0
70
128
71
5
72
6
73
1
0
VERTEX
8
OBJECT__89
10
0
20
0
30
0
70
128
71
2
72
7
73
4
0
VERTEX
8
OBJECT__89
10
0
20
0
30
0
70
128
71
6
72
8
73
1
0
SEQEND
8
OBJECT__89
0
POLYLINE
8
OBJECT__91
66
1
70
64
71
8
72
6
62
253
0
VERTEX
8
OBJECT__91
10
12.216000
20
-33.698002
30
-49.198002
70
192
0
VERTEX
8
OBJECT__91
10
11.724000
20
-33.695000
30
-49.695000
70
192
0
VERTEX
8
OBJECT__91
10
11.802000
20
-16.184000
30
-49.693001
70
192
0
VERTEX
8
OBJECT__91
10
12.293000
20
-16.184999
30
-49.201000
70
192
0
VERTEX
8
OBJECT__91
10
11.825000
20
1.328000
30
-49.693001
70
192
0
VERTEX
8
OBJECT__91
10
12.216000
20
33.698002
30
-49.198002
70
192
0
VERTEX
8
OBJECT__91
10
12.316000
20
1.328000
30
-49.202000
70
192
0
VERTEX
8
OBJECT__91
10
11.724000
20
33.695000
30
-49.695000
70
192
0
VERTEX
8
OBJECT__91
10
0
20
0
30
0
70
128
71
1
72
2
73
3
0
VERTEX
8
OBJECT__91
10
0
20
0
30
0
70
128
71
4
72
3
73
5
0
VERTEX
8
OBJECT__91
10
0
20
0
30
0
70
128
71
6
72
7
73
5
0
VERTEX
8
OBJECT__91
10
0
20
0
30
0
70
128
71
5
72
8
73
6
0
VERTEX
8
OBJECT__91
10
0
20
0
30
0
70
128
71
5
72
7
73
4
0
VERTEX
8
OBJECT__91
10
0
20
0
30
0
70
128
71
3
72
4
73
1
0
SEQEND
8
OBJECT__91
0
POLYLINE
8
OBJECT__92
66
1
70
64
71
12
72
10
62
253
0
VERTEX
8
OBJECT__92
10
11.726000
20
34.638000
30
-49.026001
70
192
0
VERTEX
8
OBJECT__92
10
11.724000
20
34.695000
30
-48.695000
70
192
0
VERTEX
8
OBJECT__92
10
12.216000
20
34.198002
30
-48.698002
70
192
0
VERTEX
8
OBJECT__92
10
11.727000
20
34.476002
30
-49.320000
70
192
0
VERTEX
8
OBJECT__92
10
12.215000
20
34.169998
30
-48.863998
70
192
0
VERTEX
8
OBJECT__92
10
12.214000
20
34.089001
30
-49.009998
70
192
0
VERTEX
8
OBJECT__92
10
12.214000
20
33.963001
30
-49.122002
70
192
0
VERTEX
8
OBJECT__92
10
11.726000
20
34.224998
30
-49.542999
70
192
0
VERTEX
8
OBJECT__92
10
12.215000
20
33.807999
30
-49.186001
70
192
0
VERTEX
8
OBJECT__92
10
11.725000
20
33.915001
30
-49.669998
70
192
0
VERTEX
8
OBJECT__92
10
12.216000
20
33.698002
30
-49.198002
70
192
0
VERTEX
8
OBJECT__92
10
11.724000
20
33.695000
30
-49.695000
70
192
0
VERTEX
8
OBJECT__92
10
0
20
0
30
0
70
128
71
1
72
2
73
3
0
VERTEX
8
OBJECT__92
10
0
20
0
30
0
70
128
71
4
72
1
73
5
0
VERTEX
8
OBJECT__92
10
0
20
0
30
0
70
128
71
4
72
6
73
7
0
VERTEX
8
OBJECT__92
10
0
20
0
30
0
70
128
71
8
72
7
73
9
0
VERTEX
8
OBJECT__92
10
0
20
0
30
0
70
128
71
10
72
9
73
11
0
VERTEX
8
OBJECT__92
10
0
20
0
30
0
70
128
71
11
72
12
73
10
0
VERTEX
8
OBJECT__92
10
0
20
0
30
0
70
128
71
9
72
10
73
8
0
VERTEX
8
OBJECT__92
10
0
20
0
30
0
70
128
71
7
72
8
73
4
0
VERTEX
8
OBJECT__92
10
0
20
0
30
0
70
128
71
5
72
6
73
4
0
VERTEX
8
OBJECT__92
10
0
20
0
30
0
70
128
71
3
72
5
73
1
0
SEQEND
8
OBJECT__92
0
POLYLINE
8
OBJECT__93
66
1
70
64
71
12
72
10
62
253
0
VERTEX
8
OBJECT__93
10
11.726000
20
-34.026001
30
-49.638000
70
192
0
VERTEX
8
OBJECT__93
10
11.724000
20
-33.695000
30
-49.695000
70
192
0
VERTEX
8
OBJECT__93
10
12.216000
20
-33.698002
30
-49.198002
70
192
0
VERTEX
8
OBJECT__93
10
11.727000
20
-34.320000
30
-49.476002
70
192
0
VERTEX
8
OBJECT__93
10
12.215000
20
-33.863998
30
-49.169998
70
192
0
VERTEX
8
OBJECT__93
10
12.214000
20
-34.009998
30
-49.089001
70
192
0
VERTEX
8
OBJECT__93
10
12.214000
20
-34.122002
30
-48.963001
70
192
0
VERTEX
8
OBJECT__93
10
11.726000
20
-34.542999
30
-49.224998
70
192
0
VERTEX
8
OBJECT__93
10
12.215000
20
-34.186001
30
-48.807999
70
192
0
VERTEX
8
OBJECT__93
10
11.725000
20
-34.669998
30
-48.915001
70
192
0
VERTEX
8
OBJECT__93
10
12.216000
20
-34.198002
30
-48.698002
70
192
0
VERTEX
8
OBJECT__93
10
11.724000
20
-34.695000
30
-48.695000
70
192
0
VERTEX
8
OBJECT__93
10
0
20
0
30
0
70
128
71
1
72
2
73
3
0
VERTEX
8
OBJECT__93
10
0
20
0
30
0
70
128
71
4
72
1
73
5
0
VERTEX
8
OBJECT__93
10
0
20
0
30
0
70
128
71
4
72
6
73
7
0
VERTEX
8
OBJECT__93
10
0
20
0
30
0
70
128
71
8
72
7
73
9
0
VERTEX
8
OBJECT__93
10
0
20
0
30
0
70
128
71
10
72
9
73
11
0
VERTEX
8
OBJECT__93
10
0
20
0
30
0
70
128
71
11
72
12
73
10
0
VERTEX
8
OBJECT__93
10
0
20
0
30
0
70
128
71
9
72
10
73
8
0
VERTEX
8
OBJECT__93
10
0
20
0
30
0
70
128
71
7
72
8
73
4
0
VERTEX
8
OBJECT__93
10
0
20
0
30
0
70
128
71
5
72
6
73
4
0
VERTEX
8
OBJECT__93
10
0
20
0
30
0
70
128
71
3
72
5
73
1
0
SEQEND
8
OBJECT__93
0
POLYLINE
8
OBJECT__94
66
1
70
64
71
8
72
6
62
253
0
VERTEX
8
OBJECT__94
10
12.216000
20
34.198002
30
-48.698002
70
192
0
VERTEX
8
OBJECT__94
10
11.724000
20
34.695000
30
-48.695000
70
192
0
VERTEX
8
OBJECT__94
10
11.802000
20
34.693001
30
-31.184000
70
192
0
VERTEX
8
OBJECT__94
10
12.293000
20
34.201000
30
-31.184999
70
192
0
VERTEX
8
OBJECT__94
10
11.825000
20
34.693001
30
-13.672000
70
192
0
VERTEX
8
OBJECT__94
10
12.216000
20
34.198002
30
18.698000
70
192
0
VERTEX
8
OBJECT__94
10
12.316000
20
34.202000
30
-13.672000
70
192
0
VERTEX
8
OBJECT__94
10
11.724000
20
34.695000
30
18.695000
70
192
0
VERTEX
8
OBJECT__94
10
0
20
0
30
0
70
128
71
1
72
2
73
3
0
VERTEX
8
OBJECT__94
10
0
20
0
30
0
70
128
71
4
72
3
73
5
0
VERTEX
8
OBJECT__94
10
0
20
0
30
0
70
128
71
6
72
7
73
5
0
VERTEX
8
OBJECT__94
10
0
20
0
30
0
70
128
71
5
72
8
73
6
0
VERTEX
8
OBJECT__94
10
0
20
0
30
0
70
128
71
5
72
7
73
4
0
VERTEX
8
OBJECT__94
10
0
20
0
30
0
70
128
71
3
72
4
73
1
0
SEQEND
8
OBJECT__94
0
POLYLINE
8
OBJECT__95
66
1
70
64
71
8
72
6
62
253
0
VERTEX
8
OBJECT__95
10
5.700000
20
-34.799999
30
-48.799999
70
192
0
VERTEX
8
OBJECT__95
10
5.700000
20
-33.799999
30
-49.799999
70
192
0
VERTEX
8
OBJECT__95
10
11.727000
20
-34.320000
30
-49.476002
70
192
0
VERTEX
8
OBJECT__95
10
11.726000
20
-34.026001
30
-49.638000
70
192
0
VERTEX
8
OBJECT__95
10
11.726000
20
-34.542999
30
-49.224998
70
192
0
VERTEX
8
OBJECT__95
10
11.725000
20
-34.669998
30
-48.915001
70
192
0
VERTEX
8
OBJECT__95
10
11.724000
20
-33.695000
30
-49.695000
70
192
0
VERTEX
8
OBJECT__95
10
11.724000
20
-34.695000
30
-48.695000
70
192
0
VERTEX
8
OBJECT__95
10
0
20
0
30
0
70
128
71
1
72
2
73
3
0
VERTEX
8
OBJECT__95
10
0
20
0
30
0
70
128
71
2
72
4
73
3
0
VERTEX
8
OBJECT__95
10
0
20
0
30
0
70
128
71
3
72
5
73
1
0
VERTEX
8
OBJECT__95
10
0
20
0
30
0
70
128
71
5
72
6
73
1
0
VERTEX
8
OBJECT__95
10
0
20
0
30
0
70
128
71
2
72
7
73
4
0
VERTEX
8
OBJECT__95
10
0
20
0
30
0
70
128
71
6
72
8
73
1
0
SEQEND
8
OBJECT__95
0
POLYLINE
8
OBJECT__96
66
1
70
64
71
8
72
6
62
253
0
VERTEX
8
OBJECT__96
10
12.216000
20
-34.198002
30
18.698000
70
192
0
VERTEX
8
OBJECT__96
10
11.724000
20
-34.695000
30
18.695000
70
192
0
VERTEX
8
OBJECT__96
10
11.802000
20
-34.693001
30
1.184000
70
192
0
VERTEX
8
OBJECT__96
10
12.293000
20
-34.201000
30
1.185000
70
192
0
VERTEX
8
OBJECT__96
10
11.825000
20
-34.693001
30
-16.327999
70
192
0
VERTEX
8
OBJECT__96
10
12.216000
20
-34.198002
30
-48.698002
70
192
0
VERTEX
8
OBJECT__96
10
12.316000
20
-34.202000
30
-16.327999
70
192
0
VERTEX
8
OBJECT__96
10
11.724000
20
-34.695000
30
-48.695000
70
192
0
VERTEX
8
OBJECT__96
10
0
20
0
30
0
70
128
71
1
72
2
73
3
0
VERTEX
8
OBJECT__96
10
0
20
0
30
0
70
128
71
4
72
3
73
5
0
VERTEX
8
OBJECT__96
10
0
20
0
30
0
70
128
71
6
72
7
73
5
0
VERTEX
8
OBJECT__96
10
0
20
0
30
0
70
128
71
5
72
8
73
6
0
VERTEX
8
OBJECT__96
10
0
20
0
30
0
70
128
71
5
72
7
73
4
0
VERTEX
8
OBJECT__96
10
0
20
0
30
0
70
128
71
3
72
4
73
1
0
SEQEND
8
OBJECT__96
0
POLYLINE
8
OBJECT__97
66
1
70
64
71
36
72
38
62
253
0
VERTEX
8
OBJECT__97
10
12.293000
20
-34.201000
30
1.185000
70
192
0
VERTEX
8
OBJECT__97
10
12.293000
20
-16.184999
30
-49.201000
70
192
0
VERTEX
8
OBJECT__97
10
12.293000
20
34.201000
30
-31.184999
70
192
0
VERTEX
8
OBJECT__97
10
12.216000
20
33.698002
30
-49.198002
70
192
0
VERTEX
8
OBJECT__97
10
12.216000
20
33.948002
30
-48.948002
70
192
0
VERTEX
8
OBJECT__97
10
12.215000
20
33.807999
30
-49.186001
70
192
0
VERTEX
8
OBJECT__97
10
12.214000
20
33.963001
30
-49.122002
70
192
0
VERTEX
8
OBJECT__97
10
12.214000
20
34.089001
30
-49.009998
70
192
0
VERTEX
8
OBJECT__97
10
12.215000
20
34.169998
30
-48.863998
70
192
0
VERTEX
8
OBJECT__97
10
12.216000
20
34.198002
30
-48.698002
70
192
0
VERTEX
8
OBJECT__97
10
12.316000
20
1.328000
30
-49.202000
70
192
0
VERTEX
8
OBJECT__97
10
12.216000
20
-34.198002
30
-48.698002
70
192
0
VERTEX
8
OBJECT__97
10
12.216000
20
-33.948002
30
-48.948002
70
192
0
VERTEX
8
OBJECT__97
10
12.215000
20
-34.186001
30
-48.807999
70
192
0
VERTEX
8
OBJECT__97
10
12.214000
20
-34.122002
30
-48.963001
70
192
0
VERTEX
8
OBJECT__97
10
12.214000
20
-34.009998
30
-49.089001
70
192
0
VERTEX
8
OBJECT__97
10
12.215000
20
-33.863998
30
-49.169998
70
192
0
VERTEX
8
OBJECT__97
10
12.216000
20
-33.698002
30
-49.198002
70
192
0
VERTEX
8
OBJECT__97
10
12.316000
20
-34.202000
30
-16.327999
70
192
0
VERTEX
8
OBJECT__97
10
12.216000
20
-33.698002
30
19.198000
70
192
0
VERTEX
8
OBJECT__97
10
12.216000
20
-33.948002
30
18.948000
70
192
0
VERTEX
8
OBJECT__97
10
12.215000
20
-33.807999
30
19.186001
70
192
0
VERTEX
8
OBJECT__97
10
12.214000
20
-33.963001
30
19.122000
70
192
0
VERTEX
8
OBJECT__97
10
12.214000
20
-34.089001
30
19.010000
70
192
0
VERTEX
8
OBJECT__97
10
12.215000
20
-34.169998
30
18.864000
70
192
0
VERTEX
8
OBJECT__97
10
12.216000
20
-34.198002
30
18.698000
70
192
0
VERTEX
8
OBJECT__97
10
12.316000
20
34.202000
30
-13.672000
70
192
0
VERTEX
8
OBJECT__97
10
12.316000
20
-1.328000
30
19.202000
70
192
0
VERTEX
8
OBJECT__97
10
12.293000
20
16.184999
30
19.201000
70
192
0
VERTEX
8
OBJECT__97
10
12.216000
20
34.198002
30
18.698000
70
192
0
VERTEX
8
OBJECT__97
10
12.216000
20
33.948002
30
18.948000
70
192
0
VERTEX
8
OBJECT__97
10
12.215000
20
34.186001
30
18.808001
70
192
0
VERTEX
8
OBJECT__97
10
12.214000
20
34.122002
30
18.962999
70
192
0
VERTEX
8
OBJECT__97
10
12.214000
20
34.009998
30
19.089001
70
192
0
VERTEX
8
OBJECT__97
10
12.215000
20
33.863998
30
19.170000
70
192
0
VERTEX
8
OBJECT__97
10
12.216000
20
33.698002
30
19.198000
70
192
0
VERTEX
8
OBJECT__97
10
0
20
0
30
0
70
128
71
1
72
2
73
3
0
VERTEX
8
OBJECT__97
10
0
20
0
30
0
70
128
71
3
72
4
73
5
0
VERTEX
8
OBJECT__97
10
0
20
0
30
0
70
128
71
5
72
6
73
7
0
VERTEX
8
OBJECT__97
10
0
20
0
30
0
70
128
71
5
72
4
73
6
0
VERTEX
8
OBJECT__97
10
0
20
0
30
0
70
128
71
5
72
8
73
9
0
VERTEX
8
OBJECT__97
10
0
20
0
30
0
70
128
71
9
72
10
73
5
0
VERTEX
8
OBJECT__97
10
0
20
0
30
0
70
128
71
7
72
8
73
5
0
VERTEX
8
OBJECT__97
10
0
20
0
30
0
70
128
71
3
72
11
73
4
0
VERTEX
8
OBJECT__97
10
0
20
0
30
0
70
128
71
3
72
2
73
11
0
VERTEX
8
OBJECT__97
10
0
20
0
30
0
70
128
71
5
72
10
73
3
0
VERTEX
8
OBJECT__97
10
0
20
0
30
0
70
128
71
2
72
12
73
13
0
VERTEX
8
OBJECT__97
10
0
20
0
30
0
70
128
71
13
72
14
73
15
0
VERTEX
8
OBJECT__97
10
0
20
0
30
0
70
128
71
13
72
12
73
14
0
VERTEX
8
OBJECT__97
10
0
20
0
30
0
70
128
71
13
72
16
73
17
0
VERTEX
8
OBJECT__97
10
0
20
0
30
0
70
128
71
17
72
18
73
13
0
VERTEX
8
OBJECT__97
10
0
20
0
30
0
70
128
71
15
72
16
73
13
0
VERTEX
8
OBJECT__97
10
0
20
0
30
0
70
128
71
2
72
19
73
12
0
VERTEX
8
OBJECT__97
10
0
20
0
30
0
70
128
71
2
72
1
73
19
0
VERTEX
8
OBJECT__97
10
0
20
0
30
0
70
128
71
13
72
18
73
2
0
VERTEX
8
OBJECT__97
10
0
20
0
30
0
70
128
71
1
72
20
73
21
0
VERTEX
8
OBJECT__97
10
0
20
0
30
0
70
128
71
21
72
22
73
23
0
VERTEX
8
OBJECT__97
10
0
20
0
30
0
70
128
71
21
72
20
73
22
0
VERTEX
8
OBJECT__97
10
0
20
0
30
0
70
128
71
21
72
24
73
25
0
VERTEX
8
OBJECT__97
10
0
20
0
30
0
70
128
71
25
72
26
73
21
0
VERTEX
8
OBJECT__97
10
0
20
0
30
0
70
128
71
23
72
24
73
21
0
VERTEX
8
OBJECT__97
10
0
20
0
30
0
70
128
71
1
72
27
73
28
0
VERTEX
8
OBJECT__97
10
0
20
0
30
0
70
128
71
28
72
20
73
1
0
VERTEX
8
OBJECT__97
10
0
20
0
30
0
70
128
71
27
72
29
73
28
0
VERTEX
8
OBJECT__97
10
0
20
0
30
0
70
128
71
29
72
30
73
31
0
VERTEX
8
OBJECT__97
10
0
20
0
30
0
70
128
71
31
72
32
73
33
0
VERTEX
8
OBJECT__97
10
0
20
0
30
0
70
128
71
31
72
30
73
32
0
VERTEX
8
OBJECT__97
10
0
20
0
30
0
70
128
71
31
72
34
73
35
0
VERTEX
8
OBJECT__97
10
0
20
0
30
0
70
128
71
35
72
36
73
31
0
VERTEX
8
OBJECT__97
10
0
20
0
30
0
70
128
71
33
72
34
73
31
0
VERTEX
8
OBJECT__97
10
0
20
0
30
0
70
128
71
29
72
27
73
30
0
VERTEX
8
OBJECT__97
10
0
20
0
30
0
70
128
71
31
72
36
73
29
0
VERTEX
8
OBJECT__97
10
0
20
0
30
0
70
128
71
21
72
26
73
1
0
VERTEX
8
OBJECT__97
10
0
20
0
30
0
70
128
71
3
72
27
73
1
0
SEQEND
8
OBJECT__97
0
POLYLINE
8
OBJECT__98
66
1
70
64
71
12
72
10
62
253
0
VERTEX
8
OBJECT__98
10
11.726000
20
34.026001
30
19.638000
70
192
0
VERTEX
8
OBJECT__98
10
11.724000
20
33.695000
30
19.695000
70
192
0
VERTEX
8
OBJECT__98
10
12.216000
20
33.698002
30
19.198000
70
192
0
VERTEX
8
OBJECT__98
10
11.727000
20
34.320000
30
19.476000
70
192
0
VERTEX
8
OBJECT__98
10
12.215000
20
33.863998
30
19.170000
70
192
0
VERTEX
8
OBJECT__98
10
12.214000
20
34.009998
30
19.089001
70
192
0
VERTEX
8
OBJECT__98
10
12.214000
20
34.122002
30
18.962999
70
192
0
VERTEX
8
OBJECT__98
10
11.726000
20
34.542999
30
19.225000
70
192
0
VERTEX
8
OBJECT__98
10
12.215000
20
34.186001
30
18.808001
70
192
0
VERTEX
8
OBJECT__98
10
11.725000
20
34.669998
30
18.915001
70
192
0
VERTEX
8
OBJECT__98
10
12.216000
20
34.198002
30
18.698000
70
192
0
VERTEX
8
OBJECT__98
10
11.724000
20
34.695000
30
18.695000
70
192
0
VERTEX
8
OBJECT__98
10
0
20
0
30
0
70
128
71
1
72
2
73
3
0
VERTEX
8
OBJECT__98
10
0
20
0
30
0
70
128
71
4
72
1
73
5
0
VERTEX
8
OBJECT__98
10
0
20
0
30
0
70
128
71
4
72
6
73
7
0
VERTEX
8
OBJECT__98
10
0
20
0
30
0
70
128
71
8
72
7
73
9
0
VERTEX
8
OBJECT__98
10
0
20
0
30
0
70
128
71
10
72
9
73
11
0
VERTEX
8
OBJECT__98
10
0
20
0
30
0
70
128
71
11
72
12
73
10
0
VERTEX
8
OBJECT__98
10
0
20
0
30
0
70
128
71
9
72
10
73
8
0
VERTEX
8
OBJECT__98
10
0
20
0
30
0
70
128
71
7
72
8
73
4
0
VERTEX
8
OBJECT__98
10
0
20
0
30
0
70
128
71
5
72
6
73
4
0
VERTEX
8
OBJECT__98
10
0
20
0
30
0
70
128
71
3
72
5
73
1
0
SEQEND
8
OBJECT__98
0
POLYLINE
8
OBJECT__99
66
1
70
64
71
6
72
4
62
253
0
VERTEX
8
OBJECT__99
10
5.700000
20
34.799999
30
-48.799999
70
192
0
VERTEX
8
OBJECT__99
10
5.700000
20
34.799999
30
18.799999
70
192
0
VERTEX
8
OBJECT__99
10
11.825000
20
34.693001
30
-13.672000
70
192
0
VERTEX
8
OBJECT__99
10
11.724000
20
34.695000
30
18.695000
70
192
0
VERTEX
8
OBJECT__99
10
11.802000
20
34.693001
30
-31.184000
70
192
0
VERTEX
8
OBJECT__99
10
11.724000
20
34.695000
30
-48.695000
70
192
0
VERTEX
8
OBJECT__99
10
0
20
0
30
0
70
128
71
1
72
2
73
3
0
VERTEX
8
OBJECT__99
10
0
20
0
30
0
70
128
71
2
72
4
73
3
0
VERTEX
8
OBJECT__99
10
0
20
0
30
0
70
128
71
3
72
5
73
1
0
VERTEX
8
OBJECT__99
10
0
20
0
30
0
70
128
71
5
72
6
73
1
0
SEQEND
8
OBJECT__99
0
POLYLINE
8
OBJECT__100
66
1
70
64
71
12
72
10
62
253
0
VERTEX
8
OBJECT__100
10
11.726000
20
-34.638000
30
19.025999
70
192
0
VERTEX
8
OBJECT__100
10
11.724000
20
-34.695000
30
18.695000
70
192
0
VERTEX
8
OBJECT__100
10
12.216000
20
-34.198002
30
18.698000
70
192
0
VERTEX
8
OBJECT__100
10
11.727000
20
-34.476002
30
19.320000
70
192
0
VERTEX
8
OBJECT__100
10
12.215000
20
-34.169998
30
18.864000
70
192
0
VERTEX
8
OBJECT__100
10
12.214000
20
-34.089001
30
19.010000
70
192
0
VERTEX
8
OBJECT__100
10
12.214000
20
-33.963001
30
19.122000
70
192
0
VERTEX
8
OBJECT__100
10
11.726000
20
-34.224998
30
19.542999
70
192
0
VERTEX
8
OBJECT__100
10
12.215000
20
-33.807999
30
19.186001
70
192
0
VERTEX
8
OBJECT__100
10
11.725000
20
-33.915001
30
19.670000
70
192
0
VERTEX
8
OBJECT__100
10
12.216000
20
-33.698002
30
19.198000
70
192
0
VERTEX
8
OBJECT__100
10
11.724000
20
-33.695000
30
19.695000
70
192
0
VERTEX
8
OBJECT__100
10
0
20
0
30
0
70
128
71
1
72
2
73
3
0
VERTEX
8
OBJECT__100
10
0
20
0
30
0
70
128
71
4
72
1
73
5
0
VERTEX
8
OBJECT__100
10
0
20
0
30
0
70
128
71
4
72
6
73
7
0
VERTEX
8
OBJECT__100
10
0
20
0
30
0
70
128
71
8
72
7
73
9
0
VERTEX
8
OBJECT__100
10
0
20
0
30
0
70
128
71
10
72
9
73
11
0
VERTEX
8
OBJECT__100
10
0
20
0
30
0
70
128
71
11
72
12
73
10
0
VERTEX
8
OBJECT__100
10
0
20
0
30
0
70
128
71
9
72
10
73
8
0
VERTEX
8
OBJECT__100
10
0
20
0
30
0
70
128
71
7
72
8
73
4
0
VERTEX
8
OBJECT__100
10
0
20
0
30
0
70
128
71
5
72
6
73
4
0
VERTEX
8
OBJECT__100
10
0
20
0
30
0
70
128
71
3
72
5
73
1
0
SEQEND
8
OBJECT__100
0
POLYLINE
8
OBJECT__101
66
1
70
64
71
6
72
4
62
253
0
VERTEX
8
OBJECT__101
10
5.700000
20
-34.799999
30
18.799999
70
192
0
VERTEX
8
OBJECT__101
10
5.700000
20
-34.799999
30
-48.799999
70
192
0
VERTEX
8
OBJECT__101
10
11.825000
20
-34.693001
30
-16.327999
70
192
0
VERTEX
8
OBJECT__101
10
11.724000
20
-34.695000
30
-48.695000
70
192
0
VERTEX
8
OBJECT__101
10
11.802000
20
-34.693001
30
1.184000
70
192
0
VERTEX
8
OBJECT__101
10
11.724000
20
-34.695000
30
18.695000
70
192
0
VERTEX
8
OBJECT__101
10
0
20
0
30
0
70
128
71
1
72
2
73
3
0
VERTEX
8
OBJECT__101
10
0
20
0
30
0
70
128
71
2
72
4
73
3
0
VERTEX
8
OBJECT__101
10
0
20
0
30
0
70
128
71
3
72
5
73
1
0
VERTEX
8
OBJECT__101
10
0
20
0
30
0
70
128
71
5
72
6
73
1
0
SEQEND
8
OBJECT__101
0
POLYLINE
8
OBJECT__102
66
1
70
64
71
8
72
6
62
253
0
VERTEX
8
OBJECT__102
10
12.216000
20
33.698002
30
19.198000
70
192
0
VERTEX
8
OBJECT__102
10
11.724000
20
33.695000
30
19.695000
70
192
0
VERTEX
8
OBJECT__102
10
11.802000
20
16.184000
30
19.693001
70
192
0
VERTEX
8
OBJECT__102
10
12.293000
20
16.184999
30
19.201000
70
192
0
VERTEX
8
OBJECT__102
10
11.825000
20
-1.328000
30
19.693001
70
192
0
VERTEX
8
OBJECT__102
10
12.216000
20
-33.698002
30
19.198000
70
192
0
VERTEX
8
OBJECT__102
10
12.316000
20
-1.328000
30
19.202000
70
192
0
VERTEX
8
OBJECT__102
10
11.724000
20
-33.695000
30
19.695000
70
192
0
VERTEX
8
OBJECT__102
10
0
20
0
30
0
70
128
71
1
72
2
73
3
0
VERTEX
8
OBJECT__102
10
0
20
0
30
0
70
128
71
4
72
3
73
5
0
VERTEX
8
OBJECT__102
10
0
20
0
30
0
70
128
71
6
72
7
73
5
0
VERTEX
8
OBJECT__102
10
0
20
0
30
0
70
128
71
5
72
8
73
6
0
VERTEX
8
OBJECT__102
10
0
20
0
30
0
70
128
71
5
72
7
73
4
0
VERTEX
8
OBJECT__102
10
0
20
0
30
0
70
128
71
3
72
4
73
1
0
SEQEND
8
OBJECT__102
0
POLYLINE
8
OBJECT__103
66
1
70
64
71
8
72
6
62
253
0
VERTEX
8
OBJECT__103
10
5.700000
20
34.799999
30
18.799999
70
192
0
VERTEX
8
OBJECT__103
10
5.700000
20
33.799999
30
19.799999
70
192
0
VERTEX
8
OBJECT__103
10
11.727000
20
34.320000
30
19.476000
70
192
0
VERTEX
8
OBJECT__103
10
11.726000
20
34.026001
30
19.638000
70
192
0
VERTEX
8
OBJECT__103
10
11.726000
20
34.542999
30
19.225000
70
192
0
VERTEX
8
OBJECT__103
10
11.725000
20
34.669998
30
18.915001
70
192
0
VERTEX
8
OBJECT__103
10
11.724000
20
33.695000
30
19.695000
70
192
0
VERTEX
8
OBJECT__103
10
11.724000
20
34.695000
30
18.695000
70
192
0
VERTEX
8
OBJECT__103
10
0
20
0
30
0
70
128
71
1
72
2
73
3
0
VERTEX
8
OBJECT__103
10
0
20
0
30
0
70
128
71
2
72
4
73
3
0
VERTEX
8
OBJECT__103
10
0
20
0
30
0
70
128
71
3
72
5
73
1
0
VERTEX
8
OBJECT__103
10
0
20
0
30
0
70
128
71
5
72
6
73
1
0
VERTEX
8
OBJECT__103
10
0
20
0
30
0
70
128
71
2
72
7
73
4
0
VERTEX
8
OBJECT__103
10
0
20
0
30
0
70
128
71
6
72
8
73
1
0
SEQEND
8
OBJECT__103
0
POLYLINE
8
OBJECT__104
66
1
70
64
71
8
72
6
62
253
0
VERTEX
8
OBJECT__104
10
5.700000
20
-33.799999
30
19.799999
70
192
0
VERTEX
8
OBJECT__104
10
5.700000
20
-34.799999
30
18.799999
70
192
0
VERTEX
8
OBJECT__104
10
11.727000
20
-34.476002
30
19.320000
70
192
0
VERTEX
8
OBJECT__104
10
11.726000
20
-34.638000
30
19.025999
70
192
0
VERTEX
8
OBJECT__104
10
11.726000
20
-34.224998
30
19.542999
70
192
0
VERTEX
8
OBJECT__104
10
11.725000
20
-33.915001
30
19.670000
70
192
0
VERTEX
8
OBJECT__104
10
11.724000
20
-34.695000
30
18.695000
70
192
0
VERTEX
8
OBJECT__104
10
11.724000
20
-33.695000
30
19.695000
70
192
0
VERTEX
8
OBJECT__104
10
0
20
0
30
0
70
128
71
1
72
2
73
3
0
VERTEX
8
OBJECT__104
10
0
20
0
30
0
70
128
71
2
72
4
73
3
0
VERTEX
8
OBJECT__104
10
0
20
0
30
0
70
128
71
3
72
5
73
1
0
VERTEX
8
OBJECT__104
10
0
20
0
30
0
70
128
71
5
72
6
73
1
0
VERTEX
8
OBJECT__104
10
0
20
0
30
0
70
128
71
2
72
7
73
4
0
VERTEX
8
OBJECT__104
10
0
20
0
30
0
70
128
71
6
72
8
73
1
0
SEQEND
8
OBJECT__104
0
POLYLINE
8
OBJECT__105
66
1
70
64
71
6
72
4
62
253
0
VERTEX
8
OBJECT__105
10
5.700000
20
33.799999
30
19.799999
70
192
0
VERTEX
8
OBJECT__105
10
5.700000
20
-33.799999
30
19.799999
70
192
0
VERTEX
8
OBJECT__105
10
11.825000
20
-1.328000
30
19.693001
70
192
0
VERTEX
8
OBJECT__105
10
11.724000
20
-33.695000
30
19.695000
70
192
0
VERTEX
8
OBJECT__105
10
11.802000
20
16.184000
30
19.693001
70
192
0
VERTEX
8
OBJECT__105
10
11.724000
20
33.695000
30
19.695000
70
192
0
VERTEX
8
OBJECT__105
10
0
20
0
30
0
70
128
71
1
72
2
73
3
0
VERTEX
8
OBJECT__105
10
0
20
0
30
0
70
128
71
2
72
4
73
3
0
VERTEX
8
OBJECT__105
10
0
20
0
30
0
70
128
71
3
72
5
73
1
0
VERTEX
8
OBJECT__105
10
0
20
0
30
0
70
128
71
5
72
6
73
1
0
SEQEND
8
OBJECT__105
0
ENDSEC
0
EOF
