  0
SECTION
  2
HEADER
  9
$ACADVER
  1
AC1015
  9
$ACADMAINTVER
 70
     6
  9
$DWGCODEPAGE
  3
ANSI_1252
  9
$INSBASE
 10
0.0
 20
0.0
 30
0.0
  9
$EXTMIN
 10
0.0
 20
0.0
 30
0.0
  9
$EXTMAX
 10
1682.0
 20
2378.0
 30
0.0
  9
$LIMMIN
 10
0.0
 20
0.0
  9
$LIMMAX
 10
1682.0
 20
2378.0
  9
$ORTHOMODE
 70
     0
  9
$REGENMODE
 70
     1
  9
$FILLMODE
 70
     1
  9
$QTEXTMODE
 70
     0
  9
$MIRRTEXT
 70
     1
  9
$LTSCALE
 40
1.0
  9
$ATTMODE
 70
     1
  9
$TEXTSIZE
 40
2.5
  9
$TRACEWID
 40
1.0
  9
$TEXTSTYLE
  7
Standard
  9
$CLAYER
  8
0
  9
$CELTYPE
  6
ByLayer
  9
$CECOLOR
 62
   256
  9
$CELTSCALE
 40
1.0
  9
$DISPSILH
 70
     0
  9
$DIMSCALE
 40
1.0
  9
$DIMASZ
 40
2.5
  9
$DIMEXO
 40
0.625
  9
$DIMDLI
 40
3.75
  9
$DIMRND
 40
0.0
  9
$DIMDLE
 40
0.0
  9
$DIMEXE
 40
1.25
  9
$DIMTP
 40
0.0
  9
$DIMTM
 40
0.0
  9
$DIMTXT
 40
2.5
  9
$DIMCEN
 40
2.5
  9
$DIMTSZ
 40
0.0
  9
$DIMTOL
 70
     0
  9
$DIMLIM
 70
     0
  9
$DIMTIH
 70
     0
  9
$DIMTOH
 70
     0
  9
$DIMSE1
 70
     0
  9
$DIMSE2
 70
     0
  9
$DIMTAD
 70
     1
  9
$DIMZIN
 70
     8
  9
$DIMBLK
  1

  9
$DIMASO
 70
     1
  9
$DIMSHO
 70
     1
  9
$DIMPOST
  1

  9
$DIMAPOST
  1

  9
$DIMALT
 70
     0
  9
$DIMALTD
 70
     3
  9
$DIMALTF
 40
0.0393700787
  9
$DIMLFAC
 40
1.0
  9
$DIMTOFL
 70
     1
  9
$DIMTVP
 40
0.0
  9
$DIMTIX
 70
     0
  9
$DIMSOXD
 70
     0
  9
$DIMSAH
 70
     0
  9
$DIMBLK1
  1

  9
$DIMBLK2
  1

  9
$DIMSTYLE
  2
ISO-25
  9
$DIMCLRD
 70
     0
  9
$DIMCLRE
 70
     0
  9
$DIMCLRT
 70
     0
  9
$DIMTFAC
 40
1.0
  9
$DIMGAP
 40
0.625
  9
$DIMJUST
 70
     0
  9
$DIMSD1
 70
     0
  9
$DIMSD2
 70
     0
  9
$DIMTOLJ
 70
     0
  9
$DIMTZIN
 70
     8
  9
$DIMALTZ
 70
     0
  9
$DIMALTTZ
 70
     0
  9
$DIMUPT
 70
     0
  9
$DIMDEC
 70
     2
  9
$DIMTDEC
 70
     2
  9
$DIMALTU
 70
     2
  9
$DIMALTTD
 70
     3
  9
$DIMTXSTY
  7
Standard
  9
$DIMAUNIT
 70
     0
  9
$DIMADEC
 70
     0
  9
$DIMALTRND
 40
0.0
  9
$DIMAZIN
 70
     0
  9
$DIMDSEP
 70
    44
  9
$DIMATFIT
 70
     3
  9
$DIMFRAC
 70
     0
  9
$DIMLDRBLK
  1

  9
$DIMLUNIT
 70
     2
  9
$DIMLWD
 70
    -2
  9
$DIMLWE
 70
    -2
  9
$DIMTMOVE
 70
     0
  9
$LUNITS
 70
     2
  9
$LUPREC
 70
     4
  9
$SKETCHINC
 40
1.0
  9
$FILLETRAD
 40
10.0
  9
$AUNITS
 70
     0
  9
$AUPREC
 70
     0
  9
$MENU
  1
.
  9
$ELEVATION
 40
0.0
  9
$PELEVATION
 40
0.0
  9
$THICKNESS
 40
0.0
  9
$LIMCHECK
 70
     0
  9
$CHAMFERA
 40
10.0
  9
$CHAMFERB
 40
10.0
  9
$CHAMFERC
 40
20.0
  9
$CHAMFERD
 40
0.0
  9
$SKPOLY
 70
     0
  9
$TDCREATE
 40
2455519.643431424
  9
$TDUCREATE
 40
2455519.601764757
  9
$TDUPDATE
 40
2455519.643431435
  9
$TDUUPDATE
 40
2455519.601764768
  9
$TDINDWG
 40
0.0000000116
  9
$TDUSRTIMER
 40
0.0000000116
  9
$USRTIMER
 70
     1
  9
$ANGBASE
 50
0.0
  9
$ANGDIR
 70
     0
  9
$PDMODE
 70
     0
  9
$PDSIZE
 40
0.0
  9
$PLINEWID
 40
0.0
  9
$SPLFRAME
 70
     0
  9
$SPLINETYPE
 70
     6
  9
$SPLINESEGS
 70
     8
  9
$HANDSEED
  5
141
  9
$SURFTAB1
 70
     6
  9
$SURFTAB2
 70
     6
  9
$SURFTYPE
 70
     6
  9
$SURFU
 70
     6
  9
$SURFV
 70
     6
  9
$UCSBASE
  2

  9
$UCSNAME
  2

  9
$UCSORG
 10
0.0
 20
0.0
 30
0.0
  9
$UCSXDIR
 10
1.0
 20
0.0
 30
0.0
  9
$UCSYDIR
 10
0.0
 20
1.0
 30
0.0
  9
$UCSORTHOREF
  2

  9
$UCSORTHOVIEW
 70
     0
  9
$UCSORGTOP
 10
0.0
 20
0.0
 30
0.0
  9
$UCSORGBOTTOM
 10
0.0
 20
0.0
 30
0.0
  9
$UCSORGLEFT
 10
0.0
 20
0.0
 30
0.0
  9
$UCSORGRIGHT
 10
0.0
 20
0.0
 30
0.0
  9
$UCSORGFRONT
 10
0.0
 20
0.0
 30
0.0
  9
$UCSORGBACK
 10
0.0
 20
0.0
 30
0.0
  9
$PUCSBASE
  2

  9
$PUCSNAME
  2

  9
$PUCSORG
 10
0.0
 20
0.0
 30
0.0
  9
$PUCSXDIR
 10
1.0
 20
0.0
 30
0.0
  9
$PUCSYDIR
 10
0.0
 20
1.0
 30
0.0
  9
$PUCSORTHOREF
  2

  9
$PUCSORTHOVIEW
 70
     0
  9
$PUCSORGTOP
 10
0.0
 20
0.0
 30
0.0
  9
$PUCSORGBOTTOM
 10
0.0
 20
0.0
 30
0.0
  9
$PUCSORGLEFT
 10
0.0
 20
0.0
 30
0.0
  9
$PUCSORGRIGHT
 10
0.0
 20
0.0
 30
0.0
  9
$PUCSORGFRONT
 10
0.0
 20
0.0
 30
0.0
  9
$PUCSORGBACK
 10
0.0
 20
0.0
 30
0.0
  9
$USERI1
 70
     0
  9
$USERI2
 70
     0
  9
$USERI3
 70
     0
  9
$USERI4
 70
     0
  9
$USERI5
 70
     0
  9
$USERR1
 40
0.0
  9
$USERR2
 40
0.0
  9
$USERR3
 40
0.0
  9
$USERR4
 40
0.0
  9
$USERR5
 40
0.0
  9
$WORLDVIEW
 70
     1
  9
$SHADEDGE
 70
     3
  9
$SHADEDIF
 70
    70
  9
$TILEMODE
 70
     1
  9
$MAXACTVP
 70
    64
  9
$PINSBASE
 10
0.0
 20
0.0
 30
0.0
  9
$PLIMCHECK
 70
     0
  9
$PEXTMIN
 10
0.0
 20
0.0
 30
0.0
  9
$PEXTMAX
 10
1682.0
 20
2378.0
 30
0.0
  9
$PLIMMIN
 10
0.0
 20
0.0
  9
$PLIMMAX
 10
1682.0
 20
2378.0
  9
$UNITMODE
 70
     0
  9
$VISRETAIN
 70
     1
  9
$PLINEGEN
 70
     0
  9
$PSLTSCALE
 70
     1
  9
$TREEDEPTH
 70
  3020
  9
$CMLSTYLE
  2
Standard
  9
$CMLJUST
 70
     0
  9
$CMLSCALE
 40
20.0
  9
$PROXYGRAPHICS
 70
     1
  9
$MEASUREMENT
 70
     1
  9
$CELWEIGHT
370
    -1
  9
$ENDCAPS
280
     0
  9
$JOINSTYLE
280
     0
  9
$LWDISPLAY
290
     0
  9
$INSUNITS
 70
     4
  9
$HYPERLINKBASE
  1

  9
$STYLESHEET
  1

  9
$XEDIT
290
     1
  9
$CEPSNTYPE
380
     0
  9
$PSTYLEMODE
290
     1
  9
$FINGERPRINTGUID
  2
{2D4405F9-351C-4415-B06E-ADEEC83481E9}
  9
$VERSIONGUID
  2
{FAEB1C32-E019-11D5-929B-00C0DF256EC4}
  9
$EXTNAMES
290
     1
  9
$PSVPSCALE
 40
0.0
  9
$OLESTARTUP
290
     0
  0
ENDSEC
  0
SECTION
  2
CLASSES
  0
CLASS
  1
ACDBDICTIONARYWDFLT
  2
AcDbDictionaryWithDefault
  3
ObjectDBX Classes
 90
        0
280
     0
281
     0
  0
CLASS
  1
VISUALSTYLE
  2
AcDbVisualStyle
  3
ObjectDBX Classes
 90
     4095
280
     0
281
     0
  0
CLASS
  1
SCALE
  2
AcDbScale
  3
ObjectDBX Classes
 90
     1153
280
     0
281
     0
  0
CLASS
  1
DICTIONARYVAR
  2
AcDbDictionaryVar
  3
ObjectDBX Classes
 90
        0
280
     0
281
     0
  0
CLASS
  1
ACDBPLACEHOLDER
  2
AcDbPlaceHolder
  3
ObjectDBX Classes
 90
        0
280
     0
281
     0
  0
CLASS
  1
LAYOUT
  2
AcDbLayout
  3
ObjectDBX Classes
 90
        0
280
     0
281
     0
  0
ENDSEC
  0
SECTION
  2
TABLES
  0
TABLE
  2
VPORT
  5
8
330
0
100
AcDbSymbolTable
 70
     1
  0
VPORT
  5
29
330
8
100
AcDbSymbolTableRecord
100
AcDbViewportTableRecord
  2
*Active
 70
     0
 10
0.0
 20
0.0
 11
1.0
 21
1.0
 12
344.1869158879
 22
148.5
 13
0.0
 23
0.0
 14
10.0
 24
10.0
 15
10.0
 25
10.0
 16
0.0
 26
0.0
 36
1.0
 17
0.0
 27
0.0
 37
0.0
 40
297.0
 41
1.9729729729
 42
50.0
 43
0.0
 44
0.0
 50
0.0
 51
0.0
 71
     0
 72
   100
 73
     1
 74
     3
 75
     0
 76
     0
 77
     0
 78
     0
281
     0
 65
     1
110
0.0
120
0.0
130
0.0
111
1.0
121
0.0
131
0.0
112
0.0
122
1.0
132
0.0
 79
     0
146
0.0
  0
ENDTAB
  0
TABLE
  2
LTYPE
  5
5
330
0
100
AcDbSymbolTable
 70
     1
  0
LTYPE
  5
14
330
5
100
AcDbSymbolTableRecord
100
AcDbLinetypeTableRecord
  2
ByBlock
 70
     0
  3

 72
    65
 73
     0
 40
0.0
  0
LTYPE
  5
15
330
5
100
AcDbSymbolTableRecord
100
AcDbLinetypeTableRecord
  2
ByLayer
 70
     0
  3

 72
    65
 73
     0
 40
0.0
  0
LTYPE
  5
16
330
5
100
AcDbSymbolTableRecord
100
AcDbLinetypeTableRecord
  2
Continuous
 70
     0
  3
Solid line
 72
    65
 73
     0
 40
0.0
  0
ENDTAB
  0
TABLE
  2
LAYER
  5
2
330
0
100
AcDbSymbolTable
 70
     9
  0
LAYER
  5
10
330
2
100
AcDbSymbolTableRecord
100
AcDbLayerTableRecord
  2
0
 70
     0
 62
     7
  6
Continuous
370
    -3
390
F
  0
LAYER
  5
69
330
2
100
AcDbSymbolTableRecord
100
AcDbLayerTableRecord
  2
Default
 70
     0
 62
     7
  6
Continuous
370
    -3
390
F
  0
LAYER
  5
6C
330
2
100
AcDbSymbolTableRecord
100
AcDbLayerTableRecord
  2
A4225952_SCHALE_
 70
     0
 62
     7
  6
Continuous
370
    -3
390
F
  0
LAYER
  5
72
330
2
100
AcDbSymbolTableRecord
100
AcDbLayerTableRecord
  2
A4225954_AUFLAGE
 70
     0
 62
     7
  6
Continuous
370
    -3
390
F
  0
LAYER
  5
7B
330
2
100
AcDbSymbolTableRecord
100
AcDbLayerTableRecord
  2
64835038_RING_ZI
 70
     0
 62
     7
  6
Continuous
370
    -3
390
F
  0
LAYER
  5
8C
330
2
100
AcDbSymbolTableRecord
100
AcDbLayerTableRecord
  2
64833038_ROHR_TU
 70
     0
 62
     7
  6
Continuous
370
    -3
390
F
  0
LAYER
  5
8F
330
2
100
AcDbSymbolTableRecord
100
AcDbLayerTableRecord
  2
64105038_ABDECKU
 70
     0
 62
     7
  6
Continuous
370
    -3
390
F
  0
LAYER
  5
9F
330
2
100
AcDbSymbolTableRecord
100
AcDbLayerTableRecord
  2
64832038_HALTER_
 70
     0
 62
     7
  6
Continuous
370
    -3
390
F
  0
LAYER
  5
F3
330
2
100
AcDbSymbolTableRecord
100
AcDbLayerTableRecord
  2
64620038_EINS_GE
 70
     0
 62
     7
  6
Continuous
370
    -3
390
F
  0
ENDTAB
  0
TABLE
  2
STYLE
  5
3
330
0
100
AcDbSymbolTable
 70
     2
  0
STYLE
  5
11
330
3
100
AcDbSymbolTableRecord
100
AcDbTextStyleTableRecord
  2
Standard
 70
     0
 40
0.0
 41
1.0
 50
0.0
 71
     0
 42
2.5
  3
txt
  4

  0
STYLE
  5
130
330
3
100
AcDbSymbolTableRecord
100
AcDbTextStyleTableRecord
  2
SEACAD_seiso_ttf
 70
     0
 40
0.0
 41
1.0
 50
0.0
 71
     0
 42
0.2
  3
seiso.ttf
  4

  0
ENDTAB
  0
TABLE
  2
VIEW
  5
6
330
0
100
AcDbSymbolTable
 70
     0
  0
ENDTAB
  0
TABLE
  2
UCS
  5
7
330
0
100
AcDbSymbolTable
 70
     0
  0
ENDTAB
  0
TABLE
  2
APPID
  5
9
330
0
100
AcDbSymbolTable
 70
     1
  0
APPID
  5
12
330
9
100
AcDbSymbolTableRecord
100
AcDbRegAppTableRecord
  2
ACAD
 70
     0
  0
ENDTAB
  0
TABLE
  2
DIMSTYLE
  5
A
330
0
100
AcDbSymbolTable
 70
     1
100
AcDbDimStyleTable
  0
DIMSTYLE
105
27
330
A
100
AcDbSymbolTableRecord
100
AcDbDimStyleTableRecord
  2
ISO-25
 70
     0
 41
2.5
 42
0.625
 43
3.75
 44
1.25
 73
     0
 74
     0
 77
     1
 78
     8
140
2.5
141
2.5
143
0.0393700787
147
0.625
171
     3
172
     1
271
     2
272
     2
274
     3
278
    44
283
     0
284
     8
340
11
  0
ENDTAB
  0
TABLE
  2
BLOCK_RECORD
  5
1
330
0
100
AcDbSymbolTable
 70
     8
  0
BLOCK_RECORD
  5
1F
330
1
100
AcDbSymbolTableRecord
100
AcDbBlockTableRecord
  2
*Model_Space
340
22
  0
BLOCK_RECORD
  5
1B
330
1
100
AcDbSymbolTableRecord
100
AcDbBlockTableRecord
  2
*Paper_Space
340
1E
  0
BLOCK_RECORD
  5
5D
330
1
100
AcDbSymbolTableRecord
100
AcDbBlockTableRecord
  2
SE
340
0
102
{BLKREFS
331
5E
102
}
  0
BLOCK_RECORD
  5
63
330
1
100
AcDbSymbolTableRecord
100
AcDbBlockTableRecord
  2
SE1
340
0
102
{BLKREFS
331
64
102
}
  0
BLOCK_RECORD
  5
6A
330
1
100
AcDbSymbolTableRecord
100
AcDbBlockTableRecord
  2
SE2
340
0
102
{BLKREFS
331
6B
102
}
  0
BLOCK_RECORD
  5
98
330
1
100
AcDbSymbolTableRecord
100
AcDbBlockTableRecord
  2
SE3
340
0
102
{BLKREFS
331
99
102
}
  0
BLOCK_RECORD
  5
C0
330
1
100
AcDbSymbolTableRecord
100
AcDbBlockTableRecord
  2
SE4
340
0
102
{BLKREFS
331
C1
102
}
  0
BLOCK_RECORD
  5
EC
330
1
100
AcDbSymbolTableRecord
100
AcDbBlockTableRecord
  2
SE5
340
0
102
{BLKREFS
331
ED
102
}
  0
BLOCK_RECORD
  5
10E
330
1
100
AcDbSymbolTableRecord
100
AcDbBlockTableRecord
  2
SE6
340
0
102
{BLKREFS
331
10F
102
}
  0
ENDTAB
  0
ENDSEC
  0
SECTION
  2
BLOCKS
  0
BLOCK
  5
20
330
1F
100
AcDbEntity
  8
0
100
AcDbBlockBegin
  2
*Model_Space
 70
     0
 10
0.0
 20
0.0
 30
0.0
  3
*Model_Space
  1

  0
ENDBLK
  5
21
330
1F
100
AcDbEntity
  8
0
100
AcDbBlockEnd
  0
BLOCK
  5
1C
330
1B
100
AcDbEntity
 67
     1
  8
0
100
AcDbBlockBegin
  2
*Paper_Space
 70
     0
 10
0.0
 20
0.0
 30
0.0
  3
*Paper_Space
  1

  0
ENDBLK
  5
1D
330
1B
100
AcDbEntity
 67
     1
  8
0
100
AcDbBlockEnd
  0
BLOCK
  5
61
330
5D
100
AcDbEntity
  8
0
100
AcDbBlockBegin
  2
SE
 70
     0
 10
0.0
 20
0.0
 30
0.0
  3
SE
  1

  0
LWPOLYLINE
  5
5F
330
5D
100
AcDbEntity
  8
0
  6
Continuous
 62
     7
100
AcDbPolyline
 90
        3
 70
     0
 43
0.0005
 10
261.3466174347
 20
1004.0893916449
 42
-0.3333333333
 10
276.3466174347
 20
1004.0893916449
 42
0.3333333333
 10
291.3466174347
 20
1004.0893916449
 42
0.3333333333
  0
LWPOLYLINE
  5
60
330
5D
100
AcDbEntity
  8
0
  6
Continuous
 62
     7
100
AcDbPolyline
 90
        3
 70
     0
 43
0.0005
 10
261.3466174347
 20
1016.7893916449
 42
-0.3333333333
 10
276.3466174347
 20
1016.7893916449
 42
0.3333333333
 10
291.3466174347
 20
1016.7893916449
 42
0.3333333333
  0
ENDBLK
  5
62
330
5D
100
AcDbEntity
  8
0
100
AcDbBlockEnd
  0
BLOCK
  5
67
330
63
100
AcDbEntity
  8
0
100
AcDbBlockBegin
  2
SE1
 70
     0
 10
0.0
 20
0.0
 30
0.0
  3
SE1
  1

  0
LWPOLYLINE
  5
65
330
63
100
AcDbEntity
  8
0
  6
Continuous
 62
     7
100
AcDbPolyline
 90
        3
 70
     0
 43
0.0005
 10
731.3703775762
 20
1004.0892961336
 42
-0.3333333333
 10
746.3703775762
 20
1004.0892961336
 42
0.3333333333
 10
761.3703775762
 20
1004.0892961336
 42
0.3333333333
  0
LWPOLYLINE
  5
66
330
63
100
AcDbEntity
  8
0
  6
Continuous
 62
     7
100
AcDbPolyline
 90
        3
 70
     0
 43
0.0005
 10
731.3703775762
 20
1016.7892961336
 42
-0.3333333333
 10
746.3703775762
 20
1016.7892961336
 42
0.3333333333
 10
761.3703775762
 20
1016.7892961336
 42
0.3333333333
  0
ENDBLK
  5
68
330
63
100
AcDbEntity
  8
0
100
AcDbBlockEnd
  0
BLOCK
  5
96
330
6A
100
AcDbEntity
  8
0
100
AcDbBlockBegin
  2
SE2
 70
     0
 10
0.0
 20
0.0
 30
0.0
  3
SE2
  1

  0
LINE
  5
6D
330
6A
100
AcDbEntity
  8
A4225952_SCHALE_
  6
Continuous
 62
     7
100
AcDbLine
 10
412.3466174347
 20
641.9777817566
 30
0.0
 11
140.3466174347
 21
641.9777817566
 31
0.0
  0
LINE
  5
6E
330
6A
100
AcDbEntity
  8
A4225952_SCHALE_
  6
Continuous
 62
     7
100
AcDbLine
 10
137.3466174347
 20
650.9777817566
 30
0.0
 11
137.3466174347
 21
644.9777817566
 31
0.0
  0
LINE
  5
6F
330
6A
100
AcDbEntity
  8
A4225952_SCHALE_
  6
Continuous
 62
     7
100
AcDbLine
 10
415.3466174347
 20
644.9777817566
 30
0.0
 11
415.3466174347
 21
650.9777817566
 31
0.0
  0
ARC
  5
70
330
6A
100
AcDbEntity
  8
A4225952_SCHALE_
  6
Continuous
 62
     7
100
AcDbCircle
 10
412.3466174347
 20
644.9777817566
 30
0.0
 40
2.999999999999999
100
AcDbArc
 50
270.0
 51
0.0
  0
ARC
  5
71
330
6A
100
AcDbEntity
  8
A4225952_SCHALE_
  6
Continuous
 62
     7
100
AcDbCircle
 10
140.3466174347
 20
644.9777817566
 30
0.0
 40
3.000000000000003
100
AcDbArc
 50
180.0
 51
270.0
  0
LINE
  5
73
330
6A
100
AcDbEntity
  8
A4225954_AUFLAGE
  6
Continuous
 62
     7
100
AcDbLine
 10
404.3466174347
 20
641.9777817566
 30
0.0
 11
412.3466174347
 21
641.9777817566
 31
0.0
  0
ARC
  5
74
330
6A
100
AcDbEntity
  8
A4225954_AUFLAGE
  6
Continuous
 62
     7
100
AcDbCircle
 10
408.3466174347
 20
644.0393345695
 30
0.0
 40
4.500000000000004
100
AcDbArc
 50
207.2660444507
 51
332.7339555493
  0
LINE
  5
75
330
6A
100
AcDbEntity
  8
A4225954_AUFLAGE
  6
Continuous
 62
     7
100
AcDbLine
 10
362.6472712801
 20
641.9777817566
 30
0.0
 11
354.6472712801
 21
641.9777817566
 31
0.0
  0
ARC
  5
76
330
6A
100
AcDbEntity
  8
A4225954_AUFLAGE
  6
Continuous
 62
     7
100
AcDbCircle
 10
358.6472712801
 20
644.0393345695
 30
0.0
 40
4.500000000000004
100
AcDbArc
 50
207.2660444507
 51
332.7339555493
  0
LINE
  5
77
330
6A
100
AcDbEntity
  8
A4225954_AUFLAGE
  6
Continuous
 62
     7
100
AcDbLine
 10
250.9738541525
 20
641.9777817566
 30
0.0
 11
242.9738541525
 21
641.9777817566
 31
0.0
  0
ARC
  5
78
330
6A
100
AcDbEntity
  8
A4225954_AUFLAGE
  6
Continuous
 62
     7
100
AcDbCircle
 10
246.9738541525
 20
644.0393345695
 30
0.0
 40
4.500000000000004
100
AcDbArc
 50
207.2660444507
 51
332.7339555493
  0
LINE
  5
79
330
6A
100
AcDbEntity
  8
A4225954_AUFLAGE
  6
Continuous
 62
     7
100
AcDbLine
 10
161.4187268716
 20
641.9777817566
 30
0.0
 11
153.4187268716
 21
641.9777817566
 31
0.0
  0
ARC
  5
7A
330
6A
100
AcDbEntity
  8
A4225954_AUFLAGE
  6
Continuous
 62
     7
100
AcDbCircle
 10
157.4187268716
 20
644.0393345695
 30
0.0
 40
4.500000000000004
100
AcDbArc
 50
207.2660444507
 51
332.7339555493
  0
SPLINE
  5
7C
330
6A
100
AcDbEntity
  8
64835038_RING_ZI
  6
Continuous
 62
     7
100
AcDbSpline
210
0.0
220
0.0
230
1.0
 70
     8
 71
     3
 72
     8
 73
     4
 74
     0
 42
0.0000000026535059
 43
0.0000000001
 40
0.0
 40
0.0
 40
0.0
 40
0.0
 40
1.0
 40
1.0
 40
1.0
 40
1.0
 10
260.7283937648761
 20
672.93466300567
 30
0.0
 10
259.5653145522685
 20
672.7073031560054
 30
0.0
 10
258.2915732778277
 20
672.3737730364415
 30
0.0
 10
257.0701021521845
 20
672.0378503859707
 30
0.0
  0
LINE
  5
7D
330
6A
100
AcDbEntity
  8
64835038_RING_ZI
  6
Continuous
 62
     7
100
AcDbLine
 10
291.9597426647
 20
672.9357083847
 30
0.0
 11
291.9664601393
 21
672.9343306837
 31
0.0
  0
LINE
  5
7E
330
6A
100
AcDbEntity
  8
64835038_RING_ZI
  6
Continuous
 62
     7
100
AcDbLine
 10
260.7672759042
 20
672.9346172798
 30
0.0
 11
260.7281709366
 21
672.9346172798
 31
0.0
  0
LINE
  5
7F
330
6A
100
AcDbEntity
  8
64835038_RING_ZI
  6
Continuous
 62
     7
100
AcDbLine
 10
260.7672759042
 20
672.9346172798
 30
0.0
 11
261.1983251755
 21
672.9346172798
 31
0.0
  0
LINE
  5
80
330
6A
100
AcDbEntity
  8
64835038_RING_ZI
  6
Continuous
 62
     7
100
AcDbLine
 10
261.6855836168
 20
672.9346172798
 30
0.0
 11
261.1990329132
 21
672.9346172798
 31
0.0
  0
SPLINE
  5
81
330
6A
100
AcDbEntity
  8
64835038_RING_ZI
  6
Continuous
 62
     7
100
AcDbSpline
210
0.0
220
0.0
230
1.0
 70
     8
 71
     3
 72
    20
 73
    16
 74
     0
 42
0.0000000003305772
 43
0.0000000001
 40
0.0
 40
0.0
 40
0.0
 40
0.0
 40
0.125
 40
0.125
 40
0.25
 40
0.25
 40
0.375
 40
0.375
 40
0.5
 40
0.5
 40
0.625
 40
0.625
 40
0.75
 40
0.75
 40
1.0
 40
1.0
 40
1.0
 40
1.0
 10
261.7096210206551
 20
672.9346170007387
 30
0.0
 10
262.3467220363455
 20
672.9356459613624
 30
0.0
 10
263.2719830376724
 20
672.9345077933904
 30
0.0
 10
265.6225429128642
 20
672.9352505304779
 30
0.0
 10
267.033244189066
 20
672.9347813421354
 30
0.0
 10
270.1836014028252
 20
672.9354345688952
 30
0.0
 10
271.9137189858878
 20
672.9345925537375
 30
0.0
 10
275.4872410560632
 20
672.9355291017471
 30
0.0
 10
277.3270641330417
 20
672.9352674810906
 30
0.0
 10
280.8943810694771
 20
672.935119340176
 30
0.0
 10
282.6206598211664
 20
672.9357494268957
 30
0.0
 10
285.7563870647693
 20
672.9350837712079
 30
0.0
 10
287.1606570021726
 20
672.9360280109561
 30
0.0
 10
290.6512665110625
 20
672.9350186332632
 30
0.0
 10
291.9597426649001
 20
672.9357083846439
 30
0.0
 10
291.9597426653052
 20
672.9357083878361
 30
0.0
  0
LINE
  5
82
330
6A
100
AcDbEntity
  8
64835038_RING_ZI
  6
Continuous
 62
     7
100
AcDbLine
 10
261.7096405977
 20
672.9346172798
 30
0.0
 11
261.6855836168
 21
672.9346172798
 31
0.0
  0
SPLINE
  5
83
330
6A
100
AcDbEntity
  8
64835038_RING_ZI
  6
Continuous
 62
     7
100
AcDbSpline
210
0.0
220
0.0
230
1.0
 70
     8
 71
     3
 72
     8
 73
     4
 74
     0
 42
0.0000000026542265
 43
0.0000000001
 40
0.0
 40
0.0
 40
0.0
 40
0.0
 40
1.0
 40
1.0
 40
1.0
 40
1.0
 10
295.6231330726088
 20
672.0382494882558
 30
0.0
 10
294.4020988776654
 20
672.3740337496638
 30
0.0
 10
293.1288967376013
 20
672.7073928103065
 30
0.0
 10
291.9657914571698
 20
672.9346172797735
 30
0.0
  0
LINE
  5
84
330
6A
100
AcDbEntity
  8
64835038_RING_ZI
  6
Continuous
 62
     7
100
AcDbLine
 10
257.0701021522
 20
672.037850386
 30
0.0
 11
295.6231330726
 21
672.0382494883
 31
0.0
  0
ARC
  5
85
330
6A
100
AcDbEntity
  8
64835038_RING_ZI
  6
Continuous
 62
     7
100
AcDbCircle
 10
295.5966174347
 20
671.9418289461
 30
0.0
 40
0.0999999999996587
100
AcDbArc
 50
21.0712181945
 51
74.6237549547
  0
ARC
  5
86
330
6A
100
AcDbEntity
  8
64835038_RING_ZI
  6
Continuous
 62
     7
100
AcDbCircle
 10
257.0966174347
 20
671.9414349033
 30
0.0
 40
0.0999999999999994
100
AcDbArc
 50
105.3768174348
 51
158.6866359848
  0
ARC
  5
87
330
6A
100
AcDbEntity
  8
64835038_RING_ZI
  6
Continuous
 62
     7
100
AcDbCircle
 10
288.7241583502
 20
657.1423919603
 30
0.0
 40
16.12134763403823
100
AcDbArc
 50
79.2352751925
 51
79.4898145201
  0
ARC
  5
88
330
6A
100
AcDbEntity
  8
64835038_RING_ZI
  6
Continuous
 62
     7
100
AcDbCircle
 10
263.9690765193
 20
657.1423919603
 30
0.0
 40
16.12134763403821
100
AcDbArc
 50
100.5101854799
 51
101.602916584
  0
ARC
  5
89
330
6A
100
AcDbEntity
  8
64835038_RING_ZI
  6
Continuous
 62
     7
100
AcDbCircle
 10
261.0466174347
 20
672.8949413701
 30
0.0
 40
0.1000000000000029
100
AcDbArc
 50
90.0
 51
100.5101854799
  0
ARC
  5
8A
330
6A
100
AcDbEntity
  8
64835038_RING_ZI
  6
Continuous
 62
     7
100
AcDbCircle
 10
291.6466174347
 20
672.8949413701
 30
0.0
 40
0.0999999999999838
100
AcDbArc
 50
79.48981452
 51
90.0
  0
LINE
  5
8B
330
6A
100
AcDbEntity
  8
64835038_RING_ZI
  6
Continuous
 62
     7
100
AcDbLine
 10
291.6466174347
 20
672.9949413701
 30
0.0
 11
261.824387097
 21
672.9949413701
 31
0.0
  0
LINE
  5
8D
330
6A
100
AcDbEntity
  8
64833038_ROHR_TU
  6
Continuous
 62
     7
100
AcDbLine
 10
291.3466174347
 20
672.9949413701
 30
0.0
 11
291.3466174347
 21
1004.0893916449
 31
0.0
  0
LINE
  5
8E
330
6A
100
AcDbEntity
  8
64833038_ROHR_TU
  6
Continuous
 62
     7
100
AcDbLine
 10
261.3466174347
 20
1004.0893916449
 30
0.0
 11
261.3466174347
 21
672.9949413701
 31
0.0
  0
LINE
  5
90
330
6A
100
AcDbEntity
  8
64105038_ABDECKU
  6
Continuous
 62
     7
100
AcDbLine
 10
134.8466174347
 20
650.9777817566
 30
0.0
 11
417.8466174347
 21
650.9777817566
 31
0.0
  0
LINE
  5
91
330
6A
100
AcDbEntity
  8
64105038_ABDECKU
  6
Continuous
 62
     7
100
AcDbLine
 10
137.8466174347
 20
671.9777817566
 30
0.0
 11
414.8466174347
 21
671.9777817566
 31
0.0
  0
LINE
  5
92
330
6A
100
AcDbEntity
  8
64105038_ABDECKU
  6
Continuous
 62
     7
100
AcDbLine
 10
417.8466174347
 20
650.9777817566
 30
0.0
 11
417.8466174347
 21
668.9777817566
 31
0.0
  0
LINE
  5
93
330
6A
100
AcDbEntity
  8
64105038_ABDECKU
  6
Continuous
 62
     7
100
AcDbLine
 10
134.8466174347
 20
668.9777817566
 30
0.0
 11
134.8466174347
 21
650.9777817566
 31
0.0
  0
ARC
  5
94
330
6A
100
AcDbEntity
  8
64105038_ABDECKU
  6
Continuous
 62
     7
100
AcDbCircle
 10
137.8466174347
 20
668.9777817566
 30
0.0
 40
3.000000000000003
100
AcDbArc
 50
90.0
 51
180.0
  0
ARC
  5
95
330
6A
100
AcDbEntity
  8
64105038_ABDECKU
  6
Continuous
 62
     7
100
AcDbCircle
 10
414.8466174347
 20
668.9777817566
 30
0.0
 40
3.000000000000003
100
AcDbArc
 50
0.0
 51
90.0
  0
ENDBLK
  5
97
330
6A
100
AcDbEntity
  8
0
100
AcDbBlockEnd
  0
BLOCK
  5
BE
330
98
100
AcDbEntity
  8
0
100
AcDbBlockBegin
  2
SE3
 70
     0
 10
0.0
 20
0.0
 30
0.0
  3
SE3
  1

  0
LINE
  5
9A
330
98
100
AcDbEntity
  8
64833038_ROHR_TU
  6
Continuous
 62
     7
100
AcDbLine
 10
261.8082916498
 20
1302.1625331641
 30
0.0
 11
291.0853558012
 21
1302.1625331641
 31
0.0
  0
LINE
  5
9B
330
98
100
AcDbEntity
  8
64833038_ROHR_TU
  6
Continuous
 62
     7
100
AcDbLine
 10
291.3466174347
 20
1016.7893916449
 30
0.0
 11
291.3466174347
 21
1301.9625331641
 31
0.0
  0
LINE
  5
9C
330
98
100
AcDbEntity
  8
64833038_ROHR_TU
  6
Continuous
 62
     7
100
AcDbLine
 10
261.3466174347
 20
1301.9625331641
 30
0.0
 11
261.3466174347
 21
1016.7893916449
 31
0.0
  0
ARC
  5
9D
330
98
100
AcDbEntity
  8
64833038_ROHR_TU
  6
Continuous
 62
     7
100
AcDbCircle
 10
261.5466174347
 20
1301.9625331641
 30
0.0
 40
0.199999999999978
100
AcDbArc
 50
90.0
 51
180.0
  0
ARC
  5
9E
330
98
100
AcDbEntity
  8
64833038_ROHR_TU
  6
Continuous
 62
     7
100
AcDbCircle
 10
291.1466174347
 20
1301.9625331641
 30
0.0
 40
0.2000000000000005
100
AcDbArc
 50
0.0
 51
90.0
  0
SPLINE
  5
A0
330
98
100
AcDbEntity
  8
64832038_HALTER_
  6
Continuous
 62
     7
100
AcDbSpline
210
0.0
220
0.0
230
1.0
 70
     8
 71
     3
 72
    26
 73
    22
 74
     0
 42
0.0000000000918612
 43
0.0000000001
 40
0.0
 40
0.0
 40
0.0
 40
0.0
 40
0.125
 40
0.125
 40
0.2499999999999999
 40
0.2499999999999999
 40
0.3749999999999999
 40
0.3749999999999999
 40
0.4999999999999999
 40
0.4999999999999999
 40
0.5624999999999999
 40
0.5624999999999999
 40
0.6249999999999999
 40
0.6249999999999999
 40
0.6875
 40
0.6875
 40
0.75
 40
0.75
 40
0.875
 40
0.875
 40
1.0
 40
1.0
 40
1.0
 40
1.0
 10
261.347052528973
 20
1302.162533164053
 30
0.0
 10
261.2627611988942
 20
1306.710270337705
 30
0.0
 10
261.1584691148628
 20
1311.257122000421
 30
0.0
 10
260.8301688422582
 20
1320.345525039059
 30
0.0
 10
260.6157958512541
 20
1324.887503001786
 30
0.0
 10
259.7796792627888
 20
1333.95342308274
 30
0.0
 10
259.1264555153006
 20
1338.437388331339
 30
0.0
 10
257.0167916792343
 20
1347.166258708274
 30
0.0
 10
255.5929414207448
 20
1351.427939001883
 30
0.0
 10
252.7460398684132
 20
1357.62244301259
 30
0.0
 10
251.6696853271621
 20
1359.66224433678
 30
0.0
 10
249.300354769773
 20
1363.53790175623
 30
0.0
 10
248.0009638666663
 20
1365.386956560069
 30
0.0
 10
245.1529628527481
 20
1368.892222044186
 30
0.0
 10
243.6034913599677
 20
1370.547766192971
 30
0.0
 10
240.2683852882157
 20
1373.67611310478
 30
0.0
 10
238.4973607586655
 20
1375.135536464756
 30
0.0
 10
233.0488428379389
 20
1379.213793300005
 30
0.0
 10
229.2025663060307
 20
1381.584599722203
 30
0.0
 10
221.3324773593482
 20
1386.03739046361
 30
0.0
 10
217.3050104992703
 20
1388.113429592694
 30
0.0
 10
213.2368917467878
 20
1390.123334682479
 30
0.0
  0
SPLINE
  5
A1
330
98
100
AcDbEntity
  8
64832038_HALTER_
  6
Continuous
 62
     7
100
AcDbSpline
210
0.0
220
0.0
230
1.0
 70
     8
 71
     3
 72
    24
 73
    20
 74
     0
 42
0.0000000000918386
 43
0.0000000001
 40
0.0
 40
0.0
 40
0.0
 40
0.0
 40
0.1249999999999997
 40
0.1249999999999997
 40
0.2499999999999994
 40
0.2499999999999994
 40
0.3124999999999993
 40
0.3124999999999993
 40
0.3749999999999993
 40
0.3749999999999993
 40
0.4999999999999994
 40
0.4999999999999994
 40
0.6249999999999996
 40
0.6249999999999996
 40
0.7499999999999997
 40
0.7499999999999997
 40
0.8749999999999999
 40
0.8749999999999999
 40
1.0
 40
1.0
 40
1.0
 40
1.0
 10
339.4559417774249
 20
1390.123136392504
 30
0.0
 10
335.3999552785236
 20
1388.11921924938
 30
0.0
 10
331.3849095205663
 20
1386.049732586349
 30
0.0
 10
323.5401642049095
 20
1381.613914086348
 30
0.0
 10
319.7068980936141
 20
1379.253294339623
 30
0.0
 10
314.2770297168598
 20
1375.199812557971
 30
0.0
 10
312.5222722579969
 20
1373.760247357997
 30
0.0
 10
309.1697480041504
 20
1370.62968520028
 30
0.0
 10
307.614660049995
 20
1368.97500462477
 30
0.0
 10
303.3413973925888
 20
1363.741205636054
 30
0.0
 10
301.0067208040814
 20
1359.890160811211
 30
0.0
 10
297.1653123978585
 20
1351.605402208809
 30
0.0
 10
295.7134528064446
 20
1347.295308349161
 30
0.0
 10
293.5743730715265
 20
1338.492389769575
 30
0.0
 10
292.9142088097558
 20
1333.958275956253
 30
0.0
 10
292.0779506427875
 20
1324.895277121531
 30
0.0
 10
291.8633718574852
 20
1320.352506248649
 30
0.0
 10
291.5348663805736
 20
1311.26139096353
 30
0.0
 10
291.4305152991798
 20
1306.712516308571
 30
0.0
 10
291.3461823405197
 20
1302.162533164053
 30
0.0
  0
LINE
  5
A2
330
98
100
AcDbEntity
  8
64832038_HALTER_
  6
Continuous
 62
     7
100
AcDbLine
 10
212.7832953723
 20
1391.4628309792
 30
0.0
 11
214.5550952167
 21
1395.0490163218
 31
0.0
  0
LINE
  5
A3
330
98
100
AcDbEntity
  8
64832038_HALTER_
  6
Continuous
 62
     7
100
AcDbLine
 10
338.1377323087
 20
1395.0488164264
 30
0.0
 11
339.9095365206
 21
1391.4626332417
 31
0.0
  0
SPLINE
  5
A4
330
98
100
AcDbEntity
  8
64832038_HALTER_
  6
Continuous
 62
     7
100
AcDbSpline
210
0.0
220
0.0
230
1.0
 70
     8
 71
     3
 72
    10
 73
     6
 74
     0
 42
0.0000000062459937
 43
0.0000000001
 40
0.1829010000599578
 40
0.1829010000599578
 40
0.1829010000599578
 40
0.1829010000599578
 40
0.5
 40
0.5
 40
1.0
 40
1.0
 40
1.0
 40
1.0
 10
215.6223133266481
 20
1395.590540341391
 30
0.0
 10
215.4587107914515
 20
1395.618475341017
 30
0.0
 10
215.288161111091
 20
1395.606486765082
 30
0.0
 10
214.8829327615803
 20
1395.469263459099
 30
0.0
 10
214.6710592453747
 20
1395.283731603592
 30
0.0
 10
214.5550952167277
 20
1395.049016321784
 30
0.0
  0
SPLINE
  5
A5
330
98
100
AcDbEntity
  8
64832038_HALTER_
  6
Continuous
 62
     7
100
AcDbSpline
210
0.0
220
0.0
230
1.0
 70
     8
 71
     3
 72
    10
 73
     6
 74
     0
 42
0.0000000062094565
 43
0.0000000001
 40
0.0
 40
0.0
 40
0.0
 40
0.0
 40
0.5
 40
0.5
 40
1.0
 40
1.0
 40
1.0
 40
1.0
 10
212.7832953722635
 20
1391.462830979229
 30
0.0
 10
212.6673313436189
 20
1391.228115697429
 30
0.0
 10
212.6487049767115
 20
1390.947107664211
 30
0.0
 10
212.8166446094763
 20
1390.45117222733
 30
0.0
 10
213.0021764649836
 20
1390.239298711124
 30
0.0
 10
213.2368917467878
 20
1390.123334682479
 30
0.0
  0
SPLINE
  5
A6
330
98
100
AcDbEntity
  8
64832038_HALTER_
  6
Continuous
 62
     7
100
AcDbSpline
210
0.0
220
0.0
230
1.0
 70
     8
 71
     3
 72
    10
 73
     6
 74
     0
 42
0.0000000062459909
 43
0.0000000001
 40
0.0
 40
0.0
 40
0.0
 40
0.0
 40
0.5
 40
0.5
 40
0.8171342847839916
 40
0.8171342847839916
 40
0.8171342847839916
 40
0.8171342847839916
 10
338.1377323086926
 20
1395.048816426428
 30
0.0
 10
338.0217679941978
 20
1395.283531567
 30
0.0
 10
337.8098942520407
 20
1395.469063164475
 30
0.0
 10
337.4046482363998
 20
1395.606291902648
 30
0.0
 10
337.2340780848252
 20
1395.618277012649
 30
0.0
 10
337.0704589254657
 20
1395.590329819446
 30
0.0
  0
SPLINE
  5
A7
330
98
100
AcDbEntity
  8
64832038_HALTER_
  6
Continuous
 62
     7
100
AcDbSpline
210
0.0
220
0.0
230
1.0
 70
     8
 71
     3
 72
    10
 73
     6
 74
     0
 42
0.0000000062094565
 43
0.0000000001
 40
0.0
 40
0.0
 40
0.0
 40
0.0
 40
0.5
 40
0.5
 40
1.0
 40
1.0
 40
1.0
 40
1.0
 10
339.4559417774249
 20
1390.123136392504
 30
0.0
 10
339.6906569180015
 20
1390.239100707002
 30
0.0
 10
339.8761885154765
 20
1390.450974449159
 30
0.0
 10
340.0441275442612
 20
1390.946910090567
 30
0.0
 10
340.0255008351254
 20
1391.227918101101
 30
0.0
 10
339.9095365206267
 20
1391.462633241678
 30
0.0
  0
LINE
  5
A8
330
98
100
AcDbEntity
  8
64832038_HALTER_
  6
Continuous
 62
     7
100
AcDbLine
 10
291.0751779228
 20
1302.1625331641
 30
0.0
 11
291.3461823405
 21
1302.1625331641
 31
0.0
  0
LINE
  5
A9
330
98
100
AcDbEntity
  8
64832038_HALTER_
  6
Continuous
 62
     7
100
AcDbLine
 10
291.0744086253
 20
1302.1625331641
 30
0.0
 11
261.347052529
 21
1302.1625331641
 31
0.0
  0
SPLINE
  5
AA
330
98
100
AcDbEntity
  8
64832038_HALTER_
  6
Continuous
 62
     7
100
AcDbSpline
210
0.0
220
0.0
230
1.0
 70
     8
 71
     3
 72
    43
 73
    39
 74
     0
 42
0.0000000000916779
 43
0.0000000001
 40
0.0
 40
0.0
 40
0.0
 40
0.0
 40
0.0293892859912272
 40
0.06683559993844
 40
0.099895121645319
 40
0.1291879809454127
 40
0.1552551402306945
 40
0.1785669925133908
 40
0.212627320138596
 40
0.2416309166461732
 40
0.2668095215756864
 40
0.289103619947217
 40
0.3092211563266514
 40
0.327686379720055
 40
0.3666481900518924
 40
0.4012582930958767
 40
0.4476836770804188
 40
0.4874649286172865
 40
0.5203877330231381
 40
0.546086857434445
 40
0.5590288310893369
 40
0.5685384542456308
 40
0.5786707868608901
 40
0.5926524235345111
 40
0.6108580293692488
 40
0.6338179236216667
 40
0.6546644223749847
 40
0.6792463480873647
 40
0.7084460486037932
 40
0.7435949798703348
 40
0.763991170390117
 40
0.7866860870441335
 40
0.8120773301200663
 40
0.8406441315797306
 40
0.8729620499254255
 40
0.9097200022992251
 40
0.9517400009467243
 40
1.0
 40
1.0
 40
1.0
 40
1.0
 10
291.0758994391726
 20
1302.161931948251
 30
0.0
 10
291.0971706169086
 20
1303.340568626605
 30
0.0
 10
291.138739448821
 20
1305.605862964409
 30
0.0
 10
291.2242573848401
 20
1309.328368041666
 30
0.0
 10
291.3234867806162
 20
1312.945802033892
 30
0.0
 10
291.4299424852006
 20
1316.172694947953
 30
0.0
 10
291.5428089585061
 20
1319.038130403238
 30
0.0
 10
291.6848250212321
 20
1322.077524553267
 30
0.0
 10
291.8653653798933
 20
1325.22180108981
 30
0.0
 10
292.1028316468204
 20
1328.430519412291
 30
0.0
 10
292.3612203830984
 20
1331.206772002761
 30
0.0
 10
292.6404969594386
 20
1333.654890330962
 30
0.0
 10
292.9403701243418
 20
1335.853467137224
 30
0.0
 10
293.384939083058
 20
1338.644060283452
 30
0.0
 10
294.0323069607093
 20
1341.935108104212
 30
0.0
 10
295.0901460196887
 20
1346.173812081363
 30
0.0
 10
296.3961909162191
 20
1350.370475191384
 30
0.0
 10
297.9442940500272
 20
1354.405652148235
 30
0.0
 10
299.4095785790662
 20
1357.647590237455
 30
0.0
 10
300.5720548556779
 20
1359.935545540216
 30
0.0
 10
301.397071943196
 20
1361.440936253818
 30
0.0
 10
301.932028388214
 20
1362.427195770704
 30
0.0
 10
302.5399720972641
 20
1363.450098123163
 30
0.0
 10
303.3926127149255
 20
1364.724510552393
 30
0.0
 10
304.5810440877585
 20
1366.338169534186
 30
0.0
 10
306.017763693961
 20
1368.08380894606
 30
0.0
 10
307.7010827474365
 20
1369.923938435487
 30
0.0
 10
309.6392764095708
 20
1371.83611561587
 30
0.0
 10
312.0719972489748
 20
1373.982964927371
 30
0.0
 10
314.5052291208451
 20
1375.890106201483
 30
0.0
 10
316.8208501640157
 20
1377.555315129604
 30
0.0
 10
318.8877057108202
 20
1378.954796409194
 30
0.0
 10
321.242513076255
 20
1380.457575949169
 30
0.0
 10
323.9337299904823
 20
1382.079437809635
 30
0.0
 10
327.0259357635322
 20
1383.84374017116
 30
0.0
 10
330.564455999854
 20
1385.762691716029
 30
0.0
 10
334.7461625554398
 20
1387.927584373906
 30
0.0
 10
337.468498086621
 20
1389.271758743255
 30
0.0
 10
339.2004190586669
 20
1390.123334682478
 30
0.0
  0
SPLINE
  5
AB
330
98
100
AcDbEntity
  8
64832038_HALTER_
  6
Continuous
 62
     7
100
AcDbSpline
210
0.0
220
0.0
230
1.0
 70
     8
 71
     3
 72
    43
 73
    39
 74
     0
 42
0.000000000091678
 43
0.0000000001
 40
0.0
 40
0.0
 40
0.0
 40
0.0
 40
0.0482597433497266
 40
0.0902795193560528
 40
0.1270372769694077
 40
0.1593550240799893
 40
0.1879216741796728
 40
0.2133127827211859
 40
0.2360075791271534
 40
0.2564036615785891
 40
0.2915524066100171
 40
0.3207519524130777
 40
0.3453337478791719
 40
0.3661801361782075
 40
0.389139908778604
 40
0.4073454181517169
 40
0.4213269807442334
 40
0.431459259673762
 40
0.4409688324437228
 40
0.4539107375261188
 40
0.4796097257717136
 40
0.5125323557374908
 40
0.5523133964950943
 40
0.5987385344967194
 40
0.6246235899629187
 40
0.6527513543167107
 40
0.6840162403468099
 40
0.7201453184134585
 40
0.7409264286607136
 40
0.7642223719839132
 40
0.7907525656477222
 40
0.8214301779836133
 40
0.8447419067494514
 40
0.8708089279190006
 40
0.9001016320121253
 40
0.9331609785545352
 40
0.9706070940940492
 40
1.0
 40
1.0
 40
1.0
 40
1.0
 10
213.492815810826
 20
1390.123334682478
 30
0.0
 10
215.2247367828718
 20
1389.271758743255
 30
0.0
 10
217.947072314053
 20
1387.927584373904
 30
0.0
 10
222.1287788696387
 20
1385.762691716034
 30
0.0
 10
225.6672991059604
 20
1383.843740171157
 30
0.0
 10
228.7595048790104
 20
1382.079437809638
 30
0.0
 10
231.4507217932376
 20
1380.457575949168
 30
0.0
 10
233.8055291586725
 20
1378.954796409196
 30
0.0
 10
235.8723847054768
 20
1377.555315129604
 30
0.0
 10
238.1880057486476
 20
1375.890106201483
 30
0.0
 10
240.6212376205169
 20
1373.982964927369
 30
0.0
 10
243.053958459924
 20
1371.836115615866
 30
0.0
 10
244.9921521220492
 20
1369.923938435502
 30
0.0
 10
246.6754711755538
 20
1368.083808946011
 30
0.0
 10
248.1121907816486
 20
1366.338169534369
 30
0.0
 10
249.3006221547896
 20
1364.724510551912
 30
0.0
 10
250.1532627716761
 20
1363.450098124356
 30
0.0
 10
250.7612064826942
 20
1362.427195767643
 30
0.0
 10
251.2961629205673
 20
1361.440936266196
 30
0.0
 10
252.1211800570199
 20
1359.935545446859
 30
0.0
 10
253.2836559070972
 20
1357.647591065729
 30
0.0
 10
254.7489428217259
 20
1354.405647821863
 30
0.0
 10
256.2970341727615
 20
1350.370496324548
 30
0.0
 10
257.5088062561985
 20
1346.476803330808
 30
0.0
 10
258.415688875601
 20
1342.935562144339
 30
0.0
 10
259.0737972191423
 20
1339.899973736295
 30
0.0
 10
259.6767956975442
 20
1336.471530721573
 30
0.0
 10
260.1045338564933
 20
1333.28543616431
 30
0.0
 10
260.4132225218235
 20
1330.37781429769
 30
0.0
 10
260.6387379425146
 20
1327.813392344853
 30
0.0
 10
260.8476780419697
 20
1324.885512816913
 30
0.0
 10
261.0141735069507
 20
1321.954315230528
 30
0.0
 10
261.1504241852543
 20
1319.038129110941
 30
0.0
 10
261.2632929362787
 20
1316.172695318722
 30
0.0
 10
261.3697478972007
 20
1312.945802094076
 30
0.0
 10
261.468977613889
 20
1309.32836721888
 30
0.0
 10
261.5544983614292
 20
1305.605725613698
 30
0.0
 10
261.5960694128831
 20
1303.340307091591
 30
0.0
 10
261.6173432483179
 20
1302.16151899193
 30
0.0
  0
SPLINE
  5
AC
330
98
100
AcDbEntity
  8
64832038_HALTER_
  6
Continuous
 62
     7
100
AcDbSpline
210
0.0
220
0.0
230
1.0
 70
     8
 71
     3
 72
    20
 73
    16
 74
     0
 42
0.0000000002526878
 43
0.0000000001
 40
0.1927001878075172
 40
0.1927001878075172
 40
0.1927001878075172
 40
0.1927001878075172
 40
0.2059363688975079
 40
0.2302741811443274
 40
0.2750270929515074
 40
0.3294581324660826
 40
0.3824664841753755
 40
0.4297362197072321
 40
0.4956554402159157
 40
0.5647064893939084
 40
0.6373522420643992
 40
0.7139158258808264
 40
0.7979720505319984
 40
0.8989777980590086
 40
1.0
 40
1.0
 40
1.0
 40
1.0
 10
244.3948861172551
 20
1380.433410212487
 30
0.0
 10
244.2821070559941
 20
1380.480002456561
 30
0.0
 10
243.9507687830393
 20
1380.622654346298
 30
0.0
 10
243.1594668538992
 20
1380.997395018462
 30
0.0
 10
241.8885522321599
 20
1381.670039869658
 30
0.0
 10
240.2386894268965
 20
1382.608511640572
 30
0.0
 10
238.5126557055391
 20
1383.61709104991
 30
0.0
 10
236.618578863445
 20
1384.727503708068
 30
0.0
 10
234.5017653762449
 20
1385.957162117521
 30
0.0
 10
232.0496852011255
 20
1387.354669611852
 30
0.0
 10
229.4400983875452
 20
1388.80171943399
 30
0.0
 10
226.6264260020201
 20
1390.306024798251
 30
0.0
 10
223.4683376928419
 20
1391.940937873806
 30
0.0
 10
219.9066661542507
 20
1393.729133939423
 30
0.0
 10
217.6069390551329
 20
1394.844382001242
 30
0.0
 10
216.2412003066909
 20
1395.50499445404
 30
0.0
  0
SPLINE
  5
AD
330
98
100
AcDbEntity
  8
64832038_HALTER_
  6
Continuous
 62
     7
100
AcDbSpline
210
0.0
220
0.0
230
1.0
 70
     8
 71
     3
 72
    32
 73
    28
 74
     0
 42
0.0000000001781408
 43
0.0000000001
 40
0.0
 40
0.0
 40
0.0
 40
0.0
 40
0.0421628438855238
 40
0.0839065936853714
 40
0.1151934640664679
 40
0.1387582586173254
 40
0.1629340708179763
 40
0.2141350110879941
 40
0.2688415207370527
 40
0.3115945376442298
 40
0.3553340730955863
 40
0.3994600225799202
 40
0.4322395745238731
 40
0.4640453360210206
 40
0.4940735271108839
 40
0.5213600815570035
 40
0.5469175447978357
 40
0.5729085089671305
 40
0.6164049686374188
 40
0.661574793081908
 40
0.7063802437774513
 40
0.7508318129547237
 40
0.8828861374801176
 40
0.9092648633481382
 40
0.9363990870907715
 40
0.9689074613800817
 40
1.0
 40
1.0
 40
1.0
 40
1.0
 10
299.4544570213876
 20
1395.129509222684
 30
0.0
 10
298.8258773067791
 20
1394.652518709197
 30
0.0
 10
297.7726860072012
 20
1393.8520330646
 30
0.0
 10
296.1888065361506
 20
1392.618954010611
 30
0.0
 10
294.8978252401217
 20
1391.595179326804
 30
0.0
 10
293.8369594595318
 20
1390.739873483478
 30
0.0
 10
292.5191179380033
 20
1389.660082066888
 30
0.0
 10
290.8013406332978
 20
1388.214419701474
 30
0.0
 10
288.8757664896565
 20
1386.513579699258
 30
0.0
 10
286.8958195608741
 20
1384.897717909166
 30
0.0
 10
284.920107682845
 20
1383.419120081026
 30
0.0
 10
282.9132388184848
 20
1382.101809669985
 30
0.0
 10
280.8924039868886
 20
1381.033683766239
 30
0.0
 10
278.9206410666178
 20
1380.291977329952
 30
0.0
 10
276.8433234256264
 20
1379.934454389014
 30
0.0
 10
274.8569874240921
 20
1380.064449478548
 30
0.0
 10
273.1047692498334
 20
1380.525686177944
 30
0.0
 10
271.1866890932307
 20
1381.320779889859
 30
0.0
 10
269.1310302862798
 20
1382.501017688199
 30
0.0
 10
266.9959956722443
 20
1383.98417412869
 30
0.0
 10
265.0252784698599
 20
1385.516666419439
 30
0.0
 10
262.0520081805947
 20
1388.044113146882
 30
0.0
 10
259.4040166069669
 20
1390.3237563305
 30
0.0
 10
256.9004258367864
 20
1392.307078685488
 30
0.0
 10
255.7469704533771
 20
1393.209939744535
 30
0.0
 10
254.496816173591
 20
1394.174906063402
 30
0.0
 10
253.6979863845167
 20
1394.780613479529
 30
0.0
 10
253.2346104349169
 20
1395.131572207192
 30
0.0
  0
SPLINE
  5
AE
330
98
100
AcDbEntity
  8
64832038_HALTER_
  6
Continuous
 62
     7
100
AcDbSpline
210
0.0
220
0.0
230
1.0
 70
     8
 71
     3
 72
    18
 73
    14
 74
     0
 42
0.000000000712959
 43
0.0000000001
 40
0.0
 40
0.0
 40
0.0
 40
0.0
 40
0.1493965952987473
 40
0.3016210277406882
 40
0.4357714594650519
 40
0.5516966545354807
 40
0.6479622551519761
 40
0.713247639767142
 40
0.764729573479677
 40
0.8055291987815084
 40
0.8562435834771996
 40
0.9208264689866832
 40
0.9671132312611805
 40
0.9671132312611805
 40
0.9671132312611805
 40
0.9671132312611805
 10
237.7549508421884
 20
1390.825499403594
 30
0.0
 10
238.2895192234425
 20
1390.1030223045
 30
0.0
 10
239.197528319001
 20
1388.871524068543
 30
0.0
 10
240.6240828973895
 20
1386.863981019944
 30
0.0
 10
241.8823968130903
 20
1385.013408115496
 30
0.0
 10
242.987022607339
 20
1383.368784902752
 30
0.0
 10
243.735699291126
 20
1382.060394959678
 30
0.0
 10
244.1734415750506
 20
1381.089714721267
 30
0.0
 10
244.4195957476541
 20
1380.410628508415
 30
0.0
 10
244.5701785641332
 20
1379.848351018869
 30
0.0
 10
244.6351922492255
 20
1379.55005448817
 30
0.0
 10
244.7371815608663
 20
1379.402744463498
 30
0.0
 10
244.7921621948796
 20
1379.364030084042
 30
0.0
 10
244.8157315466889
 20
1379.353531938224
 30
0.0
  0
SPLINE
  5
AF
330
98
100
AcDbEntity
  8
64832038_HALTER_
  6
Continuous
 62
     7
100
AcDbSpline
210
0.0
220
0.0
230
1.0
 70
     8
 71
     3
 72
    21
 73
    17
 74
     0
 42
0.0000000002530081
 43
0.0000000001
 40
0.0
 40
0.0
 40
0.0
 40
0.0
 40
0.0711302163003207
 40
0.1489458271832376
 40
0.2154667501866439
 40
0.2827109016163734
 40
0.3311352407599537
 40
0.3671664070692929
 40
0.4080355210390133
 40
0.48396070664165
 40
0.5685201103907196
 40
0.62568884881556
 40
0.675714394027693
 40
0.7265446982079963
 40
0.786966101236503
 40
0.8149270329800723
 40
0.8149270329800723
 40
0.8149270329800723
 40
0.8149270329800723
 10
336.4480948329288
 20
1395.50406191034
 30
0.0
 10
335.4827619446454
 20
1395.037671423174
 30
0.0
 10
333.7783357889668
 20
1394.212832412597
 30
0.0
 10
331.0776104370905
 20
1392.872799080927
 30
0.0
 10
328.5030876420593
 20
1391.567881464071
 30
0.0
 10
326.2819481996274
 20
1390.415139050717
 30
0.0
 10
324.4445291863361
 20
1389.438837500362
 30
0.0
 10
322.9326159957039
 20
1388.620408116534
 30
0.0
 10
321.0970333122881
 20
1387.607854993014
 30
0.0
 10
318.6997905477718
 20
1386.251986144873
 30
0.0
 10
316.1537996133858
 20
1384.773766370942
 30
0.0
 10
313.9643101329696
 20
1383.490433297674
 30
0.0
 10
312.1986100050945
 20
1382.461385775657
 30
0.0
 10
310.4641235298304
 20
1381.479775784637
 30
0.0
 10
309.071239243327
 20
1380.759324008299
 30
0.0
 10
308.2818442356028
 20
1380.422381061836
 30
0.0
 10
308.0534541061131
 20
1380.3341969643
 30
0.0
  0
SPLINE
  5
B0
330
98
100
AcDbEntity
  8
64832038_HALTER_
  6
Continuous
 62
     7
100
AcDbSpline
210
0.0
220
0.0
230
1.0
 70
     8
 71
     3
 72
    15
 73
    11
 74
     0
 42
0.0000000007316002
 43
0.0000000001
 40
0.0027085506483411
 40
0.0027085506483411
 40
0.0027085506483411
 40
0.0027085506483411
 40
0.0485909863206056
 40
0.1187279420517862
 40
0.2116174679666541
 40
0.3280452313243567
 40
0.4676255963193578
 40
0.6301011027626531
 40
0.8145806631867493
 40
1.0
 40
1.0
 40
1.0
 40
1.0
 10
307.8246526794368
 20
1379.344406451081
 30
0.0
 10
307.8250900154575
 20
1379.377988082696
 30
0.0
 10
307.8308651418892
 20
1379.460276608891
 30
0.0
 10
307.9178628810905
 20
1380.004817978036
 30
0.0
 10
308.2404745889692
 20
1380.930457292731
 30
0.0
 10
308.9096968118017
 20
1382.320314096709
 30
0.0
 10
310.0828589116053
 20
1384.116918666562
 30
0.0
 10
311.5974786719377
 20
1386.226701743014
 30
0.0
 10
313.246946038542
 20
1388.538695801102
 30
0.0
 10
314.3140798834224
 20
1389.980044244679
 30
0.0
 10
314.9475454172339
 20
1390.836090084617
 30
0.0
  0
SPLINE
  5
B1
330
98
100
AcDbEntity
  8
64832038_HALTER_
  6
Continuous
 62
     7
100
AcDbSpline
210
0.0
220
0.0
230
1.0
 70
     8
 71
     3
 72
    16
 73
    12
 74
     0
 42
0.0000000006093782
 43
0.0000000001
 40
0.2455055028666673
 40
0.2455055028666673
 40
0.2455055028666673
 40
0.2455055028666673
 40
0.2981686364285312
 40
0.3731493345829297
 40
0.4478390342876888
 40
0.5233556153932105
 40
0.6012215271694412
 40
0.681227506218854
 40
0.7713042751305081
 40
0.8848377772229832
 40
1.0
 40
1.0
 40
1.0
 40
1.0
 10
308.2884096657093
 20
1380.422357351253
 30
0.0
 10
308.3550041773399
 20
1380.627112869449
 30
0.0
 10
308.5479752343709
 20
1381.151814956396
 30
0.0
 10
308.9668299650667
 20
1382.049938700589
 30
0.0
 10
309.5637539357983
 20
1383.101694948083
 30
0.0
 10
310.2819697122272
 20
1384.199647265533
 30
0.0
 10
311.0181246474075
 20
1385.311404377715
 30
0.0
 10
311.8200540709877
 20
1386.487590252184
 30
0.0
 10
312.7444590718863
 20
1387.810199308718
 30
0.0
 10
313.8137779155695
 20
1389.302048331324
 30
0.0
 10
314.5162276966959
 20
1390.253161757377
 30
0.0
 10
314.9363679817087
 20
1390.820799832736
 30
0.0
  0
SPLINE
  5
B2
330
98
100
AcDbEntity
  8
64832038_HALTER_
  6
Continuous
 62
     7
100
AcDbSpline
210
0.0
220
0.0
230
1.0
 70
     8
 71
     3
 72
     9
 73
     5
 74
     0
 42
0.0000000687180096
 43
0.0000000001
 40
0.2263600762112904
 40
0.2263600762112904
 40
0.2263600762112904
 40
0.2263600762112904
 40
0.4559356585927665
 40
0.5733921385761788
 40
0.5733921385761788
 40
0.5733921385761788
 40
0.5733921385761788
 10
215.6486730320779
 20
1395.575359747492
 30
0.0
 10
215.6288066256914
 20
1395.573970591161
 30
0.0
 10
215.6088353082467
 20
1395.574618924346
 30
0.0
 10
215.5990965228835
 20
1395.577274782916
 30
0.0
 10
215.5987813533087
 20
1395.577675367484
 30
0.0
  0
SPLINE
  5
B3
330
98
100
AcDbEntity
  8
64832038_HALTER_
  6
Continuous
 62
     7
100
AcDbSpline
210
0.0
220
0.0
230
1.0
 70
     8
 71
     3
 72
    12
 73
     8
 74
     0
 42
0.0000000208214371
 43
0.0000000001
 40
0.0
 40
0.0
 40
0.0
 40
0.0
 40
0.0492242294835367
 40
0.5586783187336147
 40
0.816194599746214
 40
0.9643858942743174
 40
1.0
 40
1.0
 40
1.0
 40
1.0
 10
216.2437393520613
 20
1395.500508307523
 30
0.0
 10
216.2353905091898
 20
1395.506540514742
 30
0.0
 10
216.1538793505165
 20
1395.56556165885
 30
0.0
 10
215.9903152166981
 20
1395.590767735475
 30
0.0
 10
215.8475761053898
 20
1395.605736308362
 30
0.0
 10
215.7940847202526
 20
1395.605846437808
 30
0.0
 10
215.7884767904136
 20
1395.605865435163
 30
0.0
 10
215.7872546170166
 20
1395.605857146695
 30
0.0
  0
ARC
  5
B4
330
98
100
AcDbEntity
  8
64832038_HALTER_
  6
Continuous
 62
     7
100
AcDbCircle
 10
251.7598721789
 20
1393.2276011965
 30
0.0
 40
2.390996971115786
100
AcDbArc
 50
51.9203023209
 51
96.2665192419
  0
ARC
  5
B5
330
98
100
AcDbEntity
  8
64832038_HALTER_
  6
Continuous
 62
     7
100
AcDbCircle
 10
246.5282073803
 20
3094.6489160324
 30
0.0
 40
1699.047780999089
100
AcDbArc
 50
269.8026883488
 51
270.1676641703
  0
ARC
  5
B6
330
98
100
AcDbEntity
  8
64832038_HALTER_
  6
Continuous
 62
     7
100
AcDbCircle
 10
240.576308807
 20
1392.4981878416
 30
0.0
 40
3.107953109540824
100
AcDbArc
 50
88.3082094369
 51
168.4697357859
  0
ARC
  5
B7
330
98
100
AcDbEntity
  8
64832038_HALTER_
  6
Continuous
 62
     7
100
AcDbCircle
 10
239.673556962
 20
1392.1834611539
 30
0.0
 40
2.334016592889351
100
AcDbArc
 50
156.4750664727
 51
214.5086434326
  0
SPLINE
  5
B8
330
98
100
AcDbEntity
  8
64832038_HALTER_
  6
Continuous
 62
     7
100
AcDbSpline
210
0.0
220
0.0
230
1.0
 70
     8
 71
     3
 72
    11
 73
     7
 74
     0
 42
0.0000000054286812
 43
0.0000000001
 40
0.0
 40
0.0
 40
0.0
 40
0.0
 40
0.0294068382635624
 40
0.4352100675910514
 40
0.7870351397272222
 40
1.0
 40
1.0
 40
1.0
 40
1.0
 10
301.1918911426513
 20
1395.604348432189
 30
0.0
 10
301.1729067280899
 20
1395.604492058755
 30
0.0
 10
300.9309375887274
 20
1395.605658240244
 30
0.0
 10
300.431831967578
 20
1395.58757164848
 30
0.0
 10
299.8407876576192
 20
1395.404224025127
 30
0.0
 10
299.5875164880233
 20
1395.206421976146
 30
0.0
 10
299.4772545358644
 20
1395.117757147768
 30
0.0
  0
ARC
  5
B9
330
98
100
AcDbEntity
  8
64832038_HALTER_
  6
Continuous
 62
     7
100
AcDbCircle
 10
306.5774440799
 20
3251.1720518122
 30
0.0
 40
1855.570211868707
100
AcDbArc
 50
269.833582697
 51
270.1681328265
  0
ARC
  5
BA
330
98
100
AcDbEntity
  8
64832038_HALTER_
  6
Continuous
 62
     7
100
AcDbCircle
 10
312.1181298682
 20
1392.494996596
 30
0.0
 40
3.109990544840508
100
AcDbArc
 50
11.5816319579
 51
91.6048407863
  0
ARC
  5
BB
330
98
100
AcDbEntity
  8
64832038_HALTER_
  6
Continuous
 62
     7
100
AcDbCircle
 10
312.9489195958
 20
1392.1826053884
 30
0.0
 40
2.40457921406807
100
AcDbArc
 50
326.2771717689
 51
22.8928253132
  0
SPLINE
  5
BC
330
98
100
AcDbEntity
  8
64832038_HALTER_
  6
Continuous
 62
     7
100
AcDbSpline
210
0.0
220
0.0
230
1.0
 70
     8
 71
     3
 72
     9
 73
     5
 74
     0
 42
0.000000072432283
 43
0.0000000001
 40
0.4162079988278934
 40
0.4162079988278934
 40
0.4162079988278934
 40
0.4162079988278934
 40
0.5421648321559768
 40
0.7712273706161383
 40
0.7712273706161383
 40
0.7712273706161383
 40
0.7712273706161383
 10
337.0929458268219
 20
1395.575496238803
 30
0.0
 10
337.092901286584
 20
1395.575582673469
 30
0.0
 10
337.0843086281089
 20
1395.575629953453
 30
0.0
 10
337.063674370505
 20
1395.574829266791
 30
0.0
 10
337.0440252169061
 20
1395.575820873933
 30
0.0
  0
SPLINE
  5
BD
330
98
100
AcDbEntity
  8
64832038_HALTER_
  6
Continuous
 62
     7
100
AcDbSpline
210
0.0
220
0.0
230
1.0
 70
     8
 71
     3
 72
    13
 73
     9
 74
     0
 42
0.0000000207228757
 43
0.0000000001
 40
0.0
 40
0.0
 40
0.0
 40
0.0
 40
0.0166337410478964
 40
0.1224289051136298
 40
0.2514177356740046
 40
0.4799679826718279
 40
0.9676267407476268
 40
1.0
 40
1.0
 40
1.0
 40
1.0
 10
336.9074392372814
 20
1395.605659874985
 30
0.0
 10
336.9068912936281
 20
1395.605662976493
 30
0.0
 10
336.903297573177
 20
1395.605676535926
 30
0.0
 10
336.8850914351293
 20
1395.60564202759
 30
0.0
 10
336.822641457637
 20
1395.604131301184
 30
0.0
 10
336.6826170566379
 20
1395.587001068441
 30
0.0
 10
336.5305165017028
 20
1395.561369285541
 30
0.0
 10
336.4527730571933
 20
1395.505857597046
 30
0.0
 10
336.4471547038588
 20
1395.501850475126
 30
0.0
  0
ENDBLK
  5
BF
330
98
100
AcDbEntity
  8
0
100
AcDbBlockEnd
  0
BLOCK
  5
EA
330
C0
100
AcDbEntity
  8
0
100
AcDbBlockBegin
  2
SE4
 70
     0
 10
0.0
 20
0.0
 30
0.0
  3
SE4
  1

  0
LINE
  5
C2
330
C0
100
AcDbEntity
  8
A4225952_SCHALE_
  6
Continuous
 62
     7
100
AcDbLine
 10
882.3703775762
 20
631.1316806826
 30
0.0
 11
610.3703775762
 21
631.1316806826
 31
0.0
  0
LINE
  5
C3
330
C0
100
AcDbEntity
  8
A4225952_SCHALE_
  6
Continuous
 62
     7
100
AcDbLine
 10
607.3703775762
 20
640.1316806826
 30
0.0
 11
607.3703775762
 21
634.1316806826
 31
0.0
  0
LINE
  5
C4
330
C0
100
AcDbEntity
  8
A4225952_SCHALE_
  6
Continuous
 62
     7
100
AcDbLine
 10
885.3703775762
 20
634.1316806826
 30
0.0
 11
885.3703775762
 21
640.1316806826
 31
0.0
  0
ARC
  5
C5
330
C0
100
AcDbEntity
  8
A4225952_SCHALE_
  6
Continuous
 62
     7
100
AcDbCircle
 10
882.3703775762
 20
634.1316806826
 30
0.0
 40
2.999999999999999
100
AcDbArc
 50
270.0
 51
0.0
  0
ARC
  5
C6
330
C0
100
AcDbEntity
  8
A4225952_SCHALE_
  6
Continuous
 62
     7
100
AcDbCircle
 10
610.3703775762
 20
634.1316806826
 30
0.0
 40
3.000000000000003
100
AcDbArc
 50
180.0
 51
270.0
  0
ARC
  5
C7
330
C0
100
AcDbEntity
  8
A4225954_AUFLAGE
  6
Continuous
 62
     7
100
AcDbCircle
 10
746.3703775762
 20
633.1932334954
 30
0.0
 40
4.500000000000001
100
AcDbArc
 50
207.2660444507
 51
332.7339555493
  0
ARC
  5
C8
330
C0
100
AcDbEntity
  8
A4225954_AUFLAGE
  6
Continuous
 62
     7
100
AcDbCircle
 10
849.572133262
 20
633.1932334954
 30
0.0
 40
4.500000000000004
100
AcDbArc
 50
207.2660444507
 51
332.7339555493
  0
LINE
  5
C9
330
C0
100
AcDbEntity
  8
A4225954_AUFLAGE
  6
Continuous
 62
     7
100
AcDbLine
 10
871.0608619842
 20
631.1316806826
 30
0.0
 11
879.0608619842
 21
631.1316806826
 31
0.0
  0
ARC
  5
CA
330
C0
100
AcDbEntity
  8
A4225954_AUFLAGE
  6
Continuous
 62
     7
100
AcDbCircle
 10
875.0608619842
 20
633.1932334954
 30
0.0
 40
4.500000000000004
100
AcDbArc
 50
207.2660444507
 51
332.7339555493
  0
LINE
  5
CB
330
C0
100
AcDbEntity
  8
A4225954_AUFLAGE
  6
Continuous
 62
     7
100
AcDbLine
 10
807.6430311397
 20
631.1316806826
 30
0.0
 11
799.6430311397
 21
631.1316806826
 31
0.0
  0
ARC
  5
CC
330
C0
100
AcDbEntity
  8
A4225954_AUFLAGE
  6
Continuous
 62
     7
100
AcDbCircle
 10
803.6430311397
 20
633.1932334954
 30
0.0
 40
4.500000000000004
100
AcDbArc
 50
207.2660444507
 51
332.7339555493
  0
LINE
  5
CD
330
C0
100
AcDbEntity
  8
A4225954_AUFLAGE
  6
Continuous
 62
     7
100
AcDbLine
 10
693.0977240127
 20
631.1316806826
 30
0.0
 11
685.0977240127
 21
631.1316806826
 31
0.0
  0
ARC
  5
CE
330
C0
100
AcDbEntity
  8
A4225954_AUFLAGE
  6
Continuous
 62
     7
100
AcDbCircle
 10
689.0977240127
 20
633.1932334954
 30
0.0
 40
4.500000000000004
100
AcDbArc
 50
207.2660444507
 51
332.7339555493
  0
LINE
  5
CF
330
C0
100
AcDbEntity
  8
A4225954_AUFLAGE
  6
Continuous
 62
     7
100
AcDbLine
 10
621.6798931682
 20
631.1316806826
 30
0.0
 11
613.6798931682
 21
631.1316806826
 31
0.0
  0
ARC
  5
D0
330
C0
100
AcDbEntity
  8
A4225954_AUFLAGE
  6
Continuous
 62
     7
100
AcDbCircle
 10
617.6798931682
 20
633.1932334954
 30
0.0
 40
4.500000000000004
100
AcDbArc
 50
207.2660444507
 51
332.7339555493
  0
ARC
  5
D1
330
C0
100
AcDbEntity
  8
A4225954_AUFLAGE
  6
Continuous
 62
     7
100
AcDbCircle
 10
643.1686218904
 20
633.1932334954
 30
0.0
 40
4.500000000000004
100
AcDbArc
 50
207.2660444507
 51
332.7339555493
  0
LINE
  5
D2
330
C0
100
AcDbEntity
  8
64835038_RING_ZI
  6
Continuous
 62
     7
100
AcDbLine
 10
746.3703775762
 20
662.0885619316
 30
0.0
 11
730.7512031453
 21
662.088518295
 31
0.0
  0
LINE
  5
D3
330
C0
100
AcDbEntity
  8
64835038_RING_ZI
  6
Continuous
 62
     7
100
AcDbLine
 10
747.4749084676
 20
662.0885162057
 30
0.0
 11
746.3703775762
 21
662.0885162057
 31
0.0
  0
LINE
  5
D4
330
C0
100
AcDbEntity
  8
64835038_RING_ZI
  6
Continuous
 62
     7
100
AcDbLine
 10
747.4749084676
 20
662.0885162057
 30
0.0
 11
750.1736804363
 21
662.0885162057
 31
0.0
  0
LINE
  5
D5
330
C0
100
AcDbEntity
  8
64835038_RING_ZI
  6
Continuous
 62
     7
100
AcDbLine
 10
751.7546099638
 20
662.0885162057
 30
0.0
 11
750.1764981968
 21
662.0885162057
 31
0.0
  0
SPLINE
  5
D6
330
C0
100
AcDbEntity
  8
64835038_RING_ZI
  6
Continuous
 62
     7
100
AcDbSpline
210
0.0
220
0.0
230
1.0
 70
     8
 71
     3
 72
    14
 73
    10
 74
     0
 42
0.0000000004290368
 43
0.0000000001
 40
0.0
 40
0.0
 40
0.0
 40
0.0
 40
0.125
 40
0.125
 40
0.25
 40
0.25
 40
0.375
 40
0.375
 40
0.4361187149950548
 40
0.4361187149950548
 40
0.4361187149950548
 40
0.4361187149950548
 10
751.819676929354
 20
662.0885159266511
 30
0.0
 10
753.516523426646
 20
662.0895448872748
 30
0.0
 10
755.104899239151
 20
662.0884067193027
 30
0.0
 10
757.864683529391
 20
662.0891494563901
 30
0.0
 10
759.0375565067392
 20
662.0886802680477
 30
0.0
 10
760.8311551266471
 20
662.0893334948074
 30
0.0
 10
761.455951418012
 20
662.0884914796499
 30
0.0
 10
761.909913382461
 20
662.0891887160981
 30
0.0
 10
761.9846943185469
 20
662.0892431812903
 30
0.0
 10
761.9847383841253
 20
662.0892303931256
 30
0.0
  0
LINE
  5
D7
330
C0
100
AcDbEntity
  8
64835038_RING_ZI
  6
Continuous
 62
     7
100
AcDbLine
 10
751.8196692814
 20
662.0885162057
 30
0.0
 11
751.7546099638
 21
662.0885162057
 31
0.0
  0
ARC
  5
D8
330
C0
100
AcDbEntity
  8
64835038_RING_ZI
  6
Continuous
 62
     7
100
AcDbCircle
 10
736.7288871275
 20
977.6615900911
 30
0.0
 40
316.6162754082621
100
AcDbArc
 50
268.256149992
 51
271.7450212317
  0
ARC
  5
D9
330
C0
100
AcDbEntity
  8
64835038_RING_ZI
  6
Continuous
 62
     7
100
AcDbCircle
 10
756.0192830334
 20
1701.7326674625
 30
0.0
 40
1040.585255112643
100
AcDbArc
 50
269.4687129387
 51
270.5301142536
  0
ARC
  5
DA
330
C0
100
AcDbEntity
  8
64835038_RING_ZI
  6
Continuous
 62
     7
100
AcDbCircle
 10
758.7479184916
 20
646.2962908862
 30
0.0
 40
16.12134763403823
100
AcDbArc
 50
78.4292441724
 51
79.4898145201
  0
ARC
  5
DB
330
C0
100
AcDbEntity
  8
64835038_RING_ZI
  6
Continuous
 62
     7
100
AcDbCircle
 10
733.9928366608
 20
646.2962908862
 30
0.0
 40
16.12134763403821
100
AcDbArc
 50
100.5101854799
 51
101.6027166239
  0
ARC
  5
DC
330
C0
100
AcDbEntity
  8
64835038_RING_ZI
  6
Continuous
 62
     7
100
AcDbCircle
 10
731.0703775762
 20
662.048840296
 30
0.0
 40
0.1000000000000029
100
AcDbArc
 50
90.0
 51
100.5101854799
  0
ARC
  5
DD
330
C0
100
AcDbEntity
  8
64835038_RING_ZI
  6
Continuous
 62
     7
100
AcDbCircle
 10
761.6703775762
 20
662.048840296
 30
0.0
 40
0.0999999999999838
100
AcDbArc
 50
79.4898145201
 51
90.0
  0
LINE
  5
DE
330
C0
100
AcDbEntity
  8
64835038_RING_ZI
  6
Continuous
 62
     7
100
AcDbLine
 10
761.6703775762
 20
662.148840296
 30
0.0
 11
752.0572029637
 21
662.148840296
 31
0.0
  0
LINE
  5
DF
330
C0
100
AcDbEntity
  8
64835038_RING_ZI
  6
Continuous
 62
     7
100
AcDbLine
 10
747.2575699915
 20
662.148840296
 30
0.0
 11
746.5882839984
 21
662.148840296
 31
0.0
  0
LINE
  5
E0
330
C0
100
AcDbEntity
  8
64835038_RING_ZI
  6
Continuous
 62
     7
100
AcDbLine
 10
765.6695952138
 20
661.1857063072
 30
0.0
 11
761.9680365156
 21
662.0927145114
 31
0.0
  0
LINE
  5
E1
330
C0
100
AcDbEntity
  8
64835038_RING_ZI
  6
Continuous
 62
     7
100
AcDbLine
 10
730.7721329126
 20
662.0926005332
 30
0.0
 11
727.0711636106
 21
661.1857073176
 31
0.0
  0
LINE
  5
E2
330
C0
100
AcDbEntity
  8
64833038_ROHR_TU
  6
Continuous
 62
     7
100
AcDbLine
 10
761.3703775762
 20
662.148840296
 30
0.0
 11
761.3703775762
 21
1004.0892961336
 31
0.0
  0
LINE
  5
E3
330
C0
100
AcDbEntity
  8
64833038_ROHR_TU
  6
Continuous
 62
     7
100
AcDbLine
 10
731.3703775762
 20
1004.0892961336
 30
0.0
 11
731.3703775762
 21
662.148840296
 31
0.0
  0
LINE
  5
E4
330
C0
100
AcDbEntity
  8
64105038_ABDECKU
  6
Continuous
 62
     7
100
AcDbLine
 10
887.8703775762
 20
640.1316806826
 30
0.0
 11
604.8703775762
 21
640.1316806826
 31
0.0
  0
LINE
  5
E5
330
C0
100
AcDbEntity
  8
64105038_ABDECKU
  6
Continuous
 62
     7
100
AcDbLine
 10
607.8703775762
 20
661.1316806826
 30
0.0
 11
884.8703775762
 21
661.1316806826
 31
0.0
  0
LINE
  5
E6
330
C0
100
AcDbEntity
  8
64105038_ABDECKU
  6
Continuous
 62
     7
100
AcDbLine
 10
887.8703775762
 20
640.1316806826
 30
0.0
 11
887.8703775762
 21
658.1316806826
 31
0.0
  0
LINE
  5
E7
330
C0
100
AcDbEntity
  8
64105038_ABDECKU
  6
Continuous
 62
     7
100
AcDbLine
 10
604.8703775762
 20
658.1316806826
 30
0.0
 11
604.8703775762
 21
640.1316806826
 31
0.0
  0
ARC
  5
E8
330
C0
100
AcDbEntity
  8
64105038_ABDECKU
  6
Continuous
 62
     7
100
AcDbCircle
 10
607.8703775762
 20
658.1316806826
 30
0.0
 40
3.000000000000003
100
AcDbArc
 50
90.0
 51
180.0
  0
ARC
  5
E9
330
C0
100
AcDbEntity
  8
64105038_ABDECKU
  6
Continuous
 62
     7
100
AcDbCircle
 10
884.8703775762
 20
658.1316806826
 30
0.0
 40
3.000000000000003
100
AcDbArc
 50
0.0
 51
90.0
  0
ENDBLK
  5
EB
330
C0
100
AcDbEntity
  8
0
100
AcDbBlockEnd
  0
BLOCK
  5
10C
330
EC
100
AcDbEntity
  8
0
100
AcDbBlockBegin
  2
SE5
 70
     0
 10
0.0
 20
0.0
 30
0.0
  3
SE5
  1

  0
LINE
  5
EE
330
EC
100
AcDbEntity
  8
64833038_ROHR_TU
  6
Continuous
 62
     7
100
AcDbLine
 10
731.5703775762
 20
1305.7777728403
 30
0.0
 11
746.6001163238
 21
1305.7777728403
 31
0.0
  0
LINE
  5
EF
330
EC
100
AcDbEntity
  8
64833038_ROHR_TU
  6
Continuous
 62
     7
100
AcDbLine
 10
761.3703775762
 20
1016.7892961336
 30
0.0
 11
761.3703775762
 21
1305.5777728403
 31
0.0
  0
LINE
  5
F0
330
EC
100
AcDbEntity
  8
64833038_ROHR_TU
  6
Continuous
 62
     7
100
AcDbLine
 10
731.3703775762
 20
1305.5777728403
 30
0.0
 11
731.3703775762
 21
1016.7892961336
 31
0.0
  0
ARC
  5
F1
330
EC
100
AcDbEntity
  8
64833038_ROHR_TU
  6
Continuous
 62
     7
100
AcDbCircle
 10
731.5703775762
 20
1305.5777728403
 30
0.0
 40
0.199999999999978
100
AcDbArc
 50
90.0
 51
180.0
  0
ARC
  5
F2
330
EC
100
AcDbEntity
  8
64833038_ROHR_TU
  6
Continuous
 62
     7
100
AcDbCircle
 10
761.1703775762
 20
1305.5777728403
 30
0.0
 40
0.2000000000000005
100
AcDbArc
 50
0.0
 51
90.0
  0
LINE
  5
F4
330
EC
100
AcDbEntity
  8
64620038_EINS_GE
  6
Continuous
 62
     7
100
AcDbLine
 10
726.3703775762
 20
1361.7777728404
 30
0.0
 11
766.3703775762
 21
1361.7777728404
 31
0.0
  0
LINE
  5
F5
330
EC
100
AcDbEntity
  8
64832038_HALTER_
  6
Continuous
 62
     7
100
AcDbLine
 10
731.4017286941
 20
1305.7777728403
 30
0.0
 11
746.3703775762
 21
1305.7777728403
 31
0.0
  0
LINE
  5
F6
330
EC
100
AcDbEntity
  8
64832038_HALTER_
  6
Continuous
 62
     7
100
AcDbLine
 10
761.3390264583
 20
1305.7777728403
 30
0.0
 11
746.3703775762
 21
1305.7777728403
 31
0.0
  0
SPLINE
  5
F7
330
EC
100
AcDbEntity
  8
64832038_HALTER_
  6
Continuous
 62
     7
100
AcDbSpline
210
0.0
220
0.0
230
1.0
 70
     8
 71
     3
 72
    28
 73
    24
 74
     0
 42
0.0000000001276077
 43
0.0000000001
 40
0.0
 40
0.0
 40
0.0
 40
0.0
 40
0.0502773208314555
 40
0.1102257795314366
 40
0.1627364875023895
 40
0.2089242533260179
 40
0.2497766079582538
 40
0.2861638838933611
 40
0.3393017024560361
 40
0.3849569761351894
 40
0.4254667777197869
 40
0.4625994433700145
 40
0.4976497715285099
 40
0.5315272283445851
 40
0.6097678822372102
 40
0.6882669865244363
 40
0.736506925543816
 40
0.7855627596101225
 40
0.8359775324165859
 40
0.8887272315000221
 40
0.9453659789740415
 40
0.9884987409598107
 40
1.0
 40
1.0
 40
1.0
 40
1.0
 10
761.3413169226008
 20
1305.776561389132
 30
0.0
 10
761.3684080971675
 20
1307.220231897869
 30
0.0
 10
761.4196794854977
 20
1309.892774572914
 30
0.0
 10
761.5275775255698
 20
1314.232119000617
 30
0.0
 10
761.6541417628596
 20
1318.349825843641
 30
0.0
 10
761.7935592598832
 20
1321.995576967272
 30
0.0
 10
761.9456073541346
 20
1325.21344061916
 30
0.0
 10
762.1425454082652
 20
1328.612007710974
 30
0.0
 10
762.4030905288384
 20
1332.131946340121
 30
0.0
 10
762.7647844605938
 20
1335.751380088352
 30
0.0
 10
763.1806050067856
 20
1338.944045092632
 30
0.0
 10
763.6557679545757
 20
1341.848191255967
 30
0.0
 10
764.1955545551383
 20
1344.564723595953
 30
0.0
 10
765.0736815697032
 20
1348.30593967214
 30
0.0
 10
766.4890366791733
 20
1353.083409272889
 30
0.0
 10
768.4524043819674
 20
1358.070724691821
 30
0.0
 10
770.4661083679131
 20
1362.197932131959
 30
0.0
 10
772.3810709327289
 20
1365.549672912126
 30
0.0
 10
774.599177731386
 20
1368.848861668531
 30
0.0
 10
777.2082592737744
 20
1372.124335310386
 30
0.0
 10
779.9407516318812
 20
1374.976377260086
 30
0.0
 10
782.1379615280132
 20
1377.006337572933
 30
0.0
 10
783.1876935090697
 20
1377.84265477823
 30
0.0
 10
783.446337612818
 20
1378.0480956488
 30
0.0
  0
SPLINE
  5
F8
330
EC
100
AcDbEntity
  8
64832038_HALTER_
  6
Continuous
 62
     7
100
AcDbSpline
210
0.0
220
0.0
230
1.0
 70
     8
 71
     3
 72
    41
 73
    37
 74
     0
 42
0.0000000001926648
 43
0.0000000001
 40
0.0
 40
0.0
 40
0.0
 40
0.0
 40
0.0319282026612977
 40
0.0661909238407945
 40
0.0929384820133429
 40
0.1131243461450968
 40
0.1325868660111173
 40
0.1528983914582341
 40
0.1780319238465769
 40
0.2046177406709833
 40
0.2327217359726347
 40
0.2591675048982204
 40
0.2815316685164489
 40
0.3020170116660839
 40
0.3287263215651589
 40
0.3600302467037728
 40
0.392270230971395
 40
0.4234477237852369
 40
0.4480164814864741
 40
0.4693019486055058
 40
0.4929737374192111
 40
0.5190153416374391
 40
0.5442318012723255
 40
0.574014537667803
 40
0.603619758186044
 40
0.6257138951968044
 40
0.6483653057970151
 40
0.6727373089725863
 40
0.6970032736034081
 40
0.7209305125181268
 40
0.7466746508210391
 40
0.781082097787355
 40
0.8243027922763504
 40
0.876059131917166
 40
0.9369277984146839
 40
1.0
 40
1.0
 40
1.0
 40
1.0
 10
794.7847821265736
 20
1399.044912517173
 30
0.0
 10
794.0835938829861
 20
1398.686172633661
 30
0.0
 10
792.8582402367588
 20
1398.058544726563
 30
0.0
 10
790.970803513723
 20
1397.073133479513
 30
0.0
 10
789.3680154515132
 20
1396.224445535316
 30
0.0
 10
788.052077111533
 20
1395.518448834992
 30
0.0
 10
786.8681034062977
 20
1394.875687213514
 30
0.0
 10
785.5894579515927
 20
1394.172715545666
 30
0.0
 10
784.175346572033
 20
1393.38323510935
 30
0.0
 10
782.6149074252455
 20
1392.495687378293
 30
0.0
 10
781.0386137349606
 20
1391.578092298485
 30
0.0
 10
779.5470036007324
 20
1390.69442286706
 30
0.0
 10
778.1896884277945
 20
1389.893864538918
 30
0.0
 10
776.8142616030253
 20
1389.087247027855
 30
0.0
 10
775.2439896302487
 20
1388.176701038962
 30
0.0
 10
773.4084282035233
 20
1387.139579299678
 30
0.0
 10
771.4416337817072
 20
1386.080917587813
 30
0.0
 10
769.5681878076416
 20
1385.159850677753
 30
0.0
 10
767.8886942209906
 20
1384.458473771795
 30
0.0
 10
766.3630190602951
 20
1383.952247951616
 30
0.0
 10
764.8414313644348
 20
1383.64069977093
 30
0.0
 10
763.4306044603263
 20
1383.628859118946
 30
0.0
 10
762.2599519409138
 20
1383.909893433686
 30
0.0
 10
761.2768653734365
 20
1384.428107505552
 30
0.0
 10
760.5408071781764
 20
1385.058495393341
 30
0.0
 10
759.9862871258447
 20
1385.677141642343
 30
0.0
 10
759.5152423294945
 20
1386.311831431449
 30
0.0
 10
759.0843477191461
 20
1387.00894644323
 30
0.0
 10
758.7088463297622
 20
1387.738710068541
 30
0.0
 10
758.3802257497103
 20
1388.500151264752
 30
0.0
 10
758.0587562281095
 20
1389.39009574991
 30
0.0
 10
757.7456401145831
 20
1390.521771039502
 30
0.0
 10
757.3411252694253
 20
1391.929004081008
 30
0.0
 10
756.8328045473676
 20
1393.595908810138
 30
0.0
 10
756.2292873623235
 20
1395.491030187191
 30
0.0
 10
755.8279973473593
 20
1396.689171488261
 30
0.0
 10
755.5849539119804
 20
1397.412317493629
 30
0.0
  0
ARC
  5
F9
330
EC
100
AcDbEntity
  8
64832038_HALTER_
  6
Continuous
 62
     7
100
AcDbCircle
 10
781.0750080049
 20
1381.4941498197
 30
0.0
 40
4.149795984233015
100
AcDbArc
 50
307.6130236832
 51
319.2631831191
  0
ARC
  5
FA
330
EC
100
AcDbEntity
  8
64832038_HALTER_
  6
Continuous
 62
     7
100
AcDbCircle
 10
845.4007841612
 20
1318.046677967
 30
0.0
 40
86.21137733462861
100
AcDbArc
 50
118.4741050963
 51
135.209309675
  0
SPLINE
  5
FB
330
EC
100
AcDbEntity
  8
64832038_HALTER_
  6
Continuous
 62
     7
100
AcDbSpline
210
0.0
220
0.0
230
1.0
 70
     8
 71
     3
 72
    26
 73
    22
 74
     0
 42
0.0000000001275959
 43
0.0000000001
 40
0.0
 40
0.0
 40
0.0
 40
0.0
 40
0.0613688576814787
 40
0.1263776549799711
 40
0.1889174347767662
 40
0.2508080418250868
 40
0.3131034248699861
 40
0.3762749478329938
 40
0.4407248928432455
 40
0.5078940090202724
 40
0.54372224296549
 40
0.5823334096335472
 40
0.6253053067493204
 40
0.6748827653433603
 40
0.7073275908619258
 40
0.7436430430045875
 40
0.7846792505394671
 40
0.8314281403155556
 40
0.8850403414874899
 40
0.9468434987308737
 40
1.0
 40
1.0
 40
1.0
 40
1.0
 10
709.2887226175934
 20
1378.042502875437
 30
0.0
 10
710.6328393168112
 20
1376.902577119117
 30
0.0
 10
712.9555128700747
 20
1374.903440985081
 30
0.0
 10
716.3590524645774
 20
1371.181931613675
 30
0.0
 10
719.3057697686851
 20
1367.233364188842
 30
0.0
 10
721.8435124173925
 20
1363.055097431131
 30
0.0
 10
724.0198691343104
 20
1358.670670303936
 30
0.0
 10
725.8743780171457
 20
1354.066724226127
 30
0.0
 10
727.4299499164349
 20
1349.220861317522
 30
0.0
 10
728.4762097021319
 20
1344.972414967832
 30
0.0
 10
729.1758281090433
 20
1341.341570950987
 30
0.0
 10
729.6517396325058
 20
1338.312788458483
 30
0.0
 10
730.0705048063572
 20
1334.913651922143
 30
0.0
 10
730.3714120854754
 20
1331.663796682349
 30
0.0
 10
730.5965050426743
 20
1328.582495156131
 30
0.0
 10
730.7683221092378
 20
1325.720819691527
 30
0.0
 10
730.9262933446588
 20
1322.485738184751
 30
0.0
 10
731.0715530085481
 20
1318.792111209962
 30
0.0
 10
731.203762563878
 20
1314.583000190428
 30
0.0
 10
731.3169990152211
 20
1310.089121136165
 30
0.0
 10
731.3706142557825
 20
1307.30284580994
 30
0.0
 10
731.3992932352603
 20
1305.776552345619
 30
0.0
  0
ARC
  5
FC
330
EC
100
AcDbEntity
  8
64832038_HALTER_
  6
Continuous
 62
     7
100
AcDbCircle
 10
647.5936315237
 20
1318.3810350696
 30
0.0
 40
85.79581731688057
100
AcDbArc
 50
44.7515700212
 51
61.5683424813
  0
ARC
  5
FD
330
EC
100
AcDbEntity
  8
64832038_HALTER_
  6
Continuous
 62
     7
100
AcDbCircle
 10
711.6657469277
 20
1381.4941495761
 30
0.0
 40
4.149795657051964
100
AcDbArc
 50
220.736817009
 51
232.3869766626
  0
SPLINE
  5
FE
330
EC
100
AcDbEntity
  8
64832038_HALTER_
  6
Continuous
 62
     7
100
AcDbSpline
210
0.0
220
0.0
230
1.0
 70
     8
 71
     3
 72
    31
 73
    27
 74
     0
 42
0.0000000001925524
 43
0.0000000001
 40
0.0
 40
0.0
 40
0.0
 40
0.0
 40
0.074073659317222
 40
0.1460286171478057
 40
0.209463774839527
 40
0.264777751593571
 40
0.3112606232638407
 40
0.3482459387057739
 40
0.3768870111927883
 40
0.4022589574130979
 40
0.4247044934784446
 40
0.4415453914895208
 40
0.4633039552076784
 40
0.4892378756953488
 40
0.5130125666245886
 40
0.5321763190366676
 40
0.5476813755250886
 40
0.58392709108055
 40
0.6135717089922302
 40
0.6475815305162657
 40
0.6860962018298642
 40
0.7388417429253654
 40
0.7979186525885988
 40
0.8620914374917957
 40
0.9318745903029565
 40
1.0
 40
1.0
 40
1.0
 40
1.0
 10
737.1676837327688
 20
1397.445906264213
 30
0.0
 10
736.888714880611
 20
1396.615267403487
 30
0.0
 10
736.4270129547424
 20
1395.233935038456
 30
0.0
 10
735.7325519157052
 20
1393.014513283099
 30
0.0
 10
735.1405983046708
 20
1391.002242930253
 30
0.0
 10
734.6673542189357
 20
1389.206314417788
 30
0.0
 10
734.0539340880613
 20
1387.719600510558
 30
0.0
 10
733.4061515398774
 20
1386.561465698887
 30
0.0
 10
732.7803743674849
 20
1385.693057564256
 30
0.0
 10
732.159149993738
 20
1385.017387319224
 30
0.0
 10
731.547152263024
 20
1384.515237470157
 30
0.0
 10
730.887199189617
 20
1384.114853604121
 30
0.0
 10
730.0392835256594
 20
1383.775675178885
 30
0.0
 10
728.8804338790586
 20
1383.595453156434
 30
0.0
 10
727.5316868802147
 20
1383.703125584553
 30
0.0
 10
726.292551118395
 20
1383.987932401484
 30
0.0
 10
724.741743651028
 20
1384.490682512991
 30
0.0
 10
722.9659301466158
 20
1385.250205743943
 30
0.0
 10
720.8538461384545
 20
1386.313991741376
 30
0.0
 10
718.7437518510255
 20
1387.465139821951
 30
0.0
 10
716.2164881329041
 20
1388.912023758058
 30
0.0
 10
713.2562459532254
 20
1390.657105851025
 30
0.0
 10
709.8539952561049
 20
1392.66763062906
 30
0.0
 10
706.0867283089715
 20
1394.77142264481
 30
0.0
 10
702.0089857020639
 20
1396.959601434769
 30
0.0
 10
699.4580587941532
 20
1398.271994056414
 30
0.0
 10
697.9619241439789
 20
1399.039284506086
 30
0.0
  0
SPLINE
  5
FF
330
EC
100
AcDbEntity
  8
64832038_HALTER_
  6
Continuous
 62
     7
100
AcDbSpline
210
0.0
220
0.0
230
1.0
 70
     8
 71
     3
 72
    15
 73
    11
 74
     0
 42
0.0000000027102937
 43
0.0000000001
 40
0.0
 40
0.0
 40
0.0
 40
0.0
 40
0.0140624780173075
 40
0.1150226340274127
 40
0.2406158260347353
 40
0.3859093954096752
 40
0.544467322227713
 40
0.7052263821114866
 40
0.8747761461934881
 40
1.0
 40
1.0
 40
1.0
 40
1.0
 10
690.856994459802
 20
1399.219614917704
 30
0.0
 10
690.8481017155568
 20
1399.219771145004
 30
0.0
 10
690.7851931090057
 20
1399.220416173949
 30
0.0
 10
690.5311637257909
 20
1399.214904176164
 30
0.0
 10
690.1121569107257
 20
1399.102166751156
 30
0.0
 10
689.6845411446086
 20
1398.840200318064
 30
0.0
 10
689.2758652619289
 20
1398.456141401736
 30
0.0
 10
688.8728569447277
 20
1397.952888167582
 30
0.0
 10
688.5439389012072
 20
1397.383897126761
 30
0.0
 10
688.3877825018385
 20
1397.04040117072
 30
0.0
 10
688.311455928475
 20
1396.868309510573
 30
0.0
  0
ARC
  5
100
330
EC
100
AcDbEntity
  8
64832038_HALTER_
  6
Continuous
 62
     7
100
AcDbCircle
 10
693.5662462741
 20
1808.2697315911
 30
0.0
 40
409.0551486389688
100
AcDbArc
 50
269.6226096689
 51
270.4898516274
  0
SPLINE
  5
101
330
EC
100
AcDbEntity
  8
64832038_HALTER_
  6
Continuous
 62
     7
100
AcDbSpline
210
0.0
220
0.0
230
1.0
 70
     8
 71
     3
 72
    14
 73
    10
 74
     0
 42
0.0000000029920987
 43
0.0000000001
 40
0.0
 40
0.0
 40
0.0
 40
0.0
 40
0.0189361950842691
 40
0.2066992753411239
 40
0.3946924619214612
 40
0.6027141560553279
 40
0.746706221084526
 40
0.8822894739687202
 40
1.0
 40
1.0
 40
1.0
 40
1.0
 10
688.3102402691251
 20
1396.868080854885
 30
0.0
 10
688.2997912726016
 20
1396.845046023881
 30
0.0
 10
688.2021677096619
 20
1396.628819675354
 30
0.0
 10
688.0020712451186
 20
1396.173218680457
 30
0.0
 10
687.8329860726858
 20
1395.534349330311
 30
0.0
 10
687.7975380007739
 20
1394.979994034269
 30
0.0
 10
687.8961280462769
 20
1394.492105953787
 30
0.0
 10
688.1039954543795
 20
1394.091086858545
 30
0.0
 10
688.322714345905
 20
1393.93328559309
 30
0.0
 10
688.4428088268946
 20
1393.849388687908
 30
0.0
  0
SPLINE
  5
102
330
EC
100
AcDbEntity
  8
64832038_HALTER_
  6
Continuous
 62
     7
100
AcDbSpline
210
0.0
220
0.0
230
1.0
 70
     8
 71
     3
 72
    11
 73
     7
 74
     0
 42
0.0000000107226071
 43
0.0000000001
 40
0.0
 40
0.0
 40
0.0
 40
0.0
 40
0.1529180468187443
 40
0.6085602054086264
 40
0.9940789980984494
 40
1.0
 40
1.0
 40
1.0
 40
1.0
 10
697.947249559125
 20
1399.028811100265
 30
0.0
 10
697.8991026868426
 20
1399.06059196374
 30
0.0
 10
697.734986702243
 20
1399.168661266289
 30
0.0
 10
697.3886892844945
 20
1399.215822963424
 30
0.0
 10
697.1446829841345
 20
1399.220697578616
 30
0.0
 10
697.0612761654634
 20
1399.220473661111
 30
0.0
 10
697.0598154248928
 20
1399.220469239901
 30
0.0
  0
SPLINE
  5
103
330
EC
100
AcDbEntity
  8
64832038_HALTER_
  6
Continuous
 62
     7
100
AcDbSpline
210
0.0
220
0.0
230
1.0
 70
     8
 71
     3
 72
    14
 73
    10
 74
     0
 42
0.0000000026326405
 43
0.0000000001
 40
0.0
 40
0.0
 40
0.0
 40
0.0
 40
0.0151019509984076
 40
0.1942034679732568
 40
0.3821462491260743
 40
0.576789480346908
 40
0.7785047421095496
 40
0.9535077745288159
 40
1.0
 40
1.0
 40
1.0
 40
1.0
 10
740.1505387491297
 20
1399.220807977526
 30
0.0
 10
740.1296033757902
 20
1399.220951576389
 30
0.0
 10
739.8979503196846
 20
1399.222001067685
 30
0.0
 10
739.3966220160946
 20
1399.210003427361
 30
0.0
 10
738.7067847529106
 20
1399.030830697948
 30
0.0
 10
738.0514893782859
 20
1398.665769410662
 30
0.0
 10
737.5448356794681
 20
1398.169140749548
 30
0.0
 10
737.2397120339473
 20
1397.70619630849
 30
0.0
 10
737.1816582071441
 20
1397.457630591588
 30
0.0
 10
737.1677891178452
 20
1397.396805419072
 30
0.0
  0
ARC
  5
104
330
EC
100
AcDbEntity
  8
64832038_HALTER_
  6
Continuous
 62
     7
100
AcDbCircle
 10
743.6850941986
 20
1722.7125113752
 30
0.0
 40
323.5234995297755
100
AcDbArc
 50
269.3749195157
 51
270.475567812
  0
ARC
  5
105
330
EC
100
AcDbEntity
  8
64832038_HALTER_
  6
Continuous
 62
     7
100
AcDbCircle
 10
749.046440153
 20
1676.3040614552
 30
0.0
 40
277.1169110769885
100
AcDbArc
 50
269.4466909832
 51
270.7318687065
  0
ARC
  5
106
330
EC
100
AcDbEntity
  8
64832038_HALTER_
  6
Continuous
 62
     7
100
AcDbCircle
 10
752.9236574912
 20
1396.4072205696
 30
0.0
 40
2.831169475141273
100
AcDbArc
 50
20.8069512867
 51
96.7276844923
  0
SPLINE
  5
107
330
EC
100
AcDbEntity
  8
64832038_HALTER_
  6
Continuous
 62
     7
100
AcDbSpline
210
0.0
220
0.0
230
1.0
 70
     8
 71
     3
 72
    15
 73
    11
 74
     0
 42
0.0000000027158808
 43
0.0000000001
 40
0.0
 40
0.0
 40
0.0
 40
0.0
 40
0.0139674316180588
 40
0.1743439271633427
 40
0.3292199536795294
 40
0.4912850866828941
 40
0.6774148503974562
 40
0.832156719416835
 40
0.9494303899576814
 40
1.0
 40
1.0
 40
1.0
 40
1.0
 10
804.4304206650165
 20
1396.868129592616
 30
0.0
 10
804.4218001284573
 20
1396.887265665408
 30
0.0
 10
804.328893795354
 20
1397.092694341895
 30
0.0
 10
804.1295084488669
 20
1397.522242520604
 30
0.0
 10
803.7741856437548
 20
1398.079699376666
 30
0.0
 10
803.3513918110292
 20
1398.580105395921
 30
0.0
 10
802.8981847691417
 20
1398.961985101042
 30
0.0
 10
802.4106684964204
 20
1399.184842183627
 30
0.0
 10
802.0251856253043
 20
1399.220288085204
 30
0.0
 10
801.9287196435347
 20
1399.220051598014
 30
0.0
 10
801.8951337265984
 20
1399.219150419745
 30
0.0
  0
ARC
  5
108
330
EC
100
AcDbEntity
  8
64832038_HALTER_
  6
Continuous
 62
     7
100
AcDbCircle
 10
799.0353238464
 20
1981.2735306114
 30
0.0
 40
582.0568946074134
100
AcDbArc
 50
269.6696448292
 51
270.2788811724
  0
SPLINE
  5
109
330
EC
100
AcDbEntity
  8
64832038_HALTER_
  6
Continuous
 62
     7
100
AcDbSpline
210
0.0
220
0.0
230
1.0
 70
     8
 71
     3
 72
    14
 73
    10
 74
     0
 42
0.0000000029839635
 43
0.0000000001
 40
0.0
 40
0.0
 40
0.0
 40
0.0
 40
0.0628685459806309
 40
0.2031434074196146
 40
0.3250358714780005
 40
0.4678880813408275
 40
0.6485103735892702
 40
0.8493531508234767
 40
1.0
 40
1.0
 40
1.0
 40
1.0
 10
804.2871871312926
 20
1393.852181068983
 30
0.0
 10
804.3558389192085
 20
1393.887829889112
 30
0.0
 10
804.5449466635465
 20
1393.988101708442
 30
0.0
 10
804.7634248410887
 20
1394.31066119286
 30
0.0
 10
804.9017720419301
 20
1394.70992095717
 30
0.0
 10
804.9386918739183
 20
1395.164146595995
 30
0.0
 10
804.8747464475675
 20
1395.708115405902
 30
0.0
 10
804.6777803206886
 20
1396.320030093437
 30
0.0
 10
804.5143334847511
 20
1396.683989515586
 30
0.0
 10
804.4294916113387
 20
1396.867817048763
 30
0.0
  0
SPLINE
  5
10A
330
EC
100
AcDbEntity
  8
64832038_HALTER_
  6
Continuous
 62
     7
100
AcDbSpline
210
0.0
220
0.0
230
1.0
 70
     8
 71
     3
 72
    11
 73
     7
 74
     0
 42
0.0000000106993066
 43
0.0000000001
 40
0.0
 40
0.0
 40
0.0
 40
0.0
 40
0.0250388552163273
 40
0.4484183591563023
 40
0.9475429105487807
 40
1.0
 40
1.0
 40
1.0
 40
1.0
 10
795.6807843334283
 20
1399.220436844102
 30
0.0
 10
795.6746453882454
 20
1399.220463566048
 30
0.0
 10
795.5796339025187
 20
1399.220734343268
 30
0.0
 10
795.2997277114627
 20
1399.2118268108
 30
0.0
 10
794.9481661028257
 20
1399.155298443209
 30
0.0
 10
794.8046338972
 20
1399.050491331089
 30
0.0
 10
794.7887751377455
 20
1399.038906612242
 30
0.0
  0
ARC
  5
10B
330
EC
100
AcDbEntity
  8
64832038_HALTER_
  6
Continuous
 62
     7
100
AcDbCircle
 10
799.0356989274
 20
1981.2281608353
 30
0.0
 40
582.011556655996
100
AcDbArc
 50
269.6693762431
 51
270.2789847286
  0
ENDBLK
  5
10D
330
EC
100
AcDbEntity
  8
0
100
AcDbBlockEnd
  0
BLOCK
  5
12E
330
10E
100
AcDbEntity
  8
0
100
AcDbBlockBegin
  2
SE6
 70
     0
 10
0.0
 20
0.0
 30
0.0
  3
SE6
  1

  0
CIRCLE
  5
110
330
10E
100
AcDbEntity
  8
64620038_EINS_GE
  6
Continuous
 62
     7
100
AcDbCircle
 10
276.3466174347
 20
247.85
 30
0.0
 40
20.0
  0
LINE
  5
111
330
10E
100
AcDbEntity
  8
64832038_HALTER_
  6
Continuous
 62
     7
100
AcDbLine
 10
339.9095365206
 20
247.8500000001
 30
0.0
 11
340.0120676069
 21
247.8500000001
 31
0.0
  0
CIRCLE
  5
112
330
10E
100
AcDbEntity
  8
64832038_HALTER_
  6
Continuous
 62
     7
100
AcDbCircle
 10
276.3466174347
 20
247.85
 30
0.0
 40
20.49999999999998
  0
SPLINE
  5
113
330
10E
100
AcDbEntity
  8
64832038_HALTER_
  6
Continuous
 62
     7
100
AcDbSpline
210
0.0
220
0.0
230
1.0
 70
     8
 71
     3
 72
    35
 73
    31
 74
     0
 42
0.0000000001611229
 43
0.0000000001
 40
0.0
 40
0.0
 40
0.0
 40
0.0
 40
0.045666546453649
 40
0.0923797697648314
 40
0.1351742704188015
 40
0.1746650115230922
 40
0.210769749321055
 40
0.2622787256658979
 40
0.3018339376673222
 40
0.3291042400458855
 40
0.3588414604524852
 40
0.393129797364549
 40
0.4127356286413685
 40
0.4348091732159003
 40
0.4592897374044163
 40
0.4859879143077175
 40
0.5113380624457772
 40
0.5340734051806609
 40
0.5545678602529172
 40
0.5729891203207109
 40
0.5898163998635773
 40
0.6049595095142707
 40
0.6188035071806393
 40
0.6373300296920129
 40
0.6721777724590828
 40
0.7184828213835379
 40
0.7757350373776627
 40
0.8431841588009104
 40
0.9200924640704501
 40
1.0
 40
1.0
 40
1.0
 40
1.0
 10
214.6768347510379
 20
238.5135491992229
 30
0.0
 10
215.7102058366367
 20
238.3429636860891
 30
0.0
 10
217.4712032941323
 20
238.0523807258336
 30
0.0
 10
220.2932977361725
 20
237.5923249477011
 30
0.0
 10
222.9064275974988
 20
237.1687134089962
 30
0.0
 10
225.3059353808083
 20
236.7837806450752
 30
0.0
 10
227.8605671762418
 20
236.3699169251795
 30
0.0
 10
230.4005926074051
 20
235.982405201939
 30
0.0
 10
232.7217837144407
 20
235.4417057185795
 30
0.0
 10
234.5821217544071
 20
234.8853461863434
 30
0.0
 10
236.2806093345606
 20
234.251769023061
 30
0.0
 10
237.7810418687517
 20
233.5426592053745
 30
0.0
 10
239.1127346508374
 20
232.7502289503331
 30
0.0
 10
240.2477288763039
 20
231.9289765791033
 30
0.0
 10
241.4365448605474
 20
230.842956308151
 30
0.0
 10
242.547606886954
 20
229.4927315323344
 30
0.0
 10
243.4312274948558
 20
227.9861117450692
 30
0.0
 10
244.0231420257484
 20
226.518232941222
 30
0.0
 10
244.3772259192807
 20
225.1897923108129
 30
0.0
 10
244.5667518869293
 20
224.0217723589807
 30
0.0
 10
244.6508801743989
 20
222.9776018053437
 30
0.0
 10
244.6652931724567
 20
222.0420563009384
 30
0.0
 10
244.6302225957809
 20
221.0857378844149
 30
0.0
 10
244.5089756296064
 20
219.7287874318797
 30
0.0
 10
244.1743597938335
 20
217.7461332466778
 30
0.0
 10
243.4719368490262
 20
215.0562058868461
 30
0.0
 10
242.2685897643347
 20
211.8329150355176
 30
0.0
 10
240.7992025494127
 20
208.036954788691
 30
0.0
 10
239.1286611957453
 20
203.6445569537693
 30
0.0
 10
238.0629234835155
 20
200.8250031552259
 30
0.0
 10
237.4181602291249
 20
199.1167457349425
 30
0.0
  0
SPLINE
  5
114
330
10E
100
AcDbEntity
  8
64832038_HALTER_
  6
Continuous
 62
     7
100
AcDbSpline
210
0.0
220
0.0
230
1.0
 70
     8
 71
     3
 72
    44
 73
    40
 74
     0
 42
0.0000000001617771
 43
0.0000000001
 40
0.0
 40
0.0
 40
0.0
 40
0.0
 40
0.0480518003751903
 40
0.0904564698169768
 40
0.1169829841544416
 40
0.1378298976454169
 40
0.1547362179364521
 40
0.1754131028159421
 40
0.2012919851545961
 40
0.2283410321372858
 40
0.2555174814100392
 40
0.2854396066140183
 40
0.3089919233488339
 40
0.3299103284615486
 40
0.3532670924302505
 40
0.3849835069674143
 40
0.4211348800526764
 40
0.443674223533253
 40
0.4612828064260437
 40
0.4751660752228544
 40
0.500670419545713
 40
0.5320962180433207
 40
0.5589688851967778
 40
0.5821579789353916
 40
0.5983506319015495
 40
0.6141652305368004
 40
0.6296638750860246
 40
0.6490103845986261
 40
0.673667774958317
 40
0.6974440136161699
 40
0.7196473528995054
 40
0.7386018384647681
 40
0.7601196354242722
 40
0.7846691861647284
 40
0.8158137082872864
 40
0.8532245712625237
 40
0.8972467250485485
 40
0.9481091606324783
 40
1.0
 40
1.0
 40
1.0
 40
1.0
 10
253.6808202942732
 20
189.8622707755138
 30
0.0
 10
254.381731048998
 20
190.7145615644121
 30
0.0
 10
255.4904786376593
 20
192.0630243960277
 30
0.0
 10
257.061182074804
 20
193.9815491989665
 30
0.0
 10
258.2324438237671
 20
195.4150216378859
 30
0.0
 10
259.0715430137152
 20
196.443509449844
 30
0.0
 10
259.8306727568673
 20
197.3749179533977
 30
0.0
 10
260.6504790736481
 20
198.3820177434408
 30
0.0
 10
261.5975182432298
 20
199.5455649288762
 30
0.0
 10
262.614008440253
 20
200.8019554052241
 30
0.0
 10
263.6767719406629
 20
202.1044093227754
 30
0.0
 10
264.7487271019968
 20
203.2932045925799
 30
0.0
 10
265.7827591578204
 20
204.3387693866448
 30
0.0
 10
266.7613872131651
 20
205.2457188806494
 30
0.0
 10
267.9124482274052
 20
206.2058111186538
 30
0.0
 10
269.3816934286154
 20
207.2591215753052
 30
0.0
 10
270.9868591484482
 20
208.1601305561817
 30
0.0
 10
272.481826257314
 20
208.7581643396894
 30
0.0
 10
273.6176209426019
 20
209.0828052251874
 30
0.0
 10
274.8789895263771
 20
209.3267843065084
 30
0.0
 10
276.5272821311553
 20
209.4524101411033
 30
0.0
 10
278.4665733804324
 20
209.2551600707963
 30
0.0
 10
280.2112359658461
 20
208.7722051891828
 30
0.0
 10
281.4937680985763
 20
208.2363078475382
 30
0.0
 10
282.4948331682845
 20
207.71593513867
 30
0.0
 10
283.3155775677432
 20
207.2239640138432
 30
0.0
 10
284.1529182502223
 20
206.6607958411584
 30
0.0
 10
285.09705964779
 20
205.9522388241336
 30
0.0
 10
286.1184420416654
 20
205.0892151305241
 30
0.0
 10
287.1281967499888
 20
204.1362978605008
 30
0.0
 10
288.0168469309007
 20
203.2177385441354
 30
0.0
 10
288.8525793846327
 20
202.2917460179818
 30
0.0
 10
289.6912948397273
 20
201.2959692592069
 30
0.0
 10
290.6666529113335
 20
200.0830039033479
 30
0.0
 10
291.860688418566
 20
198.6155132245906
 30
0.0
 10
293.3156464521439
 20
196.8249296363475
 30
0.0
 10
295.0300203151634
 20
194.7214212302229
 30
0.0
 10
296.9942339506228
 20
192.3175081113445
 30
0.0
 10
298.2537316879033
 20
190.7833035449115
 30
0.0
 10
299.009402754419
 20
189.8629959047144
 30
0.0
  0
SPLINE
  5
115
330
10E
100
AcDbEntity
  8
64832038_HALTER_
  6
Continuous
 62
     7
100
AcDbSpline
210
0.0
220
0.0
230
1.0
 70
     8
 71
     3
 72
    34
 73
    30
 74
     0
 42
0.0000000001611219
 43
0.0000000001
 40
0.0
 40
0.0
 40
0.0
 40
0.0
 40
0.076659117769888
 40
0.1494138118744813
 40
0.2113630077633512
 40
0.2622639404505355
 40
0.3014104042077343
 40
0.3284093214432874
 40
0.3583804364268982
 40
0.3935345036391423
 40
0.4137226221639447
 40
0.4362723154534495
 40
0.4608350615215277
 40
0.4870150920992904
 40
0.5117894489492816
 40
0.5341218269195439
 40
0.5543711804559147
 40
0.5726588402507817
 40
0.5893753832711648
 40
0.6044201636047448
 40
0.6182183948211573
 40
0.6367763917801418
 40
0.6717370491346542
 40
0.7183597247188418
 40
0.776038504249312
 40
0.8258080054110242
 40
0.8803028088656514
 40
0.9400536989604282
 40
1.0
 40
1.0
 40
1.0
 40
1.0
 10
315.2769394438691
 20
199.1188253379442
 30
0.0
 10
314.6580638483174
 20
200.7615276561323
 30
0.0
 10
313.6436453896833
 20
203.4545633491257
 30
0.0
 10
312.0610067180202
 20
207.6070294691301
 30
0.0
 10
310.7213471017665
 20
211.1271890995597
 30
0.0
 10
309.6043633092055
 20
213.9875738654115
 30
0.0
 10
308.9143718247757
 20
216.2388932232031
 30
0.0
 10
308.4619088769479
 20
218.1149366290875
 30
0.0
 10
308.1544905529866
 20
219.9139168012801
 30
0.0
 10
308.0169563566615
 20
221.604078630221
 30
0.0
 10
308.045766169656
 20
223.1989678171725
 30
0.0
 10
308.1979043900201
 20
224.6218503566445
 30
0.0
 10
308.5525012107442
 20
226.2004493212418
 30
0.0
 10
309.1705890116521
 20
227.8174049809402
 30
0.0
 10
310.0231020732571
 20
229.3004824846866
 30
0.0
 10
310.9803344909247
 20
230.5209651581997
 30
0.0
 10
311.9393883504073
 20
231.4807698673014
 30
0.0
 10
312.850473110882
 20
232.2289702926799
 30
0.0
 10
313.7093161683945
 20
232.8238634152366
 30
0.0
 10
314.5100492309092
 20
233.302697055605
 30
0.0
 10
315.3540720548438
 20
233.7481967432169
 30
0.0
 10
316.5912341682574
 20
234.3205879555923
 30
0.0
 10
318.4815754117993
 20
235.0301383319721
 30
0.0
 10
321.1820249742224
 20
235.7771234372699
 30
0.0
 10
324.2334571464294
 20
236.2944129061165
 30
0.0
 10
327.4805530165703
 20
236.8008835105646
 30
0.0
 10
330.7763644656214
 20
237.3331618656642
 30
0.0
 10
334.392424265677
 20
237.9174046366695
 30
0.0
 10
336.6652632062134
 20
238.2915761146383
 30
0.0
 10
338.0172071252518
 20
238.51413954101
 30
0.0
  0
SPLINE
  5
116
330
10E
100
AcDbEntity
  8
64832038_HALTER_
  6
Continuous
 62
     7
100
AcDbSpline
210
0.0
220
0.0
230
1.0
 70
     8
 71
     3
 72
    45
 73
    41
 74
     0
 42
0.0000000001614908
 43
0.0000000001
 40
0.0
 40
0.0
 40
0.0
 40
0.0
 40
0.0426418643021753
 40
0.0844208433479353
 40
0.1194301674891447
 40
0.1544399711265337
 40
0.1791970104607413
 40
0.196868259939308
 40
0.218002573520086
 40
0.2447264882105384
 40
0.27402993690437
 40
0.2985275692704578
 40
0.320332423709009
 40
0.3435120848428492
 40
0.3714926418886304
 40
0.4037398773822726
 40
0.4359251783145568
 40
0.4620059484970452
 40
0.4839752010718666
 40
0.5125815118622224
 40
0.5288355902413668
 40
0.543598220925679
 40
0.568265178621538
 40
0.5921129329163339
 40
0.6158906295239072
 40
0.6346597359945078
 40
0.6597733502027328
 40
0.6899509625855851
 40
0.7136810548633673
 40
0.732411165820026
 40
0.7605219863833876
 40
0.792555058872815
 40
0.8172290404766358
 40
0.8370759213705045
 40
0.8526290239873087
 40
0.871015150816343
 40
0.8954638842637458
 40
0.9262828856345888
 40
0.9634348935557845
 40
1.0
 40
1.0
 40
1.0
 40
1.0
 10
337.9519543646568
 20
257.2005150493596
 30
0.0
 10
336.9847351558475
 20
257.3605283981302
 30
0.0
 10
335.3725942541086
 20
257.6270860774313
 30
0.0
 10
332.8707046748863
 20
258.0365815143573
 30
0.0
 10
330.5942582210581
 20
258.4065489213575
 30
0.0
 10
328.6615621203377
 20
258.7188295055
 30
0.0
 10
327.0921241315705
 20
258.9721270095819
 30
0.0
 10
325.8119687444632
 20
259.1777842241431
 30
0.0
 10
324.5044250337558
 20
259.3862567431939
 30
0.0
 10
322.9751501374682
 20
259.6254636427327
 30
0.0
 10
321.3951277579669
 20
259.9291519916494
 30
0.0
 10
319.930361778131
 20
260.2811381303362
 30
0.0
 10
318.6103126618987
 20
260.6608188383721
 30
0.0
 10
317.246831476964
 20
261.126407572997
 30
0.0
 10
315.7200109196704
 20
261.7566936572339
 30
0.0
 10
314.0708736802342
 20
262.6136518938719
 30
0.0
 10
312.5246109442534
 20
263.6880677578039
 30
0.0
 10
311.2455772168595
 20
264.8806986459562
 30
0.0
 10
310.1327024916757
 20
266.2366991359538
 30
0.0
 10
309.3329073240175
 20
267.587538269352
 30
0.0
 10
308.8022630369927
 20
268.850007959892
 30
0.0
 10
308.4211724211502
 20
270.0463227427872
 30
0.0
 10
308.1498014015996
 20
271.395884050277
 30
0.0
 10
308.0226913143712
 20
272.8914714610844
 30
0.0
 10
308.0357471185883
 20
274.2352390421439
 30
0.0
 10
308.1445508956464
 20
275.5796470014824
 30
0.0
 10
308.35546673702
 20
277.0324547152695
 30
0.0
 10
308.684424008261
 20
278.5533698094153
 30
0.0
 10
309.0649063145125
 20
279.9323452556622
 30
0.0
 10
309.4840700425113
 20
281.2695414601516
 30
0.0
 10
310.0173721381444
 20
282.7534145504137
 30
0.0
 10
310.6387018563266
 20
284.3445355301965
 30
0.0
 10
311.1916475580673
 20
285.7961020400734
 30
0.0
 10
311.631925462017
 20
286.947426083406
 30
0.0
 10
312.0260826059966
 20
287.9808686150097
 30
0.0
 10
312.4547125424297
 20
289.1060130666472
 30
0.0
 10
312.9969310019197
 20
290.5322019824578
 30
0.0
 10
313.6738141127911
 20
292.3171982120055
 30
0.0
 10
314.4590994144422
 20
294.394759090362
 30
0.0
 10
314.9613978488172
 20
295.7304914805445
 30
0.0
 10
315.2571099669576
 20
296.5170619349907
 30
0.0
  0
SPLINE
  5
117
330
10E
100
AcDbEntity
  8
64832038_HALTER_
  6
Continuous
 62
     7
100
AcDbSpline
210
0.0
220
0.0
230
1.0
 70
     8
 71
     3
 72
    45
 73
    41
 74
     0
 42
0.0000000001617795
 43
0.0000000001
 40
0.0
 40
0.0
 40
0.0
 40
0.0
 40
0.042183854166189
 40
0.0839375047131867
 40
0.1190776205668439
 40
0.1542290158724628
 40
0.1790479388876952
 40
0.1967233826586104
 40
0.2178273687057062
 40
0.2445086568145437
 40
0.2738528301617859
 40
0.2984469428566409
 40
0.3202861348342624
 40
0.3433638154363147
 40
0.3711820330622056
 40
0.4034135663922576
 40
0.4358995413411813
 40
0.4622134416136794
 40
0.4838571863431049
 40
0.5121678809161742
 40
0.5284350265125118
 40
0.5432450821210049
 40
0.5680297227746556
 40
0.5935794243217398
 40
0.6197333363615818
 40
0.6410414119376732
 40
0.6675400818357049
 40
0.6946042723815506
 40
0.7155975614953658
 40
0.7328182877589782
 40
0.7588731001461803
 40
0.7889554113324947
 40
0.8137556474781755
 40
0.8333939498350058
 40
0.8482438085661775
 40
0.8653683525815314
 40
0.8886720683985571
 40
0.9200413036913578
 40
0.9595312560233815
 40
1.0
 40
1.0
 40
1.0
 40
1.0
 10
299.0091836790562
 20
305.8368507180917
 30
0.0
 10
298.3946739157363
 20
305.0885929268933
 30
0.0
 10
297.3651927971234
 20
303.8348172395466
 30
0.0
 10
295.7673080399238
 20
301.8812665451717
 30
0.0
 10
294.3080740143242
 20
300.0931088981877
 30
0.0
 10
293.0693433347436
 20
298.5718444825288
 30
0.0
 10
292.0653004892517
 20
297.3371647585782
 30
0.0
 10
291.2489505889145
 20
296.3317263150371
 30
0.0
 10
290.4161499317001
 20
295.3073157926697
 30
0.0
 10
289.449871770665
 20
294.1035947783754
 30
0.0
 10
288.3976143010973
 20
292.8881723664686
 30
0.0
 10
287.3608804909566
 20
291.7959289375787
 30
0.0
 10
286.3737000995377
 20
290.8446508914136
 30
0.0
 10
285.2947591170525
 20
289.9031186132315
 30
0.0
 10
283.9910832125842
 20
288.9037284507786
 30
0.0
 10
282.4236670323975
 20
287.9093791766566
 30
0.0
 10
280.7173438918007
 20
287.1016923481617
 30
0.0
 10
279.0455397674918
 20
286.5875874123026
 30
0.0
 10
277.3259955701931
 20
286.3035214406908
 30
0.0
 10
275.7721846055188
 20
286.2834818230892
 30
0.0
 10
274.4207809901378
 20
286.4516089326182
 30
0.0
 10
273.1924996615725
 20
286.7181992171725
 30
0.0
 10
271.8526635778824
 20
287.1661685610408
 30
0.0
 10
270.4234036528341
 20
287.8427362760506
 30
0.0
 10
269.1667974152624
 20
288.60315430574
 30
0.0
 10
267.9701294070772
 20
289.4554675691093
 30
0.0
 10
266.8241934011997
 20
290.3918975146361
 30
0.0
 10
265.7507001614129
 20
291.3904742900751
 30
0.0
 10
264.8516872598187
 20
292.3070487979281
 30
0.0
 10
263.989187524578
 20
293.2448506948024
 30
0.0
 10
263.0420040431987
 20
294.3629927823026
 30
0.0
 10
262.0231843132923
 20
295.6315857774695
 30
0.0
 10
261.0705171306071
 20
296.8013878231717
 30
0.0
 10
260.3051612922168
 20
297.7424004125084
 30
0.0
 10
259.636014433576
 20
298.5639309324968
 30
0.0
 10
258.9172814518991
 20
299.4456890471056
 30
0.0
 10
257.9787611568711
 20
300.5957088597303
 30
0.0
 10
256.749481677322
 20
302.09942835623
 30
0.0
 10
255.2526377866236
 20
303.9265941980226
 30
0.0
 10
254.271060920553
 20
305.1202023905558
 30
0.0
 10
253.6808525877617
 20
305.837779136159
 30
0.0
  0
SPLINE
  5
118
330
10E
100
AcDbEntity
  8
64832038_HALTER_
  6
Continuous
 62
     7
100
AcDbSpline
210
0.0
220
0.0
230
1.0
 70
     8
 71
     3
 72
    46
 73
    42
 74
     0
 42
0.0000000001614917
 43
0.0000000001
 40
0.0
 40
0.0
 40
0.0
 40
0.0
 40
0.0417734336518617
 40
0.0837577424793476
 40
0.1192117618835885
 40
0.1545757660599368
 40
0.1794470233652777
 40
0.1971460446346407
 40
0.2182684859456637
 40
0.2449240609872933
 40
0.2740821308952289
 40
0.2984130685839881
 40
0.3201454505063869
 40
0.3433747922268856
 40
0.3713610948808692
 40
0.4035491876366183
 40
0.4358026173320649
 40
0.461997495661314
 40
0.4840513738394283
 40
0.5127806129889148
 40
0.5291681391132655
 40
0.5439841858800163
 40
0.5685031454210316
 40
0.5920422359715514
 40
0.6159388286414581
 40
0.6317868954799302
 40
0.6520025395285
 40
0.6776761481349624
 40
0.7013787058848611
 40
0.7186274929758345
 40
0.7328976369793748
 40
0.7590484394300235
 40
0.7895233843657896
 40
0.8162488794063015
 40
0.8388346031133419
 40
0.853894047970564
 40
0.869496363302154
 40
0.8908550400868235
 40
0.9204135085644174
 40
0.9585182972669818
 40
1.0
 40
1.0
 40
1.0
 40
1.0
 10
237.438772700413
 20
296.5166668716611
 30
0.0
 10
237.7767358743062
 20
295.6182849137336
 30
0.0
 10
238.347468160461
 20
294.101242088487
 30
0.0
 10
239.2432192427903
 20
291.7355661964132
 30
0.0
 10
240.0674122750929
 20
289.5608756397787
 30
0.0
 10
240.7706257523269
 20
287.7147766555701
 30
0.0
 10
241.3420291153912
 20
286.2214765018899
 30
0.0
 10
241.8039171459541
 20
285.0078033434958
 30
0.0
 10
242.2763814698514
 20
283.7732490000926
 30
0.0
 10
242.8351945235844
 20
282.3355743094949
 30
0.0
 10
243.3608222742838
 20
280.8243526680732
 30
0.0
 10
243.7858770559569
 20
279.3894627360748
 30
0.0
 10
244.1193146592856
 20
278.0626181935776
 30
0.0
 10
244.4010874717551
 20
276.6526608686902
 30
0.0
 10
244.6186604825842
 20
275.0160235001423
 30
0.0
 10
244.695694353907
 20
273.1583123264202
 30
0.0
 10
244.541940166388
 20
271.2784898741551
 30
0.0
 10
244.1508562432037
 20
269.565374398321
 30
0.0
 10
243.5306262135141
 20
267.9143866339959
 30
0.0
 10
242.7549543865171
 20
266.5401621151376
 30
0.0
 10
241.9225060173479
 20
265.4458205941057
 30
0.0
 10
241.0769485377615
 20
264.5191066365034
 30
0.0
 10
240.0531840908887
 20
263.6147275967363
 30
0.0
 10
238.8288078705143
 20
262.7623711442608
 30
0.0
 10
237.7127679244883
 20
262.1367687788349
 30
0.0
 10
236.6337950246032
 20
261.6208479489219
 30
0.0
 10
235.5009149790003
 20
261.1494982265735
 30
0.0
 10
234.2017166435791
 20
260.6962098584277
 30
0.0
 10
232.9397553304036
 20
260.3316633770789
 30
0.0
 10
231.8818543655504
 20
260.0691095039623
 30
0.0
 10
230.7613672059262
 20
259.8221308748219
 30
0.0
 10
229.3656037727956
 20
259.5674585683987
 30
0.0
 10
227.7066988157957
 20
259.3118884519379
 30
0.0
 10
226.1079109344061
 20
259.0526855476791
 30
0.0
 10
224.8048183098574
 20
258.8434238031174
 30
0.0
 10
223.7231279451466
 20
258.6689565506425
 30
0.0
 10
222.6636548998399
 20
258.4977766060509
 30
0.0
 10
221.3033313644972
 20
258.2772738494265
 30
0.0
 10
219.4876732870819
 20
257.981610178325
 30
0.0
 10
217.2003357704993
 20
257.6073830035835
 30
0.0
 10
215.6811728268653
 20
257.3561756396963
 30
0.0
 10
214.7398072584126
 20
257.2004514338384
 30
0.0
  0
SPLINE
  5
119
330
10E
100
AcDbEntity
  8
64832038_HALTER_
  6
Continuous
 62
     7
100
AcDbSpline
210
0.0
220
0.0
230
1.0
 70
     8
 71
     3
 72
    14
 73
    10
 74
     0
 42
0.0000000027909427
 43
0.0000000001
 40
0.0
 40
0.0
 40
0.0
 40
0.0
 40
0.069670636096962
 40
0.2306358645019858
 40
0.3667407682643219
 40
0.532696590057139
 40
0.7314151782449535
 40
0.911148652030095
 40
1.0
 40
1.0
 40
1.0
 40
1.0
 10
253.6695579381683
 20
305.8239624316691
 30
0.0
 10
253.6197596864108
 20
305.8909018835595
 30
0.0
 10
253.477258527513
 20
306.0786342470166
 30
0.0
 10
253.0770878165885
 20
306.2932126113282
 30
0.0
 10
252.5850074655749
 20
306.4041616130706
 30
0.0
 10
252.0155833532224
 20
306.4098993994803
 30
0.0
 10
251.3616164725167
 20
306.2954272760151
 30
0.0
 10
250.7789150232654
 20
306.0788082427448
 30
0.0
 10
250.4830986032806
 20
305.9462623471564
 30
0.0
 10
250.3683138939666
 20
305.8937816975857
 30
0.0
  0
ARC
  5
11A
330
10E
100
AcDbEntity
  8
64832038_HALTER_
  6
Continuous
 62
     7
100
AcDbCircle
 10
275.8454715756
 20
248.3732958749
 30
0.0
 40
62.90486521388636
100
AcDbArc
 50
113.889674397
 51
125.7832653626
  0
SPLINE
  5
11B
330
10E
100
AcDbEntity
  8
64832038_HALTER_
  6
Continuous
 62
     7
100
AcDbSpline
210
0.0
220
0.0
230
1.0
 70
     8
 71
     3
 72
    14
 73
    10
 74
     0
 42
0.0000000027778056
 43
0.0000000001
 40
0.0
 40
0.0
 40
0.0
 40
0.0
 40
0.0761181806786506
 40
0.2548372832740676
 40
0.4348335712993357
 40
0.6321893983991577
 40
0.7829612284062251
 40
0.9358567727691479
 40
1.0
 40
1.0
 40
1.0
 40
1.0
 10
239.0568665242293
 20
299.4134307335623
 30
0.0
 10
238.9678543674437
 20
299.3510318609651
 30
0.0
 10
238.7154981058522
 20
299.171592484836
 30
0.0
 10
238.2613293123569
 20
298.8061895440711
 30
0.0
 10
237.8072873570584
 20
298.2914580387828
 30
0.0
 10
237.4968317281678
 20
297.7681744703478
 30
0.0
 10
237.3392117942653
 20
297.2438637415075
 30
0.0
 10
237.3374726424777
 20
296.784484928541
 30
0.0
 10
237.4283430213492
 20
296.583432789544
 30
0.0
 10
237.4604535303673
 20
296.5141378463566
 30
0.0
  0
SPLINE
  5
11C
330
10E
100
AcDbEntity
  8
64832038_HALTER_
  6
Continuous
 62
     7
100
AcDbSpline
210
0.0
220
0.0
230
1.0
 70
     8
 71
     3
 72
    14
 73
    10
 74
     0
 42
0.000000002792196
 43
0.0000000001
 40
0.0
 40
0.0
 40
0.0
 40
0.0
 40
0.067721320199446
 40
0.2289738664100601
 40
0.3650766920213003
 40
0.53081372831587
 40
0.7296563566521223
 40
0.9097995750992773
 40
1.0
 40
1.0
 40
1.0
 40
1.0
 10
214.7461570042031
 20
257.183943307715
 30
0.0
 10
214.6656628724818
 20
257.1748481645006
 30
0.0
 10
214.4336316886137
 20
257.1464156486149
 30
0.0
 10
214.0481714645121
 20
256.9097132922363
 30
0.0
 10
213.7047163662716
 20
256.5406477261992
 30
0.0
 10
213.4135211587627
 20
256.0520311994406
 30
0.0
 10
213.183422471354
 20
255.4297264480007
 30
0.0
 10
213.0769745569446
 20
254.81514781188
 30
0.0
 10
213.0427588058409
 20
254.4908804122748
 30
0.0
 10
213.0302961365151
 20
254.3634254864835
 30
0.0
  0
ARC
  5
11D
330
10E
100
AcDbEntity
  8
64832038_HALTER_
  6
Continuous
 62
     7
100
AcDbCircle
 10
271.1106123799
 20
248.1264199102
 30
0.0
 40
58.36405077754903
100
AcDbArc
 50
173.8704562908
 51
180.2718511635
  0
ARC
  5
11E
330
10E
100
AcDbEntity
  8
64832038_HALTER_
  6
Continuous
 62
     7
100
AcDbCircle
 10
277.0132021827
 20
247.8560876217
 30
0.0
 40
64.26925284060836
100
AcDbArc
 50
180.0046689241
 51
185.8183381119
  0
SPLINE
  5
11F
330
10E
100
AcDbEntity
  8
64832038_HALTER_
  6
Continuous
 62
     7
100
AcDbSpline
210
0.0
220
0.0
230
1.0
 70
     8
 71
     3
 72
    13
 73
     9
 74
     0
 42
0.0000000028069813
 43
0.0000000001
 40
0.0
 40
0.0
 40
0.0
 40
0.0
 40
0.1536754955957514
 40
0.3371063036376006
 40
0.5319181549063625
 40
0.7162930920139993
 40
0.865253093999682
 40
1.0
 40
1.0
 40
1.0
 40
1.0
 10
213.031899612042
 20
241.336244009642
 30
0.0
 10
213.0525677533499
 20
241.1205672460088
 30
0.0
 10
213.0953397951694
 20
240.7200006531235
 30
0.0
 10
213.2519750078291
 20
240.0460495830948
 30
0.0
 10
213.518763020036
 20
239.4390247916791
 30
0.0
 10
213.853927153107
 20
238.9686467624647
 30
0.0
 10
214.2744762312197
 20
238.6261328902196
 30
0.0
 10
214.5655864065241
 20
238.5504866360941
 30
0.0
 10
214.7281834785818
 20
238.5109845738774
 30
0.0
  0
SPLINE
  5
120
330
10E
100
AcDbEntity
  8
64832038_HALTER_
  6
Continuous
 62
     7
100
AcDbSpline
210
0.0
220
0.0
230
1.0
 70
     8
 71
     3
 72
    14
 73
    10
 74
     0
 42
0.0000000027960366
 43
0.0000000001
 40
0.0
 40
0.0
 40
0.0
 40
0.0
 40
0.0177043522264882
 40
0.1979696168009562
 40
0.3773528257048314
 40
0.5703994720127087
 40
0.7427789670988814
 40
0.8929919567747577
 40
1.0
 40
1.0
 40
1.0
 40
1.0
 10
250.3678385278539
 20
189.8054659836617
 30
0.0
 10
250.3906261030281
 20
189.7949827491491
 30
0.0
 10
250.6098874540642
 20
189.6945658445179
 30
0.0
 10
251.0752231471047
 20
189.4972323418268
 30
0.0
 10
251.7450757179519
 20
189.3237275762847
 30
0.0
 10
252.3821265016972
 20
189.2766143369772
 30
0.0
 10
252.9375897067324
 20
189.3576959460781
 30
0.0
 10
253.4050077155648
 20
189.5673037308707
 30
0.0
 10
253.5811635416195
 20
189.770821907798
 30
0.0
 10
253.6657167068238
 20
189.8712313087194
 30
0.0
  0
ARC
  5
121
330
10E
100
AcDbEntity
  8
64832038_HALTER_
  6
Continuous
 62
     7
100
AcDbCircle
 10
275.7619123288
 20
247.3183164327
 30
0.0
 40
62.85615833278968
100
AcDbArc
 50
234.2740653981
 51
246.1768932503
  0
SPLINE
  5
122
330
10E
100
AcDbEntity
  8
64832038_HALTER_
  6
Continuous
 62
     7
100
AcDbSpline
210
0.0
220
0.0
230
1.0
 70
     8
 71
     3
 72
    15
 73
    11
 74
     0
 42
0.0000000027754288
 43
0.0000000001
 40
0.0
 40
0.0
 40
0.0
 40
0.0
 40
0.0063195023198243
 40
0.1608101376691299
 40
0.3034399688931489
 40
0.4479044777807811
 40
0.6331222111882303
 40
0.824703266497807
 40
0.9911565192424038
 40
1.0
 40
1.0
 40
1.0
 40
1.0
 10
237.4463738385332
 20
199.1951010374677
 30
0.0
 10
237.4430352986004
 20
199.1887575508669
 30
0.0
 10
237.3699766147208
 20
199.0495396365053
 30
0.0
 10
237.322095822643
 20
198.6595448884702
 30
0.0
 10
237.4082616075966
 20
198.1794941415974
 30
0.0
 10
237.6233810846234
 20
197.6955540363934
 30
0.0
 10
237.977966150148
 20
197.1923626973146
 30
0.0
 10
238.4703607226751
 20
196.7090593089532
 30
0.0
 10
238.8700327518396
 20
196.4177323112281
 30
0.0
 10
239.0457170160676
 20
196.2926287785607
 30
0.0
 10
239.0560107393478
 20
196.2853124555224
 30
0.0
  0
SPLINE
  5
123
330
10E
100
AcDbEntity
  8
64832038_HALTER_
  6
Continuous
 62
     7
100
AcDbSpline
210
0.0
220
0.0
230
1.0
 70
     8
 71
     3
 72
    14
 73
    10
 74
     0
 42
0.0000000027862979
 43
0.0000000001
 40
0.0
 40
0.0
 40
0.0
 40
0.0
 40
0.0253072034925894
 40
0.1775509389602197
 40
0.3168039440778295
 40
0.4670968773395768
 40
0.6569571326241752
 40
0.8473755283173793
 40
1.0
 40
1.0
 40
1.0
 40
1.0
 10
299.0093887988791
 20
189.874399420833
 30
0.0
 10
299.0263851007119
 20
189.8498548297372
 30
0.0
 10
299.129319117363
 20
189.7026680926552
 30
0.0
 10
299.4553243168576
 20
189.4747082831976
 30
0.0
 10
299.9174777751011
 20
189.3238124571164
 30
0.0
 10
300.4534424711244
 20
189.2787836628405
 30
0.0
 10
301.0765234096331
 20
189.3445222587369
 30
0.0
 10
301.7468013841352
 20
189.5475116357487
 30
0.0
 10
302.125185865485
 20
189.7146536085511
 30
0.0
 10
302.3228731246985
 20
189.8045684275245
 30
0.0
  0
ARC
  5
124
330
10E
100
AcDbEntity
  8
64832038_HALTER_
  6
Continuous
 62
     7
100
AcDbCircle
 10
276.8496282958
 20
247.3230515193
 30
0.0
 40
62.90071991786737
100
AcDbArc
 50
293.887315987
 51
305.786825528
  0
SPLINE
  5
125
330
10E
100
AcDbEntity
  8
64832038_HALTER_
  6
Continuous
 62
     7
100
AcDbSpline
210
0.0
220
0.0
230
1.0
 70
     8
 71
     3
 72
    13
 73
     9
 74
     0
 42
0.0000000028015831
 43
0.0000000001
 40
0.0
 40
0.0
 40
0.0
 40
0.0
 40
0.1524412411937603
 40
0.3352456976079207
 40
0.5292501356116348
 40
0.713533965142834
 40
0.8622107412642176
 40
1.0
 40
1.0
 40
1.0
 40
1.0
 10
313.6382183275618
 20
196.289833009769
 30
0.0
 10
313.8146906607847
 20
196.4133691560967
 30
0.0
 10
314.141134738389
 20
196.6471956892659
 30
0.0
 10
314.6490677894093
 20
197.1143718263414
 30
0.0
 10
315.0454713614086
 20
197.6454959645932
 30
0.0
 10
315.289683735521
 20
198.168890642737
 30
0.0
 10
315.380579119867
 20
198.7074807165484
 30
0.0
 10
315.3019034495568
 20
199.0014749431114
 30
0.0
 10
315.2548880175781
 20
199.1663891857435
 30
0.0
  0
SPLINE
  5
126
330
10E
100
AcDbEntity
  8
64832038_HALTER_
  6
Continuous
 62
     7
100
AcDbSpline
210
0.0
220
0.0
230
1.0
 70
     8
 71
     3
 72
    14
 73
    10
 74
     0
 42
0.0000000027884518
 43
0.0000000001
 40
0.0
 40
0.0
 40
0.0
 40
0.0
 40
0.0177206653622712
 40
0.198999911059493
 40
0.3779885723090243
 40
0.5708376379820409
 40
0.7421786652350906
 40
0.8943032969023612
 40
1.0
 40
1.0
 40
1.0
 40
1.0
 10
339.6633725217516
 20
254.3640081043749
 30
0.0
 10
339.6609912749535
 20
254.3890865709189
 30
0.0
 10
339.6375830847645
 20
254.631192611479
 30
0.0
 10
339.573992917497
 20
255.1354636703026
 30
0.0
 10
339.3857939620925
 20
255.8035385435547
 30
0.0
 10
339.1050381557834
 20
256.3776581431274
 30
0.0
 10
338.754911154825
 20
256.8165709540945
 30
0.0
 10
338.3321683563034
 20
257.1179409830266
 30
0.0
 10
338.0682594955099
 20
257.1606942371916
 30
0.0
 10
337.9412627583315
 20
257.179534855092
 30
0.0
  0
ARC
  5
127
330
10E
100
AcDbEntity
  8
64832038_HALTER_
  6
Continuous
 62
     7
100
AcDbCircle
 10
275.6718936501
 20
247.8434761154
 30
0.0
 40
64.27700252892686
100
AcDbArc
 50
0.0050570155
 51
5.818212815
  0
SPLINE
  5
128
330
10E
100
AcDbEntity
  8
64832038_HALTER_
  6
Continuous
 62
     7
100
AcDbSpline
210
0.0
220
0.0
230
1.0
 70
     8
 71
     3
 72
    14
 73
    10
 74
     0
 42
0.0000000027883227
 43
0.0000000001
 40
0.0
 40
0.0
 40
0.0
 40
0.0
 40
0.0212534333233033
 40
0.1735415887066362
 40
0.3133593441940765
 40
0.4630373955494027
 40
0.6524960259752326
 40
0.8434061005877201
 40
1.0
 40
1.0
 40
1.0
 40
1.0
 10
337.9424527615268
 20
238.5042480456889
 30
0.0
 10
337.9673988796557
 20
238.5061990697297
 30
0.0
 10
338.1421786047799
 20
238.5205592923288
 30
0.0
 10
338.5001648690016
 20
238.6844382331858
 30
0.0
 10
338.8643009764517
 20
239.0061413353146
 30
0.0
 10
339.1732899506252
 20
239.4447942649976
 30
0.0
 10
339.4304336710932
 20
240.0136059861662
 30
0.0
 10
339.5948416202702
 20
240.6984504620723
 30
0.0
 10
339.6412345390355
 20
241.1145396549745
 30
0.0
 10
339.663452192886
 20
241.3360605894532
 30
0.0
  0
ARC
  5
129
330
10E
100
AcDbEntity
  8
64832038_HALTER_
  6
Continuous
 62
     7
100
AcDbCircle
 10
281.5786201269
 20
247.5737627966
 30
0.0
 40
58.36765797099908
100
AcDbArc
 50
353.8704430615
 51
0.2716553678
  0
SPLINE
  5
12A
330
10E
100
AcDbEntity
  8
64832038_HALTER_
  6
Continuous
 62
     7
100
AcDbSpline
210
0.0
220
0.0
230
1.0
 70
     8
 71
     3
 72
    14
 73
    10
 74
     0
 42
0.0000000027856534
 43
0.0000000001
 40
0.0
 40
0.0
 40
0.0
 40
0.0
 40
0.0727742682170709
 40
0.2332118404896639
 40
0.3690352421942367
 40
0.5348309945675771
 40
0.7331682702583834
 40
0.9123068655609562
 40
1.0
 40
1.0
 40
1.0
 40
1.0
 10
315.2393993964593
 20
296.5198271645769
 30
0.0
 10
315.2736609943121
 20
296.6001876321883
 30
0.0
 10
315.3650909521002
 20
296.8208145143908
 30
0.0
 10
315.3484770155732
 20
297.2777403862941
 30
0.0
 10
315.1955178012561
 20
297.75851791779
 30
0.0
 10
314.9128552552605
 20
298.2531062793087
 30
0.0
 10
314.4835689125265
 20
298.7599263501184
 30
0.0
 10
314.0032481254812
 20
299.1525196805893
 30
0.0
 10
313.7405680450882
 20
299.3401714657219
 30
0.0
 10
313.6384263167129
 20
299.4119824952262
 30
0.0
  0
SPLINE
  5
12B
330
10E
100
AcDbEntity
  8
64832038_HALTER_
  6
Continuous
 62
     7
100
AcDbSpline
210
0.0
220
0.0
230
1.0
 70
     8
 71
     3
 72
    14
 73
    10
 74
     0
 42
0.000000002785712
 43
0.0000000001
 40
0.0
 40
0.0
 40
0.0
 40
0.0
 40
0.0175851529990669
 40
0.1978068559896454
 40
0.376614121016945
 40
0.5692495058699671
 40
0.7406626754018811
 40
0.892588616279132
 40
1.0
 40
1.0
 40
1.0
 40
1.0
 10
302.3235820404218
 20
305.8952984844215
 30
0.0
 10
302.3008489729239
 20
305.9057556610721
 30
0.0
 10
302.0808079840763
 20
306.0065183642661
 30
0.0
 10
301.6142643525369
 20
306.2045701957057
 30
0.0
 10
300.9430631841159
 20
306.3777180622915
 30
0.0
 10
300.3051087661602
 20
306.4238637644279
 30
0.0
 10
299.7492539777546
 20
306.3421398270804
 30
0.0
 10
299.2742290013915
 20
306.1273851218241
 30
0.0
 10
299.1033633924347
 20
305.9192596257419
 30
0.0
 10
299.0218378328044
 20
305.8171681336185
 30
0.0
  0
ARC
  5
12C
330
10E
100
AcDbEntity
  8
64832038_HALTER_
  6
Continuous
 62
     7
100
AcDbCircle
 10
276.8407608869
 20
248.2391752102
 30
0.0
 40
63.02465348386654
100
AcDbArc
 50
54.2806310597
 51
66.1556815573
  0
CIRCLE
  5
12D
330
10E
100
AcDbEntity
  8
64105038_ABDECKU
  6
Continuous
 62
     7
100
AcDbCircle
 10
276.3466174347
 20
247.85
 30
0.0
 40
141.5
  0
ENDBLK
  5
12F
330
10E
100
AcDbEntity
  8
0
100
AcDbBlockEnd
  0
ENDSEC
  0
SECTION
  2
ENTITIES
  0
INSERT
  5
5E
330
1F
100
AcDbEntity
  8
0
100
AcDbBlockReference
  2
SE
 10
0.0
 20
0.0
 30
0.0
  0
INSERT
  5
64
330
1F
100
AcDbEntity
  8
0
100
AcDbBlockReference
  2
SE1
 10
0.0
 20
0.0
 30
0.0
  0
INSERT
  5
6B
330
1F
100
AcDbEntity
  8
Default
100
AcDbBlockReference
  2
SE2
 10
0.0
 20
0.0
 30
0.0
  0
INSERT
  5
99
330
1F
100
AcDbEntity
  8
Default
100
AcDbBlockReference
  2
SE3
 10
0.0
 20
0.0
 30
0.0
  0
INSERT
  5
C1
330
1F
100
AcDbEntity
  8
Default
100
AcDbBlockReference
  2
SE4
 10
0.0
 20
0.0
 30
0.0
  0
INSERT
  5
ED
330
1F
100
AcDbEntity
  8
Default
100
AcDbBlockReference
  2
SE5
 10
0.0
 20
0.0
 30
0.0
  0
INSERT
  5
10F
330
1F
100
AcDbEntity
  8
Default
100
AcDbBlockReference
  2
SE6
 10
0.0
 20
0.0
 30
0.0
  0
TEXT
  5
131
330
1F
100
AcDbEntity
  8
Default
  6
Continuous
 62
     7
100
AcDbText
 10
5.9362635081
 20
53.4225120485
 30
0.0
 40
10.0
  1
Grohe AG^J
  7
SEACAD_seiso_ttf
 11
5.9362635081
 21
63.4225120485
 31
0.0
100
AcDbText
 73
     3
  0
TEXT
  5
132
330
1F
100
AcDbEntity
  8
Default
  6
Continuous
 62
     7
100
AcDbText
 10
5.9362635081
 20
37.0588756849
 30
0.0
 40
10.0
  1
 
  7
SEACAD_seiso_ttf
 11
5.9362635081
 21
47.0588756849
 31
0.0
100
AcDbText
 73
     3
  0
TEXT
  5
133
330
1F
100
AcDbEntity
  8
Default
  6
Continuous
 62
     7
100
AcDbText
 10
5.9362635081
 20
20.6952393213
 30
0.0
 40
10.0
  1
ecn: 
  7
SEACAD_seiso_ttf
 11
5.9362635081
 21
30.6952393213
 31
0.0
100
AcDbText
 73
     3
  0
TEXT
  5
134
330
1F
100
AcDbEntity
  8
Default
  6
Continuous
 62
     7
100
AcDbText
 10
5.9362635081
 20
4.3316029576
 30
0.0
 40
10.0
  1
unit: mm
  7
SEACAD_seiso_ttf
 11
5.9362635081
 21
14.3316029576
 31
0.0
100
AcDbText
 73
     3
  0
LINE
  5
135
330
1F
100
AcDbEntity
  8
Default
  6
Continuous
 62
     7
100
AcDbLine
 10
0.0
 20
0.0
 30
0.0
 11
100.0
 21
0.0
 31
0.0
  0
LINE
  5
136
330
1F
100
AcDbEntity
  8
Default
  6
Continuous
 62
     7
100
AcDbLine
 10
0.0
 20
0.0
 30
0.0
 11
0.0
 21
100.0
 31
0.0
  0
TEXT
  5
137
330
1F
100
AcDbEntity
  8
Default
  6
Continuous
 62
     7
100
AcDbText
 10
24.3923665681
 20
-18.2375342018
 30
0.0
 40
10.0
  1
100 mm
  7
SEACAD_seiso_ttf
 11
24.3923665681
 21
-8.2375342018
 31
0.0
100
AcDbText
 73
     3
  0
TEXT
  5
138
330
1F
100
AcDbEntity
  8
Default
  6
Continuous
 62
     7
100
AcDbText
 10
-7.6150308803
 20
24.6231930421
 30
0.0
 40
10.0
  1
100 mm
 50
90.0
  7
SEACAD_seiso_ttf
 11
-17.6150308803
 21
24.6231930421
 31
0.0
100
AcDbText
 73
     3
  0
TEXT
  5
139
330
1F
100
AcDbEntity
  8
Default
  6
Continuous
 62
     7
100
AcDbText
 10
28.4878128572
 20
20.0907663715
 30
0.0
 40
10.0
  1
212943
  7
SEACAD_seiso_ttf
 11
28.4878128572
 21
30.0907663715
 31
0.0
100
AcDbText
 73
     3
  0
TEXT
  5
13A
330
1F
100
AcDbEntity
  8
Default
  6
Continuous
 62
     7
100
AcDbText
 10
5.9012241913
 20
36.7242780188
 30
0.0
 40
10.0
  1
40387000
  7
SEACAD_seiso_ttf
 11
5.9012241913
 21
46.7242780188
 31
0.0
100
AcDbText
 73
     3
  0
ENDSEC
  0
SECTION
  2
OBJECTS
  0
DICTIONARY
  5
C
330
0
100
AcDbDictionary
281
     1
  3
ACAD_GROUP
350
D
  3
ACAD_LAYOUT
350
1A
  3
ACAD_MLEADERSTYLE
350
13E
  3
ACAD_MLINESTYLE
350
17
  3
ACAD_PLOTSETTINGS
350
19
  3
ACAD_PLOTSTYLENAME
350
E
  3
ACAD_SCALELIST
350
3B
  3
ACAD_TABLESTYLE
350
13D
  3
ACAD_VISUALSTYLE
350
2A
  3
AcDbVariableDictionary
350
13B
  0
DICTIONARY
  5
D
102
{ACAD_REACTORS
330
C
102
}
330
C
100
AcDbDictionary
281
     1
  0
DICTIONARY
  5
1A
102
{ACAD_REACTORS
330
C
102
}
330
C
100
AcDbDictionary
281
     1
  3
Layout1
350
1E
  3
Model
350
22
  0
DICTIONARY
  5
13E
102
{ACAD_REACTORS
330
C
102
}
330
C
100
AcDbDictionary
281
     1
  0
DICTIONARY
  5
17
102
{ACAD_REACTORS
330
C
102
}
330
C
100
AcDbDictionary
281
     1
  3
Standard
350
18
  0
DICTIONARY
  5
19
102
{ACAD_REACTORS
330
C
102
}
330
C
100
AcDbDictionary
281
     1
  0
ACDBDICTIONARYWDFLT
  5
E
102
{ACAD_REACTORS
330
C
102
}
330
C
100
AcDbDictionary
281
     1
  3
Normal
350
F
100
AcDbDictionaryWithDefault
340
F
  0
DICTIONARY
  5
3B
102
{ACAD_REACTORS
330
C
102
}
330
C
100
AcDbDictionary
281
     1
  3
A0
350
3C
  3
A1
350
3D
  3
A2
350
3E
  3
A3
350
3F
  3
A4
350
40
  3
A5
350
41
  3
A6
350
42
  3
A7
350
43
  3
A8
350
44
  3
A9
350
45
  3
B0
350
46
  3
B1
350
47
  3
B2
350
48
  3
B3
350
49
  3
B4
350
4A
  3
B5
350
4B
  3
B6
350
4C
  3
B7
350
4D
  3
B8
350
4E
  3
B9
350
4F
  3
C0
350
50
  3
C1
350
51
  3
C2
350
52
  3
C3
350
53
  3
C4
350
54
  3
C5
350
55
  3
C6
350
56
  3
C7
350
57
  3
C8
350
58
  3
C9
350
59
  3
D0
350
5A
  3
D1
350
5B
  3
D2
350
5C
  0
DICTIONARY
  5
13D
102
{ACAD_REACTORS
330
C
102
}
330
C
100
AcDbDictionary
281
     1
  0
DICTIONARY
  5
2A
102
{ACAD_REACTORS
330
C
102
}
330
C
100
AcDbDictionary
281
     1
  3
2dWireframe
350
2F
  3
3D Hidden
350
31
  3
3dWireframe
350
30
  3
Basic
350
32
  3
Brighten
350
36
  3
ColorChange
350
3A
  3
Conceptual
350
34
  3
Dim
350
35
  3
Facepattern
350
39
  3
Flat
350
2B
  3
FlatWithEdges
350
2C
  3
Gouraud
350
2D
  3
GouraudWithEdges
350
2E
  3
Linepattern
350
38
  3
Realistic
350
33
  3
Thicken
350
37
  0
DICTIONARY
  5
13B
102
{ACAD_REACTORS
330
C
102
}
330
C
100
AcDbDictionary
281
     1
  3
CANNOSCALE
350
13C
  3
PSOLHEIGHT
350
140
  3
PSOLWIDTH
350
13F
  0
LAYOUT
  5
1E
102
{ACAD_REACTORS
330
1A
102
}
330
1A
100
AcDbPlotSettings
  1

  2
none_device
  4

  6

 40
0.0
 41
0.0
 42
0.0
 43
0.0
 44
0.0
 45
0.0
 46
0.0
 47
0.0
 48
0.0
 49
0.0
140
0.0
141
0.0
142
1.0
143
1.0
 70
   688
 72
     0
 73
     0
 74
     5
  7

 75
    16
147
1.0
148
0.0
149
0.0
100
AcDbLayout
  1
Layout1
 70
     1
 71
     1
 10
0.0
 20
0.0
 11
1682.0
 21
2378.0
 12
0.0
 22
0.0
 32
0.0
 14
0.0
 24
0.0
 34
0.0
 15
1682.0
 25
2378.0
 35
0.0
146
0.0
 13
0.0
 23
0.0
 33
0.0
 16
1.0
 26
0.0
 36
0.0
 17
0.0
 27
1.0
 37
0.0
 76
     0
330
1B
  0
LAYOUT
  5
22
102
{ACAD_REACTORS
330
1A
102
}
330
1A
100
AcDbPlotSettings
  1

  2
none_device
  4

  6

 40
0.0
 41
0.0
 42
0.0
 43
0.0
 44
0.0
 45
0.0
 46
0.0
 47
0.0
 48
0.0
 49
0.0
140
0.0
141
0.0
142
1.0
143
1.0
 70
  1712
 72
     0
 73
     0
 74
     0
  7

 75
     0
147
1.0
148
0.0
149
0.0
100
AcDbLayout
  1
Model
 70
     1
 71
     0
 10
0.0
 20
0.0
 11
1682.0
 21
2378.0
 12
0.0
 22
0.0
 32
0.0
 14
0.0
 24
0.0
 34
0.0
 15
1682.0
 25
2378.0
 35
0.0
146
0.0
 13
0.0
 23
0.0
 33
0.0
 16
1.0
 26
0.0
 36
0.0
 17
0.0
 27
1.0
 37
0.0
 76
     0
330
1F
331
29
  0
MLINESTYLE
  5
18
102
{ACAD_REACTORS
330
17
102
}
330
17
100
AcDbMlineStyle
  2
Standard
 70
     0
  3

 62
   256
 51
90.0
 52
90.0
 71
     2
 49
0.5
 62
   256
  6
BYLAYER
 49
-0.5
 62
   256
  6
BYLAYER
  0
ACDBPLACEHOLDER
  5
F
102
{ACAD_REACTORS
330
E
102
}
330
E
  0
SCALE
  5
3C
102
{ACAD_REACTORS
330
3B
102
}
330
3B
100
AcDbScale
 70
     0
300
1:1
140
1.0
141
1.0
290
     1
  0
SCALE
  5
3D
102
{ACAD_REACTORS
330
3B
102
}
330
3B
100
AcDbScale
 70
     0
300
1:2
140
1.0
141
2.0
290
     0
  0
SCALE
  5
3E
102
{ACAD_REACTORS
330
3B
102
}
330
3B
100
AcDbScale
 70
     0
300
1:4
140
1.0
141
4.0
290
     0
  0
SCALE
  5
3F
102
{ACAD_REACTORS
330
3B
102
}
330
3B
100
AcDbScale
 70
     0
300
1:5
140
1.0
141
5.0
290
     0
  0
SCALE
  5
40
102
{ACAD_REACTORS
330
3B
102
}
330
3B
100
AcDbScale
 70
     0
300
1:8
140
1.0
141
8.0
290
     0
  0
SCALE
  5
41
102
{ACAD_REACTORS
330
3B
102
}
330
3B
100
AcDbScale
 70
     0
300
1:10
140
1.0
141
10.0
290
     0
  0
SCALE
  5
42
102
{ACAD_REACTORS
330
3B
102
}
330
3B
100
AcDbScale
 70
     0
300
1:16
140
1.0
141
16.0
290
     0
  0
SCALE
  5
43
102
{ACAD_REACTORS
330
3B
102
}
330
3B
100
AcDbScale
 70
     0
300
1:20
140
1.0
141
20.0
290
     0
  0
SCALE
  5
44
102
{ACAD_REACTORS
330
3B
102
}
330
3B
100
AcDbScale
 70
     0
300
1:30
140
1.0
141
30.0
290
     0
  0
SCALE
  5
45
102
{ACAD_REACTORS
330
3B
102
}
330
3B
100
AcDbScale
 70
     0
300
1:40
140
1.0
141
40.0
290
     0
  0
SCALE
  5
46
102
{ACAD_REACTORS
330
3B
102
}
330
3B
100
AcDbScale
 70
     0
300
1:50
140
1.0
141
50.0
290
     0
  0
SCALE
  5
47
102
{ACAD_REACTORS
330
3B
102
}
330
3B
100
AcDbScale
 70
     0
300
1:100
140
1.0
141
100.0
290
     0
  0
SCALE
  5
48
102
{ACAD_REACTORS
330
3B
102
}
330
3B
100
AcDbScale
 70
     0
300
2:1
140
2.0
141
1.0
290
     0
  0
SCALE
  5
49
102
{ACAD_REACTORS
330
3B
102
}
330
3B
100
AcDbScale
 70
     0
300
4:1
140
4.0
141
1.0
290
     0
  0
SCALE
  5
4A
102
{ACAD_REACTORS
330
3B
102
}
330
3B
100
AcDbScale
 70
     0
300
8:1
140
8.0
141
1.0
290
     0
  0
SCALE
  5
4B
102
{ACAD_REACTORS
330
3B
102
}
330
3B
100
AcDbScale
 70
     0
300
10:1
140
10.0
141
1.0
290
     0
  0
SCALE
  5
4C
102
{ACAD_REACTORS
330
3B
102
}
330
3B
100
AcDbScale
 70
     0
300
100:1
140
100.0
141
1.0
290
     0
  0
SCALE
  5
4D
102
{ACAD_REACTORS
330
3B
102
}
330
3B
100
AcDbScale
 70
     0
300
1/128" = 1'-0"
140
0.0078125
141
12.0
290
     0
  0
SCALE
  5
4E
102
{ACAD_REACTORS
330
3B
102
}
330
3B
100
AcDbScale
 70
     0
300
1/64" = 1'-0"
140
0.015625
141
12.0
290
     0
  0
SCALE
  5
4F
102
{ACAD_REACTORS
330
3B
102
}
330
3B
100
AcDbScale
 70
     0
300
1/32" = 1'-0"
140
0.03125
141
12.0
290
     0
  0
SCALE
  5
50
102
{ACAD_REACTORS
330
3B
102
}
330
3B
100
AcDbScale
 70
     0
300
1/16" = 1'-0"
140
0.0625
141
12.0
290
     0
  0
SCALE
  5
51
102
{ACAD_REACTORS
330
3B
102
}
330
3B
100
AcDbScale
 70
     0
300
3/32" = 1'-0"
140
0.09375
141
12.0
290
     0
  0
SCALE
  5
52
102
{ACAD_REACTORS
330
3B
102
}
330
3B
100
AcDbScale
 70
     0
300
1/8" = 1'-0"
140
0.125
141
12.0
290
     0
  0
SCALE
  5
53
102
{ACAD_REACTORS
330
3B
102
}
330
3B
100
AcDbScale
 70
     0
300
3/16" = 1'-0"
140
0.1875
141
12.0
290
     0
  0
SCALE
  5
54
102
{ACAD_REACTORS
330
3B
102
}
330
3B
100
AcDbScale
 70
     0
300
1/4" = 1'-0"
140
0.25
141
12.0
290
     0
  0
SCALE
  5
55
102
{ACAD_REACTORS
330
3B
102
}
330
3B
100
AcDbScale
 70
     0
300
3/8" = 1'-0"
140
0.375
141
12.0
290
     0
  0
SCALE
  5
56
102
{ACAD_REACTORS
330
3B
102
}
330
3B
100
AcDbScale
 70
     0
300
1/2" = 1'-0"
140
0.5
141
12.0
290
     0
  0
SCALE
  5
57
102
{ACAD_REACTORS
330
3B
102
}
330
3B
100
AcDbScale
 70
     0
300
3/4" = 1'-0"
140
0.75
141
12.0
290
     0
  0
SCALE
  5
58
102
{ACAD_REACTORS
330
3B
102
}
330
3B
100
AcDbScale
 70
     0
300
1" = 1'-0"
140
1.0
141
12.0
290
     0
  0
SCALE
  5
59
102
{ACAD_REACTORS
330
3B
102
}
330
3B
100
AcDbScale
 70
     0
300
1-1/2" = 1'-0"
140
1.5
141
12.0
290
     0
  0
SCALE
  5
5A
102
{ACAD_REACTORS
330
3B
102
}
330
3B
100
AcDbScale
 70
     0
300
3" = 1'-0"
140
3.0
141
12.0
290
     0
  0
SCALE
  5
5B
102
{ACAD_REACTORS
330
3B
102
}
330
3B
100
AcDbScale
 70
     0
300
6" = 1'-0"
140
6.0
141
12.0
290
     0
  0
SCALE
  5
5C
102
{ACAD_REACTORS
330
3B
102
}
330
3B
100
AcDbScale
 70
     0
300
1'-0" = 1'-0"
140
12.0
141
12.0
290
     0
  0
VISUALSTYLE
  5
2F
102
{ACAD_REACTORS
330
2A
102
}
330
2A
100
AcDbVisualStyle
  2
2dWireframe
 70
     4
 71
     0
 72
     2
 73
     0
 90
        0
 40
-0.6
 41
-30.0
 62
     5
 63
     7
 74
     1
 91
        4
 64
     7
 65
   257
 75
     1
175
     1
 42
1.0
 92
        0
 66
   257
 43
1.0
 76
     1
 77
     6
 78
     2
 67
     7
 79
     5
170
     0
171
     0
290
     0
174
     0
 93
        1
 44
0.0
173
     0
291
     0
 45
0.0
1001
ACAD
1000
AcDbSavedByObjectVersion
1070
     0
  0
VISUALSTYLE
  5
31
102
{ACAD_REACTORS
330
2A
102
}
330
2A
100
AcDbVisualStyle
  2
3D Hidden
 70
     6
 71
     1
 72
     2
 73
     2
 90
        0
 40
-0.6
 41
-30.0
 62
     5
 63
     7
 74
     2
 91
        2
 64
     7
 65
   257
 75
     2
175
     1
 42
40.0
 92
        0
 66
   257
 43
1.0
 76
     1
 77
     6
 78
     2
 67
     7
 79
     3
170
     0
171
     0
290
     0
174
     0
 93
        1
 44
0.0
173
     0
291
     0
 45
0.0
1001
ACAD
1000
AcDbSavedByObjectVersion
1070
     0
  0
VISUALSTYLE
  5
30
102
{ACAD_REACTORS
330
2A
102
}
330
2A
100
AcDbVisualStyle
  2
3dWireframe
 70
     5
 71
     0
 72
     2
 73
     0
 90
        0
 40
-0.6
 41
-30.0
 62
     5
 63
     7
 74
     1
 91
        4
 64
     7
 65
   257
 75
     1
175
     1
 42
1.0
 92
        0
 66
   257
 43
1.0
 76
     1
 77
     6
 78
     2
 67
     7
 79
     5
170
     0
171
     0
290
     0
174
     0
 93
        1
 44
0.0
173
     0
291
     0
 45
0.0
1001
ACAD
1000
AcDbSavedByObjectVersion
1070
     0
  0
VISUALSTYLE
  5
32
102
{ACAD_REACTORS
330
2A
102
}
330
2A
100
AcDbVisualStyle
  2
Basic
 70
     7
 71
     1
 72
     0
 73
     1
 90
        0
 40
-0.6
 41
-30.0
 62
     5
 63
     7
 74
     0
 91
        4
 64
     7
 65
   257
 75
     1
175
     1
 42
1.0
 92
        8
 66
     7
 43
1.0
 76
     1
 77
     6
 78
     2
 67
     7
 79
     5
170
     0
171
     0
290
     0
174
     0
 93
        1
 44
0.0
173
     0
291
     1
 45
0.0
1001
ACAD
1000
AcDbSavedByObjectVersion
1070
     0
  0
VISUALSTYLE
  5
36
102
{ACAD_REACTORS
330
2A
102
}
330
2A
100
AcDbVisualStyle
  2
Brighten
 70
    12
 71
     2
 72
     2
 73
     0
 90
        0
 40
-0.6
 41
-30.0
 62
     5
 63
     7
 74
     1
 91
        4
 64
     7
 65
   257
 75
     1
175
     1
 42
1.0
 92
        8
 66
     7
 43
1.0
 76
     1
 77
     6
 78
     2
 67
     7
 79
     5
170
     0
171
     0
290
     0
174
     0
 93
        1
 44
50.0
173
     0
291
     1
 45
0.0
1001
ACAD
1000
AcDbSavedByObjectVersion
1070
     0
  0
VISUALSTYLE
  5
3A
102
{ACAD_REACTORS
330
2A
102
}
330
2A
100
AcDbVisualStyle
  2
ColorChange
 70
    16
 71
     2
 72
     2
 73
     3
 90
        0
 40
-0.6
 41
-30.0
 62
     5
 63
     8
 74
     1
 91
        4
 64
     7
 65
   257
 75
     1
175
     1
 42
1.0
 92
        8
 66
     8
 43
1.0
 76
     1
 77
     6
 78
     2
 67
     7
 79
     5
170
     0
171
     0
290
     0
174
     0
 93
        1
 44
0.0
173
     0
291
     1
 45
0.0
1001
ACAD
1000
AcDbSavedByObjectVersion
1070
     0
  0
VISUALSTYLE
  5
34
102
{ACAD_REACTORS
330
2A
102
}
330
2A
100
AcDbVisualStyle
  2
Conceptual
 70
     9
 71
     3
 72
     2
 73
     0
 90
        0
 40
-0.6
 41
-30.0
 62
     5
 63
     7
 74
     2
 91
        2
 64
     7
 65
   257
 75
     1
175
     1
 42
40.0
 92
        8
 66
     7
 43
1.0
 76
     1
 77
     6
 78
     2
 67
     7
 79
     3
170
     0
171
     0
290
     0
174
     0
 93
        1
 44
0.0
173
     0
291
     0
 45
0.0
1001
ACAD
1000
AcDbSavedByObjectVersion
1070
     0
  0
VISUALSTYLE
  5
35
102
{ACAD_REACTORS
330
2A
102
}
330
2A
100
AcDbVisualStyle
  2
Dim
 70
    11
 71
     2
 72
     2
 73
     0
 90
        0
 40
-0.6
 41
-30.0
 62
     5
 63
     7
 74
     1
 91
        4
 64
     7
 65
   257
 75
     1
175
     1
 42
1.0
 92
        8
 66
     7
 43
1.0
 76
     1
 77
     6
 78
     2
 67
     7
 79
     5
170
     0
171
     0
290
     0
174
     0
 93
        1
 44
-50.0
173
     0
291
     1
 45
0.0
1001
ACAD
1000
AcDbSavedByObjectVersion
1070
     0
  0
VISUALSTYLE
  5
39
102
{ACAD_REACTORS
330
2A
102
}
330
2A
100
AcDbVisualStyle
  2
Facepattern
 70
    15
 71
     2
 72
     2
 73
     0
 90
        0
 40
-0.6
 41
-30.0
 62
     5
 63
     7
 74
     1
 91
        4
 64
     7
 65
   257
 75
     1
175
     1
 42
1.0
 92
        8
 66
     7
 43
1.0
 76
     1
 77
     6
 78
     2
 67
     7
 79
     5
170
     0
171
     0
290
     0
174
     0
 93
        1
 44
0.0
173
     0
291
     1
 45
0.0
1001
ACAD
1000
AcDbSavedByObjectVersion
1070
     0
  0
VISUALSTYLE
  5
2B
102
{ACAD_REACTORS
330
2A
102
}
330
2A
100
AcDbVisualStyle
  2
Flat
 70
     0
 71
     2
 72
     1
 73
     1
 90
        2
 40
-0.6
 41
30.0
 62
     5
 63
     7
 74
     0
 91
        4
 64
     7
 65
   257
 75
     1
175
     1
 42
1.0
 92
        8
 66
     7
 43
1.0
 76
     1
 77
     6
 78
     2
 67
     7
 79
     5
170
     0
171
     0
290
     0
174
     0
 93
       13
 44
0.0
173
     0
291
     1
 45
0.0
1001
ACAD
1000
AcDbSavedByObjectVersion
1070
     0
  0
VISUALSTYLE
  5
2C
102
{ACAD_REACTORS
330
2A
102
}
330
2A
100
AcDbVisualStyle
  2
FlatWithEdges
 70
     1
 71
     2
 72
     1
 73
     1
 90
        2
 40
-0.6
 41
30.0
 62
     5
 63
     7
 74
     1
 91
        4
 64
     7
 65
   257
 75
     1
175
     1
 42
1.0
 92
        0
 66
   257
 43
1.0
 76
     1
 77
     6
 78
     2
 67
     7
 79
     5
170
     0
171
     0
290
     0
174
     0
 93
       13
 44
0.0
173
     0
291
     1
 45
0.0
1001
ACAD
1000
AcDbSavedByObjectVersion
1070
     0
  0
VISUALSTYLE
  5
2D
102
{ACAD_REACTORS
330
2A
102
}
330
2A
100
AcDbVisualStyle
  2
Gouraud
 70
     2
 71
     2
 72
     2
 73
     1
 90
        2
 40
-0.6
 41
30.0
 62
     5
 63
     7
 74
     0
 91
        4
 64
     7
 65
   257
 75
     1
175
     1
 42
1.0
 92
        0
 66
     7
 43
1.0
 76
     1
 77
     6
 78
     2
 67
     7
 79
     5
170
     0
171
     0
290
     0
174
     0
 93
       13
 44
0.0
173
     0
291
     1
 45
0.0
1001
ACAD
1000
AcDbSavedByObjectVersion
1070
     0
  0
VISUALSTYLE
  5
2E
102
{ACAD_REACTORS
330
2A
102
}
330
2A
100
AcDbVisualStyle
  2
GouraudWithEdges
 70
     3
 71
     2
 72
     2
 73
     1
 90
        2
 40
-0.6
 41
30.0
 62
     5
 63
     7
 74
     1
 91
        4
 64
     7
 65
   257
 75
     1
175
     1
 42
1.0
 92
        0
 66
   257
 43
1.0
 76
     1
 77
     6
 78
     2
 67
     7
 79
     5
170
     0
171
     0
290
     0
174
     0
 93
       13
 44
0.0
173
     0
291
     1
 45
0.0
1001
ACAD
1000
AcDbSavedByObjectVersion
1070
     0
  0
VISUALSTYLE
  5
38
102
{ACAD_REACTORS
330
2A
102
}
330
2A
100
AcDbVisualStyle
  2
Linepattern
 70
    14
 71
     2
 72
     2
 73
     0
 90
        0
 40
-0.6
 41
-30.0
 62
     5
 63
     7
 74
     1
 91
        4
 64
     7
 65
   257
 75
     7
175
     7
 42
1.0
 92
        8
 66
     7
 43
1.0
 76
     1
 77
     6
 78
     2
 67
     7
 79
     5
170
     0
171
     0
290
     0
174
     0
 93
        1
 44
0.0
173
     0
291
     1
 45
0.0
1001
ACAD
1000
AcDbSavedByObjectVersion
1070
     0
  0
VISUALSTYLE
  5
33
102
{ACAD_REACTORS
330
2A
102
}
330
2A
100
AcDbVisualStyle
  2
Realistic
 70
     8
 71
     2
 72
     2
 73
     0
 90
        0
 40
-0.6
 41
-30.0
 62
     5
 63
     7
 74
     1
 91
        0
 64
     7
 65
   257
 75
     1
175
     1
 42
1.0
 92
        8
 66
     8
 43
1.0
 76
     1
 77
     6
 78
     2
 67
     7
 79
     5
170
     0
171
     0
290
     0
174
     0
 93
       13
 44
0.0
173
     0
291
     0
 45
0.0
1001
ACAD
1000
AcDbSavedByObjectVersion
1070
     0
  0
VISUALSTYLE
  5
37
102
{ACAD_REACTORS
330
2A
102
}
330
2A
100
AcDbVisualStyle
  2
Thicken
 70
    13
 71
     2
 72
     2
 73
     0
 90
        0
 40
-0.6
 41
-30.0
 62
     5
 63
     7
 74
     1
 91
        4
 64
     7
 65
   257
 75
     1
175
     1
 42
1.0
 92
       12
 66
     7
 43
1.0
 76
     1
 77
     6
 78
     2
 67
     7
 79
     5
170
     0
171
     0
290
     0
174
     0
 93
        1
 44
0.0
173
     0
291
     1
 45
0.0
1001
ACAD
1000
AcDbSavedByObjectVersion
1070
     0
  0
DICTIONARYVAR
  5
13C
102
{ACAD_REACTORS
330
13B
102
}
330
13B
100
DictionaryVariables
280
     0
  1
1:1
  0
DICTIONARYVAR
  5
140
102
{ACAD_REACTORS
330
13B
102
}
330
13B
100
DictionaryVariables
280
     0
  1
80.000000
  0
DICTIONARYVAR
  5
13F
102
{ACAD_REACTORS
330
13B
102
}
330
13B
100
DictionaryVariables
280
     0
  1
5.000000
  0
ENDSEC
  0
EOF
