  0
SECTION
  2
HEADER
  9
$ACADVER
  1
AC1015
  9
$ACADMAINTVER
 70
     6
  9
$DWGCODEPAGE
  3
ANSI_1252
  9
$INSBASE
 10
0.0
 20
0.0
 30
0.0
  9
$EXTMIN
 10
0.0
 20
0.0
 30
0.0
  9
$EXTMAX
 10
3000.0
 20
4500.0
 30
0.0
  9
$LIMMIN
 10
0.0
 20
0.0
  9
$LIMMAX
 10
3000.0
 20
4500.0
  9
$ORTHOMODE
 70
     0
  9
$REGENMODE
 70
     1
  9
$FILLMODE
 70
     1
  9
$QTEXTMODE
 70
     0
  9
$MIRRTEXT
 70
     1
  9
$LTSCALE
 40
1.0
  9
$ATTMODE
 70
     1
  9
$TEXTSIZE
 40
10.0
  9
$TRACEWID
 40
1.0
  9
$TEXTSTYLE
  7
Standard
  9
$CLAYER
  8
0
  9
$CELTYPE
  6
ByLayer
  9
$CECOLOR
 62
   256
  9
$CELTSCALE
 40
1.0
  9
$DISPSILH
 70
     0
  9
$DIMSCALE
 40
1.0
  9
$DIMASZ
 40
2.5
  9
$DIMEXO
 40
0.625
  9
$DIMDLI
 40
3.75
  9
$DIMRND
 40
0.0
  9
$DIMDLE
 40
0.0
  9
$DIMEXE
 40
1.25
  9
$DIMTP
 40
0.0
  9
$DIMTM
 40
0.0
  9
$DIMTXT
 40
2.5
  9
$DIMCEN
 40
2.5
  9
$DIMTSZ
 40
0.0
  9
$DIMTOL
 70
     0
  9
$DIMLIM
 70
     0
  9
$DIMTIH
 70
     0
  9
$DIMTOH
 70
     0
  9
$DIMSE1
 70
     0
  9
$DIMSE2
 70
     0
  9
$DIMTAD
 70
     1
  9
$DIMZIN
 70
     8
  9
$DIMBLK
  1

  9
$DIMASO
 70
     1
  9
$DIMSHO
 70
     1
  9
$DIMPOST
  1

  9
$DIMAPOST
  1

  9
$DIMALT
 70
     0
  9
$DIMALTD
 70
     3
  9
$DIMALTF
 40
0.0393700787
  9
$DIMLFAC
 40
1.0
  9
$DIMTOFL
 70
     1
  9
$DIMTVP
 40
0.0
  9
$DIMTIX
 70
     0
  9
$DIMSOXD
 70
     0
  9
$DIMSAH
 70
     0
  9
$DIMBLK1
  1

  9
$DIMBLK2
  1

  9
$DIMSTYLE
  2
ISO-25
  9
$DIMCLRD
 70
     0
  9
$DIMCLRE
 70
     0
  9
$DIMCLRT
 70
     0
  9
$DIMTFAC
 40
1.0
  9
$DIMGAP
 40
0.625
  9
$DIMJUST
 70
     0
  9
$DIMSD1
 70
     0
  9
$DIMSD2
 70
     0
  9
$DIMTOLJ
 70
     0
  9
$DIMTZIN
 70
     8
  9
$DIMALTZ
 70
     0
  9
$DIMALTTZ
 70
     0
  9
$DIMUPT
 70
     0
  9
$DIMDEC
 70
     2
  9
$DIMTDEC
 70
     2
  9
$DIMALTU
 70
     2
  9
$DIMALTTD
 70
     3
  9
$DIMTXSTY
  7
Standard
  9
$DIMAUNIT
 70
     0
  9
$DIMADEC
 70
     0
  9
$DIMALTRND
 40
0.0
  9
$DIMAZIN
 70
     0
  9
$DIMDSEP
 70
    44
  9
$DIMATFIT
 70
     3
  9
$DIMFRAC
 70
     0
  9
$DIMLDRBLK
  1

  9
$DIMLUNIT
 70
     2
  9
$DIMLWD
 70
    -2
  9
$DIMLWE
 70
    -2
  9
$DIMTMOVE
 70
     0
  9
$LUNITS
 70
     2
  9
$LUPREC
 70
     4
  9
$SKETCHINC
 40
1.0
  9
$FILLETRAD
 40
10.0
  9
$AUNITS
 70
     0
  9
$AUPREC
 70
     0
  9
$MENU
  1
.
  9
$ELEVATION
 40
0.0
  9
$PELEVATION
 40
0.0
  9
$THICKNESS
 40
0.0
  9
$LIMCHECK
 70
     0
  9
$CHAMFERA
 40
0.0
  9
$CHAMFERB
 40
0.0
  9
$CHAMFERC
 40
0.0
  9
$CHAMFERD
 40
0.0
  9
$SKPOLY
 70
     0
  9
$TDCREATE
 40
2457247.414333854
  9
$TDUCREATE
 40
2457247.331000521
  9
$TDUPDATE
 40
2457247.414338183
  9
$TDUUPDATE
 40
2457247.33100485
  9
$TDINDWG
 40
0.0000000116
  9
$TDUSRTIMER
 40
0.0000000116
  9
$USRTIMER
 70
     1
  9
$ANGBASE
 50
0.0
  9
$ANGDIR
 70
     0
  9
$PDMODE
 70
     0
  9
$PDSIZE
 40
0.0
  9
$PLINEWID
 40
0.0
  9
$SPLFRAME
 70
     0
  9
$SPLINETYPE
 70
     6
  9
$SPLINESEGS
 70
     8
  9
$HANDSEED
  5
20F
  9
$SURFTAB1
 70
     6
  9
$SURFTAB2
 70
     6
  9
$SURFTYPE
 70
     6
  9
$SURFU
 70
     6
  9
$SURFV
 70
     6
  9
$UCSBASE
  2

  9
$UCSNAME
  2

  9
$UCSORG
 10
0.0
 20
0.0
 30
0.0
  9
$UCSXDIR
 10
1.0
 20
0.0
 30
0.0
  9
$UCSYDIR
 10
0.0
 20
1.0
 30
0.0
  9
$UCSORTHOREF
  2

  9
$UCSORTHOVIEW
 70
     0
  9
$UCSORGTOP
 10
0.0
 20
0.0
 30
0.0
  9
$UCSORGBOTTOM
 10
0.0
 20
0.0
 30
0.0
  9
$UCSORGLEFT
 10
0.0
 20
0.0
 30
0.0
  9
$UCSORGRIGHT
 10
0.0
 20
0.0
 30
0.0
  9
$UCSORGFRONT
 10
0.0
 20
0.0
 30
0.0
  9
$UCSORGBACK
 10
0.0
 20
0.0
 30
0.0
  9
$PUCSBASE
  2

  9
$PUCSNAME
  2

  9
$PUCSORG
 10
0.0
 20
0.0
 30
0.0
  9
$PUCSXDIR
 10
1.0
 20
0.0
 30
0.0
  9
$PUCSYDIR
 10
0.0
 20
1.0
 30
0.0
  9
$PUCSORTHOREF
  2

  9
$PUCSORTHOVIEW
 70
     0
  9
$PUCSORGTOP
 10
0.0
 20
0.0
 30
0.0
  9
$PUCSORGBOTTOM
 10
0.0
 20
0.0
 30
0.0
  9
$PUCSORGLEFT
 10
0.0
 20
0.0
 30
0.0
  9
$PUCSORGRIGHT
 10
0.0
 20
0.0
 30
0.0
  9
$PUCSORGFRONT
 10
0.0
 20
0.0
 30
0.0
  9
$PUCSORGBACK
 10
0.0
 20
0.0
 30
0.0
  9
$USERI1
 70
     0
  9
$USERI2
 70
     0
  9
$USERI3
 70
     0
  9
$USERI4
 70
     0
  9
$USERI5
 70
     0
  9
$USERR1
 40
0.0
  9
$USERR2
 40
0.0
  9
$USERR3
 40
0.0
  9
$USERR4
 40
0.0
  9
$USERR5
 40
0.0
  9
$WORLDVIEW
 70
     1
  9
$SHADEDGE
 70
     3
  9
$SHADEDIF
 70
    70
  9
$TILEMODE
 70
     1
  9
$MAXACTVP
 70
    64
  9
$PINSBASE
 10
0.0
 20
0.0
 30
0.0
  9
$PLIMCHECK
 70
     0
  9
$PEXTMIN
 10
0.0
 20
0.0
 30
0.0
  9
$PEXTMAX
 10
3000.0
 20
4500.0
 30
0.0
  9
$PLIMMIN
 10
0.0
 20
0.0
  9
$PLIMMAX
 10
3000.0
 20
4500.0
  9
$UNITMODE
 70
     0
  9
$VISRETAIN
 70
     1
  9
$PLINEGEN
 70
     0
  9
$PSLTSCALE
 70
     1
  9
$TREEDEPTH
 70
  3020
  9
$CMLSTYLE
  2
Standard
  9
$CMLJUST
 70
     0
  9
$CMLSCALE
 40
20.0
  9
$PROXYGRAPHICS
 70
     1
  9
$MEASUREMENT
 70
     1
  9
$CELWEIGHT
370
    -1
  9
$ENDCAPS
280
     0
  9
$JOINSTYLE
280
     0
  9
$LWDISPLAY
290
     0
  9
$INSUNITS
 70
     4
  9
$HYPERLINKBASE
  1

  9
$STYLESHEET
  1

  9
$XEDIT
290
     1
  9
$CEPSNTYPE
380
     0
  9
$PSTYLEMODE
290
     1
  9
$FINGERPRINTGUID
  2
{E609AD05-7BE1-4A4D-9F9C-EF244EF9E292}
  9
$VERSIONGUID
  2
{FAEB1C32-E019-11D5-929B-00C0DF256EC4}
  9
$EXTNAMES
290
     1
  9
$PSVPSCALE
 40
0.0
  9
$OLESTARTUP
290
     0
  0
ENDSEC
  0
SECTION
  2
CLASSES
  0
CLASS
  1
ACDBDICTIONARYWDFLT
  2
AcDbDictionaryWithDefault
  3
ObjectDBX Classes
 90
        0
280
     0
281
     0
  0
CLASS
  1
VISUALSTYLE
  2
AcDbVisualStyle
  3
ObjectDBX Classes
 90
     4095
280
     0
281
     0
  0
CLASS
  1
MATERIAL
  2
AcDbMaterial
  3
ObjectDBX Classes
 90
     1153
280
     0
281
     0
  0
CLASS
  1
SCALE
  2
AcDbScale
  3
ObjectDBX Classes
 90
     1153
280
     0
281
     0
  0
CLASS
  1
SUN
  2
AcDbSun
  3
SCENEOE
 90
     1153
280
     0
281
     0
  0
CLASS
  1
DICTIONARYVAR
  2
AcDbDictionaryVar
  3
ObjectDBX Classes
 90
        0
280
     0
281
     0
  0
CLASS
  1
ACDBPLACEHOLDER
  2
AcDbPlaceHolder
  3
ObjectDBX Classes
 90
        0
280
     0
281
     0
  0
CLASS
  1
LAYOUT
  2
AcDbLayout
  3
ObjectDBX Classes
 90
        0
280
     0
281
     0
  0
ENDSEC
  0
SECTION
  2
TABLES
  0
TABLE
  2
VPORT
  5
8
330
0
100
AcDbSymbolTable
 70
     1
  0
VPORT
  5
29
330
8
100
AcDbSymbolTableRecord
100
AcDbViewportTableRecord
  2
*Active
 70
     0
 10
0.0
 20
0.0
 11
1.0
 21
1.0
 12
344.1869158879
 22
148.5
 13
0.0
 23
0.0
 14
10.0
 24
10.0
 15
10.0
 25
10.0
 16
0.0
 26
0.0
 36
1.0
 17
0.0
 27
0.0
 37
0.0
 40
297.0
 41
1.9729729729
 42
50.0
 43
0.0
 44
0.0
 50
0.0
 51
0.0
 71
     0
 72
   100
 73
     1
 74
     3
 75
     0
 76
     0
 77
     0
 78
     0
281
     0
 65
     1
110
0.0
120
0.0
130
0.0
111
1.0
121
0.0
131
0.0
112
0.0
122
1.0
132
0.0
 79
     0
146
0.0
  0
ENDTAB
  0
TABLE
  2
LTYPE
  5
5
330
0
100
AcDbSymbolTable
 70
     2
  0
LTYPE
  5
14
330
5
100
AcDbSymbolTableRecord
100
AcDbLinetypeTableRecord
  2
ByBlock
 70
     0
  3

 72
    65
 73
     0
 40
0.0
  0
LTYPE
  5
15
330
5
100
AcDbSymbolTableRecord
100
AcDbLinetypeTableRecord
  2
ByLayer
 70
     0
  3

 72
    65
 73
     0
 40
0.0
  0
LTYPE
  5
16
330
5
100
AcDbSymbolTableRecord
100
AcDbLinetypeTableRecord
  2
Continuous
 70
     0
  3
Solid line
 72
    65
 73
     0
 40
0.0
  0
LTYPE
  5
6D
330
5
100
AcDbSymbolTableRecord
100
AcDbLinetypeTableRecord
  2
CENTER2
 70
     0
  3
Center (.5x) ___ _ ___ _ ___ _ ___ _ ___ _ ___
 72
    65
 73
     4
 40
28.575
 49
19.05
 74
     4
 75
     0
340
0
 46
0.0
 50
0.0
 44
0.0
 45
0.0
 49
-3.175
 74
     4
 75
     0
340
0
 46
0.0
 50
0.0
 44
0.0
 45
0.0
 49
3.175
 74
     4
 75
     0
340
0
 46
0.0
 50
0.0
 44
0.0
 45
0.0
 49
-3.175
 74
     4
 75
     0
340
0
 46
0.0
 50
0.0
 44
0.0
 45
0.0
  0
ENDTAB
  0
TABLE
  2
LAYER
  5
2
330
0
100
AcDbSymbolTable
 70
     5
  0
LAYER
  5
10
330
2
100
AcDbSymbolTableRecord
100
AcDbLayerTableRecord
  2
0
 70
     0
 62
     7
  6
Continuous
370
    -3
390
F
  0
LAYER
  5
6A
330
2
100
AcDbSymbolTableRecord
100
AcDbLayerTableRecord
  2
Default
 70
     0
 62
     7
  6
Continuous
370
    -3
390
F
  0
LAYER
  5
84
330
2
100
AcDbSymbolTableRecord
100
AcDbLayerTableRecord
  2
DV1_Default
 70
     0
 62
     7
  6
Continuous
370
    -3
390
F
  0
LAYER
  5
EF
330
2
100
AcDbSymbolTableRecord
100
AcDbLayerTableRecord
  2
DV2_Default
 70
     0
 62
     7
  6
Continuous
370
    -3
390
F
  0
LAYER
  5
181
330
2
100
AcDbSymbolTableRecord
100
AcDbLayerTableRecord
  2
DV3_Default
 70
     0
 62
     7
  6
Continuous
370
    -3
390
F
  0
ENDTAB
  0
TABLE
  2
STYLE
  5
3
330
0
100
AcDbSymbolTable
 70
     2
  0
STYLE
  5
11
330
3
100
AcDbSymbolTableRecord
100
AcDbTextStyleTableRecord
  2
Standard
 70
     0
 40
0.0
 41
1.0
 50
0.0
 71
     0
 42
10.0
  3
txt
  4

  0
STYLE
  5
1CA
330
3
100
AcDbSymbolTableRecord
100
AcDbTextStyleTableRecord
  2
SEACAD_Solid_Edge_ISO
 70
     0
 40
0.0
 41
0.9
 50
0.0
 71
     0
 42
10.0
  3

  4

1001
ACAD
1000
Solid Edge ISO
1071
        0
  0
ENDTAB
  0
TABLE
  2
VIEW
  5
6
330
0
100
AcDbSymbolTable
 70
     0
  0
ENDTAB
  0
TABLE
  2
UCS
  5
7
330
0
100
AcDbSymbolTable
 70
     0
  0
ENDTAB
  0
TABLE
  2
APPID
  5
9
330
0
100
AcDbSymbolTable
 70
     1
  0
APPID
  5
12
330
9
100
AcDbSymbolTableRecord
100
AcDbRegAppTableRecord
  2
ACAD
 70
     0
  0
ENDTAB
  0
TABLE
  2
DIMSTYLE
  5
A
330
0
100
AcDbSymbolTable
 70
     1
100
AcDbDimStyleTable
  0
DIMSTYLE
105
27
330
A
100
AcDbSymbolTableRecord
100
AcDbDimStyleTableRecord
  2
ISO-25
 70
     0
 41
2.5
 42
0.625
 43
3.75
 44
1.25
 73
     0
 74
     0
 77
     1
 78
     8
140
2.5
141
2.5
143
0.0393700787
147
0.625
171
     3
172
     1
178
     0
271
     2
272
     2
274
     3
278
    44
283
     0
284
     8
340
11
  0
ENDTAB
  0
TABLE
  2
BLOCK_RECORD
  5
1
330
0
100
AcDbSymbolTable
 70
     7
  0
BLOCK_RECORD
  5
1F
330
1
100
AcDbSymbolTableRecord
100
AcDbBlockTableRecord
  2
*Model_Space
340
22
  0
BLOCK_RECORD
  5
1B
330
1
100
AcDbSymbolTableRecord
100
AcDbBlockTableRecord
  2
*Paper_Space
340
1E
  0
BLOCK_RECORD
  5
6B
330
1
100
AcDbSymbolTableRecord
100
AcDbBlockTableRecord
  2
SEANNOT_GROUP
340
0
102
{BLKREFS
331
6C
102
}
  0
BLOCK_RECORD
  5
76
330
1
100
AcDbSymbolTableRecord
100
AcDbBlockTableRecord
  2
SEANNOT_GROUP1
340
0
102
{BLKREFS
331
77
102
}
  0
BLOCK_RECORD
  5
7C
330
1
100
AcDbSymbolTableRecord
100
AcDbBlockTableRecord
  2
SEANNOT_GROUP2
340
0
102
{BLKREFS
331
7D
102
}
  0
BLOCK_RECORD
  5
82
330
1
100
AcDbSymbolTableRecord
100
AcDbBlockTableRecord
  2
SE
340
0
102
{BLKREFS
331
83
102
}
  0
BLOCK_RECORD
  5
ED
330
1
100
AcDbSymbolTableRecord
100
AcDbBlockTableRecord
  2
SE1
340
0
102
{BLKREFS
331
EE
102
}
  0
BLOCK_RECORD
  5
17F
330
1
100
AcDbSymbolTableRecord
100
AcDbBlockTableRecord
  2
SE2
340
0
102
{BLKREFS
331
180
102
}
  0
ENDTAB
  0
ENDSEC
  0
SECTION
  2
BLOCKS
  0
BLOCK
  5
20
330
1F
100
AcDbEntity
  8
0
100
AcDbBlockBegin
  2
*Model_Space
 70
     0
 10
0.0
 20
0.0
 30
0.0
  3
*Model_Space
  1
*Model_Space
  0
ENDBLK
  5
21
330
1F
100
AcDbEntity
  8
0
100
AcDbBlockEnd
  0
BLOCK
  5
1C
330
1B
100
AcDbEntity
 67
     1
  8
0
100
AcDbBlockBegin
  2
*Paper_Space
 70
     0
 10
0.0
 20
0.0
 30
0.0
  3
*Paper_Space
  1
*Paper_Space
  0
ENDBLK
  5
1D
330
1B
100
AcDbEntity
 67
     1
  8
0
100
AcDbBlockEnd
  0
BLOCK
  5
74
330
6B
100
AcDbEntity
  8
0
100
AcDbBlockBegin
  2
SEANNOT_GROUP
 70
     0
 10
0.0
 20
0.0
 30
0.0
  3
SEANNOT_GROUP
  1
SEANNOT_GROUP
  0
LINE
  5
6E
330
6B
100
AcDbEntity
  8
Default
  6
CENTER2
 62
     7
100
AcDbLine
 10
111.349999553
 20
351.3088471529
 30
0.0
 11
71.350000447
 21
351.3088471529
 31
0.0
  0
LINE
  5
6F
330
6B
100
AcDbEntity
  8
Default
  6
CENTER2
 62
     7
100
AcDbLine
 10
91.35
 20
371.3088467059
 30
0.0
 11
91.35
 21
331.3088475999
 31
0.0
  0
LINE
  5
70
330
6B
100
AcDbEntity
  8
Default
  6
CENTER2
 62
     7
100
AcDbLine
 10
116.3499985099
 20
351.3088471529
 30
0.0
 11
179.85
 21
351.3088471529
 31
0.0
  0
LINE
  5
71
330
6B
100
AcDbEntity
  8
Default
  6
CENTER2
 62
     7
100
AcDbLine
 10
91.35
 20
376.3088456628
 30
0.0
 11
91.35
 21
439.8088471529
 31
0.0
  0
LINE
  5
72
330
6B
100
AcDbEntity
  8
Default
  6
CENTER2
 62
     7
100
AcDbLine
 10
66.3500014901
 20
351.3088471529
 30
0.0
 11
2.85
 21
351.3088471529
 31
0.0
  0
LINE
  5
73
330
6B
100
AcDbEntity
  8
Default
  6
CENTER2
 62
     7
100
AcDbLine
 10
91.35
 20
326.308848643
 30
0.0
 11
91.35
 21
262.8088471529
 31
0.0
  0
ENDBLK
  5
75
330
6B
100
AcDbEntity
  8
0
100
AcDbBlockEnd
  0
BLOCK
  5
7A
330
76
100
AcDbEntity
  8
0
100
AcDbBlockBegin
  2
SEANNOT_GROUP1
 70
     0
 10
0.0
 20
0.0
 30
0.0
  3
SEANNOT_GROUP1
  1
SEANNOT_GROUP1
  0
LINE
  5
78
330
76
100
AcDbEntity
  8
Default
  6
CENTER2
 62
     7
100
AcDbLine
 10
111.349999553
 20
205.0533532717
 30
0.0
 11
71.350000447
 21
205.0533532717
 31
0.0
  0
LINE
  5
79
330
76
100
AcDbEntity
  8
Default
  6
CENTER2
 62
     7
100
AcDbLine
 10
91.35
 20
225.0533528247
 30
0.0
 11
91.35
 21
185.0533537188
 31
0.0
  0
ENDBLK
  5
7B
330
76
100
AcDbEntity
  8
0
100
AcDbBlockEnd
  0
BLOCK
  5
80
330
7C
100
AcDbEntity
  8
0
100
AcDbBlockBegin
  2
SEANNOT_GROUP2
 70
     0
 10
0.0
 20
0.0
 30
0.0
  3
SEANNOT_GROUP2
  1
SEANNOT_GROUP2
  0
LINE
  5
7E
330
7C
100
AcDbEntity
  8
Default
  6
CENTER2
 62
     7
100
AcDbLine
 10
255.4721568906
 20
351.3088471529
 30
0.0
 11
215.4721577846
 21
351.3088471529
 31
0.0
  0
LINE
  5
7F
330
7C
100
AcDbEntity
  8
Default
  6
CENTER2
 62
     7
100
AcDbLine
 10
235.4721573376
 20
371.3088467059
 30
0.0
 11
235.4721573376
 21
331.3088475999
 31
0.0
  0
ENDBLK
  5
81
330
7C
100
AcDbEntity
  8
0
100
AcDbBlockEnd
  0
BLOCK
  5
EB
330
82
100
AcDbEntity
  8
0
100
AcDbBlockBegin
  2
SE
 70
     0
 10
0.0
 20
0.0
 30
0.0
  3
SE
  1
SE
  0
ARC
  5
85
330
82
100
AcDbEntity
  8
DV1_Default
  6
Continuous
 62
     7
100
AcDbCircle
 10
91.35
 20
351.3088471529
 30
0.0
 40
27.35
100
AcDbArc
 50
0.0
 51
216.616960479
  0
ARC
  5
86
330
82
100
AcDbEntity
  8
DV1_Default
  6
Continuous
 62
     7
100
AcDbCircle
 10
91.35
 20
351.3088471529
 30
0.0
 40
27.35
100
AcDbArc
 50
323.3319837959
 51
0.0
  0
ARC
  5
87
330
82
100
AcDbEntity
  8
DV1_Default
  6
Continuous
 62
     7
100
AcDbCircle
 10
91.35
 20
351.3088471529
 30
0.0
 40
29.78309232481
100
AcDbArc
 50
0.0
 51
223.2137187524
  0
ARC
  5
88
330
82
100
AcDbEntity
  8
DV1_Default
  6
Continuous
 62
     7
100
AcDbCircle
 10
91.35
 20
351.3088471529
 30
0.0
 40
29.78309232481
100
AcDbArc
 50
316.771330902
 51
0.0
  0
ARC
  5
89
330
82
100
AcDbEntity
  8
DV1_Default
  6
Continuous
 62
     7
100
AcDbCircle
 10
51.4779799603
 20
351.307199618
 30
0.0
 40
6.478471768341642
100
AcDbArc
 50
0.0145708436
 51
179.9854291564
  0
ARC
  5
8A
330
82
100
AcDbEntity
  8
DV1_Default
  6
Continuous
 62
     7
100
AcDbCircle
 10
131.2323960118
 20
351.307119461
 30
0.0
 40
6.811741177621056
100
AcDbArc
 50
0.0145321809
 51
179.9854678192
  0
ARC
  5
8B
330
82
100
AcDbEntity
  8
DV1_Default
  6
Continuous
 62
     7
100
AcDbCircle
 10
91.35
 20
351.3088471529
 30
0.0
 40
83.47419928826
100
AcDbArc
 50
0.0
 51
262.1614698997
  0
ARC
  5
8C
330
82
100
AcDbEntity
  8
DV1_Default
  6
Continuous
 62
     7
100
AcDbCircle
 10
91.35
 20
351.3088471529
 30
0.0
 40
83.47419928826
100
AcDbArc
 50
277.7926235144
 51
0.0
  0
ARC
  5
8D
330
82
100
AcDbEntity
  8
DV1_Default
  6
Continuous
 62
     7
100
AcDbCircle
 10
131.2323960118
 20
351.310577288
 30
0.0
 40
6.811741178241169
100
AcDbArc
 50
180.0145527313
 51
359.9854472688
  0
ARC
  5
8E
330
82
100
AcDbEntity
  8
DV1_Default
  6
Continuous
 62
     7
100
AcDbCircle
 10
51.4779799603
 20
351.310494873
 30
0.0
 40
6.478471768388751
100
AcDbArc
 50
180.0145724817
 51
359.9854275183
  0
SPLINE
  5
8F
330
82
100
AcDbEntity
  8
DV1_Default
  6
Continuous
 62
     7
100
AcDbSpline
210
0.0
220
0.0
230
1.0
 70
    12
 71
     3
 72
    29
 73
    25
 74
     0
 42
0.000000001
 43
0.0000000001
 40
0.0
 40
0.0
 40
0.0
 40
0.0
 40
0.042013274250865
 40
0.0880435669759288
 40
0.1337485802077858
 40
0.1793401121999484
 40
0.2251109716729568
 40
0.2714809342712607
 40
0.3189225155089357
 40
0.3677622273324341
 40
0.4181051811928421
 40
0.4698198744117266
 40
0.5223399790539514
 40
0.5751816974991192
 40
0.6281493916113559
 40
0.6810668633009404
 40
0.7337198441417282
 40
0.785034760743441
 40
0.8328046389544657
 40
0.8758234595401656
 40
0.914316099533724
 40
0.9485998237560209
 40
0.9790036830198348
 40
1.0
 40
1.0
 40
1.0
 40
1.0
 10
57.47446247112001
 20
351.3088471529243
 30
0.0
 41
1.042276651534701
 10
57.47444999455273
 20
351.0455073549941
 30
0.0
 41
1.042276651534701
 10
57.43791639266137
 20
350.493152724708
 30
0.0
 41
1.042276651534701
 10
57.26702537306512
 20
349.6699170659386
 30
0.0
 41
1.042276651534701
 10
56.97184357558299
 20
348.8586396973377
 30
0.0
 41
1.042276651534701
 10
56.56441325064605
 20
348.0995201906398
 30
0.0
 41
1.042276651534701
 10
56.05004938216151
 20
347.403262136941
 30
0.0
 41
1.042276651534701
 10
55.43240610083046
 20
346.7803407500493
 30
0.0
 41
1.042276651534701
 10
54.71449835373102
 20
346.243385216853
 30
0.0
 41
1.042276651534701
 10
53.90180868810692
 20
345.8089992204162
 30
0.0
 41
1.042276651534701
 10
53.00615021963512
 20
345.4971728346671
 30
0.0
 41
1.042276651534701
 10
52.04940238316092
 20
345.3283023847601
 30
0.0
 41
1.042276651534701
 10
51.06230000526041
 20
345.3174488184341
 30
0.0
 41
1.042276651534701
 10
50.07926201390081
 20
345.4704991731236
 30
0.0
 41
1.042276651534701
 10
49.13285763282208
 20
345.7847300717707
 30
0.0
 41
1.042276651534701
 10
48.25269951627598
 20
346.2505800555749
 30
0.0
 41
1.042276651534701
 10
47.46984385540302
 20
346.84882276164
 30
0.0
 41
1.042276651534701
 10
46.81697022279491
 20
347.542536321243
 30
0.0
 41
1.042276651534701
 10
46.31390336894128
 20
348.2785655974745
 30
0.0
 41
1.042276651534701
 10
45.95622546519846
 20
349.0058082381673
 30
0.0
 41
1.042276651534701
 10
45.72170584170167
 20
349.6922797565958
 30
0.0
 41
1.042276651534701
 10
45.5838558006914
 20
350.3234626794984
 30
0.0
 41
1.042276651534701
 10
45.52309038712637
 20
350.8562647443402
 30
0.0
 41
1.042276651534701
 10
45.51250900720493
 20
351.1776077190932
 30
0.0
 41
1.042276651534701
 10
45.51250854056001
 20
351.3088471528953
 30
0.0
 41
1.042276651534701
  0
SPLINE
  5
90
330
82
100
AcDbEntity
  8
DV1_Default
  6
Continuous
 62
     7
100
AcDbSpline
210
0.0
220
0.0
230
1.0
 70
    12
 71
     3
 72
    30
 73
    26
 74
     0
 42
0.000000001
 43
0.0000000001
 40
0.0
 40
0.0
 40
0.0
 40
0.0
 40
0.0177744702792338
 40
0.0445641205230043
 40
0.0744414399085514
 40
0.1078697746032241
 40
0.1453039927246337
 40
0.1871954541594788
 40
0.233702379318076
 40
0.2834862862004378
 40
0.3348688662407572
 40
0.3868424864403938
 40
0.4387550332318831
 40
0.4903949383748556
 40
0.5416493794047941
 40
0.592029767447701
 40
0.6410196720538801
 40
0.6885702113685609
 40
0.734833097259247
 40
0.7801332655406428
 40
0.8249012311939146
 40
0.8695190643480537
 40
0.9142483146573369
 40
0.959299305772502
 40
1.0
 40
1.0
 40
1.0
 40
1.0
 10
45.51250854056001
 20
351.3088471528953
 30
0.0
 41
1.042277074075504
 10
45.51250939233461
 20
351.4199519237889
 30
0.0
 41
1.042277074075504
 10
45.5202754178273
 20
351.6985536169324
 30
0.0
 41
1.042277074075504
 10
45.56574639689562
 20
352.1620932655192
 30
0.0
 41
1.042277074075504
 10
45.67039577589208
 20
352.7161950730271
 30
0.0
 41
1.042277074075504
 10
45.84832887243133
 20
353.321337883428
 30
0.0
 41
1.042277074075504
 10
46.12153274628399
 20
353.9727014139825
 30
0.0
 41
1.042277074075504
 10
46.5145557003669
 20
354.6565763099196
 30
0.0
 41
1.042277074075504
 10
47.04625273742184
 20
355.3411952664165
 30
0.0
 41
1.042277074075504
 10
47.71856654373243
 20
355.979343857888
 30
0.0
 41
1.042277074075504
 10
48.51195282756853
 20
356.5227474334745
 30
0.0
 41
1.042277074075504
 10
49.3950266641757
 20
356.9366295560707
 30
0.0
 41
1.042277074075504
 10
50.33529182826938
 20
357.2021156049217
 30
0.0
 41
1.042277074075504
 10
51.30178366655889
 20
357.311407609369
 30
0.0
 41
1.042277074075504
 10
52.2637945811254
 20
357.2642531580162
 30
0.0
 41
1.042277074075504
 10
53.18984955515846
 20
357.0682136545474
 30
0.0
 41
1.042277074075504
 10
54.05240001232413
 20
356.7388872500014
 30
0.0
 41
1.042277074075504
 10
54.8327561231179
 20
356.2957868634281
 30
0.0
 41
1.042277074075504
 10
55.52127662105253
 20
355.7571446691635
 30
0.0
 41
1.042277074075504
 10
56.11333946320775
 20
355.1379334933333
 30
0.0
 41
1.042277074075504
 10
56.60608657670716
 20
354.4497082624096
 30
0.0
 41
1.042277074075504
 10
56.99591852443329
 20
353.7023447117584
 30
0.0
 41
1.042277074075504
 10
57.27783286403777
 20
352.9059417191978
 30
0.0
 41
1.042277074075504
 10
57.43998030555825
 20
352.1019535026081
 30
0.0
 41
1.042277074075504
 10
57.4744494304144
 20
351.5639750144993
 30
0.0
 41
1.042277074075504
 10
57.47446247112001
 20
351.3088471529243
 30
0.0
 41
1.042277074075504
  0
SPLINE
  5
91
330
82
100
AcDbEntity
  8
DV1_Default
  6
Continuous
 62
     7
100
AcDbSpline
210
0.0
220
0.0
230
1.0
 70
    12
 71
     3
 72
    32
 73
    28
 74
     0
 42
0.000000001
 43
0.0000000001
 40
0.0
 40
0.0
 40
0.0
 40
0.0
 40
0.0180233639763136
 40
0.0423808188438414
 40
0.0685602379686424
 40
0.0960381745571426
 40
0.1242853708593534
 40
0.1527696957183432
 40
0.1810699603787015
 40
0.2089627071197195
 40
0.2373229571549926
 40
0.2679699327643211
 40
0.3027378243155752
 40
0.3428418191545272
 40
0.3878370774708154
 40
0.4369039647904764
 40
0.4884460588484522
 40
0.5405076396892855
 40
0.59245564503516
 40
0.6444396425313065
 40
0.6964341025075521
 40
0.7483119643544954
 40
0.8001947953387818
 40
0.8522535393523416
 40
0.9041959571370156
 40
0.9554889400531086
 40
1.0
 40
1.0
 40
1.0
 40
1.0
 10
125.45375643529
 20
351.308847152896
 30
0.0
 41
1.042297904543942
 10
125.4537570619486
 20
351.4175305541839
 30
0.0
 41
1.042297904543942
 10
125.4610133651259
 20
351.6731311868197
 30
0.0
 41
1.042297904543942
 10
125.5003242445719
 20
352.0850243627497
 30
0.0
 41
1.042297904543942
 10
125.5821970369075
 20
352.5487458577925
 30
0.0
 41
1.042297904543942
 10
125.7089514530646
 20
353.0266164961007
 30
0.0
 41
1.042297904543942
 10
125.8818372972351
 20
353.504614569834
 30
0.0
 41
1.042297904543942
 10
126.0987622573981
 20
353.9697369468266
 30
0.0
 41
1.042297904543942
 10
126.3552410360875
 20
354.4117143343546
 30
0.0
 41
1.042297904543942
 10
126.6492748955473
 20
354.8286103105953
 30
0.0
 41
1.042297904543942
 10
126.9881250628011
 20
355.2286250342264
 30
0.0
 41
1.042297904543942
 10
127.3922391123429
 20
355.6245337644687
 30
0.0
 41
1.042297904543942
 10
127.8904200211812
 20
356.0210328309818
 30
0.0
 41
1.042297904543942
 10
128.5055704491648
 20
356.4019744040762
 30
0.0
 41
1.042297904543942
 10
129.2450691800219
 20
356.7327823246147
 30
0.0
 41
1.042297904543942
 10
130.0919236343704
 20
356.9696785041238
 30
0.0
 41
1.042297904543942
 10
131.0078544100735
 20
357.0751524085799
 30
0.0
 41
1.042297904543942
 10
131.9457554774145
 20
357.0300114965669
 30
0.0
 41
1.042297904543942
 10
132.8659773975476
 20
356.8325397700148
 30
0.0
 41
1.042297904543942
 10
133.7411459465413
 20
356.4885695314899
 30
0.0
 41
1.042297904543942
 10
134.5481307272782
 20
356.0074661627576
 30
0.0
 41
1.042297904543942
 10
135.2656487938882
 20
355.4024977909604
 30
0.0
 41
1.042297904543942
 10
135.8757591770078
 20
354.6892449273438
 30
0.0
 41
1.042297904543942
 10
136.3621753760026
 20
353.8863400765471
 30
0.0
 41
1.042297904543942
 10
136.7104363192328
 20
353.0185861639169
 30
0.0
 41
1.042297904543942
 10
136.9044203999257
 20
352.1507875742585
 30
0.0
 41
1.042297904543942
 10
136.9445446696269
 20
351.575751614886
 30
0.0
 41
1.042297904543942
 10
136.94456374207
 20
351.3088471529959
 30
0.0
 41
1.042297904543942
  0
SPLINE
  5
92
330
82
100
AcDbEntity
  8
DV1_Default
  6
Continuous
 62
     7
100
AcDbSpline
210
0.0
220
0.0
230
1.0
 70
    12
 71
     3
 72
    32
 73
    28
 74
     0
 42
0.000000001
 43
0.0000000001
 40
0.0
 40
0.0
 40
0.0
 40
0.0
 40
0.0450784393464905
 40
0.096841836334241
 40
0.1488866882995683
 40
0.2009228625956307
 40
0.2528490961549623
 40
0.3048166352333002
 40
0.3568780766052275
 40
0.4088969867367336
 40
0.4609010628149686
 40
0.513088107880965
 40
0.5646155380650639
 40
0.6134035656636471
 40
0.6579314993710388
 40
0.6974174579541793
 40
0.7315774682537024
 40
0.761833042746663
 40
0.7900390511789678
 40
0.8179934105881725
 40
0.846374762056303
 40
0.8749372434130659
 40
0.9031197062341696
 40
0.9302849175579827
 40
0.9562363158561212
 40
0.980935424251363
 40
1.0
 40
1.0
 40
1.0
 40
1.0
 10
136.94456374207
 20
351.3088471529959
 30
0.0
 41
1.042297464110975
 10
136.9445446680691
 20
351.0385306759112
 30
0.0
 41
1.042297464110975
 10
136.9034642252378
 20
350.4572211809775
 30
0.0
 41
1.042297464110975
 10
136.7057576430888
 20
349.5831636107484
 30
0.0
 41
1.042297464110975
 10
136.3532760260954
 20
348.7135194093091
 30
0.0
 41
1.042297464110975
 10
135.8636272481429
 20
347.9117149093196
 30
0.0
 41
1.042297464110975
 10
135.2505238445215
 20
347.2001383229244
 30
0.0
 41
1.042297464110975
 10
134.5297762873034
 20
346.597107897469
 30
0.0
 41
1.042297464110975
 10
133.7198446081731
 20
346.1186709932912
 30
0.0
 41
1.042297464110975
 10
132.8423375180836
 20
345.7780296422244
 30
0.0
 41
1.042297464110975
 10
131.919970472078
 20
345.5842848522021
 30
0.0
 41
1.042297464110975
 10
130.9808302267475
 20
345.5434431836297
 30
0.0
 41
1.042297464110975
 10
130.0664145942736
 20
345.6532015749124
 30
0.0
 41
1.042297464110975
 10
129.2250477191497
 20
345.8925133716078
 30
0.0
 41
1.042297464110975
 10
128.4941568521966
 20
346.2222598761971
 30
0.0
 41
1.042297464110975
 10
127.8882960338072
 20
346.5986790153079
 30
0.0
 41
1.042297464110975
 10
127.3976054500225
 20
346.9888441525303
 30
0.0
 41
1.042297464110975
 10
126.9976841047885
 20
347.3790503905806
 30
0.0
 41
1.042297464110975
 10
126.6595771256212
 20
347.7758495864851
 30
0.0
 41
1.042297464110975
 10
126.3643153732127
 20
348.1917910911628
 30
0.0
 41
1.042297464110975
 10
126.1059181656779
 20
348.6341943276968
 30
0.0
 41
1.042297464110975
 10
125.8875549419643
 20
349.0992750033164
 30
0.0
 41
1.042297464110975
 10
125.7140711800549
 20
349.5751286334403
 30
0.0
 41
1.042297464110975
 10
125.5867666004456
 20
350.0490519758728
 30
0.0
 41
1.042297464110975
 10
125.5032557156672
 20
350.5112485612516
 30
0.0
 41
1.042297464110975
 10
125.4616814046451
 20
350.9299314086441
 30
0.0
 41
1.042297464110975
 10
125.4537548846085
 20
351.1938827076832
 30
0.0
 41
1.042297464110975
 10
125.45375643529
 20
351.308847152896
 30
0.0
 41
1.042297464110975
  0
ARC
  5
93
330
82
100
AcDbEntity
  8
DV1_Default
  6
Continuous
 62
     7
100
AcDbCircle
 10
91.35
 20
351.3088471529
 30
0.0
 40
85.00000000000001
100
AcDbArc
 50
0.0
 51
264.0699520905
  0
ARC
  5
94
330
82
100
AcDbEntity
  8
DV1_Default
  6
Continuous
 62
     7
100
AcDbCircle
 10
91.35
 20
351.3088471529
 30
0.0
 40
85.00000000000001
100
AcDbArc
 50
276.0201620717
 51
0.0
  0
ARC
  5
95
330
82
100
AcDbEntity
  8
DV1_Default
  6
Continuous
 62
     7
100
AcDbCircle
 10
91.35
 20
351.3088471529
 30
0.0
 40
27.75
100
AcDbArc
 50
322.0904069428
 51
0.0
  0
ARC
  5
96
330
82
100
AcDbEntity
  8
DV1_Default
  6
Continuous
 62
     7
100
AcDbCircle
 10
91.35
 20
351.3088471529
 30
0.0
 40
27.75
100
AcDbArc
 50
0.0
 51
217.8949046221
  0
CIRCLE
  5
97
330
82
100
AcDbEntity
  8
DV1_Default
  6
Continuous
 62
     7
100
AcDbCircle
 10
51.35
 20
351.3088471529
 30
0.0
 40
3.75
  0
LINE
  5
98
330
82
100
AcDbEntity
  8
DV1_Default
  6
Continuous
 62
     7
100
AcDbLine
 10
49.0507972043
 20
351.8088471529
 30
0.0
 11
50.2611247947
 21
351.8088471529
 31
0.0
  0
ARC
  5
99
330
82
100
AcDbEntity
  8
DV1_Default
  6
Continuous
 62
     7
100
AcDbCircle
 10
50.257783984
 20
352.4010631689
 30
0.0
 40
0.5922254390015623
100
AcDbArc
 50
270.3232136883
 51
359.6767863117
  0
LINE
  5
9A
330
82
100
AcDbEntity
  8
DV1_Default
  6
Continuous
 62
     7
100
AcDbLine
 10
50.85
 20
352.3977223582
 30
0.0
 11
50.85
 21
353.6080499486
 31
0.0
  0
ARC
  5
9B
330
82
100
AcDbEntity
  8
DV1_Default
  6
Continuous
 62
     7
100
AcDbCircle
 10
51.35
 20
333.42320468
 30
0.0
 40
20.19103708372609
100
AcDbArc
 50
88.5810130307
 51
91.4189869693
  0
LINE
  5
9C
330
82
100
AcDbEntity
  8
DV1_Default
  6
Continuous
 62
     7
100
AcDbLine
 10
51.85
 20
353.6080499486
 30
0.0
 11
51.85
 21
352.3977223582
 31
0.0
  0
ARC
  5
9D
330
82
100
AcDbEntity
  8
DV1_Default
  6
Continuous
 62
     7
100
AcDbCircle
 10
52.4422947707
 20
352.4011419236
 30
0.0
 40
0.59230464189976
100
AcDbArc
 50
180.330788821
 51
269.669211179
  0
LINE
  5
9E
330
82
100
AcDbEntity
  8
DV1_Default
  6
Continuous
 62
     7
100
AcDbLine
 10
52.4388752053
 20
351.8088471529
 30
0.0
 11
53.6492027957
 21
351.8088471529
 31
0.0
  0
ARC
  5
9F
330
82
100
AcDbEntity
  8
DV1_Default
  6
Continuous
 62
     7
100
AcDbCircle
 10
33.4643575271
 20
351.3088471529
 30
0.0
 40
20.19103708372291
100
AcDbArc
 50
358.5810130307
 51
1.4189869693
  0
ARC
  5
A0
330
82
100
AcDbEntity
  8
DV1_Default
  6
Continuous
 62
     7
100
AcDbCircle
 10
69.2356424729
 20
351.3088471529
 30
0.0
 40
20.19103708372289
100
AcDbArc
 50
178.5810130307
 51
181.4189869693
  0
LINE
  5
A1
330
82
100
AcDbEntity
  8
DV1_Default
  6
Continuous
 62
     7
100
AcDbLine
 10
50.2611247947
 20
351.8088471529
 30
0.0
 11
50.5333364645
 21
351.8088471529
 31
0.0
  0
LINE
  5
A2
330
82
100
AcDbEntity
  8
DV1_Default
  6
Continuous
 62
     7
100
AcDbLine
 10
50.85
 20
352.3977223582
 30
0.0
 11
50.85
 21
352.1255106884
 31
0.0
  0
LINE
  5
A3
330
82
100
AcDbEntity
  8
DV1_Default
  6
Continuous
 62
     7
100
AcDbLine
 10
51.85
 20
352.3977223582
 30
0.0
 11
51.85
 21
352.1255106884
 31
0.0
  0
LINE
  5
A4
330
82
100
AcDbEntity
  8
DV1_Default
  6
Continuous
 62
     7
100
AcDbLine
 10
52.4388752053
 20
351.8088471529
 30
0.0
 11
52.1666635355
 21
351.8088471529
 31
0.0
  0
LINE
  5
A5
330
82
100
AcDbEntity
  8
DV1_Default
  6
Continuous
 62
     7
100
AcDbLine
 10
50.85
 20
349.0096443572
 30
0.0
 11
50.85
 21
350.2199719476
 31
0.0
  0
ARC
  5
A6
330
82
100
AcDbEntity
  8
DV1_Default
  6
Continuous
 62
     7
100
AcDbCircle
 10
50.2577052293
 20
350.2165523822
 30
0.0
 40
0.5923046418997581
100
AcDbArc
 50
0.330788821
 51
89.669211179
  0
LINE
  5
A7
330
82
100
AcDbEntity
  8
DV1_Default
  6
Continuous
 62
     7
100
AcDbLine
 10
50.2611247947
 20
350.8088471529
 30
0.0
 11
49.0507972043
 21
350.8088471529
 31
0.0
  0
LINE
  5
A8
330
82
100
AcDbEntity
  8
DV1_Default
  6
Continuous
 62
     7
100
AcDbLine
 10
53.6492027957
 20
350.8088471529
 30
0.0
 11
52.4388752053
 21
350.8088471529
 31
0.0
  0
ARC
  5
A9
330
82
100
AcDbEntity
  8
DV1_Default
  6
Continuous
 62
     7
100
AcDbCircle
 10
52.442216016
 20
350.2166311369
 30
0.0
 40
0.5922254390016211
100
AcDbArc
 50
90.3232136883
 51
179.6767863117
  0
LINE
  5
AA
330
82
100
AcDbEntity
  8
DV1_Default
  6
Continuous
 62
     7
100
AcDbLine
 10
51.85
 20
350.2199719476
 30
0.0
 11
51.85
 21
349.0096443572
 31
0.0
  0
ARC
  5
AB
330
82
100
AcDbEntity
  8
DV1_Default
  6
Continuous
 62
     7
100
AcDbCircle
 10
51.35
 20
369.1944896258
 30
0.0
 40
20.19103708372602
100
AcDbArc
 50
268.5810130307
 51
271.4189869693
  0
LINE
  5
AC
330
82
100
AcDbEntity
  8
DV1_Default
  6
Continuous
 62
     7
100
AcDbLine
 10
50.85
 20
350.2199719476
 30
0.0
 11
50.85
 21
350.4921836174
 31
0.0
  0
LINE
  5
AD
330
82
100
AcDbEntity
  8
DV1_Default
  6
Continuous
 62
     7
100
AcDbLine
 10
50.2611247947
 20
350.8088471529
 30
0.0
 11
50.5333364645
 21
350.8088471529
 31
0.0
  0
LINE
  5
AE
330
82
100
AcDbEntity
  8
DV1_Default
  6
Continuous
 62
     7
100
AcDbLine
 10
51.85
 20
350.2199719476
 30
0.0
 11
51.85
 21
350.4921836174
 31
0.0
  0
LINE
  5
AF
330
82
100
AcDbEntity
  8
DV1_Default
  6
Continuous
 62
     7
100
AcDbLine
 10
52.4388752053
 20
350.8088471529
 30
0.0
 11
52.1666635355
 21
350.8088471529
 31
0.0
  0
CIRCLE
  5
B0
330
82
100
AcDbEntity
  8
DV1_Default
  6
Continuous
 62
     7
100
AcDbCircle
 10
131.35
 20
351.3088471529
 30
0.0
 40
3.75
  0
LINE
  5
B1
330
82
100
AcDbEntity
  8
DV1_Default
  6
Continuous
 62
     7
100
AcDbLine
 10
133.6492027957
 20
350.8088471529
 30
0.0
 11
132.4388752053
 21
350.8088471529
 31
0.0
  0
ARC
  5
B2
330
82
100
AcDbEntity
  8
DV1_Default
  6
Continuous
 62
     7
100
AcDbCircle
 10
132.442216016
 20
350.2166311369
 30
0.0
 40
0.5922254390015617
100
AcDbArc
 50
90.3232136883
 51
179.6767863117
  0
LINE
  5
B3
330
82
100
AcDbEntity
  8
DV1_Default
  6
Continuous
 62
     7
100
AcDbLine
 10
131.85
 20
350.2199719476
 30
0.0
 11
131.85
 21
349.0096443572
 31
0.0
  0
ARC
  5
B4
330
82
100
AcDbEntity
  8
DV1_Default
  6
Continuous
 62
     7
100
AcDbCircle
 10
131.35
 20
369.1944896258
 30
0.0
 40
20.19103708372574
100
AcDbArc
 50
268.5810130307
 51
271.4189869693
  0
LINE
  5
B5
330
82
100
AcDbEntity
  8
DV1_Default
  6
Continuous
 62
     7
100
AcDbLine
 10
130.85
 20
349.0096443572
 30
0.0
 11
130.85
 21
350.2199719476
 31
0.0
  0
ARC
  5
B6
330
82
100
AcDbEntity
  8
DV1_Default
  6
Continuous
 62
     7
100
AcDbCircle
 10
130.2577052293
 20
350.2165523822
 30
0.0
 40
0.5923046418997567
100
AcDbArc
 50
0.330788821
 51
89.669211179
  0
LINE
  5
B7
330
82
100
AcDbEntity
  8
DV1_Default
  6
Continuous
 62
     7
100
AcDbLine
 10
130.2611247947
 20
350.8088471529
 30
0.0
 11
129.0507972043
 21
350.8088471529
 31
0.0
  0
ARC
  5
B8
330
82
100
AcDbEntity
  8
DV1_Default
  6
Continuous
 62
     7
100
AcDbCircle
 10
149.2356424729
 20
351.3088471529
 30
0.0
 40
20.19103708372291
100
AcDbArc
 50
178.5810130307
 51
181.4189869693
  0
ARC
  5
B9
330
82
100
AcDbEntity
  8
DV1_Default
  6
Continuous
 62
     7
100
AcDbCircle
 10
113.4643575271
 20
351.3088471529
 30
0.0
 40
20.19103708372291
100
AcDbArc
 50
358.5810130307
 51
1.4189869693
  0
LINE
  5
BA
330
82
100
AcDbEntity
  8
DV1_Default
  6
Continuous
 62
     7
100
AcDbLine
 10
132.4388752053
 20
350.8088471529
 30
0.0
 11
132.1666635355
 21
350.8088471529
 31
0.0
  0
LINE
  5
BB
330
82
100
AcDbEntity
  8
DV1_Default
  6
Continuous
 62
     7
100
AcDbLine
 10
131.85
 20
350.2199719476
 30
0.0
 11
131.85
 21
350.4921836174
 31
0.0
  0
LINE
  5
BC
330
82
100
AcDbEntity
  8
DV1_Default
  6
Continuous
 62
     7
100
AcDbLine
 10
130.85
 20
350.2199719476
 30
0.0
 11
130.85
 21
350.4921836174
 31
0.0
  0
LINE
  5
BD
330
82
100
AcDbEntity
  8
DV1_Default
  6
Continuous
 62
     7
100
AcDbLine
 10
130.2611247947
 20
350.8088471529
 30
0.0
 11
130.5333364645
 21
350.8088471529
 31
0.0
  0
LINE
  5
BE
330
82
100
AcDbEntity
  8
DV1_Default
  6
Continuous
 62
     7
100
AcDbLine
 10
131.85
 20
353.6080499486
 30
0.0
 11
131.85
 21
352.3977223582
 31
0.0
  0
ARC
  5
BF
330
82
100
AcDbEntity
  8
DV1_Default
  6
Continuous
 62
     7
100
AcDbCircle
 10
132.4422947707
 20
352.4011419236
 30
0.0
 40
0.5923046418997635
100
AcDbArc
 50
180.330788821
 51
269.669211179
  0
LINE
  5
C0
330
82
100
AcDbEntity
  8
DV1_Default
  6
Continuous
 62
     7
100
AcDbLine
 10
132.4388752053
 20
351.8088471529
 30
0.0
 11
133.6492027957
 21
351.8088471529
 31
0.0
  0
LINE
  5
C1
330
82
100
AcDbEntity
  8
DV1_Default
  6
Continuous
 62
     7
100
AcDbLine
 10
129.0507972043
 20
351.8088471529
 30
0.0
 11
130.2611247947
 21
351.8088471529
 31
0.0
  0
ARC
  5
C2
330
82
100
AcDbEntity
  8
DV1_Default
  6
Continuous
 62
     7
100
AcDbCircle
 10
130.257783984
 20
352.4010631689
 30
0.0
 40
0.5922254390016215
100
AcDbArc
 50
270.3232136883
 51
359.6767863117
  0
LINE
  5
C3
330
82
100
AcDbEntity
  8
DV1_Default
  6
Continuous
 62
     7
100
AcDbLine
 10
130.85
 20
352.3977223582
 30
0.0
 11
130.85
 21
353.6080499486
 31
0.0
  0
ARC
  5
C4
330
82
100
AcDbEntity
  8
DV1_Default
  6
Continuous
 62
     7
100
AcDbCircle
 10
131.35
 20
333.42320468
 30
0.0
 40
20.19103708372602
100
AcDbArc
 50
88.5810130307
 51
91.4189869693
  0
LINE
  5
C5
330
82
100
AcDbEntity
  8
DV1_Default
  6
Continuous
 62
     7
100
AcDbLine
 10
131.85
 20
352.3977223582
 30
0.0
 11
131.85
 21
352.1255106884
 31
0.0
  0
LINE
  5
C6
330
82
100
AcDbEntity
  8
DV1_Default
  6
Continuous
 62
     7
100
AcDbLine
 10
132.4388752053
 20
351.8088471529
 30
0.0
 11
132.1666635355
 21
351.8088471529
 31
0.0
  0
LINE
  5
C7
330
82
100
AcDbEntity
  8
DV1_Default
  6
Continuous
 62
     7
100
AcDbLine
 10
130.85
 20
352.3977223582
 30
0.0
 11
130.85
 21
352.1255106884
 31
0.0
  0
LINE
  5
C8
330
82
100
AcDbEntity
  8
DV1_Default
  6
Continuous
 62
     7
100
AcDbLine
 10
130.2611247947
 20
351.8088471529
 30
0.0
 11
130.5333364645
 21
351.8088471529
 31
0.0
  0
ARC
  5
C9
330
82
100
AcDbEntity
  8
DV1_Default
  6
Continuous
 62
     7
100
AcDbCircle
 10
90.6556558998
 20
315.3040666935
 30
0.0
 40
15.23027605988831
100
AcDbArc
 50
87.3869892867
 51
122.9267190229
  0
SPLINE
  5
CA
330
82
100
AcDbEntity
  8
DV1_Default
  6
Continuous
 62
     7
100
AcDbSpline
210
0.0
220
0.0
230
1.0
 70
     8
 71
     3
 72
    30
 73
    26
 74
     0
 42
0.000000001
 43
0.0000000001
 40
0.0
 40
0.0
 40
0.0
 40
0.0
 40
0.0624999999999999
 40
0.0624999999999999
 40
0.1249999999999998
 40
0.1249999999999998
 40
0.1874999999999996
 40
0.1874999999999996
 40
0.2499999999999995
 40
0.2499999999999995
 40
0.3749999999999996
 40
0.3749999999999996
 40
0.4999999999999997
 40
0.4999999999999997
 40
0.6249999999999998
 40
0.6249999999999998
 40
0.7499999999999998
 40
0.7499999999999998
 40
0.8124999999999998
 40
0.8124999999999998
 40
0.8749999999999998
 40
0.8749999999999998
 40
0.9374999999999999
 40
0.9374999999999999
 40
1.0
 40
1.0
 40
1.0
 40
1.0
 10
82.37699665388108
 20
328.0878497779762
 30
0.0
 10
81.2545289542638
 20
327.3103224102119
 30
0.0
 10
80.29205790099196
 20
326.3140985413812
 30
0.0
 10
78.83640799753869
 20
323.9747867117628
 30
0.0
 10
78.35634279593299
 20
322.6847136269635
 30
0.0
 10
77.67237244637607
 20
320.0218684934497
 30
0.0
 10
77.4671085140664
 20
318.6588891561694
 30
0.0
 10
77.17989673323991
 20
315.9273772118889
 30
0.0
 10
77.1002862093676
 20
314.5550253046579
 30
0.0
 10
76.96412367244073
 20
310.4455154399162
 30
0.0
 10
77.00603993083523
 20
307.7108110842595
 30
0.0
 10
77.20481562046642
 20
302.2420466361932
 30
0.0
 10
77.3673391584687
 20
299.5096104037458
 30
0.0
 10
77.80136449599667
 20
294.062250208959
 30
0.0
 10
78.07235733610574
 20
291.3463086891563
 30
0.0
 10
78.7963246276827
 20
285.9341439287219
 30
0.0
 10
79.22743542977335
 20
283.2308810509689
 30
0.0
 10
80.31525823868354
 20
279.2394470899105
 30
0.0
 10
80.75166173840009
 20
277.9287963086206
 30
0.0
 10
81.96018552544248
 20
275.4537992371486
 30
0.0
 10
82.74809955142133
 20
274.2867285742946
 30
0.0
 10
84.77104200502959
 20
272.3912669792219
 30
0.0
 10
85.98445593923647
 20
271.6735717760778
 30
0.0
 10
88.6170817880219
 20
270.7350042566314
 30
0.0
 10
89.97499595689752
 20
270.5372837570525
 30
0.0
 10
91.35000149781712
 20
270.5201132209763
 30
0.0
  0
ARC
  5
CB
330
82
100
AcDbEntity
  8
DV1_Default
  6
Continuous
 62
     7
100
AcDbCircle
 10
94.0448003807
 20
319.0240326636
 30
0.0
 40
11.02571394935841
100
AcDbArc
 50
55.2917573388
 51
60.1990307841
  0
ARC
  5
CC
330
82
100
AcDbEntity
  8
DV1_Default
  6
Continuous
 62
     7
100
AcDbCircle
 10
91.800943946
 20
314.1284126384
 30
0.0
 40
16.39629656594093
100
AcDbArc
 50
61.8973833783
 51
91.5759869333
  0
SPLINE
  5
CD
330
82
100
AcDbEntity
  8
DV1_Default
  6
Continuous
 62
     7
100
AcDbSpline
210
0.0
220
0.0
230
1.0
 70
     8
 71
     3
 72
    18
 73
    14
 74
     0
 42
0.000000001
 43
0.0000000001
 40
0.0
 40
0.0
 40
0.0
 40
0.0
 40
0.1427149337683159
 40
0.2706161521827177
 40
0.3811625020502965
 40
0.5275263707038476
 40
0.637863889467954
 40
0.7281237120863258
 40
0.8086797981940339
 40
0.8534823298715603
 40
0.898945456693859
 40
0.9486103677392028
 40
1.0
 40
1.0
 40
1.0
 40
1.0
 10
105.1079143756601
 20
296.6919752871663
 30
0.0
 10
104.9728283126339
 20
295.1371242410498
 30
0.0
 10
104.7142982006904
 20
292.1884649281334
 30
0.0
 10
104.2100187032432
 20
288.049485117285
 30
0.0
 10
103.5545902758338
 20
283.8887729009034
 30
0.0
 10
102.6656682471866
 20
279.9624042407068
 30
0.0
 10
101.3406669059405
 20
276.3749445904734
 30
0.0
 10
99.57736432045027
 20
273.8058607587882
 30
0.0
 10
97.7302413383393
 20
272.2852743436022
 30
0.0
 10
96.06038655841753
 20
271.4254251047836
 30
0.0
 10
94.606834789647
 20
270.9205332099565
 30
0.0
 10
93.02605706283994
 20
270.5826550165051
 30
0.0
 10
91.9150075323771
 20
270.541062701279
 30
0.0
 10
91.35000149781712
 20
270.5201132209763
 30
0.0
  0
ARC
  5
CE
330
82
100
AcDbEntity
  8
DV1_Default
  6
Continuous
 62
     7
100
AcDbCircle
 10
-70.3502264847
 20
311.1612599794
 30
0.0
 40
176.0537400729921
100
AcDbArc
 50
355.2857286922
 51
359.1544154449
  0
ARC
  5
CF
330
82
100
AcDbEntity
  8
DV1_Default
  6
Continuous
 62
     7
100
AcDbCircle
 10
49.750121176
 20
310.7947421116
 30
0.0
 40
55.97872044973437
100
AcDbArc
 50
357.7152588706
 51
10.1173237245
  0
ARC
  5
D0
330
82
100
AcDbEntity
  8
DV1_Default
  6
Continuous
 62
     7
100
AcDbCircle
 10
93.7709184213
 20
318.9955520301
 30
0.0
 40
11.20702229158221
100
AcDbArc
 50
8.3767554718
 51
54.2235370785
  0
ARC
  5
D1
330
82
100
AcDbEntity
  8
DV1_Default
  6
Continuous
 62
     7
100
AcDbCircle
 10
441.2480286083
 20
310.5625200672
 30
0.0
 40
328.9147477856455
100
AcDbArc
 50
174.8889407616
 51
176.1542346626
  0
SPLINE
  5
D2
330
82
100
AcDbEntity
  8
DV1_Default
  6
Continuous
 62
     7
100
AcDbSpline
210
0.0
220
0.0
230
1.0
 70
     8
 71
     3
 72
    24
 73
    20
 74
     0
 42
0.000000001
 43
0.0000000001
 40
0.0
 40
0.0
 40
0.0
 40
0.0
 40
0.1249999999999997
 40
0.1249999999999997
 40
0.1874999999999998
 40
0.1874999999999998
 40
0.2499999999999998
 40
0.2499999999999998
 40
0.3749999999999998
 40
0.3749999999999998
 40
0.4999999999999999
 40
0.4999999999999999
 40
0.6249999999999999
 40
0.6249999999999999
 40
0.75
 40
0.75
 40
0.875
 40
0.875
 40
1.0
 40
1.0
 40
1.0
 40
1.0
 10
113.6410825443701
 20
339.8644005792363
 30
0.0
 10
113.7027076085455
 20
340.4867897929909
 30
0.0
 10
113.7686392796578
 20
341.1023486606305
 30
0.0
 10
113.877631797184
 20
342.0123008839879
 30
0.0
 10
113.9156548501665
 20
342.3133743222889
 30
0.0
 10
113.9957300623296
 20
342.9103513886491
 30
0.0
 10
114.0378974056123
 20
343.2069715735246
 30
0.0
 10
114.1702192271422
 20
344.0790194897327
 30
0.0
 10
114.2663811131564
 20
344.6385680798016
 30
0.0
 10
114.4792630092745
 20
345.7036311106718
 30
0.0
 10
114.596302600024
 20
346.2104365931198
 30
0.0
 10
114.8556960134061
 20
347.1509185819094
 30
0.0
 10
114.9952744254229
 20
347.5730561705603
 30
0.0
 10
115.2922296928714
 20
348.3254553058521
 30
0.0
 10
115.4493599102751
 20
348.656019452215
 30
0.0
 10
115.7718623186767
 20
349.240121089078
 30
0.0
 10
115.9368068680515
 20
349.4932230538953
 30
0.0
 10
116.2610293756275
 20
349.9274158764258
 30
0.0
 10
116.4214158234984
 20
350.1099617330934
 30
0.0
 10
116.5753385621801
 20
350.2638310721433
 30
0.0
  0
ARC
  5
D3
330
82
100
AcDbEntity
  8
DV1_Default
  6
Continuous
 62
     7
100
AcDbCircle
 10
119.0745431277
 20
347.902735172
 30
0.0
 40
3.438138640312906
100
AcDbArc
 50
96.2541267623
 51
136.6276596334
  0
ARC
  5
D4
330
82
100
AcDbEntity
  8
DV1_Default
  6
Continuous
 62
     7
100
AcDbCircle
 10
-257.1052136761
 20
310.6553871842
 30
0.0
 40
327.4690740593734
100
AcDbArc
 50
3.7546859975
 51
5.1172678695
  0
SPLINE
  5
D5
330
82
100
AcDbEntity
  8
DV1_Default
  6
Continuous
 62
     7
100
AcDbSpline
210
0.0
220
0.0
230
1.0
 70
     8
 71
     3
 72
    24
 73
    20
 74
     0
 42
0.000000001
 43
0.0000000001
 40
0.0
 40
0.0
 40
0.0
 40
0.0
 40
0.1250000000000001
 40
0.1250000000000001
 40
0.2500000000000002
 40
0.2500000000000002
 40
0.3750000000000003
 40
0.3750000000000003
 40
0.5000000000000004
 40
0.5000000000000004
 40
0.6250000000000006
 40
0.6250000000000006
 40
0.7500000000000007
 40
0.7500000000000007
 40
0.8125000000000004
 40
0.8125000000000004
 40
0.8750000000000003
 40
0.8750000000000003
 40
1.0
 40
1.0
 40
1.0
 40
1.0
 10
66.12466853674007
 20
350.2637642824343
 30
0.0
 10
66.27867378202198
 20
350.1098624309208
 30
0.0
 10
66.4390820651076
 20
349.9272766503794
 30
0.0
 10
66.76329408068308
 20
349.4930660999024
 30
0.0
 10
66.92824792997047
 20
349.2399368632605
 30
0.0
 10
67.25071386351944
 20
348.6558315051635
 30
0.0
 10
67.40786520008362
 20
348.3252221823475
 30
0.0
 10
67.70481970497393
 20
347.5727653978608
 30
0.0
 10
67.84445697252772
 20
347.1503523586351
 30
0.0
 10
68.1037134630436
 20
346.210309122743
 30
0.0
 10
68.22081131405125
 20
345.7032494647194
 30
0.0
 10
68.43368495922851
 20
344.6381355646696
 30
0.0
 10
68.5298361330661
 20
344.0786829246936
 30
0.0
 10
68.66215624988689
 20
343.2065186481246
 30
0.0
 10
68.70432702494777
 20
342.9098631926781
 30
0.0
 10
68.78439806159577
 20
342.3128780970529
 30
0.0
 10
68.82241992517599
 20
342.0117938076135
 30
0.0
 10
68.93141944524808
 20
341.1018316432235
 30
0.0
 10
68.99734047372603
 20
340.4862496196644
 30
0.0
 10
69.05864367980008
 20
339.8638212409563
 30
0.0
  0
ARC
  5
D6
330
82
100
AcDbEntity
  8
DV1_Default
  6
Continuous
 62
     7
100
AcDbCircle
 10
63.6554012943
 20
347.9610650379
 30
0.0
 40
3.376344846925443
100
AcDbArc
 50
43.0008723523
 51
84.1420032261
  0
LINE
  5
D7
330
82
100
AcDbEntity
  8
DV1_Default
  6
Continuous
 62
     7
100
AcDbLine
 10
112.7773402754
 20
326.9089223371
 30
0.0
 11
112.7949784495
 21
327.2565420439
 31
0.0
  0
LINE
  5
D8
330
82
100
AcDbEntity
  8
DV1_Default
  6
Continuous
 62
     7
100
AcDbLine
 10
112.7923230647
 20
327.1915858615
 30
0.0
 11
113.1033081842
 21
332.6441141354
 31
0.0
  0
ARC
  5
D9
330
82
100
AcDbEntity
  8
DV1_Default
  6
Continuous
 62
     7
100
AcDbCircle
 10
91.4969149176
 20
347.4873396867
 30
0.0
 40
23.43222583521547
100
AcDbArc
 50
340.8037727909
 51
340.9152179856
  0
LINE
  5
DA
330
82
100
AcDbEntity
  8
DV1_Default
  6
Continuous
 62
     7
100
AcDbLine
 10
113.6269986118
 20
339.7203787201
 30
0.0
 11
113.6284903643
 21
339.7326669977
 31
0.0
  0
ARC
  5
DB
330
82
100
AcDbEntity
  8
DV1_Default
  6
Continuous
 62
     7
100
AcDbCircle
 10
91.2334630214
 20
347.5275822694
 30
0.0
 40
23.47334513672918
100
AcDbArc
 50
199.1425468889
 51
199.3771041003
  0
LINE
  5
DC
330
82
100
AcDbEntity
  8
DV1_Default
  6
Continuous
 62
     7
100
AcDbLine
 10
69.625857087
 20
332.1198004241
 30
0.0
 11
69.9057536996
 21
327.2569426062
 31
0.0
  0
LINE
  5
DD
330
82
100
AcDbEntity
  8
DV1_Default
  6
Continuous
 62
     7
100
AcDbLine
 10
69.9050484108
 20
327.2565958548
 30
0.0
 11
69.9225122339
 21
326.911341236
 31
0.0
  0
SPLINE
  5
DE
330
82
100
AcDbEntity
  8
DV1_Default
  6
Continuous
 62
     7
100
AcDbSpline
210
0.0
220
0.0
230
1.0
 70
     8
 71
     3
 72
    35
 73
    31
 74
     0
 42
0.000000001
 43
0.0000000001
 40
0.0
 40
0.0
 40
0.0
 40
0.0
 40
0.0511631923620444
 40
0.1014178619061147
 40
0.144865701105042
 40
0.1815205766227747
 40
0.2113813014992393
 40
0.262359395412626
 40
0.3146392323589524
 40
0.4099740425208644
 40
0.5053548317791255
 40
0.5486183618250907
 40
0.5918618616048453
 40
0.6354841821160612
 40
0.6797879498562831
 40
0.7247007598370664
 40
0.7526729153734292
 40
0.7807862556884207
 40
0.8084135556225941
 40
0.8353024956800237
 40
0.8550901800407157
 40
0.8779340448449093
 40
0.9040437967364965
 40
0.9255114235884113
 40
0.9487212633915248
 40
0.9768938352928801
 40
0.9898898948608937
 40
0.9933486416250455
 40
0.9968318449732141
 40
1.0
 40
1.0
 40
1.0
 40
1.0
 10
69.92121727364254
 20
326.9516633382108
 30
0.0
 10
69.99066352893207
 20
325.6011384664595
 30
0.0
 10
70.10658594295535
 20
323.346103336749
 30
0.0
 10
70.29623878098961
 20
319.7916455671472
 30
0.0
 10
70.46255397441348
 20
316.6662285241372
 30
0.0
 10
70.60641753033713
 20
314.0108464180893
 30
0.0
 10
70.7660679872722
 20
311.1766269490352
 30
0.0
 10
70.96036458226327
 20
307.9636180087392
 30
0.0
 10
71.28898904589144
 20
303.1724304508107
 30
0.0
 10
71.76365492659234
 20
297.3153982282907
 30
0.0
 10
72.31763276334615
 20
291.6843014372962
 30
0.0
 10
72.87899266728853
 20
287.3222435246248
 30
0.0
 10
73.34572660667105
 20
284.2083520336138
 30
0.0
 10
73.92030935047781
 20
281.0849002008682
 30
0.0
 10
74.66825246056428
 20
277.9538825467709
 30
0.0
 10
75.53946616299436
 20
275.2429706541837
 30
0.0
 10
76.52187468531807
 20
272.9918870039882
 30
0.0
 10
77.54515208640919
 20
271.2228529101942
 30
0.0
 10
78.83943018695093
 20
269.6758275031275
 30
0.0
 10
80.16525546633541
 20
268.448347743628
 30
0.0
 10
81.50563859263355
 20
267.4146312252955
 30
0.0
 10
82.91957856083697
 20
266.5145706093063
 30
0.0
 10
84.46136343912701
 20
265.7533848807578
 30
0.0
 10
86.08327593410138
 20
265.1599696747997
 30
0.0
 10
87.80917620404134
 20
264.7275212695399
 30
0.0
 10
89.37023890706655
 20
264.542173961606
 30
0.0
 10
90.45933246847764
 20
264.4999987727663
 30
0.0
 10
90.94293888082377
 20
264.493924192544
 30
0.0
 10
91.19430327569296
 20
264.4934875133707
 30
0.0
 10
91.34472157451275
 20
264.4947150386233
 30
0.0
 10
91.42964279174772
 20
264.4954732842924
 30
0.0
  0
LINE
  5
DF
330
82
100
AcDbEntity
  8
DV1_Default
  6
Continuous
 62
     7
100
AcDbLine
 10
100.552764604
 20
305.1981148186
 30
0.0
 11
100.5495719341
 21
304.8739208808
 31
0.0
  0
ARC
  5
E0
330
82
100
AcDbEntity
  8
DV1_Default
  6
Continuous
 62
     7
100
AcDbCircle
 10
91.8783488873
 20
280.7636143508
 30
0.0
 40
16.27904876648068
100
AcDbArc
 50
267.9313647715
 51
316.0878524726
  0
SPLINE
  5
E1
330
82
100
AcDbEntity
  8
DV1_Default
  6
Continuous
 62
     7
100
AcDbSpline
210
0.0
220
0.0
230
1.0
 70
     8
 71
     3
 72
    30
 73
    26
 74
     0
 42
0.000000001
 43
0.0000000001
 40
0.0
 40
0.0
 40
0.0
 40
0.0
 40
0.0225123307305521
 40
0.049710150946741
 40
0.087024844666963
 40
0.1208310303517189
 40
0.1511223438738466
 40
0.1780123713558006
 40
0.2119254324973014
 40
0.2396307503048963
 40
0.2669462160375193
 40
0.2946335262313872
 40
0.3227098822030471
 40
0.3511949616847906
 40
0.4863512804121231
 40
0.562825087001975
 40
0.6382590741204557
 40
0.7071360187521981
 40
0.7304696940585294
 40
0.7600166053341734
 40
0.7961103055743188
 40
0.8387466708874234
 40
0.8879238302923844
 40
0.9436521693540827
 40
1.0
 40
1.0
 40
1.0
 40
1.0
 10
103.5364393922072
 20
269.4260041911891
 30
0.0
 10
103.8820965393621
 20
269.7719908291119
 30
0.0
 10
104.5233533143996
 20
270.4238932413644
 30
0.0
 10
105.5526039788981
 20
271.8555447511432
 30
0.0
 10
106.4550989234479
 20
273.5697021633592
 30
0.0
 10
107.2045844357572
 20
275.4336008807417
 30
0.0
 10
107.7645047517986
 20
277.1400479694022
 30
0.0
 10
108.247288028389
 20
278.8711854336775
 30
0.0
 10
108.6494157914148
 20
280.5691488588676
 30
0.0
 10
108.9994447853903
 20
282.2865942727875
 30
0.0
 10
109.2879863804394
 20
283.8901358286427
 30
0.0
 10
109.5482145653866
 20
285.5053394363309
 30
0.0
 10
109.78858324317
 20
287.1463761783368
 30
0.0
 10
110.2930801033775
 20
290.8857099464254
 30
0.0
 10
110.7764244948526
 20
295.5864707750656
 30
0.0
 10
111.2538981642913
 20
301.2154304566911
 30
0.0
 10
111.5798246279699
 20
305.5480964753769
 30
0.0
 10
111.7927855211593
 20
308.8404167581398
 30
0.0
 10
111.9357074932536
 20
311.2314646984987
 30
0.0
 10
112.0359503186273
 20
312.9787951281934
 30
0.0
 10
112.1531618768162
 20
315.1038980318243
 30
0.0
 10
112.2881392575
 20
317.6167560885252
 30
0.0
 10
112.4411606910266
 20
320.4942515299211
 30
0.0
 10
112.6125997982204
 20
323.7130998902419
 30
0.0
 10
112.7167412336323
 20
325.7412555719836
 30
0.0
 10
112.7789053493453
 20
326.9516565207838
 30
0.0
  0
SPLINE
  5
E2
330
82
100
AcDbEntity
  8
DV1_Default
  6
Continuous
 62
     7
100
AcDbSpline
210
0.0
220
0.0
230
1.0
 70
     8
 71
     3
 72
    37
 73
    33
 74
     0
 42
0.000000001
 43
0.0000000001
 40
0.0
 40
0.0
 40
0.0
 40
0.0
 40
0.0078758077857849
 40
0.0157778528893177
 40
0.0312832716794346
 40
0.0624599603455109
 40
0.0936073025021076
 40
0.1092551001844037
 40
0.1248614385096683
 40
0.1561265073352468
 40
0.1874238164930762
 40
0.2186392326404368
 40
0.2498736223870421
 40
0.2811489192276093
 40
0.3124313551938452
 40
0.3749329551377686
 40
0.4375248903632312
 40
0.5000493623230529
 40
0.5714818453123289
 40
0.6250716027268675
 40
0.68760098312948
 40
0.7500856893377198
 40
0.7813917445538552
 40
0.7970201648433975
 40
0.8126248895778841
 40
0.8282471925914083
 40
0.8438800659615243
 40
0.875081856085744
 40
0.9062896837212455
 40
0.9374965993871786
 40
0.967394181653656
 40
1.0
 40
1.0
 40
1.0
 40
1.0
 10
91.35000000000021
 20
273.8721829882498
 30
0.0
 10
91.19168928784667
 20
273.871510871768
 30
0.0
 10
90.87454047021421
 20
273.8701643996388
 30
0.0
 10
90.24677738082593
 20
273.9104998308143
 30
0.0
 10
89.15739068374388
 20
274.0489561780531
 30
0.0
 10
87.64053393161994
 20
274.4750808172742
 30
0.0
 10
86.24580891659235
 20
275.2188623720663
 30
0.0
 10
85.26405537595868
 20
276.0014026880791
 30
0.0
 10
84.38706539529974
 20
276.9028869199886
 30
0.0
 10
83.51008932153462
 20
278.2197552659094
 30
0.0
 10
82.7787996846901
 20
279.958249824939
 30
0.0
 10
82.25675693379411
 20
281.7639686469308
 30
0.0
 10
81.8599583951206
 20
283.5982548357538
 30
0.0
 10
81.54054495760542
 20
285.4478960922845
 30
0.0
 10
81.18838781572155
 20
287.9246640625248
 30
0.0
 10
80.83442043293755
 20
291.032458490223
 30
0.0
 10
80.50167518587213
 20
294.7698327853404
 30
0.0
 10
80.23160469388387
 20
298.6919238983851
 30
0.0
 10
80.05752478581171
 20
302.4401276261055
 30
0.0
 10
79.98748627945933
 20
306.1924389940816
 30
0.0
 10
80.05919632659011
 20
309.7646389183461
 30
0.0
 10
80.36271485978993
 20
312.8838612581421
 30
0.0
 10
80.87822033153385
 20
315.0087598834671
 30
0.0
 10
81.30556807524492
 20
316.1784421565129
 30
0.0
 10
81.70449314254097
 20
317.0217271517931
 30
0.0
 10
82.19171643832817
 20
317.8188602550234
 30
0.0
 10
82.96309816348968
 20
318.800302029274
 30
0.0
 10
84.15200578075144
 20
319.8411744533173
 30
0.0
 10
85.81592115620276
 20
320.7449702682563
 30
0.0
 10
87.58350846111075
 20
321.3304464959677
 30
0.0
 10
89.43897169059281
 20
321.6868602146864
 30
0.0
 10
90.69485171266095
 20
321.747465095857
 30
0.0
 10
91.35
 20
321.7790805236741
 30
0.0
  0
SPLINE
  5
E3
330
82
100
AcDbEntity
  8
DV1_Default
  6
Continuous
 62
     7
100
AcDbSpline
210
0.0
220
0.0
230
1.0
 70
     8
 71
     3
 72
    62
 73
    58
 74
     0
 42
0.000000001
 43
0.0000000001
 40
0.0
 40
0.0
 40
0.0
 40
0.0
 40
0.0019533260044875
 40
0.0039064501230379
 40
0.0078126983601385
 40
0.0117189465972391
 40
0.0156251948343399
 40
0.0195314430714405
 40
0.0234376913085411
 40
0.0253908154270914
 40
0.0273439395456417
 40
0.029297063664192
 40
0.0312501877827423
 40
0.0332033119012926
 40
0.0351564360198429
 40
0.0371095601383932
 40
0.0390626842569437
 40
0.0429689324940443
 40
0.0468751807313324
 40
0.0546876772055334
 40
0.0625001736797348
 40
0.070312670153936
 40
0.0781251666281372
 40
0.0859376631023385
 40
0.0937501595765399
 40
0.1015626560507411
 40
0.1093751525251299
 40
0.1250001454735324
 40
0.1562501313703372
 40
0.1875001172673299
 40
0.218750103164135
 40
0.2500000890611273
 40
0.3125000608549249
 40
0.3750000326487225
 40
0.4375000044425201
 40
0.4999999762363175
 40
0.5312499621333101
 40
0.562499948030115
 40
0.5937499339271076
 40
0.6249999198239127
 40
0.6562499057209051
 40
0.6874998916177102
 40
0.7187498775147027
 40
0.7499998634115077
 40
0.7656248563599102
 40
0.7812498493085003
 40
0.7968748422569027
 40
0.8124998352053053
 40
0.8281248281537829
 40
0.8437498211022415
 40
0.8593748140506816
 40
0.8749998069991404
 40
0.890624799947599
 40
0.9062497928960391
 40
0.9374997787929379
 40
0.9687497646898366
 40
1.0
 40
1.0
 40
1.0
 40
1.0
 10
91.35000000000021
 20
273.8721829882498
 30
0.0
 10
91.39543033007615
 20
273.8712794652287
 30
0.0
 10
91.50003995499982
 20
273.87035066077
 30
0.0
 10
91.66473489844097
 20
273.8711684855881
 30
0.0
 10
91.85005614514279
 20
273.8763926686688
 30
0.0
 10
92.0381985078936
 20
273.8848028005707
 30
0.0
 10
92.30470177057002
 20
273.9032668482579
 30
0.0
 10
92.54519185301913
 20
273.9263180915704
 30
0.0
 10
92.74429303372344
 20
273.9500756009849
 30
0.0
 10
92.8961794059811
 20
273.9709707656174
 30
0.0
 10
93.0037570860483
 20
273.9869817767511
 30
0.0
 10
93.11707873188851
 20
274.0051286560002
 30
0.0
 10
93.22634810084627
 20
274.0239303019204
 30
0.0
 10
93.34216366593718
 20
274.0452764660401
 30
0.0
 10
93.45707338917892
 20
274.0678120939866
 30
0.0
 10
93.56663699322858
 20
274.0908935096932
 30
0.0
 10
93.72098263701821
 20
274.1248417280037
 30
0.0
 10
93.92433402762846
 20
274.1745736206637
 30
0.0
 10
94.2159555804426
 20
274.253016223681
 30
0.0
 10
94.60525062995792
 20
274.3748293910844
 30
0.0
 10
95.03455899658998
 20
274.534194487055
 30
0.0
 10
95.46687675653153
 20
274.7202049791377
 30
0.0
 10
95.89085145265159
 20
274.9329084928997
 30
0.0
 10
96.29546263554509
 20
275.1656490629417
 30
0.0
 10
96.6895640966427
 20
275.4253149071994
 30
0.0
 10
97.06690427477201
 20
275.7068058448667
 30
0.0
 10
97.54676920824237
 20
276.1154775571536
 30
0.0
 10
98.31148597521629
 20
276.9011729608845
 30
0.0
 10
99.1895836422636
 20
278.2188109754223
 30
0.0
 10
99.92224959465563
 20
279.961166508621
 30
0.0
 10
100.4428775882756
 20
281.7631437486813
 30
0.0
 10
100.9720579518978
 20
284.2083277240019
 30
0.0
 10
101.4409295775706
 20
287.3064099801501
 30
0.0
 10
101.8651962704724
 20
291.0284069680137
 30
0.0
 10
102.1985033445623
 20
294.7726787603697
 30
0.0
 10
102.4134260289643
 20
297.8908077944374
 30
0.0
 10
102.5455425255241
 20
300.387184955672
 30
0.0
 10
102.6232231604953
 20
302.2610789994185
 30
0.0
 10
102.6750972759191
 20
304.1382364068798
 30
0.0
 10
102.6968408120088
 20
306.0124239311765
 30
0.0
 10
102.6775032717691
 20
307.8926415663994
 30
0.0
 10
102.6059496442725
 20
309.7625212473924
 30
0.0
 10
102.4540767732535
 20
311.6417011896435
 30
0.0
 10
102.2357483596154
 20
313.179253621151
 30
0.0
 10
101.969363454119
 20
314.4002456469199
 30
0.0
 10
101.7144315572548
 20
315.3025048760707
 30
0.0
 10
101.3942374472074
 20
316.1791310593055
 30
0.0
 10
100.9958079646561
 20
317.0211417311278
 30
0.0
 10
100.5084137990159
 20
317.8185166255719
 30
0.0
 10
99.92876704207423
 20
318.5557449446115
 30
0.0
 10
99.26151832506041
 20
319.2179873166791
 30
0.0
 10
98.51846013437907
 20
319.7976164954434
 30
0.0
 10
97.71526800419885
 20
320.2930244223215
 30
0.0
 10
96.58557735079128
 20
320.8438210957733
 30
0.0
 10
95.09320832525032
 20
321.3404163934261
 30
0.0
 10
93.2292389191957
 20
321.6830331211982
 30
0.0
 10
91.98082693091095
 20
321.7671599142789
 30
0.0
 10
91.35
 20
321.7790805236741
 30
0.0
  0
SPLINE
  5
E4
330
82
100
AcDbEntity
  8
DV1_Default
  6
Continuous
 62
     7
100
AcDbSpline
210
0.0
220
0.0
230
1.0
 70
     8
 71
     3
 72
     8
 73
     4
 74
     0
 42
0.000000001
 43
0.0000000001
 40
0.0
 40
0.0
 40
0.0
 40
0.0
 40
1.0
 40
1.0
 40
1.0
 40
1.0
 10
100.5497732188731
 20
305.4734297488236
 30
0.0
 10
100.5501752565839
 20
305.3653904639394
 30
0.0
 10
100.550359581756
 20
305.2574147496045
 30
0.0
 10
100.5503379720123
 20
305.1494541117627
 30
0.0
  0
SPLINE
  5
E5
330
82
100
AcDbEntity
  8
DV1_Default
  6
Continuous
 62
     7
100
AcDbSpline
210
0.0
220
0.0
230
1.0
 70
     8
 71
     3
 72
     8
 73
     4
 74
     0
 42
0.000000001
 43
0.0000000001
 40
0.0
 40
0.0
 40
0.0
 40
0.0
 40
1.0
 40
1.0
 40
1.0
 40
1.0
 10
100.5503379720123
 20
305.1494541117627
 30
0.0
 10
100.5503204237064
 20
305.0617841081276
 30
0.0
 10
100.5501670749683
 20
304.9741240464406
 30
0.0
 10
100.5498842326756
 20
304.8864479582978
 30
0.0
  0
SPLINE
  5
E6
330
82
100
AcDbEntity
  8
DV1_Default
  6
Continuous
 62
     7
100
AcDbSpline
210
0.0
220
0.0
230
1.0
 70
     8
 71
     3
 72
     8
 73
     4
 74
     0
 42
0.000000001
 43
0.0000000001
 40
0.0
 40
0.0
 40
0.0
 40
0.0
 40
1.0
 40
1.0
 40
1.0
 40
1.0
 10
82.15225825169851
 20
305.1494047189483
 30
0.0
 10
82.1536950147459
 20
304.9250360230411
 30
0.0
 10
82.15522520359039
 20
304.7006689278795
 30
0.0
 10
82.15704159121285
 20
304.4763067634481
 30
0.0
  0
SPLINE
  5
E7
330
82
100
AcDbEntity
  8
DV1_Default
  6
Continuous
 62
     7
100
AcDbSpline
210
0.0
220
0.0
230
1.0
 70
     8
 71
     3
 72
    16
 73
    12
 74
     0
 42
0.000000001
 43
0.0000000001
 40
0.0
 40
0.0
 40
0.0
 40
0.0
 40
0.1533808192213514
 40
0.3091310994220985
 40
0.44615350889975
 40
0.5555266709851441
 40
0.6543587635316945
 40
0.7263732776882368
 40
0.8264554878397431
 40
0.9282366507200168
 40
1.0
 40
1.0
 40
1.0
 40
1.0
 10
82.14941125896199
 20
304.6424882106274
 30
0.0
 10
82.14887893290906
 20
305.5974132470128
 30
0.0
 10
82.1810179356626
 20
307.5194794997656
 30
0.0
 10
82.3895716399935
 20
310.2727249199331
 30
0.0
 10
82.8736524893139
 20
312.7039888155578
 30
0.0
 10
83.77455677264658
 20
314.6409155578246
 30
0.0
 10
84.98062215320043
 20
315.9105393232402
 30
0.0
 10
86.42130593413913
 20
316.8134449953907
 30
0.0
 10
88.05942672551382
 20
317.4068928060569
 30
0.0
 10
89.783785322387
 20
317.7128848180201
 30
0.0
 10
90.89181325336635
 20
317.7446680582273
 30
0.0
 10
91.3500000000001
 20
317.7578109213469
 30
0.0
  0
SPLINE
  5
E8
330
82
100
AcDbEntity
  8
DV1_Default
  6
Continuous
 62
     7
100
AcDbSpline
210
0.0
220
0.0
230
1.0
 70
     8
 71
     3
 72
    18
 73
    14
 74
     0
 42
0.000000001
 43
0.0000000001
 40
0.0
 40
0.0
 40
0.0
 40
0.0
 40
0.1322071653221919
 40
0.2189863759368219
 40
0.3057655865514514
 40
0.3925447971665993
 40
0.4793240077812285
 40
0.5661032183963765
 40
0.6528824290110065
 40
0.7396616396261536
 40
0.826440850240784
 40
0.913220060855931
 40
0.9999999999999999
 40
0.9999999999999999
 40
0.9999999999999999
 40
0.9999999999999999
 10
100.5499465666186
 20
304.6424255278768
 30
0.0
 10
100.550482710196
 20
305.4780071428134
 30
0.0
 10
100.5309510855006
 20
306.8625980267904
 30
0.0
 10
100.4249846160252
 20
308.7867045857428
 30
0.0
 10
100.2623593369726
 20
310.3750852880988
 30
0.0
 10
99.97191813966992
 20
311.9806938845636
 30
0.0
 10
99.49035251147443
 20
313.497032264756
 30
0.0
 10
98.71615859789144
 20
314.8744710315432
 30
0.0
 10
97.59006438790242
 20
316.0152859479667
 30
0.0
 10
96.20053960969473
 20
316.8466529298246
 30
0.0
 10
94.64691711455839
 20
317.3918232561757
 30
0.0
 10
93.02092374592779
 20
317.6935612952751
 30
0.0
 10
91.89997780423346
 20
317.757811395032
 30
0.0
 10
91.3500000000001
 20
317.7578109213469
 30
0.0
  0
SPLINE
  5
E9
330
82
100
AcDbEntity
  8
DV1_Default
  6
Continuous
 62
     7
100
AcDbSpline
210
0.0
220
0.0
230
1.0
 70
     8
 71
     3
 72
    28
 73
    24
 74
     0
 42
0.000000001
 43
0.0000000001
 40
0.0
 40
0.0
 40
0.0
 40
0.0
 40
0.043175288967805
 40
0.1034665196780284
 40
0.1740605376045584
 40
0.2551234380391449
 40
0.3465486485566825
 40
0.4464007284992123
 40
0.5214180704064341
 40
0.5956697848855749
 40
0.6689450688792148
 40
0.7407954135701988
 40
0.7756957242917674
 40
0.8097128645022119
 40
0.8430832717021984
 40
0.876081786167909
 40
0.9093004641088389
 40
0.9426280908652062
 40
0.9591330760698442
 40
0.9758667306668722
 40
0.9924834804922554
 40
0.9963773796295261
 40
1.0
 40
1.0
 40
1.0
 40
1.0
 10
100.5482384238959
 20
304.8861427685911
 30
0.0
 10
100.545368162856
 20
304.4017762726922
 30
0.0
 10
100.5387073531366
 20
303.4155197860107
 30
0.0
 10
100.4878727490598
 20
301.4718090497747
 30
0.0
 10
100.3959122056348
 20
299.14241299471
 30
0.0
 10
100.2512653954108
 20
296.4185927617754
 30
0.0
 10
100.0453741904159
 20
293.3616401117067
 30
0.0
 10
99.79064128199072
 20
290.3643827123819
 30
0.0
 10
99.49317195370843
 20
287.5686459914372
 30
0.0
 10
99.16096147608216
 20
285.0782377039603
 30
0.0
 10
98.72675196639858
 20
282.6397557407786
 30
0.0
 10
98.21162885819457
 20
280.6657898581536
 30
0.0
 10
97.60624387002093
 20
279.1888205256706
 30
0.0
 10
97.0246197226024
 20
278.1802292184724
 30
0.0
 10
96.2857305483228
 20
277.3024619761899
 30
0.0
 10
95.39353018725905
 20
276.5934193920517
 30
0.0
 10
94.3875511123705
 20
276.0591771585179
 30
0.0
 10
93.48490136915568
 20
275.7591259760244
 30
0.0
 10
92.74189986044834
 20
275.6019624364085
 30
0.0
 10
92.17636802717136
 20
275.5245984910881
 30
0.0
 10
91.75533299764187
 20
275.4970072104304
 30
0.0
 10
91.47524032392599
 20
275.490569851911
 30
0.0
 10
91.39550955599078
 20
275.4904860734409
 30
0.0
 10
91.35000263337446
 20
275.4904911872228
 30
0.0
  0
SPLINE
  5
EA
330
82
100
AcDbEntity
  8
DV1_Default
  6
Continuous
 62
     7
100
AcDbSpline
210
0.0
220
0.0
230
1.0
 70
     8
 71
     3
 72
    26
 73
    22
 74
     0
 42
0.000000001
 43
0.0000000001
 40
0.0
 40
0.0
 40
0.0
 40
0.0
 40
0.0048465785125453
 40
0.0120981317272826
 40
0.0197013375658802
 40
0.0270697931748796
 40
0.0347832682038845
 40
0.0421348387434261
 40
0.0676046626591354
 40
0.0930900823170308
 40
0.1435005339458081
 40
0.193870713671431
 40
0.2454780085911202
 40
0.2987065164243222
 40
0.3530303839770982
 40
0.4109306020109478
 40
0.5127251973131691
 40
0.6251392299994293
 40
0.7475273380506103
 40
0.8792340536791832
 40
1.0
 40
1.0
 40
1.0
 40
1.0
 10
91.34996675224788
 20
275.4915709574182
 30
0.0
 10
91.28993889472272
 20
275.4912081301268
 30
0.0
 10
91.16299814808276
 20
275.490628363531
 30
0.0
 10
90.93625484959708
 20
275.499111960957
 30
0.0
 10
90.6881642551999
 20
275.515051496092
 30
0.0
 10
90.43361014300145
 20
275.53958359133
 30
0.0
 10
90.18329349829443
 20
275.5717093748228
 30
0.0
 10
89.73305381644921
 20
275.6441877485358
 30
0.0
 10
89.09304157729592
 20
275.7940836776511
 30
0.0
 10
88.02021345619794
 20
276.1816908027228
 30
0.0
 10
86.78359013650761
 20
276.9122641468178
 30
0.0
 10
85.61586532974596
 20
278.190708199194
 30
0.0
 10
84.8198793442952
 20
279.7460748687723
 30
0.0
 10
84.27517254401421
 20
281.4375210406398
 30
0.0
 10
83.8647693557756
 20
283.2347862691005
 30
0.0
 10
83.4613127865144
 20
285.5801101066954
 30
0.0
 10
83.08625098862376
 20
288.5747546627394
 30
0.0
 10
82.73810305032698
 20
292.2875097400641
 30
0.0
 10
82.45420952338439
 20
296.2963873906932
 30
0.0
 10
82.2268842762343
 20
300.4906487299518
 30
0.0
 10
82.18539929296817
 20
303.0345984867331
 30
0.0
 10
82.16363194504181
 20
304.4762659691809
 30
0.0
  0
ENDBLK
  5
EC
330
82
100
AcDbEntity
  8
0
100
AcDbBlockEnd
  0
BLOCK
  5
17D
330
ED
100
AcDbEntity
  8
0
100
AcDbBlockBegin
  2
SE1
 70
     0
 10
0.0
 20
0.0
 30
0.0
  3
SE1
  1
SE1
  0
LINE
  5
F0
330
ED
100
AcDbEntity
  8
DV2_Default
  6
Continuous
 62
     7
100
AcDbLine
 10
290.9721573376
 20
377.6588471529
 30
0.0
 11
290.9721573376
 21
324.9588471529
 31
0.0
  0
LINE
  5
F1
330
ED
100
AcDbEntity
  8
DV2_Default
  6
Continuous
 62
     7
100
AcDbLine
 10
245.5724311318
 20
323.9588471529
 30
0.0
 11
289.9721573376
 21
323.9588471529
 31
0.0
  0
LINE
  5
F2
330
ED
100
AcDbEntity
  8
DV2_Default
  6
Continuous
 62
     7
100
AcDbLine
 10
289.9721573376
 20
378.6588471529
 30
0.0
 11
245.5724311318
 21
378.6588471529
 31
0.0
  0
ARC
  5
F3
330
ED
100
AcDbEntity
  8
DV2_Default
  6
Continuous
 62
     7
100
AcDbCircle
 10
289.9721573376
 20
324.9588471529
 30
0.0
 40
1.000000000000001
100
AcDbArc
 50
270.0
 51
0.0
  0
ARC
  5
F4
330
ED
100
AcDbEntity
  8
DV2_Default
  6
Continuous
 62
     7
100
AcDbCircle
 10
289.9721573376
 20
377.6588471529
 30
0.0
 40
1.000000000000001
100
AcDbArc
 50
0.0
 51
90.0
  0
ARC
  5
F5
330
ED
100
AcDbEntity
  8
DV2_Default
  6
Continuous
 62
     7
100
AcDbCircle
 10
291.7721573376
 20
325.6096253748
 30
0.0
 40
0.800000000000002
100
AcDbArc
 50
108.5023271362
 51
180.0
  0
ARC
  5
F6
330
ED
100
AcDbEntity
  8
DV2_Default
  6
Continuous
 62
     7
100
AcDbCircle
 10
291.7721573376
 20
377.008068931
 30
0.0
 40
0.8000000000027888
100
AcDbArc
 50
180.0
 51
251.4976728638
  0
ARC
  5
F7
330
ED
100
AcDbEntity
  8
DV2_Default
  6
Continuous
 62
     7
100
AcDbCircle
 10
283.1721573376
 20
351.3088471529
 30
0.0
 40
26.29999999999962
100
AcDbArc
 50
64.5113402464
 51
71.4976728641
  0
ARC
  5
F8
330
ED
100
AcDbEntity
  8
DV2_Default
  6
Continuous
 62
     7
100
AcDbCircle
 10
283.1721573376
 20
351.3088471529
 30
0.0
 40
26.29999999999693
100
AcDbArc
 50
288.5023271359
 51
295.4875121467
  0
LINE
  5
F9
330
ED
100
AcDbEntity
  8
DV2_Default
  6
Continuous
 62
     7
100
AcDbLine
 10
245.5721573376
 20
381.0919394777
 30
0.0
 11
245.5721573376
 21
321.5257548281
 31
0.0
  0
SPLINE
  5
FA
330
ED
100
AcDbEntity
  8
DV2_Default
  6
Continuous
 62
     7
100
AcDbSpline
210
0.0
220
0.0
230
1.0
 70
     8
 71
     3
 72
    15
 73
    11
 74
     0
 42
0.000000001
 43
0.0000000001
 40
0.0
 40
0.0
 40
0.0
 40
0.0
 40
0.1290705073303493
 40
0.258141014660669
 40
0.3872115219910183
 40
0.5162820293214566
 40
0.6453525366515982
 40
0.7744230439820365
 40
0.9034935513124749
 40
1.0
 40
1.0
 40
1.0
 40
1.0
 10
245.2217042363127
 20
351.3088471528962
 30
0.0
 10
245.2217042081947
 20
351.4660499115386
 30
0.0
 10
245.2219584128347
 20
351.797861063108
 30
0.0
 10
245.2233547601517
 20
352.3435507529342
 30
0.0
 10
245.2261090737057
 20
352.9441684570123
 30
0.0
 10
245.2306530214207
 20
353.5982254505082
 30
0.0
 10
245.2375087919507
 20
354.2997900124302
 30
0.0
 10
245.2472709429067
 20
355.0350711613202
 30
0.0
 10
245.2594318911378
 20
355.713736725407
 30
0.0
 10
245.2688662950813
 20
356.1148565875657
 30
0.0
 10
245.2731648525237
 20
356.2771271239979
 30
0.0
  0
SPLINE
  5
FB
330
ED
100
AcDbEntity
  8
DV2_Default
  6
Continuous
 62
     7
100
AcDbSpline
210
0.0
220
0.0
230
1.0
 70
     8
 71
     3
 72
    16
 73
    12
 74
     0
 42
0.000000001
 43
0.0000000001
 40
0.0
 40
0.0
 40
0.0
 40
0.0
 40
0.0317254894345753
 40
0.1574722540368305
 40
0.2832190186390856
 40
0.4089657832410513
 40
0.5347125478433065
 40
0.6604593124452725
 40
0.7862060770475273
 40
0.9119528416497825
 40
1.0
 40
1.0
 40
1.0
 40
1.0
 10
245.2731648525237
 20
356.2771271239979
 30
0.0
 10
245.2746153097577
 20
356.3318818822157
 30
0.0
 10
245.2819630339237
 20
356.5983853046918
 30
0.0
 10
245.2964187245007
 20
357.0242199250492
 30
0.0
 10
245.3176254666767
 20
357.4484736533412
 30
0.0
 10
245.3399772498387
 20
357.7126089478293
 30
0.0
 10
245.3628404104187
 20
357.8122299760972
 30
0.0
 10
245.3856241850018
 20
357.7473337566412
 30
0.0
 10
245.4075088305347
 20
357.5254793312272
 30
0.0
 10
245.4257332688273
 20
357.2020269755821
 30
0.0
 10
245.4362651584017
 20
356.9419713920894
 30
0.0
 10
245.4404305323033
 20
356.8264175600156
 30
0.0
  0
SPLINE
  5
FC
330
ED
100
AcDbEntity
  8
DV2_Default
  6
Continuous
 62
     7
100
AcDbSpline
210
0.0
220
0.0
230
1.0
 70
     8
 71
     3
 72
    15
 73
    11
 74
     0
 42
0.000000001
 43
0.0000000001
 40
0.0
 40
0.0
 40
0.0
 40
0.0
 40
0.0410703770098561
 40
0.1780603231513951
 40
0.3150502692929341
 40
0.4520402154341586
 40
0.5890301615756975
 40
0.7260201077172365
 40
0.863010053858461
 40
1.0
 40
1.0
 40
1.0
 40
1.0
 10
245.4404305323033
 20
356.8264175600156
 30
0.0
 10
245.4422140419465
 20
356.7769402792982
 30
0.0
 10
245.4498097267042
 20
356.5557117687715
 30
0.0
 10
245.4621690628467
 20
356.1156292344793
 30
0.0
 10
245.4760475395018
 20
355.4592633216253
 30
0.0
 10
245.4876497628518
 20
354.7313327633332
 30
0.0
 10
245.4969025217717
 20
353.9404813769203
 30
0.0
 10
245.5036777086317
 20
353.0990228835162
 30
0.0
 10
245.5078498415718
 20
352.2128694470184
 30
0.0
 10
245.5087864767417
 20
351.6143159485167
 30
0.0
 10
245.5087873034117
 20
351.3088471528966
 30
0.0
  0
SPLINE
  5
FD
330
ED
100
AcDbEntity
  8
DV2_Default
  6
Continuous
 62
     7
100
AcDbSpline
210
0.0
220
0.0
230
1.0
 70
     8
 71
     3
 72
    15
 73
    11
 74
     0
 42
0.000000001
 43
0.0000000001
 40
0.0
 40
0.0
 40
0.0
 40
0.0
 40
0.1402370857459607
 40
0.2804741714918907
 40
0.420711257237728
 40
0.560948342983843
 40
0.7011854287296495
 40
0.8414225144757645
 40
0.9816596002215711
 40
1.0
 40
1.0
 40
1.0
 40
1.0
 10
245.5087873034117
 20
351.3088471528966
 30
0.0
 10
245.5087864506517
 20
350.9964838129787
 30
0.0
 10
245.5078083604718
 20
350.3846844050219
 30
0.0
 10
245.5034400397217
 20
349.4780363122862
 30
0.0
 10
245.4963489969917
 20
348.6191878678823
 30
0.0
 10
245.4866747550817
 20
347.8145139323343
 30
0.0
 10
245.4745513302017
 20
347.0768292445522
 30
0.0
 10
245.4600543403668
 20
346.4154235318452
 30
0.0
 10
245.4480899313394
 20
346.0080569231055
 30
0.0
 10
245.4412597608297
 20
345.8142894286468
 30
0.0
 10
245.440463477915
 20
345.7921870139575
 30
0.0
  0
SPLINE
  5
FE
330
ED
100
AcDbEntity
  8
DV2_Default
  6
Continuous
 62
     7
100
AcDbSpline
210
0.0
220
0.0
230
1.0
 70
     8
 71
     3
 72
    15
 73
    11
 74
     0
 42
0.000000001
 43
0.0000000001
 40
0.0
 40
0.0
 40
0.0
 40
0.0
 40
0.1134830745369103
 40
0.2440406489959014
 40
0.3745982234551798
 40
0.505155797914171
 40
0.6357133723731622
 40
0.7662709468324407
 40
0.8968285212914319
 40
1.0
 40
1.0
 40
1.0
 40
1.0
 10
245.440463477915
 20
345.7921870139575
 30
0.0
 10
245.4351711042716
 20
345.6452866663611
 30
0.0
 10
245.4231883476662
 20
345.3586334570377
 30
0.0
 10
245.4030107018917
 20
345.0319594056833
 30
0.0
 10
245.3803298034777
 20
344.8392490274842
 30
0.0
 10
245.3568968529667
 20
344.8140470382782
 30
0.0
 10
245.3335618579447
 20
344.9620091380323
 30
0.0
 10
245.3110052793357
 20
345.2809039672183
 30
0.0
 10
245.2914038658503
 20
345.7276819885423
 30
0.0
 10
245.2799186410868
 20
346.0933571234916
 30
0.0
 10
245.2751227875015
 20
346.2679076292253
 30
0.0
  0
SPLINE
  5
FF
330
ED
100
AcDbEntity
  8
DV2_Default
  6
Continuous
 62
     7
100
AcDbSpline
210
0.0
220
0.0
230
1.0
 70
     8
 71
     3
 72
    15
 73
    11
 74
     0
 42
0.000000001
 43
0.0000000001
 40
0.0
 40
0.0
 40
0.0
 40
0.0
 40
0.0290942445388355
 40
0.1677950667474425
 40
0.3064958889563548
 40
0.4451967111649618
 40
0.5838975333738741
 40
0.7225983555824808
 40
0.861299177791393
 40
1.0
 40
1.0
 40
1.0
 40
1.0
 10
245.2751227875015
 20
346.2679076292253
 30
0.0
 10
245.2738497641124
 20
346.3142407527125
 30
0.0
 10
245.2666191644042
 20
346.5867955024347
 30
0.0
 10
245.2546538302727
 20
347.1383112019902
 30
0.0
 10
245.2421204133188
 20
347.9368521709102
 30
0.0
 10
245.2332457606107
 20
348.7196929690712
 30
0.0
 10
245.2273376573858
 20
349.4616490907082
 30
0.0
 10
245.2237810777427
 20
350.1465931457342
 30
0.0
 10
245.2220114789228
 20
350.766219632617
 30
0.0
 10
245.2217041945447
 20
351.1355585786096
 30
0.0
 10
245.2217042363127
 20
351.3088471528962
 30
0.0
  0
LINE
  5
100
330
ED
100
AcDbEntity
  8
DV2_Default
  6
Continuous
 62
     7
100
AcDbLine
 10
245.5087872551
 20
351.3088471535
 30
0.0
 11
245.3038839475
 21
351.3088471593
 31
0.0
  0
SPLINE
  5
101
330
ED
100
AcDbEntity
  8
DV2_Default
  6
Continuous
 62
     7
100
AcDbSpline
210
0.0
220
0.0
230
1.0
 70
    12
 71
     3
 72
    13
 73
     9
 74
     0
 42
0.000000001
 43
0.0000000001
 40
0.0
 40
0.0
 40
0.0
 40
0.0
 40
0.1628203060855354
 40
0.3412083628208986
 40
0.5183358154355016
 40
0.695023477281318
 40
0.8724061136522459
 40
1.0
 40
1.0
 40
1.0
 40
1.0
 10
245.3038833082347
 20
351.3088471529243
 30
0.0
 41
1.042276651534701
 10
245.3038836657946
 20
351.0455073549941
 30
0.0
 41
1.042276651534701
 10
245.3030104947764
 20
350.493152724708
 30
0.0
 41
1.042276651534701
 10
245.2989258737225
 20
349.6699170659386
 30
0.0
 41
1.042276651534701
 10
245.2918694627699
 20
348.8586396973377
 30
0.0
 41
1.042276651534701
 10
245.2821276536118
 20
348.0995201906398
 30
0.0
 41
1.042276651534701
 10
245.2710266050318
 20
347.4712353544962
 30
0.0
 41
1.042276651534701
 10
245.2628854525642
 20
347.1132382824406
 30
0.0
 41
1.042276651534701
 10
245.2593032806044
 20
346.9712146279026
 30
0.0
 41
1.042276651534701
  0
SPLINE
  5
102
330
ED
100
AcDbEntity
  8
DV2_Default
  6
Continuous
 62
     7
100
AcDbSpline
210
0.0
220
0.0
230
1.0
 70
    12
 71
     3
 72
    13
 73
     9
 74
     0
 42
0.000000001
 43
0.0000000001
 40
0.0
 40
0.0
 40
0.0
 40
0.0
 40
0.1507329487193062
 40
0.3236556888313061
 40
0.4959985204584989
 40
0.6687717169566849
 40
0.8427876838364835
 40
1.0
 40
1.0
 40
1.0
 40
1.0
 10
245.2590208317233
 20
355.6576098281959
 30
0.0
 41
1.042277074075504
 10
245.2632776615521
 20
355.4897525695177
 30
0.0
 41
1.042277074075504
 10
245.2718876800402
 20
355.1058593803569
 30
0.0
 41
1.042277074075504
 10
245.2831231499128
 20
354.4497082624096
 30
0.0
 41
1.042277074075504
 10
245.2924440006875
 20
353.7023447117584
 30
0.0
 41
1.042277074075504
 10
245.2991831860092
 20
352.9059417191978
 30
0.0
 41
1.042277074075504
 10
245.3030588082458
 20
352.1019535026081
 30
0.0
 41
1.042277074075504
 10
245.3038826383478
 20
351.5639750144993
 30
0.0
 41
1.042277074075504
 10
245.3038833082347
 20
351.3088471529243
 30
0.0
 41
1.042277074075504
  0
LINE
  5
103
330
ED
100
AcDbEntity
  8
DV2_Default
  6
Continuous
 62
     7
100
AcDbLine
 10
235.4721573376
 20
266.3088471529
 30
0.0
 11
235.4721573376
 21
436.3088471529
 31
0.0
  0
LINE
  5
104
330
ED
100
AcDbEntity
  8
DV2_Default
  6
Continuous
 62
     7
100
AcDbLine
 10
242.774932994
 20
436.3088471529
 30
0.0
 11
242.774932994
 21
266.3088471529
 31
0.0
  0
LINE
  5
105
330
ED
100
AcDbEntity
  8
DV2_Default
  6
Continuous
 62
     7
100
AcDbLine
 10
245.5724311318
 20
321.5588471529
 30
0.0
 11
245.5724311318
 21
381.0588471529
 31
0.0
  0
ARC
  5
106
330
ED
100
AcDbEntity
  8
DV2_Default
  6
Continuous
 62
     7
100
AcDbCircle
 10
-1554.1814278544
 20
351.3088471529
 30
0.0
 40
1799.999999999984
100
AcDbArc
 50
0.9480685359
 51
2.6580195912
  0
ARC
  5
107
330
ED
100
AcDbEntity
  8
DV2_Default
  6
Continuous
 62
     7
100
AcDbCircle
 10
-1554.1814278544
 20
351.3088471529
 30
0.0
 40
1799.999999999985
100
AcDbArc
 50
357.3419804088
 51
359.0519314641
  0
ARC
  5
108
330
ED
100
AcDbEntity
  8
DV2_Default
  6
Continuous
 62
     7
100
AcDbCircle
 10
242.2837123584
 20
267.9088471529
 30
0.0
 40
1.599999999999999
100
AcDbArc
 50
287.8793056894
 51
357.341980409
  0
ARC
  5
109
330
ED
100
AcDbEntity
  8
DV2_Default
  6
Continuous
 62
     7
100
AcDbCircle
 10
242.2837123584
 20
434.7088471529
 30
0.0
 40
1.600000000000375
100
AcDbArc
 50
2.658019591
 51
72.1206943106
  0
LINE
  5
10A
330
ED
100
AcDbEntity
  8
DV2_Default
  6
Continuous
 62
     7
100
AcDbLine
 10
235.4721573376
 20
266.3088471529
 30
0.0
 11
242.774932994
 21
266.3088471529
 31
0.0
  0
LINE
  5
10B
330
ED
100
AcDbEntity
  8
DV2_Default
  6
Continuous
 62
     7
100
AcDbLine
 10
242.774932994
 20
436.3088471529
 30
0.0
 11
235.4721573376
 21
436.3088471529
 31
0.0
  0
LINE
  5
10C
330
ED
100
AcDbEntity
  8
DV2_Default
  6
Continuous
 62
     7
100
AcDbLine
 10
294.4721573377
 20
351.3082907908
 30
0.0
 11
294.4721573377
 21
324.3514967759
 31
0.0
  0
LINE
  5
10D
330
ED
100
AcDbEntity
  8
DV2_Default
  6
Continuous
 62
     7
100
AcDbLine
 10
294.4721573376
 20
378.2661935797
 30
0.0
 11
294.4721573377
 21
351.3082907908
 31
0.0
  0
ARC
  5
10E
330
ED
100
AcDbEntity
  8
DV2_Default
  6
Continuous
 62
     7
100
AcDbCircle
 10
294.7721573338
 20
324.3514838227
 30
0.0
 40
0.2999999962924317
100
AcDbArc
 50
179.997526132
 51
270.0054654811
  0
ARC
  5
10F
330
ED
100
AcDbEntity
  8
DV2_Default
  6
Continuous
 62
     7
100
AcDbCircle
 10
294.6155393532
 20
355.1601905157
 30
0.0
 40
3.854567406690266
100
AcDbArc
 50
267.8682225
 51
272.3530908543
  0
ARC
  5
110
330
ED
100
AcDbEntity
  8
DV2_Default
  6
Continuous
 62
     7
100
AcDbCircle
 10
294.7721573378
 20
378.2661935526
 30
0.0
 40
0.3000000002048664
100
AcDbArc
 50
170.7488843595
 51
179.9999948263
  0
ARC
  5
111
330
ED
100
AcDbEntity
  8
DV2_Default
  6
Continuous
 62
     7
100
AcDbCircle
 10
298.2210406736
 20
331.701342881
 30
0.0
 40
46.99158112408475
100
AcDbArc
 50
72.5161001741
 51
94.2088723243
  0
SPLINE
  5
112
330
ED
100
AcDbEntity
  8
DV2_Default
  6
Continuous
 62
     7
100
AcDbSpline
210
0.0
220
0.0
230
1.0
 70
     8
 71
     3
 72
    20
 73
    16
 74
     0
 42
0.000000001
 43
0.0000000001
 40
0.0
 40
0.0
 40
0.0
 40
0.0
 40
0.0502354958657397
 40
0.1444267291955524
 40
0.2386179625252225
 40
0.309261387522511
 40
0.4073772555743398
 40
0.4662467764054373
 40
0.5251162972365345
 40
0.6193075305662048
 40
0.713498763895875
 40
0.7919914583373381
 40
0.8704841527788012
 40
0.9352406256930653
 40
1.0
 40
1.0
 40
1.0
 40
1.0
 10
312.3390875572317
 20
376.5219792970063
 30
0.0
 10
312.9574255900927
 20
376.2801480906252
 30
0.0
 10
314.6996469061704
 20
375.502635357686
 30
0.0
 10
317.3990816046849
 20
373.7811474203987
 30
0.0
 10
320.0508749395256
 20
371.3308990876199
 30
0.0
 10
322.4732126768707
 20
368.3599157477977
 30
0.0
 10
324.3164037089837
 20
365.381298523859
 30
0.0
 10
325.8222979431764
 20
362.2247958118319
 30
0.0
 10
327.1146386857523
 20
358.8930980042122
 30
0.0
 10
328.3278675559725
 20
354.6713361114109
 30
0.0
 10
329.3208814474539
 20
349.7276261509821
 30
0.0
 10
330.0468925699242
 20
344.7908489376652
 30
0.0
 10
330.5635369620952
 20
340.2381562989548
 30
0.0
 10
330.9787040076491
 20
335.8295615348875
 30
0.0
 10
331.2152343237116
 20
333.0202216522835
 30
0.0
 10
331.3320698352717
 20
331.6027332496662
 30
0.0
  0
ARC
  5
113
330
ED
100
AcDbEntity
  8
DV2_Default
  6
Continuous
 62
     7
100
AcDbCircle
 10
348.3011845677
 20
323.5680877009
 30
0.0
 40
18.25584397063651
100
AcDbArc
 50
157.6215272875
 51
165.6657089183
  0
LINE
  5
114
330
ED
100
AcDbEntity
  8
DV2_Default
  6
Continuous
 62
     7
100
AcDbLine
 10
331.331409927
 20
331.6026788376
 30
0.0
 11
331.420390375
 21
330.5185222082
 31
0.0
  0
ARC
  5
115
330
ED
100
AcDbEntity
  8
DV2_Default
  6
Continuous
 62
     7
100
AcDbCircle
 10
308.4744742376
 20
274.3083715913
 30
0.0
 40
25.8995685814991
100
AcDbArc
 50
338.7784948787
 51
351.5893309588
  0
SPLINE
  5
116
330
ED
100
AcDbEntity
  8
DV2_Default
  6
Continuous
 62
     7
100
AcDbSpline
210
0.0
220
0.0
230
1.0
 70
     8
 71
     3
 72
    22
 73
    18
 74
     0
 42
0.000000001
 43
0.0000000001
 40
0.0
 40
0.0
 40
0.0
 40
0.0
 40
0.086875249790211
 40
0.086875249790211
 40
0.1737504995804219
 40
0.1737504995804219
 40
0.2606257493706329
 40
0.2606257493706329
 40
0.3475009991608438
 40
0.3475009991608438
 40
0.5212514987412662
 40
0.5212514987412662
 40
0.6950019983216886
 40
0.6950019983216886
 40
0.8687524979021111
 40
0.8687524979021111
 40
1.0
 40
1.0
 40
1.0
 40
1.0
 10
330.6136864448317
 20
328.0878497779762
 30
0.0
 10
330.4141471395457
 20
327.3103224102119
 30
0.0
 10
330.2275938524239
 20
326.3140985413812
 30
0.0
 10
329.9877767175718
 20
323.9747867117628
 30
0.0
 10
329.936940064514
 20
322.6847136269635
 30
0.0
 10
329.9296580113235
 20
320.0218684934497
 30
0.0
 10
329.9701883544116
 20
318.6588891561694
 30
0.0
 10
330.0899051380678
 20
315.9273772118889
 30
0.0
 10
330.1697175786536
 20
314.5550253046579
 30
0.0
 10
330.4369606406016
 20
310.4455154399162
 30
0.0
 10
330.6501882906653
 20
307.7108110842595
 30
0.0
 10
331.1046846378388
 20
302.2420466361932
 30
0.0
 10
331.3496237308161
 20
299.5096104037458
 30
0.0
 10
331.853514071675
 20
294.062250208959
 30
0.0
 10
332.1136834042604
 20
291.3463086891563
 30
0.0
 10
332.5516496784345
 20
286.5961081410358
 30
0.0
 10
332.7311169248808
 20
284.5535987745782
 30
0.0
 10
332.9005708050676
 20
282.5297179725131
 30
0.0
  0
SPLINE
  5
117
330
ED
100
AcDbEntity
  8
DV2_Default
  6
Continuous
 62
     7
100
AcDbSpline
210
0.0
220
0.0
230
1.0
 70
     8
 71
     3
 72
    10
 73
     6
 74
     0
 42
0.000000001
 43
0.0000000001
 40
0.0
 40
0.0
 40
0.0
 40
0.0
 40
0.3850904145095804
 40
0.3850904145095804
 40
1.0
 40
1.0
 40
1.0
 40
1.0
 10
332.9005708050676
 20
282.5297179725131
 30
0.0
 10
332.9554464996741
 20
281.8743073989011
 30
0.0
 10
333.0092720786399
 20
281.2208504287351
 30
0.0
 10
333.1462296056268
 20
279.5305321884484
 30
0.0
 10
333.2270657592467
 20
278.5032398638297
 30
0.0
 10
333.3083797191201
 20
277.5134723051204
 30
0.0
  0
SPLINE
  5
118
330
ED
100
AcDbEntity
  8
DV2_Default
  6
Continuous
 62
     7
100
AcDbSpline
210
0.0
220
0.0
230
1.0
 70
     8
 71
     3
 72
     8
 73
     4
 74
     0
 42
0.000000001
 43
0.0000000001
 40
0.0
 40
0.0
 40
0.0
 40
0.0
 40
1.0
 40
1.0
 40
1.0
 40
1.0
 10
334.0954959039917
 20
270.5201132209763
 30
0.0
 10
334.099806470959
 20
270.5529383811083
 30
0.0
 10
334.0958197573849
 20
270.5911260063451
 30
0.0
 10
334.0823791646434
 20
270.6259363242918
 30
0.0
  0
ARC
  5
119
330
ED
100
AcDbEntity
  8
DV2_Default
  6
Continuous
 62
     7
100
AcDbCircle
 10
347.9777242442
 20
323.6754152053
 30
0.0
 40
17.91589762070333
100
AcDbArc
 50
157.5450806502
 51
165.7421555556
  0
ARC
  5
11A
330
ED
100
AcDbEntity
  8
DV2_Default
  6
Continuous
 62
     7
100
AcDbCircle
 10
296.153524741
 20
-716.0121501858
 30
0.0
 40
1040.064551311297
100
AcDbArc
 50
89.6251842783
 51
90.076096148
  0
SPLINE
  5
11B
330
ED
100
AcDbEntity
  8
DV2_Default
  6
Continuous
 62
     7
100
AcDbSpline
210
0.0
220
0.0
230
1.0
 70
     8
 71
     3
 72
    21
 73
    17
 74
     0
 42
0.000000001
 43
0.0000000001
 40
0.0
 40
0.0
 40
0.0
 40
0.0
 40
0.0000064941479923
 40
0.0745751352913221
 40
0.149143776434816
 40
0.2395300081238197
 40
0.3299162398128236
 40
0.4383797178395298
 40
0.5468431958662361
 40
0.6146328696329889
 40
0.6824225433997422
 40
0.7954053330109968
 40
0.8202615467254403
 40
0.876752941531068
 40
0.9852164195577738
 40
1.0
 40
1.0
 40
1.0
 40
1.0
 10
314.4800467656718
 20
320.6989165132862
 30
0.0
 10
314.4800567164824
 20
320.6989331302836
 30
0.0
 10
314.4386917817317
 20
320.8459679769021
 30
0.0
 10
314.3586743584824
 20
321.1289236308384
 30
0.0
 10
314.2314099328285
 20
321.5410649754823
 30
0.0
 10
314.0852949914154
 20
321.9355328408859
 30
0.0
 10
313.8900654924405
 20
322.329306413125
 30
0.0
 10
313.6280285536914
 20
322.6900025334436
 30
0.0
 10
313.3060576811948
 20
322.9707474167615
 30
0.0
 10
312.9581882836093
 20
323.1776283556074
 30
0.0
 10
312.5393563066146
 20
323.3635735489893
 30
0.0
 10
312.112661692686
 20
323.4919410780077
 30
0.0
 10
311.6407601173295
 20
323.5971401646701
 30
0.0
 10
311.1388828892713
 20
323.6908862846703
 30
0.0
 10
310.5675481920625
 20
323.7634342155719
 30
0.0
 10
310.1093789838226
 20
323.8059219090688
 30
0.0
 10
310.0534321216817
 20
323.8109159682763
 30
0.0
  0
ARC
  5
11C
330
ED
100
AcDbEntity
  8
DV2_Default
  6
Continuous
 62
     7
100
AcDbCircle
 10
305.9031407259
 20
303.6932930179
 30
0.0
 40
20.54126753252033
100
AcDbArc
 50
78.343341117
 51
78.4231012892
  0
ARC
  5
11D
330
ED
100
AcDbEntity
  8
DV2_Default
  6
Continuous
 62
     7
100
AcDbCircle
 10
305.9032367836
 20
303.6963840245
 30
0.0
 40
20.53822087379316
100
AcDbArc
 50
96.8265076437
 51
97.9624204171
  0
ARC
  5
11E
330
ED
100
AcDbEntity
  8
DV2_Default
  6
Continuous
 62
     7
100
AcDbCircle
 10
305.9032367836
 20
303.6963840245
 30
0.0
 40
20.53822087379316
100
AcDbArc
 50
95.4036072321
 51
96.3064924579
  0
ARC
  5
11F
330
ED
100
AcDbEntity
  8
DV2_Default
  6
Continuous
 62
     7
100
AcDbCircle
 10
305.9032367836
 20
303.6963840245
 30
0.0
 40
20.53822087379316
100
AcDbArc
 50
86.0257591873
 51
86.2785014211
  0
ARC
  5
120
330
ED
100
AcDbEntity
  8
DV2_Default
  6
Continuous
 62
     7
100
AcDbCircle
 10
305.9032367836
 20
303.6963840245
 30
0.0
 40
20.53822087379316
100
AcDbArc
 50
78.3418613114
 51
84.6513076991
  0
LINE
  5
121
330
ED
100
AcDbEntity
  8
DV2_Default
  6
Continuous
 62
     7
100
AcDbLine
 10
324.0395861168
 20
327.2200802354
 30
0.0
 11
324.0901345216
 21
326.9169191664
 31
0.0
  0
ARC
  5
122
330
ED
100
AcDbEntity
  8
DV2_Default
  6
Continuous
 62
     7
100
AcDbCircle
 10
252.889976041
 20
318.1566937253
 30
0.0
 40
71.72454915731555
100
AcDbArc
 50
7.2595184561
 51
17.6165804532
  0
ARC
  5
123
330
ED
100
AcDbEntity
  8
DV2_Default
  6
Continuous
 62
     7
100
AcDbCircle
 10
307.6252242259
 20
336.5081695423
 30
0.0
 40
14.03276772599996
100
AcDbArc
 50
13.8351809383
 51
78.5933305175
  0
ARC
  5
124
330
ED
100
AcDbEntity
  8
DV2_Default
  6
Continuous
 62
     7
100
AcDbCircle
 10
298.2520474518
 20
285.9668611151
 30
0.0
 40
65.43452282850568
100
AcDbArc
 50
79.3004890707
 51
93.0470603352
  0
ARC
  5
125
330
ED
100
AcDbEntity
  8
DV2_Default
  6
Continuous
 62
     7
100
AcDbCircle
 10
331.9683369214
 20
265.1947970924
 30
0.0
 40
0.7000432146798597
100
AcDbArc
 50
283.1758383777
 51
338.0467137624
  0
ARC
  5
126
330
ED
100
AcDbEntity
  8
DV2_Default
  6
Continuous
 62
     7
100
AcDbCircle
 10
41.4929696548
 20
280.2081209307
 30
0.0
 40
286.4312853761442
100
AcDbArc
 50
9.0832500128
 51
9.3852273832
  0
ARC
  5
127
330
ED
100
AcDbEntity
  8
DV2_Default
  6
Continuous
 62
     7
100
AcDbCircle
 10
-940.5589239749
 20
140.4692587273
 30
0.0
 40
1278.342439114735
100
AcDbArc
 50
5.5823391935
 51
8.3190667901
  0
ARC
  5
128
330
ED
100
AcDbEntity
  8
DV2_Default
  6
Continuous
 62
     7
100
AcDbCircle
 10
-940.5589239749
 20
140.4692587273
 30
0.0
 40
1278.342439114735
100
AcDbArc
 50
5.5691534768
 51
5.5823391935
  0
ARC
  5
129
330
ED
100
AcDbEntity
  8
DV2_Default
  6
Continuous
 62
     7
100
AcDbCircle
 10
309.2299545043
 20
314.1601248911
 30
0.0
 40
7.611753739090985
100
AcDbArc
 50
32.57646721
 51
38.2070903704
  0
LINE
  5
12A
330
ED
100
AcDbEntity
  8
DV2_Default
  6
Continuous
 62
     7
100
AcDbLine
 10
315.6931636244
 20
318.1782702794
 30
0.0
 11
315.6428719892
 21
318.2581598547
 31
0.0
  0
ARC
  5
12B
330
ED
100
AcDbEntity
  8
DV2_Default
  6
Continuous
 62
     7
100
AcDbCircle
 10
304.3867992271
 20
311.2123015089
 30
0.0
 40
13.2808620242108
100
AcDbArc
 50
26.8691855729
 51
31.6364665162
  0
LINE
  5
12C
330
ED
100
AcDbEntity
  8
DV2_Default
  6
Continuous
 62
     7
100
AcDbLine
 10
316.3332933138
 20
317.0133821721
 30
0.0
 11
316.2325557059
 21
317.2143471721
 31
0.0
  0
ARC
  5
12D
330
ED
100
AcDbEntity
  8
DV2_Default
  6
Continuous
 62
     7
100
AcDbCircle
 10
295.64007245
 20
307.000670286
 30
0.0
 40
22.98921034579053
100
AcDbArc
 50
21.3004017082
 51
25.8201957931
  0
LINE
  5
12E
330
ED
100
AcDbEntity
  8
DV2_Default
  6
Continuous
 62
     7
100
AcDbLine
 10
317.2361451021
 20
314.8832408116
 30
0.0
 11
317.0580090704
 21
315.3514887512
 31
0.0
  0
LINE
  5
12F
330
ED
100
AcDbEntity
  8
DV2_Default
  6
Continuous
 62
     7
100
AcDbLine
 10
317.6268295211
 20
313.7728973719
 30
0.0
 11
317.2361451029
 21
314.8832408439
 31
0.0
  0
ARC
  5
130
330
ED
100
AcDbEntity
  8
DV2_Default
  6
Continuous
 62
     7
100
AcDbCircle
 10
259.92939755
 20
294.7868185118
 30
0.0
 40
60.74181785317161
100
AcDbArc
 50
16.9528708884
 51
18.2143715082
  0
ARC
  5
131
330
ED
100
AcDbEntity
  8
DV2_Default
  6
Continuous
 62
     7
100
AcDbCircle
 10
252.6301010095
 20
292.9154474667
 30
0.0
 40
68.27042488946144
100
AcDbArc
 50
15.1715107037
 51
16.6689398706
  0
ARC
  5
132
330
ED
100
AcDbEntity
  8
DV2_Default
  6
Continuous
 62
     7
100
AcDbCircle
 10
210.7864712471
 20
281.8983769927
 30
0.0
 40
111.5393904936477
100
AcDbArc
 50
13.5820271644
 51
15.0082737709
  0
ARC
  5
133
330
ED
100
AcDbEntity
  8
DV2_Default
  6
Continuous
 62
     7
100
AcDbCircle
 10
122.177881755
 20
260.7820153372
 30
0.0
 40
202.6291201615979
100
AcDbArc
 50
12.9656635748
 51
13.5020740983
  0
LINE
  5
134
330
ED
100
AcDbEntity
  8
DV2_Default
  6
Continuous
 62
     7
100
AcDbLine
 10
320.4425019297
 20
302.6288527662
 30
0.0
 11
319.6401094255
 21
306.2451438032
 31
0.0
  0
ARC
  5
135
330
ED
100
AcDbEntity
  8
DV2_Default
  6
Continuous
 62
     7
100
AcDbCircle
 10
-609.1924881699
 20
103.5789145234
 30
0.0
 40
950.7069051107446
100
AcDbArc
 50
11.4174872677
 51
12.0854726908
  0
ARC
  5
136
330
ED
100
AcDbEntity
  8
DV2_Default
  6
Continuous
 62
     7
100
AcDbCircle
 10
506.9405841043
 20
327.9348725937
 30
0.0
 40
187.7543369370696
100
AcDbArc
 50
191.103263239
 51
191.3774869032
  0
LINE
  5
137
330
ED
100
AcDbEntity
  8
DV2_Default
  6
Continuous
 62
     7
100
AcDbLine
 10
323.0480210683
 20
290.0125692085
 30
0.0
 11
322.8750463853
 21
290.8959862443
 31
0.0
  0
LINE
  5
138
330
ED
100
AcDbEntity
  8
DV2_Default
  6
Continuous
 62
     7
100
AcDbLine
 10
323.2180583184
 20
289.1304308778
 30
0.0
 11
323.0480210683
 21
290.0125692085
 31
0.0
  0
LINE
  5
139
330
ED
100
AcDbEntity
  8
DV2_Default
  6
Continuous
 62
     7
100
AcDbLine
 10
323.727666438
 20
286.37963757
 30
0.0
 11
323.2180583194
 21
289.1304308777
 31
0.0
  0
ARC
  5
13A
330
ED
100
AcDbEntity
  8
DV2_Default
  6
Continuous
 62
     7
100
AcDbCircle
 10
-6.9584538089
 20
227.8421644442
 30
0.0
 40
335.8280997720265
100
AcDbArc
 50
9.7265152866
 51
10.0384135972
  0
ARC
  5
13B
330
ED
100
AcDbEntity
  8
DV2_Default
  6
Continuous
 62
     7
100
AcDbCircle
 10
369.0150663403
 20
291.8622997335
 30
0.0
 40
45.55879143608735
100
AcDbArc
 50
189.1993466519
 51
189.9572292086
  0
ARC
  5
13C
330
ED
100
AcDbEntity
  8
DV2_Default
  6
Continuous
 62
     7
100
AcDbCircle
 10
576.2731072305
 20
324.4906200341
 30
0.0
 40
255.3636037397411
100
AcDbArc
 50
189.1268623911
 51
189.400991238
  0
LINE
  5
13D
330
ED
100
AcDbEntity
  8
DV2_Default
  6
Continuous
 62
     7
100
AcDbLine
 10
324.6127043101
 20
281.0428344794
 30
0.0
 11
324.3383729072
 21
282.7785688824
 31
0.0
  0
ARC
  5
13E
330
ED
100
AcDbEntity
  8
DV2_Default
  6
Continuous
 62
     7
100
AcDbCircle
 10
-500.8992117746
 20
154.8600756076
 30
0.0
 40
835.1008497368347
100
AcDbArc
 50
8.5661012939
 51
8.6906238635
  0
ARC
  5
13F
330
ED
100
AcDbEntity
  8
DV2_Default
  6
Continuous
 62
     7
100
AcDbCircle
 10
391.1528204865
 20
288.6288810881
 30
0.0
 40
66.92760720385864
100
AcDbArc
 50
188.0568356758
 51
188.5994714396
  0
ARC
  5
140
330
ED
100
AcDbEntity
  8
DV2_Default
  6
Continuous
 62
     7
100
AcDbCircle
 10
325.4191273727
 20
278.6561224797
 30
0.0
 40
0.4428573781532057
100
AcDbArc
 50
184.4905856936
 51
192.0029228788
  0
ARC
  5
141
330
ED
100
AcDbEntity
  8
DV2_Default
  6
Continuous
 62
     7
100
AcDbCircle
 10
328.5001766241
 20
278.9867879232
 30
0.0
 40
3.539562365860853
100
AcDbArc
 50
186.8597427427
 51
189.2692399476
  0
LINE
  5
142
330
ED
100
AcDbEntity
  8
DV2_Default
  6
Continuous
 62
     7
100
AcDbLine
 10
325.0945017856
 20
277.8099578928
 30
0.0
 11
325.0060044015
 21
278.4164460264
 31
0.0
  0
ARC
  5
143
330
ED
100
AcDbEntity
  8
DV2_Default
  6
Continuous
 62
     7
100
AcDbCircle
 10
333.2549990871
 20
278.8762611793
 30
0.0
 40
8.229012057669351
100
AcDbArc
 50
187.4437069644
 51
188.9250906828
  0
ARC
  5
144
330
ED
100
AcDbEntity
  8
DV2_Default
  6
Continuous
 62
     7
100
AcDbCircle
 10
360.9345995059
 20
281.9722166226
 30
0.0
 40
36.07495851300618
100
AcDbArc
 50
186.9619137778
 51
187.4789091809
  0
ARC
  5
145
330
ED
100
AcDbEntity
  8
DV2_Default
  6
Continuous
 62
     7
100
AcDbCircle
 10
424.6074153377
 20
289.949865455
 30
0.0
 40
100.245192663648
100
AcDbArc
 50
187.2628888143
 51
187.6530981454
  0
ARC
  5
146
330
ED
100
AcDbEntity
  8
DV2_Default
  6
Continuous
 62
     7
100
AcDbCircle
 10
163.7292147309
 20
256.2979408496
 30
0.0
 40
162.7967769589672
100
AcDbArc
 50
6.8514528747
 51
7.16379331
  0
ARC
  5
147
330
ED
100
AcDbEntity
  8
DV2_Default
  6
Continuous
 62
     7
100
AcDbCircle
 10
373.2781437856
 20
280.2297066447
 30
0.0
 40
48.12658214022469
100
AcDbArc
 50
185.3781298725
 51
188.4160839171
  0
SPLINE
  5
148
330
ED
100
AcDbEntity
  8
DV2_Default
  6
Continuous
 62
     7
100
AcDbSpline
210
0.0
220
0.0
230
1.0
 70
     8
 71
     3
 72
     8
 73
     4
 74
     0
 42
0.000000001
 43
0.0000000001
 40
0.0
 40
0.0
 40
0.0
 40
0.0
 40
1.0
 40
1.0
 40
1.0
 40
1.0
 10
331.7508015107018
 20
264.5294108530563
 30
0.0
 10
331.7154605847311
 20
264.5409412705357
 30
0.0
 10
331.6802979128017
 20
264.5528765162858
 30
0.0
 10
331.6453118621382
 20
264.5652102626611
 30
0.0
  0
SPLINE
  5
149
330
ED
100
AcDbEntity
  8
DV2_Default
  6
Continuous
 62
     7
100
AcDbSpline
210
0.0
220
0.0
230
1.0
 70
     8
 71
     3
 72
    11
 73
     7
 74
     0
 42
0.000000001
 43
0.0000000001
 40
0.0
 40
0.0
 40
0.0
 40
0.0
 40
0.1009681742785767
 40
0.5499112930354335
 40
0.998854411792294
 40
1.0
 40
1.0
 40
1.0
 40
1.0
 10
329.0584223735628
 20
266.4422997145031
 30
0.0
 10
328.9073651927609
 20
266.6172437761415
 30
0.0
 10
328.1092380520828
 20
267.6139469704091
 30
0.0
 10
326.8885861882523
 20
269.8049765266168
 30
0.0
 10
326.046433542171
 20
272.0484054193869
 30
0.0
 10
325.6722425808128
 20
273.1829666319421
 30
0.0
 10
325.6701546182571
 20
273.185479968119
 30
0.0
  0
ARC
  5
14A
330
ED
100
AcDbEntity
  8
DV2_Default
  6
Continuous
 62
     7
100
AcDbCircle
 10
221.5539808641
 20
294.4857926943
 30
0.0
 40
96.5524809846635
100
AcDbArc
 50
14.8541968011
 51
15.7530057412
  0
ARC
  5
14B
330
ED
100
AcDbEntity
  8
DV2_Default
  6
Continuous
 62
     7
100
AcDbCircle
 10
313.1109423661
 20
317.3197058946
 30
0.0
 40
2.609357093870116
100
AcDbArc
 50
38.9432049491
 51
47.3208238131
  0
ARC
  5
14C
330
ED
100
AcDbEntity
  8
DV2_Default
  6
Continuous
 62
     7
100
AcDbCircle
 10
319.6055551381
 20
322.3263445417
 30
0.0
 40
5.592042391220883
100
AcDbArc
 50
217.0147915247
 51
218.2018392289
  0
ARC
  5
14D
330
ED
100
AcDbEntity
  8
DV2_Default
  6
Continuous
 62
     7
100
AcDbCircle
 10
317.1415687033
 20
319.7716444481
 30
0.0
 40
2.323863811597539
100
AcDbArc
 50
193.2755954158
 51
194.9645793478
  0
ARC
  5
14E
330
ED
100
AcDbEntity
  8
DV2_Default
  6
Continuous
 62
     7
100
AcDbCircle
 10
317.1415687033
 20
319.7716444481
 30
0.0
 40
2.323863811597539
100
AcDbArc
 50
212.3326729932
 51
213.6021417315
  0
SPLINE
  5
14F
330
ED
100
AcDbEntity
  8
DV2_Default
  6
Continuous
 62
     7
100
AcDbSpline
210
0.0
220
0.0
230
1.0
 70
     8
 71
     3
 72
     9
 73
     5
 74
     0
 42
0.000000001
 43
0.0000000001
 40
0.0
 40
0.0
 40
0.0
 40
0.0
 40
0.6155350815700775
 40
0.9999999999999999
 40
0.9999999999999999
 40
0.9999999999999999
 40
0.9999999999999999
 10
320.2065203404431
 20
302.2453117452632
 30
0.0
 10
320.2067319362806
 20
302.2417682570677
 30
0.0
 10
320.207273698977
 20
302.2360262968043
 30
0.0
 10
320.2081515550765
 20
302.2303121729027
 30
0.0
 10
320.2085406388253
 20
302.2281196808651
 30
0.0
  0
ARC
  5
150
330
ED
100
AcDbEntity
  8
DV2_Default
  6
Continuous
 62
     7
100
AcDbCircle
 10
304.3501260742
 20
263.9104443607
 30
0.0
 40
27.4064090190658
100
AcDbArc
 50
1.2921467921
 51
1.2940607008
  0
SPLINE
  5
151
330
ED
100
AcDbEntity
  8
DV2_Default
  6
Continuous
 62
     7
100
AcDbSpline
210
0.0
220
0.0
230
1.0
 70
     8
 71
     3
 72
     9
 73
     5
 74
     0
 42
0.000000001
 43
0.0000000001
 40
0.0
 40
0.0
 40
0.0
 40
0.0
 40
0.7806171236866662
 40
1.0
 40
1.0
 40
1.0
 40
1.0
 10
324.0291624119938
 20
283.2228368446342
 30
0.0
 10
324.0242707067999
 20
283.2388427434128
 30
0.0
 10
324.0190764348229
 20
283.2594132317666
 30
0.0
 10
324.0154195189252
 20
283.2799528502808
 30
0.0
 10
324.0146986114181
 20
283.284464265021
 30
0.0
  0
SPLINE
  5
152
330
ED
100
AcDbEntity
  8
DV2_Default
  6
Continuous
 62
     7
100
AcDbSpline
210
0.0
220
0.0
230
1.0
 70
     8
 71
     3
 72
    17
 73
    13
 74
     0
 42
0.000000001
 43
0.0000000001
 40
0.0
 40
0.0
 40
0.0
 40
0.0
 40
0.0094540287746
 40
0.0192333711820163
 40
0.0407159696148483
 40
0.0666333834538131
 40
0.0985630304250865
 40
0.2350060371705799
 40
0.4130972847989947
 40
0.6720725362286146
 40
0.8802474935226434
 40
1.0
 40
1.0
 40
1.0
 40
1.0
 10
294.7747860182288
 20
378.5572962446653
 30
0.0
 10
294.7616345541448
 20
378.55688995296
 30
0.0
 10
294.7388624673557
 20
378.5560337480951
 30
0.0
 10
294.6895917796267
 20
378.5459245462296
 30
0.0
 10
294.6344996745835
 20
378.5234261274377
 30
0.0
 10
294.5853016297106
 20
378.4896248274824
 30
0.0
 10
294.5166189786416
 20
378.4164092262109
 30
0.0
 10
294.5026013230457
 20
378.3486071703993
 30
0.0
 10
294.4910857572623
 20
378.2821164440078
 30
0.0
 10
294.4825377854199
 20
378.169392047819
 30
0.0
 10
294.4786934577843
 20
378.0531713425283
 30
0.0
 10
294.4782546538736
 20
377.9868976463862
 30
0.0
 10
294.4781083845625
 20
377.9582768801644
 30
0.0
  0
ARC
  5
153
330
ED
100
AcDbEntity
  8
DV2_Default
  6
Continuous
 62
     7
100
AcDbCircle
 10
294.7742303186
 20
378.2692587545
 30
0.0
 40
0.2967642583474366
100
AcDbArc
 50
102.0866903583
 51
126.0514339685
  0
ARC
  5
154
330
ED
100
AcDbEntity
  8
DV2_Default
  6
Continuous
 62
     7
100
AcDbCircle
 10
294.7742303186
 20
378.2692587545
 30
0.0
 40
0.2967642583474366
100
AcDbArc
 50
130.8058765001
 51
160.7421629778
  0
LINE
  5
155
330
ED
100
AcDbEntity
  8
DV2_Default
  6
Continuous
 62
     7
100
AcDbLine
 10
294.4779301329
 20
378.2865649147
 30
0.0
 11
294.477919182
 21
378.2721415284
 31
0.0
  0
ARC
  5
156
330
ED
100
AcDbEntity
  8
DV2_Default
  6
Continuous
 62
     7
100
AcDbCircle
 10
468.6901876829
 20
288.1201838418
 30
0.0
 40
135.7942508857722
100
AcDbArc
 50
184.4612486851
 51
185.7359659708
  0
ARC
  5
157
330
ED
100
AcDbEntity
  8
DV2_Default
  6
Continuous
 62
     7
100
AcDbCircle
 10
394.3335059132
 20
280.4004830777
 30
0.0
 40
61.03884042153041
100
AcDbArc
 50
185.5017482818
 51
189.214819654
  0
SPLINE
  5
158
330
ED
100
AcDbEntity
  8
DV2_Default
  6
Continuous
 62
     7
100
AcDbSpline
210
0.0
220
0.0
230
1.0
 70
     8
 71
     3
 72
    13
 73
     9
 74
     0
 42
0.000000001
 43
0.0000000001
 40
0.0
 40
0.0
 40
0.0
 40
0.0
 40
0.2661113295796816
 40
0.5208764172182532
 40
0.7492987848810236
 40
0.9117663862547365
 40
0.9666741545572347
 40
1.0
 40
1.0
 40
1.0
 40
1.0
 10
331.6821247927482
 20
264.9301145631961
 30
0.0
 10
331.7203608402552
 20
264.8384484262328
 30
0.0
 10
331.7838615371827
 20
264.690547232455
 30
0.0
 10
331.8879835704086
 20
264.558447736801
 30
0.0
 10
331.9815525472499
 20
264.504097158134
 30
0.0
 10
332.0547750421518
 20
264.4988231294589
 30
0.0
 10
332.1018297550711
 20
264.5063164862356
 30
0.0
 10
332.1198966711876
 20
264.5113297501849
 30
0.0
 10
332.1279534497532
 20
264.5136017923975
 30
0.0
  0
ARC
  5
159
330
ED
100
AcDbEntity
  8
DV2_Default
  6
Continuous
 62
     7
100
AcDbCircle
 10
333.8117311874
 20
270.3537450314
 30
0.0
 40
6.162754219406239
100
AcDbArc
 50
214.5723604652
 51
250.4639790514
  0
SPLINE
  5
15A
330
ED
100
AcDbEntity
  8
DV2_Default
  6
Continuous
 62
     7
100
AcDbSpline
210
0.0
220
0.0
230
1.0
 70
     8
 71
     3
 72
    13
 73
     9
 74
     0
 42
0.000000001
 43
0.0000000001
 40
0.0
 40
0.0
 40
0.0
 40
0.0
 40
0.1296353125584279
 40
0.2474672838231061
 40
0.3578785214669008
 40
0.4714640526788315
 40
0.7237934812776107
 40
1.0
 40
1.0
 40
1.0
 40
1.0
 10
314.8749380660561
 20
319.2561769782932
 30
0.0
 10
314.9164737538887
 20
319.1162665183921
 30
0.0
 10
314.9837273396905
 20
318.8950896074345
 30
0.0
 10
315.1275554726489
 20
318.5946763360391
 30
0.0
 10
315.2625910329799
 20
318.405125029093
 30
0.0
 10
315.419289953225
 20
318.2389173083774
 30
0.0
 10
315.4730957305134
 20
318.1645328658405
 30
0.0
 10
315.5094172662326
 20
318.1066133519093
 30
0.0
 10
315.5235650180051
 20
318.078688048553
 30
0.0
  0
ARC
  5
15B
330
ED
100
AcDbEntity
  8
DV2_Default
  6
Continuous
 62
     7
100
AcDbCircle
 10
308.8552622823
 20
313.4730947447
 30
0.0
 40
8.104135109328624
100
AcDbArc
 50
29.2516040357
 51
34.7488456768
  0
ARC
  5
15C
330
ED
100
AcDbEntity
  8
DV2_Default
  6
Continuous
 62
     7
100
AcDbCircle
 10
302.0556601797
 20
309.8581914951
 30
0.0
 40
15.80411965683852
100
AcDbArc
 50
23.9373567087
 51
28.7072482251
  0
ARC
  5
15D
330
ED
100
AcDbEntity
  8
DV2_Default
  6
Continuous
 62
     7
100
AcDbCircle
 10
295.6642136497
 20
307.0983131748
 30
0.0
 40
22.76581418107494
100
AcDbArc
 50
19.3413869978
 51
23.8192920546
  0
LINE
  5
15E
330
ED
100
AcDbEntity
  8
DV2_Default
  6
Continuous
 62
     7
100
AcDbLine
 10
317.1395473513
 20
314.654364477
 30
0.0
 11
317.3010094681
 21
314.1784840989
 31
0.0
  0
LINE
  5
15F
330
ED
100
AcDbEntity
  8
DV2_Default
  6
Continuous
 62
     7
100
AcDbLine
 10
317.3007632413
 20
314.1783637245
 30
0.0
 11
317.6454042355
 21
313.084824966
 31
0.0
  0
ARC
  5
160
330
ED
100
AcDbEntity
  8
DV2_Default
  6
Continuous
 62
     7
100
AcDbCircle
 10
260.2916257061
 20
296.0911893539
 30
0.0
 40
59.81843926102451
100
AcDbArc
 50
13.5785624091
 51
16.5039727858
  0
ARC
  5
161
330
ED
100
AcDbEntity
  8
DV2_Default
  6
Continuous
 62
     7
100
AcDbCircle
 10
198.8456562495
 20
280.4516894769
 30
0.0
 40
123.2207730668128
100
AcDbArc
 50
12.6911300472
 51
13.9536343748
  0
ARC
  5
162
330
ED
100
AcDbEntity
  8
DV2_Default
  6
Continuous
 62
     7
100
AcDbCircle
 10
103.4308474623
 20
258.2936982318
 30
0.0
 40
221.1735335948885
100
AcDbArc
 50
12.3868745066
 51
12.8678549609
  0
LINE
  5
163
330
ED
100
AcDbEntity
  8
DV2_Default
  6
Continuous
 62
     7
100
AcDbLine
 10
319.4552509997
 20
305.7130794402
 30
0.0
 11
320.2129942024
 21
302.2071277236
 31
0.0
  0
ARC
  5
164
330
ED
100
AcDbEntity
  8
DV2_Default
  6
Continuous
 62
     7
100
AcDbCircle
 10
-907.0012342111
 20
41.5353890127
 30
0.0
 40
1254.593358492648
100
AcDbArc
 50
11.4669779502
 51
11.9960288571
  0
LINE
  5
165
330
ED
100
AcDbEntity
  8
DV2_Default
  6
Continuous
 62
     7
100
AcDbLine
 10
322.5340745336
 20
291.0303120328
 30
0.0
 11
322.8721199535
 21
289.3347397224
 31
0.0
  0
LINE
  5
166
330
ED
100
AcDbEntity
  8
DV2_Default
  6
Continuous
 62
     7
100
AcDbLine
 10
322.8669045865
 20
289.3610448811
 30
0.0
 11
323.3829569247
 21
286.7051577045
 31
0.0
  0
ARC
  5
167
330
ED
100
AcDbEntity
  8
DV2_Default
  6
Continuous
 62
     7
100
AcDbCircle
 10
60.3658727626
 20
236.3197295237
 30
0.0
 40
267.8033933523799
100
AcDbArc
 50
10.458376723
 51
10.8434896131
  0
ARC
  5
168
330
ED
100
AcDbEntity
  8
DV2_Default
  6
Continuous
 62
     7
100
AcDbCircle
 10
87.1134069434
 20
241.2734402685
 30
0.0
 40
240.601044438708
100
AcDbArc
 50
10.0385732299
 51
10.4592398271
  0
LINE
  5
169
330
ED
100
AcDbEntity
  8
DV2_Default
  6
Continuous
 62
     7
100
AcDbLine
 10
324.027475053
 20
283.2324414792
 30
0.0
 11
324.3284833637
 21
281.5198055203
 31
0.0
  0
ARC
  5
16A
330
ED
100
AcDbEntity
  8
DV2_Default
  6
Continuous
 62
     7
100
AcDbCircle
 10
-61.7681726947
 20
214.6248932649
 30
0.0
 40
391.8489191812511
100
AcDbArc
 50
9.5675846368
 51
9.8325496963
  0
ARC
  5
16B
330
ED
100
AcDbEntity
  8
DV2_Default
  6
Continuous
 62
     7
100
AcDbCircle
 10
128.8889852828
 20
247.008969239
 30
0.0
 40
198.4612278255649
100
AcDbArc
 50
9.2589493578
 51
9.5018367738
  0
LINE
  5
16C
330
ED
100
AcDbEntity
  8
DV2_Default
  6
Continuous
 62
     7
100
AcDbLine
 10
324.7632927501
 20
278.9485466184
 30
0.0
 11
324.8606515309
 21
278.3479831931
 31
0.0
  0
ARC
  5
16D
330
ED
100
AcDbEntity
  8
DV2_Default
  6
Continuous
 62
     7
100
AcDbCircle
 10
286.7198956434
 20
272.0324696499
 30
0.0
 40
38.66013655278569
100
AcDbArc
 50
8.5948986308
 51
9.4124324573
  0
ARC
  5
16E
330
ED
100
AcDbEntity
  8
DV2_Default
  6
Continuous
 62
     7
100
AcDbCircle
 10
235.1465535614
 20
264.130506095
 30
0.0
 40
90.83519431224299
100
AcDbArc
 50
8.2512794459
 51
8.6675569164
  0
ARC
  5
16F
330
ED
100
AcDbEntity
  8
DV2_Default
  6
Continuous
 62
     7
100
AcDbCircle
 10
231.8869195052
 20
263.3812168543
 30
0.0
 40
94.16919581406003
100
AcDbArc
 50
7.8872950015
 51
8.4215126927
  0
SPLINE
  5
170
330
ED
100
AcDbEntity
  8
DV2_Default
  6
Continuous
 62
     7
100
AcDbSpline
210
0.0
220
0.0
230
1.0
 70
     8
 71
     3
 72
    15
 73
    11
 74
     0
 42
0.000000001
 43
0.0000000001
 40
0.0
 40
0.0
 40
0.0
 40
0.0
 40
0.1462286537669221
 40
0.2969858825484492
 40
0.464302020502182
 40
0.6027329784313815
 40
0.7439730138959221
 40
0.8786723683316311
 40
0.9964504516630992
 40
1.0
 40
1.0
 40
1.0
 40
1.0
 10
325.1531039202929
 20
276.385776174946
 30
0.0
 10
325.1837776700155
 20
276.1580663026786
 30
0.0
 10
325.2362042325829
 20
275.7698732197778
 30
0.0
 10
325.3067645042124
 20
275.2042111509248
 30
0.0
 10
325.3666246279023
 20
274.7426046666971
 30
0.0
 10
325.4171944434253
 20
274.3725274074234
 30
0.0
 10
325.4556830131115
 20
274.1128243612375
 30
0.0
 10
325.4812528351483
 20
273.9511126020012
 30
0.0
 10
325.4886202400957
 20
273.9089937087679
 30
0.0
 10
325.4893317394654
 20
273.9077161292709
 30
0.0
 10
325.4893501585717
 20
273.9076954768309
 30
0.0
  0
ARC
  5
171
330
ED
100
AcDbEntity
  8
DV2_Default
  6
Continuous
 62
     7
100
AcDbCircle
 10
333.81209232
 20
270.3541591019
 30
0.0
 40
6.163289012426898
100
AcDbArc
 50
214.5748549761
 51
216.8110508379
  0
ARC
  5
172
330
ED
100
AcDbEntity
  8
DV2_Default
  6
Continuous
 62
     7
100
AcDbCircle
 10
333.81209232
 20
270.3541591019
 30
0.0
 40
6.163289012426898
100
AcDbArc
 50
247.5725740097
 51
250.4605059386
  0
SPLINE
  5
173
330
ED
100
AcDbEntity
  8
DV2_Default
  6
Continuous
 62
     7
100
AcDbSpline
210
0.0
220
0.0
230
1.0
 70
     8
 71
     3
 72
     8
 73
     4
 74
     0
 42
0.000000001
 43
0.0000000001
 40
0.0
 40
0.0
 40
0.0
 40
0.0
 40
1.0
 40
1.0
 40
1.0
 40
1.0
 10
314.8749380616608
 20
319.2561769949446
 30
0.0
 10
314.8788663043905
 20
319.2429449456691
 30
0.0
 10
314.8827381521983
 20
319.22992798659
 30
0.0
 10
314.8865664137103
 20
319.2171088967954
 30
0.0
  0
SPLINE
  5
174
330
ED
100
AcDbEntity
  8
DV2_Default
  6
Continuous
 62
     7
100
AcDbSpline
210
0.0
220
0.0
230
1.0
 70
     8
 71
     3
 72
    10
 73
     6
 74
     0
 42
0.000000001
 43
0.0000000001
 40
0.0
 40
0.0
 40
0.0
 40
0.0
 40
0.0936894061971486
 40
0.5263730241363958
 40
1.0
 40
1.0
 40
1.0
 40
1.0
 10
315.3180921988975
 20
318.3469917702244
 30
0.0
 10
315.3353699182443
 20
318.3276737222513
 30
0.0
 10
315.4242293124167
 20
318.2320887504569
 30
0.0
 10
315.473095692553
 20
318.1645329087582
 30
0.0
 10
315.5094172461268
 20
318.1066133699694
 30
0.0
 10
315.5235650157716
 20
318.0786880517578
 30
0.0
  0
LINE
  5
175
330
ED
100
AcDbEntity
  8
DV2_Default
  6
Continuous
 62
     7
100
AcDbLine
 10
319.455250983
 20
305.7130795152
 30
0.0
 11
320.2129942095
 21
302.2071276902
 31
0.0
  0
SPLINE
  5
176
330
ED
100
AcDbEntity
  8
DV2_Default
  6
Continuous
 62
     7
100
AcDbSpline
210
0.0
220
0.0
230
1.0
 70
     8
 71
     3
 72
    36
 73
    32
 74
     0
 42
0.000000001
 43
0.0000000001
 40
0.0
 40
0.0
 40
0.0
 40
0.0
 40
0.0608836908659323
 40
0.0608836908659323
 40
0.0608836908659323
 40
0.0704026219678067
 40
0.0981140929508432
 40
0.1298281148760135
 40
0.1677185228585284
 40
0.2594584277745019
 40
0.3965533853323362
 40
0.5586204364837629
 40
0.6211126188936978
 40
0.6722098248918551
 40
0.7141808040683302
 40
0.7483486379803579
 40
0.7674219281110124
 40
0.7776018910551248
 40
0.7884012532870783
 40
0.8061934451824063
 40
0.8154108991932502
 40
0.824300030138681
 40
0.8417876105779434
 40
0.8575705195954638
 40
0.8784795604177088
 40
0.88857476110901
 40
0.8987375556506523
 40
0.9191303523728405
 40
0.944780725256626
 40
0.9770973903001925
 40
1.0
 40
1.0
 40
1.0
 40
1.0
 10
330.0659161658746
 20
323.1982041387657
 30
0.0
 10
330.0816829068729
 20
322.1370220062935
 30
0.0
 10
330.0974496478713
 20
321.0758398738213
 30
0.0
 10
330.1132163888696
 20
320.0146577413491
 30
0.0
 10
330.1159292865371
 20
319.8320658834431
 30
0.0
 10
330.1291944450244
 20
319.1164203151194
 30
0.0
 10
330.1710023519827
 20
317.7836049062831
 30
0.0
 10
330.258050127846
 20
315.8927996765561
 30
0.0
 10
330.4409382669122
 20
312.7520806041331
 30
0.0
 10
330.8196272716038
 20
307.5550520256533
 30
0.0
 10
331.4590008431342
 20
299.9541687452051
 30
0.0
 10
332.1229301248227
 20
292.9443711170615
 30
0.0
 10
332.6147141581005
 20
287.6267863224087
 30
0.0
 10
332.878612591988
 20
284.6387680814848
 30
0.0
 10
333.082543540549
 20
282.2114298354346
 30
0.0
 10
333.2278289326059
 20
280.4140915815642
 30
0.0
 10
333.3220241640645
 20
279.236027397843
 30
0.0
 10
333.3811331168919
 20
278.5005531702915
 30
0.0
 10
333.4382294729381
 20
277.7956184618609
 30
0.0
 10
333.4939139840383
 20
277.1221075426084
 30
0.0
 10
333.5473770979279
 20
276.4971598502773
 30
0.0
 10
333.6008287611243
 20
275.8900908751405
 30
0.0
 10
333.6651371464864
 20
275.1985675178709
 30
0.0
 10
333.7492245693197
 20
274.3649862524812
 30
0.0
 10
333.8218937862737
 20
273.7120213189224
 30
0.0
 10
333.8849226802537
 20
273.1959875737788
 30
0.0
 10
333.9455518567937
 20
272.728002877007
 30
0.0
 10
334.0235681524462
 20
272.166632598936
 30
0.0
 10
334.1110835116933
 20
271.5755841888245
 30
0.0
 10
334.1641339365549
 20
271.1860391131557
 30
0.0
 10
334.1713589805786
 20
271.1064812628384
 30
0.0
 10
334.1729021404864
 20
271.08282577088
 30
0.0
  0
ARC
  5
177
330
ED
100
AcDbEntity
  8
DV2_Default
  6
Continuous
 62
     7
100
AcDbCircle
 10
331.3239435008
 20
330.0067209266
 30
0.0
 40
0.1499999836937499
100
AcDbArc
 50
353.0497857402
 51
96.6997418001
  0
ARC
  5
178
330
ED
100
AcDbEntity
  8
DV2_Default
  6
Continuous
 62
     7
100
AcDbCircle
 10
334.0255105923
 20
271.0378939537
 30
0.0
 40
0.1500000169894816
100
AcDbArc
 50
277.3008620507
 51
3.7261948699
  0
ARC
  5
179
330
ED
100
AcDbEntity
  8
DV2_Default
  6
Continuous
 62
     7
100
AcDbCircle
 10
359.7318645126
 20
320.6461014733
 30
0.0
 40
29.77552215019691
100
AcDbArc
 50
161.8027630596
 51
175.083063729
  0
ARC
  5
17A
330
ED
100
AcDbEntity
  8
DV2_Default
  6
Continuous
 62
     7
100
AcDbCircle
 10
261.7526277831
 20
2536.4480451951
 30
0.0
 40
2212.732635539371
100
AcDbArc
 50
271.0839805564
 51
271.1797571351
  0
LINE
  5
17B
330
ED
100
AcDbEntity
  8
DV2_Default
  6
Continuous
 62
     7
100
AcDbLine
 10
303.0103008256
 20
324.0287625061
 30
0.0
 11
307.8043890005
 21
324.154300123
 31
0.0
  0
LINE
  5
17C
330
ED
100
AcDbEntity
  8
DV2_Default
  6
Continuous
 62
     7
100
AcDbLine
 10
334.1729021405
 20
271.0828257709
 30
0.0
 11
334.1751935109
 21
271.0476422351
 31
0.0
  0
ENDBLK
  5
17E
330
ED
100
AcDbEntity
  8
0
100
AcDbBlockEnd
  0
BLOCK
  5
1C4
330
17F
100
AcDbEntity
  8
0
100
AcDbBlockBegin
  2
SE2
 70
     0
 10
0.0
 20
0.0
 30
0.0
  3
SE2
  1
SE2
  0
LINE
  5
182
330
17F
100
AcDbEntity
  8
DV3_Default
  6
Continuous
 62
     7
100
AcDbLine
 10
65.0
 20
149.5533532717
 30
0.0
 11
117.7
 21
149.5533532717
 31
0.0
  0
LINE
  5
183
330
17F
100
AcDbEntity
  8
DV3_Default
  6
Continuous
 62
     7
100
AcDbLine
 10
64.0
 20
194.9530794775
 30
0.0
 11
64.0
 21
150.5533532717
 31
0.0
  0
LINE
  5
184
330
17F
100
AcDbEntity
  8
DV3_Default
  6
Continuous
 62
     7
100
AcDbLine
 10
118.7
 20
150.5533532717
 30
0.0
 11
118.7
 21
194.9530794775
 31
0.0
  0
ARC
  5
185
330
17F
100
AcDbEntity
  8
DV3_Default
  6
Continuous
 62
     7
100
AcDbCircle
 10
65.0
 20
150.5533532717
 30
0.0
 40
1.000000000000001
100
AcDbArc
 50
180.0
 51
270.0
  0
ARC
  5
186
330
17F
100
AcDbEntity
  8
DV3_Default
  6
Continuous
 62
     7
100
AcDbCircle
 10
117.7
 20
150.5533532717
 30
0.0
 40
1.000000000000001
100
AcDbArc
 50
270.0
 51
0.0
  0
ARC
  5
187
330
17F
100
AcDbEntity
  8
DV3_Default
  6
Continuous
 62
     7
100
AcDbCircle
 10
65.6507782219
 20
148.7533532717
 30
0.0
 40
0.800000000000002
100
AcDbArc
 50
18.5023271362
 51
90.0
  0
ARC
  5
188
330
17F
100
AcDbEntity
  8
DV3_Default
  6
Continuous
 62
     7
100
AcDbCircle
 10
117.0492217781
 20
148.7533532717
 30
0.0
 40
0.8000000000027888
100
AcDbArc
 50
90.0
 51
161.4976728638
  0
ARC
  5
189
330
17F
100
AcDbEntity
  8
DV3_Default
  6
Continuous
 62
     7
100
AcDbCircle
 10
91.35
 20
157.3533532717
 30
0.0
 40
26.29999999999963
100
AcDbArc
 50
334.5541551038
 51
341.4976728641
  0
ARC
  5
18A
330
17F
100
AcDbEntity
  8
DV3_Default
  6
Continuous
 62
     7
100
AcDbCircle
 10
91.35
 20
157.3533532717
 30
0.0
 40
26.29999999999693
100
AcDbArc
 50
198.5023271359
 51
205.4458448962
  0
LINE
  5
18B
330
17F
100
AcDbEntity
  8
DV3_Default
  6
Continuous
 62
     7
100
AcDbLine
 10
61.5669076752
 20
194.9533532717
 30
0.0
 11
121.1330923248
 21
194.9533532717
 31
0.0
  0
LINE
  5
18C
330
17F
100
AcDbEntity
  8
DV3_Default
  6
Continuous
 62
     7
100
AcDbLine
 10
44.9995084015
 20
195.303806373
 30
0.0
 11
57.9564515192
 21
195.0167233059
 31
0.0
  0
LINE
  5
18D
330
17F
100
AcDbEntity
  8
DV3_Default
  6
Continuous
 62
     7
100
AcDbLine
 10
124.4206550533
 20
195.0107608683
 30
0.0
 11
138.0441369703
 21
195.3126915829
 31
0.0
  0
LINE
  5
18E
330
17F
100
AcDbEntity
  8
DV3_Default
  6
Continuous
 62
     7
100
AcDbLine
 10
7.8758007117
 20
196.6435196564
 30
0.0
 11
174.8241992883
 21
196.6435196564
 31
0.0
  0
LINE
  5
18F
330
17F
100
AcDbEntity
  8
DV3_Default
  6
Continuous
 62
     7
100
AcDbLine
 10
176.35
 20
205.0533532717
 30
0.0
 11
6.35
 21
205.0533532717
 31
0.0
  0
LINE
  5
190
330
17F
100
AcDbEntity
  8
DV3_Default
  6
Continuous
 62
     7
100
AcDbLine
 10
6.35
 20
197.7505776154
 30
0.0
 11
176.35
 21
197.7505776154
 31
0.0
  0
LINE
  5
191
330
17F
100
AcDbEntity
  8
DV3_Default
  6
Continuous
 62
     7
100
AcDbLine
 10
61.6
 20
194.9530794775
 30
0.0
 11
121.1
 21
194.9530794775
 31
0.0
  0
ARC
  5
192
330
17F
100
AcDbEntity
  8
DV3_Default
  6
Continuous
 62
     7
100
AcDbCircle
 10
91.35
 20
1994.7069384637
 30
0.0
 40
1800.0
100
AcDbArc
 50
271.4864866066
 51
272.6580195912
  0
ARC
  5
193
330
17F
100
AcDbEntity
  8
DV3_Default
  6
Continuous
 62
     7
100
AcDbCircle
 10
91.35
 20
1994.7069384637
 30
0.0
 40
1799.999999999984
100
AcDbArc
 50
270.9480685359
 51
271.0527320451
  0
ARC
  5
194
330
17F
100
AcDbEntity
  8
DV3_Default
  6
Continuous
 62
     7
100
AcDbCircle
 10
91.35
 20
1994.7069384637
 30
0.0
 40
1800.0
100
AcDbArc
 50
268.9369881977
 51
269.0519314641
  0
ARC
  5
195
330
17F
100
AcDbEntity
  8
DV3_Default
  6
Continuous
 62
     7
100
AcDbCircle
 10
91.35
 20
1994.7069384637
 30
0.0
 40
1799.999999999985
100
AcDbArc
 50
267.3419804088
 51
268.5244556818
  0
ARC
  5
196
330
17F
100
AcDbEntity
  8
DV3_Default
  6
Continuous
 62
     7
100
AcDbCircle
 10
7.95
 20
198.2417982509
 30
0.0
 40
1.599999999999999
100
AcDbArc
 50
197.8793056894
 51
267.341980409
  0
ARC
  5
197
330
17F
100
AcDbEntity
  8
DV3_Default
  6
Continuous
 62
     7
100
AcDbCircle
 10
174.75
 20
198.2417982509
 30
0.0
 40
1.600000000000375
100
AcDbArc
 50
272.658019591
 51
342.1206943106
  0
LINE
  5
198
330
17F
100
AcDbEntity
  8
DV3_Default
  6
Continuous
 62
     7
100
AcDbLine
 10
6.35
 20
205.0533532717
 30
0.0
 11
6.35
 21
197.7505776154
 31
0.0
  0
LINE
  5
199
330
17F
100
AcDbEntity
  8
DV3_Default
  6
Continuous
 62
     7
100
AcDbLine
 10
176.35
 20
197.7505776154
 30
0.0
 11
176.35
 21
205.0533532717
 31
0.0
  0
LINE
  5
19A
330
17F
100
AcDbEntity
  8
DV3_Default
  6
Continuous
 62
     7
100
AcDbLine
 10
91.3500001282
 20
146.0533532717
 30
0.0
 11
64.432436046
 21
146.0533532717
 31
0.0
  0
LINE
  5
19B
330
17F
100
AcDbEntity
  8
DV3_Default
  6
Continuous
 62
     7
100
AcDbLine
 10
118.2683349906
 20
146.0533532717
 30
0.0
 11
91.3500001282
 21
146.0533532717
 31
0.0
  0
ARC
  5
19C
330
17F
100
AcDbEntity
  8
DV3_Default
  6
Continuous
 62
     7
100
AcDbCircle
 10
118.3053459132
 20
145.7521477244
 30
0.0
 40
0.3012080127020109
100
AcDbArc
 50
359.9238289356
 51
89.7681782953
  0
ARC
  5
19D
330
17F
100
AcDbEntity
  8
DV3_Default
  6
Continuous
 62
     7
100
AcDbCircle
 10
77.6710747574
 20
1011.8857941293
 30
0.0
 40
866.2404980813841
100
AcDbArc
 50
269.1021626309
 51
269.1023429796
  0
ARC
  5
19E
330
17F
100
AcDbEntity
  8
DV3_Default
  6
Continuous
 62
     7
100
AcDbCircle
 10
91.1260424738
 20
156.9319984193
 30
0.0
 40
47.82721599374153
100
AcDbArc
 50
259.4595131648
 51
270.2682983261
  0
SPLINE
  5
19F
330
17F
100
AcDbEntity
  8
DV3_Default
  6
Continuous
 62
     7
100
AcDbSpline
210
0.0
220
0.0
230
1.0
 70
     8
 71
     3
 72
     8
 73
     4
 74
     0
 42
0.000000001
 43
0.0000000001
 40
0.0
 40
0.0
 40
0.0
 40
0.0
 40
1.0
 40
1.0
 40
1.0
 40
1.0
 10
82.37699665388108
 20
109.9118241645078
 30
0.0
 10
82.35767830680193
 20
109.9152583564731
 30
0.0
 10
82.33840735151182
 20
109.9186887019165
 30
0.0
 10
82.31918416856357
 20
109.9221149272929
 30
0.0
  0
SPLINE
  5
1A0
330
17F
100
AcDbEntity
  8
DV3_Default
  6
Continuous
 62
     7
100
AcDbSpline
210
0.0
220
0.0
230
1.0
 70
     8
 71
     3
 72
    22
 73
    18
 74
     0
 42
0.000000001
 43
0.0000000001
 40
0.0
 40
0.0
 40
0.0
 40
0.0
 40
0.0820167461450587
 40
0.0820167461450587
 40
0.1654697692227805
 40
0.1654697692227805
 40
0.2489227923005022
 40
0.2489227923005022
 40
0.3323758153782241
 40
0.3323758153782241
 40
0.4992818615336681
 40
0.4992818615336681
 40
0.6661879076891122
 40
0.6661879076891122
 40
0.8330939538445561
 40
0.8330939538445561
 40
1.0
 40
1.0
 40
1.0
 40
1.0
 10
82.31918416856357
 20
109.9221149272929
 30
0.0
 10
81.22146904127085
 20
110.1177651188005
 30
0.0
 10
80.27953159396762
 20
110.2999804557857
 30
0.0
 10
78.83640799753869
 20
110.5377338917677
 30
0.0
 10
78.35634279593299
 20
110.5885705448256
 30
0.0
 10
77.67237244637607
 20
110.5958525980161
 30
0.0
 10
77.4671085140664
 20
110.555322254928
 30
0.0
 10
77.17989673323991
 20
110.4356054712718
 30
0.0
 10
77.1002862093676
 20
110.3557930306859
 30
0.0
 10
76.96412367244073
 20
110.0885499687379
 30
0.0
 10
77.00603993083523
 20
109.8753223186742
 30
0.0
 10
77.20481562046642
 20
109.4208259715007
 30
0.0
 10
77.3673391584687
 20
109.1758868785234
 30
0.0
 10
77.80136449599667
 20
108.6719965376645
 30
0.0
 10
78.07235733610574
 20
108.4118272050791
 30
0.0
 10
78.7963246276827
 20
107.9128281393909
 30
0.0
 10
79.22743542977335
 20
107.6791006572672
 30
0.0
 10
79.95265063571348
 20
107.463497499862
 30
0.0
  0
ARC
  5
1A1
330
17F
100
AcDbEntity
  8
DV3_Default
  6
Continuous
 62
     7
100
AcDbCircle
 10
92.464706567
 20
153.4898389584
 30
0.0
 40
44.27881174575607
100
AcDbArc
 50
279.1743076674
 51
280.2223636295
  0
SPLINE
  5
1A2
330
17F
100
AcDbEntity
  8
DV3_Default
  6
Continuous
 62
     7
100
AcDbSpline
210
0.0
220
0.0
230
1.0
 70
     8
 71
     3
 72
    11
 73
     7
 74
     0
 42
0.000000001
 43
0.0000000001
 40
0.0
 40
0.0
 40
0.0
 40
0.0
 40
0.2881337326756938
 40
0.5463593752376527
 40
0.7695464768252662
 40
1.0
 40
1.0
 40
1.0
 40
1.0
 10
105.1079143756601
 20
108.9151704322778
 30
0.0
 10
104.9728283126339
 20
108.7669206251467
 30
0.0
 10
104.7142982006904
 20
108.491665165686
 30
0.0
 10
104.2100187032432
 20
108.1017887690444
 30
0.0
 10
103.6094661311433
 20
107.7639692616524
 30
0.0
 10
103.0858109669971
 20
107.5616421438705
 30
0.0
 10
102.756429644133
 20
107.4631846434668
 30
0.0
  0
ARC
  5
1A3
330
17F
100
AcDbEntity
  8
DV3_Default
  6
Continuous
 62
     7
100
AcDbCircle
 10
103.5052252362
 20
110.494122781
 30
0.0
 40
2.249822881272856
100
AcDbArc
 50
315.4274500126
 51
345.5974817245
  0
SPLINE
  5
1A4
330
17F
100
AcDbEntity
  8
DV3_Default
  6
Continuous
 62
     7
100
AcDbSpline
210
0.0
220
0.0
230
1.0
 70
     8
 71
     3
 72
    26
 73
    22
 74
     0
 42
0.000000001
 43
0.0000000001
 40
0.0
 40
0.0
 40
0.0
 40
0.0
 40
0.0378185002671984
 40
0.0770693997954807
 40
0.1177874042198153
 40
0.1600072795114876
 40
0.2037642404585511
 40
0.2490941455344554
 40
0.2960336727042479
 40
0.3446204837020089
 40
0.3948933786074578
 40
0.4468924423111614
 40
0.5006591842487295
 40
0.5562366726031082
 40
0.6136696640180057
 40
0.673004729732028
 40
0.7342903789293603
 40
0.7975772596951487
 40
0.8629192700221036
 40
0.9303735517449884
 40
1.0
 40
1.0
 40
1.0
 40
1.0
 10
104.8583787804001
 20
110.5886526510578
 30
0.0
 10
104.8906986764253
 20
110.5857332434689
 30
0.0
 10
104.9556195877017
 20
110.5824724159534
 30
0.0
 10
105.04309591188
 20
110.573698641398
 30
0.0
 10
105.1257560501605
 20
110.5620009354694
 30
0.0
 10
105.2026663417501
 20
110.5470568569679
 30
0.0
 10
105.27409197527
 20
110.5289350903696
 30
0.0
 10
105.339956492656
 20
110.5075964546023
 30
0.0
 10
105.4002772253749
 20
110.4830347162998
 30
0.0
 10
105.4550417921953
 20
110.4552364205243
 30
0.0
 10
105.5042425918765
 20
110.424191864365
 30
0.0
 10
105.5478666909001
 20
110.3898916175157
 30
0.0
 10
105.5858982542733
 20
110.3523270921329
 30
0.0
 10
105.6183176835507
 20
110.3114900415564
 30
0.0
 10
105.6451007772788
 20
110.2673720370168
 30
0.0
 10
105.6662215019146
 20
110.2199651811246
 30
0.0
 10
105.6816396458371
 20
110.1692575911022
 30
0.0
 10
105.6913481127683
 20
110.1152490698042
 30
0.0
 10
105.6951865769476
 20
110.0578792198981
 30
0.0
 10
105.6935707165283
 20
109.9972176574403
 30
0.0
 10
105.6877096707319
 20
109.9549255012225
 30
0.0
 10
105.6843412008501
 20
109.9345188050278
 30
0.0
  0
ARC
  5
1A5
330
17F
100
AcDbEntity
  8
DV3_Default
  6
Continuous
 62
     7
100
AcDbCircle
 10
106.0998120674
 20
86.6633146612
 30
0.0
 40
23.95752396498511
100
AcDbArc
 50
103.8337292103
 51
103.953531169
  0
ARC
  5
1A6
330
17F
100
AcDbEntity
  8
DV3_Default
  6
Continuous
 62
     7
100
AcDbCircle
 10
106.0998120674
 20
86.6633146612
 30
0.0
 40
23.95752396498511
100
AcDbArc
 50
94.2753534554
 51
103.8337292103
  0
ARC
  5
1A7
330
17F
100
AcDbEntity
  8
DV3_Default
  6
Continuous
 62
     7
100
AcDbCircle
 10
106.0998120674
 20
86.6633146612
 30
0.0
 40
23.95752396498511
100
AcDbArc
 50
92.9702885016
 51
94.2753534554
  0
ARC
  5
1A8
330
17F
100
AcDbEntity
  8
DV3_Default
  6
Continuous
 62
     7
100
AcDbCircle
 10
91.555921939
 20
156.6450850852
 30
0.0
 40
47.54022426664479
100
AcDbArc
 50
269.7518227767
 51
279.6492747299
  0
ARC
  5
1A9
330
17F
100
AcDbEntity
  8
DV3_Default
  6
Continuous
 62
     7
100
AcDbCircle
 10
-216.9842653915
 20
214.5052569476
 30
0.0
 40
344.0668377493507
100
AcDbArc
 50
344.4112297943
 51
345.8038074804
  0
ARC
  5
1AA
330
17F
100
AcDbEntity
  8
DV3_Default
  6
Continuous
 62
     7
100
AcDbCircle
 10
51.0163275572
 20
146.5922593255
 30
0.0
 40
67.59545195555545
100
AcDbArc
 50
345.9002567548
 51
359.2875403289
  0
ARC
  5
1AB
330
17F
100
AcDbEntity
  8
DV3_Default
  6
Continuous
 62
     7
100
AcDbCircle
 10
399.7423744664
 20
214.5145095351
 30
0.0
 40
344.1255033896879
100
AcDbArc
 50
194.1953588763
 51
195.6129457731
  0
ARC
  5
1AC
330
17F
100
AcDbEntity
  8
DV3_Default
  6
Continuous
 62
     7
100
AcDbCircle
 10
131.956400126
 20
146.6274429542
 30
0.0
 40
67.86860336327874
100
AcDbArc
 50
182.2413517716
 51
194.0726930649
  0
ARC
  5
1AD
330
17F
100
AcDbEntity
  8
DV3_Default
  6
Continuous
 62
     7
100
AcDbCircle
 10
64.4004875039
 20
145.7516849768
 30
0.0
 40
0.3003013016292839
100
AcDbArc
 50
111.5278080047
 51
180.9730700859
  0
LINE
  5
1AE
330
17F
100
AcDbEntity
  8
DV3_Default
  6
Continuous
 62
     7
100
AcDbLine
 10
64.098603052
 20
145.7486145757
 30
0.0
 11
64.09587142
 21
145.6186368659
 31
0.0
  0
ARC
  5
1AF
330
17F
100
AcDbEntity
  8
DV3_Default
  6
Continuous
 62
     7
100
AcDbCircle
 10
88.0500713375
 20
138.6563115287
 30
0.0
 40
32.20812193190068
100
AcDbArc
 50
245.5685722877
 51
255.0234353847
  0
ARC
  5
1B0
330
17F
100
AcDbEntity
  8
DV3_Default
  6
Continuous
 62
     7
100
AcDbCircle
 10
94.6439306501
 20
138.6740016002
 30
0.0
 40
32.2267780684955
100
AcDbArc
 50
284.972059424
 51
294.8984741786
  0
LINE
  5
1B1
330
17F
100
AcDbEntity
  8
DV3_Default
  6
Continuous
 62
     7
100
AcDbLine
 10
112.7520513153
 20
116.012804518
 30
0.0
 11
112.7674433184
 21
116.0651513737
 31
0.0
  0
ARC
  5
1B2
330
17F
100
AcDbEntity
  8
DV3_Default
  6
Continuous
 62
     7
100
AcDbCircle
 10
4.3696019451
 20
148.9074407343
 30
0.0
 40
113.2637570748133
100
AcDbArc
 50
343.1443437006
 51
346.2557268797
  0
ARC
  5
1B3
330
17F
100
AcDbEntity
  8
DV3_Default
  6
Continuous
 62
     7
100
AcDbCircle
 10
180.7177562056
 20
149.4810777288
 30
0.0
 40
115.7150130414883
100
AcDbArc
 50
193.81953102
 51
196.7846486274
  0
LINE
  5
1B4
330
17F
100
AcDbEntity
  8
DV3_Default
  6
Continuous
 62
     7
100
AcDbLine
 10
69.9325895116
 20
116.0650494278
 30
0.0
 11
69.9479232166
 21
116.0129045807
 31
0.0
  0
ARC
  5
1B5
330
17F
100
AcDbEntity
  8
DV3_Default
  6
Continuous
 62
     7
100
AcDbCircle
 10
79.4853888073
 20
117.7857467206
 30
0.0
 40
9.699937829255024
100
AcDbArc
 50
190.5284542911
 51
240.6339878093
  0
SPLINE
  5
1B6
330
17F
100
AcDbEntity
  8
DV3_Default
  6
Continuous
 62
     7
100
AcDbSpline
210
0.0
220
0.0
230
1.0
 70
     8
 71
     3
 72
    36
 73
    32
 74
     0
 42
0.000000001
 43
0.0000000001
 40
0.0
 40
0.0
 40
0.0
 40
0.0
 40
0.0263699285877577
 40
0.074009645353592
 40
0.1166393070561972
 40
0.1542983276159977
 40
0.1874569678286676
 40
0.2195199522870792
 40
0.2511973530074296
 40
0.2824906596258838
 40
0.3786990018125045
 40
0.4742903800431515
 40
0.504762538148398
 40
0.5358915232087904
 40
0.5678578337994449
 40
0.6006610001400177
 40
0.6343004035065665
 40
0.6687189803409294
 40
0.7008030982604987
 40
0.7287646932495406
 40
0.7432504192189573
 40
0.7563177867291051
 40
0.7679694318472676
 40
0.7816722430250677
 40
0.800541912589512
 40
0.8245774314824971
 40
0.8519702172102868
 40
0.8839554366436937
 40
0.9205351859987378
 40
0.9617125561230476
 40
1.0
 40
1.0
 40
1.0
 40
1.0
 10
108.2117797272453
 20
109.4425340336604
 30
0.0
 10
108.3155899522307
 20
109.4932867519539
 30
0.0
 10
108.5872608416916
 20
109.6321226230608
 30
0.0
 10
108.9746728922622
 20
109.8809651134389
 30
0.0
 10
109.3354499570242
 20
110.1539185025711
 30
0.0
 10
109.6191878902702
 20
110.4000135985557
 30
0.0
 10
109.8469355625901
 20
110.6172960158284
 30
0.0
 10
110.0456977035203
 20
110.8234436619799
 30
0.0
 10
110.2264585884605
 20
111.0256064817968
 30
0.0
 10
110.5082158243375
 20
111.3628269807998
 30
0.0
 10
110.8505360891778
 20
111.8269183941132
 30
0.0
 10
111.1528658873902
 20
112.2860635224064
 30
0.0
 10
111.3492340535006
 20
112.6093012965777
 30
0.0
 10
111.4612255501017
 20
112.8022601418925
 30
0.0
 10
111.5709199484929
 20
113.0007960904107
 30
0.0
 10
111.6782965210068
 20
113.2056784047296
 30
0.0
 10
111.7832649703802
 20
113.4173581458234
 30
0.0
 10
111.8830363923922
 20
113.6303184412796
 30
0.0
 10
111.9731649581706
 20
113.8334370738063
 30
0.0
 10
112.0418720382953
 20
113.9955702704312
 30
0.0
 10
112.0920553759833
 20
114.1176086123084
 30
0.0
 10
112.1270857485642
 20
114.2044108834347
 30
0.0
 10
112.1610745346606
 20
114.2899981883975
 30
0.0
 10
112.199863928284
 20
114.3892233032122
 30
0.0
 10
112.2491831609618
 20
114.5178907396549
 30
0.0
 10
112.3100470904067
 20
114.6806674473728
 30
0.0
 10
112.3818792548589
 20
114.8783841360329
 30
0.0
 10
112.4642776256469
 20
115.1127742894527
 30
0.0
 10
112.5572281846397
 20
115.3880521202392
 30
0.0
 10
112.6570025105938
 20
115.6969809140373
 30
0.0
 10
112.7170593376687
 20
115.8977303439846
 30
0.0
 10
112.7513468211747
 20
116.0127063326273
 30
0.0
  0
SPLINE
  5
1B7
330
17F
100
AcDbEntity
  8
DV3_Default
  6
Continuous
 62
     7
100
AcDbSpline
210
0.0
220
0.0
230
1.0
 70
     8
 71
     3
 72
    26
 73
    22
 74
     0
 42
0.000000001
 43
0.0000000001
 40
0.0
 40
0.0
 40
0.0
 40
0.0
 40
0.0122220307017987
 40
0.0244847776465237
 40
0.0485467798755649
 40
0.096928159464964
 40
0.1452639978286747
 40
0.1695469499893079
 40
0.1937655636657757
 40
0.2422840955387559
 40
0.2908526594010028
 40
0.3392941380276225
 40
0.3877650607339861
 40
0.4362994648979884
 40
0.4848449478764412
 40
0.5818377255322054
 40
0.6789706895173541
 40
0.7759989609901494
 40
0.886851082314951
 40
0.9700140642257848
 40
1.0
 40
1.0
 40
1.0
 40
1.0
 10
91.35000000000021
 20
107.1510537693256
 30
0.0
 10
91.19168928784667
 20
107.1490597078
 30
0.0
 10
90.87454047021421
 20
107.1450649419561
 30
0.0
 10
90.24677738082593
 20
107.1380945485913
 30
0.0
 10
89.15739068374388
 20
107.1389460793147
 30
0.0
 10
87.64053393161994
 20
107.1691801629404
 30
0.0
 10
86.24580891659235
 20
107.2360070900826
 30
0.0
 10
85.26405537595868
 20
107.2998074799819
 30
0.0
 10
84.38706539529974
 20
107.369326285849
 30
0.0
 10
83.51008932153462
 20
107.4686354693729
 30
0.0
 10
82.7787996846901
 20
107.6096359974416
 30
0.0
 10
82.25675693379411
 20
107.7692794745878
 30
0.0
 10
81.8599583951206
 20
107.9395723926995
 30
0.0
 10
81.54054495760542
 20
108.1165812218346
 30
0.0
 10
81.18838781572155
 20
108.3608358711631
 30
0.0
 10
80.83442043293755
 20
108.6713664953139
 30
0.0
 10
80.50167518587213
 20
109.0465079846768
 30
0.0
 10
80.23160469388387
 20
109.433329379093
 30
0.0
 10
80.05752478581171
 20
109.7944300475548
 30
0.0
 10
80.00362117911399
 20
110.0702000084218
 30
0.0
 10
80.01187176223728
 20
110.2109952879509
 30
0.0
 10
80.01720145069136
 20
110.2485478549206
 30
0.0
  0
SPLINE
  5
1B8
330
17F
100
AcDbEntity
  8
DV3_Default
  6
Continuous
 62
     7
100
AcDbSpline
210
0.0
220
0.0
230
1.0
 70
     8
 71
     3
 72
    23
 73
    19
 74
     0
 42
0.000000001
 43
0.0000000001
 40
0.0
 40
0.0
 40
0.0
 40
0.0
 40
0.0780318581130095
 40
0.1453905338289237
 40
0.1813417943642215
 40
0.2194805073779626
 40
0.2823148938914121
 40
0.314866985921141
 40
0.346259581778908
 40
0.4080182113491181
 40
0.4637566729927287
 40
0.537598432365582
 40
0.5732503489984412
 40
0.6091409781037851
 40
0.6811595848538987
 40
0.7717456943942935
 40
0.8858742871005324
 40
1.0
 40
1.0
 40
1.0
 40
1.0
 10
80.30661024014938
 20
107.3761542592955
 30
0.0
 10
80.41060581025327
 20
107.3421917194184
 30
0.0
 10
80.61794897816289
 20
107.2797514356698
 30
0.0
 10
80.9183727434834
 20
107.203486445275
 30
0.0
 10
81.17770128364465
 20
107.1443774924476
 30
0.0
 10
81.4479961433951
 20
107.0872811364014
 30
0.0
 10
81.74647442436964
 20
107.0315966253012
 30
0.0
 10
82.05959888626728
 20
106.9781335114116
 30
0.0
 10
82.39401439067113
 20
106.9246818482153
 30
0.0
 10
82.83827285418086
 20
106.8603734628531
 30
0.0
 10
83.4862111394719
 20
106.7762860400198
 30
0.0
 10
84.12522525306365
 20
106.7036168230658
 30
0.0
 10
84.73886884176864
 20
106.6405879290859
 30
0.0
 10
85.37766011387923
 20
106.5799587525458
 30
0.0
 10
86.32132761944638
 20
106.5019424568933
 30
0.0
 10
87.73445296101701
 20
106.4144270976463
 30
0.0
 10
89.45501909528568
 20
106.3552015948594
 30
0.0
 10
90.71834896941319
 20
106.3525310258848
 30
0.0
 10
91.35000593715291
 20
106.3511968677708
 30
0.0
  0
SPLINE
  5
1B9
330
17F
100
AcDbEntity
  8
DV3_Default
  6
Continuous
 62
     7
100
AcDbSpline
210
0.0
220
0.0
230
1.0
 70
     8
 71
     3
 72
    13
 73
     9
 74
     0
 42
0.000000001
 43
0.0000000001
 40
0.0
 40
0.0
 40
0.0
 40
0.0
 40
0.0743092971176935
 40
0.1771219504749308
 40
0.4173453629114887
 40
0.7634078285160769
 40
0.9671993484860827
 40
1.0
 40
1.0
 40
1.0
 40
1.0
 10
78.32826470558645
 20
110.5731556314587
 30
0.0
 10
78.22939355075809
 20
110.5720885239337
 30
0.0
 10
78.02481147326702
 20
110.5592751922372
 30
0.0
 10
77.67582641415822
 20
110.4860046629088
 30
0.0
 10
77.41494052092676
 20
110.2697325493677
 30
0.0
 10
77.3994801325178
 20
109.9344141072834
 30
0.0
 10
77.5008415577667
 20
109.6601613711728
 30
0.0
 10
77.55760096673548
 20
109.5453713613366
 30
0.0
 10
77.56576489820206
 20
109.5293893330938
 30
0.0
  0
LINE
  5
1BA
330
17F
100
AcDbEntity
  8
DV3_Default
  6
Continuous
 62
     7
100
AcDbLine
 10
91.3500176869
 20
106.35
 30
0.0
 11
91.3500174733
 21
106.3511979823
 31
0.0
  0
SPLINE
  5
1BB
330
17F
100
AcDbEntity
  8
DV3_Default
  6
Continuous
 62
     7
100
AcDbSpline
210
0.0
220
0.0
230
1.0
 70
     8
 71
     3
 72
    12
 73
     8
 74
     0
 42
0.000000001
 43
0.0000000001
 40
0.0
 40
0.0
 40
0.0
 40
0.0
 40
0.2576072601167234
 40
0.4544522124220432
 40
0.6285164069168696
 40
0.86517794388637
 40
0.9999999999999999
 40
0.9999999999999999
 40
0.9999999999999999
 40
0.9999999999999999
 10
105.0922740299534
 20
109.4508665389393
 30
0.0
 10
105.1652828242701
 20
109.5803863297962
 30
0.0
 10
105.2608736324315
 20
109.8002907258292
 30
0.0
 10
105.2967824787288
 20
110.0815790033395
 30
0.0
 10
105.2202253021311
 20
110.3248272674522
 30
0.0
 10
105.0077561070329
 20
110.4971888382453
 30
0.0
 10
104.6757447514962
 20
110.5589756607865
 30
0.0
 10
104.5162952569836
 20
110.568448608662
 30
0.0
  0
SPLINE
  5
1BC
330
17F
100
AcDbEntity
  8
DV3_Default
  6
Continuous
 62
     7
100
AcDbSpline
210
0.0
220
0.0
230
1.0
 70
     8
 71
     3
 72
    21
 73
    17
 74
     0
 42
0.000000001
 43
0.0000000001
 40
0.0
 40
0.0
 40
0.0
 40
0.0
 40
0.051624505350118
 40
0.1033257277290899
 40
0.2320246852471291
 40
0.4195051420705806
 40
0.5258222528193064
 40
0.5548555733911421
 40
0.5855194486818743
 40
0.6513198021997825
 40
0.7103396243871298
 40
0.7708776462612696
 40
0.8135449734411947
 40
0.8535893613719312
 40
0.9274013195604405
 40
1.0
 40
1.0
 40
1.0
 40
1.0
 10
91.35000593715291
 20
106.3511968677708
 30
0.0
 10
91.63029536079311
 20
106.3512659099068
 30
0.0
 10
92.19129073416704
 20
106.3514063137499
 30
0.0
 10
93.44486450248193
 20
106.3639532611737
 30
0.0
 10
95.39956868702949
 20
106.4255232929691
 30
0.0
 10
97.47627455945906
 20
106.5852217771859
 30
0.0
 10
98.77983467711987
 20
106.7254297642571
 30
0.0
 10
99.36997308646
 20
106.7970853422893
 30
0.0
 10
99.7913224966314
 20
106.8511515303513
 30
0.0
 10
100.2628283382885
 20
106.9174694660293
 30
0.0
 10
100.7451686429334
 20
106.9948725795078
 30
0.0
 10
101.118841765507
 20
107.0615056270559
 30
0.0
 10
101.4098470615612
 20
107.120171287328
 30
0.0
 10
101.7020508905156
 20
107.1842694372302
 30
0.0
 10
102.0130332040181
 20
107.2610745676338
 30
0.0
 10
102.2239966995555
 20
107.3225400358653
 30
0.0
 10
102.3221369236692
 20
107.3533745885328
 30
0.0
  0
SPLINE
  5
1BD
330
17F
100
AcDbEntity
  8
DV3_Default
  6
Continuous
 62
     7
100
AcDbSpline
210
0.0
220
0.0
230
1.0
 70
     8
 71
     3
 72
    46
 73
    42
 74
     0
 42
0.000000001
 43
0.0000000001
 40
0.0
 40
0.0
 40
0.0
 40
0.0
 40
0.0030317309377864
 40
0.0060631485311334
 40
0.0121259837178275
 40
0.0181888189045215
 40
0.0242516540912158
 40
0.0303144892779099
 40
0.0363773244646039
 40
0.0394087420579509
 40
0.0424401596512979
 40
0.045471577244645
 40
0.048502994837992
 40
0.051534412431339
 40
0.054565830024686
 40
0.057597247618033
 40
0.0606286652113803
 40
0.0666915003980744
 40
0.0727543355850593
 40
0.0848800059584471
 40
0.0970056763318355
 40
0.1091313467052236
 40
0.1212570170786116
 40
0.1333826874519997
 40
0.145508357825388
 40
0.1576340281987761
 40
0.1697596985724554
 40
0.1940110393192316
 40
0.2425137208127839
 40
0.2910164023066276
 40
0.3395190838001802
 40
0.3880217652940234
 40
0.4850271282814196
 40
0.5820324912688157
 40
0.6790378542562118
 40
0.7760432172436077
 40
0.8245458987374513
 40
0.8730485802310037
 40
0.9215512617248474
 40
0.9700539432183999
 40
1.0
 40
1.0
 40
1.0
 40
1.0
 10
91.35000000000021
 20
107.1510537693256
 30
0.0
 10
91.39543033007615
 20
107.1506233918094
 30
0.0
 10
91.50003995499982
 20
107.1495793166197
 30
0.0
 10
91.66473489844097
 20
107.1473745923565
 30
0.0
 10
91.85005614514279
 20
107.1448971957471
 30
0.0
 10
92.0381985078936
 20
107.1425603509107
 30
0.0
 10
92.30470177057002
 20
107.1402201655366
 30
0.0
 10
92.54519185301913
 20
107.139213841378
 30
0.0
 10
92.74429303372344
 20
107.1390592878132
 30
0.0
 10
92.8961794059811
 20
107.1392734394133
 30
0.0
 10
93.0037570860483
 20
107.1395588437754
 30
0.0
 10
93.11707873188851
 20
107.1400081223667
 30
0.0
 10
93.22634810084627
 20
107.140590120368
 30
0.0
 10
93.34216366593718
 20
107.1413835890319
 30
0.0
 10
93.45707338917892
 20
107.1423456129051
 30
0.0
 10
93.56663699322858
 20
107.1434791253188
 30
0.0
 10
93.72098263701821
 20
107.1452811503197
 30
0.0
 10
93.92433402762846
 20
107.1483553194102
 30
0.0
 10
94.2159555804426
 20
107.1537575009194
 30
0.0
 10
94.60525062995792
 20
107.1631365373775
 30
0.0
 10
95.03455899658998
 20
107.1760754197625
 30
0.0
 10
95.46687675653153
 20
107.1916337428383
 30
0.0
 10
95.89085145265159
 20
107.2099200552548
 30
0.0
 10
96.29546263554509
 20
107.23025964763
 30
0.0
 10
96.6895640966427
 20
107.2525479914758
 30
0.0
 10
97.06690427477201
 20
107.2759173117602
 30
0.0
 10
97.54676920824237
 20
107.3084832375743
 30
0.0
 10
98.31148597521629
 20
107.3694497227261
 30
0.0
 10
99.1895836422636
 20
107.4683514871393
 30
0.0
 10
99.92224959465563
 20
107.6100442623686
 30
0.0
 10
100.4428775882756
 20
107.7690193598933
 30
0.0
 10
100.9720579518978
 20
107.9961118009254
 30
0.0
 10
101.4409295775706
 20
108.2984173644632
 30
0.0
 10
101.8651962704724
 20
108.6710301883975
 30
0.0
 10
102.1985033445623
 20
109.0468198036018
 30
0.0
 10
102.4134260289643
 20
109.3543020428964
 30
0.0
 10
102.5455425255241
 20
109.5965738554466
 30
0.0
 10
102.6232231604953
 20
109.776805073047
 30
0.0
 10
102.6750972759191
 20
109.956526244395
 30
0.0
 10
102.6940678612722
 20
110.1131600502924
 30
0.0
 10
102.6878791411417
 20
110.2110106936249
 30
0.0
 10
102.6824699698401
 20
110.248564427312
 30
0.0
  0
ARC
  5
1BE
330
17F
100
AcDbEntity
  8
DV3_Default
  6
Continuous
 62
     7
100
AcDbCircle
 10
81.4743472625
 20
111.7358276116
 30
0.0
 40
4.507359694376611
100
AcDbArc
 50
210.4996003681
 51
254.0350826302
  0
ARC
  5
1BF
330
17F
100
AcDbEntity
  8
DV3_Default
  6
Continuous
 62
     7
100
AcDbCircle
 10
101.1787212299
 20
111.7949411104
 30
0.0
 40
4.580815414768944
100
AcDbArc
 50
285.408524907
 51
327.9672163278
  0
LINE
  5
1C0
330
17F
100
AcDbEntity
  8
DV3_Default
  6
Continuous
 62
     7
100
AcDbLine
 10
68.314489348
 20
121.8974536051
 30
0.0
 11
68.3523558227
 21
121.8408707834
 31
0.0
  0
LINE
  5
1C1
330
17F
100
AcDbEntity
  8
DV3_Default
  6
Continuous
 62
     7
100
AcDbLine
 10
64.1397195877
 20
143.9731703139
 30
0.0
 11
64.09587142
 21
145.6186368659
 31
0.0
  0
LINE
  5
1C2
330
17F
100
AcDbEntity
  8
DV3_Default
  6
Continuous
 62
     7
100
AcDbLine
 10
64.432436046
 20
146.0533532717
 30
0.0
 11
64.2902911144
 21
146.0310371335
 31
0.0
  0
LINE
  5
1C3
330
17F
100
AcDbEntity
  8
DV3_Default
  6
Continuous
 62
     7
100
AcDbLine
 10
118.2683349906
 20
146.0533532717
 30
0.0
 11
118.3065646132
 21
146.0533532717
 31
0.0
  0
ENDBLK
  5
1C5
330
17F
100
AcDbEntity
  8
0
100
AcDbBlockEnd
  0
ENDSEC
  0
SECTION
  2
ENTITIES
  0
INSERT
  5
6C
330
1F
100
AcDbEntity
  8
Default
100
AcDbBlockReference
  2
SEANNOT_GROUP
 10
0.0
 20
0.0
 30
0.0
  0
INSERT
  5
77
330
1F
100
AcDbEntity
  8
Default
100
AcDbBlockReference
  2
SEANNOT_GROUP1
 10
0.0
 20
0.0
 30
0.0
  0
INSERT
  5
7D
330
1F
100
AcDbEntity
  8
Default
100
AcDbBlockReference
  2
SEANNOT_GROUP2
 10
0.0
 20
0.0
 30
0.0
  0
INSERT
  5
83
330
1F
100
AcDbEntity
  8
Default
100
AcDbBlockReference
  2
SE
 10
0.0
 20
0.0
 30
0.0
  0
INSERT
  5
EE
330
1F
100
AcDbEntity
  8
Default
100
AcDbBlockReference
  2
SE1
 10
0.0
 20
0.0
 30
0.0
  0
INSERT
  5
180
330
1F
100
AcDbEntity
  8
Default
100
AcDbBlockReference
  2
SE2
 10
0.0
 20
0.0
 30
0.0
  0
MTEXT
  5
1C6
330
1F
100
AcDbEntity
  8
Default
100
AcDbMText
 10
5.9362635081
 20
63.4225120485
 30
0.0
 40
10.0
 41
113.8626497168
 71
     1
 72
     1
  1
{\fSolid Edge ISO|b0||i0||c0|p34;\C7;\H10.;\W1.;Grohe AG\P}{\fSolid Edge ISO|b0||i0||c0|p34;\C7;\H10.;\W1.;\P}{\fSolid Edge ISO|b0||i0||c0|p34;\C7;\H10.;\W1.;ecn:\P}{\fSolid Edge ISO|b0||i0||c0|p34;\C7;\H10.;\W1.;unit: mm}
 73
     1
 44
1.0
1001
ACAD
1000
ACAD_MTEXT_DEFINED_HEIGHT_BEGIN
1070
    46
1040
65.4545454545
1000
ACAD_MTEXT_DEFINED_HEIGHT_END
  0
LINE
  5
1C7
330
1F
100
AcDbEntity
  8
Default
  6
Continuous
 62
     7
100
AcDbLine
 10
0.0
 20
0.0
 30
0.0
 11
100.0
 21
0.0
 31
0.0
  0
LINE
  5
1C8
330
1F
100
AcDbEntity
  8
Default
  6
Continuous
 62
     7
100
AcDbLine
 10
0.0
 20
0.0
 30
0.0
 11
0.0
 21
100.0
 31
0.0
  0
MTEXT
  5
1C9
330
1F
100
AcDbEntity
  8
Default
100
AcDbMText
 10
24.2173665744
 20
-5.1079887535
 30
0.0
 40
10.0
 41
35.00001
 71
     1
 72
     1
  1
{\fSolid Edge ISO|b0||i0||c0|p34;\C7;\H10.;\W1.;100 mm}
 73
     1
 44
1.0
1001
ACAD
1000
ACAD_MTEXT_DEFINED_HEIGHT_BEGIN
1070
    46
1040
16.3636363636
1000
ACAD_MTEXT_DEFINED_HEIGHT_END
  0
MTEXT
  5
1CB
330
1F
100
AcDbEntity
  8
Default
100
AcDbMText
 10
-20.5695763349
 20
24.6231930421
 30
0.0
 40
10.0
 41
35.00001
 71
     1
 72
     1
  1
{\fSolid Edge ISO|b0||i0||c0|p34;\C7;\H10.;\W0.9;100 mm}
  7
SEACAD_Solid_Edge_ISO
 11
6.123233995736766E-17
 21
1.0
 31
0.0
 73
     1
 44
1.0
1001
ACAD
1000
ACAD_MTEXT_DEFINED_HEIGHT_BEGIN
1070
    46
1040
16.3636363636
1000
ACAD_MTEXT_DEFINED_HEIGHT_END
  0
MTEXT
  5
1CC
330
1F
100
AcDbEntity
  8
Default
100
AcDbMText
 10
28.4878128572
 20
24.8634936442
 30
0.0
 40
10.0
 41
86.691737001
 71
     4
 72
     1
  1
{\fSolid Edge ISO|b0||i0||c0|p34;\C7;\H10.;\W1.;235524}
 73
     1
 44
1.0
1001
ACAD
1000
ACAD_MTEXT_DEFINED_HEIGHT_BEGIN
1070
    46
1040
16.3636363636
1000
ACAD_MTEXT_DEFINED_HEIGHT_END
  0
MTEXT
  5
1CD
330
1F
100
AcDbEntity
  8
Default
100
AcDbMText
 10
5.9012241913
 20
41.4970052916
 30
0.0
 40
10.0
 41
109.9146987306
 71
     4
 72
     1
  1
{\fSolid Edge ISO|b0||i0||c0|p34;\C7;\H10.;\W1.;19989003}
 73
     1
 44
1.0
1001
ACAD
1000
ACAD_MTEXT_DEFINED_HEIGHT_BEGIN
1070
    46
1040
16.3636363636
1000
ACAD_MTEXT_DEFINED_HEIGHT_END
  0
ENDSEC
  0
SECTION
  2
OBJECTS
  0
DICTIONARY
  5
C
330
0
100
AcDbDictionary
281
     1
  3
ACAD_GROUP
350
D
  3
ACAD_LAYOUT
350
1A
  3
ACAD_MATERIAL
350
43
  3
ACAD_MLEADERSTYLE
350
1D0
  3
ACAD_MLINESTYLE
350
17
  3
ACAD_PLOTSETTINGS
350
19
  3
ACAD_PLOTSTYLENAME
350
E
  3
ACAD_SCALELIST
350
47
  3
ACAD_VISUALSTYLE
350
2A
  3
AcDbVariableDictionary
350
1CE
  0
DICTIONARY
  5
D
102
{ACAD_REACTORS
330
C
102
}
330
C
100
AcDbDictionary
281
     1
  0
DICTIONARY
  5
1A
102
{ACAD_REACTORS
330
C
102
}
330
C
100
AcDbDictionary
281
     1
  3
Layout1
350
1E
  3
Model
350
22
  0
DICTIONARY
  5
43
102
{ACAD_REACTORS
330
C
102
}
330
C
100
AcDbDictionary
281
     1
  3
ByBlock
350
45
  3
ByLayer
350
44
  3
Global
350
46
  0
DICTIONARY
  5
1D0
102
{ACAD_REACTORS
330
C
102
}
330
C
100
AcDbDictionary
281
     1
  0
DICTIONARY
  5
17
102
{ACAD_REACTORS
330
C
102
}
330
C
100
AcDbDictionary
281
     1
  3
Standard
350
18
  0
DICTIONARY
  5
19
102
{ACAD_REACTORS
330
C
102
}
330
C
100
AcDbDictionary
281
     1
  0
ACDBDICTIONARYWDFLT
  5
E
102
{ACAD_REACTORS
330
C
102
}
330
C
100
AcDbDictionary
281
     1
  3
Normal
350
F
100
AcDbDictionaryWithDefault
340
F
  0
DICTIONARY
  5
47
102
{ACAD_REACTORS
330
C
102
}
330
C
100
AcDbDictionary
281
     1
  3
A0
350
48
  3
A1
350
49
  3
A2
350
4A
  3
A3
350
4B
  3
A4
350
4C
  3
A5
350
4D
  3
A6
350
4E
  3
A7
350
4F
  3
A8
350
50
  3
A9
350
51
  3
B0
350
52
  3
B1
350
53
  3
B2
350
54
  3
B3
350
55
  3
B4
350
56
  3
B5
350
57
  3
B6
350
58
  3
B7
350
59
  3
B8
350
5A
  3
B9
350
5B
  3
C0
350
5C
  3
C1
350
5D
  3
C2
350
5E
  3
C3
350
5F
  3
C4
350
60
  3
C5
350
61
  3
C6
350
62
  3
C7
350
63
  3
C8
350
64
  3
C9
350
65
  3
D0
350
66
  3
D1
350
67
  3
D2
350
68
  0
DICTIONARY
  5
2A
102
{ACAD_REACTORS
330
C
102
}
330
C
100
AcDbDictionary
281
     1
  3
2dWireframe
350
2F
  3
Basic
350
32
  3
Brighten
350
36
  3
ColorChange
350
3A
  3
Conceptual
350
34
  3
Dim
350
35
  3
EdgeColorOff
350
3D
  3
Facepattern
350
39
  3
Flat
350
2B
  3
FlatWithEdges
350
2C
  3
Gouraud
350
2D
  3
GouraudWithEdges
350
2E
  3
Hidden
350
31
  3
JitterOff
350
3B
  3
Linepattern
350
38
  3
OverhangOff
350
3C
  3
Realistic
350
33
  3
Shaded
350
42
  3
Shaded with edges
350
41
  3
Shades of Gray
350
3E
  3
Sketchy
350
3F
  3
Thicken
350
37
  3
Wireframe
350
30
  3
X-Ray
350
40
  0
DICTIONARY
  5
1CE
102
{ACAD_REACTORS
330
C
102
}
330
C
100
AcDbDictionary
281
     1
  3
CANNOSCALE
350
1D7
  3
DIMASSOC
350
1D5
  3
HIDETEXT
350
1D6
  3
MSLTSCALE
350
1D8
  3
PSOLHEIGHT
350
1D2
  3
PSOLWIDTH
350
1D1
  0
LAYOUT
  5
1E
102
{ACAD_REACTORS
330
1A
102
}
330
1A
100
AcDbPlotSettings
  1

  2
none_device
  4

  6

 40
0.0
 41
0.0
 42
0.0
 43
0.0
 44
0.0
 45
0.0
 46
0.0
 47
0.0
 48
0.0
 49
0.0
140
0.0
141
0.0
142
1.0
143
1.0
 70
   688
 72
     1
 73
     0
 74
     5
  7

 75
    16
147
1.0
148
0.0
149
0.0
100
AcDbLayout
  1
Layout1
 70
     1
 71
     1
 10
0.0
 20
0.0
 11
3000.0
 21
4500.0
 12
0.0
 22
0.0
 32
0.0
 14
0.0
 24
0.0
 34
0.0
 15
3000.0
 25
4500.0
 35
0.0
146
0.0
 13
0.0
 23
0.0
 33
0.0
 16
1.0
 26
0.0
 36
0.0
 17
0.0
 27
1.0
 37
0.0
 76
     0
330
1B
  0
LAYOUT
  5
22
102
{ACAD_REACTORS
330
1A
102
}
330
1A
100
AcDbPlotSettings
  1

  2
none_device
  4
Letter_(8.50_x_11.00_Inches)
  6

 40
6.35
 41
6.35
 42
6.35000508
 43
6.35000508
 44
215.9
 45
279.4
 46
0.0
 47
0.0
 48
0.0
 49
0.0
140
0.0
141
0.0
142
1.0
143
1.0
 70
  1712
 72
     1
 73
     0
 74
     0
  7

 75
     0
147
1.0
148
0.0
149
0.0
100
AcDbLayout
  1
Model
 70
     1
 71
     0
 10
0.0
 20
0.0
 11
3000.0
 21
4500.0
 12
0.0
 22
0.0
 32
0.0
 14
0.0
 24
0.0
 34
0.0
 15
3000.0
 25
4500.0
 35
0.0
146
0.0
 13
0.0
 23
0.0
 33
0.0
 16
1.0
 26
0.0
 36
0.0
 17
0.0
 27
1.0
 37
0.0
 76
     0
330
1F
331
29
  0
MATERIAL
  5
45
102
{ACAD_REACTORS
330
43
102
}
102
{ACAD_XDICTIONARY
360
20B
102
}
330
43
100
AcDbMaterial
  1
ByBlock
  0
MATERIAL
  5
44
102
{ACAD_REACTORS
330
43
102
}
102
{ACAD_XDICTIONARY
360
209
102
}
330
43
100
AcDbMaterial
  1
ByLayer
  0
MATERIAL
  5
46
102
{ACAD_REACTORS
330
43
102
}
102
{ACAD_XDICTIONARY
360
20D
102
}
330
43
100
AcDbMaterial
  1
Global
  0
MLINESTYLE
  5
18
102
{ACAD_REACTORS
330
17
102
}
330
17
100
AcDbMlineStyle
  2
Standard
 70
     0
  3

 62
   256
 51
90.0
 52
90.0
 71
     2
 49
0.5
 62
   256
  6
BYLAYER
 49
-0.5
 62
   256
  6
BYLAYER
  0
ACDBPLACEHOLDER
  5
F
102
{ACAD_REACTORS
330
E
102
}
330
E
  0
SCALE
  5
48
102
{ACAD_REACTORS
330
47
102
}
330
47
100
AcDbScale
 70
     0
300
1:1
140
1.0
141
1.0
290
     1
  0
SCALE
  5
49
102
{ACAD_REACTORS
330
47
102
}
330
47
100
AcDbScale
 70
     0
300
1:2
140
1.0
141
2.0
290
     0
  0
SCALE
  5
4A
102
{ACAD_REACTORS
330
47
102
}
330
47
100
AcDbScale
 70
     0
300
1:4
140
1.0
141
4.0
290
     0
  0
SCALE
  5
4B
102
{ACAD_REACTORS
330
47
102
}
330
47
100
AcDbScale
 70
     0
300
1:5
140
1.0
141
5.0
290
     0
  0
SCALE
  5
4C
102
{ACAD_REACTORS
330
47
102
}
330
47
100
AcDbScale
 70
     0
300
1:8
140
1.0
141
8.0
290
     0
  0
SCALE
  5
4D
102
{ACAD_REACTORS
330
47
102
}
330
47
100
AcDbScale
 70
     0
300
1:10
140
1.0
141
10.0
290
     0
  0
SCALE
  5
4E
102
{ACAD_REACTORS
330
47
102
}
330
47
100
AcDbScale
 70
     0
300
1:16
140
1.0
141
16.0
290
     0
  0
SCALE
  5
4F
102
{ACAD_REACTORS
330
47
102
}
330
47
100
AcDbScale
 70
     0
300
1:20
140
1.0
141
20.0
290
     0
  0
SCALE
  5
50
102
{ACAD_REACTORS
330
47
102
}
330
47
100
AcDbScale
 70
     0
300
1:30
140
1.0
141
30.0
290
     0
  0
SCALE
  5
51
102
{ACAD_REACTORS
330
47
102
}
330
47
100
AcDbScale
 70
     0
300
1:40
140
1.0
141
40.0
290
     0
  0
SCALE
  5
52
102
{ACAD_REACTORS
330
47
102
}
330
47
100
AcDbScale
 70
     0
300
1:50
140
1.0
141
50.0
290
     0
  0
SCALE
  5
53
102
{ACAD_REACTORS
330
47
102
}
330
47
100
AcDbScale
 70
     0
300
1:100
140
1.0
141
100.0
290
     0
  0
SCALE
  5
54
102
{ACAD_REACTORS
330
47
102
}
330
47
100
AcDbScale
 70
     0
300
2:1
140
2.0
141
1.0
290
     0
  0
SCALE
  5
55
102
{ACAD_REACTORS
330
47
102
}
330
47
100
AcDbScale
 70
     0
300
4:1
140
4.0
141
1.0
290
     0
  0
SCALE
  5
56
102
{ACAD_REACTORS
330
47
102
}
330
47
100
AcDbScale
 70
     0
300
8:1
140
8.0
141
1.0
290
     0
  0
SCALE
  5
57
102
{ACAD_REACTORS
330
47
102
}
330
47
100
AcDbScale
 70
     0
300
10:1
140
10.0
141
1.0
290
     0
  0
SCALE
  5
58
102
{ACAD_REACTORS
330
47
102
}
330
47
100
AcDbScale
 70
     0
300
100:1
140
100.0
141
1.0
290
     0
  0
SCALE
  5
59
102
{ACAD_REACTORS
330
47
102
}
330
47
100
AcDbScale
 70
     0
300
1/128" = 1'-0"
140
0.0078125
141
12.0
290
     0
  0
SCALE
  5
5A
102
{ACAD_REACTORS
330
47
102
}
330
47
100
AcDbScale
 70
     0
300
1/64" = 1'-0"
140
0.015625
141
12.0
290
     0
  0
SCALE
  5
5B
102
{ACAD_REACTORS
330
47
102
}
330
47
100
AcDbScale
 70
     0
300
1/32" = 1'-0"
140
0.03125
141
12.0
290
     0
  0
SCALE
  5
5C
102
{ACAD_REACTORS
330
47
102
}
330
47
100
AcDbScale
 70
     0
300
1/16" = 1'-0"
140
0.0625
141
12.0
290
     0
  0
SCALE
  5
5D
102
{ACAD_REACTORS
330
47
102
}
330
47
100
AcDbScale
 70
     0
300
3/32" = 1'-0"
140
0.09375
141
12.0
290
     0
  0
SCALE
  5
5E
102
{ACAD_REACTORS
330
47
102
}
330
47
100
AcDbScale
 70
     0
300
1/8" = 1'-0"
140
0.125
141
12.0
290
     0
  0
SCALE
  5
5F
102
{ACAD_REACTORS
330
47
102
}
330
47
100
AcDbScale
 70
     0
300
3/16" = 1'-0"
140
0.1875
141
12.0
290
     0
  0
SCALE
  5
60
102
{ACAD_REACTORS
330
47
102
}
330
47
100
AcDbScale
 70
     0
300
1/4" = 1'-0"
140
0.25
141
12.0
290
     0
  0
SCALE
  5
61
102
{ACAD_REACTORS
330
47
102
}
330
47
100
AcDbScale
 70
     0
300
3/8" = 1'-0"
140
0.375
141
12.0
290
     0
  0
SCALE
  5
62
102
{ACAD_REACTORS
330
47
102
}
330
47
100
AcDbScale
 70
     0
300
1/2" = 1'-0"
140
0.5
141
12.0
290
     0
  0
SCALE
  5
63
102
{ACAD_REACTORS
330
47
102
}
330
47
100
AcDbScale
 70
     0
300
3/4" = 1'-0"
140
0.75
141
12.0
290
     0
  0
SCALE
  5
64
102
{ACAD_REACTORS
330
47
102
}
330
47
100
AcDbScale
 70
     0
300
1" = 1'-0"
140
1.0
141
12.0
290
     0
  0
SCALE
  5
65
102
{ACAD_REACTORS
330
47
102
}
330
47
100
AcDbScale
 70
     0
300
1-1/2" = 1'-0"
140
1.5
141
12.0
290
     0
  0
SCALE
  5
66
102
{ACAD_REACTORS
330
47
102
}
330
47
100
AcDbScale
 70
     0
300
3" = 1'-0"
140
3.0
141
12.0
290
     0
  0
SCALE
  5
67
102
{ACAD_REACTORS
330
47
102
}
330
47
100
AcDbScale
 70
     0
300
6" = 1'-0"
140
6.0
141
12.0
290
     0
  0
SCALE
  5
68
102
{ACAD_REACTORS
330
47
102
}
330
47
100
AcDbScale
 70
     0
300
1'-0" = 1'-0"
140
12.0
141
12.0
290
     0
  0
VISUALSTYLE
  5
2F
102
{ACAD_REACTORS
330
2A
102
}
102
{ACAD_XDICTIONARY
360
1E1
102
}
330
2A
100
AcDbVisualStyle
  2
2dWireframe
 70
     4
 71
     0
 72
     2
 73
     0
 90
        0
 40
0.6
 41
30.0
 62
     5
 63
     7
 74
     1
 91
        4
 64
     7
 65
   257
 75
     1
175
     1
 42
1.0
 92
        0
 66
   257
 43
1.0
 76
     1
 77
     6
 78
     2
 67
     7
 79
     5
170
     0
171
     0
290
     0
174
     0
 93
        1
 44
0.0
173
     0
291
     0
 45
0.0
1001
ACAD
1000
AcDbSavedByObjectVersion
1070
     0
  0
VISUALSTYLE
  5
32
102
{ACAD_REACTORS
330
2A
102
}
102
{ACAD_XDICTIONARY
360
1E7
102
}
330
2A
100
AcDbVisualStyle
  2
Basic
 70
     7
 71
     1
 72
     0
 73
     1
 90
        0
 40
0.6
 41
30.0
 62
     5
 63
     7
 74
     0
 91
        4
 64
     7
 65
   257
 75
     1
175
     1
 42
1.0
 92
        8
 66
     7
 43
1.0
 76
     1
 77
     6
 78
     2
 67
     7
 79
     5
170
     0
171
     0
290
     0
174
     0
 93
        1
 44
0.0
173
     0
291
     1
 45
0.0
1001
ACAD
1000
AcDbSavedByObjectVersion
1070
     0
  0
VISUALSTYLE
  5
36
102
{ACAD_REACTORS
330
2A
102
}
102
{ACAD_XDICTIONARY
360
1EF
102
}
330
2A
100
AcDbVisualStyle
  2
Brighten
 70
    12
 71
     2
 72
     2
 73
     0
 90
        0
 40
0.6
 41
30.0
 62
     5
 63
     7
 74
     1
 91
        4
 64
     7
 65
   257
 75
     1
175
     1
 42
1.0
 92
        8
 66
     7
 43
1.0
 76
     1
 77
     6
 78
     2
 67
     7
 79
     5
170
     0
171
     0
290
     0
174
     0
 93
        1
 44
50.0
173
     0
291
     1
 45
0.0
1001
ACAD
1000
AcDbSavedByObjectVersion
1070
     0
  0
VISUALSTYLE
  5
3A
102
{ACAD_REACTORS
330
2A
102
}
102
{ACAD_XDICTIONARY
360
1F7
102
}
330
2A
100
AcDbVisualStyle
  2
ColorChange
 70
    16
 71
     2
 72
     2
 73
     3
 90
        0
 40
0.6
 41
30.0
 62
     5
 63
     8
 74
     1
 91
        4
 64
     7
 65
   257
 75
     1
175
     1
 42
1.0
 92
        8
 66
     8
 43
1.0
 76
     1
 77
     6
 78
     2
 67
     7
 79
     5
170
     0
171
     0
290
     0
174
     0
 93
        1
 44
0.0
173
     0
291
     1
 45
0.0
1001
ACAD
1000
AcDbSavedByObjectVersion
1070
     0
  0
VISUALSTYLE
  5
34
102
{ACAD_REACTORS
330
2A
102
}
102
{ACAD_XDICTIONARY
360
1EB
102
}
330
2A
100
AcDbVisualStyle
  2
Conceptual
 70
     9
 71
     3
 72
     2
 73
     0
 90
        0
 40
0.6
 41
30.0
 62
     5
 63
     7
 74
     2
 91
        2
 64
     7
 65
   257
 75
     1
175
     1
 42
179.0
 92
        8
 66
     7
 43
1.0
 76
     1
 77
     6
 78
     2
 67
     7
 79
     3
170
     0
171
     0
290
     0
174
     0
 93
        1
 44
0.0
173
     0
291
     0
 45
0.0
1001
ACAD
1000
AcDbSavedByObjectVersion
1070
     0
  0
VISUALSTYLE
  5
35
102
{ACAD_REACTORS
330
2A
102
}
102
{ACAD_XDICTIONARY
360
1ED
102
}
330
2A
100
AcDbVisualStyle
  2
Dim
 70
    11
 71
     2
 72
     2
 73
     0
 90
        0
 40
0.6
 41
30.0
 62
     5
 63
     7
 74
     1
 91
        4
 64
     7
 65
   257
 75
     1
175
     1
 42
1.0
 92
        8
 66
     7
 43
1.0
 76
     1
 77
     6
 78
     2
 67
     7
 79
     5
170
     0
171
     0
290
     0
174
     0
 93
        1
 44
-50.0
173
     0
291
     1
 45
0.0
1001
ACAD
1000
AcDbSavedByObjectVersion
1070
     0
  0
VISUALSTYLE
  5
3D
102
{ACAD_REACTORS
330
2A
102
}
102
{ACAD_XDICTIONARY
360
1FD
102
}
330
2A
100
AcDbVisualStyle
  2
EdgeColorOff
 70
    22
 71
     2
 72
     2
 73
     0
 90
        0
 40
0.6
 41
30.0
 62
     5
 63
     7
 74
     1
 91
        4
 64
     7
 65
   257
 75
     1
175
     1
 42
1.0
 92
        8
 66
     7
 43
1.0
 76
     1
 77
     6
 78
     2
 67
     7
 79
     5
170
     0
171
     0
290
     0
174
     0
 93
        1
 44
0.0
173
     0
291
     1
 45
0.0
1001
ACAD
1000
AcDbSavedByObjectVersion
1070
     0
  0
VISUALSTYLE
  5
39
102
{ACAD_REACTORS
330
2A
102
}
102
{ACAD_XDICTIONARY
360
1F5
102
}
330
2A
100
AcDbVisualStyle
  2
Facepattern
 70
    15
 71
     2
 72
     2
 73
     0
 90
        0
 40
0.6
 41
30.0
 62
     5
 63
     7
 74
     1
 91
        4
 64
     7
 65
   257
 75
     1
175
     1
 42
1.0
 92
        8
 66
     7
 43
1.0
 76
     1
 77
     6
 78
     2
 67
     7
 79
     5
170
     0
171
     0
290
     0
174
     0
 93
        1
 44
0.0
173
     0
291
     1
 45
0.0
1001
ACAD
1000
AcDbSavedByObjectVersion
1070
     0
  0
VISUALSTYLE
  5
2B
102
{ACAD_REACTORS
330
2A
102
}
102
{ACAD_XDICTIONARY
360
1D9
102
}
330
2A
100
AcDbVisualStyle
  2
Flat
 70
     0
 71
     2
 72
     1
 73
     1
 90
        2
 40
0.6
 41
30.0
 62
     5
 63
     7
 74
     0
 91
        0
 64
     7
 65
   257
 75
     1
175
     1
 42
1.0
 92
        8
 66
     7
 43
1.0
 76
     1
 77
     6
 78
     2
 67
     7
 79
     5
170
     0
171
     0
290
     0
174
     0
 93
       13
 44
0.0
173
     0
291
     1
 45
0.0
1001
ACAD
1000
AcDbSavedByObjectVersion
1070
     0
  0
VISUALSTYLE
  5
2C
102
{ACAD_REACTORS
330
2A
102
}
102
{ACAD_XDICTIONARY
360
1DB
102
}
330
2A
100
AcDbVisualStyle
  2
FlatWithEdges
 70
     1
 71
     2
 72
     1
 73
     1
 90
        2
 40
0.6
 41
30.0
 62
     5
 63
     7
 74
     1
 91
        0
 64
     7
 65
   257
 75
     1
175
     1
 42
1.0
 92
        0
 66
   257
 43
1.0
 76
     1
 77
     6
 78
     2
 67
     7
 79
     5
170
     0
171
     0
290
     0
174
     0
 93
       13
 44
0.0
173
     0
291
     1
 45
0.0
1001
ACAD
1000
AcDbSavedByObjectVersion
1070
     0
  0
VISUALSTYLE
  5
2D
102
{ACAD_REACTORS
330
2A
102
}
102
{ACAD_XDICTIONARY
360
1DD
102
}
330
2A
100
AcDbVisualStyle
  2
Gouraud
 70
     2
 71
     2
 72
     2
 73
     1
 90
        2
 40
0.6
 41
30.0
 62
     5
 63
     7
 74
     0
 91
        0
 64
     7
 65
   257
 75
     1
175
     1
 42
1.0
 92
        0
 66
     7
 43
1.0
 76
     1
 77
     6
 78
     2
 67
     7
 79
     5
170
     0
171
     0
290
     0
174
     0
 93
       13
 44
0.0
173
     0
291
     1
 45
0.0
1001
ACAD
1000
AcDbSavedByObjectVersion
1070
     0
  0
VISUALSTYLE
  5
2E
102
{ACAD_REACTORS
330
2A
102
}
102
{ACAD_XDICTIONARY
360
1DF
102
}
330
2A
100
AcDbVisualStyle
  2
GouraudWithEdges
 70
     3
 71
     2
 72
     2
 73
     1
 90
        2
 40
0.6
 41
30.0
 62
     5
 63
     7
 74
     1
 91
        0
 64
     7
 65
   257
 75
     1
175
     1
 42
1.0
 92
        0
 66
   257
 43
1.0
 76
     1
 77
     6
 78
     2
 67
     7
 79
     5
170
     0
171
     0
290
     0
174
     0
 93
       13
 44
0.0
173
     0
291
     1
 45
0.0
1001
ACAD
1000
AcDbSavedByObjectVersion
1070
     0
  0
VISUALSTYLE
  5
31
102
{ACAD_REACTORS
330
2A
102
}
102
{ACAD_XDICTIONARY
360
1E5
102
}
330
2A
100
AcDbVisualStyle
  2
Hidden
 70
     6
 71
     1
 72
     2
 73
     2
 90
        0
 40
0.6
 41
30.0
 62
     5
 63
     7
 74
     2
 91
        2
 64
     7
 65
   257
 75
     2
175
     1
 42
40.0
 92
        0
 66
   257
 43
1.0
 76
     1
 77
     6
 78
     2
 67
     7
 79
     3
170
     0
171
     0
290
     0
174
     0
 93
        1
 44
0.0
173
     0
291
     0
 45
0.0
1001
ACAD
1000
AcDbSavedByObjectVersion
1070
     0
  0
VISUALSTYLE
  5
3B
102
{ACAD_REACTORS
330
2A
102
}
102
{ACAD_XDICTIONARY
360
1F9
102
}
330
2A
100
AcDbVisualStyle
  2
JitterOff
 70
    20
 71
     2
 72
     2
 73
     0
 90
        0
 40
0.6
 41
30.0
 62
     5
 63
     7
 74
     1
 91
        4
 64
     7
 65
   257
 75
     1
175
     1
 42
1.0
 92
       10
 66
     7
 43
1.0
 76
     1
 77
     6
 78
     2
 67
     7
 79
     5
170
     0
171
     0
290
     0
174
     0
 93
        1
 44
0.0
173
     0
291
     1
 45
0.0
1001
ACAD
1000
AcDbSavedByObjectVersion
1070
     0
  0
VISUALSTYLE
  5
38
102
{ACAD_REACTORS
330
2A
102
}
102
{ACAD_XDICTIONARY
360
1F3
102
}
330
2A
100
AcDbVisualStyle
  2
Linepattern
 70
    14
 71
     2
 72
     2
 73
     0
 90
        0
 40
0.6
 41
30.0
 62
     5
 63
     7
 74
     1
 91
        4
 64
     7
 65
   257
 75
     7
175
     7
 42
1.0
 92
        8
 66
     7
 43
1.0
 76
     1
 77
     6
 78
     2
 67
     7
 79
     5
170
     0
171
     0
290
     0
174
     0
 93
        1
 44
0.0
173
     0
291
     1
 45
0.0
1001
ACAD
1000
AcDbSavedByObjectVersion
1070
     0
  0
VISUALSTYLE
  5
3C
102
{ACAD_REACTORS
330
2A
102
}
102
{ACAD_XDICTIONARY
360
1FB
102
}
330
2A
100
AcDbVisualStyle
  2
OverhangOff
 70
    21
 71
     2
 72
     2
 73
     0
 90
        0
 40
0.6
 41
30.0
 62
     5
 63
     7
 74
     1
 91
        4
 64
     7
 65
   257
 75
     1
175
     1
 42
1.0
 92
        9
 66
     7
 43
1.0
 76
     1
 77
     6
 78
     2
 67
     7
 79
     5
170
     0
171
     0
290
     0
174
     0
 93
        1
 44
0.0
173
     0
291
     1
 45
0.0
1001
ACAD
1000
AcDbSavedByObjectVersion
1070
     0
  0
VISUALSTYLE
  5
33
102
{ACAD_REACTORS
330
2A
102
}
102
{ACAD_XDICTIONARY
360
1E9
102
}
330
2A
100
AcDbVisualStyle
  2
Realistic
 70
     8
 71
     2
 72
     3
 73
     0
 90
        2
 40
0.6
 41
30.0
 62
     5
 63
     7
 74
     0
 91
        0
 64
     7
 65
   257
 75
     1
175
     1
 42
1.0
 92
        8
 66
   257
 43
1.0
 76
     1
 77
     6
 78
     2
 67
     7
 79
     3
170
     0
171
     0
290
     0
174
     0
 93
       13
 44
0.0
173
     0
291
     0
 45
0.0
1001
ACAD
1000
AcDbSavedByObjectVersion
1070
     0
  0
VISUALSTYLE
  5
42
102
{ACAD_REACTORS
330
2A
102
}
102
{ACAD_XDICTIONARY
360
207
102
}
330
2A
100
AcDbVisualStyle
  2
Shaded
 70
    27
 71
     2
 72
     2
 73
     1
 90
        2
 40
0.6
 41
30.0
 62
     5
 63
     7
 74
     0
 91
        4
 64
     7
 65
   257
 75
     1
175
     1
 42
1.0
 92
        8
 66
   257
 43
1.0
 76
     1
 77
     6
 78
     2
 67
     8
 79
     3
170
     0
171
     0
290
     0
174
     0
 93
        5
 44
0.0
173
     0
291
     0
 45
0.0
1001
ACAD
1000
AcDbSavedByObjectVersion
1070
     0
  0
VISUALSTYLE
  5
41
102
{ACAD_REACTORS
330
2A
102
}
102
{ACAD_XDICTIONARY
360
205
102
}
330
2A
100
AcDbVisualStyle
  2
Shaded with edges
 70
    26
 71
     2
 72
     2
 73
     1
 90
        2
 40
0.6
 41
30.0
 62
     5
 63
     7
 74
     1
 91
       10
 64
     7
 65
   257
 75
     2
175
     1
 42
1.0
 92
        8
 66
   257
 43
1.0
 76
     1
 77
     6
 78
     2
 67
     7
 79
     3
170
     0
171
     0
290
     0
174
     0
 93
        5
 44
0.0
173
     0
291
     0
 45
0.0
1001
ACAD
1000
AcDbSavedByObjectVersion
1070
     0
  0
VISUALSTYLE
  5
3E
102
{ACAD_REACTORS
330
2A
102
}
102
{ACAD_XDICTIONARY
360
1FF
102
}
330
2A
100
AcDbVisualStyle
  2
Shades of Gray
 70
    23
 71
     2
 72
     2
 73
     3
 90
        0
 40
0.6
 41
30.0
 62
     5
 63
     7
 74
     2
 91
        2
 64
     7
 65
     7
 75
     1
175
     1
 42
40.0
 92
        8
 66
     7
 43
1.0
 76
     1
 77
     6
 78
     2
 67
     7
 79
     3
170
     0
171
     0
290
     0
174
     0
 93
        1
 44
0.0
173
     0
291
     0
 45
0.0
1001
ACAD
1000
AcDbSavedByObjectVersion
1070
     0
  0
VISUALSTYLE
  5
3F
102
{ACAD_REACTORS
330
2A
102
}
102
{ACAD_XDICTIONARY
360
201
102
}
330
2A
100
AcDbVisualStyle
  2
Sketchy
 70
    24
 71
     1
 72
     2
 73
     2
 90
        0
 40
0.6
 41
30.0
 62
     5
 63
     7
 74
     2
 91
        2
 64
     7
 65
     7
 75
     1
175
     1
 42
40.0
 92
       11
 66
     7
 43
1.0
 76
     1
 77
     6
 78
     2
 67
     7
 79
     6
170
     0
171
     0
290
     0
174
     0
 93
        1
 44
0.0
173
     0
291
     0
 45
0.0
1001
ACAD
1000
AcDbSavedByObjectVersion
1070
     0
  0
VISUALSTYLE
  5
37
102
{ACAD_REACTORS
330
2A
102
}
102
{ACAD_XDICTIONARY
360
1F1
102
}
330
2A
100
AcDbVisualStyle
  2
Thicken
 70
    13
 71
     2
 72
     2
 73
     0
 90
        0
 40
0.6
 41
30.0
 62
     5
 63
     7
 74
     1
 91
        4
 64
     7
 65
   257
 75
     1
175
     1
 42
1.0
 92
       12
 66
     7
 43
1.0
 76
     1
 77
     6
 78
     2
 67
     7
 79
     5
170
     0
171
     0
290
     0
174
     0
 93
        1
 44
0.0
173
     0
291
     1
 45
0.0
1001
ACAD
1000
AcDbSavedByObjectVersion
1070
     0
  0
VISUALSTYLE
  5
30
102
{ACAD_REACTORS
330
2A
102
}
102
{ACAD_XDICTIONARY
360
1E3
102
}
330
2A
100
AcDbVisualStyle
  2
Wireframe
 70
     5
 71
     0
 72
     2
 73
     0
 90
        0
 40
0.6
 41
30.0
 62
     5
 63
     7
 74
     1
 91
        4
 64
     7
 65
   257
 75
     1
175
     1
 42
1.0
 92
        0
 66
   257
 43
1.0
 76
     1
 77
     6
 78
     2
 67
     7
 79
     3
170
     0
171
     0
290
     0
174
     0
 93
        1
 44
0.0
173
     0
291
     0
 45
0.0
1001
ACAD
1000
AcDbSavedByObjectVersion
1070
     0
  0
VISUALSTYLE
  5
40
102
{ACAD_REACTORS
330
2A
102
}
102
{ACAD_XDICTIONARY
360
203
102
}
330
2A
100
AcDbVisualStyle
  2
X-Ray
 70
    25
 71
     2
 72
     2
 73
     1
 90
        1
 40
0.5
 41
30.0
 62
     5
 63
     7
 74
     1
 91
        0
 64
     7
 65
   257
 75
     1
175
     1
 42
1.0
 92
        8
 66
     7
 43
1.0
 76
     1
 77
     6
 78
     2
 67
     7
 79
     3
170
     0
171
     0
290
     0
174
     0
 93
       13
 44
0.0
173
     0
291
     0
 45
0.0
1001
ACAD
1000
AcDbSavedByObjectVersion
1070
     0
  0
DICTIONARYVAR
  5
1D7
102
{ACAD_REACTORS
330
1CE
102
}
330
1CE
100
DictionaryVariables
280
     0
  1
1:1
  0
DICTIONARYVAR
  5
1D5
102
{ACAD_REACTORS
330
1CE
102
}
330
1CE
100
DictionaryVariables
280
     0
  1
2
  0
DICTIONARYVAR
  5
1D6
102
{ACAD_REACTORS
330
1CE
102
}
330
1CE
100
DictionaryVariables
280
     0
  1
1
  0
DICTIONARYVAR
  5
1D8
102
{ACAD_REACTORS
330
1CE
102
}
330
1CE
100
DictionaryVariables
280
     0
  1
1
  0
DICTIONARYVAR
  5
1D2
102
{ACAD_REACTORS
330
1CE
102
}
330
1CE
100
DictionaryVariables
280
     0
  1
80.000000
  0
DICTIONARYVAR
  5
1D1
102
{ACAD_REACTORS
330
1CE
102
}
330
1CE
100
DictionaryVariables
280
     0
  1
5.000000
  0
DICTIONARY
  5
20B
330
45
100
AcDbDictionary
280
     1
281
     1
  3
ACAD_XREC_ROUNDTRIP
360
20C
  0
DICTIONARY
  5
209
330
44
100
AcDbDictionary
280
     1
281
     1
  3
ACAD_XREC_ROUNDTRIP
360
20A
  0
DICTIONARY
  5
20D
330
46
100
AcDbDictionary
280
     1
281
     1
  3
ACAD_XREC_ROUNDTRIP
360
20E
  0
DICTIONARY
  5
1E1
330
2F
100
AcDbDictionary
280
     1
281
     1
  3
ACAD_XREC_ROUNDTRIP
360
1E2
  0
DICTIONARY
  5
1E7
330
32
100
AcDbDictionary
280
     1
281
     1
  3
ACAD_XREC_ROUNDTRIP
360
1E8
  0
DICTIONARY
  5
1EF
330
36
100
AcDbDictionary
280
     1
281
     1
  3
ACAD_XREC_ROUNDTRIP
360
1F0
  0
DICTIONARY
  5
1F7
330
3A
100
AcDbDictionary
280
     1
281
     1
  3
ACAD_XREC_ROUNDTRIP
360
1F8
  0
DICTIONARY
  5
1EB
330
34
100
AcDbDictionary
280
     1
281
     1
  3
ACAD_XREC_ROUNDTRIP
360
1EC
  0
DICTIONARY
  5
1ED
330
35
100
AcDbDictionary
280
     1
281
     1
  3
ACAD_XREC_ROUNDTRIP
360
1EE
  0
DICTIONARY
  5
1FD
330
3D
100
AcDbDictionary
280
     1
281
     1
  3
ACAD_XREC_ROUNDTRIP
360
1FE
  0
DICTIONARY
  5
1F5
330
39
100
AcDbDictionary
280
     1
281
     1
  3
ACAD_XREC_ROUNDTRIP
360
1F6
  0
DICTIONARY
  5
1D9
330
2B
100
AcDbDictionary
280
     1
281
     1
  3
ACAD_XREC_ROUNDTRIP
360
1DA
  0
DICTIONARY
  5
1DB
330
2C
100
AcDbDictionary
280
     1
281
     1
  3
ACAD_XREC_ROUNDTRIP
360
1DC
  0
DICTIONARY
  5
1DD
330
2D
100
AcDbDictionary
280
     1
281
     1
  3
ACAD_XREC_ROUNDTRIP
360
1DE
  0
DICTIONARY
  5
1DF
330
2E
100
AcDbDictionary
280
     1
281
     1
  3
ACAD_XREC_ROUNDTRIP
360
1E0
  0
DICTIONARY
  5
1E5
330
31
100
AcDbDictionary
280
     1
281
     1
  3
ACAD_XREC_ROUNDTRIP
360
1E6
  0
DICTIONARY
  5
1F9
330
3B
100
AcDbDictionary
280
     1
281
     1
  3
ACAD_XREC_ROUNDTRIP
360
1FA
  0
DICTIONARY
  5
1F3
330
38
100
AcDbDictionary
280
     1
281
     1
  3
ACAD_XREC_ROUNDTRIP
360
1F4
  0
DICTIONARY
  5
1FB
330
3C
100
AcDbDictionary
280
     1
281
     1
  3
ACAD_XREC_ROUNDTRIP
360
1FC
  0
DICTIONARY
  5
1E9
330
33
100
AcDbDictionary
280
     1
281
     1
  3
ACAD_XREC_ROUNDTRIP
360
1EA
  0
DICTIONARY
  5
207
330
42
100
AcDbDictionary
280
     1
281
     1
  3
ACAD_XREC_ROUNDTRIP
360
208
  0
DICTIONARY
  5
205
330
41
100
AcDbDictionary
280
     1
281
     1
  3
ACAD_XREC_ROUNDTRIP
360
206
  0
DICTIONARY
  5
1FF
330
3E
100
AcDbDictionary
280
     1
281
     1
  3
ACAD_XREC_ROUNDTRIP
360
200
  0
DICTIONARY
  5
201
330
3F
100
AcDbDictionary
280
     1
281
     1
  3
ACAD_XREC_ROUNDTRIP
360
202
  0
DICTIONARY
  5
1F1
330
37
100
AcDbDictionary
280
     1
281
     1
  3
ACAD_XREC_ROUNDTRIP
360
1F2
  0
DICTIONARY
  5
1E3
330
30
100
AcDbDictionary
280
     1
281
     1
  3
ACAD_XREC_ROUNDTRIP
360
1E4
  0
DICTIONARY
  5
203
330
40
100
AcDbDictionary
280
     1
281
     1
  3
ACAD_XREC_ROUNDTRIP
360
204
  0
XRECORD
  5
20C
102
{ACAD_REACTORS
330
20B
102
}
330
20B
100
AcDbXrecord
280
     1
102
MATERIAL
148
0.0
149
0.0
149
0.0
 93
        0
 94
      127
282
     0
 72
     1
 77
     1
171
     1
175
     1
179
     1
273
     0
  0
XRECORD
  5
20A
102
{ACAD_REACTORS
330
209
102
}
330
209
100
AcDbXrecord
280
     1
102
MATERIAL
148
0.0
149
0.0
149
0.0
 93
        0
 94
      127
282
     0
 72
     1
 77
     1
171
     1
175
     1
179
     1
273
     0
  0
XRECORD
  5
20E
102
{ACAD_REACTORS
330
20D
102
}
330
20D
100
AcDbXrecord
280
     1
102
MATERIAL
148
0.0
149
0.0
149
0.0
 93
        0
 94
      127
282
     0
 72
     1
 77
     1
171
     1
175
     1
179
     1
273
     0
  0
XRECORD
  5
1E2
102
{ACAD_REACTORS
330
1E1
102
}
330
1E1
100
AcDbXrecord
280
     1
102
RTVSPropertyOp0
 70
     1
102
RTVSPropertyOp1
 70
     1
102
RTVSPropertyOp2
 70
     1
102
RTVSPropertyOp3
 70
     1
102
RTVSPropertyOp4
 70
     1
102
RTVSPropertyOp5
 70
     1
102
RTVSPropertyOp6
 70
     1
102
RTVSPropertyOp7
 70
     1
102
RTVSPropertyOp8
 70
     1
102
RTVSPropertyOp9
 70
     1
102
RTVSPropertyOp10
 70
     1
102
RTVSPropertyOp11
 70
     1
102
RTVSPropertyOp12
 70
     1
102
RTVSPropertyOp13
 70
     1
102
RTVSPropertyOp14
 70
     1
102
RTVSPropertyOp15
 70
     1
102
RTVSPropertyOp16
 70
     1
102
RTVSPropertyOp17
 70
     1
102
RTVSPropertyOp18
 70
     1
102
RTVSPropertyOp19
 70
     1
102
RTVSPropertyOp20
 70
     1
102
RTVSPropertyOp21
 70
     1
102
RTVSPropertyOp22
 70
     1
102
RTVSPropertyOp23
 70
     1
102
RTVSPropertyOp24
 70
     1
102
RTVSPropertyOp25
 70
     1
102
RTVSPropertyOp26
 70
     1
102
RTVSPropertyOp27
 70
     1
102
RTVSPropertyOp28
 70
     1
102
RTVSPropertyOp29
 70
     1
102
RTVSPropertyOp30
 70
     1
102
RTVSPropertyOp31
 70
     1
102
RTVSPropertyOp32
 70
     1
102
RTVSPropertyOp33
 70
     1
102
RTVSPropertyOp34
 70
     1
102
RTVSPropertyOp35
 70
     1
102
RTVSPropertyOp36
 70
     1
102
RTVSPropertyOp37
 70
     1
102
RTVSPropertyOp38
 70
     1
102
RTVSPropertyOp39
 70
     1
102
RTVSPropertyOp40
 70
     1
102
RTVSPropertyOp41
 70
     1
102
RTVSPropertyOp42
 70
     1
102
RTVSPropertyOp43
 70
     1
102
RTVSPropertyOp44
 70
     1
102
RTVSPropertyOp45
 70
     1
102
RTVSPropertyOp46
 70
     1
102
RTVSPropertyOp47
 70
     1
102
RTVSPropertyOp48
 70
     1
102
RTVSPropertyOp49
 70
     1
102
RTVSPropertyOp50
 70
     1
102
RTVSPropertyOp51
 70
     0
102
RTVSPropertyOp52
 70
     0
102
RTVSPropertyOp53
 70
     1
102
RTVSPropertyOp54
 70
     1
102
RTVSPropertyOp55
 70
     1
102
RTVSPropertyOp56
 70
     1
102
RTVSPropertyOp57
 70
     1
102
RTVSPost2010Prop28
280
     1
102
RTVSPost2010PropOp28
 70
     1
102
RTVSPost2010Prop29
280
     1
102
RTVSPost2010PropOp29
 70
     1
102
RTVSPost2010Prop30
280
     0
102
RTVSPost2010PropOp30
 70
     1
102
RTVSPost2010Prop31
280
     0
102
RTVSPost2010PropOp31
 70
     1
102
RTVSPost2010Prop32
280
     0
102
RTVSPost2010PropOp32
 70
     1
102
RTVSPost2010Prop33
280
     0
102
RTVSPost2010PropOp33
 70
     1
102
RTVSPost2010Prop34
280
     0
102
RTVSPost2010PropOp34
 70
     1
102
RTVSPost2010Prop35
280
     0
102
RTVSPost2010PropOp35
 70
     1
102
RTVSPost2010Prop36
280
     0
102
RTVSPost2010PropOp36
 70
     1
102
RTVSPost2010Prop37
 90
       50
102
RTVSPost2010PropOp37
 70
     1
102
RTVSPost2010Prop38
140
0.0
102
RTVSPost2010PropOp38
 70
     1
102
RTVSPost2010Prop39
140
1.0
102
RTVSPost2010PropOp39
 70
     1
102
RTVSPost2010Prop40
 90
        0
102
RTVSPost2010PropOp40
 70
     1
102
RTVSPost2010Prop41ColorIndex
 90
       18
102
RTVSPost2010Prop41ColorRGB
 90
        0
102
RTVSPost2010PropOp41
 70
     1
102
RTVSPost2010Prop42
 90
       50
102
RTVSPost2010PropOp42
 70
     1
102
RTVSPost2010Prop43
 90
        3
102
RTVSPost2010PropOp43
 70
     1
102
RTVSPost2010Prop44ColorIndex
 90
        5
102
RTVSPost2010Prop44ColorRGB
 90
      255
102
RTVSPost2010PropOp44
 70
     1
102
RTVSPost2010Prop45
280
     0
102
RTVSPost2010PropOp45
 70
     1
102
RTVSPost2010Prop46
 90
       50
102
RTVSPost2010PropOp46
 70
     1
102
RTVSPost2010Prop47
 90
       50
102
RTVSPost2010PropOp47
 70
     1
102
RTVSPost2010Prop48
 90
       50
102
RTVSPost2010PropOp48
 70
     1
102
RTVSPost2010Prop49
280
     0
102
RTVSPost2010PropOp49
 70
     1
102
RTVSPost2010Prop50
 90
       50
102
RTVSPost2010PropOp50
 70
     1
102
RTVSPost2010Prop51ColorIndex
 90
      256
102
RTVSPost2010Prop51ColorRGB
 90
-16777216
102
RTVSPost2010PropOp51
 70
     0
102
RTVSPost2010Prop52
140
1.0
102
RTVSPost2010PropOp52
 70
     0
102
RTVSPost2010Prop53
 90
        2
102
RTVSPost2010PropOp53
 70
     1
102
RTVSPost2010Prop54
  1
strokes_ogs.tif
102
RTVSPost2010PropOp54
 70
     1
102
RTVSPost2010Prop55
280
     0
102
RTVSPost2010PropOp55
 70
     1
102
RTVSPost2010Prop56
140
1.0
102
RTVSPost2010PropOp56
 70
     1
102
RTVSPost2010Prop57
140
1.0
102
RTVSPost2010PropOp57
 70
     1
  0
XRECORD
  5
1E8
102
{ACAD_REACTORS
330
1E7
102
}
330
1E7
100
AcDbXrecord
280
     1
102
RTVSPropertyOp0
 70
     1
102
RTVSPropertyOp1
 70
     1
102
RTVSPropertyOp2
 70
     1
102
RTVSPropertyOp3
 70
     1
102
RTVSPropertyOp4
 70
     1
102
RTVSPropertyOp5
 70
     1
102
RTVSPropertyOp6
 70
     1
102
RTVSPropertyOp7
 70
     1
102
RTVSPropertyOp8
 70
     1
102
RTVSPropertyOp9
 70
     1
102
RTVSPropertyOp10
 70
     1
102
RTVSPropertyOp11
 70
     1
102
RTVSPropertyOp12
 70
     1
102
RTVSPropertyOp13
 70
     1
102
RTVSPropertyOp14
 70
     1
102
RTVSPropertyOp15
 70
     1
102
RTVSPropertyOp16
 70
     1
102
RTVSPropertyOp17
 70
     1
102
RTVSPropertyOp18
 70
     1
102
RTVSPropertyOp19
 70
     1
102
RTVSPropertyOp20
 70
     1
102
RTVSPropertyOp21
 70
     1
102
RTVSPropertyOp22
 70
     1
102
RTVSPropertyOp23
 70
     1
102
RTVSPropertyOp24
 70
     1
102
RTVSPropertyOp25
 70
     1
102
RTVSPropertyOp26
 70
     1
102
RTVSPropertyOp27
 70
     1
102
RTVSPropertyOp28
 70
     1
102
RTVSPropertyOp29
 70
     1
102
RTVSPropertyOp30
 70
     1
102
RTVSPropertyOp31
 70
     1
102
RTVSPropertyOp32
 70
     1
102
RTVSPropertyOp33
 70
     1
102
RTVSPropertyOp34
 70
     1
102
RTVSPropertyOp35
 70
     1
102
RTVSPropertyOp36
 70
     1
102
RTVSPropertyOp37
 70
     1
102
RTVSPropertyOp38
 70
     1
102
RTVSPropertyOp39
 70
     1
102
RTVSPropertyOp40
 70
     1
102
RTVSPropertyOp41
 70
     1
102
RTVSPropertyOp42
 70
     1
102
RTVSPropertyOp43
 70
     1
102
RTVSPropertyOp44
 70
     1
102
RTVSPropertyOp45
 70
     1
102
RTVSPropertyOp46
 70
     1
102
RTVSPropertyOp47
 70
     1
102
RTVSPropertyOp48
 70
     1
102
RTVSPropertyOp49
 70
     1
102
RTVSPropertyOp50
 70
     1
102
RTVSPropertyOp51
 70
     0
102
RTVSPropertyOp52
 70
     0
102
RTVSPropertyOp53
 70
     1
102
RTVSPropertyOp54
 70
     1
102
RTVSPropertyOp55
 70
     1
102
RTVSPropertyOp56
 70
     1
102
RTVSPropertyOp57
 70
     1
102
RTVSPost2010Prop28
280
     0
102
RTVSPost2010PropOp28
 70
     1
102
RTVSPost2010Prop29
280
     1
102
RTVSPost2010PropOp29
 70
     1
102
RTVSPost2010Prop30
280
     1
102
RTVSPost2010PropOp30
 70
     1
102
RTVSPost2010Prop31
280
     0
102
RTVSPost2010PropOp31
 70
     1
102
RTVSPost2010Prop32
280
     0
102
RTVSPost2010PropOp32
 70
     1
102
RTVSPost2010Prop33
280
     0
102
RTVSPost2010PropOp33
 70
     1
102
RTVSPost2010Prop34
280
     0
102
RTVSPost2010PropOp34
 70
     1
102
RTVSPost2010Prop35
280
     0
102
RTVSPost2010PropOp35
 70
     1
102
RTVSPost2010Prop36
280
     0
102
RTVSPost2010PropOp36
 70
     1
102
RTVSPost2010Prop37
 90
       50
102
RTVSPost2010PropOp37
 70
     1
102
RTVSPost2010Prop38
140
0.0
102
RTVSPost2010PropOp38
 70
     1
102
RTVSPost2010Prop39
140
1.0
102
RTVSPost2010PropOp39
 70
     1
102
RTVSPost2010Prop40
 90
        0
102
RTVSPost2010PropOp40
 70
     1
102
RTVSPost2010Prop41ColorIndex
 90
       18
102
RTVSPost2010Prop41ColorRGB
 90
        0
102
RTVSPost2010PropOp41
 70
     1
102
RTVSPost2010Prop42
 90
       50
102
RTVSPost2010PropOp42
 70
     1
102
RTVSPost2010Prop43
 90
        3
102
RTVSPost2010PropOp43
 70
     1
102
RTVSPost2010Prop44ColorIndex
 90
        5
102
RTVSPost2010Prop44ColorRGB
 90
      255
102
RTVSPost2010PropOp44
 70
     1
102
RTVSPost2010Prop45
280
     0
102
RTVSPost2010PropOp45
 70
     1
102
RTVSPost2010Prop46
 90
       50
102
RTVSPost2010PropOp46
 70
     1
102
RTVSPost2010Prop47
 90
       50
102
RTVSPost2010PropOp47
 70
     1
102
RTVSPost2010Prop48
 90
       50
102
RTVSPost2010PropOp48
 70
     1
102
RTVSPost2010Prop49
280
     0
102
RTVSPost2010PropOp49
 70
     1
102
RTVSPost2010Prop50
 90
       50
102
RTVSPost2010PropOp50
 70
     1
102
RTVSPost2010Prop51ColorIndex
 90
      256
102
RTVSPost2010Prop51ColorRGB
 90
-16777216
102
RTVSPost2010PropOp51
 70
     0
102
RTVSPost2010Prop52
140
1.0
102
RTVSPost2010PropOp52
 70
     0
102
RTVSPost2010Prop53
 90
        2
102
RTVSPost2010PropOp53
 70
     1
102
RTVSPost2010Prop54
  1
strokes_ogs.tif
102
RTVSPost2010PropOp54
 70
     1
102
RTVSPost2010Prop55
280
     0
102
RTVSPost2010PropOp55
 70
     1
102
RTVSPost2010Prop56
140
1.0
102
RTVSPost2010PropOp56
 70
     1
102
RTVSPost2010Prop57
140
1.0
102
RTVSPost2010PropOp57
 70
     1
  0
XRECORD
  5
1F0
102
{ACAD_REACTORS
330
1EF
102
}
330
1EF
100
AcDbXrecord
280
     1
102
RTVSPropertyOp0
 70
     1
102
RTVSPropertyOp1
 70
     1
102
RTVSPropertyOp2
 70
     1
102
RTVSPropertyOp3
 70
     1
102
RTVSPropertyOp4
 70
     1
102
RTVSPropertyOp5
 70
     1
102
RTVSPropertyOp6
 70
     1
102
RTVSPropertyOp7
 70
     1
102
RTVSPropertyOp8
 70
     1
102
RTVSPropertyOp9
 70
     1
102
RTVSPropertyOp10
 70
     1
102
RTVSPropertyOp11
 70
     1
102
RTVSPropertyOp12
 70
     1
102
RTVSPropertyOp13
 70
     1
102
RTVSPropertyOp14
 70
     1
102
RTVSPropertyOp15
 70
     1
102
RTVSPropertyOp16
 70
     1
102
RTVSPropertyOp17
 70
     1
102
RTVSPropertyOp18
 70
     1
102
RTVSPropertyOp19
 70
     1
102
RTVSPropertyOp20
 70
     1
102
RTVSPropertyOp21
 70
     1
102
RTVSPropertyOp22
 70
     1
102
RTVSPropertyOp23
 70
     1
102
RTVSPropertyOp24
 70
     1
102
RTVSPropertyOp25
 70
     1
102
RTVSPropertyOp26
 70
     1
102
RTVSPropertyOp27
 70
     1
102
RTVSPropertyOp28
 70
     1
102
RTVSPropertyOp29
 70
     1
102
RTVSPropertyOp30
 70
     1
102
RTVSPropertyOp31
 70
     1
102
RTVSPropertyOp32
 70
     1
102
RTVSPropertyOp33
 70
     1
102
RTVSPropertyOp34
 70
     1
102
RTVSPropertyOp35
 70
     1
102
RTVSPropertyOp36
 70
     1
102
RTVSPropertyOp37
 70
     1
102
RTVSPropertyOp38
 70
     1
102
RTVSPropertyOp39
 70
     1
102
RTVSPropertyOp40
 70
     1
102
RTVSPropertyOp41
 70
     1
102
RTVSPropertyOp42
 70
     1
102
RTVSPropertyOp43
 70
     1
102
RTVSPropertyOp44
 70
     1
102
RTVSPropertyOp45
 70
     1
102
RTVSPropertyOp46
 70
     1
102
RTVSPropertyOp47
 70
     1
102
RTVSPropertyOp48
 70
     1
102
RTVSPropertyOp49
 70
     1
102
RTVSPropertyOp50
 70
     1
102
RTVSPropertyOp51
 70
     0
102
RTVSPropertyOp52
 70
     0
102
RTVSPropertyOp53
 70
     1
102
RTVSPropertyOp54
 70
     1
102
RTVSPropertyOp55
 70
     1
102
RTVSPropertyOp56
 70
     1
102
RTVSPropertyOp57
 70
     1
102
RTVSPost2010Prop28
280
     0
102
RTVSPost2010PropOp28
 70
     1
102
RTVSPost2010Prop29
280
     1
102
RTVSPost2010PropOp29
 70
     1
102
RTVSPost2010Prop30
280
     1
102
RTVSPost2010PropOp30
 70
     1
102
RTVSPost2010Prop31
280
     0
102
RTVSPost2010PropOp31
 70
     1
102
RTVSPost2010Prop32
280
     0
102
RTVSPost2010PropOp32
 70
     1
102
RTVSPost2010Prop33
280
     0
102
RTVSPost2010PropOp33
 70
     1
102
RTVSPost2010Prop34
280
     0
102
RTVSPost2010PropOp34
 70
     1
102
RTVSPost2010Prop35
280
     0
102
RTVSPost2010PropOp35
 70
     1
102
RTVSPost2010Prop36
280
     0
102
RTVSPost2010PropOp36
 70
     1
102
RTVSPost2010Prop37
 90
       50
102
RTVSPost2010PropOp37
 70
     1
102
RTVSPost2010Prop38
140
0.0
102
RTVSPost2010PropOp38
 70
     1
102
RTVSPost2010Prop39
140
1.0
102
RTVSPost2010PropOp39
 70
     1
102
RTVSPost2010Prop40
 90
        0
102
RTVSPost2010PropOp40
 70
     1
102
RTVSPost2010Prop41ColorIndex
 90
       18
102
RTVSPost2010Prop41ColorRGB
 90
        0
102
RTVSPost2010PropOp41
 70
     1
102
RTVSPost2010Prop42
 90
       50
102
RTVSPost2010PropOp42
 70
     1
102
RTVSPost2010Prop43
 90
        3
102
RTVSPost2010PropOp43
 70
     1
102
RTVSPost2010Prop44ColorIndex
 90
        5
102
RTVSPost2010Prop44ColorRGB
 90
      255
102
RTVSPost2010PropOp44
 70
     1
102
RTVSPost2010Prop45
280
     0
102
RTVSPost2010PropOp45
 70
     1
102
RTVSPost2010Prop46
 90
       50
102
RTVSPost2010PropOp46
 70
     1
102
RTVSPost2010Prop47
 90
       50
102
RTVSPost2010PropOp47
 70
     1
102
RTVSPost2010Prop48
 90
       50
102
RTVSPost2010PropOp48
 70
     1
102
RTVSPost2010Prop49
280
     0
102
RTVSPost2010PropOp49
 70
     1
102
RTVSPost2010Prop50
 90
       50
102
RTVSPost2010PropOp50
 70
     1
102
RTVSPost2010Prop51ColorIndex
 90
      256
102
RTVSPost2010Prop51ColorRGB
 90
-16777216
102
RTVSPost2010PropOp51
 70
     0
102
RTVSPost2010Prop52
140
1.0
102
RTVSPost2010PropOp52
 70
     0
102
RTVSPost2010Prop53
 90
        2
102
RTVSPost2010PropOp53
 70
     1
102
RTVSPost2010Prop54
  1
strokes_ogs.tif
102
RTVSPost2010PropOp54
 70
     1
102
RTVSPost2010Prop55
280
     0
102
RTVSPost2010PropOp55
 70
     1
102
RTVSPost2010Prop56
140
1.0
102
RTVSPost2010PropOp56
 70
     1
102
RTVSPost2010Prop57
140
1.0
102
RTVSPost2010PropOp57
 70
     1
  0
XRECORD
  5
1F8
102
{ACAD_REACTORS
330
1F7
102
}
330
1F7
100
AcDbXrecord
280
     1
102
RTVSPropertyOp0
 70
     1
102
RTVSPropertyOp1
 70
     1
102
RTVSPropertyOp2
 70
     1
102
RTVSPropertyOp3
 70
     1
102
RTVSPropertyOp4
 70
     1
102
RTVSPropertyOp5
 70
     1
102
RTVSPropertyOp6
 70
     1
102
RTVSPropertyOp7
 70
     1
102
RTVSPropertyOp8
 70
     1
102
RTVSPropertyOp9
 70
     1
102
RTVSPropertyOp10
 70
     1
102
RTVSPropertyOp11
 70
     1
102
RTVSPropertyOp12
 70
     1
102
RTVSPropertyOp13
 70
     1
102
RTVSPropertyOp14
 70
     1
102
RTVSPropertyOp15
 70
     1
102
RTVSPropertyOp16
 70
     1
102
RTVSPropertyOp17
 70
     1
102
RTVSPropertyOp18
 70
     1
102
RTVSPropertyOp19
 70
     1
102
RTVSPropertyOp20
 70
     1
102
RTVSPropertyOp21
 70
     1
102
RTVSPropertyOp22
 70
     1
102
RTVSPropertyOp23
 70
     1
102
RTVSPropertyOp24
 70
     1
102
RTVSPropertyOp25
 70
     1
102
RTVSPropertyOp26
 70
     1
102
RTVSPropertyOp27
 70
     1
102
RTVSPropertyOp28
 70
     1
102
RTVSPropertyOp29
 70
     1
102
RTVSPropertyOp30
 70
     1
102
RTVSPropertyOp31
 70
     1
102
RTVSPropertyOp32
 70
     1
102
RTVSPropertyOp33
 70
     1
102
RTVSPropertyOp34
 70
     1
102
RTVSPropertyOp35
 70
     1
102
RTVSPropertyOp36
 70
     1
102
RTVSPropertyOp37
 70
     1
102
RTVSPropertyOp38
 70
     1
102
RTVSPropertyOp39
 70
     1
102
RTVSPropertyOp40
 70
     1
102
RTVSPropertyOp41
 70
     1
102
RTVSPropertyOp42
 70
     1
102
RTVSPropertyOp43
 70
     1
102
RTVSPropertyOp44
 70
     1
102
RTVSPropertyOp45
 70
     1
102
RTVSPropertyOp46
 70
     1
102
RTVSPropertyOp47
 70
     1
102
RTVSPropertyOp48
 70
     1
102
RTVSPropertyOp49
 70
     1
102
RTVSPropertyOp50
 70
     1
102
RTVSPropertyOp51
 70
     0
102
RTVSPropertyOp52
 70
     0
102
RTVSPropertyOp53
 70
     1
102
RTVSPropertyOp54
 70
     1
102
RTVSPropertyOp55
 70
     1
102
RTVSPropertyOp56
 70
     1
102
RTVSPropertyOp57
 70
     1
102
RTVSPost2010Prop28
280
     0
102
RTVSPost2010PropOp28
 70
     1
102
RTVSPost2010Prop29
280
     1
102
RTVSPost2010PropOp29
 70
     1
102
RTVSPost2010Prop30
280
     1
102
RTVSPost2010PropOp30
 70
     1
102
RTVSPost2010Prop31
280
     0
102
RTVSPost2010PropOp31
 70
     1
102
RTVSPost2010Prop32
280
     0
102
RTVSPost2010PropOp32
 70
     1
102
RTVSPost2010Prop33
280
     0
102
RTVSPost2010PropOp33
 70
     1
102
RTVSPost2010Prop34
280
     0
102
RTVSPost2010PropOp34
 70
     1
102
RTVSPost2010Prop35
280
     0
102
RTVSPost2010PropOp35
 70
     1
102
RTVSPost2010Prop36
280
     0
102
RTVSPost2010PropOp36
 70
     1
102
RTVSPost2010Prop37
 90
       50
102
RTVSPost2010PropOp37
 70
     1
102
RTVSPost2010Prop38
140
0.0
102
RTVSPost2010PropOp38
 70
     1
102
RTVSPost2010Prop39
140
1.0
102
RTVSPost2010PropOp39
 70
     1
102
RTVSPost2010Prop40
 90
        0
102
RTVSPost2010PropOp40
 70
     1
102
RTVSPost2010Prop41ColorIndex
 90
       18
102
RTVSPost2010Prop41ColorRGB
 90
        0
102
RTVSPost2010PropOp41
 70
     1
102
RTVSPost2010Prop42
 90
       50
102
RTVSPost2010PropOp42
 70
     1
102
RTVSPost2010Prop43
 90
        3
102
RTVSPost2010PropOp43
 70
     1
102
RTVSPost2010Prop44ColorIndex
 90
        5
102
RTVSPost2010Prop44ColorRGB
 90
      255
102
RTVSPost2010PropOp44
 70
     1
102
RTVSPost2010Prop45
280
     0
102
RTVSPost2010PropOp45
 70
     1
102
RTVSPost2010Prop46
 90
       50
102
RTVSPost2010PropOp46
 70
     1
102
RTVSPost2010Prop47
 90
       50
102
RTVSPost2010PropOp47
 70
     1
102
RTVSPost2010Prop48
 90
       50
102
RTVSPost2010PropOp48
 70
     1
102
RTVSPost2010Prop49
280
     0
102
RTVSPost2010PropOp49
 70
     1
102
RTVSPost2010Prop50
 90
       50
102
RTVSPost2010PropOp50
 70
     1
102
RTVSPost2010Prop51ColorIndex
 90
      256
102
RTVSPost2010Prop51ColorRGB
 90
-16777216
102
RTVSPost2010PropOp51
 70
     0
102
RTVSPost2010Prop52
140
1.0
102
RTVSPost2010PropOp52
 70
     0
102
RTVSPost2010Prop53
 90
        2
102
RTVSPost2010PropOp53
 70
     1
102
RTVSPost2010Prop54
  1
strokes_ogs.tif
102
RTVSPost2010PropOp54
 70
     1
102
RTVSPost2010Prop55
280
     0
102
RTVSPost2010PropOp55
 70
     1
102
RTVSPost2010Prop56
140
1.0
102
RTVSPost2010PropOp56
 70
     1
102
RTVSPost2010Prop57
140
1.0
102
RTVSPost2010PropOp57
 70
     1
  0
XRECORD
  5
1EC
102
{ACAD_REACTORS
330
1EB
102
}
330
1EB
100
AcDbXrecord
280
     1
102
RTVSPropertyOp0
 70
     1
102
RTVSPropertyOp1
 70
     1
102
RTVSPropertyOp2
 70
     1
102
RTVSPropertyOp3
 70
     1
102
RTVSPropertyOp4
 70
     1
102
RTVSPropertyOp5
 70
     1
102
RTVSPropertyOp6
 70
     1
102
RTVSPropertyOp7
 70
     1
102
RTVSPropertyOp8
 70
     1
102
RTVSPropertyOp9
 70
     1
102
RTVSPropertyOp10
 70
     1
102
RTVSPropertyOp11
 70
     1
102
RTVSPropertyOp12
 70
     1
102
RTVSPropertyOp13
 70
     1
102
RTVSPropertyOp14
 70
     1
102
RTVSPropertyOp15
 70
     1
102
RTVSPropertyOp16
 70
     1
102
RTVSPropertyOp17
 70
     1
102
RTVSPropertyOp18
 70
     1
102
RTVSPropertyOp19
 70
     1
102
RTVSPropertyOp20
 70
     1
102
RTVSPropertyOp21
 70
     1
102
RTVSPropertyOp22
 70
     1
102
RTVSPropertyOp23
 70
     1
102
RTVSPropertyOp24
 70
     1
102
RTVSPropertyOp25
 70
     1
102
RTVSPropertyOp26
 70
     1
102
RTVSPropertyOp27
 70
     1
102
RTVSPropertyOp28
 70
     1
102
RTVSPropertyOp29
 70
     1
102
RTVSPropertyOp30
 70
     1
102
RTVSPropertyOp31
 70
     1
102
RTVSPropertyOp32
 70
     1
102
RTVSPropertyOp33
 70
     1
102
RTVSPropertyOp34
 70
     1
102
RTVSPropertyOp35
 70
     1
102
RTVSPropertyOp36
 70
     1
102
RTVSPropertyOp37
 70
     1
102
RTVSPropertyOp38
 70
     1
102
RTVSPropertyOp39
 70
     1
102
RTVSPropertyOp40
 70
     1
102
RTVSPropertyOp41
 70
     1
102
RTVSPropertyOp42
 70
     1
102
RTVSPropertyOp43
 70
     1
102
RTVSPropertyOp44
 70
     1
102
RTVSPropertyOp45
 70
     1
102
RTVSPropertyOp46
 70
     1
102
RTVSPropertyOp47
 70
     1
102
RTVSPropertyOp48
 70
     1
102
RTVSPropertyOp49
 70
     1
102
RTVSPropertyOp50
 70
     1
102
RTVSPropertyOp51
 70
     0
102
RTVSPropertyOp52
 70
     0
102
RTVSPropertyOp53
 70
     1
102
RTVSPropertyOp54
 70
     1
102
RTVSPropertyOp55
 70
     1
102
RTVSPropertyOp56
 70
     1
102
RTVSPropertyOp57
 70
     1
102
RTVSPost2010Prop28
280
     0
102
RTVSPost2010PropOp28
 70
     1
102
RTVSPost2010Prop29
280
     1
102
RTVSPost2010PropOp29
 70
     1
102
RTVSPost2010Prop30
280
     1
102
RTVSPost2010PropOp30
 70
     1
102
RTVSPost2010Prop31
280
     0
102
RTVSPost2010PropOp31
 70
     1
102
RTVSPost2010Prop32
280
     0
102
RTVSPost2010PropOp32
 70
     1
102
RTVSPost2010Prop33
280
     0
102
RTVSPost2010PropOp33
 70
     1
102
RTVSPost2010Prop34
280
     0
102
RTVSPost2010PropOp34
 70
     1
102
RTVSPost2010Prop35
280
     0
102
RTVSPost2010PropOp35
 70
     1
102
RTVSPost2010Prop36
280
     0
102
RTVSPost2010PropOp36
 70
     1
102
RTVSPost2010Prop37
 90
       50
102
RTVSPost2010PropOp37
 70
     1
102
RTVSPost2010Prop38
140
0.0
102
RTVSPost2010PropOp38
 70
     1
102
RTVSPost2010Prop39
140
1.0
102
RTVSPost2010PropOp39
 70
     1
102
RTVSPost2010Prop40
 90
        0
102
RTVSPost2010PropOp40
 70
     1
102
RTVSPost2010Prop41ColorIndex
 90
       18
102
RTVSPost2010Prop41ColorRGB
 90
        0
102
RTVSPost2010PropOp41
 70
     1
102
RTVSPost2010Prop42
 90
       50
102
RTVSPost2010PropOp42
 70
     1
102
RTVSPost2010Prop43
 90
        3
102
RTVSPost2010PropOp43
 70
     1
102
RTVSPost2010Prop44ColorIndex
 90
        5
102
RTVSPost2010Prop44ColorRGB
 90
      255
102
RTVSPost2010PropOp44
 70
     1
102
RTVSPost2010Prop45
280
     0
102
RTVSPost2010PropOp45
 70
     1
102
RTVSPost2010Prop46
 90
       50
102
RTVSPost2010PropOp46
 70
     1
102
RTVSPost2010Prop47
 90
       50
102
RTVSPost2010PropOp47
 70
     1
102
RTVSPost2010Prop48
 90
       50
102
RTVSPost2010PropOp48
 70
     1
102
RTVSPost2010Prop49
280
     0
102
RTVSPost2010PropOp49
 70
     1
102
RTVSPost2010Prop50
 90
       50
102
RTVSPost2010PropOp50
 70
     1
102
RTVSPost2010Prop51ColorIndex
 90
      256
102
RTVSPost2010Prop51ColorRGB
 90
-16777216
102
RTVSPost2010PropOp51
 70
     0
102
RTVSPost2010Prop52
140
1.0
102
RTVSPost2010PropOp52
 70
     0
102
RTVSPost2010Prop53
 90
        2
102
RTVSPost2010PropOp53
 70
     1
102
RTVSPost2010Prop54
  1
strokes_ogs.tif
102
RTVSPost2010PropOp54
 70
     1
102
RTVSPost2010Prop55
280
     0
102
RTVSPost2010PropOp55
 70
     1
102
RTVSPost2010Prop56
140
1.0
102
RTVSPost2010PropOp56
 70
     1
102
RTVSPost2010Prop57
140
1.0
102
RTVSPost2010PropOp57
 70
     1
  0
XRECORD
  5
1EE
102
{ACAD_REACTORS
330
1ED
102
}
330
1ED
100
AcDbXrecord
280
     1
102
RTVSPropertyOp0
 70
     1
102
RTVSPropertyOp1
 70
     1
102
RTVSPropertyOp2
 70
     1
102
RTVSPropertyOp3
 70
     1
102
RTVSPropertyOp4
 70
     1
102
RTVSPropertyOp5
 70
     1
102
RTVSPropertyOp6
 70
     1
102
RTVSPropertyOp7
 70
     1
102
RTVSPropertyOp8
 70
     1
102
RTVSPropertyOp9
 70
     1
102
RTVSPropertyOp10
 70
     1
102
RTVSPropertyOp11
 70
     1
102
RTVSPropertyOp12
 70
     1
102
RTVSPropertyOp13
 70
     1
102
RTVSPropertyOp14
 70
     1
102
RTVSPropertyOp15
 70
     1
102
RTVSPropertyOp16
 70
     1
102
RTVSPropertyOp17
 70
     1
102
RTVSPropertyOp18
 70
     1
102
RTVSPropertyOp19
 70
     1
102
RTVSPropertyOp20
 70
     1
102
RTVSPropertyOp21
 70
     1
102
RTVSPropertyOp22
 70
     1
102
RTVSPropertyOp23
 70
     1
102
RTVSPropertyOp24
 70
     1
102
RTVSPropertyOp25
 70
     1
102
RTVSPropertyOp26
 70
     1
102
RTVSPropertyOp27
 70
     1
102
RTVSPropertyOp28
 70
     1
102
RTVSPropertyOp29
 70
     1
102
RTVSPropertyOp30
 70
     1
102
RTVSPropertyOp31
 70
     1
102
RTVSPropertyOp32
 70
     1
102
RTVSPropertyOp33
 70
     1
102
RTVSPropertyOp34
 70
     1
102
RTVSPropertyOp35
 70
     1
102
RTVSPropertyOp36
 70
     1
102
RTVSPropertyOp37
 70
     1
102
RTVSPropertyOp38
 70
     1
102
RTVSPropertyOp39
 70
     1
102
RTVSPropertyOp40
 70
     1
102
RTVSPropertyOp41
 70
     1
102
RTVSPropertyOp42
 70
     1
102
RTVSPropertyOp43
 70
     1
102
RTVSPropertyOp44
 70
     1
102
RTVSPropertyOp45
 70
     1
102
RTVSPropertyOp46
 70
     1
102
RTVSPropertyOp47
 70
     1
102
RTVSPropertyOp48
 70
     1
102
RTVSPropertyOp49
 70
     1
102
RTVSPropertyOp50
 70
     1
102
RTVSPropertyOp51
 70
     0
102
RTVSPropertyOp52
 70
     0
102
RTVSPropertyOp53
 70
     1
102
RTVSPropertyOp54
 70
     1
102
RTVSPropertyOp55
 70
     1
102
RTVSPropertyOp56
 70
     1
102
RTVSPropertyOp57
 70
     1
102
RTVSPost2010Prop28
280
     0
102
RTVSPost2010PropOp28
 70
     1
102
RTVSPost2010Prop29
280
     1
102
RTVSPost2010PropOp29
 70
     1
102
RTVSPost2010Prop30
280
     1
102
RTVSPost2010PropOp30
 70
     1
102
RTVSPost2010Prop31
280
     0
102
RTVSPost2010PropOp31
 70
     1
102
RTVSPost2010Prop32
280
     0
102
RTVSPost2010PropOp32
 70
     1
102
RTVSPost2010Prop33
280
     0
102
RTVSPost2010PropOp33
 70
     1
102
RTVSPost2010Prop34
280
     0
102
RTVSPost2010PropOp34
 70
     1
102
RTVSPost2010Prop35
280
     0
102
RTVSPost2010PropOp35
 70
     1
102
RTVSPost2010Prop36
280
     0
102
RTVSPost2010PropOp36
 70
     1
102
RTVSPost2010Prop37
 90
       50
102
RTVSPost2010PropOp37
 70
     1
102
RTVSPost2010Prop38
140
0.0
102
RTVSPost2010PropOp38
 70
     1
102
RTVSPost2010Prop39
140
1.0
102
RTVSPost2010PropOp39
 70
     1
102
RTVSPost2010Prop40
 90
        0
102
RTVSPost2010PropOp40
 70
     1
102
RTVSPost2010Prop41ColorIndex
 90
       18
102
RTVSPost2010Prop41ColorRGB
 90
        0
102
RTVSPost2010PropOp41
 70
     1
102
RTVSPost2010Prop42
 90
       50
102
RTVSPost2010PropOp42
 70
     1
102
RTVSPost2010Prop43
 90
        3
102
RTVSPost2010PropOp43
 70
     1
102
RTVSPost2010Prop44ColorIndex
 90
        5
102
RTVSPost2010Prop44ColorRGB
 90
      255
102
RTVSPost2010PropOp44
 70
     1
102
RTVSPost2010Prop45
280
     0
102
RTVSPost2010PropOp45
 70
     1
102
RTVSPost2010Prop46
 90
       50
102
RTVSPost2010PropOp46
 70
     1
102
RTVSPost2010Prop47
 90
       50
102
RTVSPost2010PropOp47
 70
     1
102
RTVSPost2010Prop48
 90
       50
102
RTVSPost2010PropOp48
 70
     1
102
RTVSPost2010Prop49
280
     0
102
RTVSPost2010PropOp49
 70
     1
102
RTVSPost2010Prop50
 90
       50
102
RTVSPost2010PropOp50
 70
     1
102
RTVSPost2010Prop51ColorIndex
 90
      256
102
RTVSPost2010Prop51ColorRGB
 90
-16777216
102
RTVSPost2010PropOp51
 70
     0
102
RTVSPost2010Prop52
140
1.0
102
RTVSPost2010PropOp52
 70
     0
102
RTVSPost2010Prop53
 90
        2
102
RTVSPost2010PropOp53
 70
     1
102
RTVSPost2010Prop54
  1
strokes_ogs.tif
102
RTVSPost2010PropOp54
 70
     1
102
RTVSPost2010Prop55
280
     0
102
RTVSPost2010PropOp55
 70
     1
102
RTVSPost2010Prop56
140
1.0
102
RTVSPost2010PropOp56
 70
     1
102
RTVSPost2010Prop57
140
1.0
102
RTVSPost2010PropOp57
 70
     1
  0
XRECORD
  5
1FE
102
{ACAD_REACTORS
330
1FD
102
}
330
1FD
100
AcDbXrecord
280
     1
102
RTVSPropertyOp0
 70
     0
102
RTVSPropertyOp1
 70
     0
102
RTVSPropertyOp2
 70
     0
102
RTVSPropertyOp3
 70
     0
102
RTVSPropertyOp4
 70
     0
102
RTVSPropertyOp5
 70
     0
102
RTVSPropertyOp6
 70
     0
102
RTVSPropertyOp7
 70
     0
102
RTVSPropertyOp8
 70
     0
102
RTVSPropertyOp9
 70
     0
102
RTVSPropertyOp10
 70
     0
102
RTVSPropertyOp11
 70
     0
102
RTVSPropertyOp12
 70
     0
102
RTVSPropertyOp13
 70
     0
102
RTVSPropertyOp14
 70
     2
102
RTVSPropertyOp15
 70
     0
102
RTVSPropertyOp16
 70
     0
102
RTVSPropertyOp17
 70
     0
102
RTVSPropertyOp18
 70
     0
102
RTVSPropertyOp19
 70
     0
102
RTVSPropertyOp20
 70
     0
102
RTVSPropertyOp21
 70
     0
102
RTVSPropertyOp22
 70
     0
102
RTVSPropertyOp23
 70
     0
102
RTVSPropertyOp24
 70
     0
102
RTVSPropertyOp25
 70
     0
102
RTVSPropertyOp26
 70
     0
102
RTVSPropertyOp27
 70
     0
102
RTVSPropertyOp28
 70
     0
102
RTVSPropertyOp29
 70
     0
102
RTVSPropertyOp30
 70
     0
102
RTVSPropertyOp31
 70
     0
102
RTVSPropertyOp32
 70
     0
102
RTVSPropertyOp33
 70
     0
102
RTVSPropertyOp34
 70
     0
102
RTVSPropertyOp35
 70
     0
102
RTVSPropertyOp36
 70
     0
102
RTVSPropertyOp37
 70
     0
102
RTVSPropertyOp38
 70
     0
102
RTVSPropertyOp39
 70
     0
102
RTVSPropertyOp40
 70
     0
102
RTVSPropertyOp41
 70
     0
102
RTVSPropertyOp42
 70
     0
102
RTVSPropertyOp43
 70
     0
102
RTVSPropertyOp44
 70
     0
102
RTVSPropertyOp45
 70
     0
102
RTVSPropertyOp46
 70
     0
102
RTVSPropertyOp47
 70
     0
102
RTVSPropertyOp48
 70
     0
102
RTVSPropertyOp49
 70
     0
102
RTVSPropertyOp50
 70
     0
102
RTVSPropertyOp51
 70
     0
102
RTVSPropertyOp52
 70
     0
102
RTVSPropertyOp53
 70
     0
102
RTVSPropertyOp54
 70
     0
102
RTVSPropertyOp55
 70
     0
102
RTVSPropertyOp56
 70
     0
102
RTVSPropertyOp57
 70
     0
102
RTVSPost2010Prop28
280
     0
102
RTVSPost2010PropOp28
 70
     0
102
RTVSPost2010Prop29
280
     1
102
RTVSPost2010PropOp29
 70
     0
102
RTVSPost2010Prop30
280
     1
102
RTVSPost2010PropOp30
 70
     0
102
RTVSPost2010Prop31
280
     0
102
RTVSPost2010PropOp31
 70
     0
102
RTVSPost2010Prop32
280
     0
102
RTVSPost2010PropOp32
 70
     0
102
RTVSPost2010Prop33
280
     0
102
RTVSPost2010PropOp33
 70
     0
102
RTVSPost2010Prop34
280
     0
102
RTVSPost2010PropOp34
 70
     0
102
RTVSPost2010Prop35
280
     0
102
RTVSPost2010PropOp35
 70
     0
102
RTVSPost2010Prop36
280
     0
102
RTVSPost2010PropOp36
 70
     0
102
RTVSPost2010Prop37
 90
       50
102
RTVSPost2010PropOp37
 70
     0
102
RTVSPost2010Prop38
140
0.0
102
RTVSPost2010PropOp38
 70
     0
102
RTVSPost2010Prop39
140
1.0
102
RTVSPost2010PropOp39
 70
     0
102
RTVSPost2010Prop40
 90
        0
102
RTVSPost2010PropOp40
 70
     0
102
RTVSPost2010Prop41ColorIndex
 90
       18
102
RTVSPost2010Prop41ColorRGB
 90
        0
102
RTVSPost2010PropOp41
 70
     0
102
RTVSPost2010Prop42
 90
       50
102
RTVSPost2010PropOp42
 70
     0
102
RTVSPost2010Prop43
 90
        3
102
RTVSPost2010PropOp43
 70
     0
102
RTVSPost2010Prop44ColorIndex
 90
        5
102
RTVSPost2010Prop44ColorRGB
 90
      255
102
RTVSPost2010PropOp44
 70
     0
102
RTVSPost2010Prop45
280
     0
102
RTVSPost2010PropOp45
 70
     0
102
RTVSPost2010Prop46
 90
       50
102
RTVSPost2010PropOp46
 70
     0
102
RTVSPost2010Prop47
 90
       50
102
RTVSPost2010PropOp47
 70
     0
102
RTVSPost2010Prop48
 90
       50
102
RTVSPost2010PropOp48
 70
     0
102
RTVSPost2010Prop49
280
     0
102
RTVSPost2010PropOp49
 70
     0
102
RTVSPost2010Prop50
 90
       50
102
RTVSPost2010PropOp50
 70
     0
102
RTVSPost2010Prop51ColorIndex
 90
      256
102
RTVSPost2010Prop51ColorRGB
 90
-16777216
102
RTVSPost2010PropOp51
 70
     0
102
RTVSPost2010Prop52
140
1.0
102
RTVSPost2010PropOp52
 70
     0
102
RTVSPost2010Prop53
 90
        2
102
RTVSPost2010PropOp53
 70
     0
102
RTVSPost2010Prop54
  1
strokes_ogs.tif
102
RTVSPost2010PropOp54
 70
     0
102
RTVSPost2010Prop55
280
     0
102
RTVSPost2010PropOp55
 70
     0
102
RTVSPost2010Prop56
140
1.0
102
RTVSPost2010PropOp56
 70
     0
102
RTVSPost2010Prop57
140
1.0
102
RTVSPost2010PropOp57
 70
     0
  0
XRECORD
  5
1F6
102
{ACAD_REACTORS
330
1F5
102
}
330
1F5
100
AcDbXrecord
280
     1
102
RTVSPropertyOp0
 70
     1
102
RTVSPropertyOp1
 70
     1
102
RTVSPropertyOp2
 70
     1
102
RTVSPropertyOp3
 70
     1
102
RTVSPropertyOp4
 70
     1
102
RTVSPropertyOp5
 70
     1
102
RTVSPropertyOp6
 70
     1
102
RTVSPropertyOp7
 70
     1
102
RTVSPropertyOp8
 70
     1
102
RTVSPropertyOp9
 70
     1
102
RTVSPropertyOp10
 70
     1
102
RTVSPropertyOp11
 70
     1
102
RTVSPropertyOp12
 70
     1
102
RTVSPropertyOp13
 70
     1
102
RTVSPropertyOp14
 70
     1
102
RTVSPropertyOp15
 70
     1
102
RTVSPropertyOp16
 70
     1
102
RTVSPropertyOp17
 70
     1
102
RTVSPropertyOp18
 70
     1
102
RTVSPropertyOp19
 70
     1
102
RTVSPropertyOp20
 70
     1
102
RTVSPropertyOp21
 70
     1
102
RTVSPropertyOp22
 70
     1
102
RTVSPropertyOp23
 70
     1
102
RTVSPropertyOp24
 70
     1
102
RTVSPropertyOp25
 70
     1
102
RTVSPropertyOp26
 70
     1
102
RTVSPropertyOp27
 70
     1
102
RTVSPropertyOp28
 70
     1
102
RTVSPropertyOp29
 70
     1
102
RTVSPropertyOp30
 70
     1
102
RTVSPropertyOp31
 70
     1
102
RTVSPropertyOp32
 70
     1
102
RTVSPropertyOp33
 70
     1
102
RTVSPropertyOp34
 70
     1
102
RTVSPropertyOp35
 70
     1
102
RTVSPropertyOp36
 70
     1
102
RTVSPropertyOp37
 70
     1
102
RTVSPropertyOp38
 70
     1
102
RTVSPropertyOp39
 70
     1
102
RTVSPropertyOp40
 70
     1
102
RTVSPropertyOp41
 70
     1
102
RTVSPropertyOp42
 70
     1
102
RTVSPropertyOp43
 70
     1
102
RTVSPropertyOp44
 70
     1
102
RTVSPropertyOp45
 70
     1
102
RTVSPropertyOp46
 70
     1
102
RTVSPropertyOp47
 70
     1
102
RTVSPropertyOp48
 70
     1
102
RTVSPropertyOp49
 70
     1
102
RTVSPropertyOp50
 70
     1
102
RTVSPropertyOp51
 70
     0
102
RTVSPropertyOp52
 70
     0
102
RTVSPropertyOp53
 70
     1
102
RTVSPropertyOp54
 70
     1
102
RTVSPropertyOp55
 70
     1
102
RTVSPropertyOp56
 70
     1
102
RTVSPropertyOp57
 70
     1
102
RTVSPost2010Prop28
280
     0
102
RTVSPost2010PropOp28
 70
     1
102
RTVSPost2010Prop29
280
     1
102
RTVSPost2010PropOp29
 70
     1
102
RTVSPost2010Prop30
280
     1
102
RTVSPost2010PropOp30
 70
     1
102
RTVSPost2010Prop31
280
     0
102
RTVSPost2010PropOp31
 70
     1
102
RTVSPost2010Prop32
280
     0
102
RTVSPost2010PropOp32
 70
     1
102
RTVSPost2010Prop33
280
     0
102
RTVSPost2010PropOp33
 70
     1
102
RTVSPost2010Prop34
280
     0
102
RTVSPost2010PropOp34
 70
     1
102
RTVSPost2010Prop35
280
     0
102
RTVSPost2010PropOp35
 70
     1
102
RTVSPost2010Prop36
280
     0
102
RTVSPost2010PropOp36
 70
     1
102
RTVSPost2010Prop37
 90
       50
102
RTVSPost2010PropOp37
 70
     1
102
RTVSPost2010Prop38
140
0.0
102
RTVSPost2010PropOp38
 70
     1
102
RTVSPost2010Prop39
140
1.0
102
RTVSPost2010PropOp39
 70
     1
102
RTVSPost2010Prop40
 90
        0
102
RTVSPost2010PropOp40
 70
     1
102
RTVSPost2010Prop41ColorIndex
 90
       18
102
RTVSPost2010Prop41ColorRGB
 90
        0
102
RTVSPost2010PropOp41
 70
     1
102
RTVSPost2010Prop42
 90
       50
102
RTVSPost2010PropOp42
 70
     1
102
RTVSPost2010Prop43
 90
        3
102
RTVSPost2010PropOp43
 70
     1
102
RTVSPost2010Prop44ColorIndex
 90
        5
102
RTVSPost2010Prop44ColorRGB
 90
      255
102
RTVSPost2010PropOp44
 70
     1
102
RTVSPost2010Prop45
280
     0
102
RTVSPost2010PropOp45
 70
     1
102
RTVSPost2010Prop46
 90
       50
102
RTVSPost2010PropOp46
 70
     1
102
RTVSPost2010Prop47
 90
       50
102
RTVSPost2010PropOp47
 70
     1
102
RTVSPost2010Prop48
 90
       50
102
RTVSPost2010PropOp48
 70
     1
102
RTVSPost2010Prop49
280
     0
102
RTVSPost2010PropOp49
 70
     1
102
RTVSPost2010Prop50
 90
       50
102
RTVSPost2010PropOp50
 70
     1
102
RTVSPost2010Prop51ColorIndex
 90
      256
102
RTVSPost2010Prop51ColorRGB
 90
-16777216
102
RTVSPost2010PropOp51
 70
     0
102
RTVSPost2010Prop52
140
1.0
102
RTVSPost2010PropOp52
 70
     0
102
RTVSPost2010Prop53
 90
        2
102
RTVSPost2010PropOp53
 70
     1
102
RTVSPost2010Prop54
  1
strokes_ogs.tif
102
RTVSPost2010PropOp54
 70
     1
102
RTVSPost2010Prop55
280
     0
102
RTVSPost2010PropOp55
 70
     1
102
RTVSPost2010Prop56
140
1.0
102
RTVSPost2010PropOp56
 70
     1
102
RTVSPost2010Prop57
140
1.0
102
RTVSPost2010PropOp57
 70
     1
  0
XRECORD
  5
1DA
102
{ACAD_REACTORS
330
1D9
102
}
330
1D9
100
AcDbXrecord
280
     1
102
RTVSPropertyOp0
 70
     1
102
RTVSPropertyOp1
 70
     1
102
RTVSPropertyOp2
 70
     1
102
RTVSPropertyOp3
 70
     1
102
RTVSPropertyOp4
 70
     1
102
RTVSPropertyOp5
 70
     1
102
RTVSPropertyOp6
 70
     1
102
RTVSPropertyOp7
 70
     1
102
RTVSPropertyOp8
 70
     1
102
RTVSPropertyOp9
 70
     1
102
RTVSPropertyOp10
 70
     1
102
RTVSPropertyOp11
 70
     1
102
RTVSPropertyOp12
 70
     1
102
RTVSPropertyOp13
 70
     1
102
RTVSPropertyOp14
 70
     1
102
RTVSPropertyOp15
 70
     1
102
RTVSPropertyOp16
 70
     1
102
RTVSPropertyOp17
 70
     1
102
RTVSPropertyOp18
 70
     1
102
RTVSPropertyOp19
 70
     1
102
RTVSPropertyOp20
 70
     1
102
RTVSPropertyOp21
 70
     1
102
RTVSPropertyOp22
 70
     1
102
RTVSPropertyOp23
 70
     1
102
RTVSPropertyOp24
 70
     1
102
RTVSPropertyOp25
 70
     1
102
RTVSPropertyOp26
 70
     1
102
RTVSPropertyOp27
 70
     1
102
RTVSPropertyOp28
 70
     1
102
RTVSPropertyOp29
 70
     1
102
RTVSPropertyOp30
 70
     1
102
RTVSPropertyOp31
 70
     1
102
RTVSPropertyOp32
 70
     1
102
RTVSPropertyOp33
 70
     1
102
RTVSPropertyOp34
 70
     1
102
RTVSPropertyOp35
 70
     1
102
RTVSPropertyOp36
 70
     1
102
RTVSPropertyOp37
 70
     1
102
RTVSPropertyOp38
 70
     1
102
RTVSPropertyOp39
 70
     1
102
RTVSPropertyOp40
 70
     1
102
RTVSPropertyOp41
 70
     1
102
RTVSPropertyOp42
 70
     1
102
RTVSPropertyOp43
 70
     1
102
RTVSPropertyOp44
 70
     1
102
RTVSPropertyOp45
 70
     1
102
RTVSPropertyOp46
 70
     1
102
RTVSPropertyOp47
 70
     1
102
RTVSPropertyOp48
 70
     1
102
RTVSPropertyOp49
 70
     1
102
RTVSPropertyOp50
 70
     1
102
RTVSPropertyOp51
 70
     0
102
RTVSPropertyOp52
 70
     0
102
RTVSPropertyOp53
 70
     1
102
RTVSPropertyOp54
 70
     1
102
RTVSPropertyOp55
 70
     1
102
RTVSPropertyOp56
 70
     1
102
RTVSPropertyOp57
 70
     1
102
RTVSPost2010Prop28
280
     0
102
RTVSPost2010PropOp28
 70
     1
102
RTVSPost2010Prop29
280
     1
102
RTVSPost2010PropOp29
 70
     1
102
RTVSPost2010Prop30
280
     1
102
RTVSPost2010PropOp30
 70
     1
102
RTVSPost2010Prop31
280
     0
102
RTVSPost2010PropOp31
 70
     1
102
RTVSPost2010Prop32
280
     0
102
RTVSPost2010PropOp32
 70
     1
102
RTVSPost2010Prop33
280
     0
102
RTVSPost2010PropOp33
 70
     1
102
RTVSPost2010Prop34
280
     0
102
RTVSPost2010PropOp34
 70
     1
102
RTVSPost2010Prop35
280
     0
102
RTVSPost2010PropOp35
 70
     1
102
RTVSPost2010Prop36
280
     0
102
RTVSPost2010PropOp36
 70
     1
102
RTVSPost2010Prop37
 90
       50
102
RTVSPost2010PropOp37
 70
     1
102
RTVSPost2010Prop38
140
0.0
102
RTVSPost2010PropOp38
 70
     1
102
RTVSPost2010Prop39
140
1.0
102
RTVSPost2010PropOp39
 70
     1
102
RTVSPost2010Prop40
 90
        0
102
RTVSPost2010PropOp40
 70
     1
102
RTVSPost2010Prop41ColorIndex
 90
       18
102
RTVSPost2010Prop41ColorRGB
 90
        0
102
RTVSPost2010PropOp41
 70
     1
102
RTVSPost2010Prop42
 90
       50
102
RTVSPost2010PropOp42
 70
     1
102
RTVSPost2010Prop43
 90
        3
102
RTVSPost2010PropOp43
 70
     1
102
RTVSPost2010Prop44ColorIndex
 90
        5
102
RTVSPost2010Prop44ColorRGB
 90
      255
102
RTVSPost2010PropOp44
 70
     1
102
RTVSPost2010Prop45
280
     0
102
RTVSPost2010PropOp45
 70
     1
102
RTVSPost2010Prop46
 90
       50
102
RTVSPost2010PropOp46
 70
     1
102
RTVSPost2010Prop47
 90
       50
102
RTVSPost2010PropOp47
 70
     1
102
RTVSPost2010Prop48
 90
       50
102
RTVSPost2010PropOp48
 70
     1
102
RTVSPost2010Prop49
280
     0
102
RTVSPost2010PropOp49
 70
     1
102
RTVSPost2010Prop50
 90
       50
102
RTVSPost2010PropOp50
 70
     1
102
RTVSPost2010Prop51ColorIndex
 90
      256
102
RTVSPost2010Prop51ColorRGB
 90
-16777216
102
RTVSPost2010PropOp51
 70
     0
102
RTVSPost2010Prop52
140
1.0
102
RTVSPost2010PropOp52
 70
     0
102
RTVSPost2010Prop53
 90
        2
102
RTVSPost2010PropOp53
 70
     1
102
RTVSPost2010Prop54
  1
strokes_ogs.tif
102
RTVSPost2010PropOp54
 70
     1
102
RTVSPost2010Prop55
280
     0
102
RTVSPost2010PropOp55
 70
     1
102
RTVSPost2010Prop56
140
1.0
102
RTVSPost2010PropOp56
 70
     1
102
RTVSPost2010Prop57
140
1.0
102
RTVSPost2010PropOp57
 70
     1
  0
XRECORD
  5
1DC
102
{ACAD_REACTORS
330
1DB
102
}
330
1DB
100
AcDbXrecord
280
     1
102
RTVSPropertyOp0
 70
     1
102
RTVSPropertyOp1
 70
     1
102
RTVSPropertyOp2
 70
     1
102
RTVSPropertyOp3
 70
     1
102
RTVSPropertyOp4
 70
     1
102
RTVSPropertyOp5
 70
     1
102
RTVSPropertyOp6
 70
     1
102
RTVSPropertyOp7
 70
     1
102
RTVSPropertyOp8
 70
     1
102
RTVSPropertyOp9
 70
     1
102
RTVSPropertyOp10
 70
     1
102
RTVSPropertyOp11
 70
     1
102
RTVSPropertyOp12
 70
     1
102
RTVSPropertyOp13
 70
     1
102
RTVSPropertyOp14
 70
     1
102
RTVSPropertyOp15
 70
     1
102
RTVSPropertyOp16
 70
     1
102
RTVSPropertyOp17
 70
     1
102
RTVSPropertyOp18
 70
     1
102
RTVSPropertyOp19
 70
     1
102
RTVSPropertyOp20
 70
     1
102
RTVSPropertyOp21
 70
     1
102
RTVSPropertyOp22
 70
     1
102
RTVSPropertyOp23
 70
     1
102
RTVSPropertyOp24
 70
     1
102
RTVSPropertyOp25
 70
     1
102
RTVSPropertyOp26
 70
     1
102
RTVSPropertyOp27
 70
     1
102
RTVSPropertyOp28
 70
     1
102
RTVSPropertyOp29
 70
     1
102
RTVSPropertyOp30
 70
     1
102
RTVSPropertyOp31
 70
     1
102
RTVSPropertyOp32
 70
     1
102
RTVSPropertyOp33
 70
     1
102
RTVSPropertyOp34
 70
     1
102
RTVSPropertyOp35
 70
     1
102
RTVSPropertyOp36
 70
     1
102
RTVSPropertyOp37
 70
     1
102
RTVSPropertyOp38
 70
     1
102
RTVSPropertyOp39
 70
     1
102
RTVSPropertyOp40
 70
     1
102
RTVSPropertyOp41
 70
     1
102
RTVSPropertyOp42
 70
     1
102
RTVSPropertyOp43
 70
     1
102
RTVSPropertyOp44
 70
     1
102
RTVSPropertyOp45
 70
     1
102
RTVSPropertyOp46
 70
     1
102
RTVSPropertyOp47
 70
     1
102
RTVSPropertyOp48
 70
     1
102
RTVSPropertyOp49
 70
     1
102
RTVSPropertyOp50
 70
     1
102
RTVSPropertyOp51
 70
     0
102
RTVSPropertyOp52
 70
     0
102
RTVSPropertyOp53
 70
     1
102
RTVSPropertyOp54
 70
     1
102
RTVSPropertyOp55
 70
     1
102
RTVSPropertyOp56
 70
     1
102
RTVSPropertyOp57
 70
     1
102
RTVSPost2010Prop28
280
     0
102
RTVSPost2010PropOp28
 70
     1
102
RTVSPost2010Prop29
280
     1
102
RTVSPost2010PropOp29
 70
     1
102
RTVSPost2010Prop30
280
     1
102
RTVSPost2010PropOp30
 70
     1
102
RTVSPost2010Prop31
280
     0
102
RTVSPost2010PropOp31
 70
     1
102
RTVSPost2010Prop32
280
     0
102
RTVSPost2010PropOp32
 70
     1
102
RTVSPost2010Prop33
280
     0
102
RTVSPost2010PropOp33
 70
     1
102
RTVSPost2010Prop34
280
     0
102
RTVSPost2010PropOp34
 70
     1
102
RTVSPost2010Prop35
280
     0
102
RTVSPost2010PropOp35
 70
     1
102
RTVSPost2010Prop36
280
     0
102
RTVSPost2010PropOp36
 70
     1
102
RTVSPost2010Prop37
 90
       50
102
RTVSPost2010PropOp37
 70
     1
102
RTVSPost2010Prop38
140
0.0
102
RTVSPost2010PropOp38
 70
     1
102
RTVSPost2010Prop39
140
1.0
102
RTVSPost2010PropOp39
 70
     1
102
RTVSPost2010Prop40
 90
        0
102
RTVSPost2010PropOp40
 70
     1
102
RTVSPost2010Prop41ColorIndex
 90
       18
102
RTVSPost2010Prop41ColorRGB
 90
        0
102
RTVSPost2010PropOp41
 70
     1
102
RTVSPost2010Prop42
 90
       50
102
RTVSPost2010PropOp42
 70
     1
102
RTVSPost2010Prop43
 90
        3
102
RTVSPost2010PropOp43
 70
     1
102
RTVSPost2010Prop44ColorIndex
 90
        5
102
RTVSPost2010Prop44ColorRGB
 90
      255
102
RTVSPost2010PropOp44
 70
     1
102
RTVSPost2010Prop45
280
     0
102
RTVSPost2010PropOp45
 70
     1
102
RTVSPost2010Prop46
 90
       50
102
RTVSPost2010PropOp46
 70
     1
102
RTVSPost2010Prop47
 90
       50
102
RTVSPost2010PropOp47
 70
     1
102
RTVSPost2010Prop48
 90
       50
102
RTVSPost2010PropOp48
 70
     1
102
RTVSPost2010Prop49
280
     0
102
RTVSPost2010PropOp49
 70
     1
102
RTVSPost2010Prop50
 90
       50
102
RTVSPost2010PropOp50
 70
     1
102
RTVSPost2010Prop51ColorIndex
 90
      256
102
RTVSPost2010Prop51ColorRGB
 90
-16777216
102
RTVSPost2010PropOp51
 70
     0
102
RTVSPost2010Prop52
140
1.0
102
RTVSPost2010PropOp52
 70
     0
102
RTVSPost2010Prop53
 90
        2
102
RTVSPost2010PropOp53
 70
     1
102
RTVSPost2010Prop54
  1
strokes_ogs.tif
102
RTVSPost2010PropOp54
 70
     1
102
RTVSPost2010Prop55
280
     0
102
RTVSPost2010PropOp55
 70
     1
102
RTVSPost2010Prop56
140
1.0
102
RTVSPost2010PropOp56
 70
     1
102
RTVSPost2010Prop57
140
1.0
102
RTVSPost2010PropOp57
 70
     1
  0
XRECORD
  5
1DE
102
{ACAD_REACTORS
330
1DD
102
}
330
1DD
100
AcDbXrecord
280
     1
102
RTVSPropertyOp0
 70
     1
102
RTVSPropertyOp1
 70
     1
102
RTVSPropertyOp2
 70
     1
102
RTVSPropertyOp3
 70
     1
102
RTVSPropertyOp4
 70
     1
102
RTVSPropertyOp5
 70
     1
102
RTVSPropertyOp6
 70
     1
102
RTVSPropertyOp7
 70
     1
102
RTVSPropertyOp8
 70
     1
102
RTVSPropertyOp9
 70
     1
102
RTVSPropertyOp10
 70
     1
102
RTVSPropertyOp11
 70
     1
102
RTVSPropertyOp12
 70
     1
102
RTVSPropertyOp13
 70
     1
102
RTVSPropertyOp14
 70
     1
102
RTVSPropertyOp15
 70
     1
102
RTVSPropertyOp16
 70
     1
102
RTVSPropertyOp17
 70
     1
102
RTVSPropertyOp18
 70
     1
102
RTVSPropertyOp19
 70
     1
102
RTVSPropertyOp20
 70
     1
102
RTVSPropertyOp21
 70
     1
102
RTVSPropertyOp22
 70
     1
102
RTVSPropertyOp23
 70
     1
102
RTVSPropertyOp24
 70
     1
102
RTVSPropertyOp25
 70
     1
102
RTVSPropertyOp26
 70
     1
102
RTVSPropertyOp27
 70
     1
102
RTVSPropertyOp28
 70
     1
102
RTVSPropertyOp29
 70
     1
102
RTVSPropertyOp30
 70
     1
102
RTVSPropertyOp31
 70
     1
102
RTVSPropertyOp32
 70
     1
102
RTVSPropertyOp33
 70
     1
102
RTVSPropertyOp34
 70
     1
102
RTVSPropertyOp35
 70
     1
102
RTVSPropertyOp36
 70
     1
102
RTVSPropertyOp37
 70
     1
102
RTVSPropertyOp38
 70
     1
102
RTVSPropertyOp39
 70
     1
102
RTVSPropertyOp40
 70
     1
102
RTVSPropertyOp41
 70
     1
102
RTVSPropertyOp42
 70
     1
102
RTVSPropertyOp43
 70
     1
102
RTVSPropertyOp44
 70
     1
102
RTVSPropertyOp45
 70
     1
102
RTVSPropertyOp46
 70
     1
102
RTVSPropertyOp47
 70
     1
102
RTVSPropertyOp48
 70
     1
102
RTVSPropertyOp49
 70
     1
102
RTVSPropertyOp50
 70
     1
102
RTVSPropertyOp51
 70
     0
102
RTVSPropertyOp52
 70
     0
102
RTVSPropertyOp53
 70
     1
102
RTVSPropertyOp54
 70
     1
102
RTVSPropertyOp55
 70
     1
102
RTVSPropertyOp56
 70
     1
102
RTVSPropertyOp57
 70
     1
102
RTVSPost2010Prop28
280
     0
102
RTVSPost2010PropOp28
 70
     1
102
RTVSPost2010Prop29
280
     1
102
RTVSPost2010PropOp29
 70
     1
102
RTVSPost2010Prop30
280
     1
102
RTVSPost2010PropOp30
 70
     1
102
RTVSPost2010Prop31
280
     0
102
RTVSPost2010PropOp31
 70
     1
102
RTVSPost2010Prop32
280
     0
102
RTVSPost2010PropOp32
 70
     1
102
RTVSPost2010Prop33
280
     0
102
RTVSPost2010PropOp33
 70
     1
102
RTVSPost2010Prop34
280
     0
102
RTVSPost2010PropOp34
 70
     1
102
RTVSPost2010Prop35
280
     0
102
RTVSPost2010PropOp35
 70
     1
102
RTVSPost2010Prop36
280
     0
102
RTVSPost2010PropOp36
 70
     1
102
RTVSPost2010Prop37
 90
       50
102
RTVSPost2010PropOp37
 70
     1
102
RTVSPost2010Prop38
140
0.0
102
RTVSPost2010PropOp38
 70
     1
102
RTVSPost2010Prop39
140
1.0
102
RTVSPost2010PropOp39
 70
     1
102
RTVSPost2010Prop40
 90
        0
102
RTVSPost2010PropOp40
 70
     1
102
RTVSPost2010Prop41ColorIndex
 90
       18
102
RTVSPost2010Prop41ColorRGB
 90
        0
102
RTVSPost2010PropOp41
 70
     1
102
RTVSPost2010Prop42
 90
       50
102
RTVSPost2010PropOp42
 70
     1
102
RTVSPost2010Prop43
 90
        3
102
RTVSPost2010PropOp43
 70
     1
102
RTVSPost2010Prop44ColorIndex
 90
        5
102
RTVSPost2010Prop44ColorRGB
 90
      255
102
RTVSPost2010PropOp44
 70
     1
102
RTVSPost2010Prop45
280
     0
102
RTVSPost2010PropOp45
 70
     1
102
RTVSPost2010Prop46
 90
       50
102
RTVSPost2010PropOp46
 70
     1
102
RTVSPost2010Prop47
 90
       50
102
RTVSPost2010PropOp47
 70
     1
102
RTVSPost2010Prop48
 90
       50
102
RTVSPost2010PropOp48
 70
     1
102
RTVSPost2010Prop49
280
     0
102
RTVSPost2010PropOp49
 70
     1
102
RTVSPost2010Prop50
 90
       50
102
RTVSPost2010PropOp50
 70
     1
102
RTVSPost2010Prop51ColorIndex
 90
      256
102
RTVSPost2010Prop51ColorRGB
 90
-16777216
102
RTVSPost2010PropOp51
 70
     0
102
RTVSPost2010Prop52
140
1.0
102
RTVSPost2010PropOp52
 70
     0
102
RTVSPost2010Prop53
 90
        2
102
RTVSPost2010PropOp53
 70
     1
102
RTVSPost2010Prop54
  1
strokes_ogs.tif
102
RTVSPost2010PropOp54
 70
     1
102
RTVSPost2010Prop55
280
     0
102
RTVSPost2010PropOp55
 70
     1
102
RTVSPost2010Prop56
140
1.0
102
RTVSPost2010PropOp56
 70
     1
102
RTVSPost2010Prop57
140
1.0
102
RTVSPost2010PropOp57
 70
     1
  0
XRECORD
  5
1E0
102
{ACAD_REACTORS
330
1DF
102
}
330
1DF
100
AcDbXrecord
280
     1
102
RTVSPropertyOp0
 70
     1
102
RTVSPropertyOp1
 70
     1
102
RTVSPropertyOp2
 70
     1
102
RTVSPropertyOp3
 70
     1
102
RTVSPropertyOp4
 70
     1
102
RTVSPropertyOp5
 70
     1
102
RTVSPropertyOp6
 70
     1
102
RTVSPropertyOp7
 70
     1
102
RTVSPropertyOp8
 70
     1
102
RTVSPropertyOp9
 70
     1
102
RTVSPropertyOp10
 70
     1
102
RTVSPropertyOp11
 70
     1
102
RTVSPropertyOp12
 70
     1
102
RTVSPropertyOp13
 70
     1
102
RTVSPropertyOp14
 70
     1
102
RTVSPropertyOp15
 70
     1
102
RTVSPropertyOp16
 70
     1
102
RTVSPropertyOp17
 70
     1
102
RTVSPropertyOp18
 70
     1
102
RTVSPropertyOp19
 70
     1
102
RTVSPropertyOp20
 70
     1
102
RTVSPropertyOp21
 70
     1
102
RTVSPropertyOp22
 70
     1
102
RTVSPropertyOp23
 70
     1
102
RTVSPropertyOp24
 70
     1
102
RTVSPropertyOp25
 70
     1
102
RTVSPropertyOp26
 70
     1
102
RTVSPropertyOp27
 70
     1
102
RTVSPropertyOp28
 70
     1
102
RTVSPropertyOp29
 70
     1
102
RTVSPropertyOp30
 70
     1
102
RTVSPropertyOp31
 70
     1
102
RTVSPropertyOp32
 70
     1
102
RTVSPropertyOp33
 70
     1
102
RTVSPropertyOp34
 70
     1
102
RTVSPropertyOp35
 70
     1
102
RTVSPropertyOp36
 70
     1
102
RTVSPropertyOp37
 70
     1
102
RTVSPropertyOp38
 70
     1
102
RTVSPropertyOp39
 70
     1
102
RTVSPropertyOp40
 70
     1
102
RTVSPropertyOp41
 70
     1
102
RTVSPropertyOp42
 70
     1
102
RTVSPropertyOp43
 70
     1
102
RTVSPropertyOp44
 70
     1
102
RTVSPropertyOp45
 70
     1
102
RTVSPropertyOp46
 70
     1
102
RTVSPropertyOp47
 70
     1
102
RTVSPropertyOp48
 70
     1
102
RTVSPropertyOp49
 70
     1
102
RTVSPropertyOp50
 70
     1
102
RTVSPropertyOp51
 70
     0
102
RTVSPropertyOp52
 70
     0
102
RTVSPropertyOp53
 70
     1
102
RTVSPropertyOp54
 70
     1
102
RTVSPropertyOp55
 70
     1
102
RTVSPropertyOp56
 70
     1
102
RTVSPropertyOp57
 70
     1
102
RTVSPost2010Prop28
280
     0
102
RTVSPost2010PropOp28
 70
     1
102
RTVSPost2010Prop29
280
     1
102
RTVSPost2010PropOp29
 70
     1
102
RTVSPost2010Prop30
280
     1
102
RTVSPost2010PropOp30
 70
     1
102
RTVSPost2010Prop31
280
     0
102
RTVSPost2010PropOp31
 70
     1
102
RTVSPost2010Prop32
280
     0
102
RTVSPost2010PropOp32
 70
     1
102
RTVSPost2010Prop33
280
     0
102
RTVSPost2010PropOp33
 70
     1
102
RTVSPost2010Prop34
280
     0
102
RTVSPost2010PropOp34
 70
     1
102
RTVSPost2010Prop35
280
     0
102
RTVSPost2010PropOp35
 70
     1
102
RTVSPost2010Prop36
280
     0
102
RTVSPost2010PropOp36
 70
     1
102
RTVSPost2010Prop37
 90
       50
102
RTVSPost2010PropOp37
 70
     1
102
RTVSPost2010Prop38
140
0.0
102
RTVSPost2010PropOp38
 70
     1
102
RTVSPost2010Prop39
140
1.0
102
RTVSPost2010PropOp39
 70
     1
102
RTVSPost2010Prop40
 90
        0
102
RTVSPost2010PropOp40
 70
     1
102
RTVSPost2010Prop41ColorIndex
 90
       18
102
RTVSPost2010Prop41ColorRGB
 90
        0
102
RTVSPost2010PropOp41
 70
     1
102
RTVSPost2010Prop42
 90
       50
102
RTVSPost2010PropOp42
 70
     1
102
RTVSPost2010Prop43
 90
        3
102
RTVSPost2010PropOp43
 70
     1
102
RTVSPost2010Prop44ColorIndex
 90
        5
102
RTVSPost2010Prop44ColorRGB
 90
      255
102
RTVSPost2010PropOp44
 70
     1
102
RTVSPost2010Prop45
280
     0
102
RTVSPost2010PropOp45
 70
     1
102
RTVSPost2010Prop46
 90
       50
102
RTVSPost2010PropOp46
 70
     1
102
RTVSPost2010Prop47
 90
       50
102
RTVSPost2010PropOp47
 70
     1
102
RTVSPost2010Prop48
 90
       50
102
RTVSPost2010PropOp48
 70
     1
102
RTVSPost2010Prop49
280
     0
102
RTVSPost2010PropOp49
 70
     1
102
RTVSPost2010Prop50
 90
       50
102
RTVSPost2010PropOp50
 70
     1
102
RTVSPost2010Prop51ColorIndex
 90
      256
102
RTVSPost2010Prop51ColorRGB
 90
-16777216
102
RTVSPost2010PropOp51
 70
     0
102
RTVSPost2010Prop52
140
1.0
102
RTVSPost2010PropOp52
 70
     0
102
RTVSPost2010Prop53
 90
        2
102
RTVSPost2010PropOp53
 70
     1
102
RTVSPost2010Prop54
  1
strokes_ogs.tif
102
RTVSPost2010PropOp54
 70
     1
102
RTVSPost2010Prop55
280
     0
102
RTVSPost2010PropOp55
 70
     1
102
RTVSPost2010Prop56
140
1.0
102
RTVSPost2010PropOp56
 70
     1
102
RTVSPost2010Prop57
140
1.0
102
RTVSPost2010PropOp57
 70
     1
  0
XRECORD
  5
1E6
102
{ACAD_REACTORS
330
1E5
102
}
330
1E5
100
AcDbXrecord
280
     1
102
RTVSPropertyOp0
 70
     1
102
RTVSPropertyOp1
 70
     1
102
RTVSPropertyOp2
 70
     1
102
RTVSPropertyOp3
 70
     1
102
RTVSPropertyOp4
 70
     1
102
RTVSPropertyOp5
 70
     1
102
RTVSPropertyOp6
 70
     1
102
RTVSPropertyOp7
 70
     1
102
RTVSPropertyOp8
 70
     1
102
RTVSPropertyOp9
 70
     1
102
RTVSPropertyOp10
 70
     1
102
RTVSPropertyOp11
 70
     1
102
RTVSPropertyOp12
 70
     1
102
RTVSPropertyOp13
 70
     1
102
RTVSPropertyOp14
 70
     1
102
RTVSPropertyOp15
 70
     1
102
RTVSPropertyOp16
 70
     1
102
RTVSPropertyOp17
 70
     1
102
RTVSPropertyOp18
 70
     1
102
RTVSPropertyOp19
 70
     1
102
RTVSPropertyOp20
 70
     1
102
RTVSPropertyOp21
 70
     1
102
RTVSPropertyOp22
 70
     1
102
RTVSPropertyOp23
 70
     1
102
RTVSPropertyOp24
 70
     1
102
RTVSPropertyOp25
 70
     1
102
RTVSPropertyOp26
 70
     1
102
RTVSPropertyOp27
 70
     1
102
RTVSPropertyOp28
 70
     1
102
RTVSPropertyOp29
 70
     1
102
RTVSPropertyOp30
 70
     1
102
RTVSPropertyOp31
 70
     1
102
RTVSPropertyOp32
 70
     1
102
RTVSPropertyOp33
 70
     1
102
RTVSPropertyOp34
 70
     1
102
RTVSPropertyOp35
 70
     1
102
RTVSPropertyOp36
 70
     1
102
RTVSPropertyOp37
 70
     1
102
RTVSPropertyOp38
 70
     1
102
RTVSPropertyOp39
 70
     1
102
RTVSPropertyOp40
 70
     1
102
RTVSPropertyOp41
 70
     1
102
RTVSPropertyOp42
 70
     1
102
RTVSPropertyOp43
 70
     1
102
RTVSPropertyOp44
 70
     1
102
RTVSPropertyOp45
 70
     1
102
RTVSPropertyOp46
 70
     1
102
RTVSPropertyOp47
 70
     1
102
RTVSPropertyOp48
 70
     1
102
RTVSPropertyOp49
 70
     1
102
RTVSPropertyOp50
 70
     1
102
RTVSPropertyOp51
 70
     0
102
RTVSPropertyOp52
 70
     0
102
RTVSPropertyOp53
 70
     1
102
RTVSPropertyOp54
 70
     1
102
RTVSPropertyOp55
 70
     1
102
RTVSPropertyOp56
 70
     1
102
RTVSPropertyOp57
 70
     1
102
RTVSPost2010Prop28
280
     0
102
RTVSPost2010PropOp28
 70
     1
102
RTVSPost2010Prop29
280
     1
102
RTVSPost2010PropOp29
 70
     1
102
RTVSPost2010Prop30
280
     1
102
RTVSPost2010PropOp30
 70
     1
102
RTVSPost2010Prop31
280
     0
102
RTVSPost2010PropOp31
 70
     1
102
RTVSPost2010Prop32
280
     0
102
RTVSPost2010PropOp32
 70
     1
102
RTVSPost2010Prop33
280
     0
102
RTVSPost2010PropOp33
 70
     1
102
RTVSPost2010Prop34
280
     0
102
RTVSPost2010PropOp34
 70
     1
102
RTVSPost2010Prop35
280
     0
102
RTVSPost2010PropOp35
 70
     1
102
RTVSPost2010Prop36
280
     0
102
RTVSPost2010PropOp36
 70
     1
102
RTVSPost2010Prop37
 90
       50
102
RTVSPost2010PropOp37
 70
     1
102
RTVSPost2010Prop38
140
0.0
102
RTVSPost2010PropOp38
 70
     1
102
RTVSPost2010Prop39
140
1.0
102
RTVSPost2010PropOp39
 70
     1
102
RTVSPost2010Prop40
 90
        0
102
RTVSPost2010PropOp40
 70
     1
102
RTVSPost2010Prop41ColorIndex
 90
       18
102
RTVSPost2010Prop41ColorRGB
 90
        0
102
RTVSPost2010PropOp41
 70
     1
102
RTVSPost2010Prop42
 90
       50
102
RTVSPost2010PropOp42
 70
     1
102
RTVSPost2010Prop43
 90
        3
102
RTVSPost2010PropOp43
 70
     1
102
RTVSPost2010Prop44ColorIndex
 90
        5
102
RTVSPost2010Prop44ColorRGB
 90
      255
102
RTVSPost2010PropOp44
 70
     1
102
RTVSPost2010Prop45
280
     0
102
RTVSPost2010PropOp45
 70
     1
102
RTVSPost2010Prop46
 90
       50
102
RTVSPost2010PropOp46
 70
     1
102
RTVSPost2010Prop47
 90
       50
102
RTVSPost2010PropOp47
 70
     1
102
RTVSPost2010Prop48
 90
       50
102
RTVSPost2010PropOp48
 70
     1
102
RTVSPost2010Prop49
280
     0
102
RTVSPost2010PropOp49
 70
     1
102
RTVSPost2010Prop50
 90
       50
102
RTVSPost2010PropOp50
 70
     1
102
RTVSPost2010Prop51ColorIndex
 90
      256
102
RTVSPost2010Prop51ColorRGB
 90
-16777216
102
RTVSPost2010PropOp51
 70
     0
102
RTVSPost2010Prop52
140
1.0
102
RTVSPost2010PropOp52
 70
     0
102
RTVSPost2010Prop53
 90
        2
102
RTVSPost2010PropOp53
 70
     1
102
RTVSPost2010Prop54
  1
strokes_ogs.tif
102
RTVSPost2010PropOp54
 70
     1
102
RTVSPost2010Prop55
280
     0
102
RTVSPost2010PropOp55
 70
     1
102
RTVSPost2010Prop56
140
1.0
102
RTVSPost2010PropOp56
 70
     1
102
RTVSPost2010Prop57
140
1.0
102
RTVSPost2010PropOp57
 70
     1
  0
XRECORD
  5
1FA
102
{ACAD_REACTORS
330
1F9
102
}
330
1F9
100
AcDbXrecord
280
     1
102
RTVSPropertyOp0
 70
     0
102
RTVSPropertyOp1
 70
     0
102
RTVSPropertyOp2
 70
     0
102
RTVSPropertyOp3
 70
     0
102
RTVSPropertyOp4
 70
     0
102
RTVSPropertyOp5
 70
     0
102
RTVSPropertyOp6
 70
     0
102
RTVSPropertyOp7
 70
     0
102
RTVSPropertyOp8
 70
     0
102
RTVSPropertyOp9
 70
     0
102
RTVSPropertyOp10
 70
     0
102
RTVSPropertyOp11
 70
     0
102
RTVSPropertyOp12
 70
     0
102
RTVSPropertyOp13
 70
     0
102
RTVSPropertyOp14
 70
     2
102
RTVSPropertyOp15
 70
     0
102
RTVSPropertyOp16
 70
     0
102
RTVSPropertyOp17
 70
     0
102
RTVSPropertyOp18
 70
     0
102
RTVSPropertyOp19
 70
     0
102
RTVSPropertyOp20
 70
     0
102
RTVSPropertyOp21
 70
     0
102
RTVSPropertyOp22
 70
     0
102
RTVSPropertyOp23
 70
     0
102
RTVSPropertyOp24
 70
     0
102
RTVSPropertyOp25
 70
     0
102
RTVSPropertyOp26
 70
     0
102
RTVSPropertyOp27
 70
     0
102
RTVSPropertyOp28
 70
     0
102
RTVSPropertyOp29
 70
     0
102
RTVSPropertyOp30
 70
     0
102
RTVSPropertyOp31
 70
     0
102
RTVSPropertyOp32
 70
     0
102
RTVSPropertyOp33
 70
     0
102
RTVSPropertyOp34
 70
     0
102
RTVSPropertyOp35
 70
     0
102
RTVSPropertyOp36
 70
     0
102
RTVSPropertyOp37
 70
     0
102
RTVSPropertyOp38
 70
     0
102
RTVSPropertyOp39
 70
     0
102
RTVSPropertyOp40
 70
     0
102
RTVSPropertyOp41
 70
     0
102
RTVSPropertyOp42
 70
     0
102
RTVSPropertyOp43
 70
     0
102
RTVSPropertyOp44
 70
     0
102
RTVSPropertyOp45
 70
     0
102
RTVSPropertyOp46
 70
     0
102
RTVSPropertyOp47
 70
     0
102
RTVSPropertyOp48
 70
     0
102
RTVSPropertyOp49
 70
     0
102
RTVSPropertyOp50
 70
     0
102
RTVSPropertyOp51
 70
     0
102
RTVSPropertyOp52
 70
     0
102
RTVSPropertyOp53
 70
     0
102
RTVSPropertyOp54
 70
     0
102
RTVSPropertyOp55
 70
     0
102
RTVSPropertyOp56
 70
     0
102
RTVSPropertyOp57
 70
     0
102
RTVSPost2010Prop28
280
     0
102
RTVSPost2010PropOp28
 70
     0
102
RTVSPost2010Prop29
280
     1
102
RTVSPost2010PropOp29
 70
     0
102
RTVSPost2010Prop30
280
     1
102
RTVSPost2010PropOp30
 70
     0
102
RTVSPost2010Prop31
280
     0
102
RTVSPost2010PropOp31
 70
     0
102
RTVSPost2010Prop32
280
     0
102
RTVSPost2010PropOp32
 70
     0
102
RTVSPost2010Prop33
280
     0
102
RTVSPost2010PropOp33
 70
     0
102
RTVSPost2010Prop34
280
     0
102
RTVSPost2010PropOp34
 70
     0
102
RTVSPost2010Prop35
280
     0
102
RTVSPost2010PropOp35
 70
     0
102
RTVSPost2010Prop36
280
     0
102
RTVSPost2010PropOp36
 70
     0
102
RTVSPost2010Prop37
 90
       50
102
RTVSPost2010PropOp37
 70
     0
102
RTVSPost2010Prop38
140
0.0
102
RTVSPost2010PropOp38
 70
     0
102
RTVSPost2010Prop39
140
1.0
102
RTVSPost2010PropOp39
 70
     0
102
RTVSPost2010Prop40
 90
        0
102
RTVSPost2010PropOp40
 70
     0
102
RTVSPost2010Prop41ColorIndex
 90
       18
102
RTVSPost2010Prop41ColorRGB
 90
        0
102
RTVSPost2010PropOp41
 70
     0
102
RTVSPost2010Prop42
 90
       50
102
RTVSPost2010PropOp42
 70
     0
102
RTVSPost2010Prop43
 90
        3
102
RTVSPost2010PropOp43
 70
     0
102
RTVSPost2010Prop44ColorIndex
 90
        5
102
RTVSPost2010Prop44ColorRGB
 90
      255
102
RTVSPost2010PropOp44
 70
     0
102
RTVSPost2010Prop45
280
     0
102
RTVSPost2010PropOp45
 70
     0
102
RTVSPost2010Prop46
 90
       50
102
RTVSPost2010PropOp46
 70
     0
102
RTVSPost2010Prop47
 90
       50
102
RTVSPost2010PropOp47
 70
     0
102
RTVSPost2010Prop48
 90
       50
102
RTVSPost2010PropOp48
 70
     0
102
RTVSPost2010Prop49
280
     0
102
RTVSPost2010PropOp49
 70
     0
102
RTVSPost2010Prop50
 90
       50
102
RTVSPost2010PropOp50
 70
     0
102
RTVSPost2010Prop51ColorIndex
 90
      256
102
RTVSPost2010Prop51ColorRGB
 90
-16777216
102
RTVSPost2010PropOp51
 70
     0
102
RTVSPost2010Prop52
140
1.0
102
RTVSPost2010PropOp52
 70
     0
102
RTVSPost2010Prop53
 90
        2
102
RTVSPost2010PropOp53
 70
     0
102
RTVSPost2010Prop54
  1
strokes_ogs.tif
102
RTVSPost2010PropOp54
 70
     0
102
RTVSPost2010Prop55
280
     0
102
RTVSPost2010PropOp55
 70
     0
102
RTVSPost2010Prop56
140
1.0
102
RTVSPost2010PropOp56
 70
     0
102
RTVSPost2010Prop57
140
1.0
102
RTVSPost2010PropOp57
 70
     0
  0
XRECORD
  5
1F4
102
{ACAD_REACTORS
330
1F3
102
}
330
1F3
100
AcDbXrecord
280
     1
102
RTVSPropertyOp0
 70
     1
102
RTVSPropertyOp1
 70
     1
102
RTVSPropertyOp2
 70
     1
102
RTVSPropertyOp3
 70
     1
102
RTVSPropertyOp4
 70
     1
102
RTVSPropertyOp5
 70
     1
102
RTVSPropertyOp6
 70
     1
102
RTVSPropertyOp7
 70
     1
102
RTVSPropertyOp8
 70
     1
102
RTVSPropertyOp9
 70
     1
102
RTVSPropertyOp10
 70
     1
102
RTVSPropertyOp11
 70
     1
102
RTVSPropertyOp12
 70
     1
102
RTVSPropertyOp13
 70
     1
102
RTVSPropertyOp14
 70
     1
102
RTVSPropertyOp15
 70
     1
102
RTVSPropertyOp16
 70
     1
102
RTVSPropertyOp17
 70
     1
102
RTVSPropertyOp18
 70
     1
102
RTVSPropertyOp19
 70
     1
102
RTVSPropertyOp20
 70
     1
102
RTVSPropertyOp21
 70
     1
102
RTVSPropertyOp22
 70
     1
102
RTVSPropertyOp23
 70
     1
102
RTVSPropertyOp24
 70
     1
102
RTVSPropertyOp25
 70
     1
102
RTVSPropertyOp26
 70
     1
102
RTVSPropertyOp27
 70
     1
102
RTVSPropertyOp28
 70
     1
102
RTVSPropertyOp29
 70
     1
102
RTVSPropertyOp30
 70
     1
102
RTVSPropertyOp31
 70
     1
102
RTVSPropertyOp32
 70
     1
102
RTVSPropertyOp33
 70
     1
102
RTVSPropertyOp34
 70
     1
102
RTVSPropertyOp35
 70
     1
102
RTVSPropertyOp36
 70
     1
102
RTVSPropertyOp37
 70
     1
102
RTVSPropertyOp38
 70
     1
102
RTVSPropertyOp39
 70
     1
102
RTVSPropertyOp40
 70
     1
102
RTVSPropertyOp41
 70
     1
102
RTVSPropertyOp42
 70
     1
102
RTVSPropertyOp43
 70
     1
102
RTVSPropertyOp44
 70
     1
102
RTVSPropertyOp45
 70
     1
102
RTVSPropertyOp46
 70
     1
102
RTVSPropertyOp47
 70
     1
102
RTVSPropertyOp48
 70
     1
102
RTVSPropertyOp49
 70
     1
102
RTVSPropertyOp50
 70
     1
102
RTVSPropertyOp51
 70
     0
102
RTVSPropertyOp52
 70
     0
102
RTVSPropertyOp53
 70
     1
102
RTVSPropertyOp54
 70
     1
102
RTVSPropertyOp55
 70
     1
102
RTVSPropertyOp56
 70
     1
102
RTVSPropertyOp57
 70
     1
102
RTVSPost2010Prop28
280
     0
102
RTVSPost2010PropOp28
 70
     1
102
RTVSPost2010Prop29
280
     1
102
RTVSPost2010PropOp29
 70
     1
102
RTVSPost2010Prop30
280
     1
102
RTVSPost2010PropOp30
 70
     1
102
RTVSPost2010Prop31
280
     0
102
RTVSPost2010PropOp31
 70
     1
102
RTVSPost2010Prop32
280
     0
102
RTVSPost2010PropOp32
 70
     1
102
RTVSPost2010Prop33
280
     0
102
RTVSPost2010PropOp33
 70
     1
102
RTVSPost2010Prop34
280
     0
102
RTVSPost2010PropOp34
 70
     1
102
RTVSPost2010Prop35
280
     0
102
RTVSPost2010PropOp35
 70
     1
102
RTVSPost2010Prop36
280
     0
102
RTVSPost2010PropOp36
 70
     1
102
RTVSPost2010Prop37
 90
       50
102
RTVSPost2010PropOp37
 70
     1
102
RTVSPost2010Prop38
140
0.0
102
RTVSPost2010PropOp38
 70
     1
102
RTVSPost2010Prop39
140
1.0
102
RTVSPost2010PropOp39
 70
     1
102
RTVSPost2010Prop40
 90
        0
102
RTVSPost2010PropOp40
 70
     1
102
RTVSPost2010Prop41ColorIndex
 90
       18
102
RTVSPost2010Prop41ColorRGB
 90
        0
102
RTVSPost2010PropOp41
 70
     1
102
RTVSPost2010Prop42
 90
       50
102
RTVSPost2010PropOp42
 70
     1
102
RTVSPost2010Prop43
 90
        3
102
RTVSPost2010PropOp43
 70
     1
102
RTVSPost2010Prop44ColorIndex
 90
        5
102
RTVSPost2010Prop44ColorRGB
 90
      255
102
RTVSPost2010PropOp44
 70
     1
102
RTVSPost2010Prop45
280
     0
102
RTVSPost2010PropOp45
 70
     1
102
RTVSPost2010Prop46
 90
       50
102
RTVSPost2010PropOp46
 70
     1
102
RTVSPost2010Prop47
 90
       50
102
RTVSPost2010PropOp47
 70
     1
102
RTVSPost2010Prop48
 90
       50
102
RTVSPost2010PropOp48
 70
     1
102
RTVSPost2010Prop49
280
     0
102
RTVSPost2010PropOp49
 70
     1
102
RTVSPost2010Prop50
 90
       50
102
RTVSPost2010PropOp50
 70
     1
102
RTVSPost2010Prop51ColorIndex
 90
      256
102
RTVSPost2010Prop51ColorRGB
 90
-16777216
102
RTVSPost2010PropOp51
 70
     0
102
RTVSPost2010Prop52
140
1.0
102
RTVSPost2010PropOp52
 70
     0
102
RTVSPost2010Prop53
 90
        2
102
RTVSPost2010PropOp53
 70
     1
102
RTVSPost2010Prop54
  1
strokes_ogs.tif
102
RTVSPost2010PropOp54
 70
     1
102
RTVSPost2010Prop55
280
     0
102
RTVSPost2010PropOp55
 70
     1
102
RTVSPost2010Prop56
140
1.0
102
RTVSPost2010PropOp56
 70
     1
102
RTVSPost2010Prop57
140
1.0
102
RTVSPost2010PropOp57
 70
     1
  0
XRECORD
  5
1FC
102
{ACAD_REACTORS
330
1FB
102
}
330
1FB
100
AcDbXrecord
280
     1
102
RTVSPropertyOp0
 70
     0
102
RTVSPropertyOp1
 70
     0
102
RTVSPropertyOp2
 70
     0
102
RTVSPropertyOp3
 70
     0
102
RTVSPropertyOp4
 70
     0
102
RTVSPropertyOp5
 70
     0
102
RTVSPropertyOp6
 70
     0
102
RTVSPropertyOp7
 70
     0
102
RTVSPropertyOp8
 70
     0
102
RTVSPropertyOp9
 70
     0
102
RTVSPropertyOp10
 70
     0
102
RTVSPropertyOp11
 70
     0
102
RTVSPropertyOp12
 70
     0
102
RTVSPropertyOp13
 70
     0
102
RTVSPropertyOp14
 70
     2
102
RTVSPropertyOp15
 70
     0
102
RTVSPropertyOp16
 70
     0
102
RTVSPropertyOp17
 70
     0
102
RTVSPropertyOp18
 70
     0
102
RTVSPropertyOp19
 70
     0
102
RTVSPropertyOp20
 70
     0
102
RTVSPropertyOp21
 70
     0
102
RTVSPropertyOp22
 70
     0
102
RTVSPropertyOp23
 70
     0
102
RTVSPropertyOp24
 70
     0
102
RTVSPropertyOp25
 70
     0
102
RTVSPropertyOp26
 70
     0
102
RTVSPropertyOp27
 70
     0
102
RTVSPropertyOp28
 70
     0
102
RTVSPropertyOp29
 70
     0
102
RTVSPropertyOp30
 70
     0
102
RTVSPropertyOp31
 70
     0
102
RTVSPropertyOp32
 70
     0
102
RTVSPropertyOp33
 70
     0
102
RTVSPropertyOp34
 70
     0
102
RTVSPropertyOp35
 70
     0
102
RTVSPropertyOp36
 70
     0
102
RTVSPropertyOp37
 70
     0
102
RTVSPropertyOp38
 70
     0
102
RTVSPropertyOp39
 70
     0
102
RTVSPropertyOp40
 70
     0
102
RTVSPropertyOp41
 70
     0
102
RTVSPropertyOp42
 70
     0
102
RTVSPropertyOp43
 70
     0
102
RTVSPropertyOp44
 70
     0
102
RTVSPropertyOp45
 70
     0
102
RTVSPropertyOp46
 70
     0
102
RTVSPropertyOp47
 70
     0
102
RTVSPropertyOp48
 70
     0
102
RTVSPropertyOp49
 70
     0
102
RTVSPropertyOp50
 70
     0
102
RTVSPropertyOp51
 70
     0
102
RTVSPropertyOp52
 70
     0
102
RTVSPropertyOp53
 70
     0
102
RTVSPropertyOp54
 70
     0
102
RTVSPropertyOp55
 70
     0
102
RTVSPropertyOp56
 70
     0
102
RTVSPropertyOp57
 70
     0
102
RTVSPost2010Prop28
280
     0
102
RTVSPost2010PropOp28
 70
     0
102
RTVSPost2010Prop29
280
     1
102
RTVSPost2010PropOp29
 70
     0
102
RTVSPost2010Prop30
280
     1
102
RTVSPost2010PropOp30
 70
     0
102
RTVSPost2010Prop31
280
     0
102
RTVSPost2010PropOp31
 70
     0
102
RTVSPost2010Prop32
280
     0
102
RTVSPost2010PropOp32
 70
     0
102
RTVSPost2010Prop33
280
     0
102
RTVSPost2010PropOp33
 70
     0
102
RTVSPost2010Prop34
280
     0
102
RTVSPost2010PropOp34
 70
     0
102
RTVSPost2010Prop35
280
     0
102
RTVSPost2010PropOp35
 70
     0
102
RTVSPost2010Prop36
280
     0
102
RTVSPost2010PropOp36
 70
     0
102
RTVSPost2010Prop37
 90
       50
102
RTVSPost2010PropOp37
 70
     0
102
RTVSPost2010Prop38
140
0.0
102
RTVSPost2010PropOp38
 70
     0
102
RTVSPost2010Prop39
140
1.0
102
RTVSPost2010PropOp39
 70
     0
102
RTVSPost2010Prop40
 90
        0
102
RTVSPost2010PropOp40
 70
     0
102
RTVSPost2010Prop41ColorIndex
 90
       18
102
RTVSPost2010Prop41ColorRGB
 90
        0
102
RTVSPost2010PropOp41
 70
     0
102
RTVSPost2010Prop42
 90
       50
102
RTVSPost2010PropOp42
 70
     0
102
RTVSPost2010Prop43
 90
        3
102
RTVSPost2010PropOp43
 70
     0
102
RTVSPost2010Prop44ColorIndex
 90
        5
102
RTVSPost2010Prop44ColorRGB
 90
      255
102
RTVSPost2010PropOp44
 70
     0
102
RTVSPost2010Prop45
280
     0
102
RTVSPost2010PropOp45
 70
     0
102
RTVSPost2010Prop46
 90
       50
102
RTVSPost2010PropOp46
 70
     0
102
RTVSPost2010Prop47
 90
       50
102
RTVSPost2010PropOp47
 70
     0
102
RTVSPost2010Prop48
 90
       50
102
RTVSPost2010PropOp48
 70
     0
102
RTVSPost2010Prop49
280
     0
102
RTVSPost2010PropOp49
 70
     0
102
RTVSPost2010Prop50
 90
       50
102
RTVSPost2010PropOp50
 70
     0
102
RTVSPost2010Prop51ColorIndex
 90
      256
102
RTVSPost2010Prop51ColorRGB
 90
-16777216
102
RTVSPost2010PropOp51
 70
     0
102
RTVSPost2010Prop52
140
1.0
102
RTVSPost2010PropOp52
 70
     0
102
RTVSPost2010Prop53
 90
        2
102
RTVSPost2010PropOp53
 70
     0
102
RTVSPost2010Prop54
  1
strokes_ogs.tif
102
RTVSPost2010PropOp54
 70
     0
102
RTVSPost2010Prop55
280
     0
102
RTVSPost2010PropOp55
 70
     0
102
RTVSPost2010Prop56
140
1.0
102
RTVSPost2010PropOp56
 70
     0
102
RTVSPost2010Prop57
140
1.0
102
RTVSPost2010PropOp57
 70
     0
  0
XRECORD
  5
1EA
102
{ACAD_REACTORS
330
1E9
102
}
330
1E9
100
AcDbXrecord
280
     1
102
RTVSPropertyOp0
 70
     1
102
RTVSPropertyOp1
 70
     1
102
RTVSPropertyOp2
 70
     1
102
RTVSPropertyOp3
 70
     1
102
RTVSPropertyOp4
 70
     1
102
RTVSPropertyOp5
 70
     1
102
RTVSPropertyOp6
 70
     1
102
RTVSPropertyOp7
 70
     1
102
RTVSPropertyOp8
 70
     1
102
RTVSPropertyOp9
 70
     1
102
RTVSPropertyOp10
 70
     1
102
RTVSPropertyOp11
 70
     1
102
RTVSPropertyOp12
 70
     1
102
RTVSPropertyOp13
 70
     1
102
RTVSPropertyOp14
 70
     1
102
RTVSPropertyOp15
 70
     1
102
RTVSPropertyOp16
 70
     1
102
RTVSPropertyOp17
 70
     1
102
RTVSPropertyOp18
 70
     1
102
RTVSPropertyOp19
 70
     1
102
RTVSPropertyOp20
 70
     1
102
RTVSPropertyOp21
 70
     1
102
RTVSPropertyOp22
 70
     1
102
RTVSPropertyOp23
 70
     1
102
RTVSPropertyOp24
 70
     1
102
RTVSPropertyOp25
 70
     1
102
RTVSPropertyOp26
 70
     1
102
RTVSPropertyOp27
 70
     1
102
RTVSPropertyOp28
 70
     1
102
RTVSPropertyOp29
 70
     1
102
RTVSPropertyOp30
 70
     1
102
RTVSPropertyOp31
 70
     1
102
RTVSPropertyOp32
 70
     1
102
RTVSPropertyOp33
 70
     1
102
RTVSPropertyOp34
 70
     1
102
RTVSPropertyOp35
 70
     1
102
RTVSPropertyOp36
 70
     1
102
RTVSPropertyOp37
 70
     1
102
RTVSPropertyOp38
 70
     1
102
RTVSPropertyOp39
 70
     1
102
RTVSPropertyOp40
 70
     1
102
RTVSPropertyOp41
 70
     1
102
RTVSPropertyOp42
 70
     1
102
RTVSPropertyOp43
 70
     1
102
RTVSPropertyOp44
 70
     1
102
RTVSPropertyOp45
 70
     1
102
RTVSPropertyOp46
 70
     1
102
RTVSPropertyOp47
 70
     1
102
RTVSPropertyOp48
 70
     1
102
RTVSPropertyOp49
 70
     1
102
RTVSPropertyOp50
 70
     1
102
RTVSPropertyOp51
 70
     0
102
RTVSPropertyOp52
 70
     0
102
RTVSPropertyOp53
 70
     1
102
RTVSPropertyOp54
 70
     1
102
RTVSPropertyOp55
 70
     1
102
RTVSPropertyOp56
 70
     1
102
RTVSPropertyOp57
 70
     1
102
RTVSPost2010Prop28
280
     0
102
RTVSPost2010PropOp28
 70
     1
102
RTVSPost2010Prop29
280
     1
102
RTVSPost2010PropOp29
 70
     1
102
RTVSPost2010Prop30
280
     1
102
RTVSPost2010PropOp30
 70
     1
102
RTVSPost2010Prop31
280
     0
102
RTVSPost2010PropOp31
 70
     1
102
RTVSPost2010Prop32
280
     0
102
RTVSPost2010PropOp32
 70
     1
102
RTVSPost2010Prop33
280
     0
102
RTVSPost2010PropOp33
 70
     1
102
RTVSPost2010Prop34
280
     0
102
RTVSPost2010PropOp34
 70
     1
102
RTVSPost2010Prop35
280
     0
102
RTVSPost2010PropOp35
 70
     1
102
RTVSPost2010Prop36
280
     0
102
RTVSPost2010PropOp36
 70
     1
102
RTVSPost2010Prop37
 90
       50
102
RTVSPost2010PropOp37
 70
     1
102
RTVSPost2010Prop38
140
0.0
102
RTVSPost2010PropOp38
 70
     1
102
RTVSPost2010Prop39
140
1.0
102
RTVSPost2010PropOp39
 70
     1
102
RTVSPost2010Prop40
 90
        0
102
RTVSPost2010PropOp40
 70
     1
102
RTVSPost2010Prop41ColorIndex
 90
       18
102
RTVSPost2010Prop41ColorRGB
 90
        0
102
RTVSPost2010PropOp41
 70
     1
102
RTVSPost2010Prop42
 90
       50
102
RTVSPost2010PropOp42
 70
     1
102
RTVSPost2010Prop43
 90
        3
102
RTVSPost2010PropOp43
 70
     1
102
RTVSPost2010Prop44ColorIndex
 90
        5
102
RTVSPost2010Prop44ColorRGB
 90
      255
102
RTVSPost2010PropOp44
 70
     1
102
RTVSPost2010Prop45
280
     0
102
RTVSPost2010PropOp45
 70
     1
102
RTVSPost2010Prop46
 90
       50
102
RTVSPost2010PropOp46
 70
     1
102
RTVSPost2010Prop47
 90
       50
102
RTVSPost2010PropOp47
 70
     1
102
RTVSPost2010Prop48
 90
       50
102
RTVSPost2010PropOp48
 70
     1
102
RTVSPost2010Prop49
280
     0
102
RTVSPost2010PropOp49
 70
     1
102
RTVSPost2010Prop50
 90
       50
102
RTVSPost2010PropOp50
 70
     1
102
RTVSPost2010Prop51ColorIndex
 90
      256
102
RTVSPost2010Prop51ColorRGB
 90
-16777216
102
RTVSPost2010PropOp51
 70
     0
102
RTVSPost2010Prop52
140
1.0
102
RTVSPost2010PropOp52
 70
     0
102
RTVSPost2010Prop53
 90
        2
102
RTVSPost2010PropOp53
 70
     1
102
RTVSPost2010Prop54
  1
strokes_ogs.tif
102
RTVSPost2010PropOp54
 70
     1
102
RTVSPost2010Prop55
280
     0
102
RTVSPost2010PropOp55
 70
     1
102
RTVSPost2010Prop56
140
1.0
102
RTVSPost2010PropOp56
 70
     1
102
RTVSPost2010Prop57
140
1.0
102
RTVSPost2010PropOp57
 70
     1
  0
XRECORD
  5
208
102
{ACAD_REACTORS
330
207
102
}
330
207
100
AcDbXrecord
280
     1
102
RTVSPropertyOp0
 70
     1
102
RTVSPropertyOp1
 70
     1
102
RTVSPropertyOp2
 70
     1
102
RTVSPropertyOp3
 70
     1
102
RTVSPropertyOp4
 70
     1
102
RTVSPropertyOp5
 70
     1
102
RTVSPropertyOp6
 70
     1
102
RTVSPropertyOp7
 70
     1
102
RTVSPropertyOp8
 70
     1
102
RTVSPropertyOp9
 70
     1
102
RTVSPropertyOp10
 70
     1
102
RTVSPropertyOp11
 70
     1
102
RTVSPropertyOp12
 70
     1
102
RTVSPropertyOp13
 70
     1
102
RTVSPropertyOp14
 70
     1
102
RTVSPropertyOp15
 70
     1
102
RTVSPropertyOp16
 70
     1
102
RTVSPropertyOp17
 70
     1
102
RTVSPropertyOp18
 70
     1
102
RTVSPropertyOp19
 70
     1
102
RTVSPropertyOp20
 70
     1
102
RTVSPropertyOp21
 70
     1
102
RTVSPropertyOp22
 70
     1
102
RTVSPropertyOp23
 70
     1
102
RTVSPropertyOp24
 70
     1
102
RTVSPropertyOp25
 70
     1
102
RTVSPropertyOp26
 70
     1
102
RTVSPropertyOp27
 70
     1
102
RTVSPropertyOp28
 70
     1
102
RTVSPropertyOp29
 70
     1
102
RTVSPropertyOp30
 70
     1
102
RTVSPropertyOp31
 70
     1
102
RTVSPropertyOp32
 70
     1
102
RTVSPropertyOp33
 70
     1
102
RTVSPropertyOp34
 70
     1
102
RTVSPropertyOp35
 70
     1
102
RTVSPropertyOp36
 70
     1
102
RTVSPropertyOp37
 70
     1
102
RTVSPropertyOp38
 70
     1
102
RTVSPropertyOp39
 70
     1
102
RTVSPropertyOp40
 70
     1
102
RTVSPropertyOp41
 70
     1
102
RTVSPropertyOp42
 70
     1
102
RTVSPropertyOp43
 70
     1
102
RTVSPropertyOp44
 70
     1
102
RTVSPropertyOp45
 70
     1
102
RTVSPropertyOp46
 70
     1
102
RTVSPropertyOp47
 70
     1
102
RTVSPropertyOp48
 70
     1
102
RTVSPropertyOp49
 70
     1
102
RTVSPropertyOp50
 70
     1
102
RTVSPropertyOp51
 70
     0
102
RTVSPropertyOp52
 70
     0
102
RTVSPropertyOp53
 70
     1
102
RTVSPropertyOp54
 70
     1
102
RTVSPropertyOp55
 70
     1
102
RTVSPropertyOp56
 70
     1
102
RTVSPropertyOp57
 70
     1
102
RTVSPost2010Prop28
280
     0
102
RTVSPost2010PropOp28
 70
     1
102
RTVSPost2010Prop29
280
     1
102
RTVSPost2010PropOp29
 70
     1
102
RTVSPost2010Prop30
280
     1
102
RTVSPost2010PropOp30
 70
     1
102
RTVSPost2010Prop31
280
     0
102
RTVSPost2010PropOp31
 70
     1
102
RTVSPost2010Prop32
280
     0
102
RTVSPost2010PropOp32
 70
     1
102
RTVSPost2010Prop33
280
     0
102
RTVSPost2010PropOp33
 70
     1
102
RTVSPost2010Prop34
280
     0
102
RTVSPost2010PropOp34
 70
     1
102
RTVSPost2010Prop35
280
     0
102
RTVSPost2010PropOp35
 70
     1
102
RTVSPost2010Prop36
280
     0
102
RTVSPost2010PropOp36
 70
     1
102
RTVSPost2010Prop37
 90
       50
102
RTVSPost2010PropOp37
 70
     1
102
RTVSPost2010Prop38
140
0.0
102
RTVSPost2010PropOp38
 70
     1
102
RTVSPost2010Prop39
140
1.0
102
RTVSPost2010PropOp39
 70
     1
102
RTVSPost2010Prop40
 90
        0
102
RTVSPost2010PropOp40
 70
     1
102
RTVSPost2010Prop41ColorIndex
 90
       18
102
RTVSPost2010Prop41ColorRGB
 90
        0
102
RTVSPost2010PropOp41
 70
     1
102
RTVSPost2010Prop42
 90
       50
102
RTVSPost2010PropOp42
 70
     1
102
RTVSPost2010Prop43
 90
        3
102
RTVSPost2010PropOp43
 70
     1
102
RTVSPost2010Prop44ColorIndex
 90
        5
102
RTVSPost2010Prop44ColorRGB
 90
      255
102
RTVSPost2010PropOp44
 70
     1
102
RTVSPost2010Prop45
280
     0
102
RTVSPost2010PropOp45
 70
     1
102
RTVSPost2010Prop46
 90
       50
102
RTVSPost2010PropOp46
 70
     1
102
RTVSPost2010Prop47
 90
       50
102
RTVSPost2010PropOp47
 70
     1
102
RTVSPost2010Prop48
 90
       50
102
RTVSPost2010PropOp48
 70
     1
102
RTVSPost2010Prop49
280
     0
102
RTVSPost2010PropOp49
 70
     1
102
RTVSPost2010Prop50
 90
       50
102
RTVSPost2010PropOp50
 70
     1
102
RTVSPost2010Prop51ColorIndex
 90
      256
102
RTVSPost2010Prop51ColorRGB
 90
-16777216
102
RTVSPost2010PropOp51
 70
     0
102
RTVSPost2010Prop52
140
1.0
102
RTVSPost2010PropOp52
 70
     0
102
RTVSPost2010Prop53
 90
        2
102
RTVSPost2010PropOp53
 70
     1
102
RTVSPost2010Prop54
  1
strokes_ogs.tif
102
RTVSPost2010PropOp54
 70
     1
102
RTVSPost2010Prop55
280
     0
102
RTVSPost2010PropOp55
 70
     1
102
RTVSPost2010Prop56
140
1.0
102
RTVSPost2010PropOp56
 70
     1
102
RTVSPost2010Prop57
140
1.0
102
RTVSPost2010PropOp57
 70
     1
  0
XRECORD
  5
206
102
{ACAD_REACTORS
330
205
102
}
330
205
100
AcDbXrecord
280
     1
102
RTVSPropertyOp0
 70
     1
102
RTVSPropertyOp1
 70
     1
102
RTVSPropertyOp2
 70
     1
102
RTVSPropertyOp3
 70
     1
102
RTVSPropertyOp4
 70
     1
102
RTVSPropertyOp5
 70
     1
102
RTVSPropertyOp6
 70
     1
102
RTVSPropertyOp7
 70
     1
102
RTVSPropertyOp8
 70
     1
102
RTVSPropertyOp9
 70
     1
102
RTVSPropertyOp10
 70
     1
102
RTVSPropertyOp11
 70
     1
102
RTVSPropertyOp12
 70
     1
102
RTVSPropertyOp13
 70
     1
102
RTVSPropertyOp14
 70
     1
102
RTVSPropertyOp15
 70
     1
102
RTVSPropertyOp16
 70
     1
102
RTVSPropertyOp17
 70
     1
102
RTVSPropertyOp18
 70
     1
102
RTVSPropertyOp19
 70
     1
102
RTVSPropertyOp20
 70
     1
102
RTVSPropertyOp21
 70
     1
102
RTVSPropertyOp22
 70
     1
102
RTVSPropertyOp23
 70
     1
102
RTVSPropertyOp24
 70
     1
102
RTVSPropertyOp25
 70
     1
102
RTVSPropertyOp26
 70
     1
102
RTVSPropertyOp27
 70
     1
102
RTVSPropertyOp28
 70
     1
102
RTVSPropertyOp29
 70
     1
102
RTVSPropertyOp30
 70
     1
102
RTVSPropertyOp31
 70
     1
102
RTVSPropertyOp32
 70
     1
102
RTVSPropertyOp33
 70
     1
102
RTVSPropertyOp34
 70
     1
102
RTVSPropertyOp35
 70
     1
102
RTVSPropertyOp36
 70
     1
102
RTVSPropertyOp37
 70
     1
102
RTVSPropertyOp38
 70
     1
102
RTVSPropertyOp39
 70
     1
102
RTVSPropertyOp40
 70
     1
102
RTVSPropertyOp41
 70
     1
102
RTVSPropertyOp42
 70
     1
102
RTVSPropertyOp43
 70
     1
102
RTVSPropertyOp44
 70
     1
102
RTVSPropertyOp45
 70
     1
102
RTVSPropertyOp46
 70
     1
102
RTVSPropertyOp47
 70
     1
102
RTVSPropertyOp48
 70
     1
102
RTVSPropertyOp49
 70
     1
102
RTVSPropertyOp50
 70
     1
102
RTVSPropertyOp51
 70
     0
102
RTVSPropertyOp52
 70
     0
102
RTVSPropertyOp53
 70
     1
102
RTVSPropertyOp54
 70
     1
102
RTVSPropertyOp55
 70
     1
102
RTVSPropertyOp56
 70
     1
102
RTVSPropertyOp57
 70
     1
102
RTVSPost2010Prop28
280
     0
102
RTVSPost2010PropOp28
 70
     1
102
RTVSPost2010Prop29
280
     1
102
RTVSPost2010PropOp29
 70
     1
102
RTVSPost2010Prop30
280
     1
102
RTVSPost2010PropOp30
 70
     1
102
RTVSPost2010Prop31
280
     0
102
RTVSPost2010PropOp31
 70
     1
102
RTVSPost2010Prop32
280
     0
102
RTVSPost2010PropOp32
 70
     1
102
RTVSPost2010Prop33
280
     0
102
RTVSPost2010PropOp33
 70
     1
102
RTVSPost2010Prop34
280
     0
102
RTVSPost2010PropOp34
 70
     1
102
RTVSPost2010Prop35
280
     0
102
RTVSPost2010PropOp35
 70
     1
102
RTVSPost2010Prop36
280
     0
102
RTVSPost2010PropOp36
 70
     1
102
RTVSPost2010Prop37
 90
       50
102
RTVSPost2010PropOp37
 70
     1
102
RTVSPost2010Prop38
140
0.0
102
RTVSPost2010PropOp38
 70
     1
102
RTVSPost2010Prop39
140
1.0
102
RTVSPost2010PropOp39
 70
     1
102
RTVSPost2010Prop40
 90
        0
102
RTVSPost2010PropOp40
 70
     1
102
RTVSPost2010Prop41ColorIndex
 90
       18
102
RTVSPost2010Prop41ColorRGB
 90
        0
102
RTVSPost2010PropOp41
 70
     1
102
RTVSPost2010Prop42
 90
       50
102
RTVSPost2010PropOp42
 70
     1
102
RTVSPost2010Prop43
 90
        3
102
RTVSPost2010PropOp43
 70
     1
102
RTVSPost2010Prop44ColorIndex
 90
        5
102
RTVSPost2010Prop44ColorRGB
 90
      255
102
RTVSPost2010PropOp44
 70
     1
102
RTVSPost2010Prop45
280
     0
102
RTVSPost2010PropOp45
 70
     1
102
RTVSPost2010Prop46
 90
       50
102
RTVSPost2010PropOp46
 70
     1
102
RTVSPost2010Prop47
 90
       50
102
RTVSPost2010PropOp47
 70
     1
102
RTVSPost2010Prop48
 90
       50
102
RTVSPost2010PropOp48
 70
     1
102
RTVSPost2010Prop49
280
     0
102
RTVSPost2010PropOp49
 70
     1
102
RTVSPost2010Prop50
 90
       50
102
RTVSPost2010PropOp50
 70
     1
102
RTVSPost2010Prop51ColorIndex
 90
      256
102
RTVSPost2010Prop51ColorRGB
 90
-16777216
102
RTVSPost2010PropOp51
 70
     0
102
RTVSPost2010Prop52
140
1.0
102
RTVSPost2010PropOp52
 70
     0
102
RTVSPost2010Prop53
 90
        2
102
RTVSPost2010PropOp53
 70
     1
102
RTVSPost2010Prop54
  1
strokes_ogs.tif
102
RTVSPost2010PropOp54
 70
     1
102
RTVSPost2010Prop55
280
     0
102
RTVSPost2010PropOp55
 70
     1
102
RTVSPost2010Prop56
140
1.0
102
RTVSPost2010PropOp56
 70
     1
102
RTVSPost2010Prop57
140
1.0
102
RTVSPost2010PropOp57
 70
     1
  0
XRECORD
  5
200
102
{ACAD_REACTORS
330
1FF
102
}
330
1FF
100
AcDbXrecord
280
     1
102
RTVSPropertyOp0
 70
     1
102
RTVSPropertyOp1
 70
     1
102
RTVSPropertyOp2
 70
     1
102
RTVSPropertyOp3
 70
     1
102
RTVSPropertyOp4
 70
     1
102
RTVSPropertyOp5
 70
     1
102
RTVSPropertyOp6
 70
     1
102
RTVSPropertyOp7
 70
     1
102
RTVSPropertyOp8
 70
     1
102
RTVSPropertyOp9
 70
     1
102
RTVSPropertyOp10
 70
     1
102
RTVSPropertyOp11
 70
     1
102
RTVSPropertyOp12
 70
     1
102
RTVSPropertyOp13
 70
     1
102
RTVSPropertyOp14
 70
     1
102
RTVSPropertyOp15
 70
     1
102
RTVSPropertyOp16
 70
     1
102
RTVSPropertyOp17
 70
     1
102
RTVSPropertyOp18
 70
     1
102
RTVSPropertyOp19
 70
     1
102
RTVSPropertyOp20
 70
     1
102
RTVSPropertyOp21
 70
     1
102
RTVSPropertyOp22
 70
     1
102
RTVSPropertyOp23
 70
     1
102
RTVSPropertyOp24
 70
     1
102
RTVSPropertyOp25
 70
     1
102
RTVSPropertyOp26
 70
     1
102
RTVSPropertyOp27
 70
     1
102
RTVSPropertyOp28
 70
     1
102
RTVSPropertyOp29
 70
     1
102
RTVSPropertyOp30
 70
     1
102
RTVSPropertyOp31
 70
     1
102
RTVSPropertyOp32
 70
     1
102
RTVSPropertyOp33
 70
     1
102
RTVSPropertyOp34
 70
     1
102
RTVSPropertyOp35
 70
     1
102
RTVSPropertyOp36
 70
     1
102
RTVSPropertyOp37
 70
     1
102
RTVSPropertyOp38
 70
     1
102
RTVSPropertyOp39
 70
     1
102
RTVSPropertyOp40
 70
     1
102
RTVSPropertyOp41
 70
     1
102
RTVSPropertyOp42
 70
     1
102
RTVSPropertyOp43
 70
     1
102
RTVSPropertyOp44
 70
     1
102
RTVSPropertyOp45
 70
     1
102
RTVSPropertyOp46
 70
     1
102
RTVSPropertyOp47
 70
     1
102
RTVSPropertyOp48
 70
     1
102
RTVSPropertyOp49
 70
     1
102
RTVSPropertyOp50
 70
     1
102
RTVSPropertyOp51
 70
     0
102
RTVSPropertyOp52
 70
     0
102
RTVSPropertyOp53
 70
     1
102
RTVSPropertyOp54
 70
     1
102
RTVSPropertyOp55
 70
     1
102
RTVSPropertyOp56
 70
     1
102
RTVSPropertyOp57
 70
     1
102
RTVSPost2010Prop28
280
     0
102
RTVSPost2010PropOp28
 70
     1
102
RTVSPost2010Prop29
280
     1
102
RTVSPost2010PropOp29
 70
     1
102
RTVSPost2010Prop30
280
     1
102
RTVSPost2010PropOp30
 70
     1
102
RTVSPost2010Prop31
280
     0
102
RTVSPost2010PropOp31
 70
     1
102
RTVSPost2010Prop32
280
     0
102
RTVSPost2010PropOp32
 70
     1
102
RTVSPost2010Prop33
280
     0
102
RTVSPost2010PropOp33
 70
     1
102
RTVSPost2010Prop34
280
     0
102
RTVSPost2010PropOp34
 70
     1
102
RTVSPost2010Prop35
280
     0
102
RTVSPost2010PropOp35
 70
     1
102
RTVSPost2010Prop36
280
     0
102
RTVSPost2010PropOp36
 70
     1
102
RTVSPost2010Prop37
 90
       50
102
RTVSPost2010PropOp37
 70
     1
102
RTVSPost2010Prop38
140
0.0
102
RTVSPost2010PropOp38
 70
     1
102
RTVSPost2010Prop39
140
1.0
102
RTVSPost2010PropOp39
 70
     1
102
RTVSPost2010Prop40
 90
        0
102
RTVSPost2010PropOp40
 70
     1
102
RTVSPost2010Prop41ColorIndex
 90
       18
102
RTVSPost2010Prop41ColorRGB
 90
        0
102
RTVSPost2010PropOp41
 70
     1
102
RTVSPost2010Prop42
 90
       50
102
RTVSPost2010PropOp42
 70
     1
102
RTVSPost2010Prop43
 90
        3
102
RTVSPost2010PropOp43
 70
     1
102
RTVSPost2010Prop44ColorIndex
 90
        5
102
RTVSPost2010Prop44ColorRGB
 90
      255
102
RTVSPost2010PropOp44
 70
     1
102
RTVSPost2010Prop45
280
     0
102
RTVSPost2010PropOp45
 70
     1
102
RTVSPost2010Prop46
 90
       50
102
RTVSPost2010PropOp46
 70
     1
102
RTVSPost2010Prop47
 90
       50
102
RTVSPost2010PropOp47
 70
     1
102
RTVSPost2010Prop48
 90
       50
102
RTVSPost2010PropOp48
 70
     1
102
RTVSPost2010Prop49
280
     0
102
RTVSPost2010PropOp49
 70
     1
102
RTVSPost2010Prop50
 90
       50
102
RTVSPost2010PropOp50
 70
     1
102
RTVSPost2010Prop51ColorIndex
 90
      256
102
RTVSPost2010Prop51ColorRGB
 90
-16777216
102
RTVSPost2010PropOp51
 70
     0
102
RTVSPost2010Prop52
140
1.0
102
RTVSPost2010PropOp52
 70
     0
102
RTVSPost2010Prop53
 90
        2
102
RTVSPost2010PropOp53
 70
     1
102
RTVSPost2010Prop54
  1
strokes_ogs.tif
102
RTVSPost2010PropOp54
 70
     1
102
RTVSPost2010Prop55
280
     0
102
RTVSPost2010PropOp55
 70
     1
102
RTVSPost2010Prop56
140
1.0
102
RTVSPost2010PropOp56
 70
     1
102
RTVSPost2010Prop57
140
1.0
102
RTVSPost2010PropOp57
 70
     1
  0
XRECORD
  5
202
102
{ACAD_REACTORS
330
201
102
}
330
201
100
AcDbXrecord
280
     1
102
RTVSPropertyOp0
 70
     1
102
RTVSPropertyOp1
 70
     1
102
RTVSPropertyOp2
 70
     1
102
RTVSPropertyOp3
 70
     1
102
RTVSPropertyOp4
 70
     1
102
RTVSPropertyOp5
 70
     1
102
RTVSPropertyOp6
 70
     1
102
RTVSPropertyOp7
 70
     1
102
RTVSPropertyOp8
 70
     1
102
RTVSPropertyOp9
 70
     1
102
RTVSPropertyOp10
 70
     1
102
RTVSPropertyOp11
 70
     1
102
RTVSPropertyOp12
 70
     1
102
RTVSPropertyOp13
 70
     1
102
RTVSPropertyOp14
 70
     1
102
RTVSPropertyOp15
 70
     1
102
RTVSPropertyOp16
 70
     1
102
RTVSPropertyOp17
 70
     1
102
RTVSPropertyOp18
 70
     1
102
RTVSPropertyOp19
 70
     1
102
RTVSPropertyOp20
 70
     1
102
RTVSPropertyOp21
 70
     1
102
RTVSPropertyOp22
 70
     1
102
RTVSPropertyOp23
 70
     1
102
RTVSPropertyOp24
 70
     1
102
RTVSPropertyOp25
 70
     1
102
RTVSPropertyOp26
 70
     1
102
RTVSPropertyOp27
 70
     1
102
RTVSPropertyOp28
 70
     1
102
RTVSPropertyOp29
 70
     1
102
RTVSPropertyOp30
 70
     1
102
RTVSPropertyOp31
 70
     1
102
RTVSPropertyOp32
 70
     1
102
RTVSPropertyOp33
 70
     1
102
RTVSPropertyOp34
 70
     1
102
RTVSPropertyOp35
 70
     1
102
RTVSPropertyOp36
 70
     1
102
RTVSPropertyOp37
 70
     1
102
RTVSPropertyOp38
 70
     1
102
RTVSPropertyOp39
 70
     1
102
RTVSPropertyOp40
 70
     1
102
RTVSPropertyOp41
 70
     1
102
RTVSPropertyOp42
 70
     1
102
RTVSPropertyOp43
 70
     1
102
RTVSPropertyOp44
 70
     1
102
RTVSPropertyOp45
 70
     1
102
RTVSPropertyOp46
 70
     1
102
RTVSPropertyOp47
 70
     1
102
RTVSPropertyOp48
 70
     1
102
RTVSPropertyOp49
 70
     1
102
RTVSPropertyOp50
 70
     1
102
RTVSPropertyOp51
 70
     0
102
RTVSPropertyOp52
 70
     0
102
RTVSPropertyOp53
 70
     1
102
RTVSPropertyOp54
 70
     1
102
RTVSPropertyOp55
 70
     1
102
RTVSPropertyOp56
 70
     1
102
RTVSPropertyOp57
 70
     1
102
RTVSPost2010Prop28
280
     0
102
RTVSPost2010PropOp28
 70
     1
102
RTVSPost2010Prop29
280
     1
102
RTVSPost2010PropOp29
 70
     1
102
RTVSPost2010Prop30
280
     1
102
RTVSPost2010PropOp30
 70
     1
102
RTVSPost2010Prop31
280
     0
102
RTVSPost2010PropOp31
 70
     1
102
RTVSPost2010Prop32
280
     0
102
RTVSPost2010PropOp32
 70
     1
102
RTVSPost2010Prop33
280
     0
102
RTVSPost2010PropOp33
 70
     1
102
RTVSPost2010Prop34
280
     0
102
RTVSPost2010PropOp34
 70
     1
102
RTVSPost2010Prop35
280
     0
102
RTVSPost2010PropOp35
 70
     1
102
RTVSPost2010Prop36
280
     0
102
RTVSPost2010PropOp36
 70
     1
102
RTVSPost2010Prop37
 90
       50
102
RTVSPost2010PropOp37
 70
     1
102
RTVSPost2010Prop38
140
0.0
102
RTVSPost2010PropOp38
 70
     1
102
RTVSPost2010Prop39
140
1.0
102
RTVSPost2010PropOp39
 70
     1
102
RTVSPost2010Prop40
 90
        0
102
RTVSPost2010PropOp40
 70
     1
102
RTVSPost2010Prop41ColorIndex
 90
       18
102
RTVSPost2010Prop41ColorRGB
 90
        0
102
RTVSPost2010PropOp41
 70
     1
102
RTVSPost2010Prop42
 90
       50
102
RTVSPost2010PropOp42
 70
     1
102
RTVSPost2010Prop43
 90
        3
102
RTVSPost2010PropOp43
 70
     1
102
RTVSPost2010Prop44ColorIndex
 90
        5
102
RTVSPost2010Prop44ColorRGB
 90
      255
102
RTVSPost2010PropOp44
 70
     1
102
RTVSPost2010Prop45
280
     0
102
RTVSPost2010PropOp45
 70
     1
102
RTVSPost2010Prop46
 90
       50
102
RTVSPost2010PropOp46
 70
     1
102
RTVSPost2010Prop47
 90
       50
102
RTVSPost2010PropOp47
 70
     1
102
RTVSPost2010Prop48
 90
       50
102
RTVSPost2010PropOp48
 70
     1
102
RTVSPost2010Prop49
280
     0
102
RTVSPost2010PropOp49
 70
     1
102
RTVSPost2010Prop50
 90
       50
102
RTVSPost2010PropOp50
 70
     1
102
RTVSPost2010Prop51ColorIndex
 90
      256
102
RTVSPost2010Prop51ColorRGB
 90
-16777216
102
RTVSPost2010PropOp51
 70
     0
102
RTVSPost2010Prop52
140
1.0
102
RTVSPost2010PropOp52
 70
     0
102
RTVSPost2010Prop53
 90
        2
102
RTVSPost2010PropOp53
 70
     1
102
RTVSPost2010Prop54
  1
strokes_ogs.tif
102
RTVSPost2010PropOp54
 70
     1
102
RTVSPost2010Prop55
280
     0
102
RTVSPost2010PropOp55
 70
     1
102
RTVSPost2010Prop56
140
1.0
102
RTVSPost2010PropOp56
 70
     1
102
RTVSPost2010Prop57
140
1.0
102
RTVSPost2010PropOp57
 70
     1
  0
XRECORD
  5
1F2
102
{ACAD_REACTORS
330
1F1
102
}
330
1F1
100
AcDbXrecord
280
     1
102
RTVSPropertyOp0
 70
     1
102
RTVSPropertyOp1
 70
     1
102
RTVSPropertyOp2
 70
     1
102
RTVSPropertyOp3
 70
     1
102
RTVSPropertyOp4
 70
     1
102
RTVSPropertyOp5
 70
     1
102
RTVSPropertyOp6
 70
     1
102
RTVSPropertyOp7
 70
     1
102
RTVSPropertyOp8
 70
     1
102
RTVSPropertyOp9
 70
     1
102
RTVSPropertyOp10
 70
     1
102
RTVSPropertyOp11
 70
     1
102
RTVSPropertyOp12
 70
     1
102
RTVSPropertyOp13
 70
     1
102
RTVSPropertyOp14
 70
     1
102
RTVSPropertyOp15
 70
     1
102
RTVSPropertyOp16
 70
     1
102
RTVSPropertyOp17
 70
     1
102
RTVSPropertyOp18
 70
     1
102
RTVSPropertyOp19
 70
     1
102
RTVSPropertyOp20
 70
     1
102
RTVSPropertyOp21
 70
     1
102
RTVSPropertyOp22
 70
     1
102
RTVSPropertyOp23
 70
     1
102
RTVSPropertyOp24
 70
     1
102
RTVSPropertyOp25
 70
     1
102
RTVSPropertyOp26
 70
     1
102
RTVSPropertyOp27
 70
     1
102
RTVSPropertyOp28
 70
     1
102
RTVSPropertyOp29
 70
     1
102
RTVSPropertyOp30
 70
     1
102
RTVSPropertyOp31
 70
     1
102
RTVSPropertyOp32
 70
     1
102
RTVSPropertyOp33
 70
     1
102
RTVSPropertyOp34
 70
     1
102
RTVSPropertyOp35
 70
     1
102
RTVSPropertyOp36
 70
     1
102
RTVSPropertyOp37
 70
     1
102
RTVSPropertyOp38
 70
     1
102
RTVSPropertyOp39
 70
     1
102
RTVSPropertyOp40
 70
     1
102
RTVSPropertyOp41
 70
     1
102
RTVSPropertyOp42
 70
     1
102
RTVSPropertyOp43
 70
     1
102
RTVSPropertyOp44
 70
     1
102
RTVSPropertyOp45
 70
     1
102
RTVSPropertyOp46
 70
     1
102
RTVSPropertyOp47
 70
     1
102
RTVSPropertyOp48
 70
     1
102
RTVSPropertyOp49
 70
     1
102
RTVSPropertyOp50
 70
     1
102
RTVSPropertyOp51
 70
     0
102
RTVSPropertyOp52
 70
     0
102
RTVSPropertyOp53
 70
     1
102
RTVSPropertyOp54
 70
     1
102
RTVSPropertyOp55
 70
     1
102
RTVSPropertyOp56
 70
     1
102
RTVSPropertyOp57
 70
     1
102
RTVSPost2010Prop28
280
     0
102
RTVSPost2010PropOp28
 70
     1
102
RTVSPost2010Prop29
280
     1
102
RTVSPost2010PropOp29
 70
     1
102
RTVSPost2010Prop30
280
     1
102
RTVSPost2010PropOp30
 70
     1
102
RTVSPost2010Prop31
280
     0
102
RTVSPost2010PropOp31
 70
     1
102
RTVSPost2010Prop32
280
     0
102
RTVSPost2010PropOp32
 70
     1
102
RTVSPost2010Prop33
280
     0
102
RTVSPost2010PropOp33
 70
     1
102
RTVSPost2010Prop34
280
     0
102
RTVSPost2010PropOp34
 70
     1
102
RTVSPost2010Prop35
280
     0
102
RTVSPost2010PropOp35
 70
     1
102
RTVSPost2010Prop36
280
     0
102
RTVSPost2010PropOp36
 70
     1
102
RTVSPost2010Prop37
 90
       50
102
RTVSPost2010PropOp37
 70
     1
102
RTVSPost2010Prop38
140
0.0
102
RTVSPost2010PropOp38
 70
     1
102
RTVSPost2010Prop39
140
1.0
102
RTVSPost2010PropOp39
 70
     1
102
RTVSPost2010Prop40
 90
        0
102
RTVSPost2010PropOp40
 70
     1
102
RTVSPost2010Prop41ColorIndex
 90
       18
102
RTVSPost2010Prop41ColorRGB
 90
        0
102
RTVSPost2010PropOp41
 70
     1
102
RTVSPost2010Prop42
 90
       50
102
RTVSPost2010PropOp42
 70
     1
102
RTVSPost2010Prop43
 90
        3
102
RTVSPost2010PropOp43
 70
     1
102
RTVSPost2010Prop44ColorIndex
 90
        5
102
RTVSPost2010Prop44ColorRGB
 90
      255
102
RTVSPost2010PropOp44
 70
     1
102
RTVSPost2010Prop45
280
     0
102
RTVSPost2010PropOp45
 70
     1
102
RTVSPost2010Prop46
 90
       50
102
RTVSPost2010PropOp46
 70
     1
102
RTVSPost2010Prop47
 90
       50
102
RTVSPost2010PropOp47
 70
     1
102
RTVSPost2010Prop48
 90
       50
102
RTVSPost2010PropOp48
 70
     1
102
RTVSPost2010Prop49
280
     0
102
RTVSPost2010PropOp49
 70
     1
102
RTVSPost2010Prop50
 90
       50
102
RTVSPost2010PropOp50
 70
     1
102
RTVSPost2010Prop51ColorIndex
 90
      256
102
RTVSPost2010Prop51ColorRGB
 90
-16777216
102
RTVSPost2010PropOp51
 70
     0
102
RTVSPost2010Prop52
140
1.0
102
RTVSPost2010PropOp52
 70
     0
102
RTVSPost2010Prop53
 90
        2
102
RTVSPost2010PropOp53
 70
     1
102
RTVSPost2010Prop54
  1
strokes_ogs.tif
102
RTVSPost2010PropOp54
 70
     1
102
RTVSPost2010Prop55
280
     0
102
RTVSPost2010PropOp55
 70
     1
102
RTVSPost2010Prop56
140
1.0
102
RTVSPost2010PropOp56
 70
     1
102
RTVSPost2010Prop57
140
1.0
102
RTVSPost2010PropOp57
 70
     1
  0
XRECORD
  5
1E4
102
{ACAD_REACTORS
330
1E3
102
}
330
1E3
100
AcDbXrecord
280
     1
102
RTVSPropertyOp0
 70
     1
102
RTVSPropertyOp1
 70
     1
102
RTVSPropertyOp2
 70
     1
102
RTVSPropertyOp3
 70
     1
102
RTVSPropertyOp4
 70
     1
102
RTVSPropertyOp5
 70
     1
102
RTVSPropertyOp6
 70
     1
102
RTVSPropertyOp7
 70
     1
102
RTVSPropertyOp8
 70
     1
102
RTVSPropertyOp9
 70
     1
102
RTVSPropertyOp10
 70
     1
102
RTVSPropertyOp11
 70
     1
102
RTVSPropertyOp12
 70
     1
102
RTVSPropertyOp13
 70
     1
102
RTVSPropertyOp14
 70
     1
102
RTVSPropertyOp15
 70
     1
102
RTVSPropertyOp16
 70
     1
102
RTVSPropertyOp17
 70
     1
102
RTVSPropertyOp18
 70
     1
102
RTVSPropertyOp19
 70
     1
102
RTVSPropertyOp20
 70
     1
102
RTVSPropertyOp21
 70
     1
102
RTVSPropertyOp22
 70
     1
102
RTVSPropertyOp23
 70
     1
102
RTVSPropertyOp24
 70
     1
102
RTVSPropertyOp25
 70
     1
102
RTVSPropertyOp26
 70
     1
102
RTVSPropertyOp27
 70
     1
102
RTVSPropertyOp28
 70
     1
102
RTVSPropertyOp29
 70
     1
102
RTVSPropertyOp30
 70
     1
102
RTVSPropertyOp31
 70
     1
102
RTVSPropertyOp32
 70
     1
102
RTVSPropertyOp33
 70
     1
102
RTVSPropertyOp34
 70
     1
102
RTVSPropertyOp35
 70
     1
102
RTVSPropertyOp36
 70
     1
102
RTVSPropertyOp37
 70
     1
102
RTVSPropertyOp38
 70
     1
102
RTVSPropertyOp39
 70
     1
102
RTVSPropertyOp40
 70
     1
102
RTVSPropertyOp41
 70
     1
102
RTVSPropertyOp42
 70
     1
102
RTVSPropertyOp43
 70
     1
102
RTVSPropertyOp44
 70
     1
102
RTVSPropertyOp45
 70
     1
102
RTVSPropertyOp46
 70
     1
102
RTVSPropertyOp47
 70
     1
102
RTVSPropertyOp48
 70
     1
102
RTVSPropertyOp49
 70
     1
102
RTVSPropertyOp50
 70
     1
102
RTVSPropertyOp51
 70
     0
102
RTVSPropertyOp52
 70
     0
102
RTVSPropertyOp53
 70
     1
102
RTVSPropertyOp54
 70
     1
102
RTVSPropertyOp55
 70
     1
102
RTVSPropertyOp56
 70
     1
102
RTVSPropertyOp57
 70
     1
102
RTVSPost2010Prop28
280
     0
102
RTVSPost2010PropOp28
 70
     1
102
RTVSPost2010Prop29
280
     1
102
RTVSPost2010PropOp29
 70
     1
102
RTVSPost2010Prop30
280
     1
102
RTVSPost2010PropOp30
 70
     1
102
RTVSPost2010Prop31
280
     0
102
RTVSPost2010PropOp31
 70
     1
102
RTVSPost2010Prop32
280
     0
102
RTVSPost2010PropOp32
 70
     1
102
RTVSPost2010Prop33
280
     0
102
RTVSPost2010PropOp33
 70
     1
102
RTVSPost2010Prop34
280
     0
102
RTVSPost2010PropOp34
 70
     1
102
RTVSPost2010Prop35
280
     0
102
RTVSPost2010PropOp35
 70
     1
102
RTVSPost2010Prop36
280
     0
102
RTVSPost2010PropOp36
 70
     1
102
RTVSPost2010Prop37
 90
       50
102
RTVSPost2010PropOp37
 70
     1
102
RTVSPost2010Prop38
140
0.0
102
RTVSPost2010PropOp38
 70
     1
102
RTVSPost2010Prop39
140
1.0
102
RTVSPost2010PropOp39
 70
     1
102
RTVSPost2010Prop40
 90
        0
102
RTVSPost2010PropOp40
 70
     1
102
RTVSPost2010Prop41ColorIndex
 90
       18
102
RTVSPost2010Prop41ColorRGB
 90
        0
102
RTVSPost2010PropOp41
 70
     1
102
RTVSPost2010Prop42
 90
       50
102
RTVSPost2010PropOp42
 70
     1
102
RTVSPost2010Prop43
 90
        3
102
RTVSPost2010PropOp43
 70
     1
102
RTVSPost2010Prop44ColorIndex
 90
        5
102
RTVSPost2010Prop44ColorRGB
 90
      255
102
RTVSPost2010PropOp44
 70
     1
102
RTVSPost2010Prop45
280
     0
102
RTVSPost2010PropOp45
 70
     1
102
RTVSPost2010Prop46
 90
       50
102
RTVSPost2010PropOp46
 70
     1
102
RTVSPost2010Prop47
 90
       50
102
RTVSPost2010PropOp47
 70
     1
102
RTVSPost2010Prop48
 90
       50
102
RTVSPost2010PropOp48
 70
     1
102
RTVSPost2010Prop49
280
     0
102
RTVSPost2010PropOp49
 70
     1
102
RTVSPost2010Prop50
 90
       50
102
RTVSPost2010PropOp50
 70
     1
102
RTVSPost2010Prop51ColorIndex
 90
      256
102
RTVSPost2010Prop51ColorRGB
 90
-16777216
102
RTVSPost2010PropOp51
 70
     0
102
RTVSPost2010Prop52
140
1.0
102
RTVSPost2010PropOp52
 70
     0
102
RTVSPost2010Prop53
 90
        2
102
RTVSPost2010PropOp53
 70
     1
102
RTVSPost2010Prop54
  1
strokes_ogs.tif
102
RTVSPost2010PropOp54
 70
     1
102
RTVSPost2010Prop55
280
     0
102
RTVSPost2010PropOp55
 70
     1
102
RTVSPost2010Prop56
140
1.0
102
RTVSPost2010PropOp56
 70
     1
102
RTVSPost2010Prop57
140
1.0
102
RTVSPost2010PropOp57
 70
     1
  0
XRECORD
  5
204
102
{ACAD_REACTORS
330
203
102
}
330
203
100
AcDbXrecord
280
     1
102
RTVSPropertyOp0
 70
     1
102
RTVSPropertyOp1
 70
     1
102
RTVSPropertyOp2
 70
     1
102
RTVSPropertyOp3
 70
     1
102
RTVSPropertyOp4
 70
     1
102
RTVSPropertyOp5
 70
     1
102
RTVSPropertyOp6
 70
     1
102
RTVSPropertyOp7
 70
     1
102
RTVSPropertyOp8
 70
     1
102
RTVSPropertyOp9
 70
     1
102
RTVSPropertyOp10
 70
     1
102
RTVSPropertyOp11
 70
     1
102
RTVSPropertyOp12
 70
     1
102
RTVSPropertyOp13
 70
     1
102
RTVSPropertyOp14
 70
     1
102
RTVSPropertyOp15
 70
     1
102
RTVSPropertyOp16
 70
     1
102
RTVSPropertyOp17
 70
     1
102
RTVSPropertyOp18
 70
     1
102
RTVSPropertyOp19
 70
     1
102
RTVSPropertyOp20
 70
     1
102
RTVSPropertyOp21
 70
     1
102
RTVSPropertyOp22
 70
     1
102
RTVSPropertyOp23
 70
     1
102
RTVSPropertyOp24
 70
     1
102
RTVSPropertyOp25
 70
     1
102
RTVSPropertyOp26
 70
     1
102
RTVSPropertyOp27
 70
     1
102
RTVSPropertyOp28
 70
     1
102
RTVSPropertyOp29
 70
     1
102
RTVSPropertyOp30
 70
     1
102
RTVSPropertyOp31
 70
     1
102
RTVSPropertyOp32
 70
     1
102
RTVSPropertyOp33
 70
     1
102
RTVSPropertyOp34
 70
     1
102
RTVSPropertyOp35
 70
     1
102
RTVSPropertyOp36
 70
     1
102
RTVSPropertyOp37
 70
     1
102
RTVSPropertyOp38
 70
     1
102
RTVSPropertyOp39
 70
     1
102
RTVSPropertyOp40
 70
     1
102
RTVSPropertyOp41
 70
     1
102
RTVSPropertyOp42
 70
     1
102
RTVSPropertyOp43
 70
     1
102
RTVSPropertyOp44
 70
     1
102
RTVSPropertyOp45
 70
     1
102
RTVSPropertyOp46
 70
     1
102
RTVSPropertyOp47
 70
     1
102
RTVSPropertyOp48
 70
     1
102
RTVSPropertyOp49
 70
     1
102
RTVSPropertyOp50
 70
     1
102
RTVSPropertyOp51
 70
     0
102
RTVSPropertyOp52
 70
     0
102
RTVSPropertyOp53
 70
     1
102
RTVSPropertyOp54
 70
     1
102
RTVSPropertyOp55
 70
     1
102
RTVSPropertyOp56
 70
     1
102
RTVSPropertyOp57
 70
     1
102
RTVSPost2010Prop28
280
     0
102
RTVSPost2010PropOp28
 70
     1
102
RTVSPost2010Prop29
280
     1
102
RTVSPost2010PropOp29
 70
     1
102
RTVSPost2010Prop30
280
     1
102
RTVSPost2010PropOp30
 70
     1
102
RTVSPost2010Prop31
280
     0
102
RTVSPost2010PropOp31
 70
     1
102
RTVSPost2010Prop32
280
     0
102
RTVSPost2010PropOp32
 70
     1
102
RTVSPost2010Prop33
280
     0
102
RTVSPost2010PropOp33
 70
     1
102
RTVSPost2010Prop34
280
     0
102
RTVSPost2010PropOp34
 70
     1
102
RTVSPost2010Prop35
280
     0
102
RTVSPost2010PropOp35
 70
     1
102
RTVSPost2010Prop36
280
     0
102
RTVSPost2010PropOp36
 70
     1
102
RTVSPost2010Prop37
 90
       50
102
RTVSPost2010PropOp37
 70
     1
102
RTVSPost2010Prop38
140
0.0
102
RTVSPost2010PropOp38
 70
     1
102
RTVSPost2010Prop39
140
1.0
102
RTVSPost2010PropOp39
 70
     1
102
RTVSPost2010Prop40
 90
        0
102
RTVSPost2010PropOp40
 70
     1
102
RTVSPost2010Prop41ColorIndex
 90
       18
102
RTVSPost2010Prop41ColorRGB
 90
        0
102
RTVSPost2010PropOp41
 70
     1
102
RTVSPost2010Prop42
 90
       50
102
RTVSPost2010PropOp42
 70
     1
102
RTVSPost2010Prop43
 90
        3
102
RTVSPost2010PropOp43
 70
     1
102
RTVSPost2010Prop44ColorIndex
 90
        5
102
RTVSPost2010Prop44ColorRGB
 90
      255
102
RTVSPost2010PropOp44
 70
     1
102
RTVSPost2010Prop45
280
     0
102
RTVSPost2010PropOp45
 70
     1
102
RTVSPost2010Prop46
 90
       50
102
RTVSPost2010PropOp46
 70
     1
102
RTVSPost2010Prop47
 90
       50
102
RTVSPost2010PropOp47
 70
     1
102
RTVSPost2010Prop48
 90
       50
102
RTVSPost2010PropOp48
 70
     1
102
RTVSPost2010Prop49
280
     0
102
RTVSPost2010PropOp49
 70
     1
102
RTVSPost2010Prop50
 90
       50
102
RTVSPost2010PropOp50
 70
     1
102
RTVSPost2010Prop51ColorIndex
 90
      256
102
RTVSPost2010Prop51ColorRGB
 90
-16777216
102
RTVSPost2010PropOp51
 70
     0
102
RTVSPost2010Prop52
140
1.0
102
RTVSPost2010PropOp52
 70
     0
102
RTVSPost2010Prop53
 90
        2
102
RTVSPost2010PropOp53
 70
     1
102
RTVSPost2010Prop54
  1
strokes_ogs.tif
102
RTVSPost2010PropOp54
 70
     1
102
RTVSPost2010Prop55
280
     0
102
RTVSPost2010PropOp55
 70
     1
102
RTVSPost2010Prop56
140
1.0
102
RTVSPost2010PropOp56
 70
     1
102
RTVSPost2010Prop57
140
1.0
102
RTVSPost2010PropOp57
 70
     1
  0
ENDSEC
  0
EOF
