  0
SECTION
  2
HEADER
  9
$ACADVER
  1
AC1015
  9
$ACADMAINTVER
 70
     6
  9
$DWGCODEPAGE
  3
ANSI_1252
  9
$INSBASE
 10
0.0
 20
0.0
 30
0.0
  9
$EXTMIN
 10
0.0
 20
0.0
 30
0.0
  9
$EXTMAX
 10
1682.0
 20
2378.0
 30
0.0
  9
$LIMMIN
 10
0.0
 20
0.0
  9
$LIMMAX
 10
1682.0
 20
2378.0
  9
$ORTHOMODE
 70
     0
  9
$REGENMODE
 70
     1
  9
$FILLMODE
 70
     1
  9
$QTEXTMODE
 70
     0
  9
$MIRRTEXT
 70
     1
  9
$LTSCALE
 40
1.0
  9
$ATTMODE
 70
     1
  9
$TEXTSIZE
 40
2.5
  9
$TRACEWID
 40
1.0
  9
$TEXTSTYLE
  7
Standard
  9
$CLAYER
  8
0
  9
$CELTYPE
  6
ByLayer
  9
$CECOLOR
 62
   256
  9
$CELTSCALE
 40
1.0
  9
$DISPSILH
 70
     0
  9
$DIMSCALE
 40
1.0
  9
$DIMASZ
 40
2.5
  9
$DIMEXO
 40
0.625
  9
$DIMDLI
 40
3.75
  9
$DIMRND
 40
0.0
  9
$DIMDLE
 40
0.0
  9
$DIMEXE
 40
1.25
  9
$DIMTP
 40
0.0
  9
$DIMTM
 40
0.0
  9
$DIMTXT
 40
2.5
  9
$DIMCEN
 40
2.5
  9
$DIMTSZ
 40
0.0
  9
$DIMTOL
 70
     0
  9
$DIMLIM
 70
     0
  9
$DIMTIH
 70
     0
  9
$DIMTOH
 70
     0
  9
$DIMSE1
 70
     0
  9
$DIMSE2
 70
     0
  9
$DIMTAD
 70
     1
  9
$DIMZIN
 70
     8
  9
$DIMBLK
  1

  9
$DIMASO
 70
     1
  9
$DIMSHO
 70
     1
  9
$DIMPOST
  1

  9
$DIMAPOST
  1

  9
$DIMALT
 70
     0
  9
$DIMALTD
 70
     3
  9
$DIMALTF
 40
0.0393700787
  9
$DIMLFAC
 40
1.0
  9
$DIMTOFL
 70
     1
  9
$DIMTVP
 40
0.0
  9
$DIMTIX
 70
     0
  9
$DIMSOXD
 70
     0
  9
$DIMSAH
 70
     0
  9
$DIMBLK1
  1

  9
$DIMBLK2
  1

  9
$DIMSTYLE
  2
ISO-25
  9
$DIMCLRD
 70
     0
  9
$DIMCLRE
 70
     0
  9
$DIMCLRT
 70
     0
  9
$DIMTFAC
 40
1.0
  9
$DIMGAP
 40
0.625
  9
$DIMJUST
 70
     0
  9
$DIMSD1
 70
     0
  9
$DIMSD2
 70
     0
  9
$DIMTOLJ
 70
     0
  9
$DIMTZIN
 70
     8
  9
$DIMALTZ
 70
     0
  9
$DIMALTTZ
 70
     0
  9
$DIMUPT
 70
     0
  9
$DIMDEC
 70
     2
  9
$DIMTDEC
 70
     2
  9
$DIMALTU
 70
     2
  9
$DIMALTTD
 70
     3
  9
$DIMTXSTY
  7
Standard
  9
$DIMAUNIT
 70
     0
  9
$DIMADEC
 70
     0
  9
$DIMALTRND
 40
0.0
  9
$DIMAZIN
 70
     0
  9
$DIMDSEP
 70
    44
  9
$DIMATFIT
 70
     3
  9
$DIMFRAC
 70
     0
  9
$DIMLDRBLK
  1

  9
$DIMLUNIT
 70
     2
  9
$DIMLWD
 70
    -2
  9
$DIMLWE
 70
    -2
  9
$DIMTMOVE
 70
     0
  9
$LUNITS
 70
     2
  9
$LUPREC
 70
     4
  9
$SKETCHINC
 40
1.0
  9
$FILLETRAD
 40
10.0
  9
$AUNITS
 70
     0
  9
$AUPREC
 70
     0
  9
$MENU
  1
.
  9
$ELEVATION
 40
0.0
  9
$PELEVATION
 40
0.0
  9
$THICKNESS
 40
0.0
  9
$LIMCHECK
 70
     0
  9
$CHAMFERA
 40
10.0
  9
$CHAMFERB
 40
10.0
  9
$CHAMFERC
 40
20.0
  9
$CHAMFERD
 40
0.0
  9
$SKPOLY
 70
     0
  9
$TDCREATE
 40
2455684.484090706
  9
$TDUCREATE
 40
2455684.400757373
  9
$TDUPDATE
 40
2455684.484090718
  9
$TDUUPDATE
 40
2455684.400757384
  9
$TDINDWG
 40
0.0000000116
  9
$TDUSRTIMER
 40
0.0000000116
  9
$USRTIMER
 70
     1
  9
$ANGBASE
 50
0.0
  9
$ANGDIR
 70
     0
  9
$PDMODE
 70
     0
  9
$PDSIZE
 40
0.0
  9
$PLINEWID
 40
0.0
  9
$SPLFRAME
 70
     0
  9
$SPLINETYPE
 70
     6
  9
$SPLINESEGS
 70
     8
  9
$HANDSEED
  5
21A
  9
$SURFTAB1
 70
     6
  9
$SURFTAB2
 70
     6
  9
$SURFTYPE
 70
     6
  9
$SURFU
 70
     6
  9
$SURFV
 70
     6
  9
$UCSBASE
  2

  9
$UCSNAME
  2

  9
$UCSORG
 10
0.0
 20
0.0
 30
0.0
  9
$UCSXDIR
 10
1.0
 20
0.0
 30
0.0
  9
$UCSYDIR
 10
0.0
 20
1.0
 30
0.0
  9
$UCSORTHOREF
  2

  9
$UCSORTHOVIEW
 70
     0
  9
$UCSORGTOP
 10
0.0
 20
0.0
 30
0.0
  9
$UCSORGBOTTOM
 10
0.0
 20
0.0
 30
0.0
  9
$UCSORGLEFT
 10
0.0
 20
0.0
 30
0.0
  9
$UCSORGRIGHT
 10
0.0
 20
0.0
 30
0.0
  9
$UCSORGFRONT
 10
0.0
 20
0.0
 30
0.0
  9
$UCSORGBACK
 10
0.0
 20
0.0
 30
0.0
  9
$PUCSBASE
  2

  9
$PUCSNAME
  2

  9
$PUCSORG
 10
0.0
 20
0.0
 30
0.0
  9
$PUCSXDIR
 10
1.0
 20
0.0
 30
0.0
  9
$PUCSYDIR
 10
0.0
 20
1.0
 30
0.0
  9
$PUCSORTHOREF
  2

  9
$PUCSORTHOVIEW
 70
     0
  9
$PUCSORGTOP
 10
0.0
 20
0.0
 30
0.0
  9
$PUCSORGBOTTOM
 10
0.0
 20
0.0
 30
0.0
  9
$PUCSORGLEFT
 10
0.0
 20
0.0
 30
0.0
  9
$PUCSORGRIGHT
 10
0.0
 20
0.0
 30
0.0
  9
$PUCSORGFRONT
 10
0.0
 20
0.0
 30
0.0
  9
$PUCSORGBACK
 10
0.0
 20
0.0
 30
0.0
  9
$USERI1
 70
     0
  9
$USERI2
 70
     0
  9
$USERI3
 70
     0
  9
$USERI4
 70
     0
  9
$USERI5
 70
     0
  9
$USERR1
 40
0.0
  9
$USERR2
 40
0.0
  9
$USERR3
 40
0.0
  9
$USERR4
 40
0.0
  9
$USERR5
 40
0.0
  9
$WORLDVIEW
 70
     1
  9
$SHADEDGE
 70
     3
  9
$SHADEDIF
 70
    70
  9
$TILEMODE
 70
     1
  9
$MAXACTVP
 70
    64
  9
$PINSBASE
 10
0.0
 20
0.0
 30
0.0
  9
$PLIMCHECK
 70
     0
  9
$PEXTMIN
 10
0.0
 20
0.0
 30
0.0
  9
$PEXTMAX
 10
1682.0
 20
2378.0
 30
0.0
  9
$PLIMMIN
 10
0.0
 20
0.0
  9
$PLIMMAX
 10
1682.0
 20
2378.0
  9
$UNITMODE
 70
     0
  9
$VISRETAIN
 70
     1
  9
$PLINEGEN
 70
     0
  9
$PSLTSCALE
 70
     1
  9
$TREEDEPTH
 70
  3020
  9
$CMLSTYLE
  2
Standard
  9
$CMLJUST
 70
     0
  9
$CMLSCALE
 40
20.0
  9
$PROXYGRAPHICS
 70
     1
  9
$MEASUREMENT
 70
     1
  9
$CELWEIGHT
370
    -1
  9
$ENDCAPS
280
     0
  9
$JOINSTYLE
280
     0
  9
$LWDISPLAY
290
     0
  9
$INSUNITS
 70
     4
  9
$HYPERLINKBASE
  1

  9
$STYLESHEET
  1

  9
$XEDIT
290
     1
  9
$CEPSNTYPE
380
     0
  9
$PSTYLEMODE
290
     1
  9
$FINGERPRINTGUID
  2
{42D8BBA4-4662-480B-9108-8BB15BF80CBE}
  9
$VERSIONGUID
  2
{FAEB1C32-E019-11D5-929B-00C0DF256EC4}
  9
$EXTNAMES
290
     1
  9
$PSVPSCALE
 40
0.0
  9
$OLESTARTUP
290
     0
  0
ENDSEC
  0
SECTION
  2
CLASSES
  0
CLASS
  1
ACDBDICTIONARYWDFLT
  2
AcDbDictionaryWithDefault
  3
ObjectDBX Classes
 90
        0
280
     0
281
     0
  0
CLASS
  1
VISUALSTYLE
  2
AcDbVisualStyle
  3
ObjectDBX Classes
 90
     4095
280
     0
281
     0
  0
CLASS
  1
SCALE
  2
AcDbScale
  3
ObjectDBX Classes
 90
     1153
280
     0
281
     0
  0
CLASS
  1
DICTIONARYVAR
  2
AcDbDictionaryVar
  3
ObjectDBX Classes
 90
        0
280
     0
281
     0
  0
CLASS
  1
ACDBPLACEHOLDER
  2
AcDbPlaceHolder
  3
ObjectDBX Classes
 90
        0
280
     0
281
     0
  0
CLASS
  1
LAYOUT
  2
AcDbLayout
  3
ObjectDBX Classes
 90
        0
280
     0
281
     0
  0
ENDSEC
  0
SECTION
  2
TABLES
  0
TABLE
  2
VPORT
  5
8
330
0
100
AcDbSymbolTable
 70
     1
  0
VPORT
  5
29
330
8
100
AcDbSymbolTableRecord
100
AcDbViewportTableRecord
  2
*Active
 70
     0
 10
0.0
 20
0.0
 11
1.0
 21
1.0
 12
344.1869158879
 22
148.5
 13
0.0
 23
0.0
 14
10.0
 24
10.0
 15
10.0
 25
10.0
 16
0.0
 26
0.0
 36
1.0
 17
0.0
 27
0.0
 37
0.0
 40
297.0
 41
1.9729729729
 42
50.0
 43
0.0
 44
0.0
 50
0.0
 51
0.0
 71
     0
 72
   100
 73
     1
 74
     3
 75
     0
 76
     0
 77
     0
 78
     0
281
     0
 65
     1
110
0.0
120
0.0
130
0.0
111
1.0
121
0.0
131
0.0
112
0.0
122
1.0
132
0.0
 79
     0
146
0.0
  0
ENDTAB
  0
TABLE
  2
LTYPE
  5
5
330
0
100
AcDbSymbolTable
 70
     2
  0
LTYPE
  5
14
330
5
100
AcDbSymbolTableRecord
100
AcDbLinetypeTableRecord
  2
ByBlock
 70
     0
  3

 72
    65
 73
     0
 40
0.0
  0
LTYPE
  5
15
330
5
100
AcDbSymbolTableRecord
100
AcDbLinetypeTableRecord
  2
ByLayer
 70
     0
  3

 72
    65
 73
     0
 40
0.0
  0
LTYPE
  5
16
330
5
100
AcDbSymbolTableRecord
100
AcDbLinetypeTableRecord
  2
Continuous
 70
     0
  3
Solid line
 72
    65
 73
     0
 40
0.0
  0
LTYPE
  5
60
330
5
100
AcDbSymbolTableRecord
100
AcDbLinetypeTableRecord
  2
CENTER2
 70
     0
  3
Center (.5x) ___ _ ___ _ ___ _ ___ _ ___ _ ___
 72
    65
 73
     4
 40
28.575
 49
19.05
 74
     4
 75
     0
340
0
 46
0.0
 50
0.0
 44
0.0
 45
0.0
 49
-3.175
 74
     4
 75
     0
340
0
 46
0.0
 50
0.0
 44
0.0
 45
0.0
 49
3.175
 74
     4
 75
     0
340
0
 46
0.0
 50
0.0
 44
0.0
 45
0.0
 49
-3.175
 74
     4
 75
     0
340
0
 46
0.0
 50
0.0
 44
0.0
 45
0.0
  0
ENDTAB
  0
TABLE
  2
LAYER
  5
2
330
0
100
AcDbSymbolTable
 70
     5
  0
LAYER
  5
10
330
2
100
AcDbSymbolTableRecord
100
AcDbLayerTableRecord
  2
0
 70
     0
 62
     7
  6
Continuous
370
    -3
390
F
  0
LAYER
  5
5D
330
2
100
AcDbSymbolTableRecord
100
AcDbLayerTableRecord
  2
Default
 70
     0
 62
     7
  6
Continuous
370
    -3
390
F
  0
LAYER
  5
91
330
2
100
AcDbSymbolTableRecord
100
AcDbLayerTableRecord
  2
DV1_Standard
 70
     0
 62
     7
  6
Continuous
370
    -3
390
F
  0
LAYER
  5
F5
330
2
100
AcDbSymbolTableRecord
100
AcDbLayerTableRecord
  2
DV2_Standard
 70
     0
 62
     7
  6
Continuous
370
    -3
390
F
  0
LAYER
  5
18F
330
2
100
AcDbSymbolTableRecord
100
AcDbLayerTableRecord
  2
DV3_Standard
 70
     0
 62
     7
  6
Continuous
370
    -3
390
F
  0
ENDTAB
  0
TABLE
  2
STYLE
  5
3
330
0
100
AcDbSymbolTable
 70
     2
  0
STYLE
  5
11
330
3
100
AcDbSymbolTableRecord
100
AcDbTextStyleTableRecord
  2
Standard
 70
     0
 40
0.0
 41
1.0
 50
0.0
 71
     0
 42
2.5
  3
txt
  4

  0
STYLE
  5
209
330
3
100
AcDbSymbolTableRecord
100
AcDbTextStyleTableRecord
  2
SEACAD_seiso_ttf
 70
     0
 40
0.0
 41
1.0
 50
0.0
 71
     0
 42
0.2
  3
seiso.ttf
  4

  0
ENDTAB
  0
TABLE
  2
VIEW
  5
6
330
0
100
AcDbSymbolTable
 70
     0
  0
ENDTAB
  0
TABLE
  2
UCS
  5
7
330
0
100
AcDbSymbolTable
 70
     0
  0
ENDTAB
  0
TABLE
  2
APPID
  5
9
330
0
100
AcDbSymbolTable
 70
     1
  0
APPID
  5
12
330
9
100
AcDbSymbolTableRecord
100
AcDbRegAppTableRecord
  2
ACAD
 70
     0
  0
ENDTAB
  0
TABLE
  2
DIMSTYLE
  5
A
330
0
100
AcDbSymbolTable
 70
     1
100
AcDbDimStyleTable
  0
DIMSTYLE
105
27
330
A
100
AcDbSymbolTableRecord
100
AcDbDimStyleTableRecord
  2
ISO-25
 70
     0
 41
2.5
 42
0.625
 43
3.75
 44
1.25
 73
     0
 74
     0
 77
     1
 78
     8
140
2.5
141
2.5
143
0.0393700787
147
0.625
171
     3
172
     1
271
     2
272
     2
274
     3
278
    44
283
     0
284
     8
340
11
  0
ENDTAB
  0
TABLE
  2
BLOCK_RECORD
  5
1
330
0
100
AcDbSymbolTable
 70
    12
  0
BLOCK_RECORD
  5
1F
330
1
100
AcDbSymbolTableRecord
100
AcDbBlockTableRecord
  2
*Model_Space
340
22
  0
BLOCK_RECORD
  5
1B
330
1
100
AcDbSymbolTableRecord
100
AcDbBlockTableRecord
  2
*Paper_Space
340
1E
  0
BLOCK_RECORD
  5
5E
330
1
100
AcDbSymbolTableRecord
100
AcDbBlockTableRecord
  2
SEANNOT_GROUP
340
0
102
{BLKREFS
331
5F
102
}
  0
BLOCK_RECORD
  5
65
330
1
100
AcDbSymbolTableRecord
100
AcDbBlockTableRecord
  2
SEANNOT_GROUP1
340
0
102
{BLKREFS
331
66
102
}
  0
BLOCK_RECORD
  5
6B
330
1
100
AcDbSymbolTableRecord
100
AcDbBlockTableRecord
  2
SEANNOT_GROUP2
340
0
102
{BLKREFS
331
6C
102
}
  0
BLOCK_RECORD
  5
71
330
1
100
AcDbSymbolTableRecord
100
AcDbBlockTableRecord
  2
SEANNOT_GROUP3
340
0
102
{BLKREFS
331
72
102
}
  0
BLOCK_RECORD
  5
77
330
1
100
AcDbSymbolTableRecord
100
AcDbBlockTableRecord
  2
SEANNOT_GROUP4
340
0
102
{BLKREFS
331
78
102
}
  0
BLOCK_RECORD
  5
7D
330
1
100
AcDbSymbolTableRecord
100
AcDbBlockTableRecord
  2
SEANNOT_GROUP5
340
0
102
{BLKREFS
331
7E
102
}
  0
BLOCK_RECORD
  5
83
330
1
100
AcDbSymbolTableRecord
100
AcDbBlockTableRecord
  2
SEANNOT_GROUP6
340
0
102
{BLKREFS
331
84
102
}
  0
BLOCK_RECORD
  5
89
330
1
100
AcDbSymbolTableRecord
100
AcDbBlockTableRecord
  2
SEANNOT_GROUP7
340
0
102
{BLKREFS
331
8A
102
}
  0
BLOCK_RECORD
  5
8F
330
1
100
AcDbSymbolTableRecord
100
AcDbBlockTableRecord
  2
SE
340
0
102
{BLKREFS
331
90
102
}
  0
BLOCK_RECORD
  5
F3
330
1
100
AcDbSymbolTableRecord
100
AcDbBlockTableRecord
  2
SE1
340
0
102
{BLKREFS
331
F4
102
}
  0
BLOCK_RECORD
  5
18D
330
1
100
AcDbSymbolTableRecord
100
AcDbBlockTableRecord
  2
SE2
340
0
102
{BLKREFS
331
18E
102
}
  0
ENDTAB
  0
ENDSEC
  0
SECTION
  2
BLOCKS
  0
BLOCK
  5
20
330
1F
100
AcDbEntity
  8
0
100
AcDbBlockBegin
  2
*Model_Space
 70
     0
 10
0.0
 20
0.0
 30
0.0
  3
*Model_Space
  1

  0
ENDBLK
  5
21
330
1F
100
AcDbEntity
  8
0
100
AcDbBlockEnd
  0
BLOCK
  5
1C
330
1B
100
AcDbEntity
 67
     1
  8
0
100
AcDbBlockBegin
  2
*Paper_Space
 70
     0
 10
0.0
 20
0.0
 30
0.0
  3
*Paper_Space
  1

  0
ENDBLK
  5
1D
330
1B
100
AcDbEntity
 67
     1
  8
0
100
AcDbBlockEnd
  0
BLOCK
  5
63
330
5E
100
AcDbEntity
  8
0
100
AcDbBlockBegin
  2
SEANNOT_GROUP
 70
     0
 10
0.0
 20
0.0
 30
0.0
  3
SEANNOT_GROUP
  1

  0
LINE
  5
61
330
5E
100
AcDbEntity
  8
Default
  6
CENTER2
 62
     7
100
AcDbLine
 10
51.849999553
 20
338.0567554468
 30
0.0
 11
11.850000447
 21
338.0567554468
 31
0.0
  0
LINE
  5
62
330
5E
100
AcDbEntity
  8
Default
  6
CENTER2
 62
     7
100
AcDbLine
 10
31.85
 20
358.0567549997
 30
0.0
 11
31.85
 21
318.0567558938
 31
0.0
  0
ENDBLK
  5
64
330
5E
100
AcDbEntity
  8
0
100
AcDbBlockEnd
  0
BLOCK
  5
69
330
65
100
AcDbEntity
  8
0
100
AcDbBlockBegin
  2
SEANNOT_GROUP1
 70
     0
 10
0.0
 20
0.0
 30
0.0
  3
SEANNOT_GROUP1
  1

  0
LINE
  5
67
330
65
100
AcDbEntity
  8
Default
  6
CENTER2
 62
     7
100
AcDbLine
 10
51.849999553
 20
217.85
 30
0.0
 11
11.850000447
 21
217.85
 31
0.0
  0
LINE
  5
68
330
65
100
AcDbEntity
  8
Default
  6
CENTER2
 62
     7
100
AcDbLine
 10
31.85
 20
237.849999553
 30
0.0
 11
31.85
 21
197.850000447
 31
0.0
  0
ENDBLK
  5
6A
330
65
100
AcDbEntity
  8
0
100
AcDbBlockEnd
  0
BLOCK
  5
6F
330
6B
100
AcDbEntity
  8
0
100
AcDbBlockBegin
  2
SEANNOT_GROUP2
 70
     0
 10
0.0
 20
0.0
 30
0.0
  3
SEANNOT_GROUP2
  1

  0
LINE
  5
6D
330
6B
100
AcDbEntity
  8
Default
  6
CENTER2
 62
     7
100
AcDbLine
 10
156.0567549997
 20
379.5567554468
 30
0.0
 11
116.0567558938
 21
379.5567554468
 31
0.0
  0
LINE
  5
6E
330
6B
100
AcDbEntity
  8
Default
  6
CENTER2
 62
     7
100
AcDbLine
 10
136.0567554468
 20
399.5567549997
 30
0.0
 11
136.0567554468
 21
359.5567558938
 31
0.0
  0
ENDBLK
  5
70
330
6B
100
AcDbEntity
  8
0
100
AcDbBlockEnd
  0
BLOCK
  5
75
330
71
100
AcDbEntity
  8
0
100
AcDbBlockBegin
  2
SEANNOT_GROUP3
 70
     0
 10
0.0
 20
0.0
 30
0.0
  3
SEANNOT_GROUP3
  1

  0
LINE
  5
73
330
71
100
AcDbEntity
  8
Default
  6
CENTER2
 62
     7
100
AcDbLine
 10
156.0567549997
 20
296.5567554468
 30
0.0
 11
116.0567558938
 21
296.5567554468
 31
0.0
  0
LINE
  5
74
330
71
100
AcDbEntity
  8
Default
  6
CENTER2
 62
     7
100
AcDbLine
 10
136.0567554468
 20
316.5567549997
 30
0.0
 11
136.0567554468
 21
276.5567558938
 31
0.0
  0
ENDBLK
  5
76
330
71
100
AcDbEntity
  8
0
100
AcDbBlockEnd
  0
BLOCK
  5
7B
330
77
100
AcDbEntity
  8
0
100
AcDbBlockBegin
  2
SEANNOT_GROUP4
 70
     0
 10
0.0
 20
0.0
 30
0.0
  3
SEANNOT_GROUP4
  1

  0
LINE
  5
79
330
77
100
AcDbEntity
  8
Default
  6
CENTER2
 62
     7
100
AcDbLine
 10
51.849999553
 20
379.5567554468
 30
0.0
 11
11.850000447
 21
379.5567554468
 31
0.0
  0
LINE
  5
7A
330
77
100
AcDbEntity
  8
Default
  6
CENTER2
 62
     7
100
AcDbLine
 10
31.85
 20
399.5567549997
 30
0.0
 11
31.85
 21
359.5567558938
 31
0.0
  0
ENDBLK
  5
7C
330
77
100
AcDbEntity
  8
0
100
AcDbBlockEnd
  0
BLOCK
  5
81
330
7D
100
AcDbEntity
  8
0
100
AcDbBlockBegin
  2
SEANNOT_GROUP5
 70
     0
 10
0.0
 20
0.0
 30
0.0
  3
SEANNOT_GROUP5
  1

  0
LINE
  5
7F
330
7D
100
AcDbEntity
  8
Default
  6
CENTER2
 62
     7
100
AcDbLine
 10
51.849999553
 20
296.5567554468
 30
0.0
 11
11.850000447
 21
296.5567554468
 31
0.0
  0
LINE
  5
80
330
7D
100
AcDbEntity
  8
Default
  6
CENTER2
 62
     7
100
AcDbLine
 10
31.85
 20
316.5567549997
 30
0.0
 11
31.85
 21
276.5567558938
 31
0.0
  0
ENDBLK
  5
82
330
7D
100
AcDbEntity
  8
0
100
AcDbBlockEnd
  0
BLOCK
  5
87
330
83
100
AcDbEntity
  8
0
100
AcDbBlockBegin
  2
SEANNOT_GROUP6
 70
     0
 10
0.0
 20
0.0
 30
0.0
  3
SEANNOT_GROUP6
  1

  0
LINE
  5
85
330
83
100
AcDbEntity
  8
Default
  6
CENTER2
 62
     7
100
AcDbLine
 10
267.5567549997
 20
338.0567554468
 30
0.0
 11
227.5567558938
 21
338.0567554468
 31
0.0
  0
LINE
  5
86
330
83
100
AcDbEntity
  8
Default
  6
CENTER2
 62
     7
100
AcDbLine
 10
247.5567554468
 20
358.0567549997
 30
0.0
 11
247.5567554468
 21
318.0567558938
 31
0.0
  0
ENDBLK
  5
88
330
83
100
AcDbEntity
  8
0
100
AcDbBlockEnd
  0
BLOCK
  5
8D
330
89
100
AcDbEntity
  8
0
100
AcDbBlockBegin
  2
SEANNOT_GROUP7
 70
     0
 10
0.0
 20
0.0
 30
0.0
  3
SEANNOT_GROUP7
  1

  0
LINE
  5
8B
330
89
100
AcDbEntity
  8
Default
  6
CENTER2
 62
     7
100
AcDbLine
 10
51.849999553
 20
106.35
 30
0.0
 11
11.850000447
 21
106.35
 31
0.0
  0
LINE
  5
8C
330
89
100
AcDbEntity
  8
Default
  6
CENTER2
 62
     7
100
AcDbLine
 10
31.85
 20
126.349999553
 30
0.0
 11
31.85
 21
86.350000447
 31
0.0
  0
ENDBLK
  5
8E
330
89
100
AcDbEntity
  8
0
100
AcDbBlockEnd
  0
BLOCK
  5
F1
330
8F
100
AcDbEntity
  8
0
100
AcDbBlockBegin
  2
SE
 70
     0
 10
0.0
 20
0.0
 30
0.0
  3
SE
  1

  0
CIRCLE
  5
92
330
8F
100
AcDbEntity
  8
DV1_Standard
  6
Continuous
 62
     7
100
AcDbCircle
 10
31.85
 20
338.0567554468
 30
0.0
 40
6.000000000000005
  0
CIRCLE
  5
93
330
8F
100
AcDbEntity
  8
DV1_Standard
  6
Continuous
 62
     7
100
AcDbCircle
 10
31.85
 20
338.0567554468
 30
0.0
 40
23.42185495265893
  0
CIRCLE
  5
94
330
8F
100
AcDbEntity
  8
DV1_Standard
  6
Continuous
 62
     7
100
AcDbCircle
 10
31.85
 20
338.0567554468
 30
0.0
 40
25.29999999999996
  0
LINE
  5
95
330
8F
100
AcDbEntity
  8
DV1_Standard
  6
Continuous
 62
     7
100
AcDbLine
 10
7.048991956
 20
343.0567554468
 30
0.0
 11
6.8450004999
 21
343.0567554468
 31
0.0
  0
LINE
  5
96
330
8F
100
AcDbEntity
  8
DV1_Standard
  6
Continuous
 62
     7
100
AcDbLine
 10
7.048991956
 20
333.0567554468
 30
0.0
 11
6.8450004999
 21
333.0567554468
 31
0.0
  0
LINE
  5
97
330
8F
100
AcDbEntity
  8
DV1_Standard
  6
Continuous
 62
     7
100
AcDbLine
 10
6.6291752712
 20
336.0567554468
 30
0.0
 11
6.4285523622
 21
336.0567554468
 31
0.0
  0
LINE
  5
98
330
8F
100
AcDbEntity
  8
DV1_Standard
  6
Continuous
 62
     7
100
AcDbLine
 10
6.6291752712
 20
340.0567554468
 30
0.0
 11
6.4285523622
 21
340.0567554468
 31
0.0
  0
LINE
  5
99
330
8F
100
AcDbEntity
  8
DV1_Standard
  6
Continuous
 62
     7
100
AcDbLine
 10
7.2717575893
 20
332.0567554468
 30
0.0
 11
7.0659325372
 21
332.0567554468
 31
0.0
  0
LINE
  5
9A
330
8F
100
AcDbEntity
  8
DV1_Standard
  6
Continuous
 62
     7
100
AcDbLine
 10
13.1126042364
 20
321.0567554468
 30
0.0
 11
12.8434221913
 21
321.0567554468
 31
0.0
  0
LINE
  5
9B
330
8F
100
AcDbEntity
  8
DV1_Standard
  6
Continuous
 62
     7
100
AcDbLine
 10
9.5769220807
 20
326.0567554468
 30
0.0
 11
9.35
 21
326.0567554468
 31
0.0
  0
LINE
  5
9C
330
8F
100
AcDbEntity
  8
DV1_Standard
  6
Continuous
 62
     7
100
AcDbLine
 10
7.2717575893
 20
344.0567554468
 30
0.0
 11
7.0659325372
 21
344.0567554468
 31
0.0
  0
LINE
  5
9D
330
8F
100
AcDbEntity
  8
DV1_Standard
  6
Continuous
 62
     7
100
AcDbLine
 10
9.5769220807
 20
350.0567554468
 30
0.0
 11
9.35
 21
350.0567554468
 31
0.0
  0
LINE
  5
9E
330
8F
100
AcDbEntity
  8
DV1_Standard
  6
Continuous
 62
     7
100
AcDbLine
 10
13.1126042364
 20
355.0567554468
 30
0.0
 11
12.8434221913
 21
355.0567554468
 31
0.0
  0
LINE
  5
9F
330
8F
100
AcDbEntity
  8
DV1_Standard
  6
Continuous
 62
     7
100
AcDbLine
 10
56.651008044
 20
333.0567554468
 30
0.0
 11
56.8549995001
 21
333.0567554468
 31
0.0
  0
LINE
  5
A0
330
8F
100
AcDbEntity
  8
DV1_Standard
  6
Continuous
 62
     7
100
AcDbLine
 10
56.651008044
 20
343.0567554468
 30
0.0
 11
56.8549995001
 21
343.0567554468
 31
0.0
  0
LINE
  5
A1
330
8F
100
AcDbEntity
  8
DV1_Standard
  6
Continuous
 62
     7
100
AcDbLine
 10
57.0708247288
 20
340.0567554468
 30
0.0
 11
57.2714476378
 21
340.0567554468
 31
0.0
  0
LINE
  5
A2
330
8F
100
AcDbEntity
  8
DV1_Standard
  6
Continuous
 62
     7
100
AcDbLine
 10
57.0708247288
 20
336.0567554468
 30
0.0
 11
57.2714476378
 21
336.0567554468
 31
0.0
  0
LINE
  5
A3
330
8F
100
AcDbEntity
  8
DV1_Standard
  6
Continuous
 62
     7
100
AcDbLine
 10
56.4282424107
 20
344.0567554468
 30
0.0
 11
56.6340674628
 21
344.0567554468
 31
0.0
  0
LINE
  5
A4
330
8F
100
AcDbEntity
  8
DV1_Standard
  6
Continuous
 62
     7
100
AcDbLine
 10
50.5873957636
 20
355.0567554468
 30
0.0
 11
50.8565778087
 21
355.0567554468
 31
0.0
  0
LINE
  5
A5
330
8F
100
AcDbEntity
  8
DV1_Standard
  6
Continuous
 62
     7
100
AcDbLine
 10
54.1230779193
 20
350.0567554468
 30
0.0
 11
54.35
 21
350.0567554468
 31
0.0
  0
LINE
  5
A6
330
8F
100
AcDbEntity
  8
DV1_Standard
  6
Continuous
 62
     7
100
AcDbLine
 10
56.4282424107
 20
332.0567554468
 30
0.0
 11
56.6340674628
 21
332.0567554468
 31
0.0
  0
LINE
  5
A7
330
8F
100
AcDbEntity
  8
DV1_Standard
  6
Continuous
 62
     7
100
AcDbLine
 10
54.1230779193
 20
326.0567554468
 30
0.0
 11
54.35
 21
326.0567554468
 31
0.0
  0
LINE
  5
A8
330
8F
100
AcDbEntity
  8
DV1_Standard
  6
Continuous
 62
     7
100
AcDbLine
 10
50.5873957636
 20
321.0567554468
 30
0.0
 11
50.8565778087
 21
321.0567554468
 31
0.0
  0
ARC
  5
A9
330
8F
100
AcDbEntity
  8
DV1_Standard
  6
Continuous
 62
     7
100
AcDbCircle
 10
31.85
 20
338.0567554468
 30
0.0
 40
25.5
100
AcDbArc
 50
193.6089606308
 51
208.0724869359
  0
ARC
  5
AA
330
8F
100
AcDbEntity
  8
DV1_Standard
  6
Continuous
 62
     7
100
AcDbCircle
 10
31.85
 20
338.0567554468
 30
0.0
 40
25.50000000000006
100
AcDbArc
 50
208.0724869359
 51
221.8103148958
  0
ARC
  5
AB
330
8F
100
AcDbEntity
  8
DV1_Standard
  6
Continuous
 62
     7
100
AcDbCircle
 10
31.85
 20
338.0567554468
 30
0.0
 40
25.50000000000015
100
AcDbArc
 50
348.6922705659
 51
355.5015933311
  0
ARC
  5
AC
330
8F
100
AcDbEntity
  8
DV1_Standard
  6
Continuous
 62
     7
100
AcDbCircle
 10
31.85
 20
338.0567554468
 30
0.0
 40
25.50000000000017
100
AcDbArc
 50
4.4984066689
 51
11.3077294341
  0
ARC
  5
AD
330
8F
100
AcDbEntity
  8
DV1_Standard
  6
Continuous
 62
     7
100
AcDbCircle
 10
31.85
 20
338.0567554468
 30
0.0
 40
25.5
100
AcDbArc
 50
355.5015933311
 51
4.4984066689
  0
ARC
  5
AE
330
8F
100
AcDbEntity
  8
DV1_Standard
  6
Continuous
 62
     7
100
AcDbCircle
 10
31.85
 20
338.0567554468
 30
0.0
 40
25.5
100
AcDbArc
 50
331.9275130641
 51
346.3910393692
  0
ARC
  5
AF
330
8F
100
AcDbEntity
  8
DV1_Standard
  6
Continuous
 62
     7
100
AcDbCircle
 10
31.85
 20
338.0567554468
 30
0.0
 40
25.50000000000026
100
AcDbArc
 50
318.1896851042
 51
331.9275130641
  0
ARC
  5
B0
330
8F
100
AcDbEntity
  8
DV1_Standard
  6
Continuous
 62
     7
100
AcDbCircle
 10
31.85
 20
338.0567554468
 30
0.0
 40
25.5
100
AcDbArc
 50
13.6089606308
 51
28.0724869359
  0
ARC
  5
B1
330
8F
100
AcDbEntity
  8
DV1_Standard
  6
Continuous
 62
     7
100
AcDbCircle
 10
31.85
 20
338.0567554468
 30
0.0
 40
25.49999999999998
100
AcDbArc
 50
28.0724869359
 51
41.8103148958
  0
ARC
  5
B2
330
8F
100
AcDbEntity
  8
DV1_Standard
  6
Continuous
 62
     7
100
AcDbCircle
 10
31.85
 20
338.0567554468
 30
0.0
 40
25.5
100
AcDbArc
 50
151.9275130641
 51
166.3910393692
  0
ARC
  5
B3
330
8F
100
AcDbEntity
  8
DV1_Standard
  6
Continuous
 62
     7
100
AcDbCircle
 10
31.85
 20
338.0567554468
 30
0.0
 40
25.49999999999991
100
AcDbArc
 50
138.1896851042
 51
151.9275130641
  0
ARC
  5
B4
330
8F
100
AcDbEntity
  8
DV1_Standard
  6
Continuous
 62
     7
100
AcDbCircle
 10
31.85
 20
338.0567554468
 30
0.0
 40
25.50000000000014
100
AcDbArc
 50
168.6922705659
 51
175.5015933311
  0
ARC
  5
B5
330
8F
100
AcDbEntity
  8
DV1_Standard
  6
Continuous
 62
     7
100
AcDbCircle
 10
31.85
 20
338.0567554468
 30
0.0
 40
25.49999999999983
100
AcDbArc
 50
184.4984066689
 51
191.3077294341
  0
ARC
  5
B6
330
8F
100
AcDbEntity
  8
DV1_Standard
  6
Continuous
 62
     7
100
AcDbCircle
 10
31.85
 20
338.0567554468
 30
0.0
 40
25.5
100
AcDbArc
 50
175.5015933311
 51
184.4984066689
  0
LINE
  5
B7
330
8F
100
AcDbEntity
  8
DV1_Standard
  6
Continuous
 62
     7
100
AcDbLine
 10
45.35
 20
367.5567554468
 30
0.0
 11
44.6491734973
 21
367.5567554468
 31
0.0
  0
LINE
  5
B8
330
8F
100
AcDbEntity
  8
DV1_Standard
  6
Continuous
 62
     7
100
AcDbLine
 10
31.85
 20
367.5567554468
 30
0.0
 11
31.1491734973
 21
367.5567554468
 31
0.0
  0
LINE
  5
B9
330
8F
100
AcDbEntity
  8
DV1_Standard
  6
Continuous
 62
     7
100
AcDbLine
 10
45.35
 20
367.5567554468
 30
0.0
 11
45.35
 21
378.6446020022
 31
0.0
  0
LINE
  5
BA
330
8F
100
AcDbEntity
  8
DV1_Standard
  6
Continuous
 62
     7
100
AcDbLine
 10
31.85
 20
367.5567554468
 30
0.0
 11
31.85
 21
378.6446020022
 31
0.0
  0
LINE
  5
BB
330
8F
100
AcDbEntity
  8
DV1_Standard
  6
Continuous
 62
     7
100
AcDbLine
 10
18.35
 20
367.5567554468
 30
0.0
 11
18.35
 21
378.6446020022
 31
0.0
  0
LINE
  5
BC
330
8F
100
AcDbEntity
  8
DV1_Standard
  6
Continuous
 62
     7
100
AcDbLine
 10
28.3391880596
 20
379.5567554468
 30
0.0
 11
21.8608119404
 21
379.5567554468
 31
0.0
  0
LINE
  5
BD
330
8F
100
AcDbEntity
  8
DV1_Standard
  6
Continuous
 62
     7
100
AcDbLine
 10
41.8391880596
 20
379.5567554468
 30
0.0
 11
35.3608119404
 21
379.5567554468
 31
0.0
  0
LINE
  5
BE
330
8F
100
AcDbEntity
  8
DV1_Standard
  6
Continuous
 62
     7
100
AcDbLine
 10
41.8391880596
 20
379.5567554468
 30
0.0
 11
45.35
 21
379.5567554468
 31
0.0
  0
LINE
  5
BF
330
8F
100
AcDbEntity
  8
DV1_Standard
  6
Continuous
 62
     7
100
AcDbLine
 10
28.3391880596
 20
379.5567554468
 30
0.0
 11
35.3608119404
 21
379.5567554468
 31
0.0
  0
LINE
  5
C0
330
8F
100
AcDbEntity
  8
DV1_Standard
  6
Continuous
 62
     7
100
AcDbLine
 10
18.35
 20
379.5567554468
 30
0.0
 11
21.8608119404
 21
379.5567554468
 31
0.0
  0
ARC
  5
C1
330
8F
100
AcDbEntity
  8
DV1_Standard
  6
Continuous
 62
     7
100
AcDbCircle
 10
37.3580677189
 20
355.0967447703
 30
0.0
 40
24.86709797707262
100
AcDbArc
 50
71.2532468352
 51
79.6184282516
  0
LINE
  5
C2
330
8F
100
AcDbEntity
  8
DV1_Standard
  6
Continuous
 62
     7
100
AcDbLine
 10
45.35
 20
378.6446020022
 30
0.0
 11
45.35
 21
379.5567554468
 31
0.0
  0
ARC
  5
C3
330
8F
100
AcDbEntity
  8
DV1_Standard
  6
Continuous
 62
     7
100
AcDbCircle
 10
23.8580677189
 20
355.0967447703
 30
0.0
 40
24.86709797707234
100
AcDbArc
 50
71.2532468352
 51
79.6184282516
  0
ARC
  5
C4
330
8F
100
AcDbEntity
  8
DV1_Standard
  6
Continuous
 62
     7
100
AcDbCircle
 10
39.8600643001
 20
355.0269559544
 30
0.0
 40
24.93901230867154
100
AcDbArc
 50
100.3936540768
 51
108.7346708365
  0
LINE
  5
C5
330
8F
100
AcDbEntity
  8
DV1_Standard
  6
Continuous
 62
     7
100
AcDbLine
 10
18.35
 20
379.5567554468
 30
0.0
 11
18.35
 21
378.6446020022
 31
0.0
  0
ARC
  5
C6
330
8F
100
AcDbEntity
  8
DV1_Standard
  6
Continuous
 62
     7
100
AcDbCircle
 10
26.3600643001
 20
355.0269559544
 30
0.0
 40
24.93901230867118
100
AcDbArc
 50
100.3936540768
 51
108.7346708365
  0
LINE
  5
C7
330
8F
100
AcDbEntity
  8
DV1_Standard
  6
Continuous
 62
     7
100
AcDbLine
 10
44.6491734973
 20
367.5567554468
 30
0.0
 11
32.5508265027
 21
367.5567554468
 31
0.0
  0
LINE
  5
C8
330
8F
100
AcDbEntity
  8
DV1_Standard
  6
Continuous
 62
     7
100
AcDbLine
 10
32.5508265027
 20
367.5567554468
 30
0.0
 11
31.85
 21
367.5567554468
 31
0.0
  0
LINE
  5
C9
330
8F
100
AcDbEntity
  8
DV1_Standard
  6
Continuous
 62
     7
100
AcDbLine
 10
31.1491734973
 20
367.5567554468
 30
0.0
 11
19.0508265027
 21
367.5567554468
 31
0.0
  0
LINE
  5
CA
330
8F
100
AcDbEntity
  8
DV1_Standard
  6
Continuous
 62
     7
100
AcDbLine
 10
19.0508265027
 20
367.5567554468
 30
0.0
 11
18.35
 21
367.5567554468
 31
0.0
  0
LINE
  5
CB
330
8F
100
AcDbEntity
  8
DV1_Standard
  6
Continuous
 62
     7
100
AcDbLine
 10
18.35
 20
308.5567554468
 30
0.0
 11
19.0508265027
 21
308.5567554468
 31
0.0
  0
LINE
  5
CC
330
8F
100
AcDbEntity
  8
DV1_Standard
  6
Continuous
 62
     7
100
AcDbLine
 10
31.85
 20
308.5567554468
 30
0.0
 11
32.5508265027
 21
308.5567554468
 31
0.0
  0
LINE
  5
CD
330
8F
100
AcDbEntity
  8
DV1_Standard
  6
Continuous
 62
     7
100
AcDbLine
 10
45.35
 20
308.5567554468
 30
0.0
 11
45.35
 21
297.4689088913
 31
0.0
  0
LINE
  5
CE
330
8F
100
AcDbEntity
  8
DV1_Standard
  6
Continuous
 62
     7
100
AcDbLine
 10
18.35
 20
308.5567554468
 30
0.0
 11
18.35
 21
297.4689088913
 31
0.0
  0
LINE
  5
CF
330
8F
100
AcDbEntity
  8
DV1_Standard
  6
Continuous
 62
     7
100
AcDbLine
 10
31.85
 20
308.5567554468
 30
0.0
 11
31.85
 21
297.4689088913
 31
0.0
  0
LINE
  5
D0
330
8F
100
AcDbEntity
  8
DV1_Standard
  6
Continuous
 62
     7
100
AcDbLine
 10
35.3608119404
 20
296.5567554468
 30
0.0
 11
41.8391880596
 21
296.5567554468
 31
0.0
  0
ARC
  5
D1
330
8F
100
AcDbEntity
  8
DV1_Standard
  6
Continuous
 62
     7
100
AcDbCircle
 10
39.8419322811
 20
321.0167661233
 30
0.0
 40
24.86709797707278
100
AcDbArc
 50
251.2532468352
 51
259.6184282516
  0
ARC
  5
D2
330
8F
100
AcDbEntity
  8
DV1_Standard
  6
Continuous
 62
     7
100
AcDbCircle
 10
37.3399356999
 20
321.0865549391
 30
0.0
 40
24.93901230866982
100
AcDbArc
 50
280.3936540768
 51
288.7346708365
  0
LINE
  5
D3
330
8F
100
AcDbEntity
  8
DV1_Standard
  6
Continuous
 62
     7
100
AcDbLine
 10
21.8608119404
 20
296.5567554468
 30
0.0
 11
28.3391880596
 21
296.5567554468
 31
0.0
  0
LINE
  5
D4
330
8F
100
AcDbEntity
  8
DV1_Standard
  6
Continuous
 62
     7
100
AcDbLine
 10
21.8608119404
 20
296.5567554468
 30
0.0
 11
18.35
 21
296.5567554468
 31
0.0
  0
LINE
  5
D5
330
8F
100
AcDbEntity
  8
DV1_Standard
  6
Continuous
 62
     7
100
AcDbLine
 10
45.35
 20
296.5567554468
 30
0.0
 11
41.8391880596
 21
296.5567554468
 31
0.0
  0
LINE
  5
D6
330
8F
100
AcDbEntity
  8
DV1_Standard
  6
Continuous
 62
     7
100
AcDbLine
 10
35.3608119404
 20
296.5567554468
 30
0.0
 11
28.3391880596
 21
296.5567554468
 31
0.0
  0
ARC
  5
D7
330
8F
100
AcDbEntity
  8
DV1_Standard
  6
Continuous
 62
     7
100
AcDbCircle
 10
26.3419322811
 20
321.0167661233
 30
0.0
 40
24.86709797707348
100
AcDbArc
 50
251.2532468352
 51
259.6184282516
  0
LINE
  5
D8
330
8F
100
AcDbEntity
  8
DV1_Standard
  6
Continuous
 62
     7
100
AcDbLine
 10
18.35
 20
297.4689088913
 30
0.0
 11
18.35
 21
296.5567554468
 31
0.0
  0
LINE
  5
D9
330
8F
100
AcDbEntity
  8
DV1_Standard
  6
Continuous
 62
     7
100
AcDbLine
 10
45.35
 20
296.5567554468
 30
0.0
 11
45.35
 21
297.4689088913
 31
0.0
  0
ARC
  5
DA
330
8F
100
AcDbEntity
  8
DV1_Standard
  6
Continuous
 62
     7
100
AcDbCircle
 10
23.8399356999
 20
321.0865549391
 30
0.0
 40
24.93901230866926
100
AcDbArc
 50
280.3936540768
 51
288.7346708365
  0
LINE
  5
DB
330
8F
100
AcDbEntity
  8
DV1_Standard
  6
Continuous
 62
     7
100
AcDbLine
 10
19.0508265027
 20
308.5567554468
 30
0.0
 11
31.1491734973
 21
308.5567554468
 31
0.0
  0
LINE
  5
DC
330
8F
100
AcDbEntity
  8
DV1_Standard
  6
Continuous
 62
     7
100
AcDbLine
 10
31.1491734973
 20
308.5567554468
 30
0.0
 11
31.85
 21
308.5567554468
 31
0.0
  0
LINE
  5
DD
330
8F
100
AcDbEntity
  8
DV1_Standard
  6
Continuous
 62
     7
100
AcDbLine
 10
32.5508265027
 20
308.5567554468
 30
0.0
 11
44.6491734973
 21
308.5567554468
 31
0.0
  0
LINE
  5
DE
330
8F
100
AcDbEntity
  8
DV1_Standard
  6
Continuous
 62
     7
100
AcDbLine
 10
44.6491734973
 20
308.5567554468
 30
0.0
 11
45.35
 21
308.5567554468
 31
0.0
  0
LINE
  5
DF
330
8F
100
AcDbEntity
  8
DV1_Standard
  6
Continuous
 62
     7
100
AcDbLine
 10
18.65
 20
364.1882764027
 30
0.0
 11
18.65
 21
359.6403140042
 31
0.0
  0
LINE
  5
E0
330
8F
100
AcDbEntity
  8
DV1_Standard
  6
Continuous
 62
     7
100
AcDbLine
 10
45.05
 20
359.6403140042
 30
0.0
 11
45.05
 21
364.1882764027
 31
0.0
  0
LINE
  5
E1
330
8F
100
AcDbEntity
  8
DV1_Standard
  6
Continuous
 62
     7
100
AcDbLine
 10
18.65
 20
316.4731968894
 30
0.0
 11
18.65
 21
311.9252344908
 31
0.0
  0
LINE
  5
E2
330
8F
100
AcDbEntity
  8
DV1_Standard
  6
Continuous
 62
     7
100
AcDbLine
 10
45.05
 20
311.9252344908
 30
0.0
 11
45.05
 21
316.4731968894
 31
0.0
  0
LINE
  5
E3
330
8F
100
AcDbEntity
  8
DV1_Standard
  6
Continuous
 62
     7
100
AcDbLine
 10
45.05
 20
364.1881764027
 30
0.0
 11
45.05
 21
366.4926163435
 31
0.0
  0
LINE
  5
E4
330
8F
100
AcDbEntity
  8
DV1_Standard
  6
Continuous
 62
     7
100
AcDbLine
 10
18.65
 20
366.4926163435
 30
0.0
 11
18.65
 21
364.1881764027
 31
0.0
  0
SPLINE
  5
E5
330
8F
100
AcDbEntity
  8
DV1_Standard
  6
Continuous
 62
     7
100
AcDbSpline
210
0.0
220
0.0
230
1.0
 70
     8
 71
     3
 72
     9
 73
     5
 74
     0
 42
0.0000002355737109
 43
0.0000000001
 40
0.0
 40
0.0
 40
0.0
 40
0.0
 40
0.5000124972767286
 40
1.0
 40
1.0
 40
1.0
 40
1.0
 10
18.34853253433849
 20
367.5414581229082
 30
0.0
 10
18.36166567532332
 20
367.5403141769808
 30
0.0
 10
18.38280631923173
 20
367.538823693771
 30
0.0
 10
18.39011663300579
 20
367.5360462641754
 30
0.0
 10
18.39024086356522
 20
367.5358253873781
 30
0.0
  0
ARC
  5
E6
330
8F
100
AcDbEntity
  8
DV1_Standard
  6
Continuous
 62
     7
100
AcDbCircle
 10
16.6761217163
 20
366.5136913485
 30
0.0
 40
1.971829637840757
100
AcDbArc
 50
359.3949441232
 51
31.3356272703
  0
SPLINE
  5
E7
330
8F
100
AcDbEntity
  8
DV1_Standard
  6
Continuous
 62
     7
100
AcDbSpline
210
0.0
220
0.0
230
1.0
 70
     8
 71
     3
 72
    10
 73
     6
 74
     0
 42
0.0000002609397133
 43
0.0000000001
 40
0.0
 40
0.0
 40
0.0
 40
0.0
 40
0.009679560354644
 40
0.6692212571602606
 40
1.0
 40
1.0
 40
1.0
 40
1.0
 10
45.31368933851809
 20
367.5368057327312
 30
0.0
 10
45.31369178290577
 20
367.5368090627435
 30
0.0
 10
45.31394968839123
 20
367.5370752984501
 30
0.0
 10
45.32355286987466
 20
367.5411640393292
 30
0.0
 10
45.34305483254875
 20
367.5420693936793
 30
0.0
 10
45.35102803882233
 20
367.5425533556099
 30
0.0
  0
ARC
  5
E8
330
8F
100
AcDbEntity
  8
DV1_Standard
  6
Continuous
 62
     7
100
AcDbCircle
 10
47.0163589935
 20
366.516394292
 30
0.0
 40
1.964039260811889
100
AcDbArc
 50
148.617663213
 51
180.6930865082
  0
SPLINE
  5
E9
330
8F
100
AcDbEntity
  8
DV1_Standard
  6
Continuous
 62
     7
100
AcDbSpline
210
0.0
220
0.0
230
1.0
 70
     8
 71
     3
 72
    10
 73
     6
 74
     0
 42
0.0000002368677719
 43
0.0000000001
 40
0.0
 40
0.0
 40
0.0
 40
0.0
 40
0.0164474229118568
 40
0.6388542062550969
 40
1.0
 40
1.0
 40
1.0
 40
1.0
 10
45.30963591096587
 20
367.5356628421941
 30
0.0
 10
45.30963969314313
 20
367.5356680938625
 30
0.0
 10
45.30994746228154
 20
367.5359329394659
 30
0.0
 10
45.32026012064752
 20
367.5399878543344
 30
0.0
 10
45.34141102588426
 20
367.5407299938021
 30
0.0
 10
45.35095933058465
 20
367.5412028554622
 30
0.0
  0
LINE
  5
EA
330
8F
100
AcDbEntity
  8
DV1_Standard
  6
Continuous
 62
     7
100
AcDbLine
 10
18.65
 20
311.9253344908
 30
0.0
 11
18.65
 21
309.62089455
 31
0.0
  0
LINE
  5
EB
330
8F
100
AcDbEntity
  8
DV1_Standard
  6
Continuous
 62
     7
100
AcDbLine
 10
45.05
 20
309.62089455
 30
0.0
 11
45.05
 21
311.9253344908
 31
0.0
  0
SPLINE
  5
EC
330
8F
100
AcDbEntity
  8
DV1_Standard
  6
Continuous
 62
     7
100
AcDbSpline
210
0.0
220
0.0
230
1.0
 70
     8
 71
     3
 72
     9
 73
     5
 74
     0
 42
0.0000002355737109
 43
0.0000000001
 40
0.0
 40
0.0
 40
0.0
 40
0.0
 40
0.5000124972774991
 40
1.0
 40
1.0
 40
1.0
 40
1.0
 10
45.35146746566164
 20
308.5720527706421
 30
0.0
 10
45.33833432467676
 20
308.5731967165696
 30
0.0
 10
45.31719368076831
 20
308.5746871997793
 30
0.0
 10
45.30988336699432
 20
308.5774646293748
 30
0.0
 10
45.3097591364349
 20
308.5776855061721
 30
0.0
  0
ARC
  5
ED
330
8F
100
AcDbEntity
  8
DV1_Standard
  6
Continuous
 62
     7
100
AcDbCircle
 10
47.0238782837
 20
309.599819545
 30
0.0
 40
1.971829637836456
100
AcDbArc
 50
179.3949441232
 51
211.3356272703
  0
SPLINE
  5
EE
330
8F
100
AcDbEntity
  8
DV1_Standard
  6
Continuous
 62
     7
100
AcDbSpline
210
0.0
220
0.0
230
1.0
 70
     8
 71
     3
 72
    10
 73
     6
 74
     0
 42
0.0000002609397133
 43
0.0000000001
 40
0.0
 40
0.0
 40
0.0
 40
0.0
 40
0.0096795597763138
 40
0.6692212566257846
 40
1.0
 40
1.0
 40
1.0
 40
1.0
 10
18.38631066148158
 20
308.5767051608185
 30
0.0
 10
18.38630821709405
 20
308.5767018308063
 30
0.0
 10
18.38605031161444
 20
308.5764355951021
 30
0.0
 10
18.37644713014789
 20
308.5723468542263
 30
0.0
 10
18.3569451674624
 20
308.5714414998727
 30
0.0
 10
18.34897196117547
 20
308.5709575379398
 30
0.0
  0
ARC
  5
EF
330
8F
100
AcDbEntity
  8
DV1_Standard
  6
Continuous
 62
     7
100
AcDbCircle
 10
16.6836410065
 20
309.5971166016
 30
0.0
 40
1.964039260815262
100
AcDbArc
 50
328.617663213
 51
0.6930865082
  0
SPLINE
  5
F0
330
8F
100
AcDbEntity
  8
DV1_Standard
  6
Continuous
 62
     7
100
AcDbSpline
210
0.0
220
0.0
230
1.0
 70
     8
 71
     3
 72
    10
 73
     6
 74
     0
 42
0.0000002368677719
 43
0.0000000001
 40
0.0
 40
0.0
 40
0.0
 40
0.0
 40
0.0164474230285187
 40
0.6388542063680425
 40
1.0
 40
1.0
 40
1.0
 40
1.0
 10
18.39036408903435
 20
308.5778480513563
 30
0.0
 10
18.39036030685707
 20
308.5778427996879
 30
0.0
 10
18.39005253771738
 20
308.577577954084
 30
0.0
 10
18.37973987934778
 20
308.5735230392149
 30
0.0
 10
18.35858897411336
 20
308.572780899748
 30
0.0
 10
18.349040669416
 20
308.5723080380884
 30
0.0
  0
ENDBLK
  5
F2
330
8F
100
AcDbEntity
  8
0
100
AcDbBlockEnd
  0
BLOCK
  5
18B
330
F3
100
AcDbEntity
  8
0
100
AcDbBlockBegin
  2
SE1
 70
     0
 10
0.0
 20
0.0
 30
0.0
  3
SE1
  1

  0
LINE
  5
F6
330
F3
100
AcDbEntity
  8
DV2_Standard
  6
Continuous
 62
     7
100
AcDbLine
 10
229.0567554468
 20
312.7567554468
 30
0.0
 11
229.0567554468
 21
363.3567554468
 31
0.0
  0
LINE
  5
F7
330
F3
100
AcDbEntity
  8
DV2_Standard
  6
Continuous
 62
     7
100
AcDbLine
 10
155.0567554468
 20
316.0567554468
 30
0.0
 11
155.0567554468
 21
360.0567554468
 31
0.0
  0
LINE
  5
F8
330
F3
100
AcDbEntity
  8
DV2_Standard
  6
Continuous
 62
     7
100
AcDbLine
 10
247.5567554468
 20
312.7567554468
 30
0.0
 11
247.5567554468
 21
363.3567554468
 31
0.0
  0
LINE
  5
F9
330
F3
100
AcDbEntity
  8
DV2_Standard
  6
Continuous
 62
     7
100
AcDbLine
 10
242.5567554468
 20
326.0567554468
 30
0.0
 11
241.0567554468
 21
326.0567554468
 31
0.0
  0
LINE
  5
FA
330
F3
100
AcDbEntity
  8
DV2_Standard
  6
Continuous
 62
     7
100
AcDbLine
 10
241.0567554468
 20
326.0567554468
 30
0.0
 11
241.0567554468
 21
332.0567554468
 31
0.0
  0
LINE
  5
FB
330
F3
100
AcDbEntity
  8
DV2_Standard
  6
Continuous
 62
     7
100
AcDbLine
 10
241.0567554468
 20
332.0567554468
 30
0.0
 11
239.0567554468
 21
332.0567554468
 31
0.0
  0
LINE
  5
FC
330
F3
100
AcDbEntity
  8
DV2_Standard
  6
Continuous
 62
     7
100
AcDbLine
 10
239.0567554468
 20
332.0567554468
 30
0.0
 11
239.0567554468
 21
326.0567554468
 31
0.0
  0
LINE
  5
FD
330
F3
100
AcDbEntity
  8
DV2_Standard
  6
Continuous
 62
     7
100
AcDbLine
 10
239.0567554468
 20
326.0567554468
 30
0.0
 11
237.5567554468
 21
326.0567554468
 31
0.0
  0
LINE
  5
FE
330
F3
100
AcDbEntity
  8
DV2_Standard
  6
Continuous
 62
     7
100
AcDbLine
 10
237.5567554468
 20
326.0567554468
 30
0.0
 11
240.0567554468
 21
321.0567554468
 31
0.0
  0
LINE
  5
FF
330
F3
100
AcDbEntity
  8
DV2_Standard
  6
Continuous
 62
     7
100
AcDbLine
 10
240.0567554468
 20
321.0567554468
 30
0.0
 11
242.5567554468
 21
326.0567554468
 31
0.0
  0
LINE
  5
100
330
F3
100
AcDbEntity
  8
DV2_Standard
  6
Continuous
 62
     7
100
AcDbLine
 10
240.0567554468
 20
355.0567554468
 30
0.0
 11
237.5567554468
 21
350.0567554468
 31
0.0
  0
LINE
  5
101
330
F3
100
AcDbEntity
  8
DV2_Standard
  6
Continuous
 62
     7
100
AcDbLine
 10
237.5567554468
 20
350.0567554468
 30
0.0
 11
239.0567554468
 21
350.0567554468
 31
0.0
  0
LINE
  5
102
330
F3
100
AcDbEntity
  8
DV2_Standard
  6
Continuous
 62
     7
100
AcDbLine
 10
239.0567554468
 20
350.0567554468
 30
0.0
 11
239.0567554468
 21
344.0567554468
 31
0.0
  0
LINE
  5
103
330
F3
100
AcDbEntity
  8
DV2_Standard
  6
Continuous
 62
     7
100
AcDbLine
 10
239.0567554468
 20
344.0567554468
 30
0.0
 11
241.0567554468
 21
344.0567554468
 31
0.0
  0
LINE
  5
104
330
F3
100
AcDbEntity
  8
DV2_Standard
  6
Continuous
 62
     7
100
AcDbLine
 10
241.0567554468
 20
344.0567554468
 30
0.0
 11
241.0567554468
 21
350.0567554468
 31
0.0
  0
LINE
  5
105
330
F3
100
AcDbEntity
  8
DV2_Standard
  6
Continuous
 62
     7
100
AcDbLine
 10
241.0567554468
 20
350.0567554468
 30
0.0
 11
242.5567554468
 21
350.0567554468
 31
0.0
  0
LINE
  5
106
330
F3
100
AcDbEntity
  8
DV2_Standard
  6
Continuous
 62
     7
100
AcDbLine
 10
242.5567554468
 20
350.0567554468
 30
0.0
 11
240.0567554468
 21
355.0567554468
 31
0.0
  0
LINE
  5
107
330
F3
100
AcDbEntity
  8
DV2_Standard
  6
Continuous
 62
     7
100
AcDbLine
 10
242.5567554468
 20
338.5567554468
 30
0.0
 11
240.3067554468
 21
338.5567554468
 31
0.0
  0
LINE
  5
108
330
F3
100
AcDbEntity
  8
DV2_Standard
  6
Continuous
 62
     7
100
AcDbLine
 10
240.3067554468
 20
338.5567554468
 30
0.0
 11
242.5567554468
 21
343.0567554468
 31
0.0
  0
LINE
  5
109
330
F3
100
AcDbEntity
  8
DV2_Standard
  6
Continuous
 62
     7
100
AcDbLine
 10
242.5567554468
 20
343.0567554468
 30
0.0
 11
237.5567554468
 21
343.0567554468
 31
0.0
  0
LINE
  5
10A
330
F3
100
AcDbEntity
  8
DV2_Standard
  6
Continuous
 62
     7
100
AcDbLine
 10
237.5567554468
 20
343.0567554468
 30
0.0
 11
240.0567554468
 21
338.0567554468
 31
0.0
  0
LINE
  5
10B
330
F3
100
AcDbEntity
  8
DV2_Standard
  6
Continuous
 62
     7
100
AcDbLine
 10
240.0567554468
 20
338.0567554468
 30
0.0
 11
237.5567554468
 21
333.0567554468
 31
0.0
  0
LINE
  5
10C
330
F3
100
AcDbEntity
  8
DV2_Standard
  6
Continuous
 62
     7
100
AcDbLine
 10
237.5567554468
 20
333.0567554468
 30
0.0
 11
242.5567554468
 21
333.0567554468
 31
0.0
  0
LINE
  5
10D
330
F3
100
AcDbEntity
  8
DV2_Standard
  6
Continuous
 62
     7
100
AcDbLine
 10
242.5567554468
 20
333.0567554468
 30
0.0
 11
240.3067554468
 21
337.5567554468
 31
0.0
  0
LINE
  5
10E
330
F3
100
AcDbEntity
  8
DV2_Standard
  6
Continuous
 62
     7
100
AcDbLine
 10
240.3067554468
 20
337.5567554468
 30
0.0
 11
242.5567554468
 21
337.5567554468
 31
0.0
  0
LINE
  5
10F
330
F3
100
AcDbEntity
  8
DV2_Standard
  6
Continuous
 62
     7
100
AcDbLine
 10
242.5567554468
 20
337.5567554468
 30
0.0
 11
242.5567554468
 21
336.0567554468
 31
0.0
  0
LINE
  5
110
330
F3
100
AcDbEntity
  8
DV2_Standard
  6
Continuous
 62
     7
100
AcDbLine
 10
242.5567554468
 20
336.0567554468
 30
0.0
 11
243.5567554468
 21
336.0567554468
 31
0.0
  0
LINE
  5
111
330
F3
100
AcDbEntity
  8
DV2_Standard
  6
Continuous
 62
     7
100
AcDbLine
 10
243.5567554468
 20
336.0567554468
 30
0.0
 11
243.5567554468
 21
340.0567554468
 31
0.0
  0
LINE
  5
112
330
F3
100
AcDbEntity
  8
DV2_Standard
  6
Continuous
 62
     7
100
AcDbLine
 10
243.5567554468
 20
340.0567554468
 30
0.0
 11
242.5567554468
 21
340.0567554468
 31
0.0
  0
LINE
  5
113
330
F3
100
AcDbEntity
  8
DV2_Standard
  6
Continuous
 62
     7
100
AcDbLine
 10
242.5567554468
 20
340.0567554468
 30
0.0
 11
242.5567554468
 21
338.5567554468
 31
0.0
  0
LINE
  5
114
330
F3
100
AcDbEntity
  8
DV2_Standard
  6
Continuous
 62
     7
100
AcDbLine
 10
229.0567554468
 20
361.9945136429
 30
0.0
 11
155.0567554468
 21
360.0567554468
 31
0.0
  0
LINE
  5
115
330
F3
100
AcDbEntity
  8
DV2_Standard
  6
Continuous
 62
     7
100
AcDbLine
 10
155.0567554468
 20
316.0567554468
 30
0.0
 11
229.0567554468
 21
314.1189972507
 31
0.0
  0
LINE
  5
116
330
F3
100
AcDbEntity
  8
DV2_Standard
  6
Continuous
 62
     7
100
AcDbLine
 10
229.0567554468
 20
312.7567554468
 30
0.0
 11
247.5567554468
 21
312.7567554468
 31
0.0
  0
LINE
  5
117
330
F3
100
AcDbEntity
  8
DV2_Standard
  6
Continuous
 62
     7
100
AcDbLine
 10
247.5567554468
 20
363.3567554468
 30
0.0
 11
229.0567554468
 21
363.3567554468
 31
0.0
  0
LINE
  5
118
330
F3
100
AcDbEntity
  8
DV2_Standard
  6
Continuous
 62
     7
100
AcDbLine
 10
122.8567554468
 20
356.7803642013
 30
0.0
 11
122.8567554468
 21
364.1882264027
 31
0.0
  0
LINE
  5
119
330
F3
100
AcDbEntity
  8
DV2_Standard
  6
Continuous
 62
     7
100
AcDbLine
 10
120.1588384369
 20
346.4377332491
 30
0.0
 11
122.7863195955
 21
356.2435980322
 31
0.0
  0
LINE
  5
11A
330
F3
100
AcDbEntity
  8
DV2_Standard
  6
Continuous
 62
     7
100
AcDbLine
 10
120.0567554468
 20
345.6623381263
 30
0.0
 11
120.0567554468
 21
330.4511727673
 31
0.0
  0
LINE
  5
11B
330
F3
100
AcDbEntity
  8
DV2_Standard
  6
Continuous
 62
     7
100
AcDbLine
 10
150.811914993
 20
356.7183034243
 30
0.0
 11
150.042188538
 21
357.318537418
 31
0.0
  0
LINE
  5
11C
330
F3
100
AcDbEntity
  8
DV2_Standard
  6
Continuous
 62
     7
100
AcDbLine
 10
120.0567554468
 20
345.6623381263
 30
0.0
 11
120.1588384369
 21
346.4377332491
 31
0.0
  0
SPLINE
  5
11D
330
F3
100
AcDbEntity
  8
DV2_Standard
  6
Continuous
 62
     7
100
AcDbSpline
210
0.0
220
0.0
230
1.0
 70
     8
 71
     3
 72
    12
 73
     8
 74
     0
 42
0.0000000054160065
 43
0.0000000001
 40
0.0
 40
0.0
 40
0.0
 40
0.0
 40
0.2500000000000013
 40
0.2500000000000013
 40
0.5000000000000026
 40
0.5000000000000026
 40
1.0
 40
1.0
 40
1.0
 40
1.0
 10
150.0421885381782
 20
357.3185374178453
 30
0.0
 10
149.9195937064678
 20
357.412245923417
 30
0.0
 10
149.8100844384572
 20
357.5181319954291
 30
0.0
 10
149.6162755494057
 20
357.7533645755567
 30
0.0
 10
149.5316742880589
 20
357.8841394084546
 30
0.0
 10
149.3290847339155
 20
358.2936286288711
 30
0.0
 10
149.2567554467932
 20
358.5988981627348
 30
0.0
 10
149.2567554467755
 20
358.9075129172413
 30
0.0
  0
LINE
  5
11E
330
F3
100
AcDbEntity
  8
DV2_Standard
  6
Continuous
 62
     7
100
AcDbLine
 10
122.8567554467
 20
356.7803642013
 30
0.0
 11
122.7863195955
 21
356.2435980322
 31
0.0
  0
LINE
  5
11F
330
F3
100
AcDbEntity
  8
DV2_Standard
  6
Continuous
 62
     7
100
AcDbLine
 10
122.8567554468
 20
319.3331466923
 30
0.0
 11
122.8567554468
 21
311.9252844908
 31
0.0
  0
LINE
  5
120
330
F3
100
AcDbEntity
  8
DV2_Standard
  6
Continuous
 62
     7
100
AcDbLine
 10
150.811914993
 20
319.3952074692
 30
0.0
 11
150.0421885383
 21
318.7949734758
 31
0.0
  0
LINE
  5
121
330
F3
100
AcDbEntity
  8
DV2_Standard
  6
Continuous
 62
     7
100
AcDbLine
 10
120.0567554468
 20
330.4511727673
 30
0.0
 11
120.1588384369
 21
329.6757776445
 31
0.0
  0
LINE
  5
122
330
F3
100
AcDbEntity
  8
DV2_Standard
  6
Continuous
 62
     7
100
AcDbLine
 10
120.1588384369
 20
329.6757776445
 30
0.0
 11
122.7863195955
 21
319.8699128613
 31
0.0
  0
SPLINE
  5
123
330
F3
100
AcDbEntity
  8
DV2_Standard
  6
Continuous
 62
     7
100
AcDbSpline
210
0.0
220
0.0
230
1.0
 70
     8
 71
     3
 72
    12
 73
     8
 74
     0
 42
0.0000000054160065
 43
0.0000000001
 40
0.0
 40
0.0
 40
0.0
 40
0.0
 40
0.2500000000000009
 40
0.2500000000000009
 40
0.5000000000000019
 40
0.5000000000000019
 40
1.0
 40
1.0
 40
1.0
 40
1.0
 10
150.0421885381782
 20
318.7949734757051
 30
0.0
 10
149.9195937064678
 20
318.7012649701333
 30
0.0
 10
149.8100844384572
 20
318.5953788981212
 30
0.0
 10
149.6162755494057
 20
318.3601463179937
 30
0.0
 10
149.5316742880589
 20
318.2293714850957
 30
0.0
 10
149.3290847339155
 20
317.8198822646792
 30
0.0
 10
149.2567554467932
 20
317.5146127308155
 30
0.0
 10
149.2567554467755
 20
317.205997976309
 30
0.0
  0
LINE
  5
124
330
F3
100
AcDbEntity
  8
DV2_Standard
  6
Continuous
 62
     7
100
AcDbLine
 10
122.8567554467
 20
319.3331466923
 30
0.0
 11
122.7863195955
 21
319.8699128613
 31
0.0
  0
ARC
  5
125
330
F3
100
AcDbEntity
  8
DV2_Standard
  6
Continuous
 62
     7
100
AcDbCircle
 10
137.9676012883
 20
330.1524741359
 30
0.0
 40
0.5904795737944719
100
AcDbArc
 50
292.8674969307
 51
0.4598752736
  0
LINE
  5
126
330
F3
100
AcDbEntity
  8
DV2_Standard
  6
Continuous
 62
     7
100
AcDbLine
 10
138.5580618422
 20
330.1572134735
 30
0.0
 11
138.5580618422
 21
335.4932046199
 31
0.0
  0
ARC
  5
127
330
F3
100
AcDbEntity
  8
DV2_Standard
  6
Continuous
 62
     7
100
AcDbCircle
 10
137.9693722251
 20
335.4932046199
 30
0.0
 40
0.5886896170546819
100
AcDbArc
 50
0.0
 51
22.3121882439
  0
ARC
  5
128
330
F3
100
AcDbEntity
  8
DV2_Standard
  6
Continuous
 62
     7
100
AcDbCircle
 10
137.9691316424
 20
335.4927726584
 30
0.0
 40
0.5890762633249461
100
AcDbArc
 50
22.3421729333
 51
45.0
  0
LINE
  5
129
330
F3
100
AcDbEntity
  8
DV2_Standard
  6
Continuous
 62
     7
100
AcDbLine
 10
138.3856714628
 20
335.9093124788
 30
0.0
 11
136.8080618493
 21
337.4869220923
 31
0.0
  0
LINE
  5
12A
330
F3
100
AcDbEntity
  8
DV2_Standard
  6
Continuous
 62
     7
100
AcDbLine
 10
136.8080618493
 20
337.4869220923
 30
0.0
 11
136.8080618493
 21
342.5492034512
 31
0.0
  0
LINE
  5
12B
330
F3
100
AcDbEntity
  8
DV2_Standard
  6
Continuous
 62
     7
100
AcDbLine
 10
136.8080618493
 20
342.5492034512
 30
0.0
 11
137.6873816152
 21
342.5492034512
 31
0.0
  0
ARC
  5
12C
330
F3
100
AcDbEntity
  8
DV2_Standard
  6
Continuous
 62
     7
100
AcDbCircle
 10
137.6873816152
 20
343.1377817073
 30
0.0
 40
0.5885782561375341
100
AcDbArc
 50
270.0
 51
325.8954461374
  0
ARC
  5
12D
330
F3
100
AcDbEntity
  8
DV2_Standard
  6
Continuous
 62
     7
100
AcDbCircle
 10
137.685854085
 20
343.1360333789
 30
0.0
 40
0.5888672869420924
100
AcDbArc
 50
326.1196353019
 51
22.0
  0
LINE
  5
12E
330
F3
100
AcDbEntity
  8
DV2_Standard
  6
Continuous
 62
     7
100
AcDbLine
 10
138.2318423259
 20
343.3566269472
 30
0.0
 11
136.6035278967
 21
347.3868465843
 31
0.0
  0
ARC
  5
12F
330
F3
100
AcDbEntity
  8
DV2_Standard
  6
Continuous
 62
     7
100
AcDbCircle
 10
136.0538535226
 20
347.1700004722
 30
0.0
 40
0.5909011370505464
100
AcDbArc
 50
21.5291956603
 51
89.5938290492
  0
ARC
  5
130
330
F3
100
AcDbEntity
  8
DV2_Standard
  6
Continuous
 62
     7
100
AcDbCircle
 10
136.0623390787
 20
347.1698990999
 30
0.0
 40
0.5910032807138315
100
AcDbArc
 50
90.4165524234
 51
158.4641133998
  0
LINE
  5
131
330
F3
100
AcDbEntity
  8
DV2_Standard
  6
Continuous
 62
     7
100
AcDbLine
 10
135.5125950186
 20
347.3868468962
 30
0.0
 11
133.8842809289
 21
343.3566280994
 31
0.0
  0
ARC
  5
132
330
F3
100
AcDbEntity
  8
DV2_Standard
  6
Continuous
 62
     7
100
AcDbCircle
 10
134.4302691698
 20
343.1360345311
 30
0.0
 40
0.5888672869415661
100
AcDbArc
 50
158.0
 51
213.8804806534
  0
ARC
  5
133
330
F3
100
AcDbEntity
  8
DV2_Standard
  6
Continuous
 62
     7
100
AcDbCircle
 10
134.4287413982
 20
343.1377832077
 30
0.0
 40
0.5885782561075933
100
AcDbArc
 50
214.1047111145
 51
270.0
  0
LINE
  5
134
330
F3
100
AcDbEntity
  8
DV2_Standard
  6
Continuous
 62
     7
100
AcDbLine
 10
134.4287413982
 20
342.5492049516
 30
0.0
 11
135.3080618481
 21
342.5492049516
 31
0.0
  0
LINE
  5
135
330
F3
100
AcDbEntity
  8
DV2_Standard
  6
Continuous
 62
     7
100
AcDbLine
 10
135.3080618481
 20
342.5492049516
 30
0.0
 11
135.3080618481
 21
337.4869220792
 31
0.0
  0
LINE
  5
136
330
F3
100
AcDbEntity
  8
DV2_Standard
  6
Continuous
 62
     7
100
AcDbLine
 10
135.3080618481
 20
337.4869220792
 30
0.0
 11
133.7303961231
 21
335.9092563543
 31
0.0
  0
ARC
  5
137
330
F3
100
AcDbEntity
  8
DV2_Standard
  6
Continuous
 62
     7
100
AcDbCircle
 10
134.1466625434
 20
335.4929899341
 30
0.0
 40
0.5886896170537276
100
AcDbArc
 50
135.0
 51
157.3121882692
  0
ARC
  5
138
330
F3
100
AcDbEntity
  8
DV2_Standard
  6
Continuous
 62
     7
100
AcDbCircle
 10
134.1471381055
 20
335.4931252628
 30
0.0
 40
0.5890762632847694
100
AcDbArc
 50
157.3421733307
 51
180.0
  0
LINE
  5
139
330
F3
100
AcDbEntity
  8
DV2_Standard
  6
Continuous
 62
     7
100
AcDbLine
 10
133.5580618422
 20
335.4931252628
 30
0.0
 11
133.5580618422
 21
330.1572134735
 31
0.0
  0
ARC
  5
13A
330
F3
100
AcDbEntity
  8
DV2_Standard
  6
Continuous
 62
     7
100
AcDbCircle
 10
134.1487156475
 20
330.1526009844
 30
0.0
 40
0.5906718147361746
100
AcDbArc
 50
179.5525792229
 51
247.1163700911
  0
ARC
  5
13B
330
F3
100
AcDbEntity
  8
DV2_Standard
  6
Continuous
 62
     7
100
AcDbCircle
 10
134.1414896347
 20
330.1553872011
 30
0.0
 40
0.5904795737960687
100
AcDbArc
 50
247.867496935
 51
315.4598752735
  0
LINE
  5
13C
330
F3
100
AcDbEntity
  8
DV2_Standard
  6
Continuous
 62
     7
100
AcDbLine
 10
134.5623595141
 20
329.7412197571
 30
0.0
 11
136.0580618422
 21
331.2369220851
 31
0.0
  0
LINE
  5
13D
330
F3
100
AcDbEntity
  8
DV2_Standard
  6
Continuous
 62
     7
100
AcDbLine
 10
136.0580618422
 20
331.2369220851
 30
0.0
 11
137.5537641703
 21
329.7412197571
 31
0.0
  0
ARC
  5
13E
330
F3
100
AcDbEntity
  8
DV2_Standard
  6
Continuous
 62
     7
100
AcDbCircle
 10
137.9746810036
 20
330.1556135458
 30
0.0
 40
0.5906718147462834
100
AcDbArc
 50
224.5525792237
 51
292.1163700863
  0
LINE
  5
13F
330
F3
100
AcDbEntity
  8
DV2_Standard
  6
Continuous
 62
     7
100
AcDbLine
 10
149.2567554468
 20
364.1882264027
 30
0.0
 11
149.2567554468
 21
358.9075129172
 31
0.0
  0
LINE
  5
140
330
F3
100
AcDbEntity
  8
DV2_Standard
  6
Continuous
 62
     7
100
AcDbLine
 10
151.6452127149
 20
367.5567554468
 30
0.0
 11
151.2405903449
 21
367.5567554468
 31
0.0
  0
LINE
  5
141
330
F3
100
AcDbEntity
  8
DV2_Standard
  6
Continuous
 62
     7
100
AcDbLine
 10
143.8509840808
 20
367.5567554468
 30
0.0
 11
143.0417393408
 21
367.5567554468
 31
0.0
  0
LINE
  5
142
330
F3
100
AcDbEntity
  8
DV2_Standard
  6
Continuous
 62
     7
100
AcDbLine
 10
128.2625268127
 20
367.5567554468
 30
0.0
 11
127.8579044427
 21
367.5567554468
 31
0.0
  0
LINE
  5
143
330
F3
100
AcDbEntity
  8
DV2_Standard
  6
Continuous
 62
     7
100
AcDbLine
 10
120.4682981787
 20
367.5567554468
 30
0.0
 11
120.4682981787
 21
378.6446020022
 31
0.0
  0
LINE
  5
144
330
F3
100
AcDbEntity
  8
DV2_Standard
  6
Continuous
 62
     7
100
AcDbLine
 10
151.6452127149
 20
367.5567554468
 30
0.0
 11
151.6452127149
 21
378.6446020022
 31
0.0
  0
LINE
  5
145
330
F3
100
AcDbEntity
  8
DV2_Standard
  6
Continuous
 62
     7
100
AcDbLine
 10
143.8509840808
 20
367.5567554468
 30
0.0
 11
143.8509840808
 21
378.6446020022
 31
0.0
  0
LINE
  5
146
330
F3
100
AcDbEntity
  8
DV2_Standard
  6
Continuous
 62
     7
100
AcDbLine
 10
128.2625268127
 20
367.5567554468
 30
0.0
 11
128.2625268127
 21
378.6446020022
 31
0.0
  0
LINE
  5
147
330
F3
100
AcDbEntity
  8
DV2_Standard
  6
Continuous
 62
     7
100
AcDbLine
 10
126.2355585939
 20
379.5567554468
 30
0.0
 11
122.4952663975
 21
379.5567554468
 31
0.0
  0
ARC
  5
148
330
F3
100
AcDbEntity
  8
DV2_Standard
  6
Continuous
 62
     7
100
AcDbCircle
 10
123.2045107567
 20
370.113004814
 30
0.0
 40
9.918249694611552
100
AcDbArc
 50
59.3381264865
 51
72.20554858
  0
ARC
  5
149
330
F3
100
AcDbEntity
  8
DV2_Standard
  6
Continuous
 62
     7
100
AcDbCircle
 10
125.5406023203
 20
370.0812541303
 30
0.0
 40
9.952848641496383
100
AcDbArc
 50
107.8169108206
 51
120.6394141129
  0
LINE
  5
14A
330
F3
100
AcDbEntity
  8
DV2_Standard
  6
Continuous
 62
     7
100
AcDbLine
 10
139.7970476431
 20
379.5567554468
 30
0.0
 11
132.3164632504
 21
379.5567554468
 31
0.0
  0
LINE
  5
14B
330
F3
100
AcDbEntity
  8
DV2_Standard
  6
Continuous
 62
     7
100
AcDbLine
 10
149.618244496
 20
379.5567554468
 30
0.0
 11
145.8779522997
 21
379.5567554468
 31
0.0
  0
LINE
  5
14C
330
F3
100
AcDbEntity
  8
DV2_Standard
  6
Continuous
 62
     7
100
AcDbLine
 10
150.0653166047
 20
379.5567554468
 30
0.0
 11
149.618244496
 21
379.5567554468
 31
0.0
  0
LINE
  5
14D
330
F3
100
AcDbEntity
  8
DV2_Standard
  6
Continuous
 62
     7
100
AcDbLine
 10
139.7970476431
 20
379.5567554468
 30
0.0
 11
145.8779522997
 21
379.5567554468
 31
0.0
  0
LINE
  5
14E
330
F3
100
AcDbEntity
  8
DV2_Standard
  6
Continuous
 62
     7
100
AcDbLine
 10
122.0481942889
 20
379.5567554468
 30
0.0
 11
122.4952663975
 21
379.5567554468
 31
0.0
  0
LINE
  5
14F
330
F3
100
AcDbEntity
  8
DV2_Standard
  6
Continuous
 62
     7
100
AcDbLine
 10
126.2355585939
 20
379.5567554468
 30
0.0
 11
132.3164632504
 21
379.5567554468
 31
0.0
  0
ARC
  5
150
330
F3
100
AcDbEntity
  8
DV2_Standard
  6
Continuous
 62
     7
100
AcDbCircle
 10
146.5871966589
 20
370.113004814
 30
0.0
 40
9.91824969461162
100
AcDbArc
 50
59.3381264865
 51
72.20554858
  0
SPLINE
  5
151
330
F3
100
AcDbEntity
  8
DV2_Standard
  6
Continuous
 62
     7
100
AcDbSpline
210
0.0
220
0.0
230
1.0
 70
     8
 71
     3
 72
    10
 73
     6
 74
     0
 42
0.0000000024045041
 43
0.0000000001
 40
0.0
 40
0.0
 40
0.0
 40
0.0
 40
0.5
 40
0.5
 40
1.0
 40
1.0
 40
1.0
 40
1.0
 10
139.7970476431429
 20
379.5567554467748
 30
0.0
 10
140.4856145114815
 20
379.4506109468488
 30
0.0
 10
141.1701218975779
 20
379.3177096438939
 30
0.0
 10
142.5205462567817
 20
379.0104549836133
 30
0.0
 10
143.1885925199416
 20
378.8358179752347
 30
0.0
 10
143.8509840808354
 20
378.6446020022391
 30
0.0
  0
ARC
  5
152
330
F3
100
AcDbEntity
  8
DV2_Standard
  6
Continuous
 62
     7
100
AcDbCircle
 10
148.9232882225
 20
370.0812541303
 30
0.0
 40
9.952848641497207
100
AcDbArc
 50
107.8169108206
 51
120.6394141129
  0
SPLINE
  5
153
330
F3
100
AcDbEntity
  8
DV2_Standard
  6
Continuous
 62
     7
100
AcDbSpline
210
0.0
220
0.0
230
1.0
 70
     8
 71
     3
 72
    10
 73
     6
 74
     0
 42
0.0000000024045055
 43
0.0000000001
 40
0.0
 40
0.0
 40
0.0
 40
0.0
 40
0.5
 40
0.5
 40
1.0
 40
1.0
 40
1.0
 40
1.0
 10
128.2625268127155
 20
378.6446020022391
 30
0.0
 10
128.9260147740794
 20
378.8361344787879
 30
0.0
 10
129.5953815354596
 20
379.0110954357199
 30
0.0
 10
130.9490536946356
 20
379.3189074112081
 30
0.0
 10
131.6336682659846
 20
379.451500698825
 30
0.0
 10
132.316463250408
 20
379.5567554467748
 30
0.0
  0
LINE
  5
154
330
F3
100
AcDbEntity
  8
DV2_Standard
  6
Continuous
 62
     7
100
AcDbLine
 10
151.2405903449
 20
367.5567554468
 30
0.0
 11
144.2556064508
 21
367.5567554468
 31
0.0
  0
LINE
  5
155
330
F3
100
AcDbEntity
  8
DV2_Standard
  6
Continuous
 62
     7
100
AcDbLine
 10
144.2556064508
 20
367.5567554468
 30
0.0
 11
143.8509840808
 21
367.5567554468
 31
0.0
  0
LINE
  5
156
330
F3
100
AcDbEntity
  8
DV2_Standard
  6
Continuous
 62
     7
100
AcDbLine
 10
143.0417393408
 20
367.5567554468
 30
0.0
 11
129.0717715527
 21
367.5567554468
 31
0.0
  0
LINE
  5
157
330
F3
100
AcDbEntity
  8
DV2_Standard
  6
Continuous
 62
     7
100
AcDbLine
 10
129.0717715527
 20
367.5567554468
 30
0.0
 11
128.2625268127
 21
367.5567554468
 31
0.0
  0
LINE
  5
158
330
F3
100
AcDbEntity
  8
DV2_Standard
  6
Continuous
 62
     7
100
AcDbLine
 10
127.8579044427
 20
367.5567554468
 30
0.0
 11
120.8729205487
 21
367.5567554468
 31
0.0
  0
LINE
  5
159
330
F3
100
AcDbEntity
  8
DV2_Standard
  6
Continuous
 62
     7
100
AcDbLine
 10
120.8729205487
 20
367.5567554468
 30
0.0
 11
120.4682981787
 21
367.5567554468
 31
0.0
  0
ELLIPSE
  5
15A
330
F3
100
AcDbEntity
  8
DV2_Standard
  6
Continuous
 62
     7
100
AcDbEllipse
 10
120.8729205487
 20
365.5567554468
 30
0.0
 11
2.046973701652632E-12
 21
-2.000000000000071
 31
0.0
210
0.0
220
0.0
230
1.0
 40
0.9989365065
 41
2.996924913881597
 42
3.141592653589793
  0
ELLIPSE
  5
15B
330
F3
100
AcDbEntity
  8
DV2_Standard
  6
Continuous
 62
     7
100
AcDbEllipse
 10
151.2405903449
 20
365.5567554468
 30
0.0
 11
0.0
 21
2.000000000000171
 31
0.0
210
0.0
220
0.0
230
1.0
 40
1.0
 41
0.0
 42
0.0866958985514008
  0
LINE
  5
15C
330
F3
100
AcDbEntity
  8
DV2_Standard
  6
Continuous
 62
     7
100
AcDbLine
 10
149.2567554468
 20
311.9252844908
 30
0.0
 11
149.2567554468
 21
317.2059979763
 31
0.0
  0
LINE
  5
15D
330
F3
100
AcDbEntity
  8
DV2_Standard
  6
Continuous
 62
     7
100
AcDbLine
 10
120.4682981787
 20
308.5567554468
 30
0.0
 11
120.8729205487
 21
308.5567554468
 31
0.0
  0
LINE
  5
15E
330
F3
100
AcDbEntity
  8
DV2_Standard
  6
Continuous
 62
     7
100
AcDbLine
 10
128.2625268127
 20
308.5567554468
 30
0.0
 11
129.0717715527
 21
308.5567554468
 31
0.0
  0
LINE
  5
15F
330
F3
100
AcDbEntity
  8
DV2_Standard
  6
Continuous
 62
     7
100
AcDbLine
 10
143.8509840808
 20
308.5567554468
 30
0.0
 11
144.2556064508
 21
308.5567554468
 31
0.0
  0
LINE
  5
160
330
F3
100
AcDbEntity
  8
DV2_Standard
  6
Continuous
 62
     7
100
AcDbLine
 10
120.4682981787
 20
308.5567554468
 30
0.0
 11
120.4682981787
 21
297.4689088913
 31
0.0
  0
LINE
  5
161
330
F3
100
AcDbEntity
  8
DV2_Standard
  6
Continuous
 62
     7
100
AcDbLine
 10
128.2625268127
 20
308.5567554468
 30
0.0
 11
128.2625268127
 21
297.4689088913
 31
0.0
  0
LINE
  5
162
330
F3
100
AcDbEntity
  8
DV2_Standard
  6
Continuous
 62
     7
100
AcDbLine
 10
143.8509840808
 20
308.5567554468
 30
0.0
 11
143.8509840808
 21
297.4689088913
 31
0.0
  0
LINE
  5
163
330
F3
100
AcDbEntity
  8
DV2_Standard
  6
Continuous
 62
     7
100
AcDbLine
 10
151.6452127149
 20
308.5567554468
 30
0.0
 11
151.6452127149
 21
297.4689088913
 31
0.0
  0
LINE
  5
164
330
F3
100
AcDbEntity
  8
DV2_Standard
  6
Continuous
 62
     7
100
AcDbLine
 10
145.8779522997
 20
296.5567554468
 30
0.0
 11
149.618244496
 21
296.5567554468
 31
0.0
  0
LINE
  5
165
330
F3
100
AcDbEntity
  8
DV2_Standard
  6
Continuous
 62
     7
100
AcDbLine
 10
132.3164632504
 20
296.5567554468
 30
0.0
 11
139.7970476431
 21
296.5567554468
 31
0.0
  0
LINE
  5
166
330
F3
100
AcDbEntity
  8
DV2_Standard
  6
Continuous
 62
     7
100
AcDbLine
 10
122.4952663975
 20
296.5567554468
 30
0.0
 11
126.2355585939
 21
296.5567554468
 31
0.0
  0
LINE
  5
167
330
F3
100
AcDbEntity
  8
DV2_Standard
  6
Continuous
 62
     7
100
AcDbLine
 10
122.0481942889
 20
296.5567554468
 30
0.0
 11
122.4952663975
 21
296.5567554468
 31
0.0
  0
LINE
  5
168
330
F3
100
AcDbEntity
  8
DV2_Standard
  6
Continuous
 62
     7
100
AcDbLine
 10
132.3164632504
 20
296.5567554468
 30
0.0
 11
126.2355585939
 21
296.5567554468
 31
0.0
  0
LINE
  5
169
330
F3
100
AcDbEntity
  8
DV2_Standard
  6
Continuous
 62
     7
100
AcDbLine
 10
145.8779522997
 20
296.5567554468
 30
0.0
 11
139.7970476431
 21
296.5567554468
 31
0.0
  0
LINE
  5
16A
330
F3
100
AcDbEntity
  8
DV2_Standard
  6
Continuous
 62
     7
100
AcDbLine
 10
150.0653166047
 20
296.5567554468
 30
0.0
 11
149.618244496
 21
296.5567554468
 31
0.0
  0
ARC
  5
16B
330
F3
100
AcDbEntity
  8
DV2_Standard
  6
Continuous
 62
     7
100
AcDbCircle
 10
125.5263142347
 20
306.0005060795
 30
0.0
 40
9.918249694611585
100
AcDbArc
 50
239.3381264865
 51
252.20554858
  0
SPLINE
  5
16C
330
F3
100
AcDbEntity
  8
DV2_Standard
  6
Continuous
 62
     7
100
AcDbSpline
210
0.0
220
0.0
230
1.0
 70
     8
 71
     3
 72
    10
 73
     6
 74
     0
 42
0.0000000024045041
 43
0.0000000001
 40
0.0
 40
0.0
 40
0.0
 40
0.0
 40
0.5
 40
0.5
 40
1.0
 40
1.0
 40
1.0
 40
1.0
 10
132.316463250408
 20
296.5567554467755
 30
0.0
 10
131.6278963820695
 20
296.6628999467015
 30
0.0
 10
130.943388995973
 20
296.7958012496564
 30
0.0
 10
129.5929646367692
 20
297.103055909937
 30
0.0
 10
128.9249183736094
 20
297.2776929183156
 30
0.0
 10
128.2625268127155
 20
297.4689088913112
 30
0.0
  0
ARC
  5
16D
330
F3
100
AcDbEntity
  8
DV2_Standard
  6
Continuous
 62
     7
100
AcDbCircle
 10
123.1902226711
 20
306.0322567632
 30
0.0
 40
9.952848641496107
100
AcDbArc
 50
287.8169108206
 51
300.6394141129
  0
ARC
  5
16E
330
F3
100
AcDbEntity
  8
DV2_Standard
  6
Continuous
 62
     7
100
AcDbCircle
 10
148.9090001368
 20
306.0005060795
 30
0.0
 40
9.918249694612118
100
AcDbArc
 50
239.3381264865
 51
252.20554858
  0
SPLINE
  5
16F
330
F3
100
AcDbEntity
  8
DV2_Standard
  6
Continuous
 62
     7
100
AcDbSpline
210
0.0
220
0.0
230
1.0
 70
     8
 71
     3
 72
    10
 73
     6
 74
     0
 42
0.0000000024045055
 43
0.0000000001
 40
0.0
 40
0.0
 40
0.0
 40
0.0
 40
0.5
 40
0.5
 40
1.0
 40
1.0
 40
1.0
 40
1.0
 10
143.8509840808354
 20
297.4689088913112
 30
0.0
 10
143.1874961194715
 20
297.2773764147624
 30
0.0
 10
142.5181293580913
 20
297.1024154578304
 30
0.0
 10
141.1644571989154
 20
296.7946034823422
 30
0.0
 10
140.4798426275663
 20
296.6620101947253
 30
0.0
 10
139.7970476431429
 20
296.5567554467755
 30
0.0
  0
ARC
  5
170
330
F3
100
AcDbEntity
  8
DV2_Standard
  6
Continuous
 62
     7
100
AcDbCircle
 10
146.5729085733
 20
306.0322567632
 30
0.0
 40
9.952848641496832
100
AcDbArc
 50
287.8169108206
 51
300.6394141129
  0
LINE
  5
171
330
F3
100
AcDbEntity
  8
DV2_Standard
  6
Continuous
 62
     7
100
AcDbLine
 10
120.8729205487
 20
308.5567554468
 30
0.0
 11
127.8579044427
 21
308.5567554468
 31
0.0
  0
LINE
  5
172
330
F3
100
AcDbEntity
  8
DV2_Standard
  6
Continuous
 62
     7
100
AcDbLine
 10
127.8579044427
 20
308.5567554468
 30
0.0
 11
128.2625268127
 21
308.5567554468
 31
0.0
  0
LINE
  5
173
330
F3
100
AcDbEntity
  8
DV2_Standard
  6
Continuous
 62
     7
100
AcDbLine
 10
129.0717715527
 20
308.5567554468
 30
0.0
 11
143.0417393408
 21
308.5567554468
 31
0.0
  0
LINE
  5
174
330
F3
100
AcDbEntity
  8
DV2_Standard
  6
Continuous
 62
     7
100
AcDbLine
 10
143.0417393408
 20
308.5567554468
 30
0.0
 11
143.8509840808
 21
308.5567554468
 31
0.0
  0
LINE
  5
175
330
F3
100
AcDbEntity
  8
DV2_Standard
  6
Continuous
 62
     7
100
AcDbLine
 10
144.2556064508
 20
308.5567554468
 30
0.0
 11
151.2405903449
 21
308.5567554468
 31
0.0
  0
LINE
  5
176
330
F3
100
AcDbEntity
  8
DV2_Standard
  6
Continuous
 62
     7
100
AcDbLine
 10
151.2405903449
 20
308.5567554468
 30
0.0
 11
151.6452127149
 21
308.5567554468
 31
0.0
  0
ELLIPSE
  5
177
330
F3
100
AcDbEntity
  8
DV2_Standard
  6
Continuous
 62
     7
100
AcDbEllipse
 10
120.8729205487
 20
310.5567554468
 30
0.0
 11
0.0
 21
2.0
 31
0.0
210
0.0
220
0.0
230
1.0
 40
1.0
 41
3.141592653589793
 42
3.280409853554546
  0
ELLIPSE
  5
178
330
F3
100
AcDbEntity
  8
DV2_Standard
  6
Continuous
 62
     7
100
AcDbEllipse
 10
151.2405903449
 20
310.5567554468
 30
0.0
 11
2.081668171172169E-13
 21
-2.000000000000168
 31
0.0
210
0.0
220
0.0
230
1.0
 40
0.9989365065
 41
6.17909268819774
 42
6.283185307179497
  0
ARC
  5
179
330
F3
100
AcDbEntity
  8
DV2_Standard
  6
Continuous
 62
     7
100
AcDbCircle
 10
3033.4625484602
 20
3981.3434951138
 30
0.0
 40
4631.153405757819
100
AcDbArc
 50
231.5049027955
 51
231.5719625362
  0
ARC
  5
17A
330
F3
100
AcDbEntity
  8
DV2_Standard
  6
Continuous
 62
     7
100
AcDbCircle
 10
3033.4625484569
 20
-3305.229984216
 30
0.0
 40
4631.153405752466
100
AcDbArc
 50
128.4280374638
 51
128.4950972045
  0
LINE
  5
17B
330
F3
100
AcDbEntity
  8
DV2_Standard
  6
Continuous
 62
     7
100
AcDbLine
 10
149.2567554468
 20
364.1881764027
 30
0.0
 11
149.2567554468
 21
365.5567554468
 31
0.0
  0
LINE
  5
17C
330
F3
100
AcDbEntity
  8
DV2_Standard
  6
Continuous
 62
     7
100
AcDbLine
 10
122.8567554468
 20
365.5567554468
 30
0.0
 11
122.8567554468
 21
364.1881764027
 31
0.0
  0
LINE
  5
17D
330
F3
100
AcDbEntity
  8
DV2_Standard
  6
Continuous
 62
     7
100
AcDbLine
 10
151.6452127149
 20
378.6446020022
 30
0.0
 11
150.0653166047
 21
379.5567554468
 31
0.0
  0
LINE
  5
17E
330
F3
100
AcDbEntity
  8
DV2_Standard
  6
Continuous
 62
     7
100
AcDbLine
 10
122.0481942889
 20
379.5567554468
 30
0.0
 11
120.4682981787
 21
378.6446020022
 31
0.0
  0
ARC
  5
17F
330
F3
100
AcDbEntity
  8
DV2_Standard
  6
Continuous
 62
     7
100
AcDbCircle
 10
120.0204197866
 20
356.1843920439
 30
0.0
 40
11.39301140228305
100
AcDbArc
 50
84.2765431046
 51
85.6088591827
  0
ARC
  5
180
330
F3
100
AcDbEntity
  8
DV2_Standard
  6
Continuous
 62
     7
100
AcDbCircle
 10
151.2063470206
 20
366.7358891964
 30
0.0
 40
0.8053083655830559
100
AcDbArc
 50
88.6721876529
 51
99.73805591
  0
ARC
  5
181
330
F3
100
AcDbEntity
  8
DV2_Standard
  6
Continuous
 62
     7
100
AcDbCircle
 10
120.8567554468
 20
365.5567554468
 30
0.0
 40
2.000000000000002
100
AcDbArc
 50
0.0
 51
87.0950980062
  0
ARC
  5
182
330
F3
100
AcDbEntity
  8
DV2_Standard
  6
Continuous
 62
     7
100
AcDbCircle
 10
151.2567554468
 20
365.5567554468
 30
0.0
 40
2.0
100
AcDbArc
 50
90.0
 51
180.0
  0
LINE
  5
183
330
F3
100
AcDbEntity
  8
DV2_Standard
  6
Continuous
 62
     7
100
AcDbLine
 10
122.8567554468
 20
311.9253344908
 30
0.0
 11
122.8567554468
 21
310.5567554468
 31
0.0
  0
LINE
  5
184
330
F3
100
AcDbEntity
  8
DV2_Standard
  6
Continuous
 62
     7
100
AcDbLine
 10
149.2567554468
 20
310.5567554468
 30
0.0
 11
149.2567554468
 21
311.9253344908
 31
0.0
  0
LINE
  5
185
330
F3
100
AcDbEntity
  8
DV2_Standard
  6
Continuous
 62
     7
100
AcDbLine
 10
120.4682981787
 20
297.4689088913
 30
0.0
 11
122.0481942889
 21
296.5567554468
 31
0.0
  0
LINE
  5
186
330
F3
100
AcDbEntity
  8
DV2_Standard
  6
Continuous
 62
     7
100
AcDbLine
 10
150.0653166047
 20
296.5567554468
 30
0.0
 11
151.6452127149
 21
297.4689088913
 31
0.0
  0
ARC
  5
187
330
F3
100
AcDbEntity
  8
DV2_Standard
  6
Continuous
 62
     7
100
AcDbCircle
 10
120.8567554468
 20
310.5567554468
 30
0.0
 40
2.0
100
AcDbArc
 50
270.0
 51
0.0
  0
ARC
  5
188
330
F3
100
AcDbEntity
  8
DV2_Standard
  6
Continuous
 62
     7
100
AcDbCircle
 10
151.2567554468
 20
310.5567554468
 30
0.0
 40
2.000000000000002
100
AcDbArc
 50
180.0
 51
267.0557296534
  0
ARC
  5
189
330
F3
100
AcDbEntity
  8
DV2_Standard
  6
Continuous
 62
     7
100
AcDbCircle
 10
120.8758245653
 20
310.3072513647
 30
0.0
 40
1.734768119370192
100
AcDbArc
 50
270.4187382976
 51
278.9051722493
  0
ARC
  5
18A
330
F3
100
AcDbEntity
  8
DV2_Standard
  6
Continuous
 62
     7
100
AcDbCircle
 10
151.70828922
 20
315.1479670029
 30
0.0
 40
6.59645532284699
100
AcDbArc
 50
264.1453259719
 51
265.7617659444
  0
ENDBLK
  5
18C
330
F3
100
AcDbEntity
  8
0
100
AcDbBlockEnd
  0
BLOCK
  5
207
330
18D
100
AcDbEntity
  8
0
100
AcDbBlockBegin
  2
SE2
 70
     0
 10
0.0
 20
0.0
 30
0.0
  3
SE2
  1

  0
LINE
  5
190
330
18D
100
AcDbEntity
  8
DV3_Standard
  6
Continuous
 62
     7
100
AcDbLine
 10
6.55
 20
124.85
 30
0.0
 11
57.15
 21
124.85
 31
0.0
  0
LINE
  5
191
330
18D
100
AcDbEntity
  8
DV3_Standard
  6
Continuous
 62
     7
100
AcDbLine
 10
9.85
 20
198.85
 30
0.0
 11
53.85
 21
198.85
 31
0.0
  0
LINE
  5
192
330
18D
100
AcDbEntity
  8
DV3_Standard
  6
Continuous
 62
     7
100
AcDbLine
 10
6.55
 20
106.35
 30
0.0
 11
57.15
 21
106.35
 31
0.0
  0
LINE
  5
193
330
18D
100
AcDbEntity
  8
DV3_Standard
  6
Continuous
 62
     7
100
AcDbLine
 10
7.048991956
 20
111.35
 30
0.0
 11
6.8450004999
 21
111.35
 31
0.0
  0
LINE
  5
194
330
18D
100
AcDbEntity
  8
DV3_Standard
  6
Continuous
 62
     7
100
AcDbLine
 10
7.048991956
 20
111.35
 30
0.0
 11
7.048991956
 21
116.35
 31
0.0
  0
LINE
  5
195
330
18D
100
AcDbEntity
  8
DV3_Standard
  6
Continuous
 62
     7
100
AcDbLine
 10
7.048991956
 20
116.35
 30
0.0
 11
6.8450004999
 21
116.35
 31
0.0
  0
LINE
  5
196
330
18D
100
AcDbEntity
  8
DV3_Standard
  6
Continuous
 62
     7
100
AcDbLine
 10
6.6291752712
 20
110.35
 30
0.0
 11
6.4285523622
 21
110.35
 31
0.0
  0
LINE
  5
197
330
18D
100
AcDbEntity
  8
DV3_Standard
  6
Continuous
 62
     7
100
AcDbLine
 10
6.6291752712
 20
110.35
 30
0.0
 11
6.6291752712
 21
111.35
 31
0.0
  0
LINE
  5
198
330
18D
100
AcDbEntity
  8
DV3_Standard
  6
Continuous
 62
     7
100
AcDbLine
 10
6.6291752712
 20
111.35
 30
0.0
 11
6.4285523622
 21
111.35
 31
0.0
  0
LINE
  5
199
330
18D
100
AcDbEntity
  8
DV3_Standard
  6
Continuous
 62
     7
100
AcDbLine
 10
6.554941194
 20
111.35
 30
0.0
 11
6.554941194
 21
112.2367734195
 31
0.0
  0
LINE
  5
19A
330
18D
100
AcDbEntity
  8
DV3_Standard
  6
Continuous
 62
     7
100
AcDbLine
 10
9.5769220807
 20
111.35
 30
0.0
 11
9.35
 21
111.35
 31
0.0
  0
ELLIPSE
  5
19B
330
18D
100
AcDbEntity
  8
DV3_Standard
  6
Continuous
 62
     7
100
AcDbEllipse
 10
31.8499999999
 20
105.35
 30
0.0
 11
-25.29999999990787
 21
-3.537448112211905E-11
 31
0.0
210
0.0
220
0.0
230
1.0
 40
0.5
 41
-0.7368207867273133
 42
-0.4941781633529994
  0
LINE
  5
19C
330
18D
100
AcDbEntity
  8
DV3_Standard
  6
Continuous
 62
     7
100
AcDbLine
 10
13.1126042364
 20
113.85
 30
0.0
 11
12.8434221913
 21
113.85
 31
0.0
  0
ELLIPSE
  5
19D
330
18D
100
AcDbEntity
  8
DV3_Standard
  6
Continuous
 62
     7
100
AcDbEllipse
 10
31.8499999999
 20
122.35
 30
0.0
 11
-25.29999999993296
 21
2.536859611268482E-11
 31
0.0
210
0.0
220
0.0
230
1.0
 40
0.5
 41
0.4941781633525952
 42
0.7368207867267653
  0
LINE
  5
19E
330
18D
100
AcDbEntity
  8
DV3_Standard
  6
Continuous
 62
     7
100
AcDbLine
 10
9.5769220807
 20
116.35
 30
0.0
 11
9.35
 21
116.35
 31
0.0
  0
LINE
  5
19F
330
18D
100
AcDbEntity
  8
DV3_Standard
  6
Continuous
 62
     7
100
AcDbLine
 10
56.651008044
 20
116.35
 30
0.0
 11
56.8549995001
 21
116.35
 31
0.0
  0
LINE
  5
1A0
330
18D
100
AcDbEntity
  8
DV3_Standard
  6
Continuous
 62
     7
100
AcDbLine
 10
56.651008044
 20
116.35
 30
0.0
 11
56.651008044
 21
111.35
 31
0.0
  0
LINE
  5
1A1
330
18D
100
AcDbEntity
  8
DV3_Standard
  6
Continuous
 62
     7
100
AcDbLine
 10
56.651008044
 20
111.35
 30
0.0
 11
56.8549995001
 21
111.35
 31
0.0
  0
LINE
  5
1A2
330
18D
100
AcDbEntity
  8
DV3_Standard
  6
Continuous
 62
     7
100
AcDbLine
 10
57.145058806
 20
112.2367734195
 30
0.0
 11
57.145058806
 21
111.35
 31
0.0
  0
LINE
  5
1A3
330
18D
100
AcDbEntity
  8
DV3_Standard
  6
Continuous
 62
     7
100
AcDbLine
 10
57.0708247288
 20
111.35
 30
0.0
 11
57.2714476378
 21
111.35
 31
0.0
  0
LINE
  5
1A4
330
18D
100
AcDbEntity
  8
DV3_Standard
  6
Continuous
 62
     7
100
AcDbLine
 10
57.0708247288
 20
111.35
 30
0.0
 11
57.0708247288
 21
110.35
 31
0.0
  0
LINE
  5
1A5
330
18D
100
AcDbEntity
  8
DV3_Standard
  6
Continuous
 62
     7
100
AcDbLine
 10
57.0708247288
 20
110.35
 30
0.0
 11
57.2714476378
 21
110.35
 31
0.0
  0
LINE
  5
1A6
330
18D
100
AcDbEntity
  8
DV3_Standard
  6
Continuous
 62
     7
100
AcDbLine
 10
54.1230779193
 20
116.35
 30
0.0
 11
54.35
 21
116.35
 31
0.0
  0
ELLIPSE
  5
1A7
330
18D
100
AcDbEntity
  8
DV3_Standard
  6
Continuous
 62
     7
100
AcDbEllipse
 10
31.85
 20
122.35
 30
0.0
 11
25.29999999995782
 21
1.640354518883669E-11
 31
0.0
210
0.0
220
0.0
230
1.0
 40
0.5
 41
-0.7368207867262413
 42
-0.4941781633522098
  0
LINE
  5
1A8
330
18D
100
AcDbEntity
  8
DV3_Standard
  6
Continuous
 62
     7
100
AcDbLine
 10
50.5873957636
 20
113.85
 30
0.0
 11
50.8565778087
 21
113.85
 31
0.0
  0
ELLIPSE
  5
1A9
330
18D
100
AcDbEntity
  8
DV3_Standard
  6
Continuous
 62
     7
100
AcDbEllipse
 10
31.8500000001
 20
105.35
 30
0.0
 11
25.29999999990851
 21
-3.423650252187826E-11
 31
0.0
210
0.0
220
0.0
230
1.0
 40
0.5
 41
0.4941781633529829
 42
0.7368207867272912
  0
LINE
  5
1AA
330
18D
100
AcDbEntity
  8
DV3_Standard
  6
Continuous
 62
     7
100
AcDbLine
 10
54.1230779193
 20
111.35
 30
0.0
 11
54.35
 21
111.35
 31
0.0
  0
ELLIPSE
  5
1AB
330
18D
100
AcDbEntity
  8
DV3_Standard
  6
Continuous
 62
     7
100
AcDbEllipse
 10
31.85
 20
113.85
 30
0.0
 11
25.49999999997318
 21
-1.748601263784622E-12
 31
0.0
210
0.0
220
0.0
230
1.0
 40
0.5
 41
0.0
 42
0.1973571095505144
  0
LINE
  5
1AC
330
18D
100
AcDbEntity
  8
DV3_Standard
  6
Continuous
 62
     7
100
AcDbLine
 10
56.8549995001
 20
116.35
 30
0.0
 11
56.8549995001
 21
111.35
 31
0.0
  0
ELLIPSE
  5
1AD
330
18D
100
AcDbEntity
  8
DV3_Standard
  6
Continuous
 62
     7
100
AcDbEllipse
 10
31.8499999998
 20
113.85
 30
0.0
 11
25.50000000018999
 21
-1.319777620523155E-11
 31
0.0
210
0.0
220
0.0
230
1.0
 40
0.5
 41
6.085828197630202
 42
6.263576207395457
  0
LINE
  5
1AE
330
18D
100
AcDbEntity
  8
DV3_Standard
  6
Continuous
 62
     7
100
AcDbLine
 10
57.345097568
 20
113.6
 30
0.0
 11
57.345097568
 21
111.35
 31
0.0
  0
LINE
  5
1AF
330
18D
100
AcDbEntity
  8
DV3_Standard
  6
Continuous
 62
     7
100
AcDbLine
 10
57.345097568
 20
111.35
 30
0.0
 11
57.2714476378
 21
111.35
 31
0.0
  0
LINE
  5
1B0
330
18D
100
AcDbEntity
  8
DV3_Standard
  6
Continuous
 62
     7
100
AcDbLine
 10
57.2714476378
 20
111.35
 30
0.0
 11
57.2714476378
 21
110.35
 31
0.0
  0
LINE
  5
1B1
330
18D
100
AcDbEntity
  8
DV3_Standard
  6
Continuous
 62
     7
100
AcDbLine
 10
57.2714476378
 20
110.35
 30
0.0
 11
57.35
 21
110.35
 31
0.0
  0
LINE
  5
1B2
330
18D
100
AcDbEntity
  8
DV3_Standard
  6
Continuous
 62
     7
100
AcDbLine
 10
54.35
 20
111.35
 30
0.0
 11
54.35
 21
112.85
 31
0.0
  0
LINE
  5
1B3
330
18D
100
AcDbEntity
  8
DV3_Standard
  6
Continuous
 62
     7
100
AcDbLine
 10
54.35
 20
112.85
 30
0.0
 11
56.6340674628
 21
112.85
 31
0.0
  0
LINE
  5
1B4
330
18D
100
AcDbEntity
  8
DV3_Standard
  6
Continuous
 62
     7
100
AcDbLine
 10
56.6340674628
 20
112.85
 30
0.0
 11
56.6340674628
 21
114.85
 31
0.0
  0
LINE
  5
1B5
330
18D
100
AcDbEntity
  8
DV3_Standard
  6
Continuous
 62
     7
100
AcDbLine
 10
56.6340674628
 20
114.85
 30
0.0
 11
54.35
 21
114.85
 31
0.0
  0
LINE
  5
1B6
330
18D
100
AcDbEntity
  8
DV3_Standard
  6
Continuous
 62
     7
100
AcDbLine
 10
54.35
 20
114.85
 30
0.0
 11
54.35
 21
116.35
 31
0.0
  0
ELLIPSE
  5
1B7
330
18D
100
AcDbEntity
  8
DV3_Standard
  6
Continuous
 62
     7
100
AcDbEllipse
 10
31.85
 20
122.35
 30
0.0
 11
25.49999999999482
 21
2.151057110211241E-12
 31
0.0
210
0.0
220
0.0
230
1.0
 40
0.5
 41
-0.7297276562270785
 42
-0.4899573262538111
  0
ELLIPSE
  5
1B8
330
18D
100
AcDbEntity
  8
DV3_Standard
  6
Continuous
 62
     7
100
AcDbEllipse
 10
31.85
 20
105.35
 30
0.0
 11
25.49999999996805
 21
-1.276756478318930E-11
 31
0.0
210
0.0
220
0.0
230
1.0
 40
0.5
 41
0.4899573262542441
 42
0.7297276562276603
  0
ELLIPSE
  5
1B9
330
18D
100
AcDbEntity
  8
DV3_Standard
  6
Continuous
 62
     7
100
AcDbEllipse
 10
31.8500000001
 20
122.35
 30
0.0
 11
-25.50000000006038
 21
-2.267630527796882E-11
 31
0.0
210
0.0
220
0.0
230
1.0
 40
0.5
 41
0.4899573262527762
 42
0.7297276562256753
  0
LINE
  5
1BA
330
18D
100
AcDbEntity
  8
DV3_Standard
  6
Continuous
 62
     7
100
AcDbLine
 10
9.35
 20
116.35
 30
0.0
 11
9.35
 21
114.85
 31
0.0
  0
LINE
  5
1BB
330
18D
100
AcDbEntity
  8
DV3_Standard
  6
Continuous
 62
     7
100
AcDbLine
 10
9.35
 20
114.85
 30
0.0
 11
7.0659325372
 21
114.85
 31
0.0
  0
LINE
  5
1BC
330
18D
100
AcDbEntity
  8
DV3_Standard
  6
Continuous
 62
     7
100
AcDbLine
 10
7.0659325372
 20
114.85
 30
0.0
 11
7.0659325372
 21
112.85
 31
0.0
  0
LINE
  5
1BD
330
18D
100
AcDbEntity
  8
DV3_Standard
  6
Continuous
 62
     7
100
AcDbLine
 10
7.0659325372
 20
112.85
 30
0.0
 11
9.35
 21
112.85
 31
0.0
  0
LINE
  5
1BE
330
18D
100
AcDbEntity
  8
DV3_Standard
  6
Continuous
 62
     7
100
AcDbLine
 10
9.35
 20
112.85
 30
0.0
 11
9.35
 21
111.35
 31
0.0
  0
ELLIPSE
  5
1BF
330
18D
100
AcDbEntity
  8
DV3_Standard
  6
Continuous
 62
     7
100
AcDbEllipse
 10
31.85
 20
105.35
 30
0.0
 11
-25.49999999999797
 21
-8.881784197001252E-13
 31
0.0
210
0.0
220
0.0
230
1.0
 40
0.5
 41
-0.7297276562270074
 42
-0.4899573262537587
  0
LINE
  5
1C0
330
18D
100
AcDbEntity
  8
DV3_Standard
  6
Continuous
 62
     7
100
AcDbLine
 10
6.354902432
 20
111.35
 30
0.0
 11
6.354902432
 21
113.6
 31
0.0
  0
ELLIPSE
  5
1C1
330
18D
100
AcDbEntity
  8
DV3_Standard
  6
Continuous
 62
     7
100
AcDbEllipse
 10
31.8500000002
 20
113.85
 30
0.0
 11
-25.50000000017685
 21
-1.228184220991579E-11
 31
0.0
210
0.0
220
0.0
230
1.0
 40
0.5
 41
0.019609099784169
 42
0.1973571095494471
  0
LINE
  5
1C2
330
18D
100
AcDbEntity
  8
DV3_Standard
  6
Continuous
 62
     7
100
AcDbLine
 10
6.8450004999
 20
111.35
 30
0.0
 11
6.8450004999
 21
116.35
 31
0.0
  0
ELLIPSE
  5
1C3
330
18D
100
AcDbEntity
  8
DV3_Standard
  6
Continuous
 62
     7
100
AcDbEllipse
 10
31.8499999998
 20
113.85
 30
0.0
 11
25.49999999977055
 21
1.597333376679444E-11
 31
0.0
210
0.0
220
0.0
230
1.0
 40
0.5
 41
2.944235544038215
 42
3.141592653589793
  0
LINE
  5
1C4
330
18D
100
AcDbEntity
  8
DV3_Standard
  6
Continuous
 62
     7
100
AcDbLine
 10
6.4285523622
 20
110.35
 30
0.0
 11
6.35
 21
110.35
 31
0.0
  0
LINE
  5
1C5
330
18D
100
AcDbEntity
  8
DV3_Standard
  6
Continuous
 62
     7
100
AcDbLine
 10
6.4285523622
 20
110.35
 30
0.0
 11
6.4285523622
 21
111.35
 31
0.0
  0
LINE
  5
1C6
330
18D
100
AcDbEntity
  8
DV3_Standard
  6
Continuous
 62
     7
100
AcDbLine
 10
6.4285523622
 20
111.35
 30
0.0
 11
6.354902432
 21
111.35
 31
0.0
  0
LINE
  5
1C7
330
18D
100
AcDbEntity
  8
DV3_Standard
  6
Continuous
 62
     7
100
AcDbLine
 10
55.7877581961
 20
124.85
 30
0.0
 11
53.85
 21
198.85
 31
0.0
  0
LINE
  5
1C8
330
18D
100
AcDbEntity
  8
DV3_Standard
  6
Continuous
 62
     7
100
AcDbLine
 10
9.85
 20
198.85
 30
0.0
 11
7.9122418039
 21
124.85
 31
0.0
  0
LINE
  5
1C9
330
18D
100
AcDbEntity
  8
DV3_Standard
  6
Continuous
 62
     7
100
AcDbLine
 10
6.55
 20
110.35
 30
0.0
 11
6.55
 21
106.35
 31
0.0
  0
LINE
  5
1CA
330
18D
100
AcDbEntity
  8
DV3_Standard
  6
Continuous
 62
     7
100
AcDbLine
 10
6.55
 20
124.85
 30
0.0
 11
6.55
 21
115.4437377451
 31
0.0
  0
LINE
  5
1CB
330
18D
100
AcDbEntity
  8
DV3_Standard
  6
Continuous
 62
     7
100
AcDbLine
 10
57.15
 20
115.4437377451
 30
0.0
 11
57.15
 21
124.85
 31
0.0
  0
LINE
  5
1CC
330
18D
100
AcDbEntity
  8
DV3_Standard
  6
Continuous
 62
     7
100
AcDbLine
 10
57.15
 20
106.35
 30
0.0
 11
57.15
 21
110.35
 31
0.0
  0
LINE
  5
1CD
330
18D
100
AcDbEntity
  8
DV3_Standard
  6
Continuous
 62
     7
100
AcDbLine
 10
6.35
 20
113.85
 30
0.0
 11
6.35
 21
110.35
 31
0.0
  0
LINE
  5
1CE
330
18D
100
AcDbEntity
  8
DV3_Standard
  6
Continuous
 62
     7
100
AcDbLine
 10
57.35
 20
110.35
 30
0.0
 11
57.35
 21
113.85
 31
0.0
  0
LINE
  5
1CF
330
18D
100
AcDbEntity
  8
DV3_Standard
  6
Continuous
 62
     7
100
AcDbLine
 10
31.85
 20
233.7479170099
 30
0.0
 11
31.85
 21
233.4384572681
 31
0.0
  0
LINE
  5
1D0
330
18D
100
AcDbEntity
  8
DV3_Standard
  6
Continuous
 62
     7
100
AcDbLine
 10
45.15
 20
204.3638920794
 30
0.0
 11
45.1499994913
 21
209.9347496741
 31
0.0
  0
LINE
  5
1D1
330
18D
100
AcDbEntity
  8
DV3_Standard
  6
Continuous
 62
     7
100
AcDbLine
 10
18.55
 20
204.3638920389
 30
0.0
 11
18.5500005087
 21
209.9347364272
 31
0.0
  0
ARC
  5
1D2
330
18D
100
AcDbEntity
  8
DV3_Standard
  6
Continuous
 62
     7
100
AcDbCircle
 10
26.55
 20
225.5612600018
 30
0.0
 40
7.999999999999969
100
AcDbArc
 50
101.804191125
 51
178.5540968146
  0
ARC
  5
1D3
330
18D
100
AcDbEntity
  8
DV3_Standard
  6
Continuous
 62
     7
100
AcDbCircle
 10
26.55
 20
225.5612600018
 30
0.0
 40
7.999999999995273
100
AcDbArc
 50
93.0
 51
101.804191125
  0
LINE
  5
1D4
330
18D
100
AcDbEntity
  8
DV3_Standard
  6
Continuous
 62
     7
100
AcDbLine
 10
18.55
 20
204.3638675591
 30
0.0
 11
18.55
 21
198.8410063483
 31
0.0
  0
LINE
  5
1D5
330
18D
100
AcDbEntity
  8
DV3_Standard
  6
Continuous
 62
     7
100
AcDbLine
 10
26.1313123501
 20
233.5502962799
 30
0.0
 11
31.85
 21
233.85
 31
0.0
  0
ARC
  5
1D6
330
18D
100
AcDbEntity
  8
DV3_Standard
  6
Continuous
 62
     7
100
AcDbCircle
 10
37.15
 20
225.5612600018
 30
0.0
 40
7.999999999999962
100
AcDbArc
 50
1.4458932842
 51
78.195808875
  0
ARC
  5
1D7
330
18D
100
AcDbEntity
  8
DV3_Standard
  6
Continuous
 62
     7
100
AcDbCircle
 10
31.0852684918
 20
233.798958505
 30
0.0
 40
0.7664329806780358
100
AcDbArc
 50
356.1814948806
 51
3.8185051194
  0
LINE
  5
1D8
330
18D
100
AcDbEntity
  8
DV3_Standard
  6
Continuous
 62
     7
100
AcDbLine
 10
37.5686876499
 20
233.5502962799
 30
0.0
 11
31.85
 21
233.85
 31
0.0
  0
ARC
  5
1D9
330
18D
100
AcDbEntity
  8
DV3_Standard
  6
Continuous
 62
     7
100
AcDbCircle
 10
37.149574005
 20
225.5579809612
 30
0.0
 40
8.003296845700543
100
AcDbArc
 50
78.1976258307
 51
86.9981830442
  0
LINE
  5
1DA
330
18D
100
AcDbEntity
  8
DV3_Standard
  6
Continuous
 62
     7
100
AcDbLine
 10
45.15
 20
204.3638675591
 30
0.0
 11
45.15
 21
198.8410063483
 31
0.0
  0
LINE
  5
1DB
330
18D
100
AcDbEntity
  8
DV3_Standard
  6
Continuous
 62
     7
100
AcDbLine
 10
18.35
 20
215.3486936046
 30
0.0
 11
17.95
 21
215.3486936046
 31
0.0
  0
LINE
  5
1DC
330
18D
100
AcDbEntity
  8
DV3_Standard
  6
Continuous
 62
     7
100
AcDbLine
 10
18.35
 20
217.3032275501
 30
0.0
 11
17.95
 21
217.3032275501
 31
0.0
  0
LINE
  5
1DD
330
18D
100
AcDbEntity
  8
DV3_Standard
  6
Continuous
 62
     7
100
AcDbLine
 10
18.35
 20
217.848713049
 30
0.0
 11
17.95
 21
217.848713049
 31
0.0
  0
LINE
  5
1DE
330
18D
100
AcDbEntity
  8
DV3_Standard
  6
Continuous
 62
     7
100
AcDbLine
 10
18.35
 20
218.3941604281
 30
0.0
 11
17.95
 21
218.3941604281
 31
0.0
  0
LINE
  5
1DF
330
18D
100
AcDbEntity
  8
DV3_Standard
  6
Continuous
 62
     7
100
AcDbLine
 10
18.35
 20
220.3486936046
 30
0.0
 11
17.95
 21
220.3486936046
 31
0.0
  0
LINE
  5
1E0
330
18D
100
AcDbEntity
  8
DV3_Standard
  6
Continuous
 62
     7
100
AcDbLine
 10
17.95
 20
215.3486936046
 30
0.0
 11
17.95
 21
215.3927693981
 31
0.0
  0
LINE
  5
1E1
330
18D
100
AcDbEntity
  8
DV3_Standard
  6
Continuous
 62
     7
100
AcDbLine
 10
17.95
 20
215.3927693981
 30
0.0
 11
17.95
 21
215.521083984
 31
0.0
  0
LINE
  5
1E2
330
18D
100
AcDbEntity
  8
DV3_Standard
  6
Continuous
 62
     7
100
AcDbLine
 10
17.95
 20
215.521083984
 30
0.0
 11
17.95
 21
215.6320340749
 31
0.0
  0
LINE
  5
1E3
330
18D
100
AcDbEntity
  8
DV3_Standard
  6
Continuous
 62
     7
100
AcDbLine
 10
17.95
 20
215.6749131209
 30
0.0
 11
17.95
 21
215.6320340749
 31
0.0
  0
LINE
  5
1E4
330
18D
100
AcDbEntity
  8
DV3_Standard
  6
Continuous
 62
     7
100
AcDbLine
 10
17.95
 20
215.6749131209
 30
0.0
 11
17.95
 21
217.3032275501
 31
0.0
  0
LINE
  5
1E5
330
18D
100
AcDbEntity
  8
DV3_Standard
  6
Continuous
 62
     7
100
AcDbLine
 10
17.95
 20
217.3032275501
 30
0.0
 11
17.95
 21
217.848713049
 31
0.0
  0
LINE
  5
1E6
330
18D
100
AcDbEntity
  8
DV3_Standard
  6
Continuous
 62
     7
100
AcDbLine
 10
17.95
 20
217.848713049
 30
0.0
 11
17.95
 21
218.3941604281
 31
0.0
  0
LINE
  5
1E7
330
18D
100
AcDbEntity
  8
DV3_Standard
  6
Continuous
 62
     7
100
AcDbLine
 10
17.95
 20
218.3941604281
 30
0.0
 11
17.95
 21
220.0224745179
 31
0.0
  0
LINE
  5
1E8
330
18D
100
AcDbEntity
  8
DV3_Standard
  6
Continuous
 62
     7
100
AcDbLine
 10
17.95
 20
220.0653535639
 30
0.0
 11
17.95
 21
220.0224745179
 31
0.0
  0
LINE
  5
1E9
330
18D
100
AcDbEntity
  8
DV3_Standard
  6
Continuous
 62
     7
100
AcDbLine
 10
17.95
 20
220.0653535639
 30
0.0
 11
17.95
 21
220.1763593236
 31
0.0
  0
LINE
  5
1EA
330
18D
100
AcDbEntity
  8
DV3_Standard
  6
Continuous
 62
     7
100
AcDbLine
 10
17.95
 20
220.1763593236
 30
0.0
 11
17.95
 21
220.3032298124
 31
0.0
  0
LINE
  5
1EB
330
18D
100
AcDbEntity
  8
DV3_Standard
  6
Continuous
 62
     7
100
AcDbLine
 10
17.95
 20
220.3032298124
 30
0.0
 11
17.95
 21
220.3486936046
 31
0.0
  0
CIRCLE
  5
1EC
330
18D
100
AcDbEntity
  8
DV3_Standard
  6
Continuous
 62
     7
100
AcDbCircle
 10
31.85
 20
217.85
 30
0.0
 40
7.874015748031501
  0
LINE
  5
1ED
330
18D
100
AcDbEntity
  8
DV3_Standard
  6
Continuous
 62
     7
100
AcDbLine
 10
21.8608119404
 20
227.6711968529
 30
0.0
 11
28.3391880596
 21
231.4114890493
 31
0.0
  0
LINE
  5
1EE
330
18D
100
AcDbEntity
  8
DV3_Standard
  6
Continuous
 62
     7
100
AcDbLine
 10
21.8608119404
 20
227.6711968529
 30
0.0
 11
18.35
 21
225.6442286341
 31
0.0
  0
LINE
  5
1EF
330
18D
100
AcDbEntity
  8
DV3_Standard
  6
Continuous
 62
     7
100
AcDbLine
 10
31.85
 20
233.4384572681
 30
0.0
 11
28.3391880596
 21
231.4114890493
 31
0.0
  0
LINE
  5
1F0
330
18D
100
AcDbEntity
  8
DV3_Standard
  6
Continuous
 62
     7
100
AcDbLine
 10
18.35
 20
214.1097078036
 30
0.0
 11
18.35
 21
221.5902921964
 31
0.0
  0
LINE
  5
1F1
330
18D
100
AcDbEntity
  8
DV3_Standard
  6
Continuous
 62
     7
100
AcDbLine
 10
28.3391880596
 20
204.2885109507
 30
0.0
 11
21.8608119404
 21
208.0288031471
 31
0.0
  0
LINE
  5
1F2
330
18D
100
AcDbEntity
  8
DV3_Standard
  6
Continuous
 62
     7
100
AcDbLine
 10
41.8391880596
 20
208.0288031471
 30
0.0
 11
35.3608119404
 21
204.2885109507
 31
0.0
  0
LINE
  5
1F3
330
18D
100
AcDbEntity
  8
DV3_Standard
  6
Continuous
 62
     7
100
AcDbLine
 10
45.35
 20
221.5902921964
 30
0.0
 11
45.35
 21
214.1097078036
 31
0.0
  0
LINE
  5
1F4
330
18D
100
AcDbEntity
  8
DV3_Standard
  6
Continuous
 62
     7
100
AcDbLine
 10
35.3608119404
 20
231.4114890493
 30
0.0
 11
41.8391880596
 21
227.6711968529
 31
0.0
  0
ARC
  5
1F5
330
18D
100
AcDbEntity
  8
DV3_Standard
  6
Continuous
 62
     7
100
AcDbCircle
 10
31.85
 20
217.85
 30
0.0
 40
14.0085611578851
100
AcDbArc
 50
15.485854085
 51
44.514145915
  0
ARC
  5
1F6
330
18D
100
AcDbEntity
  8
DV3_Standard
  6
Continuous
 62
     7
100
AcDbCircle
 10
31.85
 20
217.85
 30
0.0
 40
14.00856115788511
100
AcDbArc
 50
315.485854085
 51
344.514145915
  0
ARC
  5
1F7
330
18D
100
AcDbEntity
  8
DV3_Standard
  6
Continuous
 62
     7
100
AcDbCircle
 10
31.85
 20
217.85
 30
0.0
 40
14.00856115788511
100
AcDbArc
 50
255.485854085
 51
284.514145915
  0
ARC
  5
1F8
330
18D
100
AcDbEntity
  8
DV3_Standard
  6
Continuous
 62
     7
100
AcDbCircle
 10
31.85
 20
217.85
 30
0.0
 40
14.0085611578851
100
AcDbArc
 50
195.485854085
 51
224.514145915
  0
ARC
  5
1F9
330
18D
100
AcDbEntity
  8
DV3_Standard
  6
Continuous
 62
     7
100
AcDbCircle
 10
31.85
 20
217.85
 30
0.0
 40
14.00856115788511
100
AcDbArc
 50
75.485854085
 51
104.514145915
  0
ARC
  5
1FA
330
18D
100
AcDbEntity
  8
DV3_Standard
  6
Continuous
 62
     7
100
AcDbCircle
 10
31.85
 20
217.85
 30
0.0
 40
14.00856115788512
100
AcDbArc
 50
135.485854085
 51
164.514145915
  0
LINE
  5
1FB
330
18D
100
AcDbEntity
  8
DV3_Standard
  6
Continuous
 62
     7
100
AcDbLine
 10
45.35
 20
221.5902921964
 30
0.0
 11
45.35
 21
225.6442286341
 31
0.0
  0
LINE
  5
1FC
330
18D
100
AcDbEntity
  8
DV3_Standard
  6
Continuous
 62
     7
100
AcDbLine
 10
45.35
 20
225.6442286341
 30
0.0
 11
41.8391880596
 21
227.6711968529
 31
0.0
  0
LINE
  5
1FD
330
18D
100
AcDbEntity
  8
DV3_Standard
  6
Continuous
 62
     7
100
AcDbLine
 10
41.8391880596
 20
208.0288031471
 30
0.0
 11
45.35
 21
210.0557713659
 31
0.0
  0
LINE
  5
1FE
330
18D
100
AcDbEntity
  8
DV3_Standard
  6
Continuous
 62
     7
100
AcDbLine
 10
45.35
 20
210.0557713659
 30
0.0
 11
45.35
 21
214.1097078036
 31
0.0
  0
LINE
  5
1FF
330
18D
100
AcDbEntity
  8
DV3_Standard
  6
Continuous
 62
     7
100
AcDbLine
 10
28.3391880596
 20
204.2885109507
 30
0.0
 11
31.85
 21
202.2615427319
 31
0.0
  0
LINE
  5
200
330
18D
100
AcDbEntity
  8
DV3_Standard
  6
Continuous
 62
     7
100
AcDbLine
 10
31.85
 20
202.2615427319
 30
0.0
 11
35.3608119404
 21
204.2885109507
 31
0.0
  0
LINE
  5
201
330
18D
100
AcDbEntity
  8
DV3_Standard
  6
Continuous
 62
     7
100
AcDbLine
 10
18.35
 20
214.1097078036
 30
0.0
 11
18.35
 21
210.0557713659
 31
0.0
  0
LINE
  5
202
330
18D
100
AcDbEntity
  8
DV3_Standard
  6
Continuous
 62
     7
100
AcDbLine
 10
18.35
 20
210.0557713659
 30
0.0
 11
21.8608119404
 21
208.0288031471
 31
0.0
  0
LINE
  5
203
330
18D
100
AcDbEntity
  8
DV3_Standard
  6
Continuous
 62
     7
100
AcDbLine
 10
35.3608119404
 20
231.4114890493
 30
0.0
 11
31.85
 21
233.4384572681
 31
0.0
  0
LINE
  5
204
330
18D
100
AcDbEntity
  8
DV3_Standard
  6
Continuous
 62
     7
100
AcDbLine
 10
18.35
 20
225.6442286341
 30
0.0
 11
18.35
 21
221.5902921964
 31
0.0
  0
LINE
  5
205
330
18D
100
AcDbEntity
  8
DV3_Standard
  6
Continuous
 62
     7
100
AcDbLine
 10
17.95
 20
215.6320340749
 30
0.0
 11
18.35
 21
215.6320340749
 31
0.0
  0
LINE
  5
206
330
18D
100
AcDbEntity
  8
DV3_Standard
  6
Continuous
 62
     7
100
AcDbLine
 10
18.35
 20
220.0653535639
 30
0.0
 11
17.95
 21
220.0653535639
 31
0.0
  0
ENDBLK
  5
208
330
18D
100
AcDbEntity
  8
0
100
AcDbBlockEnd
  0
ENDSEC
  0
SECTION
  2
ENTITIES
  0
INSERT
  5
5F
330
1F
100
AcDbEntity
  8
Default
100
AcDbBlockReference
  2
SEANNOT_GROUP
 10
0.0
 20
0.0
 30
0.0
  0
INSERT
  5
66
330
1F
100
AcDbEntity
  8
Default
100
AcDbBlockReference
  2
SEANNOT_GROUP1
 10
0.0
 20
0.0
 30
0.0
  0
INSERT
  5
6C
330
1F
100
AcDbEntity
  8
Default
100
AcDbBlockReference
  2
SEANNOT_GROUP2
 10
0.0
 20
0.0
 30
0.0
  0
INSERT
  5
72
330
1F
100
AcDbEntity
  8
Default
100
AcDbBlockReference
  2
SEANNOT_GROUP3
 10
0.0
 20
0.0
 30
0.0
  0
INSERT
  5
78
330
1F
100
AcDbEntity
  8
Default
100
AcDbBlockReference
  2
SEANNOT_GROUP4
 10
0.0
 20
0.0
 30
0.0
  0
INSERT
  5
7E
330
1F
100
AcDbEntity
  8
Default
100
AcDbBlockReference
  2
SEANNOT_GROUP5
 10
0.0
 20
0.0
 30
0.0
  0
INSERT
  5
84
330
1F
100
AcDbEntity
  8
Default
100
AcDbBlockReference
  2
SEANNOT_GROUP6
 10
0.0
 20
0.0
 30
0.0
  0
INSERT
  5
8A
330
1F
100
AcDbEntity
  8
Default
100
AcDbBlockReference
  2
SEANNOT_GROUP7
 10
0.0
 20
0.0
 30
0.0
  0
INSERT
  5
90
330
1F
100
AcDbEntity
  8
Default
100
AcDbBlockReference
  2
SE
 10
0.0
 20
0.0
 30
0.0
  0
INSERT
  5
F4
330
1F
100
AcDbEntity
  8
Default
100
AcDbBlockReference
  2
SE1
 10
0.0
 20
0.0
 30
0.0
  0
INSERT
  5
18E
330
1F
100
AcDbEntity
  8
Default
100
AcDbBlockReference
  2
SE2
 10
0.0
 20
0.0
 30
0.0
  0
TEXT
  5
20A
330
1F
100
AcDbEntity
  8
Default
  6
Continuous
 62
     7
100
AcDbText
 10
5.9362635081
 20
53.4225120485
 30
0.0
 40
10.0
  1
Grohe AG^J
  7
SEACAD_seiso_ttf
 11
5.9362635081
 21
63.4225120485
 31
0.0
100
AcDbText
 73
     3
  0
TEXT
  5
20B
330
1F
100
AcDbEntity
  8
Default
  6
Continuous
 62
     7
100
AcDbText
 10
5.9362635081
 20
37.0588756849
 30
0.0
 40
10.0
  1
 
  7
SEACAD_seiso_ttf
 11
5.9362635081
 21
47.0588756849
 31
0.0
100
AcDbText
 73
     3
  0
TEXT
  5
20C
330
1F
100
AcDbEntity
  8
Default
  6
Continuous
 62
     7
100
AcDbText
 10
5.9362635081
 20
20.6952393213
 30
0.0
 40
10.0
  1
ecn: 
  7
SEACAD_seiso_ttf
 11
5.9362635081
 21
30.6952393213
 31
0.0
100
AcDbText
 73
     3
  0
TEXT
  5
20D
330
1F
100
AcDbEntity
  8
Default
  6
Continuous
 62
     7
100
AcDbText
 10
5.9362635081
 20
4.3316029576
 30
0.0
 40
10.0
  1
unit: mm
  7
SEACAD_seiso_ttf
 11
5.9362635081
 21
14.3316029576
 31
0.0
100
AcDbText
 73
     3
  0
LINE
  5
20E
330
1F
100
AcDbEntity
  8
Default
  6
Continuous
 62
     7
100
AcDbLine
 10
0.0
 20
0.0
 30
0.0
 11
100.0
 21
0.0
 31
0.0
  0
LINE
  5
20F
330
1F
100
AcDbEntity
  8
Default
  6
Continuous
 62
     7
100
AcDbLine
 10
0.0
 20
0.0
 30
0.0
 11
0.0
 21
100.0
 31
0.0
  0
TEXT
  5
210
330
1F
100
AcDbEntity
  8
Default
  6
Continuous
 62
     7
100
AcDbText
 10
24.3923665681
 20
-18.2375342018
 30
0.0
 40
10.0
  1
100 mm
  7
SEACAD_seiso_ttf
 11
24.3923665681
 21
-8.2375342018
 31
0.0
100
AcDbText
 73
     3
  0
TEXT
  5
211
330
1F
100
AcDbEntity
  8
Default
  6
Continuous
 62
     7
100
AcDbText
 10
-7.6150308803
 20
24.6231930421
 30
0.0
 40
10.0
  1
100 mm
 50
90.0
  7
SEACAD_seiso_ttf
 11
-17.6150308803
 21
24.6231930421
 31
0.0
100
AcDbText
 73
     3
  0
TEXT
  5
212
330
1F
100
AcDbEntity
  8
Default
  6
Continuous
 62
     7
100
AcDbText
 10
28.4878128572
 20
20.0907663715
 30
0.0
 40
10.0
  1
207609
  7
SEACAD_seiso_ttf
 11
28.4878128572
 21
30.0907663715
 31
0.0
100
AcDbText
 73
     3
  0
TEXT
  5
213
330
1F
100
AcDbEntity
  8
Default
  6
Continuous
 62
     7
100
AcDbText
 10
5.9012241913
 20
36.7242780188
 30
0.0
 40
10.0
  1
29273000
  7
SEACAD_seiso_ttf
 11
5.9012241913
 21
46.7242780188
 31
0.0
100
AcDbText
 73
     3
  0
ENDSEC
  0
SECTION
  2
OBJECTS
  0
DICTIONARY
  5
C
330
0
100
AcDbDictionary
281
     1
  3
ACAD_GROUP
350
D
  3
ACAD_LAYOUT
350
1A
  3
ACAD_MLEADERSTYLE
350
217
  3
ACAD_MLINESTYLE
350
17
  3
ACAD_PLOTSETTINGS
350
19
  3
ACAD_PLOTSTYLENAME
350
E
  3
ACAD_SCALELIST
350
3B
  3
ACAD_TABLESTYLE
350
216
  3
ACAD_VISUALSTYLE
350
2A
  3
AcDbVariableDictionary
350
214
  0
DICTIONARY
  5
D
102
{ACAD_REACTORS
330
C
102
}
330
C
100
AcDbDictionary
281
     1
  0
DICTIONARY
  5
1A
102
{ACAD_REACTORS
330
C
102
}
330
C
100
AcDbDictionary
281
     1
  3
Layout1
350
1E
  3
Model
350
22
  0
DICTIONARY
  5
217
102
{ACAD_REACTORS
330
C
102
}
330
C
100
AcDbDictionary
281
     1
  0
DICTIONARY
  5
17
102
{ACAD_REACTORS
330
C
102
}
330
C
100
AcDbDictionary
281
     1
  3
Standard
350
18
  0
DICTIONARY
  5
19
102
{ACAD_REACTORS
330
C
102
}
330
C
100
AcDbDictionary
281
     1
  0
ACDBDICTIONARYWDFLT
  5
E
102
{ACAD_REACTORS
330
C
102
}
330
C
100
AcDbDictionary
281
     1
  3
Normal
350
F
100
AcDbDictionaryWithDefault
340
F
  0
DICTIONARY
  5
3B
102
{ACAD_REACTORS
330
C
102
}
330
C
100
AcDbDictionary
281
     1
  3
A0
350
3C
  3
A1
350
3D
  3
A2
350
3E
  3
A3
350
3F
  3
A4
350
40
  3
A5
350
41
  3
A6
350
42
  3
A7
350
43
  3
A8
350
44
  3
A9
350
45
  3
B0
350
46
  3
B1
350
47
  3
B2
350
48
  3
B3
350
49
  3
B4
350
4A
  3
B5
350
4B
  3
B6
350
4C
  3
B7
350
4D
  3
B8
350
4E
  3
B9
350
4F
  3
C0
350
50
  3
C1
350
51
  3
C2
350
52
  3
C3
350
53
  3
C4
350
54
  3
C5
350
55
  3
C6
350
56
  3
C7
350
57
  3
C8
350
58
  3
C9
350
59
  3
D0
350
5A
  3
D1
350
5B
  3
D2
350
5C
  0
DICTIONARY
  5
216
102
{ACAD_REACTORS
330
C
102
}
330
C
100
AcDbDictionary
281
     1
  0
DICTIONARY
  5
2A
102
{ACAD_REACTORS
330
C
102
}
330
C
100
AcDbDictionary
281
     1
  3
2dWireframe
350
2F
  3
3D Hidden
350
31
  3
3dWireframe
350
30
  3
Basic
350
32
  3
Brighten
350
36
  3
ColorChange
350
3A
  3
Conceptual
350
34
  3
Dim
350
35
  3
Facepattern
350
39
  3
Flat
350
2B
  3
FlatWithEdges
350
2C
  3
Gouraud
350
2D
  3
GouraudWithEdges
350
2E
  3
Linepattern
350
38
  3
Realistic
350
33
  3
Thicken
350
37
  0
DICTIONARY
  5
214
102
{ACAD_REACTORS
330
C
102
}
330
C
100
AcDbDictionary
281
     1
  3
CANNOSCALE
350
215
  3
PSOLHEIGHT
350
219
  3
PSOLWIDTH
350
218
  0
LAYOUT
  5
1E
102
{ACAD_REACTORS
330
1A
102
}
330
1A
100
AcDbPlotSettings
  1

  2
none_device
  4

  6

 40
0.0
 41
0.0
 42
0.0
 43
0.0
 44
0.0
 45
0.0
 46
0.0
 47
0.0
 48
0.0
 49
0.0
140
0.0
141
0.0
142
1.0
143
1.0
 70
   688
 72
     0
 73
     0
 74
     5
  7

 75
    16
147
1.0
148
0.0
149
0.0
100
AcDbLayout
  1
Layout1
 70
     1
 71
     1
 10
0.0
 20
0.0
 11
1682.0
 21
2378.0
 12
0.0
 22
0.0
 32
0.0
 14
0.0
 24
0.0
 34
0.0
 15
1682.0
 25
2378.0
 35
0.0
146
0.0
 13
0.0
 23
0.0
 33
0.0
 16
1.0
 26
0.0
 36
0.0
 17
0.0
 27
1.0
 37
0.0
 76
     0
330
1B
  0
LAYOUT
  5
22
102
{ACAD_REACTORS
330
1A
102
}
330
1A
100
AcDbPlotSettings
  1

  2
none_device
  4

  6

 40
0.0
 41
0.0
 42
0.0
 43
0.0
 44
0.0
 45
0.0
 46
0.0
 47
0.0
 48
0.0
 49
0.0
140
0.0
141
0.0
142
1.0
143
1.0
 70
  1712
 72
     0
 73
     0
 74
     0
  7

 75
     0
147
1.0
148
0.0
149
0.0
100
AcDbLayout
  1
Model
 70
     1
 71
     0
 10
0.0
 20
0.0
 11
1682.0
 21
2378.0
 12
0.0
 22
0.0
 32
0.0
 14
0.0
 24
0.0
 34
0.0
 15
1682.0
 25
2378.0
 35
0.0
146
0.0
 13
0.0
 23
0.0
 33
0.0
 16
1.0
 26
0.0
 36
0.0
 17
0.0
 27
1.0
 37
0.0
 76
     0
330
1F
331
29
  0
MLINESTYLE
  5
18
102
{ACAD_REACTORS
330
17
102
}
330
17
100
AcDbMlineStyle
  2
Standard
 70
     0
  3

 62
   256
 51
90.0
 52
90.0
 71
     2
 49
0.5
 62
   256
  6
BYLAYER
 49
-0.5
 62
   256
  6
BYLAYER
  0
ACDBPLACEHOLDER
  5
F
102
{ACAD_REACTORS
330
E
102
}
330
E
  0
SCALE
  5
3C
102
{ACAD_REACTORS
330
3B
102
}
330
3B
100
AcDbScale
 70
     0
300
1:1
140
1.0
141
1.0
290
     1
  0
SCALE
  5
3D
102
{ACAD_REACTORS
330
3B
102
}
330
3B
100
AcDbScale
 70
     0
300
1:2
140
1.0
141
2.0
290
     0
  0
SCALE
  5
3E
102
{ACAD_REACTORS
330
3B
102
}
330
3B
100
AcDbScale
 70
     0
300
1:4
140
1.0
141
4.0
290
     0
  0
SCALE
  5
3F
102
{ACAD_REACTORS
330
3B
102
}
330
3B
100
AcDbScale
 70
     0
300
1:5
140
1.0
141
5.0
290
     0
  0
SCALE
  5
40
102
{ACAD_REACTORS
330
3B
102
}
330
3B
100
AcDbScale
 70
     0
300
1:8
140
1.0
141
8.0
290
     0
  0
SCALE
  5
41
102
{ACAD_REACTORS
330
3B
102
}
330
3B
100
AcDbScale
 70
     0
300
1:10
140
1.0
141
10.0
290
     0
  0
SCALE
  5
42
102
{ACAD_REACTORS
330
3B
102
}
330
3B
100
AcDbScale
 70
     0
300
1:16
140
1.0
141
16.0
290
     0
  0
SCALE
  5
43
102
{ACAD_REACTORS
330
3B
102
}
330
3B
100
AcDbScale
 70
     0
300
1:20
140
1.0
141
20.0
290
     0
  0
SCALE
  5
44
102
{ACAD_REACTORS
330
3B
102
}
330
3B
100
AcDbScale
 70
     0
300
1:30
140
1.0
141
30.0
290
     0
  0
SCALE
  5
45
102
{ACAD_REACTORS
330
3B
102
}
330
3B
100
AcDbScale
 70
     0
300
1:40
140
1.0
141
40.0
290
     0
  0
SCALE
  5
46
102
{ACAD_REACTORS
330
3B
102
}
330
3B
100
AcDbScale
 70
     0
300
1:50
140
1.0
141
50.0
290
     0
  0
SCALE
  5
47
102
{ACAD_REACTORS
330
3B
102
}
330
3B
100
AcDbScale
 70
     0
300
1:100
140
1.0
141
100.0
290
     0
  0
SCALE
  5
48
102
{ACAD_REACTORS
330
3B
102
}
330
3B
100
AcDbScale
 70
     0
300
2:1
140
2.0
141
1.0
290
     0
  0
SCALE
  5
49
102
{ACAD_REACTORS
330
3B
102
}
330
3B
100
AcDbScale
 70
     0
300
4:1
140
4.0
141
1.0
290
     0
  0
SCALE
  5
4A
102
{ACAD_REACTORS
330
3B
102
}
330
3B
100
AcDbScale
 70
     0
300
8:1
140
8.0
141
1.0
290
     0
  0
SCALE
  5
4B
102
{ACAD_REACTORS
330
3B
102
}
330
3B
100
AcDbScale
 70
     0
300
10:1
140
10.0
141
1.0
290
     0
  0
SCALE
  5
4C
102
{ACAD_REACTORS
330
3B
102
}
330
3B
100
AcDbScale
 70
     0
300
100:1
140
100.0
141
1.0
290
     0
  0
SCALE
  5
4D
102
{ACAD_REACTORS
330
3B
102
}
330
3B
100
AcDbScale
 70
     0
300
1/128" = 1'-0"
140
0.0078125
141
12.0
290
     0
  0
SCALE
  5
4E
102
{ACAD_REACTORS
330
3B
102
}
330
3B
100
AcDbScale
 70
     0
300
1/64" = 1'-0"
140
0.015625
141
12.0
290
     0
  0
SCALE
  5
4F
102
{ACAD_REACTORS
330
3B
102
}
330
3B
100
AcDbScale
 70
     0
300
1/32" = 1'-0"
140
0.03125
141
12.0
290
     0
  0
SCALE
  5
50
102
{ACAD_REACTORS
330
3B
102
}
330
3B
100
AcDbScale
 70
     0
300
1/16" = 1'-0"
140
0.0625
141
12.0
290
     0
  0
SCALE
  5
51
102
{ACAD_REACTORS
330
3B
102
}
330
3B
100
AcDbScale
 70
     0
300
3/32" = 1'-0"
140
0.09375
141
12.0
290
     0
  0
SCALE
  5
52
102
{ACAD_REACTORS
330
3B
102
}
330
3B
100
AcDbScale
 70
     0
300
1/8" = 1'-0"
140
0.125
141
12.0
290
     0
  0
SCALE
  5
53
102
{ACAD_REACTORS
330
3B
102
}
330
3B
100
AcDbScale
 70
     0
300
3/16" = 1'-0"
140
0.1875
141
12.0
290
     0
  0
SCALE
  5
54
102
{ACAD_REACTORS
330
3B
102
}
330
3B
100
AcDbScale
 70
     0
300
1/4" = 1'-0"
140
0.25
141
12.0
290
     0
  0
SCALE
  5
55
102
{ACAD_REACTORS
330
3B
102
}
330
3B
100
AcDbScale
 70
     0
300
3/8" = 1'-0"
140
0.375
141
12.0
290
     0
  0
SCALE
  5
56
102
{ACAD_REACTORS
330
3B
102
}
330
3B
100
AcDbScale
 70
     0
300
1/2" = 1'-0"
140
0.5
141
12.0
290
     0
  0
SCALE
  5
57
102
{ACAD_REACTORS
330
3B
102
}
330
3B
100
AcDbScale
 70
     0
300
3/4" = 1'-0"
140
0.75
141
12.0
290
     0
  0
SCALE
  5
58
102
{ACAD_REACTORS
330
3B
102
}
330
3B
100
AcDbScale
 70
     0
300
1" = 1'-0"
140
1.0
141
12.0
290
     0
  0
SCALE
  5
59
102
{ACAD_REACTORS
330
3B
102
}
330
3B
100
AcDbScale
 70
     0
300
1-1/2" = 1'-0"
140
1.5
141
12.0
290
     0
  0
SCALE
  5
5A
102
{ACAD_REACTORS
330
3B
102
}
330
3B
100
AcDbScale
 70
     0
300
3" = 1'-0"
140
3.0
141
12.0
290
     0
  0
SCALE
  5
5B
102
{ACAD_REACTORS
330
3B
102
}
330
3B
100
AcDbScale
 70
     0
300
6" = 1'-0"
140
6.0
141
12.0
290
     0
  0
SCALE
  5
5C
102
{ACAD_REACTORS
330
3B
102
}
330
3B
100
AcDbScale
 70
     0
300
1'-0" = 1'-0"
140
12.0
141
12.0
290
     0
  0
VISUALSTYLE
  5
2F
102
{ACAD_REACTORS
330
2A
102
}
330
2A
100
AcDbVisualStyle
  2
2dWireframe
 70
     4
 71
     0
 72
     2
 73
     0
 90
        0
 40
-0.6
 41
-30.0
 62
     5
 63
     7
 74
     1
 91
        4
 64
     7
 65
   257
 75
     1
175
     1
 42
1.0
 92
        0
 66
   257
 43
1.0
 76
     1
 77
     6
 78
     2
 67
     7
 79
     5
170
     0
171
     0
290
     0
174
     0
 93
        1
 44
0.0
173
     0
291
     0
 45
0.0
1001
ACAD
1000
AcDbSavedByObjectVersion
1070
     0
  0
VISUALSTYLE
  5
31
102
{ACAD_REACTORS
330
2A
102
}
330
2A
100
AcDbVisualStyle
  2
3D Hidden
 70
     6
 71
     1
 72
     2
 73
     2
 90
        0
 40
-0.6
 41
-30.0
 62
     5
 63
     7
 74
     2
 91
        2
 64
     7
 65
   257
 75
     2
175
     1
 42
40.0
 92
        0
 66
   257
 43
1.0
 76
     1
 77
     6
 78
     2
 67
     7
 79
     3
170
     0
171
     0
290
     0
174
     0
 93
        1
 44
0.0
173
     0
291
     0
 45
0.0
1001
ACAD
1000
AcDbSavedByObjectVersion
1070
     0
  0
VISUALSTYLE
  5
30
102
{ACAD_REACTORS
330
2A
102
}
330
2A
100
AcDbVisualStyle
  2
3dWireframe
 70
     5
 71
     0
 72
     2
 73
     0
 90
        0
 40
-0.6
 41
-30.0
 62
     5
 63
     7
 74
     1
 91
        4
 64
     7
 65
   257
 75
     1
175
     1
 42
1.0
 92
        0
 66
   257
 43
1.0
 76
     1
 77
     6
 78
     2
 67
     7
 79
     5
170
     0
171
     0
290
     0
174
     0
 93
        1
 44
0.0
173
     0
291
     0
 45
0.0
1001
ACAD
1000
AcDbSavedByObjectVersion
1070
     0
  0
VISUALSTYLE
  5
32
102
{ACAD_REACTORS
330
2A
102
}
330
2A
100
AcDbVisualStyle
  2
Basic
 70
     7
 71
     1
 72
     0
 73
     1
 90
        0
 40
-0.6
 41
-30.0
 62
     5
 63
     7
 74
     0
 91
        4
 64
     7
 65
   257
 75
     1
175
     1
 42
1.0
 92
        8
 66
     7
 43
1.0
 76
     1
 77
     6
 78
     2
 67
     7
 79
     5
170
     0
171
     0
290
     0
174
     0
 93
        1
 44
0.0
173
     0
291
     1
 45
0.0
1001
ACAD
1000
AcDbSavedByObjectVersion
1070
     0
  0
VISUALSTYLE
  5
36
102
{ACAD_REACTORS
330
2A
102
}
330
2A
100
AcDbVisualStyle
  2
Brighten
 70
    12
 71
     2
 72
     2
 73
     0
 90
        0
 40
-0.6
 41
-30.0
 62
     5
 63
     7
 74
     1
 91
        4
 64
     7
 65
   257
 75
     1
175
     1
 42
1.0
 92
        8
 66
     7
 43
1.0
 76
     1
 77
     6
 78
     2
 67
     7
 79
     5
170
     0
171
     0
290
     0
174
     0
 93
        1
 44
50.0
173
     0
291
     1
 45
0.0
1001
ACAD
1000
AcDbSavedByObjectVersion
1070
     0
  0
VISUALSTYLE
  5
3A
102
{ACAD_REACTORS
330
2A
102
}
330
2A
100
AcDbVisualStyle
  2
ColorChange
 70
    16
 71
     2
 72
     2
 73
     3
 90
        0
 40
-0.6
 41
-30.0
 62
     5
 63
     8
 74
     1
 91
        4
 64
     7
 65
   257
 75
     1
175
     1
 42
1.0
 92
        8
 66
     8
 43
1.0
 76
     1
 77
     6
 78
     2
 67
     7
 79
     5
170
     0
171
     0
290
     0
174
     0
 93
        1
 44
0.0
173
     0
291
     1
 45
0.0
1001
ACAD
1000
AcDbSavedByObjectVersion
1070
     0
  0
VISUALSTYLE
  5
34
102
{ACAD_REACTORS
330
2A
102
}
330
2A
100
AcDbVisualStyle
  2
Conceptual
 70
     9
 71
     3
 72
     2
 73
     0
 90
        0
 40
-0.6
 41
-30.0
 62
     5
 63
     7
 74
     2
 91
        2
 64
     7
 65
   257
 75
     1
175
     1
 42
40.0
 92
        8
 66
     7
 43
1.0
 76
     1
 77
     6
 78
     2
 67
     7
 79
     3
170
     0
171
     0
290
     0
174
     0
 93
        1
 44
0.0
173
     0
291
     0
 45
0.0
1001
ACAD
1000
AcDbSavedByObjectVersion
1070
     0
  0
VISUALSTYLE
  5
35
102
{ACAD_REACTORS
330
2A
102
}
330
2A
100
AcDbVisualStyle
  2
Dim
 70
    11
 71
     2
 72
     2
 73
     0
 90
        0
 40
-0.6
 41
-30.0
 62
     5
 63
     7
 74
     1
 91
        4
 64
     7
 65
   257
 75
     1
175
     1
 42
1.0
 92
        8
 66
     7
 43
1.0
 76
     1
 77
     6
 78
     2
 67
     7
 79
     5
170
     0
171
     0
290
     0
174
     0
 93
        1
 44
-50.0
173
     0
291
     1
 45
0.0
1001
ACAD
1000
AcDbSavedByObjectVersion
1070
     0
  0
VISUALSTYLE
  5
39
102
{ACAD_REACTORS
330
2A
102
}
330
2A
100
AcDbVisualStyle
  2
Facepattern
 70
    15
 71
     2
 72
     2
 73
     0
 90
        0
 40
-0.6
 41
-30.0
 62
     5
 63
     7
 74
     1
 91
        4
 64
     7
 65
   257
 75
     1
175
     1
 42
1.0
 92
        8
 66
     7
 43
1.0
 76
     1
 77
     6
 78
     2
 67
     7
 79
     5
170
     0
171
     0
290
     0
174
     0
 93
        1
 44
0.0
173
     0
291
     1
 45
0.0
1001
ACAD
1000
AcDbSavedByObjectVersion
1070
     0
  0
VISUALSTYLE
  5
2B
102
{ACAD_REACTORS
330
2A
102
}
330
2A
100
AcDbVisualStyle
  2
Flat
 70
     0
 71
     2
 72
     1
 73
     1
 90
        2
 40
-0.6
 41
30.0
 62
     5
 63
     7
 74
     0
 91
        4
 64
     7
 65
   257
 75
     1
175
     1
 42
1.0
 92
        8
 66
     7
 43
1.0
 76
     1
 77
     6
 78
     2
 67
     7
 79
     5
170
     0
171
     0
290
     0
174
     0
 93
       13
 44
0.0
173
     0
291
     1
 45
0.0
1001
ACAD
1000
AcDbSavedByObjectVersion
1070
     0
  0
VISUALSTYLE
  5
2C
102
{ACAD_REACTORS
330
2A
102
}
330
2A
100
AcDbVisualStyle
  2
FlatWithEdges
 70
     1
 71
     2
 72
     1
 73
     1
 90
        2
 40
-0.6
 41
30.0
 62
     5
 63
     7
 74
     1
 91
        4
 64
     7
 65
   257
 75
     1
175
     1
 42
1.0
 92
        0
 66
   257
 43
1.0
 76
     1
 77
     6
 78
     2
 67
     7
 79
     5
170
     0
171
     0
290
     0
174
     0
 93
       13
 44
0.0
173
     0
291
     1
 45
0.0
1001
ACAD
1000
AcDbSavedByObjectVersion
1070
     0
  0
VISUALSTYLE
  5
2D
102
{ACAD_REACTORS
330
2A
102
}
330
2A
100
AcDbVisualStyle
  2
Gouraud
 70
     2
 71
     2
 72
     2
 73
     1
 90
        2
 40
-0.6
 41
30.0
 62
     5
 63
     7
 74
     0
 91
        4
 64
     7
 65
   257
 75
     1
175
     1
 42
1.0
 92
        0
 66
     7
 43
1.0
 76
     1
 77
     6
 78
     2
 67
     7
 79
     5
170
     0
171
     0
290
     0
174
     0
 93
       13
 44
0.0
173
     0
291
     1
 45
0.0
1001
ACAD
1000
AcDbSavedByObjectVersion
1070
     0
  0
VISUALSTYLE
  5
2E
102
{ACAD_REACTORS
330
2A
102
}
330
2A
100
AcDbVisualStyle
  2
GouraudWithEdges
 70
     3
 71
     2
 72
     2
 73
     1
 90
        2
 40
-0.6
 41
30.0
 62
     5
 63
     7
 74
     1
 91
        4
 64
     7
 65
   257
 75
     1
175
     1
 42
1.0
 92
        0
 66
   257
 43
1.0
 76
     1
 77
     6
 78
     2
 67
     7
 79
     5
170
     0
171
     0
290
     0
174
     0
 93
       13
 44
0.0
173
     0
291
     1
 45
0.0
1001
ACAD
1000
AcDbSavedByObjectVersion
1070
     0
  0
VISUALSTYLE
  5
38
102
{ACAD_REACTORS
330
2A
102
}
330
2A
100
AcDbVisualStyle
  2
Linepattern
 70
    14
 71
     2
 72
     2
 73
     0
 90
        0
 40
-0.6
 41
-30.0
 62
     5
 63
     7
 74
     1
 91
        4
 64
     7
 65
   257
 75
     7
175
     7
 42
1.0
 92
        8
 66
     7
 43
1.0
 76
     1
 77
     6
 78
     2
 67
     7
 79
     5
170
     0
171
     0
290
     0
174
     0
 93
        1
 44
0.0
173
     0
291
     1
 45
0.0
1001
ACAD
1000
AcDbSavedByObjectVersion
1070
     0
  0
VISUALSTYLE
  5
33
102
{ACAD_REACTORS
330
2A
102
}
330
2A
100
AcDbVisualStyle
  2
Realistic
 70
     8
 71
     2
 72
     2
 73
     0
 90
        0
 40
-0.6
 41
-30.0
 62
     5
 63
     7
 74
     1
 91
        0
 64
     7
 65
   257
 75
     1
175
     1
 42
1.0
 92
        8
 66
     8
 43
1.0
 76
     1
 77
     6
 78
     2
 67
     7
 79
     5
170
     0
171
     0
290
     0
174
     0
 93
       13
 44
0.0
173
     0
291
     0
 45
0.0
1001
ACAD
1000
AcDbSavedByObjectVersion
1070
     0
  0
VISUALSTYLE
  5
37
102
{ACAD_REACTORS
330
2A
102
}
330
2A
100
AcDbVisualStyle
  2
Thicken
 70
    13
 71
     2
 72
     2
 73
     0
 90
        0
 40
-0.6
 41
-30.0
 62
     5
 63
     7
 74
     1
 91
        4
 64
     7
 65
   257
 75
     1
175
     1
 42
1.0
 92
       12
 66
     7
 43
1.0
 76
     1
 77
     6
 78
     2
 67
     7
 79
     5
170
     0
171
     0
290
     0
174
     0
 93
        1
 44
0.0
173
     0
291
     1
 45
0.0
1001
ACAD
1000
AcDbSavedByObjectVersion
1070
     0
  0
DICTIONARYVAR
  5
215
102
{ACAD_REACTORS
330
214
102
}
330
214
100
DictionaryVariables
280
     0
  1
1:1
  0
DICTIONARYVAR
  5
219
102
{ACAD_REACTORS
330
214
102
}
330
214
100
DictionaryVariables
280
     0
  1
80.000000
  0
DICTIONARYVAR
  5
218
102
{ACAD_REACTORS
330
214
102
}
330
214
100
DictionaryVariables
280
     0
  1
5.000000
  0
ENDSEC
  0
EOF
