  0
SECTION
  2
HEADER
  9
$ACADVER
  1
AC1015
  9
$ACADMAINTVER
 70
     6
  9
$DWGCODEPAGE
  3
ANSI_1252
  9
$INSBASE
 10
0.0
 20
0.0
 30
0.0
  9
$EXTMIN
 10
0.0
 20
0.0
 30
0.0
  9
$EXTMAX
 10
3000.0
 20
4500.0
 30
0.0
  9
$LIMMIN
 10
0.0
 20
0.0
  9
$LIMMAX
 10
3000.0
 20
4500.0
  9
$ORTHOMODE
 70
     0
  9
$REGENMODE
 70
     1
  9
$FILLMODE
 70
     1
  9
$QTEXTMODE
 70
     0
  9
$MIRRTEXT
 70
     1
  9
$LTSCALE
 40
1.0
  9
$ATTMODE
 70
     1
  9
$TEXTSIZE
 40
2.5
  9
$TRACEWID
 40
1.0
  9
$TEXTSTYLE
  7
Standard
  9
$CLAYER
  8
0
  9
$CELTYPE
  6
ByLayer
  9
$CECOLOR
 62
   256
  9
$CELTSCALE
 40
1.0
  9
$DISPSILH
 70
     0
  9
$DIMSCALE
 40
1.0
  9
$DIMASZ
 40
2.5
  9
$DIMEXO
 40
0.625
  9
$DIMDLI
 40
3.75
  9
$DIMRND
 40
0.0
  9
$DIMDLE
 40
0.0
  9
$DIMEXE
 40
1.25
  9
$DIMTP
 40
0.0
  9
$DIMTM
 40
0.0
  9
$DIMTXT
 40
2.5
  9
$DIMCEN
 40
2.5
  9
$DIMTSZ
 40
0.0
  9
$DIMTOL
 70
     0
  9
$DIMLIM
 70
     0
  9
$DIMTIH
 70
     0
  9
$DIMTOH
 70
     0
  9
$DIMSE1
 70
     0
  9
$DIMSE2
 70
     0
  9
$DIMTAD
 70
     1
  9
$DIMZIN
 70
     8
  9
$DIMBLK
  1

  9
$DIMASO
 70
     1
  9
$DIMSHO
 70
     1
  9
$DIMPOST
  1

  9
$DIMAPOST
  1

  9
$DIMALT
 70
     0
  9
$DIMALTD
 70
     3
  9
$DIMALTF
 40
0.0393700787
  9
$DIMLFAC
 40
1.0
  9
$DIMTOFL
 70
     1
  9
$DIMTVP
 40
0.0
  9
$DIMTIX
 70
     0
  9
$DIMSOXD
 70
     0
  9
$DIMSAH
 70
     0
  9
$DIMBLK1
  1

  9
$DIMBLK2
  1

  9
$DIMSTYLE
  2
ISO-25
  9
$DIMCLRD
 70
     0
  9
$DIMCLRE
 70
     0
  9
$DIMCLRT
 70
     0
  9
$DIMTFAC
 40
1.0
  9
$DIMGAP
 40
0.625
  9
$DIMJUST
 70
     0
  9
$DIMSD1
 70
     0
  9
$DIMSD2
 70
     0
  9
$DIMTOLJ
 70
     0
  9
$DIMTZIN
 70
     8
  9
$DIMALTZ
 70
     0
  9
$DIMALTTZ
 70
     0
  9
$DIMUPT
 70
     0
  9
$DIMDEC
 70
     2
  9
$DIMTDEC
 70
     2
  9
$DIMALTU
 70
     2
  9
$DIMALTTD
 70
     3
  9
$DIMTXSTY
  7
Standard
  9
$DIMAUNIT
 70
     0
  9
$DIMADEC
 70
     0
  9
$DIMALTRND
 40
0.0
  9
$DIMAZIN
 70
     0
  9
$DIMDSEP
 70
    44
  9
$DIMATFIT
 70
     3
  9
$DIMFRAC
 70
     0
  9
$DIMLDRBLK
  1

  9
$DIMLUNIT
 70
     2
  9
$DIMLWD
 70
    -2
  9
$DIMLWE
 70
    -2
  9
$DIMTMOVE
 70
     0
  9
$LUNITS
 70
     2
  9
$LUPREC
 70
     4
  9
$SKETCHINC
 40
1.0
  9
$FILLETRAD
 40
10.0
  9
$AUNITS
 70
     0
  9
$AUPREC
 70
     0
  9
$MENU
  1
.
  9
$ELEVATION
 40
0.0
  9
$PELEVATION
 40
0.0
  9
$THICKNESS
 40
0.0
  9
$LIMCHECK
 70
     0
  9
$CHAMFERA
 40
10.0
  9
$CHAMFERB
 40
10.0
  9
$CHAMFERC
 40
20.0
  9
$CHAMFERD
 40
0.0
  9
$SKPOLY
 70
     0
  9
$TDCREATE
 40
2456189.40207787
  9
$TDUCREATE
 40
2456189.318744537
  9
$TDUPDATE
 40
2456189.402077882
  9
$TDUUPDATE
 40
2456189.318744549
  9
$TDINDWG
 40
0.0000000116
  9
$TDUSRTIMER
 40
0.0000000116
  9
$USRTIMER
 70
     1
  9
$ANGBASE
 50
0.0
  9
$ANGDIR
 70
     0
  9
$PDMODE
 70
     0
  9
$PDSIZE
 40
0.0
  9
$PLINEWID
 40
0.0
  9
$SPLFRAME
 70
     0
  9
$SPLINETYPE
 70
     6
  9
$SPLINESEGS
 70
     8
  9
$HANDSEED
  5
185
  9
$SURFTAB1
 70
     6
  9
$SURFTAB2
 70
     6
  9
$SURFTYPE
 70
     6
  9
$SURFU
 70
     6
  9
$SURFV
 70
     6
  9
$UCSBASE
  2

  9
$UCSNAME
  2

  9
$UCSORG
 10
0.0
 20
0.0
 30
0.0
  9
$UCSXDIR
 10
1.0
 20
0.0
 30
0.0
  9
$UCSYDIR
 10
0.0
 20
1.0
 30
0.0
  9
$UCSORTHOREF
  2

  9
$UCSORTHOVIEW
 70
     0
  9
$UCSORGTOP
 10
0.0
 20
0.0
 30
0.0
  9
$UCSORGBOTTOM
 10
0.0
 20
0.0
 30
0.0
  9
$UCSORGLEFT
 10
0.0
 20
0.0
 30
0.0
  9
$UCSORGRIGHT
 10
0.0
 20
0.0
 30
0.0
  9
$UCSORGFRONT
 10
0.0
 20
0.0
 30
0.0
  9
$UCSORGBACK
 10
0.0
 20
0.0
 30
0.0
  9
$PUCSBASE
  2

  9
$PUCSNAME
  2

  9
$PUCSORG
 10
0.0
 20
0.0
 30
0.0
  9
$PUCSXDIR
 10
1.0
 20
0.0
 30
0.0
  9
$PUCSYDIR
 10
0.0
 20
1.0
 30
0.0
  9
$PUCSORTHOREF
  2

  9
$PUCSORTHOVIEW
 70
     0
  9
$PUCSORGTOP
 10
0.0
 20
0.0
 30
0.0
  9
$PUCSORGBOTTOM
 10
0.0
 20
0.0
 30
0.0
  9
$PUCSORGLEFT
 10
0.0
 20
0.0
 30
0.0
  9
$PUCSORGRIGHT
 10
0.0
 20
0.0
 30
0.0
  9
$PUCSORGFRONT
 10
0.0
 20
0.0
 30
0.0
  9
$PUCSORGBACK
 10
0.0
 20
0.0
 30
0.0
  9
$USERI1
 70
     0
  9
$USERI2
 70
     0
  9
$USERI3
 70
     0
  9
$USERI4
 70
     0
  9
$USERI5
 70
     0
  9
$USERR1
 40
0.0
  9
$USERR2
 40
0.0
  9
$USERR3
 40
0.0
  9
$USERR4
 40
0.0
  9
$USERR5
 40
0.0
  9
$WORLDVIEW
 70
     1
  9
$SHADEDGE
 70
     3
  9
$SHADEDIF
 70
    70
  9
$TILEMODE
 70
     1
  9
$MAXACTVP
 70
    64
  9
$PINSBASE
 10
0.0
 20
0.0
 30
0.0
  9
$PLIMCHECK
 70
     0
  9
$PEXTMIN
 10
0.0
 20
0.0
 30
0.0
  9
$PEXTMAX
 10
3000.0
 20
4500.0
 30
0.0
  9
$PLIMMIN
 10
0.0
 20
0.0
  9
$PLIMMAX
 10
3000.0
 20
4500.0
  9
$UNITMODE
 70
     0
  9
$VISRETAIN
 70
     1
  9
$PLINEGEN
 70
     0
  9
$PSLTSCALE
 70
     1
  9
$TREEDEPTH
 70
  3020
  9
$CMLSTYLE
  2
Standard
  9
$CMLJUST
 70
     0
  9
$CMLSCALE
 40
20.0
  9
$PROXYGRAPHICS
 70
     1
  9
$MEASUREMENT
 70
     1
  9
$CELWEIGHT
370
    -1
  9
$ENDCAPS
280
     0
  9
$JOINSTYLE
280
     0
  9
$LWDISPLAY
290
     0
  9
$INSUNITS
 70
     4
  9
$HYPERLINKBASE
  1

  9
$STYLESHEET
  1

  9
$XEDIT
290
     1
  9
$CEPSNTYPE
380
     0
  9
$PSTYLEMODE
290
     1
  9
$FINGERPRINTGUID
  2
{5FDA71A3-9E33-4684-B620-733C33854EC1}
  9
$VERSIONGUID
  2
{FAEB1C32-E019-11D5-929B-00C0DF256EC4}
  9
$EXTNAMES
290
     1
  9
$PSVPSCALE
 40
0.0
  9
$OLESTARTUP
290
     0
  0
ENDSEC
  0
SECTION
  2
CLASSES
  0
CLASS
  1
ACDBDICTIONARYWDFLT
  2
AcDbDictionaryWithDefault
  3
ObjectDBX Classes
 90
        0
280
     0
281
     0
  0
CLASS
  1
VISUALSTYLE
  2
AcDbVisualStyle
  3
ObjectDBX Classes
 90
     4095
280
     0
281
     0
  0
CLASS
  1
SCALE
  2
AcDbScale
  3
ObjectDBX Classes
 90
     1153
280
     0
281
     0
  0
CLASS
  1
DICTIONARYVAR
  2
AcDbDictionaryVar
  3
ObjectDBX Classes
 90
        0
280
     0
281
     0
  0
CLASS
  1
ACDBPLACEHOLDER
  2
AcDbPlaceHolder
  3
ObjectDBX Classes
 90
        0
280
     0
281
     0
  0
CLASS
  1
LAYOUT
  2
AcDbLayout
  3
ObjectDBX Classes
 90
        0
280
     0
281
     0
  0
ENDSEC
  0
SECTION
  2
TABLES
  0
TABLE
  2
VPORT
  5
8
330
0
100
AcDbSymbolTable
 70
     1
  0
VPORT
  5
29
330
8
100
AcDbSymbolTableRecord
100
AcDbViewportTableRecord
  2
*Active
 70
     0
 10
0.0
 20
0.0
 11
1.0
 21
1.0
 12
344.1869158879
 22
148.5
 13
0.0
 23
0.0
 14
10.0
 24
10.0
 15
10.0
 25
10.0
 16
0.0
 26
0.0
 36
1.0
 17
0.0
 27
0.0
 37
0.0
 40
297.0
 41
1.9729729729
 42
50.0
 43
0.0
 44
0.0
 50
0.0
 51
0.0
 71
     0
 72
   100
 73
     1
 74
     3
 75
     0
 76
     0
 77
     0
 78
     0
281
     0
 65
     1
110
0.0
120
0.0
130
0.0
111
1.0
121
0.0
131
0.0
112
0.0
122
1.0
132
0.0
 79
     0
146
0.0
  0
ENDTAB
  0
TABLE
  2
LTYPE
  5
5
330
0
100
AcDbSymbolTable
 70
     1
  0
LTYPE
  5
14
330
5
100
AcDbSymbolTableRecord
100
AcDbLinetypeTableRecord
  2
ByBlock
 70
     0
  3

 72
    65
 73
     0
 40
0.0
  0
LTYPE
  5
15
330
5
100
AcDbSymbolTableRecord
100
AcDbLinetypeTableRecord
  2
ByLayer
 70
     0
  3

 72
    65
 73
     0
 40
0.0
  0
LTYPE
  5
16
330
5
100
AcDbSymbolTableRecord
100
AcDbLinetypeTableRecord
  2
Continuous
 70
     0
  3
Solid line
 72
    65
 73
     0
 40
0.0
  0
ENDTAB
  0
TABLE
  2
LAYER
  5
2
330
0
100
AcDbSymbolTable
 70
     5
  0
LAYER
  5
10
330
2
100
AcDbSymbolTableRecord
100
AcDbLayerTableRecord
  2
0
 70
     0
 62
     7
  6
Continuous
370
    -3
390
F
  0
LAYER
  5
5D
330
2
100
AcDbSymbolTableRecord
100
AcDbLayerTableRecord
  2
Default
 70
     0
 62
     7
  6
Continuous
370
    -3
390
F
  0
LAYER
  5
60
330
2
100
AcDbSymbolTableRecord
100
AcDbLayerTableRecord
  2
DV1_Default
 70
     0
 62
     7
  6
Continuous
370
    -3
390
F
  0
LAYER
  5
CB
330
2
100
AcDbSymbolTableRecord
100
AcDbLayerTableRecord
  2
DV2_Default
 70
     0
 62
     7
  6
Continuous
370
    -3
390
F
  0
LAYER
  5
114
330
2
100
AcDbSymbolTableRecord
100
AcDbLayerTableRecord
  2
DV3_Default
 70
     0
 62
     7
  6
Continuous
370
    -3
390
F
  0
ENDTAB
  0
TABLE
  2
STYLE
  5
3
330
0
100
AcDbSymbolTable
 70
     2
  0
STYLE
  5
11
330
3
100
AcDbSymbolTableRecord
100
AcDbTextStyleTableRecord
  2
Standard
 70
     0
 40
0.0
 41
1.0
 50
0.0
 71
     0
 42
2.5
  3
txt
  4

  0
STYLE
  5
174
330
3
100
AcDbSymbolTableRecord
100
AcDbTextStyleTableRecord
  2
SEACAD_seiso_ttf
 70
     0
 40
0.0
 41
1.0
 50
0.0
 71
     0
 42
0.2
  3
seiso.ttf
  4

  0
ENDTAB
  0
TABLE
  2
VIEW
  5
6
330
0
100
AcDbSymbolTable
 70
     0
  0
ENDTAB
  0
TABLE
  2
UCS
  5
7
330
0
100
AcDbSymbolTable
 70
     0
  0
ENDTAB
  0
TABLE
  2
APPID
  5
9
330
0
100
AcDbSymbolTable
 70
     1
  0
APPID
  5
12
330
9
100
AcDbSymbolTableRecord
100
AcDbRegAppTableRecord
  2
ACAD
 70
     0
  0
ENDTAB
  0
TABLE
  2
DIMSTYLE
  5
A
330
0
100
AcDbSymbolTable
 70
     1
100
AcDbDimStyleTable
  0
DIMSTYLE
105
27
330
A
100
AcDbSymbolTableRecord
100
AcDbDimStyleTableRecord
  2
ISO-25
 70
     0
 41
2.5
 42
0.625
 43
3.75
 44
1.25
 73
     0
 74
     0
 77
     1
 78
     8
140
2.5
141
2.5
143
0.0393700787
147
0.625
171
     3
172
     1
271
     2
272
     2
274
     3
278
    44
283
     0
284
     8
340
11
  0
ENDTAB
  0
TABLE
  2
BLOCK_RECORD
  5
1
330
0
100
AcDbSymbolTable
 70
     4
  0
BLOCK_RECORD
  5
1F
330
1
100
AcDbSymbolTableRecord
100
AcDbBlockTableRecord
  2
*Model_Space
340
22
  0
BLOCK_RECORD
  5
1B
330
1
100
AcDbSymbolTableRecord
100
AcDbBlockTableRecord
  2
*Paper_Space
340
1E
  0
BLOCK_RECORD
  5
5E
330
1
100
AcDbSymbolTableRecord
100
AcDbBlockTableRecord
  2
SE
340
0
102
{BLKREFS
331
5F
102
}
  0
BLOCK_RECORD
  5
C9
330
1
100
AcDbSymbolTableRecord
100
AcDbBlockTableRecord
  2
SE1
340
0
102
{BLKREFS
331
CA
102
}
  0
BLOCK_RECORD
  5
112
330
1
100
AcDbSymbolTableRecord
100
AcDbBlockTableRecord
  2
SE2
340
0
102
{BLKREFS
331
113
102
}
  0
ENDTAB
  0
ENDSEC
  0
SECTION
  2
BLOCKS
  0
BLOCK
  5
20
330
1F
100
AcDbEntity
  8
0
100
AcDbBlockBegin
  2
*Model_Space
 70
     0
 10
0.0
 20
0.0
 30
0.0
  3
*Model_Space
  1

  0
ENDBLK
  5
21
330
1F
100
AcDbEntity
  8
0
100
AcDbBlockEnd
  0
BLOCK
  5
1C
330
1B
100
AcDbEntity
 67
     1
  8
0
100
AcDbBlockBegin
  2
*Paper_Space
 70
     0
 10
0.0
 20
0.0
 30
0.0
  3
*Paper_Space
  1

  0
ENDBLK
  5
1D
330
1B
100
AcDbEntity
 67
     1
  8
0
100
AcDbBlockEnd
  0
BLOCK
  5
C7
330
5E
100
AcDbEntity
  8
0
100
AcDbBlockBegin
  2
SE
 70
     0
 10
0.0
 20
0.0
 30
0.0
  3
SE
  1

  0
ELLIPSE
  5
61
330
5E
100
AcDbEntity
  8
DV1_Default
  6
Continuous
 62
     7
100
AcDbEllipse
 10
177.5562353242
 20
347.7411538545
 30
0.0
 11
0.0
 21
5.300000000000011
 31
0.0
210
0.0
220
0.0
230
1.0
 40
1.0
 41
3.141592653589793
 42
3.556080721667
  0
ELLIPSE
  5
62
330
5E
100
AcDbEntity
  8
DV1_Default
  6
Continuous
 62
     7
100
AcDbEllipse
 10
174.5156761651
 20
347.7411538545
 30
0.0
 11
0.0
 21
4.916299421312746
 31
0.0
210
0.0
220
0.0
230
1.0
 40
1.0
 41
2.727104585512587
 42
3.556080721667
  0
LINE
  5
63
330
5E
100
AcDbEntity
  8
DV1_Default
  6
Continuous
 62
     7
100
AcDbLine
 10
174.5156761651
 20
342.4411538545
 30
0.0
 11
177.5562353242
 21
342.4411538545
 31
0.0
  0
ELLIPSE
  5
64
330
5E
100
AcDbEntity
  8
DV1_Default
  6
Continuous
 62
     7
100
AcDbEllipse
 10
146.937453334
 20
347.7411538545
 30
0.0
 11
0.0
 21
5.300000000000011
 31
0.0
210
0.0
220
0.0
230
1.0
 40
1.0
 41
3.141592653589793
 42
3.556080721667
  0
ELLIPSE
  5
65
330
5E
100
AcDbEntity
  8
DV1_Default
  6
Continuous
 62
     7
100
AcDbEllipse
 10
143.8968941749
 20
347.7411538545
 30
0.0
 11
0.0
 21
4.916299421312746
 31
0.0
210
0.0
220
0.0
230
1.0
 40
1.0
 41
2.727104585512587
 42
3.556080721667
  0
LINE
  5
66
330
5E
100
AcDbEntity
  8
DV1_Default
  6
Continuous
 62
     7
100
AcDbLine
 10
143.8968941749
 20
342.4411538545
 30
0.0
 11
146.937453334
 21
342.4411538545
 31
0.0
  0
LINE
  5
67
330
5E
100
AcDbEntity
  8
DV1_Default
  6
Continuous
 62
     7
100
AcDbLine
 10
143.3076588107
 20
329.4911555849
 30
0.0
 11
143.3076459407
 21
342.5070758042
 31
0.0
  0
LINE
  5
68
330
5E
100
AcDbEntity
  8
DV1_Default
  6
Continuous
 62
     7
100
AcDbLine
 10
139.8076452148
 20
343.2411538545
 30
0.0
 11
139.8076588107
 21
329.4911521241
 31
0.0
  0
ARC
  5
69
330
5E
100
AcDbEntity
  8
DV1_Default
  6
Continuous
 62
     7
100
AcDbCircle
 10
135.0576588107
 20
329.4911474273
 30
0.0
 40
4.750000000000133
100
AcDbArc
 50
314.0561238867
 51
0.0
  0
ARC
  5
6A
330
5E
100
AcDbEntity
  8
DV1_Default
  6
Continuous
 62
     7
100
AcDbCircle
 10
135.0576588107
 20
329.4911474273
 30
0.0
 40
8.249999999999995
100
AcDbArc
 50
324.8474755483
 51
0.0
  0
ARC
  5
6B
330
5E
100
AcDbEntity
  8
DV1_Default
  6
Continuous
 62
     7
100
AcDbCircle
 10
79.6423588108
 20
329.491092633
 30
0.0
 40
4.75
100
AcDbArc
 50
180.0000566537
 51
225.9440964091
  0
ARC
  5
6C
330
5E
100
AcDbEntity
  8
DV1_Default
  6
Continuous
 62
     7
100
AcDbCircle
 10
79.6423588108
 20
329.491092633
 30
0.0
 40
8.250000000000794
100
AcDbArc
 50
180.0000566537
 51
215.1514802966
  0
LINE
  5
6D
330
5E
100
AcDbEntity
  8
DV1_Default
  6
Continuous
 62
     7
100
AcDbLine
 10
71.3923459406
 20
342.5070739605
 30
0.0
 11
71.3923588108
 21
329.4910844755
 31
0.0
  0
LINE
  5
6E
330
5E
100
AcDbEntity
  8
DV1_Default
  6
Continuous
 62
     7
100
AcDbLine
 10
74.8923588108
 20
329.4910879362
 30
0.0
 11
74.8923452148
 21
343.2411538545
 31
0.0
  0
LINE
  5
6F
330
5E
100
AcDbEntity
  8
DV1_Default
  6
Continuous
 62
     7
100
AcDbLine
 10
59.8923412593
 20
329.4912494365
 30
0.0
 11
59.8923548552
 21
343.2411538545
 31
0.0
  0
LINE
  5
70
330
5E
100
AcDbEntity
  8
DV1_Default
  6
Continuous
 62
     7
100
AcDbLine
 10
56.3923548552
 20
343.2411538545
 30
0.0
 11
56.3923412593
 21
329.4912528973
 31
0.0
  0
ARC
  5
71
330
5E
100
AcDbEntity
  8
DV1_Default
  6
Continuous
 62
     7
100
AcDbCircle
 10
64.6423412593
 20
329.4912447397
 30
0.0
 40
4.750000000000004
100
AcDbArc
 50
179.9999433463
 51
268.4170191435
  0
ARC
  5
72
330
5E
100
AcDbEntity
  8
DV1_Default
  6
Continuous
 62
     7
100
AcDbCircle
 10
64.6423412593
 20
329.4912447397
 30
0.0
 40
8.249999999999906
100
AcDbArc
 50
179.9999433463
 51
215.1685349091
  0
ARC
  5
73
330
5E
100
AcDbEntity
  8
DV1_Default
  6
Continuous
 62
     7
100
AcDbCircle
 10
150.0576412593
 20
329.4911602817
 30
0.0
 40
4.749999999999245
100
AcDbArc
 50
272.0063111512
 51
359.9999433463
  0
ARC
  5
74
330
5E
100
AcDbEntity
  8
DV1_Default
  6
Continuous
 62
     7
100
AcDbCircle
 10
150.0576412593
 20
329.4911602817
 30
0.0
 40
8.250000000000002
100
AcDbArc
 50
324.8452876051
 51
359.9999433463
  0
LINE
  5
75
330
5E
100
AcDbEntity
  8
DV1_Default
  6
Continuous
 62
     7
100
AcDbLine
 10
154.8076548552
 20
343.2411538545
 30
0.0
 11
154.8076412593
 21
329.4911555849
 31
0.0
  0
LINE
  5
76
330
5E
100
AcDbEntity
  8
DV1_Default
  6
Continuous
 62
     7
100
AcDbLine
 10
158.3076412593
 20
329.4911521241
 30
0.0
 11
158.3076548552
 21
343.2411538545
 31
0.0
  0
LINE
  5
77
330
5E
100
AcDbEntity
  8
DV1_Default
  6
Continuous
 62
     7
100
AcDbLine
 10
44.8926384711
 20
329.4891781879
 30
0.0
 11
44.8924239734
 21
343.2411538545
 31
0.0
  0
LINE
  5
78
330
5E
100
AcDbEntity
  8
DV1_Default
  6
Continuous
 62
     7
100
AcDbLine
 10
41.392432038
 20
342.7240880312
 30
0.0
 11
41.3926384715
 21
329.4891235963
 31
0.0
  0
ARC
  5
79
330
5E
100
AcDbEntity
  8
DV1_Default
  6
Continuous
 62
     7
100
AcDbCircle
 10
49.6426384705
 20
329.4892522764
 30
0.0
 40
4.75
100
AcDbArc
 50
180.0008936761
 51
267.636676852
  0
ARC
  5
7A
330
5E
100
AcDbEntity
  8
DV1_Default
  6
Continuous
 62
     7
100
AcDbCircle
 10
49.6426384705
 20
329.4892522764
 30
0.0
 40
8.249999999999776
100
AcDbArc
 50
180.0008936761
 51
215.1175246083
  0
ARC
  5
7B
330
5E
100
AcDbEntity
  8
DV1_Default
  6
Continuous
 62
     7
100
AcDbCircle
 10
165.0576384565
 20
329.4910524723
 30
0.0
 40
4.749999999999186
100
AcDbArc
 50
272.145773334
 51
0.0008936761
  0
ARC
  5
7C
330
5E
100
AcDbEntity
  8
DV1_Default
  6
Continuous
 62
     7
100
AcDbCircle
 10
165.0576384565
 20
329.4910524723
 30
0.0
 40
8.249999999999998
100
AcDbArc
 50
324.8501129063
 51
0.0008936761
  0
LINE
  5
7D
330
5E
100
AcDbEntity
  8
DV1_Default
  6
Continuous
 62
     7
100
AcDbLine
 10
169.8074239886
 20
343.2411538545
 30
0.0
 11
169.8076384559
 21
329.4911265609
 31
0.0
  0
LINE
  5
7E
330
5E
100
AcDbEntity
  8
DV1_Default
  6
Continuous
 62
     7
100
AcDbLine
 10
173.3076384555
 20
329.4911811524
 30
0.0
 11
173.307432053
 21
342.7241535225
 31
0.0
  0
LINE
  5
7F
330
5E
100
AcDbEntity
  8
DV1_Default
  6
Continuous
 62
     7
100
AcDbLine
 10
188.3073615944
 20
329.4911265605
 30
0.0
 11
188.3075760644
 21
343.2411538545
 31
0.0
  0
ARC
  5
80
330
5E
100
AcDbEntity
  8
DV1_Default
  6
Continuous
 62
     7
100
AcDbCircle
 10
180.0573615954
 20
329.4912552423
 30
0.0
 40
8.249999999999996
100
AcDbArc
 50
324.8451851039
 51
359.9991063128
  0
LINE
  5
81
330
5E
100
AcDbEntity
  8
DV1_Default
  6
Continuous
 62
     7
100
AcDbLine
 10
85.4729583598
 20
324.7427305488
 30
0.0
 11
83.7265706973
 21
324.7427577886
 31
0.0
  0
LINE
  5
82
330
5E
100
AcDbEntity
  8
DV1_Default
  6
Continuous
 62
     7
100
AcDbLine
 10
77.1034293601
 20
324.7428610949
 30
0.0
 11
36.2385876252
 21
324.7434984959
 31
0.0
  0
ARC
  5
83
330
5E
100
AcDbEntity
  8
DV1_Default
  6
Continuous
 62
     7
100
AcDbCircle
 10
34.6423616131
 20
329.4935233941
 30
0.0
 40
8.250000000000245
100
AcDbArc
 50
179.9991063128
 51
215.1885052883
  0
LINE
  5
84
330
5E
100
AcDbEntity
  8
DV1_Default
  6
Continuous
 62
     7
100
AcDbLine
 10
26.3925760447
 20
343.2411538545
 30
0.0
 11
26.3923616141
 21
329.4936520758
 31
0.0
  0
LINE
  5
85
330
5E
100
AcDbEntity
  8
DV1_Default
  6
Continuous
 62
     7
100
AcDbLine
 10
198.8379452888
 20
343.2411538545
 30
0.0
 11
198.8380921543
 21
329.4911351636
 31
0.0
  0
ARC
  5
86
330
5E
100
AcDbEntity
  8
DV1_Default
  6
Continuous
 62
     7
100
AcDbCircle
 10
194.0880921545
 20
329.4910844283
 30
0.0
 40
4.749999999999647
100
AcDbArc
 50
272.3221091215
 51
0.0006119826
  0
ARC
  5
87
330
5E
100
AcDbEntity
  8
DV1_Default
  6
Continuous
 62
     7
100
AcDbCircle
 10
20.6120921644
 20
329.4892315117
 30
0.0
 40
4.750000000000003
100
AcDbArc
 50
180.0006119826
 51
268.2751591658
  0
LINE
  5
88
330
5E
100
AcDbEntity
  8
DV1_Default
  6
Continuous
 62
     7
100
AcDbLine
 10
15.8620921647
 20
329.4891807764
 30
0.0
 11
15.8619452783
 21
343.2411538545
 31
0.0
  0
LINE
  5
89
330
5E
100
AcDbEntity
  8
DV1_Default
  6
Continuous
 62
     7
100
AcDbLine
 10
7.6248524307
 20
343.2411538545
 30
0.0
 11
7.6251373215
 21
329.4911175996
 31
0.0
  0
ARC
  5
8A
330
5E
100
AcDbEntity
  8
DV1_Default
  6
Continuous
 62
     7
100
AcDbCircle
 10
15.8751373197
 20
329.4912885336
 30
0.0
 40
8.249999999999655
100
AcDbArc
 50
180.0011871269
 51
270.0011871269
  0
LINE
  5
8B
330
5E
100
AcDbEntity
  8
DV1_Default
  6
Continuous
 62
     7
100
AcDbLine
 10
195.7103413689
 20
324.7450145873
 30
0.0
 11
185.0569910558
 21
324.7447938576
 31
0.0
  0
LINE
  5
8C
330
5E
100
AcDbEntity
  8
DV1_Default
  6
Continuous
 62
     7
100
AcDbLine
 10
178.5728504112
 20
324.7446595109
 30
0.0
 11
137.5972388273
 21
324.743810526
 31
0.0
  0
LINE
  5
8D
330
5E
100
AcDbEntity
  8
DV1_Default
  6
Continuous
 62
     7
100
AcDbLine
 10
131.004707502
 20
324.7436739336
 30
0.0
 11
83.7290332601
 21
324.742694416
 31
0.0
  0
LINE
  5
8E
330
5E
100
AcDbEntity
  8
DV1_Default
  6
Continuous
 62
     7
100
AcDbLine
 10
77.1036432945
 20
324.7425571427
 30
0.0
 11
36.3098501025
 21
324.741711925
 31
0.0
  0
LINE
  5
8F
330
5E
100
AcDbEntity
  8
DV1_Default
  6
Continuous
 62
     7
100
AcDbLine
 10
29.6474746809
 20
324.7415738854
 30
0.0
 11
18.70797566
 21
324.7413472269
 31
0.0
  0
LINE
  5
90
330
5E
100
AcDbEntity
  8
DV1_Default
  6
Continuous
 62
     7
100
AcDbLine
 10
15.8753082537
 20
321.2412885353
 30
0.0
 11
18.5495510518
 21
321.2413439437
 31
0.0
  0
LINE
  5
91
330
5E
100
AcDbEntity
  8
DV1_Default
  6
Continuous
 62
     7
100
AcDbLine
 10
195.778150597
 20
321.2450159915
 30
0.0
 11
198.8253082144
 21
321.2450791264
 31
0.0
  0
ARC
  5
92
330
5E
100
AcDbEntity
  8
DV1_Default
  6
Continuous
 62
     7
100
AcDbCircle
 10
198.8251372804
 20
329.4950791246
 30
0.0
 40
8.250000000000002
100
AcDbArc
 50
270.0011871269
 51
0.0011871269
  0
LINE
  5
93
330
5E
100
AcDbEntity
  8
DV1_Default
  6
Continuous
 62
     7
100
AcDbLine
 10
207.0751372786
 20
329.4952500586
 30
0.0
 11
207.0748524735
 21
343.2411538545
 31
0.0
  0
LINE
  5
94
330
5E
100
AcDbEntity
  8
DV1_Default
  6
Continuous
 62
     7
100
AcDbLine
 10
14.455258919
 20
329.4645716497
 30
0.0
 11
14.453306213
 21
343.2411538545
 31
0.0
  0
LINE
  5
95
330
5E
100
AcDbEntity
  8
DV1_Default
  6
Continuous
 62
     7
100
AcDbLine
 10
10.9533061779
 20
343.2411538545
 30
0.0
 11
10.9552589542
 21
329.4640755563
 31
0.0
  0
ARC
  5
96
330
5E
100
AcDbEntity
  8
DV1_Default
  6
Continuous
 62
     7
100
AcDbCircle
 10
19.2052588713
 20
329.4652449192
 30
0.0
 40
4.749999999999998
100
AcDbArc
 50
180.0081211588
 51
270.0081211588
  0
ARC
  5
97
330
5E
100
AcDbEntity
  8
DV1_Default
  6
Continuous
 62
     7
100
AcDbCircle
 10
19.2052588713
 20
329.4652449192
 30
0.0
 40
8.249999999999917
100
AcDbArc
 50
180.0081211588
 51
270.0081211588
  0
LINE
  5
98
330
5E
100
AcDbEntity
  8
DV1_Default
  6
Continuous
 62
     7
100
AcDbLine
 10
195.49793037
 20
324.7402327643
 30
0.0
 11
185.0527427962
 21
324.7387522533
 31
0.0
  0
LINE
  5
99
330
5E
100
AcDbEntity
  8
DV1_Default
  6
Continuous
 62
     7
100
AcDbLine
 10
178.3838908616
 20
324.7378070039
 30
0.0
 11
174.6081163812
 21
324.737271822
 31
0.0
  0
LINE
  5
9A
330
5E
100
AcDbEntity
  8
DV1_Default
  6
Continuous
 62
     7
100
AcDbLine
 10
29.6650365568
 20
324.7167274505
 30
0.0
 11
19.2059321409
 21
324.715244967
 31
0.0
  0
LINE
  5
9B
330
5E
100
AcDbEntity
  8
DV1_Default
  6
Continuous
 62
     7
100
AcDbLine
 10
19.2064282343
 20
321.2152450021
 30
0.0
 11
174.6083174834
 21
321.2372718153
 31
0.0
  0
LINE
  5
9C
330
5E
100
AcDbEntity
  8
DV1_Default
  6
Continuous
 62
     7
100
AcDbLine
 10
178.4088520643
 20
321.2378105067
 30
0.0
 11
195.4984264634
 21
321.2402327994
 31
0.0
  0
ARC
  5
9D
330
5E
100
AcDbEntity
  8
DV1_Default
  6
Continuous
 62
     7
100
AcDbCircle
 10
195.4972571004
 20
329.4902327166
 30
0.0
 40
4.749999999999804
100
AcDbArc
 50
270.0081211588
 51
0.0081211588
  0
ARC
  5
9E
330
5E
100
AcDbEntity
  8
DV1_Default
  6
Continuous
 62
     7
100
AcDbCircle
 10
195.4972571004
 20
329.4902327166
 30
0.0
 40
8.25
100
AcDbArc
 50
270.0081211588
 51
0.0081211588
  0
LINE
  5
9F
330
5E
100
AcDbEntity
  8
DV1_Default
  6
Continuous
 62
     7
100
AcDbLine
 10
200.2453080794
 20
343.2411538545
 30
0.0
 11
200.2472570527
 21
329.4909059861
 31
0.0
  0
LINE
  5
A0
330
5E
100
AcDbEntity
  8
DV1_Default
  6
Continuous
 62
     7
100
AcDbLine
 10
203.7472570176
 20
329.4914020795
 30
0.0
 11
203.7453081145
 21
343.2411538545
 31
0.0
  0
LINE
  5
A1
330
5E
100
AcDbEntity
  8
DV1_Default
  6
Continuous
 62
     7
100
AcDbLine
 10
31.6432619865
 20
329.4911069164
 30
0.0
 11
31.6436308373
 21
343.2411538545
 31
0.0
  0
LINE
  5
A2
330
5E
100
AcDbEntity
  8
DV1_Default
  6
Continuous
 62
     7
100
AcDbLine
 10
28.143630836
 20
343.2411538545
 30
0.0
 11
28.1432619877
 21
329.4912008054
 31
0.0
  0
ARC
  5
A3
330
5E
100
AcDbEntity
  8
DV1_Default
  6
Continuous
 62
     7
100
AcDbCircle
 10
36.3932619848
 20
329.4909794956
 30
0.0
 40
4.749999999999998
100
AcDbArc
 50
179.9984630165
 51
269.9984630165
  0
ARC
  5
A4
330
5E
100
AcDbEntity
  8
DV1_Default
  6
Continuous
 62
     7
100
AcDbCircle
 10
36.3932619848
 20
329.4909794956
 30
0.0
 40
8.24999999999994
100
AcDbArc
 50
179.9984630165
 51
269.9984630165
  0
LINE
  5
A5
330
5E
100
AcDbEntity
  8
DV1_Default
  6
Continuous
 62
     7
100
AcDbLine
 10
178.3061345129
 20
324.7371726211
 30
0.0
 11
137.5933334278
 21
324.7382647592
 31
0.0
  0
LINE
  5
A6
330
5E
100
AcDbEntity
  8
DV1_Default
  6
Continuous
 62
     7
100
AcDbLine
 10
77.1055232727
 20
324.7398873703
 30
0.0
 11
36.393134564
 21
324.7409794973
 31
0.0
  0
LINE
  5
A7
330
5E
100
AcDbEntity
  8
DV1_Default
  6
Continuous
 62
     7
100
AcDbLine
 10
36.393040675
 20
321.2409794986
 30
0.0
 11
178.306040624
 21
321.2371726223
 31
0.0
  0
ARC
  5
A8
330
5E
100
AcDbEntity
  8
DV1_Default
  6
Continuous
 62
     7
100
AcDbCircle
 10
178.3062619337
 20
329.4871726193
 30
0.0
 40
4.749999999999791
100
AcDbArc
 50
269.9984630165
 51
359.9984630165
  0
ARC
  5
A9
330
5E
100
AcDbEntity
  8
DV1_Default
  6
Continuous
 62
     7
100
AcDbCircle
 10
178.3062619337
 20
329.4871726193
 30
0.0
 40
8.250000000000002
100
AcDbArc
 50
269.9984630165
 51
359.9984630165
  0
LINE
  5
AA
330
5E
100
AcDbEntity
  8
DV1_Default
  6
Continuous
 62
     7
100
AcDbLine
 10
183.0566308918
 20
343.2411538545
 30
0.0
 11
183.056261932
 21
329.4870451986
 31
0.0
  0
LINE
  5
AB
330
5E
100
AcDbEntity
  8
DV1_Default
  6
Continuous
 62
     7
100
AcDbLine
 10
186.5562619307
 20
329.4869513096
 30
0.0
 11
186.556630893
 21
343.2411538545
 31
0.0
  0
LINE
  5
AC
330
5E
100
AcDbEntity
  8
DV1_Default
  6
Continuous
 62
     7
100
AcDbLine
 10
79.1000000349
 20
329.4911538545
 30
0.0
 11
79.1000000349
 21
343.2411538545
 31
0.0
  0
LINE
  5
AD
330
5E
100
AcDbEntity
  8
DV1_Default
  6
Continuous
 62
     7
100
AcDbLine
 10
75.6000000349
 20
343.2411538545
 30
0.0
 11
75.6000000349
 21
329.4911538545
 31
0.0
  0
ARC
  5
AE
330
5E
100
AcDbEntity
  8
DV1_Default
  6
Continuous
 62
     7
100
AcDbCircle
 10
83.8500000349
 20
329.4911538545
 30
0.0
 40
4.749999999999996
100
AcDbArc
 50
180.0
 51
270.0
  0
ARC
  5
AF
330
5E
100
AcDbEntity
  8
DV1_Default
  6
Continuous
 62
     7
100
AcDbCircle
 10
83.8500000349
 20
329.4911538545
 30
0.0
 40
8.249999999999869
100
AcDbArc
 50
180.0
 51
270.0
  0
LINE
  5
B0
330
5E
100
AcDbEntity
  8
DV1_Default
  6
Continuous
 62
     7
100
AcDbLine
 10
130.8500000349
 20
324.7411538545
 30
0.0
 11
83.8500000349
 21
324.7411538545
 31
0.0
  0
LINE
  5
B1
330
5E
100
AcDbEntity
  8
DV1_Default
  6
Continuous
 62
     7
100
AcDbLine
 10
83.8500000349
 20
321.2411538545
 30
0.0
 11
130.8500000349
 21
321.2411538545
 31
0.0
  0
ARC
  5
B2
330
5E
100
AcDbEntity
  8
DV1_Default
  6
Continuous
 62
     7
100
AcDbCircle
 10
130.8500000349
 20
329.4911538545
 30
0.0
 40
4.749999999999588
100
AcDbArc
 50
270.0
 51
0.0
  0
ARC
  5
B3
330
5E
100
AcDbEntity
  8
DV1_Default
  6
Continuous
 62
     7
100
AcDbCircle
 10
130.8500000349
 20
329.4911538545
 30
0.0
 40
8.249999999999996
100
AcDbArc
 50
270.0
 51
0.0
  0
LINE
  5
B4
330
5E
100
AcDbEntity
  8
DV1_Default
  6
Continuous
 62
     7
100
AcDbLine
 10
135.6000000349
 20
343.2411538545
 30
0.0
 11
135.6000000349
 21
329.4911538545
 31
0.0
  0
LINE
  5
B5
330
5E
100
AcDbEntity
  8
DV1_Default
  6
Continuous
 62
     7
100
AcDbLine
 10
139.1000000349
 20
329.4911538545
 30
0.0
 11
139.1000000349
 21
343.2411538545
 31
0.0
  0
LINE
  5
B6
330
5E
100
AcDbEntity
  8
DV1_Default
  6
Continuous
 62
     7
100
AcDbLine
 10
208.3500000348
 20
343.2411538545
 30
0.0
 11
190.3100000348
 21
343.2411538545
 31
0.0
  0
LINE
  5
B7
330
5E
100
AcDbEntity
  8
DV1_Default
  6
Continuous
 62
     7
100
AcDbLine
 10
190.3100000349
 20
343.2411538545
 30
0.0
 11
24.3900000349
 21
343.2411538545
 31
0.0
  0
LINE
  5
B8
330
5E
100
AcDbEntity
  8
DV1_Default
  6
Continuous
 62
     7
100
AcDbLine
 10
6.35
 20
343.2411538545
 30
0.0
 11
24.3900000191
 21
343.2411538545
 31
0.0
  0
LINE
  5
B9
330
5E
100
AcDbEntity
  8
DV1_Default
  6
Continuous
 62
     7
100
AcDbLine
 10
6.3500000349
 20
350.2411538545
 30
0.0
 11
6.3500000349
 21
343.2411538545
 31
0.0
  0
ARC
  5
BA
330
5E
100
AcDbEntity
  8
DV1_Default
  6
Continuous
 62
     7
100
AcDbCircle
 10
9.3500000349
 20
350.2411538545
 30
0.0
 40
2.999999999999999
100
AcDbArc
 50
90.0
 51
180.0
  0
LINE
  5
BB
330
5E
100
AcDbEntity
  8
DV1_Default
  6
Continuous
 62
     7
100
AcDbLine
 10
25.7500000349
 20
353.2411538545
 30
0.0
 11
9.3500000349
 21
353.2411538545
 31
0.0
  0
LINE
  5
BC
330
5E
100
AcDbEntity
  8
DV1_Default
  6
Continuous
 62
     7
100
AcDbLine
 10
208.3500000349
 20
343.2411538545
 30
0.0
 11
208.3500000349
 21
350.2411538545
 31
0.0
  0
LINE
  5
BD
330
5E
100
AcDbEntity
  8
DV1_Default
  6
Continuous
 62
     7
100
AcDbLine
 10
188.9500000349
 20
353.2411538545
 30
0.0
 11
25.7500000349
 21
353.2411538545
 31
0.0
  0
ARC
  5
BE
330
5E
100
AcDbEntity
  8
DV1_Default
  6
Continuous
 62
     7
100
AcDbCircle
 10
205.3500000349
 20
350.2411538545
 30
0.0
 40
3.000000000000114
100
AcDbArc
 50
0.0
 51
90.0
  0
LINE
  5
BF
330
5E
100
AcDbEntity
  8
DV1_Default
  6
Continuous
 62
     7
100
AcDbLine
 10
205.3500000349
 20
353.2411538545
 30
0.0
 11
188.9500000349
 21
353.2411538545
 31
0.0
  0
ELLIPSE
  5
C0
330
5E
100
AcDbEntity
  8
DV1_Default
  6
Continuous
 62
     7
100
AcDbEllipse
 10
67.7625467355
 20
347.7411538545
 30
0.0
 11
-6.938893903907228E-15
 21
-5.300000000000002
 31
0.0
210
0.0
220
0.0
230
1.0
 40
0.7071067812
 41
5.726585989169363
 42
6.283185307179584
  0
ELLIPSE
  5
C1
330
5E
100
AcDbEntity
  8
DV1_Default
  6
Continuous
 62
     7
100
AcDbEllipse
 10
70.8031058946
 20
347.7411538545
 30
0.0
 11
6.938893903907228E-15
 21
-5.300000000000002
 31
0.0
210
0.0
220
0.0
230
1.0
 40
0.7071067812
 41
5.726585989169362
 42
6.283185307179581
  0
ELLIPSE
  5
C2
330
5E
100
AcDbEntity
  8
DV1_Default
  6
Continuous
 62
     7
100
AcDbEllipse
 10
70.8031058946
 20
347.7411538545
 30
0.0
 11
6.938893903907228E-15
 21
-5.300000000000002
 31
0.0
210
0.0
220
0.0
230
1.0
 40
0.7071067812
 41
0.0
 42
0.5565993180102224
  0
LINE
  5
C3
330
5E
100
AcDbEntity
  8
DV1_Default
  6
Continuous
 62
     7
100
AcDbLine
 10
67.7625467355
 20
342.4411538545
 30
0.0
 11
70.8031058946
 21
342.4411538545
 31
0.0
  0
ELLIPSE
  5
C4
330
5E
100
AcDbEntity
  8
DV1_Default
  6
Continuous
 62
     7
100
AcDbEllipse
 10
37.1437647453
 20
347.7411538545
 30
0.0
 11
0.0
 21
4.916299421312743
 31
0.0
210
0.0
220
0.0
230
1.0
 40
1.0
 41
2.727104585512588
 42
3.141592653589793
  0
ELLIPSE
  5
C5
330
5E
100
AcDbEntity
  8
DV1_Default
  6
Continuous
 62
     7
100
AcDbEllipse
 10
40.1843239044
 20
347.7411538545
 30
0.0
 11
0.0
 21
4.916299421312743
 31
0.0
210
0.0
220
0.0
230
1.0
 40
1.0
 41
2.727104585512588
 42
3.556080721666998
  0
LINE
  5
C6
330
5E
100
AcDbEntity
  8
DV1_Default
  6
Continuous
 62
     7
100
AcDbLine
 10
37.1437647453
 20
342.4411538545
 30
0.0
 11
40.1843239044
 21
342.4411538545
 31
0.0
  0
ENDBLK
  5
C8
330
5E
100
AcDbEntity
  8
0
100
AcDbBlockEnd
  0
BLOCK
  5
110
330
C9
100
AcDbEntity
  8
0
100
AcDbBlockBegin
  2
SE1
 70
     0
 10
0.0
 20
0.0
 30
0.0
  3
SE1
  1

  0
ARC
  5
CC
330
C9
100
AcDbEntity
  8
DV2_Default
  6
Continuous
 62
     7
100
AcDbCircle
 10
297.6970538242
 20
322.991092633
 30
0.0
 40
1.749999999998291
100
AcDbArc
 50
180.0
 51
0.0
  0
LINE
  5
CD
330
C9
100
AcDbEntity
  8
DV2_Default
  6
Continuous
 62
     7
100
AcDbLine
 10
299.4470538242
 20
322.991092633
 30
0.0
 11
299.4470538242
 21
329.4910862058
 31
0.0
  0
LINE
  5
CE
330
C9
100
AcDbEntity
  8
DV2_Default
  6
Continuous
 62
     7
100
AcDbLine
 10
295.9470538242
 20
329.4910862058
 30
0.0
 11
295.9470538242
 21
322.991092633
 31
0.0
  0
LINE
  5
CF
330
C9
100
AcDbEntity
  8
DV2_Default
  6
Continuous
 62
     7
100
AcDbLine
 10
295.9470538242
 20
343.2411538545
 30
0.0
 11
295.9470538242
 21
329.4910862058
 31
0.0
  0
LINE
  5
D0
330
C9
100
AcDbEntity
  8
DV2_Default
  6
Continuous
 62
     7
100
AcDbLine
 10
299.4470538242
 20
329.4910862058
 30
0.0
 11
299.4470538242
 21
343.2411538545
 31
0.0
  0
ARC
  5
D1
330
C9
100
AcDbEntity
  8
DV2_Default
  6
Continuous
 62
     7
100
AcDbCircle
 10
312.6970538245
 20
322.9912447397
 30
0.0
 40
1.749999999998291
100
AcDbArc
 50
180.0
 51
0.0
  0
ARC
  5
D2
330
C9
100
AcDbEntity
  8
DV2_Default
  6
Continuous
 62
     7
100
AcDbCircle
 10
312.6970538245
 20
322.9911602817
 30
0.0
 40
1.749999999998291
100
AcDbArc
 50
179.9999999871
 51
0.0
  0
LINE
  5
D3
330
C9
100
AcDbEntity
  8
DV2_Default
  6
Continuous
 62
     7
100
AcDbLine
 10
314.4470538245
 20
329.4912511669
 30
0.0
 11
314.4470538245
 21
343.2411538545
 31
0.0
  0
LINE
  5
D4
330
C9
100
AcDbEntity
  8
DV2_Default
  6
Continuous
 62
     7
100
AcDbLine
 10
310.9470538245
 20
343.2411538545
 30
0.0
 11
310.9470538245
 21
329.4912511669
 31
0.0
  0
LINE
  5
D5
330
C9
100
AcDbEntity
  8
DV2_Default
  6
Continuous
 62
     7
100
AcDbLine
 10
310.9470538245
 20
329.4912511669
 30
0.0
 11
310.9470538245
 21
322.9912447397
 31
0.0
  0
LINE
  5
D6
330
C9
100
AcDbEntity
  8
DV2_Default
  6
Continuous
 62
     7
100
AcDbLine
 10
314.4470538245
 20
322.9912447397
 30
0.0
 11
314.4470538245
 21
329.4912511669
 31
0.0
  0
LINE
  5
D7
330
C9
100
AcDbEntity
  8
DV2_Default
  6
Continuous
 62
     7
100
AcDbLine
 10
314.4470538245
 20
322.9911602813
 30
0.0
 11
314.4470538245
 21
322.9912447393
 31
0.0
  0
LINE
  5
D8
330
C9
100
AcDbEntity
  8
DV2_Default
  6
Continuous
 62
     7
100
AcDbLine
 10
310.9470538245
 20
322.9912447401
 30
0.0
 11
310.9470538245
 21
322.9911602821
 31
0.0
  0
LINE
  5
D9
330
C9
100
AcDbEntity
  8
DV2_Default
  6
Continuous
 62
     7
100
AcDbLine
 10
329.4470538245
 20
329.4891508921
 30
0.0
 11
329.4470538245
 21
343.2411538545
 31
0.0
  0
LINE
  5
DA
330
C9
100
AcDbEntity
  8
DV2_Default
  6
Continuous
 62
     7
100
AcDbLine
 10
325.9470538245
 20
343.2411538545
 30
0.0
 11
325.9470538245
 21
329.4891508921
 31
0.0
  0
ARC
  5
DB
330
C9
100
AcDbEntity
  8
DV2_Default
  6
Continuous
 62
     7
100
AcDbCircle
 10
327.6970538245
 20
322.9892522764
 30
0.0
 40
1.750000000000029
100
AcDbArc
 50
180.0
 51
0.0
  0
LINE
  5
DC
330
C9
100
AcDbEntity
  8
DV2_Default
  6
Continuous
 62
     7
100
AcDbLine
 10
325.9470538245
 20
329.4891508921
 30
0.0
 11
325.9470538245
 21
322.9892522764
 31
0.0
  0
LINE
  5
DD
330
C9
100
AcDbEntity
  8
DV2_Default
  6
Continuous
 62
     7
100
AcDbLine
 10
329.4470538245
 20
322.9892522764
 30
0.0
 11
329.4470538245
 21
329.4891508921
 31
0.0
  0
ARC
  5
DE
330
C9
100
AcDbEntity
  8
DV2_Default
  6
Continuous
 62
     7
100
AcDbCircle
 10
342.6970538242
 20
322.9912552423
 30
0.0
 40
1.750000000000029
100
AcDbArc
 50
180.0
 51
0.0
  0
LINE
  5
DF
330
C9
100
AcDbEntity
  8
DV2_Default
  6
Continuous
 62
     7
100
AcDbLine
 10
340.9470538242
 20
322.9935233949
 30
0.0
 11
340.9470538242
 21
322.9912552431
 31
0.0
  0
LINE
  5
E0
330
C9
100
AcDbEntity
  8
DV2_Default
  6
Continuous
 62
     7
100
AcDbLine
 10
344.4470538242
 20
322.991255243
 30
0.0
 11
344.4470538242
 21
322.9935233949
 31
0.0
  0
LINE
  5
E1
330
C9
100
AcDbEntity
  8
DV2_Default
  6
Continuous
 62
     7
100
AcDbLine
 10
344.4470538242
 20
322.9935233949
 30
0.0
 11
344.4470538242
 21
329.4936247797
 31
0.0
  0
LINE
  5
E2
330
C9
100
AcDbEntity
  8
DV2_Default
  6
Continuous
 62
     7
100
AcDbLine
 10
340.9470538242
 20
329.4936247797
 30
0.0
 11
340.9470538242
 21
322.9935233949
 31
0.0
  0
LINE
  5
E3
330
C9
100
AcDbEntity
  8
DV2_Default
  6
Continuous
 62
     7
100
AcDbLine
 10
340.9470538242
 20
343.2411538545
 30
0.0
 11
340.9470538242
 21
329.4936247797
 31
0.0
  0
LINE
  5
E4
330
C9
100
AcDbEntity
  8
DV2_Default
  6
Continuous
 62
     7
100
AcDbLine
 10
344.4470538242
 20
329.4936247797
 30
0.0
 11
344.4470538242
 21
343.2411538545
 31
0.0
  0
ARC
  5
E5
330
C9
100
AcDbEntity
  8
DV2_Default
  6
Continuous
 62
     7
100
AcDbCircle
 10
357.6970538242
 20
322.9892315117
 30
0.0
 40
1.750000000000029
100
AcDbArc
 50
180.0
 51
0.0
  0
LINE
  5
E6
330
C9
100
AcDbEntity
  8
DV2_Default
  6
Continuous
 62
     7
100
AcDbLine
 10
359.4470538242
 20
322.9892315117
 30
0.0
 11
359.4470538242
 21
329.4891620845
 31
0.0
  0
LINE
  5
E7
330
C9
100
AcDbEntity
  8
DV2_Default
  6
Continuous
 62
     7
100
AcDbLine
 10
355.9470538242
 20
329.4891620845
 30
0.0
 11
355.9470538242
 21
322.9892315117
 31
0.0
  0
LINE
  5
E8
330
C9
100
AcDbEntity
  8
DV2_Default
  6
Continuous
 62
     7
100
AcDbLine
 10
355.9470538242
 20
343.2411538545
 30
0.0
 11
355.9470538242
 21
329.4891620845
 31
0.0
  0
LINE
  5
E9
330
C9
100
AcDbEntity
  8
DV2_Default
  6
Continuous
 62
     7
100
AcDbLine
 10
359.4470538242
 20
329.4891620845
 30
0.0
 11
359.4470538242
 21
343.2411538545
 31
0.0
  0
LINE
  5
EA
330
C9
100
AcDbEntity
  8
DV2_Default
  6
Continuous
 62
     7
100
AcDbLine
 10
374.4470538245
 20
329.4911538583
 30
0.0
 11
374.4470538245
 21
343.2411538545
 31
0.0
  0
LINE
  5
EB
330
C9
100
AcDbEntity
  8
DV2_Default
  6
Continuous
 62
     7
100
AcDbLine
 10
370.9470538245
 20
343.2411538545
 30
0.0
 11
370.9470538245
 21
329.4911538583
 31
0.0
  0
ARC
  5
EC
330
C9
100
AcDbEntity
  8
DV2_Default
  6
Continuous
 62
     7
100
AcDbCircle
 10
372.6970538245
 20
322.9912885336
 30
0.0
 40
1.750000000000029
100
AcDbArc
 50
180.0
 51
0.0
  0
LINE
  5
ED
330
C9
100
AcDbEntity
  8
DV2_Default
  6
Continuous
 62
     7
100
AcDbLine
 10
370.9470538245
 20
329.4911538583
 30
0.0
 11
370.9470538245
 21
322.9912885336
 31
0.0
  0
LINE
  5
EE
330
C9
100
AcDbEntity
  8
DV2_Default
  6
Continuous
 62
     7
100
AcDbLine
 10
374.4470538245
 20
322.9912885336
 30
0.0
 11
374.4470538245
 21
329.4911538583
 31
0.0
  0
LINE
  5
EF
330
C9
100
AcDbEntity
  8
DV2_Default
  6
Continuous
 62
     7
100
AcDbLine
 10
389.4470538245
 20
329.464323603
 30
0.0
 11
389.4470538245
 21
343.2411538545
 31
0.0
  0
LINE
  5
F0
330
C9
100
AcDbEntity
  8
DV2_Default
  6
Continuous
 62
     7
100
AcDbLine
 10
385.9470538245
 20
343.2411538545
 30
0.0
 11
385.9470538245
 21
329.464323603
 31
0.0
  0
ARC
  5
F1
330
C9
100
AcDbEntity
  8
DV2_Default
  6
Continuous
 62
     7
100
AcDbCircle
 10
387.6970538245
 20
322.9652449192
 30
0.0
 40
1.750000000000029
100
AcDbArc
 50
180.0
 51
0.0
  0
LINE
  5
F2
330
C9
100
AcDbEntity
  8
DV2_Default
  6
Continuous
 62
     7
100
AcDbLine
 10
385.9470538245
 20
329.464323603
 30
0.0
 11
385.9470538245
 21
322.9652449192
 31
0.0
  0
LINE
  5
F3
330
C9
100
AcDbEntity
  8
DV2_Default
  6
Continuous
 62
     7
100
AcDbLine
 10
389.4470538245
 20
322.9652449192
 30
0.0
 11
389.4470538245
 21
329.464323603
 31
0.0
  0
LINE
  5
F4
330
C9
100
AcDbEntity
  8
DV2_Default
  6
Continuous
 62
     7
100
AcDbLine
 10
404.4470538245
 20
329.4911538609
 30
0.0
 11
404.4470538245
 21
343.2411538545
 31
0.0
  0
LINE
  5
F5
330
C9
100
AcDbEntity
  8
DV2_Default
  6
Continuous
 62
     7
100
AcDbLine
 10
400.9470538245
 20
343.2411538545
 30
0.0
 11
400.9470538245
 21
329.4911538609
 31
0.0
  0
LINE
  5
F6
330
C9
100
AcDbEntity
  8
DV2_Default
  6
Continuous
 62
     7
100
AcDbLine
 10
400.9470538245
 20
329.4911538609
 30
0.0
 11
400.9470538245
 21
322.990979498
 31
0.0
  0
LINE
  5
F7
330
C9
100
AcDbEntity
  8
DV2_Default
  6
Continuous
 62
     7
100
AcDbLine
 10
404.4470538245
 20
322.990979498
 30
0.0
 11
404.4470538245
 21
329.4911538609
 31
0.0
  0
LINE
  5
F8
330
C9
100
AcDbEntity
  8
DV2_Default
  6
Continuous
 62
     7
100
AcDbLine
 10
404.4470538245
 20
322.9871726217
 30
0.0
 11
404.4470538245
 21
322.990979498
 31
0.0
  0
LINE
  5
F9
330
C9
100
AcDbEntity
  8
DV2_Default
  6
Continuous
 62
     7
100
AcDbLine
 10
400.9470538245
 20
322.990979498
 30
0.0
 11
400.9470538245
 21
322.9871726217
 31
0.0
  0
ARC
  5
FA
330
C9
100
AcDbEntity
  8
DV2_Default
  6
Continuous
 62
     7
100
AcDbCircle
 10
402.6970538245
 20
322.9871726193
 30
0.0
 40
1.750000000000029
100
AcDbArc
 50
180.0
 51
0.0
  0
ARC
  5
FB
330
C9
100
AcDbEntity
  8
DV2_Default
  6
Continuous
 62
     7
100
AcDbCircle
 10
417.6970538245
 20
322.9911538545
 30
0.0
 40
1.75
100
AcDbArc
 50
180.0
 51
0.0
  0
LINE
  5
FC
330
C9
100
AcDbEntity
  8
DV2_Default
  6
Continuous
 62
     7
100
AcDbLine
 10
419.4470538245
 20
329.4911538545
 30
0.0
 11
419.4470538245
 21
343.2411538545
 31
0.0
  0
LINE
  5
FD
330
C9
100
AcDbEntity
  8
DV2_Default
  6
Continuous
 62
     7
100
AcDbLine
 10
415.9470538245
 20
343.2411538545
 30
0.0
 11
415.9470538245
 21
329.4911538545
 31
0.0
  0
LINE
  5
FE
330
C9
100
AcDbEntity
  8
DV2_Default
  6
Continuous
 62
     7
100
AcDbLine
 10
415.9470538245
 20
329.4911538545
 30
0.0
 11
415.9470538245
 21
322.9911538545
 31
0.0
  0
LINE
  5
FF
330
C9
100
AcDbEntity
  8
DV2_Default
  6
Continuous
 62
     7
100
AcDbLine
 10
419.4470538245
 20
322.9911538545
 30
0.0
 11
419.4470538245
 21
329.4911538545
 31
0.0
  0
LINE
  5
100
330
C9
100
AcDbEntity
  8
DV2_Default
  6
Continuous
 62
     7
100
AcDbLine
 10
276.4894127672
 20
343.2411538545
 30
0.0
 11
350.5823697352
 21
343.2411538545
 31
0.0
  0
ELLIPSE
  5
101
330
C9
100
AcDbEntity
  8
DV2_Default
  6
Continuous
 62
     7
100
AcDbEllipse
 10
278.3986010764
 20
348.2611140137
 30
0.0
 11
-1.766798513047618E-10
 21
-5.699999999930007
 31
0.0
210
0.0
220
0.0
230
1.0
 40
0.7071067812
 41
4.35761821972176
 42
5.789715912590867
  0
SPLINE
  5
102
330
C9
100
AcDbEntity
  8
DV2_Default
  6
Continuous
 62
     7
100
AcDbSpline
210
0.0
220
0.0
230
1.0
 70
     8
 71
     3
 72
    14
 73
    10
 74
     0
 42
0.0000000018832796
 43
0.0000000001
 40
0.0
 40
0.0
 40
0.0
 40
0.0
 40
0.0008809433214852
 40
0.0008809433214852
 40
0.2506607074911141
 40
0.2506607074911141
 40
0.5004404716607429
 40
0.5004404716607429
 40
1.0
 40
1.0
 40
1.0
 40
1.0
 10
278.5591716218439
 20
353.2411537000502
 30
0.0
 10
278.5580424310309
 20
353.2411538147541
 30
0.0
 10
278.5569113026413
 20
353.2411526030435
 30
0.0
 10
278.234511513545
 20
353.2404297378145
 30
0.0
 10
277.7928268914364
 20
353.133665334524
 30
0.0
 10
276.9606392783261
 20
352.8134977742799
 30
0.0
 10
276.5601853524401
 20
352.6018695675754
 30
0.0
 10
275.4519080416175
 20
351.8203661364737
 30
0.0
 10
274.8434020313828
 20
351.0974991336776
 30
0.0
 10
274.6190877326229
 20
350.2411538544907
 30
0.0
  0
LINE
  5
103
330
C9
100
AcDbEntity
  8
DV2_Default
  6
Continuous
 62
     7
100
AcDbLine
 10
423.2146603315
 20
343.2411538545
 30
0.0
 11
403.3300746859
 21
343.2411538545
 31
0.0
  0
LINE
  5
104
330
C9
100
AcDbEntity
  8
DV2_Default
  6
Continuous
 62
     7
100
AcDbLine
 10
350.5823697352
 20
343.2411538545
 30
0.0
 11
403.330074717
 21
343.2411538545
 31
0.0
  0
LINE
  5
105
330
C9
100
AcDbEntity
  8
DV2_Default
  6
Continuous
 62
     7
100
AcDbLine
 10
400.6560514998
 20
353.2411538545
 30
0.0
 11
352.702616203
 21
353.2411538545
 31
0.0
  0
LINE
  5
106
330
C9
100
AcDbEntity
  8
DV2_Default
  6
Continuous
 62
     7
100
AcDbLine
 10
352.702616203
 20
353.2411538545
 30
0.0
 11
278.5558044612
 21
353.2411538545
 31
0.0
  0
LINE
  5
107
330
C9
100
AcDbEntity
  8
DV2_Default
  6
Continuous
 62
     7
100
AcDbLine
 10
423.2146603315
 20
343.2411538545
 30
0.0
 11
423.2146603315
 21
350.2411538545
 31
0.0
  0
ARC
  5
108
330
C9
100
AcDbEntity
  8
DV2_Default
  6
Continuous
 62
     7
100
AcDbCircle
 10
420.2146603315
 20
350.2411538545
 30
0.0
 40
2.999999999999892
100
AcDbArc
 50
0.0
 51
90.0
  0
LINE
  5
109
330
C9
100
AcDbEntity
  8
DV2_Default
  6
Continuous
 62
     7
100
AcDbLine
 10
420.2146603315
 20
353.2411538545
 30
0.0
 11
400.6560514997
 21
353.2411538545
 31
0.0
  0
ELLIPSE
  5
10A
330
C9
100
AcDbEntity
  8
DV2_Default
  6
Continuous
 62
     7
100
AcDbEllipse
 10
307.3195067541
 20
347.7411538545
 30
0.0
 11
6.938893903907228E-15
 21
-5.300000000000002
 31
0.0
210
0.0
220
0.0
230
1.0
 40
0.7071067812
 41
5.726585989169362
 42
6.283185307179584
  0
ELLIPSE
  5
10B
330
C9
100
AcDbEntity
  8
DV2_Default
  6
Continuous
 62
     7
100
AcDbEllipse
 10
307.3195067541
 20
347.7411538545
 30
0.0
 11
6.938893903907228E-15
 21
-5.300000000000002
 31
0.0
210
0.0
220
0.0
230
1.0
 40
0.7071067812
 41
0.0
 42
0.5565993180102224
  0
ELLIPSE
  5
10C
330
C9
100
AcDbEntity
  8
DV2_Default
  6
Continuous
 62
     7
100
AcDbEllipse
 10
310.3600659132
 20
347.7411538545
 30
0.0
 11
-6.938893903907228E-15
 21
-5.300000000000002
 31
0.0
210
0.0
220
0.0
230
1.0
 40
0.7071067812
 41
0.0000000000000019
 42
0.1572751752747629
  0
LINE
  5
10D
330
C9
100
AcDbEntity
  8
DV2_Default
  6
Continuous
 62
     7
100
AcDbLine
 10
307.3195067541
 20
342.4411538545
 30
0.0
 11
310.3600659132
 21
342.4411538545
 31
0.0
  0
ELLIPSE
  5
10E
330
C9
100
AcDbEntity
  8
DV2_Default
  6
Continuous
 62
     7
100
AcDbEllipse
 10
337.9382887443
 20
347.7411538545
 30
0.0
 11
0.0
 21
4.916299421312734
 31
0.0
210
0.0
220
0.0
230
1.0
 40
1.0
 41
2.727104585512592
 42
3.556080721666994
  0
LINE
  5
10F
330
C9
100
AcDbEntity
  8
DV2_Default
  6
Continuous
 62
     7
100
AcDbLine
 10
337.9382887443
 20
342.4411538545
 30
0.0
 11
340.9470538242
 21
342.4411538545
 31
0.0
  0
ENDBLK
  5
111
330
C9
100
AcDbEntity
  8
0
100
AcDbBlockEnd
  0
BLOCK
  5
172
330
112
100
AcDbEntity
  8
0
100
AcDbBlockBegin
  2
SE2
 70
     0
 10
0.0
 20
0.0
 30
0.0
  3
SE2
  1

  0
LINE
  5
115
330
112
100
AcDbEntity
  8
DV3_Default
  6
Continuous
 62
     7
100
AcDbLine
 10
173.8085693839
 20
195.3740375275
 30
0.0
 11
181.3039012645
 21
187.8787056469
 31
0.0
  0
LINE
  5
116
330
112
100
AcDbEntity
  8
DV3_Default
  6
Continuous
 62
     7
100
AcDbLine
 10
178.2633421054
 20
184.8381464878
 30
0.0
 11
170.7680102248
 21
192.3334783684
 31
0.0
  0
LINE
  5
117
330
112
100
AcDbEntity
  8
DV3_Default
  6
Continuous
 62
     7
100
AcDbLine
 10
173.8085693839
 20
195.3740375275
 30
0.0
 11
170.7680102248
 21
192.3334783684
 31
0.0
  0
LINE
  5
118
330
112
100
AcDbEntity
  8
DV3_Default
  6
Continuous
 62
     7
100
AcDbLine
 10
178.2633421054
 20
184.8381464878
 30
0.0
 11
181.3039012645
 21
187.8787056469
 31
0.0
  0
ARC
  5
119
330
112
100
AcDbEntity
  8
DV3_Default
  6
Continuous
 62
     7
100
AcDbCircle
 10
180.5119249925
 20
194.5820612555
 30
0.0
 40
10.00000000000019
100
AcDbArc
 50
192.9945451722
 51
257.0054548278
  0
LINE
  5
11A
330
112
100
AcDbEntity
  8
DV3_Default
  6
Continuous
 62
     7
100
AcDbLine
 10
153.3014143647
 20
224.366473921
 30
0.0
 11
149.0587736776
 21
228.6091146081
 31
0.0
  0
LINE
  5
11B
330
112
100
AcDbEntity
  8
DV3_Default
  6
Continuous
 62
     7
100
AcDbLine
 10
143.1897873937
 20
225.9928195177
 30
0.0
 11
150.6851192743
 21
218.4974876371
 31
0.0
  0
LINE
  5
11C
330
112
100
AcDbEntity
  8
DV3_Default
  6
Continuous
 62
     7
100
AcDbLine
 10
147.6445601152
 20
215.456928478
 30
0.0
 11
140.1492282346
 21
222.9522603586
 31
0.0
  0
LINE
  5
11D
330
112
100
AcDbEntity
  8
DV3_Default
  6
Continuous
 62
     7
100
AcDbLine
 10
143.1897873937
 20
225.9928195177
 30
0.0
 11
140.1492282346
 21
222.9522603586
 31
0.0
  0
LINE
  5
11E
330
112
100
AcDbEntity
  8
DV3_Default
  6
Continuous
 62
     7
100
AcDbLine
 10
147.6445601152
 20
215.456928478
 30
0.0
 11
150.6851192743
 21
218.4974876371
 31
0.0
  0
ARC
  5
11F
330
112
100
AcDbEntity
  8
DV3_Default
  6
Continuous
 62
     7
100
AcDbCircle
 10
149.8931430023
 20
225.2008432457
 30
0.0
 40
10.00000000000019
100
AcDbArc
 50
192.9945451722
 51
257.0054548278
  0
LINE
  5
120
330
112
100
AcDbEntity
  8
DV3_Default
  6
Continuous
 62
     7
100
AcDbLine
 10
135.0576652379
 20
230.1176065073
 30
0.0
 11
139.0650004052
 21
230.1176065073
 31
0.0
  0
LINE
  5
121
330
112
100
AcDbEntity
  8
DV3_Default
  6
Continuous
 62
     7
100
AcDbLine
 10
135.5650004052
 20
233.6176065073
 30
0.0
 11
135.0576652379
 21
233.6176065073
 31
0.0
  0
LINE
  5
122
330
112
100
AcDbEntity
  8
DV3_Default
  6
Continuous
 62
     7
100
AcDbLine
 10
79.6423652379
 20
230.1176065073
 30
0.0
 11
135.0576652379
 21
230.1176065073
 31
0.0
  0
LINE
  5
123
330
112
100
AcDbEntity
  8
DV3_Default
  6
Continuous
 62
     7
100
AcDbLine
 10
135.0576652379
 20
233.6176065073
 30
0.0
 11
79.6423652379
 21
233.6176065073
 31
0.0
  0
LINE
  5
124
330
112
100
AcDbEntity
  8
DV3_Default
  6
Continuous
 62
     7
100
AcDbLine
 10
75.6349996646
 20
230.1176065073
 30
0.0
 11
79.6423652379
 21
230.1176065073
 31
0.0
  0
LINE
  5
125
330
112
100
AcDbEntity
  8
DV3_Default
  6
Continuous
 62
     7
100
AcDbLine
 10
79.6423652379
 20
233.6176065073
 30
0.0
 11
79.1349996646
 21
233.6176065073
 31
0.0
  0
LINE
  5
126
330
112
100
AcDbEntity
  8
DV3_Default
  6
Continuous
 62
     7
100
AcDbLine
 10
60.6349996642
 20
215.117606507
 30
0.0
 11
64.6423348322
 21
215.117606507
 31
0.0
  0
LINE
  5
127
330
112
100
AcDbEntity
  8
DV3_Default
  6
Continuous
 62
     7
100
AcDbLine
 10
142.3657932667
 20
218.617606507
 30
0.0
 11
72.3342068028
 21
218.617606507
 31
0.0
  0
LINE
  5
128
330
112
100
AcDbEntity
  8
DV3_Default
  6
Continuous
 62
     7
100
AcDbLine
 10
64.6423348322
 20
215.117606507
 30
0.0
 11
150.0576348321
 21
215.117606507
 31
0.0
  0
LINE
  5
129
330
112
100
AcDbEntity
  8
DV3_Default
  6
Continuous
 62
     7
100
AcDbLine
 10
150.0576348321
 20
215.117606507
 30
0.0
 11
154.0650004055
 21
215.117606507
 31
0.0
  0
LINE
  5
12A
330
112
100
AcDbEntity
  8
DV3_Default
  6
Continuous
 62
     7
100
AcDbLine
 10
49.6427398548
 20
203.617606507
 30
0.0
 11
49.1349996642
 21
203.617606507
 31
0.0
  0
LINE
  5
12B
330
112
100
AcDbEntity
  8
DV3_Default
  6
Continuous
 62
     7
100
AcDbLine
 10
45.6349996642
 20
200.117606507
 30
0.0
 11
49.6427398548
 21
200.117606507
 31
0.0
  0
LINE
  5
12C
330
112
100
AcDbEntity
  8
DV3_Default
  6
Continuous
 62
     7
100
AcDbLine
 10
165.0577398408
 20
203.617606507
 30
0.0
 11
49.6427398548
 21
203.617606507
 31
0.0
  0
LINE
  5
12D
330
112
100
AcDbEntity
  8
DV3_Default
  6
Continuous
 62
     7
100
AcDbLine
 10
49.6427398548
 20
200.117606507
 30
0.0
 11
165.0577398408
 21
200.117606507
 31
0.0
  0
LINE
  5
12E
330
112
100
AcDbEntity
  8
DV3_Default
  6
Continuous
 62
     7
100
AcDbLine
 10
165.5650004055
 20
203.617606507
 30
0.0
 11
165.0577398408
 21
203.617606507
 31
0.0
  0
LINE
  5
12F
330
112
100
AcDbEntity
  8
DV3_Default
  6
Continuous
 62
     7
100
AcDbLine
 10
165.0577398408
 20
200.117606507
 30
0.0
 11
169.0650004055
 21
200.117606507
 31
0.0
  0
LINE
  5
130
330
112
100
AcDbEntity
  8
DV3_Default
  6
Continuous
 62
     7
100
AcDbLine
 10
180.0572602098
 20
185.1176065073
 30
0.0
 11
184.0650004052
 21
185.1176065073
 31
0.0
  0
LINE
  5
131
330
112
100
AcDbEntity
  8
DV3_Default
  6
Continuous
 62
     7
100
AcDbLine
 10
34.6422602275
 20
185.1176065073
 30
0.0
 11
36.1571979446
 21
185.1176065073
 31
0.0
  0
LINE
  5
132
330
112
100
AcDbEntity
  8
DV3_Default
  6
Continuous
 62
     7
100
AcDbLine
 10
37.4167119906
 20
185.1176065073
 30
0.0
 11
177.283288079
 21
185.1176065073
 31
0.0
  0
LINE
  5
133
330
112
100
AcDbEntity
  8
DV3_Default
  6
Continuous
 62
     7
100
AcDbLine
 10
178.5428021249
 20
185.1176065073
 30
0.0
 11
180.0572602098
 21
185.1176065073
 31
0.0
  0
LINE
  5
134
330
112
100
AcDbEntity
  8
DV3_Default
  6
Continuous
 62
     7
100
AcDbLine
 10
172.48538903
 20
188.6176065073
 30
0.0
 11
42.2146110395
 21
188.6176065073
 31
0.0
  0
LINE
  5
135
330
112
100
AcDbEntity
  8
DV3_Default
  6
Continuous
 62
     7
100
AcDbLine
 10
30.6349996646
 20
185.1176065073
 30
0.0
 11
34.6422602275
 21
185.1176065073
 31
0.0
  0
LINE
  5
136
330
112
100
AcDbEntity
  8
DV3_Default
  6
Continuous
 62
     7
100
AcDbLine
 10
194.0881615818
 20
170.1176065073
 30
0.0
 11
198.1459386164
 21
170.1176065073
 31
0.0
  0
LINE
  5
137
330
112
100
AcDbEntity
  8
DV3_Default
  6
Continuous
 62
     7
100
AcDbLine
 10
195.5025049689
 20
173.6176065073
 30
0.0
 11
194.0881615818
 21
173.6176065073
 31
0.0
  0
LINE
  5
138
330
112
100
AcDbEntity
  8
DV3_Default
  6
Continuous
 62
     7
100
AcDbLine
 10
20.6121615917
 20
170.1176065073
 30
0.0
 11
194.0881615818
 21
170.1176065073
 31
0.0
  0
LINE
  5
139
330
112
100
AcDbEntity
  8
DV3_Default
  6
Continuous
 62
     7
100
AcDbLine
 10
194.0881615818
 20
173.6176065073
 30
0.0
 11
20.6121615917
 21
173.6176065073
 31
0.0
  0
LINE
  5
13A
330
112
100
AcDbEntity
  8
DV3_Default
  6
Continuous
 62
     7
100
AcDbLine
 10
16.5540614533
 20
170.1176065073
 30
0.0
 11
20.6121615917
 21
170.1176065073
 31
0.0
  0
LINE
  5
13B
330
112
100
AcDbEntity
  8
DV3_Default
  6
Continuous
 62
     7
100
AcDbLine
 10
20.6121615917
 20
173.6176065073
 30
0.0
 11
19.1974951009
 21
173.6176065073
 31
0.0
  0
LINE
  5
13C
330
112
100
AcDbEntity
  8
DV3_Default
  6
Continuous
 62
     7
100
AcDbLine
 10
15.875271995
 20
158.617606507
 30
0.0
 11
12.5137106203
 21
158.617606507
 31
0.0
  0
LINE
  5
13D
330
112
100
AcDbEntity
  8
DV3_Default
  6
Continuous
 62
     7
100
AcDbLine
 10
12.3552266474
 20
155.117606507
 30
0.0
 11
15.875271995
 21
155.117606507
 31
0.0
  0
LINE
  5
13E
330
112
100
AcDbEntity
  8
DV3_Default
  6
Continuous
 62
     7
100
AcDbLine
 10
198.8252719557
 20
158.617606507
 30
0.0
 11
15.875271995
 21
158.617606507
 31
0.0
  0
LINE
  5
13F
330
112
100
AcDbEntity
  8
DV3_Default
  6
Continuous
 62
     7
100
AcDbLine
 10
15.875271995
 20
155.117606507
 30
0.0
 11
198.8252719557
 21
155.117606507
 31
0.0
  0
LINE
  5
140
330
112
100
AcDbEntity
  8
DV3_Default
  6
Continuous
 62
     7
100
AcDbLine
 10
202.1862894494
 20
158.617606507
 30
0.0
 11
198.8252719557
 21
158.617606507
 31
0.0
  0
LINE
  5
141
330
112
100
AcDbEntity
  8
DV3_Default
  6
Continuous
 62
     7
100
AcDbLine
 10
198.8252719557
 20
155.117606507
 30
0.0
 11
202.3447734223
 21
155.117606507
 31
0.0
  0
LINE
  5
142
330
112
100
AcDbEntity
  8
DV3_Default
  6
Continuous
 62
     7
100
AcDbLine
 10
19.2061801876
 20
143.617606507
 30
0.0
 11
15.1787484339
 21
143.617606507
 31
0.0
  0
LINE
  5
143
330
112
100
AcDbEntity
  8
DV3_Default
  6
Continuous
 62
     7
100
AcDbLine
 10
17.2642407168
 20
140.117606507
 30
0.0
 11
19.2061801876
 21
140.117606507
 31
0.0
  0
LINE
  5
144
330
112
100
AcDbEntity
  8
DV3_Default
  6
Continuous
 62
     7
100
AcDbLine
 10
195.4981784167
 20
143.617606507
 30
0.0
 11
19.2061801876
 21
143.617606507
 31
0.0
  0
LINE
  5
145
330
112
100
AcDbEntity
  8
DV3_Default
  6
Continuous
 62
     7
100
AcDbLine
 10
19.2061801876
 20
140.117606507
 30
0.0
 11
195.4981784167
 21
140.117606507
 31
0.0
  0
LINE
  5
146
330
112
100
AcDbEntity
  8
DV3_Default
  6
Continuous
 62
     7
100
AcDbLine
 10
199.5212516359
 20
143.617606507
 30
0.0
 11
195.4981784167
 21
143.617606507
 31
0.0
  0
LINE
  5
147
330
112
100
AcDbEntity
  8
DV3_Default
  6
Continuous
 62
     7
100
AcDbLine
 10
195.4981784167
 20
140.117606507
 30
0.0
 11
197.4357593529
 21
140.117606507
 31
0.0
  0
LINE
  5
148
330
112
100
AcDbEntity
  8
DV3_Default
  6
Continuous
 62
     7
100
AcDbLine
 10
36.3930876195
 20
128.617606507
 30
0.0
 11
33.2278192655
 21
128.617606507
 31
0.0
  0
LINE
  5
149
330
112
100
AcDbEntity
  8
DV3_Default
  6
Continuous
 62
     7
100
AcDbLine
 10
178.3060875685
 20
128.617606507
 30
0.0
 11
36.3930876195
 21
128.617606507
 31
0.0
  0
LINE
  5
14A
330
112
100
AcDbEntity
  8
DV3_Default
  6
Continuous
 62
     7
100
AcDbLine
 10
41.3445386884
 20
125.117606507
 30
0.0
 11
173.3554613813
 21
125.117606507
 31
0.0
  0
LINE
  5
14B
330
112
100
AcDbEntity
  8
DV3_Default
  6
Continuous
 62
     7
100
AcDbLine
 10
181.4721808042
 20
128.617606507
 30
0.0
 11
178.3060875685
 21
128.617606507
 31
0.0
  0
LINE
  5
14C
330
112
100
AcDbEntity
  8
DV3_Default
  6
Continuous
 62
     7
100
AcDbLine
 10
128.4953512312
 20
113.617606507
 30
0.0
 11
86.2046488386
 21
113.617606507
 31
0.0
  0
LINE
  5
14D
330
112
100
AcDbEntity
  8
DV3_Default
  6
Continuous
 62
     7
100
AcDbLine
 10
91.9776843823
 20
254.9455725989
 30
0.0
 11
64.6925099882
 21
227.6603982047
 31
0.0
  0
LINE
  5
14E
330
112
100
AcDbEntity
  8
DV3_Default
  6
Continuous
 62
     7
100
AcDbLine
 10
62.3473021083
 20
225.3151903248
 30
0.0
 11
34.073727998
 21
197.0416162145
 31
0.0
  0
LINE
  5
14F
330
112
100
AcDbEntity
  8
DV3_Default
  6
Continuous
 62
     7
100
AcDbLine
 10
31.7285201181
 20
194.6964083345
 30
0.0
 11
16.0154762559
 21
178.9833644723
 31
0.0
  0
LINE
  5
150
330
112
100
AcDbEntity
  8
DV3_Default
  6
Continuous
 62
     7
100
AcDbLine
 10
91.9776843824
 20
254.9455725987
 30
0.0
 11
92.2286796915
 21
255.1965679079
 31
0.0
  0
SPLINE
  5
151
330
112
100
AcDbEntity
  8
DV3_Default
  6
Continuous
 62
     7
100
AcDbSpline
210
0.0
220
0.0
230
1.0
 70
     8
 71
     3
 72
    18
 73
    14
 74
     0
 42
0.0000000011837682
 43
0.0000000001
 40
0.0
 40
0.0
 40
0.0
 40
0.0
 40
0.2500000000000003
 40
0.2500000000000003
 40
0.3750000000000003
 40
0.3750000000000003
 40
0.5000000000000003
 40
0.5000000000000003
 40
0.6250000000000003
 40
0.6250000000000003
 40
0.7500000000000003
 40
0.7500000000000003
 40
1.0
 40
1.0
 40
1.0
 40
1.0
 10
96.22032506942166
 20
250.7029319116668
 30
0.0
 10
95.99592391209363
 20
250.4785307543636
 30
0.0
 10
95.38084392753618
 20
250.3601353012489
 30
0.0
 10
94.2751282200541
 20
250.3362894290575
 30
0.0
 10
93.86889512763238
 20
250.3540524823804
 30
0.0
 10
93.03892450525706
 20
250.5223807549661
 30
0.0
 10
92.59632616515952
 20
250.6876153782638
 30
0.0
 10
91.9574517394642
 20
251.3301488179466
 30
0.0
 10
91.7945906759042
 20
251.7718334400552
 30
0.0
 10
91.62781130532579
 20
252.6040210531655
 30
0.0
 10
91.61085418658018
 20
253.0044749790515
 30
0.0
 10
91.63558924377999
 20
254.1127522898742
 30
0.0
 10
91.75337008360736
 20
254.7212583001088
 30
0.0
 10
91.97768438231643
 20
254.9455725988688
 30
0.0
  0
LINE
  5
152
330
112
100
AcDbEntity
  8
DV3_Default
  6
Continuous
 62
     7
100
AcDbLine
 10
96.4713203786
 20
250.9539272208
 30
0.0
 11
96.2203250694
 21
250.7029319117
 31
0.0
  0
LINE
  5
153
330
112
100
AcDbEntity
  8
DV3_Default
  6
Continuous
 62
     7
100
AcDbLine
 10
96.2203250694
 20
250.7029319117
 30
0.0
 11
69.9704865199
 21
224.4530933621
 31
0.0
  0
LINE
  5
154
330
112
100
AcDbEntity
  8
DV3_Default
  6
Continuous
 62
     7
100
AcDbLine
 10
65.5546069508
 20
220.037213793
 30
0.0
 11
39.3517045297
 21
193.834311372
 31
0.0
  0
LINE
  5
155
330
112
100
AcDbEntity
  8
DV3_Default
  6
Continuous
 62
     7
100
AcDbLine
 10
34.9358249606
 20
189.4184318028
 30
0.0
 11
20.2581169429
 21
174.7407237851
 31
0.0
  0
ARC
  5
156
330
112
100
AcDbEntity
  8
DV3_Default
  6
Continuous
 62
     7
100
AcDbCircle
 10
39.3500000349
 20
155.6488406931
 30
0.0
 40
32.99999999992071
100
AcDbArc
 50
134.9999999998
 51
243.0422508607
  0
ARC
  5
157
330
112
100
AcDbEntity
  8
DV3_Default
  6
Continuous
 62
     7
100
AcDbCircle
 10
39.3500000349
 20
155.6488406931
 30
0.0
 40
26.99999999994805
100
AcDbArc
 50
135.0
 51
243.0422508607
  0
ARC
  5
158
330
112
100
AcDbEntity
  8
DV3_Default
  6
Continuous
 62
     7
100
AcDbCircle
 10
107.3500000349
 20
289.35
 30
0.0
 40
176.9999999999983
100
AcDbArc
 50
243.0422508607
 51
296.9577491393
  0
ARC
  5
159
330
112
100
AcDbEntity
  8
DV3_Default
  6
Continuous
 62
     7
100
AcDbCircle
 10
175.3500000349
 20
155.6488406931
 30
0.0
 40
26.99999999994805
100
AcDbArc
 50
296.9577491393
 51
45.0
  0
LINE
  5
15A
330
112
100
AcDbEntity
  8
DV3_Default
  6
Continuous
 62
     7
100
AcDbLine
 10
118.4796750004
 20
250.7029319118
 30
0.0
 11
143.632911006
 21
225.5496959061
 31
0.0
  0
LINE
  5
15B
330
112
100
AcDbEntity
  8
DV3_Default
  6
Continuous
 62
     7
100
AcDbLine
 10
150.2419956627
 20
218.9406112494
 30
0.0
 11
174.2516929961
 21
194.9309139159
 31
0.0
  0
LINE
  5
15C
330
112
100
AcDbEntity
  8
DV3_Default
  6
Continuous
 62
     7
100
AcDbLine
 10
180.8607776529
 20
188.3218292591
 30
0.0
 11
194.4418831269
 21
174.7407237851
 31
0.0
  0
LINE
  5
15D
330
112
100
AcDbEntity
  8
DV3_Default
  6
Continuous
 62
     7
100
AcDbLine
 10
118.4796750004
 20
250.7029319116
 30
0.0
 11
118.2286796912
 21
250.9539272208
 31
0.0
  0
LINE
  5
15E
330
112
100
AcDbEntity
  8
DV3_Default
  6
Continuous
 62
     7
100
AcDbLine
 10
122.4713203782
 20
255.196567908
 30
0.0
 11
122.7223156874
 21
254.9455725988
 31
0.0
  0
SPLINE
  5
15F
330
112
100
AcDbEntity
  8
DV3_Default
  6
Continuous
 62
     7
100
AcDbSpline
210
0.0
220
0.0
230
1.0
 70
     8
 71
     3
 72
    18
 73
    14
 74
     0
 42
0.0000000011837682
 43
0.0000000001
 40
0.0
 40
0.0
 40
0.0
 40
0.0
 40
0.2500000000000193
 40
0.2500000000000193
 40
0.3750000000000162
 40
0.3750000000000162
 40
0.5000000000000131
 40
0.5000000000000131
 40
0.62500000000001
 40
0.62500000000001
 40
0.7500000000000068
 40
0.7500000000000068
 40
1.0
 40
1.0
 40
1.0
 40
1.0
 10
122.7223156873668
 20
254.9455725987807
 30
0.0
 10
122.9467168446957
 20
254.7211714414327
 30
0.0
 10
123.0651122979379
 20
254.1060914569939
 30
0.0
 10
123.0889581701285
 20
253.0003757495084
 30
0.0
 10
123.0711951168069
 20
252.5941426570852
 30
0.0
 10
122.9028668442197
 20
251.7641720347041
 30
0.0
 10
122.7376322209194
 20
251.3215736946054
 30
0.0
 10
122.0950987812304
 20
250.6826992689121
 30
0.0
 10
121.6534141591191
 20
250.5198382053542
 30
0.0
 10
120.8212265460048
 20
250.3530588347791
 30
0.0
 10
120.4207726201195
 20
250.3361017160346
 30
0.0
 10
119.3124953092933
 20
250.3608367732372
 30
0.0
 10
118.7039892990652
 20
250.4786176130665
 30
0.0
 10
118.4796750003917
 20
250.7029319117928
 30
0.0
  0
LINE
  5
160
330
112
100
AcDbEntity
  8
DV3_Default
  6
Continuous
 62
     7
100
AcDbLine
 10
122.7223156874
 20
254.9455725988
 30
0.0
 11
198.6845238139
 21
178.9833644723
 31
0.0
  0
ARC
  5
161
330
112
100
AcDbEntity
  8
DV3_Default
  6
Continuous
 62
     7
100
AcDbCircle
 10
175.3500000349
 20
155.6488406931
 30
0.0
 40
32.99999999992071
100
AcDbArc
 50
296.9577491393
 51
45.0000000002
  0
ARC
  5
162
330
112
100
AcDbEntity
  8
DV3_Default
  6
Continuous
 62
     7
100
AcDbCircle
 10
107.3500000349
 20
289.35
 30
0.0
 40
183.0000000000207
100
AcDbArc
 50
243.0422508607
 51
296.9577491393
  0
LINE
  5
163
330
112
100
AcDbEntity
  8
DV3_Default
  6
Continuous
 62
     7
100
AcDbLine
 10
96.4713203787
 20
250.9539272208
 30
0.0
 11
92.2286796916
 21
255.1965679079
 31
0.0
  0
LINE
  5
164
330
112
100
AcDbEntity
  8
DV3_Default
  6
Continuous
 62
     7
100
AcDbLine
 10
122.4713203781
 20
255.1965679079
 30
0.0
 11
118.2286796911
 21
250.9539272208
 31
0.0
  0
LINE
  5
165
330
112
100
AcDbEntity
  8
DV3_Default
  6
Continuous
 62
     7
100
AcDbLine
 10
183.9201963549
 20
193.7476919308
 30
0.0
 11
179.6775556678
 21
197.9903326179
 31
0.0
  0
LINE
  5
166
330
112
100
AcDbEntity
  8
DV3_Default
  6
Continuous
 62
     7
100
AcDbLine
 10
64.0148807952
 20
218.4974876371
 30
0.0
 11
71.5102126758
 21
225.9928195177
 31
0.0
  0
LINE
  5
167
330
112
100
AcDbEntity
  8
DV3_Default
  6
Continuous
 62
     7
100
AcDbLine
 10
74.5507718349
 20
222.9522603586
 30
0.0
 11
67.0554399543
 21
215.456928478
 31
0.0
  0
LINE
  5
168
330
112
100
AcDbEntity
  8
DV3_Default
  6
Continuous
 62
     7
100
AcDbLine
 10
64.0148807952
 20
218.4974876371
 30
0.0
 11
67.0554399543
 21
215.456928478
 31
0.0
  0
LINE
  5
169
330
112
100
AcDbEntity
  8
DV3_Default
  6
Continuous
 62
     7
100
AcDbLine
 10
74.5507718349
 20
222.9522603586
 30
0.0
 11
71.5102126758
 21
225.9928195177
 31
0.0
  0
ARC
  5
16A
330
112
100
AcDbEntity
  8
DV3_Default
  6
Continuous
 62
     7
100
AcDbCircle
 10
64.8068570672
 20
225.2008432457
 30
0.0
 40
10.00000000000019
100
AcDbArc
 50
282.9945451722
 51
347.0054548278
  0
LINE
  5
16B
330
112
100
AcDbEntity
  8
DV3_Default
  6
Continuous
 62
     7
100
AcDbLine
 10
65.641226392
 20
228.6091146081
 30
0.0
 11
61.3985857048
 21
224.366473921
 31
0.0
  0
LINE
  5
16C
330
112
100
AcDbEntity
  8
DV3_Default
  6
Continuous
 62
     7
100
AcDbLine
 10
33.396098805
 20
187.8787056469
 30
0.0
 11
40.8914306856
 21
195.3740375275
 31
0.0
  0
LINE
  5
16D
330
112
100
AcDbEntity
  8
DV3_Default
  6
Continuous
 62
     7
100
AcDbLine
 10
43.9319898447
 20
192.3334783684
 30
0.0
 11
36.4366579641
 21
184.8381464878
 31
0.0
  0
LINE
  5
16E
330
112
100
AcDbEntity
  8
DV3_Default
  6
Continuous
 62
     7
100
AcDbLine
 10
33.396098805
 20
187.8787056469
 30
0.0
 11
36.4366579641
 21
184.8381464878
 31
0.0
  0
LINE
  5
16F
330
112
100
AcDbEntity
  8
DV3_Default
  6
Continuous
 62
     7
100
AcDbLine
 10
43.9319898447
 20
192.3334783684
 30
0.0
 11
40.8914306856
 21
195.3740375275
 31
0.0
  0
ARC
  5
170
330
112
100
AcDbEntity
  8
DV3_Default
  6
Continuous
 62
     7
100
AcDbCircle
 10
34.188075077
 20
194.5820612555
 30
0.0
 40
10.00000000000019
100
AcDbArc
 50
282.9945451722
 51
347.0054548278
  0
LINE
  5
171
330
112
100
AcDbEntity
  8
DV3_Default
  6
Continuous
 62
     7
100
AcDbLine
 10
35.0224444018
 20
197.9903326179
 30
0.0
 11
30.7798037146
 21
193.7476919308
 31
0.0
  0
ENDBLK
  5
173
330
112
100
AcDbEntity
  8
0
100
AcDbBlockEnd
  0
ENDSEC
  0
SECTION
  2
ENTITIES
  0
INSERT
  5
5F
330
1F
100
AcDbEntity
  8
Default
100
AcDbBlockReference
  2
SE
 10
0.0
 20
0.0
 30
0.0
  0
INSERT
  5
CA
330
1F
100
AcDbEntity
  8
Default
100
AcDbBlockReference
  2
SE1
 10
0.0
 20
0.0
 30
0.0
  0
INSERT
  5
113
330
1F
100
AcDbEntity
  8
Default
100
AcDbBlockReference
  2
SE2
 10
0.0
 20
0.0
 30
0.0
  0
TEXT
  5
175
330
1F
100
AcDbEntity
  8
Default
  6
Continuous
 62
     7
100
AcDbText
 10
5.9362635081
 20
53.4225120485
 30
0.0
 40
10.0
  1
Grohe AG^J
  7
SEACAD_seiso_ttf
 11
5.9362635081
 21
63.4225120485
 31
0.0
100
AcDbText
 73
     3
  0
TEXT
  5
176
330
1F
100
AcDbEntity
  8
Default
  6
Continuous
 62
     7
100
AcDbText
 10
5.9362635081
 20
37.0588756849
 30
0.0
 40
10.0
  1
 
  7
SEACAD_seiso_ttf
 11
5.9362635081
 21
47.0588756849
 31
0.0
100
AcDbText
 73
     3
  0
TEXT
  5
177
330
1F
100
AcDbEntity
  8
Default
  6
Continuous
 62
     7
100
AcDbText
 10
5.9362635081
 20
20.6952393213
 30
0.0
 40
10.0
  1
ecn:
  7
SEACAD_seiso_ttf
 11
5.9362635081
 21
30.6952393213
 31
0.0
100
AcDbText
 73
     3
  0
TEXT
  5
178
330
1F
100
AcDbEntity
  8
Default
  6
Continuous
 62
     7
100
AcDbText
 10
5.9362635081
 20
4.3316029576
 30
0.0
 40
10.0
  1
unit: mm
  7
SEACAD_seiso_ttf
 11
5.9362635081
 21
14.3316029576
 31
0.0
100
AcDbText
 73
     3
  0
LINE
  5
179
330
1F
100
AcDbEntity
  8
Default
  6
Continuous
 62
     7
100
AcDbLine
 10
0.0
 20
0.0
 30
0.0
 11
100.0
 21
0.0
 31
0.0
  0
LINE
  5
17A
330
1F
100
AcDbEntity
  8
Default
  6
Continuous
 62
     7
100
AcDbLine
 10
0.0
 20
0.0
 30
0.0
 11
0.0
 21
100.0
 31
0.0
  0
TEXT
  5
17B
330
1F
100
AcDbEntity
  8
Default
  6
Continuous
 62
     7
100
AcDbText
 10
24.3923665681
 20
-18.2375342018
 30
0.0
 40
10.0
  1
100 mm
  7
SEACAD_seiso_ttf
 11
24.3923665681
 21
-8.2375342018
 31
0.0
100
AcDbText
 73
     3
  0
TEXT
  5
17C
330
1F
100
AcDbEntity
  8
Default
  6
Continuous
 62
     7
100
AcDbText
 10
-7.6150308803
 20
24.6231930421
 30
0.0
 40
10.0
  1
100 mm
 50
90.0
  7
SEACAD_seiso_ttf
 11
-17.6150308803
 21
24.6231930421
 31
0.0
100
AcDbText
 73
     3
  0
TEXT
  5
17D
330
1F
100
AcDbEntity
  8
Default
  6
Continuous
 62
     7
100
AcDbText
 10
28.4878128572
 20
20.0907663715
 30
0.0
 40
10.0
  1
226136
  7
SEACAD_seiso_ttf
 11
28.4878128572
 21
30.0907663715
 31
0.0
100
AcDbText
 73
     3
  0
TEXT
  5
17E
330
1F
100
AcDbEntity
  8
Default
  6
Continuous
 62
     7
100
AcDbText
 10
5.9012241913
 20
36.7242780188
 30
0.0
 40
10.0
  1
40664000
  7
SEACAD_seiso_ttf
 11
5.9012241913
 21
46.7242780188
 31
0.0
100
AcDbText
 73
     3
  0
ENDSEC
  0
SECTION
  2
OBJECTS
  0
DICTIONARY
  5
C
330
0
100
AcDbDictionary
281
     1
  3
ACAD_GROUP
350
D
  3
ACAD_LAYOUT
350
1A
  3
ACAD_MLEADERSTYLE
350
182
  3
ACAD_MLINESTYLE
350
17
  3
ACAD_PLOTSETTINGS
350
19
  3
ACAD_PLOTSTYLENAME
350
E
  3
ACAD_SCALELIST
350
3B
  3
ACAD_TABLESTYLE
350
181
  3
ACAD_VISUALSTYLE
350
2A
  3
AcDbVariableDictionary
350
17F
  0
DICTIONARY
  5
D
102
{ACAD_REACTORS
330
C
102
}
330
C
100
AcDbDictionary
281
     1
  0
DICTIONARY
  5
1A
102
{ACAD_REACTORS
330
C
102
}
330
C
100
AcDbDictionary
281
     1
  3
Layout1
350
1E
  3
Model
350
22
  0
DICTIONARY
  5
182
102
{ACAD_REACTORS
330
C
102
}
330
C
100
AcDbDictionary
281
     1
  0
DICTIONARY
  5
17
102
{ACAD_REACTORS
330
C
102
}
330
C
100
AcDbDictionary
281
     1
  3
Standard
350
18
  0
DICTIONARY
  5
19
102
{ACAD_REACTORS
330
C
102
}
330
C
100
AcDbDictionary
281
     1
  0
ACDBDICTIONARYWDFLT
  5
E
102
{ACAD_REACTORS
330
C
102
}
330
C
100
AcDbDictionary
281
     1
  3
Normal
350
F
100
AcDbDictionaryWithDefault
340
F
  0
DICTIONARY
  5
3B
102
{ACAD_REACTORS
330
C
102
}
330
C
100
AcDbDictionary
281
     1
  3
A0
350
3C
  3
A1
350
3D
  3
A2
350
3E
  3
A3
350
3F
  3
A4
350
40
  3
A5
350
41
  3
A6
350
42
  3
A7
350
43
  3
A8
350
44
  3
A9
350
45
  3
B0
350
46
  3
B1
350
47
  3
B2
350
48
  3
B3
350
49
  3
B4
350
4A
  3
B5
350
4B
  3
B6
350
4C
  3
B7
350
4D
  3
B8
350
4E
  3
B9
350
4F
  3
C0
350
50
  3
C1
350
51
  3
C2
350
52
  3
C3
350
53
  3
C4
350
54
  3
C5
350
55
  3
C6
350
56
  3
C7
350
57
  3
C8
350
58
  3
C9
350
59
  3
D0
350
5A
  3
D1
350
5B
  3
D2
350
5C
  0
DICTIONARY
  5
181
102
{ACAD_REACTORS
330
C
102
}
330
C
100
AcDbDictionary
281
     1
  0
DICTIONARY
  5
2A
102
{ACAD_REACTORS
330
C
102
}
330
C
100
AcDbDictionary
281
     1
  3
2dWireframe
350
2F
  3
3D Hidden
350
31
  3
3dWireframe
350
30
  3
Basic
350
32
  3
Brighten
350
36
  3
ColorChange
350
3A
  3
Conceptual
350
34
  3
Dim
350
35
  3
Facepattern
350
39
  3
Flat
350
2B
  3
FlatWithEdges
350
2C
  3
Gouraud
350
2D
  3
GouraudWithEdges
350
2E
  3
Linepattern
350
38
  3
Realistic
350
33
  3
Thicken
350
37
  0
DICTIONARY
  5
17F
102
{ACAD_REACTORS
330
C
102
}
330
C
100
AcDbDictionary
281
     1
  3
CANNOSCALE
350
180
  3
PSOLHEIGHT
350
184
  3
PSOLWIDTH
350
183
  0
LAYOUT
  5
1E
102
{ACAD_REACTORS
330
1A
102
}
330
1A
100
AcDbPlotSettings
  1

  2
none_device
  4

  6

 40
0.0
 41
0.0
 42
0.0
 43
0.0
 44
0.0
 45
0.0
 46
0.0
 47
0.0
 48
0.0
 49
0.0
140
0.0
141
0.0
142
1.0
143
1.0
 70
   688
 72
     0
 73
     0
 74
     5
  7

 75
    16
147
1.0
148
0.0
149
0.0
100
AcDbLayout
  1
Layout1
 70
     1
 71
     1
 10
0.0
 20
0.0
 11
3000.0
 21
4500.0
 12
0.0
 22
0.0
 32
0.0
 14
0.0
 24
0.0
 34
0.0
 15
3000.0
 25
4500.0
 35
0.0
146
0.0
 13
0.0
 23
0.0
 33
0.0
 16
1.0
 26
0.0
 36
0.0
 17
0.0
 27
1.0
 37
0.0
 76
     0
330
1B
  0
LAYOUT
  5
22
102
{ACAD_REACTORS
330
1A
102
}
330
1A
100
AcDbPlotSettings
  1

  2
none_device
  4

  6

 40
0.0
 41
0.0
 42
0.0
 43
0.0
 44
0.0
 45
0.0
 46
0.0
 47
0.0
 48
0.0
 49
0.0
140
0.0
141
0.0
142
1.0
143
1.0
 70
  1712
 72
     0
 73
     0
 74
     0
  7

 75
     0
147
1.0
148
0.0
149
0.0
100
AcDbLayout
  1
Model
 70
     1
 71
     0
 10
0.0
 20
0.0
 11
3000.0
 21
4500.0
 12
0.0
 22
0.0
 32
0.0
 14
0.0
 24
0.0
 34
0.0
 15
3000.0
 25
4500.0
 35
0.0
146
0.0
 13
0.0
 23
0.0
 33
0.0
 16
1.0
 26
0.0
 36
0.0
 17
0.0
 27
1.0
 37
0.0
 76
     0
330
1F
331
29
  0
MLINESTYLE
  5
18
102
{ACAD_REACTORS
330
17
102
}
330
17
100
AcDbMlineStyle
  2
Standard
 70
     0
  3

 62
   256
 51
90.0
 52
90.0
 71
     2
 49
0.5
 62
   256
  6
BYLAYER
 49
-0.5
 62
   256
  6
BYLAYER
  0
ACDBPLACEHOLDER
  5
F
102
{ACAD_REACTORS
330
E
102
}
330
E
  0
SCALE
  5
3C
102
{ACAD_REACTORS
330
3B
102
}
330
3B
100
AcDbScale
 70
     0
300
1:1
140
1.0
141
1.0
290
     1
  0
SCALE
  5
3D
102
{ACAD_REACTORS
330
3B
102
}
330
3B
100
AcDbScale
 70
     0
300
1:2
140
1.0
141
2.0
290
     0
  0
SCALE
  5
3E
102
{ACAD_REACTORS
330
3B
102
}
330
3B
100
AcDbScale
 70
     0
300
1:4
140
1.0
141
4.0
290
     0
  0
SCALE
  5
3F
102
{ACAD_REACTORS
330
3B
102
}
330
3B
100
AcDbScale
 70
     0
300
1:5
140
1.0
141
5.0
290
     0
  0
SCALE
  5
40
102
{ACAD_REACTORS
330
3B
102
}
330
3B
100
AcDbScale
 70
     0
300
1:8
140
1.0
141
8.0
290
     0
  0
SCALE
  5
41
102
{ACAD_REACTORS
330
3B
102
}
330
3B
100
AcDbScale
 70
     0
300
1:10
140
1.0
141
10.0
290
     0
  0
SCALE
  5
42
102
{ACAD_REACTORS
330
3B
102
}
330
3B
100
AcDbScale
 70
     0
300
1:16
140
1.0
141
16.0
290
     0
  0
SCALE
  5
43
102
{ACAD_REACTORS
330
3B
102
}
330
3B
100
AcDbScale
 70
     0
300
1:20
140
1.0
141
20.0
290
     0
  0
SCALE
  5
44
102
{ACAD_REACTORS
330
3B
102
}
330
3B
100
AcDbScale
 70
     0
300
1:30
140
1.0
141
30.0
290
     0
  0
SCALE
  5
45
102
{ACAD_REACTORS
330
3B
102
}
330
3B
100
AcDbScale
 70
     0
300
1:40
140
1.0
141
40.0
290
     0
  0
SCALE
  5
46
102
{ACAD_REACTORS
330
3B
102
}
330
3B
100
AcDbScale
 70
     0
300
1:50
140
1.0
141
50.0
290
     0
  0
SCALE
  5
47
102
{ACAD_REACTORS
330
3B
102
}
330
3B
100
AcDbScale
 70
     0
300
1:100
140
1.0
141
100.0
290
     0
  0
SCALE
  5
48
102
{ACAD_REACTORS
330
3B
102
}
330
3B
100
AcDbScale
 70
     0
300
2:1
140
2.0
141
1.0
290
     0
  0
SCALE
  5
49
102
{ACAD_REACTORS
330
3B
102
}
330
3B
100
AcDbScale
 70
     0
300
4:1
140
4.0
141
1.0
290
     0
  0
SCALE
  5
4A
102
{ACAD_REACTORS
330
3B
102
}
330
3B
100
AcDbScale
 70
     0
300
8:1
140
8.0
141
1.0
290
     0
  0
SCALE
  5
4B
102
{ACAD_REACTORS
330
3B
102
}
330
3B
100
AcDbScale
 70
     0
300
10:1
140
10.0
141
1.0
290
     0
  0
SCALE
  5
4C
102
{ACAD_REACTORS
330
3B
102
}
330
3B
100
AcDbScale
 70
     0
300
100:1
140
100.0
141
1.0
290
     0
  0
SCALE
  5
4D
102
{ACAD_REACTORS
330
3B
102
}
330
3B
100
AcDbScale
 70
     0
300
1/128" = 1'-0"
140
0.0078125
141
12.0
290
     0
  0
SCALE
  5
4E
102
{ACAD_REACTORS
330
3B
102
}
330
3B
100
AcDbScale
 70
     0
300
1/64" = 1'-0"
140
0.015625
141
12.0
290
     0
  0
SCALE
  5
4F
102
{ACAD_REACTORS
330
3B
102
}
330
3B
100
AcDbScale
 70
     0
300
1/32" = 1'-0"
140
0.03125
141
12.0
290
     0
  0
SCALE
  5
50
102
{ACAD_REACTORS
330
3B
102
}
330
3B
100
AcDbScale
 70
     0
300
1/16" = 1'-0"
140
0.0625
141
12.0
290
     0
  0
SCALE
  5
51
102
{ACAD_REACTORS
330
3B
102
}
330
3B
100
AcDbScale
 70
     0
300
3/32" = 1'-0"
140
0.09375
141
12.0
290
     0
  0
SCALE
  5
52
102
{ACAD_REACTORS
330
3B
102
}
330
3B
100
AcDbScale
 70
     0
300
1/8" = 1'-0"
140
0.125
141
12.0
290
     0
  0
SCALE
  5
53
102
{ACAD_REACTORS
330
3B
102
}
330
3B
100
AcDbScale
 70
     0
300
3/16" = 1'-0"
140
0.1875
141
12.0
290
     0
  0
SCALE
  5
54
102
{ACAD_REACTORS
330
3B
102
}
330
3B
100
AcDbScale
 70
     0
300
1/4" = 1'-0"
140
0.25
141
12.0
290
     0
  0
SCALE
  5
55
102
{ACAD_REACTORS
330
3B
102
}
330
3B
100
AcDbScale
 70
     0
300
3/8" = 1'-0"
140
0.375
141
12.0
290
     0
  0
SCALE
  5
56
102
{ACAD_REACTORS
330
3B
102
}
330
3B
100
AcDbScale
 70
     0
300
1/2" = 1'-0"
140
0.5
141
12.0
290
     0
  0
SCALE
  5
57
102
{ACAD_REACTORS
330
3B
102
}
330
3B
100
AcDbScale
 70
     0
300
3/4" = 1'-0"
140
0.75
141
12.0
290
     0
  0
SCALE
  5
58
102
{ACAD_REACTORS
330
3B
102
}
330
3B
100
AcDbScale
 70
     0
300
1" = 1'-0"
140
1.0
141
12.0
290
     0
  0
SCALE
  5
59
102
{ACAD_REACTORS
330
3B
102
}
330
3B
100
AcDbScale
 70
     0
300
1-1/2" = 1'-0"
140
1.5
141
12.0
290
     0
  0
SCALE
  5
5A
102
{ACAD_REACTORS
330
3B
102
}
330
3B
100
AcDbScale
 70
     0
300
3" = 1'-0"
140
3.0
141
12.0
290
     0
  0
SCALE
  5
5B
102
{ACAD_REACTORS
330
3B
102
}
330
3B
100
AcDbScale
 70
     0
300
6" = 1'-0"
140
6.0
141
12.0
290
     0
  0
SCALE
  5
5C
102
{ACAD_REACTORS
330
3B
102
}
330
3B
100
AcDbScale
 70
     0
300
1'-0" = 1'-0"
140
12.0
141
12.0
290
     0
  0
VISUALSTYLE
  5
2F
102
{ACAD_REACTORS
330
2A
102
}
330
2A
100
AcDbVisualStyle
  2
2dWireframe
 70
     4
 71
     0
 72
     2
 73
     0
 90
        0
 40
-0.6
 41
-30.0
 62
     5
 63
     7
 74
     1
 91
        4
 64
     7
 65
   257
 75
     1
175
     1
 42
1.0
 92
        0
 66
   257
 43
1.0
 76
     1
 77
     6
 78
     2
 67
     7
 79
     5
170
     0
171
     0
290
     0
174
     0
 93
        1
 44
0.0
173
     0
291
     0
 45
0.0
1001
ACAD
1000
AcDbSavedByObjectVersion
1070
     0
  0
VISUALSTYLE
  5
31
102
{ACAD_REACTORS
330
2A
102
}
330
2A
100
AcDbVisualStyle
  2
3D Hidden
 70
     6
 71
     1
 72
     2
 73
     2
 90
        0
 40
-0.6
 41
-30.0
 62
     5
 63
     7
 74
     2
 91
        2
 64
     7
 65
   257
 75
     2
175
     1
 42
40.0
 92
        0
 66
   257
 43
1.0
 76
     1
 77
     6
 78
     2
 67
     7
 79
     3
170
     0
171
     0
290
     0
174
     0
 93
        1
 44
0.0
173
     0
291
     0
 45
0.0
1001
ACAD
1000
AcDbSavedByObjectVersion
1070
     0
  0
VISUALSTYLE
  5
30
102
{ACAD_REACTORS
330
2A
102
}
330
2A
100
AcDbVisualStyle
  2
3dWireframe
 70
     5
 71
     0
 72
     2
 73
     0
 90
        0
 40
-0.6
 41
-30.0
 62
     5
 63
     7
 74
     1
 91
        4
 64
     7
 65
   257
 75
     1
175
     1
 42
1.0
 92
        0
 66
   257
 43
1.0
 76
     1
 77
     6
 78
     2
 67
     7
 79
     5
170
     0
171
     0
290
     0
174
     0
 93
        1
 44
0.0
173
     0
291
     0
 45
0.0
1001
ACAD
1000
AcDbSavedByObjectVersion
1070
     0
  0
VISUALSTYLE
  5
32
102
{ACAD_REACTORS
330
2A
102
}
330
2A
100
AcDbVisualStyle
  2
Basic
 70
     7
 71
     1
 72
     0
 73
     1
 90
        0
 40
-0.6
 41
-30.0
 62
     5
 63
     7
 74
     0
 91
        4
 64
     7
 65
   257
 75
     1
175
     1
 42
1.0
 92
        8
 66
     7
 43
1.0
 76
     1
 77
     6
 78
     2
 67
     7
 79
     5
170
     0
171
     0
290
     0
174
     0
 93
        1
 44
0.0
173
     0
291
     1
 45
0.0
1001
ACAD
1000
AcDbSavedByObjectVersion
1070
     0
  0
VISUALSTYLE
  5
36
102
{ACAD_REACTORS
330
2A
102
}
330
2A
100
AcDbVisualStyle
  2
Brighten
 70
    12
 71
     2
 72
     2
 73
     0
 90
        0
 40
-0.6
 41
-30.0
 62
     5
 63
     7
 74
     1
 91
        4
 64
     7
 65
   257
 75
     1
175
     1
 42
1.0
 92
        8
 66
     7
 43
1.0
 76
     1
 77
     6
 78
     2
 67
     7
 79
     5
170
     0
171
     0
290
     0
174
     0
 93
        1
 44
50.0
173
     0
291
     1
 45
0.0
1001
ACAD
1000
AcDbSavedByObjectVersion
1070
     0
  0
VISUALSTYLE
  5
3A
102
{ACAD_REACTORS
330
2A
102
}
330
2A
100
AcDbVisualStyle
  2
ColorChange
 70
    16
 71
     2
 72
     2
 73
     3
 90
        0
 40
-0.6
 41
-30.0
 62
     5
 63
     8
 74
     1
 91
        4
 64
     7
 65
   257
 75
     1
175
     1
 42
1.0
 92
        8
 66
     8
 43
1.0
 76
     1
 77
     6
 78
     2
 67
     7
 79
     5
170
     0
171
     0
290
     0
174
     0
 93
        1
 44
0.0
173
     0
291
     1
 45
0.0
1001
ACAD
1000
AcDbSavedByObjectVersion
1070
     0
  0
VISUALSTYLE
  5
34
102
{ACAD_REACTORS
330
2A
102
}
330
2A
100
AcDbVisualStyle
  2
Conceptual
 70
     9
 71
     3
 72
     2
 73
     0
 90
        0
 40
-0.6
 41
-30.0
 62
     5
 63
     7
 74
     2
 91
        2
 64
     7
 65
   257
 75
     1
175
     1
 42
40.0
 92
        8
 66
     7
 43
1.0
 76
     1
 77
     6
 78
     2
 67
     7
 79
     3
170
     0
171
     0
290
     0
174
     0
 93
        1
 44
0.0
173
     0
291
     0
 45
0.0
1001
ACAD
1000
AcDbSavedByObjectVersion
1070
     0
  0
VISUALSTYLE
  5
35
102
{ACAD_REACTORS
330
2A
102
}
330
2A
100
AcDbVisualStyle
  2
Dim
 70
    11
 71
     2
 72
     2
 73
     0
 90
        0
 40
-0.6
 41
-30.0
 62
     5
 63
     7
 74
     1
 91
        4
 64
     7
 65
   257
 75
     1
175
     1
 42
1.0
 92
        8
 66
     7
 43
1.0
 76
     1
 77
     6
 78
     2
 67
     7
 79
     5
170
     0
171
     0
290
     0
174
     0
 93
        1
 44
-50.0
173
     0
291
     1
 45
0.0
1001
ACAD
1000
AcDbSavedByObjectVersion
1070
     0
  0
VISUALSTYLE
  5
39
102
{ACAD_REACTORS
330
2A
102
}
330
2A
100
AcDbVisualStyle
  2
Facepattern
 70
    15
 71
     2
 72
     2
 73
     0
 90
        0
 40
-0.6
 41
-30.0
 62
     5
 63
     7
 74
     1
 91
        4
 64
     7
 65
   257
 75
     1
175
     1
 42
1.0
 92
        8
 66
     7
 43
1.0
 76
     1
 77
     6
 78
     2
 67
     7
 79
     5
170
     0
171
     0
290
     0
174
     0
 93
        1
 44
0.0
173
     0
291
     1
 45
0.0
1001
ACAD
1000
AcDbSavedByObjectVersion
1070
     0
  0
VISUALSTYLE
  5
2B
102
{ACAD_REACTORS
330
2A
102
}
330
2A
100
AcDbVisualStyle
  2
Flat
 70
     0
 71
     2
 72
     1
 73
     1
 90
        2
 40
-0.6
 41
30.0
 62
     5
 63
     7
 74
     0
 91
        4
 64
     7
 65
   257
 75
     1
175
     1
 42
1.0
 92
        8
 66
     7
 43
1.0
 76
     1
 77
     6
 78
     2
 67
     7
 79
     5
170
     0
171
     0
290
     0
174
     0
 93
       13
 44
0.0
173
     0
291
     1
 45
0.0
1001
ACAD
1000
AcDbSavedByObjectVersion
1070
     0
  0
VISUALSTYLE
  5
2C
102
{ACAD_REACTORS
330
2A
102
}
330
2A
100
AcDbVisualStyle
  2
FlatWithEdges
 70
     1
 71
     2
 72
     1
 73
     1
 90
        2
 40
-0.6
 41
30.0
 62
     5
 63
     7
 74
     1
 91
        4
 64
     7
 65
   257
 75
     1
175
     1
 42
1.0
 92
        0
 66
   257
 43
1.0
 76
     1
 77
     6
 78
     2
 67
     7
 79
     5
170
     0
171
     0
290
     0
174
     0
 93
       13
 44
0.0
173
     0
291
     1
 45
0.0
1001
ACAD
1000
AcDbSavedByObjectVersion
1070
     0
  0
VISUALSTYLE
  5
2D
102
{ACAD_REACTORS
330
2A
102
}
330
2A
100
AcDbVisualStyle
  2
Gouraud
 70
     2
 71
     2
 72
     2
 73
     1
 90
        2
 40
-0.6
 41
30.0
 62
     5
 63
     7
 74
     0
 91
        4
 64
     7
 65
   257
 75
     1
175
     1
 42
1.0
 92
        0
 66
     7
 43
1.0
 76
     1
 77
     6
 78
     2
 67
     7
 79
     5
170
     0
171
     0
290
     0
174
     0
 93
       13
 44
0.0
173
     0
291
     1
 45
0.0
1001
ACAD
1000
AcDbSavedByObjectVersion
1070
     0
  0
VISUALSTYLE
  5
2E
102
{ACAD_REACTORS
330
2A
102
}
330
2A
100
AcDbVisualStyle
  2
GouraudWithEdges
 70
     3
 71
     2
 72
     2
 73
     1
 90
        2
 40
-0.6
 41
30.0
 62
     5
 63
     7
 74
     1
 91
        4
 64
     7
 65
   257
 75
     1
175
     1
 42
1.0
 92
        0
 66
   257
 43
1.0
 76
     1
 77
     6
 78
     2
 67
     7
 79
     5
170
     0
171
     0
290
     0
174
     0
 93
       13
 44
0.0
173
     0
291
     1
 45
0.0
1001
ACAD
1000
AcDbSavedByObjectVersion
1070
     0
  0
VISUALSTYLE
  5
38
102
{ACAD_REACTORS
330
2A
102
}
330
2A
100
AcDbVisualStyle
  2
Linepattern
 70
    14
 71
     2
 72
     2
 73
     0
 90
        0
 40
-0.6
 41
-30.0
 62
     5
 63
     7
 74
     1
 91
        4
 64
     7
 65
   257
 75
     7
175
     7
 42
1.0
 92
        8
 66
     7
 43
1.0
 76
     1
 77
     6
 78
     2
 67
     7
 79
     5
170
     0
171
     0
290
     0
174
     0
 93
        1
 44
0.0
173
     0
291
     1
 45
0.0
1001
ACAD
1000
AcDbSavedByObjectVersion
1070
     0
  0
VISUALSTYLE
  5
33
102
{ACAD_REACTORS
330
2A
102
}
330
2A
100
AcDbVisualStyle
  2
Realistic
 70
     8
 71
     2
 72
     2
 73
     0
 90
        0
 40
-0.6
 41
-30.0
 62
     5
 63
     7
 74
     1
 91
        0
 64
     7
 65
   257
 75
     1
175
     1
 42
1.0
 92
        8
 66
     8
 43
1.0
 76
     1
 77
     6
 78
     2
 67
     7
 79
     5
170
     0
171
     0
290
     0
174
     0
 93
       13
 44
0.0
173
     0
291
     0
 45
0.0
1001
ACAD
1000
AcDbSavedByObjectVersion
1070
     0
  0
VISUALSTYLE
  5
37
102
{ACAD_REACTORS
330
2A
102
}
330
2A
100
AcDbVisualStyle
  2
Thicken
 70
    13
 71
     2
 72
     2
 73
     0
 90
        0
 40
-0.6
 41
-30.0
 62
     5
 63
     7
 74
     1
 91
        4
 64
     7
 65
   257
 75
     1
175
     1
 42
1.0
 92
       12
 66
     7
 43
1.0
 76
     1
 77
     6
 78
     2
 67
     7
 79
     5
170
     0
171
     0
290
     0
174
     0
 93
        1
 44
0.0
173
     0
291
     1
 45
0.0
1001
ACAD
1000
AcDbSavedByObjectVersion
1070
     0
  0
DICTIONARYVAR
  5
180
102
{ACAD_REACTORS
330
17F
102
}
330
17F
100
DictionaryVariables
280
     0
  1
1:1
  0
DICTIONARYVAR
  5
184
102
{ACAD_REACTORS
330
17F
102
}
330
17F
100
DictionaryVariables
280
     0
  1
80.000000
  0
DICTIONARYVAR
  5
183
102
{ACAD_REACTORS
330
17F
102
}
330
17F
100
DictionaryVariables
280
     0
  1
5.000000
  0
ENDSEC
  0
EOF
