999
Converted by 3D Exploration 
999
XDimension Software, LLC
999
http://www.xdsoft.com/explorer/
0
SECTION
2
HEADER
9
$ACADVER
1
AC1008
9
$UCSORG
10
0.0
20
0.0
30
0.0
9
$UCSXDIR
10
1.0
20
0.0
30
0.0
9
$TILEMODE
70
1
9
$UCSYDIR
10
0.0
20
1.0
30
0.0
9
$EXTMIN
10
0.000000
20
-95.705002
30
-95.705002
9
$EXTMAX
10
44.000000
20
84.161003
30
26.934999
0
ENDSEC
0
SECTION
2
TABLES
0
TABLE
2
LTYPE
70
1
0
LTYPE
2
CONTINUOUS
70
64
3
Solid line
72
65
73
0
40
0.0
0
ENDTAB
0
TABLE
2
LAYER
70
31
0
LAYER
2
OBJECT__0
70
0
62
253
6
CONTINUOUS
0
LAYER
2
OBJECT__1
70
0
62
253
6
CONTINUOUS
0
LAYER
2
OBJECT__3
70
0
62
253
6
CONTINUOUS
0
LAYER
2
OBJECT__4
70
0
62
253
6
CONTINUOUS
0
LAYER
2
OBJECT__6
70
0
62
253
6
CONTINUOUS
0
LAYER
2
OBJECT__7
70
0
62
253
6
CONTINUOUS
0
LAYER
2
OBJECT__8
70
0
62
253
6
CONTINUOUS
0
LAYER
2
OBJECT__9
70
0
62
253
6
CONTINUOUS
0
LAYER
2
OBJECT__10
70
0
62
253
6
CONTINUOUS
0
LAYER
2
OBJECT__11
70
0
62
253
6
CONTINUOUS
0
LAYER
2
OBJECT__12
70
0
62
253
6
CONTINUOUS
0
LAYER
2
OBJECT__13
70
0
62
253
6
CONTINUOUS
0
LAYER
2
OBJECT__14
70
0
62
253
6
CONTINUOUS
0
LAYER
2
OBJECT__15
70
0
62
253
6
CONTINUOUS
0
LAYER
2
OBJECT__16
70
0
62
253
6
CONTINUOUS
0
LAYER
2
OBJECT__17
70
0
62
253
6
CONTINUOUS
0
LAYER
2
OBJECT__18
70
0
62
253
6
CONTINUOUS
0
LAYER
2
OBJECT__19
70
0
62
253
6
CONTINUOUS
0
LAYER
2
OBJECT__20
70
0
62
253
6
CONTINUOUS
0
LAYER
2
OBJECT__22
70
0
62
253
6
CONTINUOUS
0
LAYER
2
OBJECT__23
70
0
62
253
6
CONTINUOUS
0
LAYER
2
OBJECT__25
70
0
62
253
6
CONTINUOUS
0
LAYER
2
OBJECT__26
70
0
62
253
6
CONTINUOUS
0
LAYER
2
OBJECT__28
70
0
62
253
6
CONTINUOUS
0
LAYER
2
OBJECT__29
70
0
62
253
6
CONTINUOUS
0
ENDTAB
0
TABLE
2
STYLE
70
1
0
STYLE
2
STANDARD
70
0
40
0.0
41
1.0
50
0.0
71
0
42
0.2
3
txt
4
1
0
ENDTAB
0
TABLE
2
UCS
70
0
0
ENDTAB
0
ENDSEC
0
SECTION
2
ENTITIES
0
POLYLINE
8
OBJECT__0
66
1
70
64
71
155
72
240
62
253
0
VERTEX
8
OBJECT__0
10
32.000000
20
-21.351000
30
4.853000
70
192
0
VERTEX
8
OBJECT__0
10
36.243000
20
-21.048000
30
3.122000
70
192
0
VERTEX
8
OBJECT__0
10
36.243000
20
-2.854000
30
4.395000
70
192
0
VERTEX
8
OBJECT__0
10
32.000000
20
-39.243999
30
-0.232000
70
192
0
VERTEX
8
OBJECT__0
10
36.243000
20
-38.591999
30
-1.863000
70
192
0
VERTEX
8
OBJECT__0
10
32.000000
20
-55.709999
30
-8.887000
70
192
0
VERTEX
8
OBJECT__0
10
36.243000
20
-54.736000
30
-10.349000
70
192
0
VERTEX
8
OBJECT__0
10
32.000000
20
-70.044998
30
-20.742001
70
192
0
VERTEX
8
OBJECT__0
10
36.243000
20
-68.791000
30
-21.973000
70
192
0
VERTEX
8
OBJECT__0
10
32.000000
20
-81.636002
30
-35.291000
70
192
0
VERTEX
8
OBJECT__0
10
36.243000
20
-80.155998
30
-36.237999
70
192
0
VERTEX
8
OBJECT__0
10
32.000000
20
-89.988998
30
-51.911999
70
192
0
VERTEX
8
OBJECT__0
10
36.243000
20
-88.346001
30
-52.534000
70
192
0
VERTEX
8
OBJECT__0
10
32.000000
20
-94.747002
30
-69.894997
70
192
0
VERTEX
8
OBJECT__0
10
36.243000
20
-93.010002
30
-70.167000
70
192
0
VERTEX
8
OBJECT__0
10
32.000000
20
-95.705002
30
-88.472000
70
192
0
VERTEX
8
OBJECT__0
10
36.243000
20
-93.950996
30
-88.380997
70
192
0
VERTEX
8
OBJECT__0
10
32.000000
20
-92.824997
30
-106.849998
70
192
0
VERTEX
8
OBJECT__0
10
36.243000
20
-91.125999
30
-106.400002
70
192
0
VERTEX
8
OBJECT__0
10
32.000000
20
-86.226997
30
-124.242996
70
192
0
VERTEX
8
OBJECT__0
10
36.243000
20
-84.656998
30
-123.453003
70
192
0
VERTEX
8
OBJECT__0
10
32.000000
20
-76.195000
30
-139.908005
70
192
0
VERTEX
8
OBJECT__0
10
36.243000
20
-74.820999
30
-138.811996
70
192
0
VERTEX
8
OBJECT__0
10
32.000000
20
-63.157001
30
-153.175003
70
192
0
VERTEX
8
OBJECT__0
10
36.243000
20
-62.036999
30
-151.820999
70
192
0
VERTEX
8
OBJECT__0
10
32.000000
20
-47.668999
30
-163.479996
70
192
0
VERTEX
8
OBJECT__0
10
36.243000
20
-46.852001
30
-161.923996
70
192
0
VERTEX
8
OBJECT__0
10
32.000000
20
-30.395000
30
-170.380005
70
192
0
VERTEX
8
OBJECT__0
10
36.243000
20
-29.915001
30
-168.688995
70
192
0
VERTEX
8
OBJECT__0
10
32.000000
20
-12.070000
30
-173.580994
70
192
0
VERTEX
8
OBJECT__0
10
36.243000
20
-11.948000
30
-171.828003
70
192
0
VERTEX
8
OBJECT__0
10
32.000000
20
6.521000
30
-172.947006
70
192
0
VERTEX
8
OBJECT__0
10
36.243000
20
6.280000
30
-171.205994
70
192
0
VERTEX
8
OBJECT__0
10
32.000000
20
24.584999
30
-168.503998
70
192
0
VERTEX
8
OBJECT__0
10
36.243000
20
23.990999
30
-166.850006
70
192
0
VERTEX
8
OBJECT__0
10
32.000000
20
41.348999
30
-160.442001
70
192
0
VERTEX
8
OBJECT__0
10
36.243000
20
40.428001
30
-158.945999
70
192
0
VERTEX
8
OBJECT__0
10
32.000000
20
56.098000
30
-149.106995
70
192
0
VERTEX
8
OBJECT__0
10
36.243000
20
54.889000
30
-147.832001
70
192
0
VERTEX
8
OBJECT__0
10
32.000000
20
68.202003
30
-134.981003
70
192
0
VERTEX
8
OBJECT__0
10
36.243000
20
66.755997
30
-133.981995
70
192
0
VERTEX
8
OBJECT__0
10
32.000000
20
77.142998
30
-118.668999
70
192
0
VERTEX
8
OBJECT__0
10
36.243000
20
75.523003
30
-117.987999
70
192
0
VERTEX
8
OBJECT__0
10
32.000000
20
82.540001
30
-100.866997
70
192
0
VERTEX
8
OBJECT__0
10
36.243000
20
80.814003
30
-100.533997
70
192
0
VERTEX
8
OBJECT__0
10
32.000000
20
84.161003
30
-82.335999
70
192
0
VERTEX
8
OBJECT__0
10
36.243000
20
82.403999
30
-82.363998
70
192
0
VERTEX
8
OBJECT__0
10
32.000000
20
81.938004
30
-63.867001
70
192
0
VERTEX
8
OBJECT__0
10
36.243000
20
80.224998
30
-64.255997
70
192
0
VERTEX
8
OBJECT__0
10
32.000000
20
75.966003
30
-46.250000
70
192
0
VERTEX
8
OBJECT__0
10
36.243000
20
74.369003
30
-46.983002
70
192
0
VERTEX
8
OBJECT__0
10
32.000000
20
66.500000
30
-30.237000
70
192
0
VERTEX
8
OBJECT__0
10
36.243000
20
65.087997
30
-31.283001
70
192
0
VERTEX
8
OBJECT__0
10
32.000000
20
53.944000
30
-16.511999
70
192
0
VERTEX
8
OBJECT__0
10
36.243000
20
52.777000
30
-17.825001
70
192
0
VERTEX
8
OBJECT__0
10
32.000000
20
38.834999
30
-5.661000
70
192
0
VERTEX
8
OBJECT__0
10
36.243000
20
37.963001
30
-7.187000
70
192
0
VERTEX
8
OBJECT__0
10
32.000000
20
21.816999
30
1.852000
70
192
0
VERTEX
8
OBJECT__0
10
36.243000
20
21.277000
30
0.179000
70
192
0
VERTEX
8
OBJECT__0
10
32.000000
20
3.619000
30
5.705000
70
192
0
VERTEX
8
OBJECT__0
10
36.243000
20
3.434000
30
3.958000
70
192
0
VERTEX
8
OBJECT__0
10
38.000000
20
-20.316000
30
-1.057000
70
192
0
VERTEX
8
OBJECT__0
10
38.000000
20
-2.996000
30
0.155000
70
192
0
VERTEX
8
OBJECT__0
10
38.000000
20
-37.016998
30
-5.803000
70
192
0
VERTEX
8
OBJECT__0
10
38.000000
20
-52.384998
30
-13.881000
70
192
0
VERTEX
8
OBJECT__0
10
38.000000
20
-65.764000
30
-24.945999
70
192
0
VERTEX
8
OBJECT__0
10
38.000000
20
-76.583000
30
-38.525002
70
192
0
VERTEX
8
OBJECT__0
10
38.000000
20
-84.377998
30
-54.037998
70
192
0
VERTEX
8
OBJECT__0
10
38.000000
20
-88.819000
30
-70.821999
70
192
0
VERTEX
8
OBJECT__0
10
38.000000
20
-89.713997
30
-88.161003
70
192
0
VERTEX
8
OBJECT__0
10
38.000000
20
-87.025002
30
-105.313004
70
192
0
VERTEX
8
OBJECT__0
10
38.000000
20
-80.866997
30
-121.545998
70
192
0
VERTEX
8
OBJECT__0
10
38.000000
20
-71.503998
30
-136.167007
70
192
0
VERTEX
8
OBJECT__0
10
38.000000
20
-59.334999
30
-148.550003
70
192
0
VERTEX
8
OBJECT__0
10
38.000000
20
-44.880001
30
-158.167007
70
192
0
VERTEX
8
OBJECT__0
10
38.000000
20
-28.757000
30
-164.606995
70
192
0
VERTEX
8
OBJECT__0
10
38.000000
20
-11.654000
30
-167.595001
70
192
0
VERTEX
8
OBJECT__0
10
38.000000
20
5.698000
30
-167.003006
70
192
0
VERTEX
8
OBJECT__0
10
38.000000
20
22.556999
30
-162.856995
70
192
0
VERTEX
8
OBJECT__0
10
38.000000
20
38.203999
30
-155.332993
70
192
0
VERTEX
8
OBJECT__0
10
38.000000
20
51.970001
30
-144.753006
70
192
0
VERTEX
8
OBJECT__0
10
38.000000
20
63.266998
30
-131.569000
70
192
0
VERTEX
8
OBJECT__0
10
38.000000
20
71.612000
30
-116.344002
70
192
0
VERTEX
8
OBJECT__0
10
38.000000
20
76.648003
30
-99.728996
70
192
0
VERTEX
8
OBJECT__0
10
38.000000
20
78.162003
30
-82.432999
70
192
0
VERTEX
8
OBJECT__0
10
38.000000
20
76.086998
30
-65.195999
70
192
0
VERTEX
8
OBJECT__0
10
38.000000
20
70.514000
30
-48.752998
70
192
0
VERTEX
8
OBJECT__0
10
38.000000
20
61.678001
30
-33.806999
70
192
0
VERTEX
8
OBJECT__0
10
38.000000
20
49.959000
30
-20.997000
70
192
0
VERTEX
8
OBJECT__0
10
38.000000
20
35.856998
30
-10.870000
70
192
0
VERTEX
8
OBJECT__0
10
38.000000
20
19.974001
30
-3.858000
70
192
0
VERTEX
8
OBJECT__0
10
38.000000
20
2.989000
30
-0.262000
70
192
0
VERTEX
8
OBJECT__0
10
36.243000
20
-19.584000
30
-5.236000
70
192
0
VERTEX
8
OBJECT__0
10
36.243000
20
-3.139000
30
-4.086000
70
192
0
VERTEX
8
OBJECT__0
10
36.243000
20
-35.441002
30
-9.742000
70
192
0
VERTEX
8
OBJECT__0
10
36.243000
20
-50.033001
30
-17.412001
70
192
0
VERTEX
8
OBJECT__0
10
36.243000
20
-62.737000
30
-27.917999
70
192
0
VERTEX
8
OBJECT__0
10
36.243000
20
-73.009003
30
-40.811001
70
192
0
VERTEX
8
OBJECT__0
10
36.243000
20
-80.411003
30
-55.541000
70
192
0
VERTEX
8
OBJECT__0
10
36.243000
20
-84.626999
30
-71.476997
70
192
0
VERTEX
8
OBJECT__0
10
36.243000
20
-85.476997
30
-87.940002
70
192
0
VERTEX
8
OBJECT__0
10
36.243000
20
-82.924004
30
-104.225998
70
192
0
VERTEX
8
OBJECT__0
10
36.243000
20
-77.077003
30
-119.639999
70
192
0
VERTEX
8
OBJECT__0
10
36.243000
20
-68.186996
30
-133.522003
70
192
0
VERTEX
8
OBJECT__0
10
36.243000
20
-56.632000
30
-145.279999
70
192
0
VERTEX
8
OBJECT__0
10
36.243000
20
-42.908001
30
-154.410995
70
192
0
VERTEX
8
OBJECT__0
10
36.243000
20
-27.599001
30
-160.526001
70
192
0
VERTEX
8
OBJECT__0
10
36.243000
20
-11.360000
30
-163.363007
70
192
0
VERTEX
8
OBJECT__0
10
36.243000
20
5.116000
30
-162.800995
70
192
0
VERTEX
8
OBJECT__0
10
36.243000
20
21.124001
30
-158.863998
70
192
0
VERTEX
8
OBJECT__0
10
36.243000
20
35.980000
30
-151.720001
70
192
0
VERTEX
8
OBJECT__0
10
36.243000
20
49.050999
30
-141.673996
70
192
0
VERTEX
8
OBJECT__0
10
36.243000
20
59.777000
30
-129.156006
70
192
0
VERTEX
8
OBJECT__0
10
36.243000
20
67.699997
30
-114.699997
70
192
0
VERTEX
8
OBJECT__0
10
36.243000
20
72.483002
30
-98.924004
70
192
0
VERTEX
8
OBJECT__0
10
36.243000
20
73.919998
30
-82.501999
70
192
0
VERTEX
8
OBJECT__0
10
36.243000
20
71.949997
30
-66.135002
70
192
0
VERTEX
8
OBJECT__0
10
36.243000
20
66.657997
30
-50.522999
70
192
0
VERTEX
8
OBJECT__0
10
36.243000
20
58.269001
30
-36.332001
70
192
0
VERTEX
8
OBJECT__0
10
36.243000
20
47.141998
30
-24.169001
70
192
0
VERTEX
8
OBJECT__0
10
36.243000
20
33.751999
30
-14.553000
70
192
0
VERTEX
8
OBJECT__0
10
36.243000
20
18.671000
30
-7.896000
70
192
0
VERTEX
8
OBJECT__0
10
36.243000
20
2.544000
30
-4.481000
70
192
0
VERTEX
8
OBJECT__0
10
32.000000
20
-19.281000
30
-6.967000
70
192
0
VERTEX
8
OBJECT__0
10
32.000000
20
-34.789001
30
-11.374000
70
192
0
VERTEX
8
OBJECT__0
10
32.000000
20
-49.058998
30
-18.875000
70
192
0
VERTEX
8
OBJECT__0
10
32.000000
20
-61.483002
30
-29.149000
70
192
0
VERTEX
8
OBJECT__0
10
32.000000
20
-71.528999
30
-41.757999
70
192
0
VERTEX
8
OBJECT__0
10
32.000000
20
-78.767998
30
-56.162998
70
192
0
VERTEX
8
OBJECT__0
10
32.000000
20
-82.890999
30
-71.749001
70
192
0
VERTEX
8
OBJECT__0
10
32.000000
20
-83.722000
30
-87.848999
70
192
0
VERTEX
8
OBJECT__0
10
32.000000
20
-81.224998
30
-103.776001
70
192
0
VERTEX
8
OBJECT__0
10
32.000000
20
-75.507004
30
-118.849998
70
192
0
VERTEX
8
OBJECT__0
10
32.000000
20
-66.813004
30
-132.425995
70
192
0
VERTEX
8
OBJECT__0
10
32.000000
20
-55.513000
30
-143.925003
70
192
0
VERTEX
8
OBJECT__0
10
32.000000
20
-42.090000
30
-152.854996
70
192
0
VERTEX
8
OBJECT__0
10
32.000000
20
-27.118999
30
-158.835007
70
192
0
VERTEX
8
OBJECT__0
10
32.000000
20
-11.238000
30
-161.610001
70
192
0
VERTEX
8
OBJECT__0
10
32.000000
20
4.875000
30
-161.059998
70
192
0
VERTEX
8
OBJECT__0
10
32.000000
20
20.530001
30
-157.210007
70
192
0
VERTEX
8
OBJECT__0
10
32.000000
20
35.058998
30
-150.223007
70
192
0
VERTEX
8
OBJECT__0
10
32.000000
20
47.841000
30
-140.399002
70
192
0
VERTEX
8
OBJECT__0
10
32.000000
20
58.331001
30
-128.156998
70
192
0
VERTEX
8
OBJECT__0
10
32.000000
20
66.080002
30
-114.018997
70
192
0
VERTEX
8
OBJECT__0
10
32.000000
20
70.757004
30
-98.591003
70
192
0
VERTEX
8
OBJECT__0
10
32.000000
20
72.163002
30
-82.530998
70
192
0
VERTEX
8
OBJECT__0
10
32.000000
20
70.236000
30
-66.525002
70
192
0
VERTEX
8
OBJECT__0
10
32.000000
20
65.060997
30
-51.256001
70
192
0
VERTEX
8
OBJECT__0
10
32.000000
20
56.856998
30
-37.377998
70
192
0
VERTEX
8
OBJECT__0
10
32.000000
20
45.974998
30
-25.483000
70
192
0
VERTEX
8
OBJECT__0
10
32.000000
20
32.880001
30
-16.079000
70
192
0
VERTEX
8
OBJECT__0
10
32.000000
20
18.131001
30
-9.568000
70
192
0
VERTEX
8
OBJECT__0
10
32.000000
20
2.359000
30
-6.228000
70
192
0
VERTEX
8
OBJECT__0
10
32.000000
20
-3.199000
30
-5.842000
70
192
0
VERTEX
8
OBJECT__0
10
32.000000
20
-2.794000
30
6.151000
70
192
0
VERTEX
8
OBJECT__0
10
0
20
0
30
0
70
128
71
1
72
2
73
3
0
VERTEX
8
OBJECT__0
10
0
20
0
30
0
70
128
71
1
72
4
73
5
0
VERTEX
8
OBJECT__0
10
0
20
0
30
0
70
128
71
4
72
6
73
7
0
VERTEX
8
OBJECT__0
10
0
20
0
30
0
70
128
71
8
72
9
73
7
0
VERTEX
8
OBJECT__0
10
0
20
0
30
0
70
128
71
8
72
10
73
11
0
VERTEX
8
OBJECT__0
10
0
20
0
30
0
70
128
71
10
72
12
73
13
0
VERTEX
8
OBJECT__0
10
0
20
0
30
0
70
128
71
12
72
14
73
15
0
VERTEX
8
OBJECT__0
10
0
20
0
30
0
70
128
71
14
72
16
73
17
0
VERTEX
8
OBJECT__0
10
0
20
0
30
0
70
128
71
18
72
19
73
17
0
VERTEX
8
OBJECT__0
10
0
20
0
30
0
70
128
71
20
72
21
73
19
0
VERTEX
8
OBJECT__0
10
0
20
0
30
0
70
128
71
22
72
23
73
21
0
VERTEX
8
OBJECT__0
10
0
20
0
30
0
70
128
71
22
72
24
73
25
0
VERTEX
8
OBJECT__0
10
0
20
0
30
0
70
128
71
24
72
26
73
27
0
VERTEX
8
OBJECT__0
10
0
20
0
30
0
70
128
71
28
72
29
73
27
0
VERTEX
8
OBJECT__0
10
0
20
0
30
0
70
128
71
30
72
31
73
29
0
VERTEX
8
OBJECT__0
10
0
20
0
30
0
70
128
71
30
72
32
73
33
0
VERTEX
8
OBJECT__0
10
0
20
0
30
0
70
128
71
32
72
34
73
35
0
VERTEX
8
OBJECT__0
10
0
20
0
30
0
70
128
71
34
72
36
73
37
0
VERTEX
8
OBJECT__0
10
0
20
0
30
0
70
128
71
38
72
39
73
37
0
VERTEX
8
OBJECT__0
10
0
20
0
30
0
70
128
71
40
72
41
73
39
0
VERTEX
8
OBJECT__0
10
0
20
0
30
0
70
128
71
40
72
42
73
43
0
VERTEX
8
OBJECT__0
10
0
20
0
30
0
70
128
71
44
72
45
73
43
0
VERTEX
8
OBJECT__0
10
0
20
0
30
0
70
128
71
44
72
46
73
47
0
VERTEX
8
OBJECT__0
10
0
20
0
30
0
70
128
71
48
72
49
73
47
0
VERTEX
8
OBJECT__0
10
0
20
0
30
0
70
128
71
50
72
51
73
49
0
VERTEX
8
OBJECT__0
10
0
20
0
30
0
70
128
71
50
72
52
73
53
0
VERTEX
8
OBJECT__0
10
0
20
0
30
0
70
128
71
52
72
54
73
55
0
VERTEX
8
OBJECT__0
10
0
20
0
30
0
70
128
71
54
72
56
73
57
0
VERTEX
8
OBJECT__0
10
0
20
0
30
0
70
128
71
56
72
58
73
59
0
VERTEX
8
OBJECT__0
10
0
20
0
30
0
70
128
71
58
72
60
73
61
0
VERTEX
8
OBJECT__0
10
0
20
0
30
0
70
128
71
2
72
62
73
63
0
VERTEX
8
OBJECT__0
10
0
20
0
30
0
70
128
71
2
72
5
73
64
0
VERTEX
8
OBJECT__0
10
0
20
0
30
0
70
128
71
5
72
7
73
65
0
VERTEX
8
OBJECT__0
10
0
20
0
30
0
70
128
71
7
72
9
73
66
0
VERTEX
8
OBJECT__0
10
0
20
0
30
0
70
128
71
9
72
11
73
67
0
VERTEX
8
OBJECT__0
10
0
20
0
30
0
70
128
71
11
72
13
73
68
0
VERTEX
8
OBJECT__0
10
0
20
0
30
0
70
128
71
13
72
15
73
69
0
VERTEX
8
OBJECT__0
10
0
20
0
30
0
70
128
71
15
72
17
73
70
0
VERTEX
8
OBJECT__0
10
0
20
0
30
0
70
128
71
17
72
19
73
71
0
VERTEX
8
OBJECT__0
10
0
20
0
30
0
70
128
71
19
72
21
73
72
0
VERTEX
8
OBJECT__0
10
0
20
0
30
0
70
128
71
21
72
23
73
73
0
VERTEX
8
OBJECT__0
10
0
20
0
30
0
70
128
71
23
72
25
73
74
0
VERTEX
8
OBJECT__0
10
0
20
0
30
0
70
128
71
25
72
27
73
75
0
VERTEX
8
OBJECT__0
10
0
20
0
30
0
70
128
71
27
72
29
73
76
0
VERTEX
8
OBJECT__0
10
0
20
0
30
0
70
128
71
29
72
31
73
77
0
VERTEX
8
OBJECT__0
10
0
20
0
30
0
70
128
71
31
72
33
73
78
0
VERTEX
8
OBJECT__0
10
0
20
0
30
0
70
128
71
33
72
35
73
79
0
VERTEX
8
OBJECT__0
10
0
20
0
30
0
70
128
71
35
72
37
73
80
0
VERTEX
8
OBJECT__0
10
0
20
0
30
0
70
128
71
37
72
39
73
81
0
VERTEX
8
OBJECT__0
10
0
20
0
30
0
70
128
71
39
72
41
73
82
0
VERTEX
8
OBJECT__0
10
0
20
0
30
0
70
128
71
41
72
43
73
83
0
VERTEX
8
OBJECT__0
10
0
20
0
30
0
70
128
71
43
72
45
73
84
0
VERTEX
8
OBJECT__0
10
0
20
0
30
0
70
128
71
45
72
47
73
85
0
VERTEX
8
OBJECT__0
10
0
20
0
30
0
70
128
71
47
72
49
73
86
0
VERTEX
8
OBJECT__0
10
0
20
0
30
0
70
128
71
49
72
51
73
87
0
VERTEX
8
OBJECT__0
10
0
20
0
30
0
70
128
71
51
72
53
73
88
0
VERTEX
8
OBJECT__0
10
0
20
0
30
0
70
128
71
53
72
55
73
89
0
VERTEX
8
OBJECT__0
10
0
20
0
30
0
70
128
71
55
72
57
73
90
0
VERTEX
8
OBJECT__0
10
0
20
0
30
0
70
128
71
57
72
59
73
91
0
VERTEX
8
OBJECT__0
10
0
20
0
30
0
70
128
71
61
72
92
73
91
0
VERTEX
8
OBJECT__0
10
0
20
0
30
0
70
128
71
62
72
93
73
94
0
VERTEX
8
OBJECT__0
10
0
20
0
30
0
70
128
71
62
72
64
73
95
0
VERTEX
8
OBJECT__0
10
0
20
0
30
0
70
128
71
64
72
65
73
96
0
VERTEX
8
OBJECT__0
10
0
20
0
30
0
70
128
71
65
72
66
73
97
0
VERTEX
8
OBJECT__0
10
0
20
0
30
0
70
128
71
66
72
67
73
98
0
VERTEX
8
OBJECT__0
10
0
20
0
30
0
70
128
71
67
72
68
73
99
0
VERTEX
8
OBJECT__0
10
0
20
0
30
0
70
128
71
68
72
69
73
100
0
VERTEX
8
OBJECT__0
10
0
20
0
30
0
70
128
71
69
72
70
73
101
0
VERTEX
8
OBJECT__0
10
0
20
0
30
0
70
128
71
70
72
71
73
102
0
VERTEX
8
OBJECT__0
10
0
20
0
30
0
70
128
71
71
72
72
73
103
0
VERTEX
8
OBJECT__0
10
0
20
0
30
0
70
128
71
72
72
73
73
104
0
VERTEX
8
OBJECT__0
10
0
20
0
30
0
70
128
71
73
72
74
73
105
0
VERTEX
8
OBJECT__0
10
0
20
0
30
0
70
128
71
74
72
75
73
106
0
VERTEX
8
OBJECT__0
10
0
20
0
30
0
70
128
71
75
72
76
73
107
0
VERTEX
8
OBJECT__0
10
0
20
0
30
0
70
128
71
76
72
77
73
108
0
VERTEX
8
OBJECT__0
10
0
20
0
30
0
70
128
71
77
72
78
73
109
0
VERTEX
8
OBJECT__0
10
0
20
0
30
0
70
128
71
78
72
79
73
110
0
VERTEX
8
OBJECT__0
10
0
20
0
30
0
70
128
71
79
72
80
73
111
0
VERTEX
8
OBJECT__0
10
0
20
0
30
0
70
128
71
80
72
81
73
112
0
VERTEX
8
OBJECT__0
10
0
20
0
30
0
70
128
71
81
72
82
73
113
0
VERTEX
8
OBJECT__0
10
0
20
0
30
0
70
128
71
82
72
83
73
114
0
VERTEX
8
OBJECT__0
10
0
20
0
30
0
70
128
71
83
72
84
73
115
0
VERTEX
8
OBJECT__0
10
0
20
0
30
0
70
128
71
84
72
85
73
116
0
VERTEX
8
OBJECT__0
10
0
20
0
30
0
70
128
71
85
72
86
73
117
0
VERTEX
8
OBJECT__0
10
0
20
0
30
0
70
128
71
86
72
87
73
118
0
VERTEX
8
OBJECT__0
10
0
20
0
30
0
70
128
71
87
72
88
73
119
0
VERTEX
8
OBJECT__0
10
0
20
0
30
0
70
128
71
88
72
89
73
120
0
VERTEX
8
OBJECT__0
10
0
20
0
30
0
70
128
71
89
72
90
73
121
0
VERTEX
8
OBJECT__0
10
0
20
0
30
0
70
128
71
90
72
91
73
122
0
VERTEX
8
OBJECT__0
10
0
20
0
30
0
70
128
71
91
72
92
73
123
0
VERTEX
8
OBJECT__0
10
0
20
0
30
0
70
128
71
94
72
93
73
124
0
VERTEX
8
OBJECT__0
10
0
20
0
30
0
70
128
71
95
72
125
73
124
0
VERTEX
8
OBJECT__0
10
0
20
0
30
0
70
128
71
96
72
126
73
125
0
VERTEX
8
OBJECT__0
10
0
20
0
30
0
70
128
71
97
72
127
73
126
0
VERTEX
8
OBJECT__0
10
0
20
0
30
0
70
128
71
98
72
128
73
127
0
VERTEX
8
OBJECT__0
10
0
20
0
30
0
70
128
71
99
72
129
73
128
0
VERTEX
8
OBJECT__0
10
0
20
0
30
0
70
128
71
99
72
100
73
130
0
VERTEX
8
OBJECT__0
10
0
20
0
30
0
70
128
71
101
72
131
73
130
0
VERTEX
8
OBJECT__0
10
0
20
0
30
0
70
128
71
102
72
132
73
131
0
VERTEX
8
OBJECT__0
10
0
20
0
30
0
70
128
71
102
72
103
73
133
0
VERTEX
8
OBJECT__0
10
0
20
0
30
0
70
128
71
103
72
104
73
134
0
VERTEX
8
OBJECT__0
10
0
20
0
30
0
70
128
71
104
72
105
73
135
0
VERTEX
8
OBJECT__0
10
0
20
0
30
0
70
128
71
106
72
136
73
135
0
VERTEX
8
OBJECT__0
10
0
20
0
30
0
70
128
71
107
72
137
73
136
0
VERTEX
8
OBJECT__0
10
0
20
0
30
0
70
128
71
107
72
108
73
138
0
VERTEX
8
OBJECT__0
10
0
20
0
30
0
70
128
71
109
72
139
73
138
0
VERTEX
8
OBJECT__0
10
0
20
0
30
0
70
128
71
110
72
140
73
139
0
VERTEX
8
OBJECT__0
10
0
20
0
30
0
70
128
71
110
72
111
73
141
0
VERTEX
8
OBJECT__0
10
0
20
0
30
0
70
128
71
112
72
142
73
141
0
VERTEX
8
OBJECT__0
10
0
20
0
30
0
70
128
71
112
72
113
73
143
0
VERTEX
8
OBJECT__0
10
0
20
0
30
0
70
128
71
113
72
114
73
144
0
VERTEX
8
OBJECT__0
10
0
20
0
30
0
70
128
71
114
72
115
73
145
0
VERTEX
8
OBJECT__0
10
0
20
0
30
0
70
128
71
116
72
146
73
145
0
VERTEX
8
OBJECT__0
10
0
20
0
30
0
70
128
71
116
72
117
73
147
0
VERTEX
8
OBJECT__0
10
0
20
0
30
0
70
128
71
117
72
118
73
148
0
VERTEX
8
OBJECT__0
10
0
20
0
30
0
70
128
71
119
72
149
73
148
0
VERTEX
8
OBJECT__0
10
0
20
0
30
0
70
128
71
119
72
120
73
150
0
VERTEX
8
OBJECT__0
10
0
20
0
30
0
70
128
71
120
72
121
73
151
0
VERTEX
8
OBJECT__0
10
0
20
0
30
0
70
128
71
122
72
152
73
151
0
VERTEX
8
OBJECT__0
10
0
20
0
30
0
70
128
71
122
72
123
73
153
0
VERTEX
8
OBJECT__0
10
0
20
0
30
0
70
128
71
153
72
152
73
122
0
VERTEX
8
OBJECT__0
10
0
20
0
30
0
70
128
71
151
72
121
73
122
0
VERTEX
8
OBJECT__0
10
0
20
0
30
0
70
128
71
151
72
150
73
120
0
VERTEX
8
OBJECT__0
10
0
20
0
30
0
70
128
71
150
72
149
73
119
0
VERTEX
8
OBJECT__0
10
0
20
0
30
0
70
128
71
148
72
118
73
119
0
VERTEX
8
OBJECT__0
10
0
20
0
30
0
70
128
71
148
72
147
73
117
0
VERTEX
8
OBJECT__0
10
0
20
0
30
0
70
128
71
147
72
146
73
116
0
VERTEX
8
OBJECT__0
10
0
20
0
30
0
70
128
71
145
72
115
73
116
0
VERTEX
8
OBJECT__0
10
0
20
0
30
0
70
128
71
145
72
144
73
114
0
VERTEX
8
OBJECT__0
10
0
20
0
30
0
70
128
71
144
72
143
73
113
0
VERTEX
8
OBJECT__0
10
0
20
0
30
0
70
128
71
143
72
142
73
112
0
VERTEX
8
OBJECT__0
10
0
20
0
30
0
70
128
71
141
72
111
73
112
0
VERTEX
8
OBJECT__0
10
0
20
0
30
0
70
128
71
141
72
140
73
110
0
VERTEX
8
OBJECT__0
10
0
20
0
30
0
70
128
71
139
72
109
73
110
0
VERTEX
8
OBJECT__0
10
0
20
0
30
0
70
128
71
138
72
108
73
109
0
VERTEX
8
OBJECT__0
10
0
20
0
30
0
70
128
71
138
72
137
73
107
0
VERTEX
8
OBJECT__0
10
0
20
0
30
0
70
128
71
136
72
106
73
107
0
VERTEX
8
OBJECT__0
10
0
20
0
30
0
70
128
71
135
72
105
73
106
0
VERTEX
8
OBJECT__0
10
0
20
0
30
0
70
128
71
135
72
134
73
104
0
VERTEX
8
OBJECT__0
10
0
20
0
30
0
70
128
71
134
72
133
73
103
0
VERTEX
8
OBJECT__0
10
0
20
0
30
0
70
128
71
133
72
132
73
102
0
VERTEX
8
OBJECT__0
10
0
20
0
30
0
70
128
71
131
72
101
73
102
0
VERTEX
8
OBJECT__0
10
0
20
0
30
0
70
128
71
130
72
100
73
101
0
VERTEX
8
OBJECT__0
10
0
20
0
30
0
70
128
71
130
72
129
73
99
0
VERTEX
8
OBJECT__0
10
0
20
0
30
0
70
128
71
128
72
98
73
99
0
VERTEX
8
OBJECT__0
10
0
20
0
30
0
70
128
71
127
72
97
73
98
0
VERTEX
8
OBJECT__0
10
0
20
0
30
0
70
128
71
126
72
96
73
97
0
VERTEX
8
OBJECT__0
10
0
20
0
30
0
70
128
71
125
72
95
73
96
0
VERTEX
8
OBJECT__0
10
0
20
0
30
0
70
128
71
124
72
93
73
95
0
VERTEX
8
OBJECT__0
10
0
20
0
30
0
70
128
71
124
72
154
73
94
0
VERTEX
8
OBJECT__0
10
0
20
0
30
0
70
128
71
123
72
122
73
91
0
VERTEX
8
OBJECT__0
10
0
20
0
30
0
70
128
71
122
72
121
73
90
0
VERTEX
8
OBJECT__0
10
0
20
0
30
0
70
128
71
121
72
120
73
89
0
VERTEX
8
OBJECT__0
10
0
20
0
30
0
70
128
71
120
72
119
73
88
0
VERTEX
8
OBJECT__0
10
0
20
0
30
0
70
128
71
119
72
118
73
87
0
VERTEX
8
OBJECT__0
10
0
20
0
30
0
70
128
71
118
72
117
73
86
0
VERTEX
8
OBJECT__0
10
0
20
0
30
0
70
128
71
117
72
116
73
85
0
VERTEX
8
OBJECT__0
10
0
20
0
30
0
70
128
71
116
72
115
73
84
0
VERTEX
8
OBJECT__0
10
0
20
0
30
0
70
128
71
115
72
114
73
83
0
VERTEX
8
OBJECT__0
10
0
20
0
30
0
70
128
71
114
72
113
73
82
0
VERTEX
8
OBJECT__0
10
0
20
0
30
0
70
128
71
113
72
112
73
81
0
VERTEX
8
OBJECT__0
10
0
20
0
30
0
70
128
71
112
72
111
73
80
0
VERTEX
8
OBJECT__0
10
0
20
0
30
0
70
128
71
111
72
110
73
79
0
VERTEX
8
OBJECT__0
10
0
20
0
30
0
70
128
71
110
72
109
73
78
0
VERTEX
8
OBJECT__0
10
0
20
0
30
0
70
128
71
109
72
108
73
77
0
VERTEX
8
OBJECT__0
10
0
20
0
30
0
70
128
71
108
72
107
73
76
0
VERTEX
8
OBJECT__0
10
0
20
0
30
0
70
128
71
107
72
106
73
75
0
VERTEX
8
OBJECT__0
10
0
20
0
30
0
70
128
71
106
72
105
73
74
0
VERTEX
8
OBJECT__0
10
0
20
0
30
0
70
128
71
105
72
104
73
73
0
VERTEX
8
OBJECT__0
10
0
20
0
30
0
70
128
71
104
72
103
73
72
0
VERTEX
8
OBJECT__0
10
0
20
0
30
0
70
128
71
103
72
102
73
71
0
VERTEX
8
OBJECT__0
10
0
20
0
30
0
70
128
71
102
72
101
73
70
0
VERTEX
8
OBJECT__0
10
0
20
0
30
0
70
128
71
101
72
100
73
69
0
VERTEX
8
OBJECT__0
10
0
20
0
30
0
70
128
71
100
72
99
73
68
0
VERTEX
8
OBJECT__0
10
0
20
0
30
0
70
128
71
99
72
98
73
67
0
VERTEX
8
OBJECT__0
10
0
20
0
30
0
70
128
71
98
72
97
73
66
0
VERTEX
8
OBJECT__0
10
0
20
0
30
0
70
128
71
97
72
96
73
65
0
VERTEX
8
OBJECT__0
10
0
20
0
30
0
70
128
71
96
72
95
73
64
0
VERTEX
8
OBJECT__0
10
0
20
0
30
0
70
128
71
95
72
93
73
62
0
VERTEX
8
OBJECT__0
10
0
20
0
30
0
70
128
71
94
72
63
73
62
0
VERTEX
8
OBJECT__0
10
0
20
0
30
0
70
128
71
91
72
59
73
61
0
VERTEX
8
OBJECT__0
10
0
20
0
30
0
70
128
71
91
72
90
73
57
0
VERTEX
8
OBJECT__0
10
0
20
0
30
0
70
128
71
90
72
89
73
55
0
VERTEX
8
OBJECT__0
10
0
20
0
30
0
70
128
71
89
72
88
73
53
0
VERTEX
8
OBJECT__0
10
0
20
0
30
0
70
128
71
88
72
87
73
51
0
VERTEX
8
OBJECT__0
10
0
20
0
30
0
70
128
71
87
72
86
73
49
0
VERTEX
8
OBJECT__0
10
0
20
0
30
0
70
128
71
86
72
85
73
47
0
VERTEX
8
OBJECT__0
10
0
20
0
30
0
70
128
71
85
72
84
73
45
0
VERTEX
8
OBJECT__0
10
0
20
0
30
0
70
128
71
84
72
83
73
43
0
VERTEX
8
OBJECT__0
10
0
20
0
30
0
70
128
71
83
72
82
73
41
0
VERTEX
8
OBJECT__0
10
0
20
0
30
0
70
128
71
82
72
81
73
39
0
VERTEX
8
OBJECT__0
10
0
20
0
30
0
70
128
71
81
72
80
73
37
0
VERTEX
8
OBJECT__0
10
0
20
0
30
0
70
128
71
80
72
79
73
35
0
VERTEX
8
OBJECT__0
10
0
20
0
30
0
70
128
71
79
72
78
73
33
0
VERTEX
8
OBJECT__0
10
0
20
0
30
0
70
128
71
78
72
77
73
31
0
VERTEX
8
OBJECT__0
10
0
20
0
30
0
70
128
71
77
72
76
73
29
0
VERTEX
8
OBJECT__0
10
0
20
0
30
0
70
128
71
76
72
75
73
27
0
VERTEX
8
OBJECT__0
10
0
20
0
30
0
70
128
71
75
72
74
73
25
0
VERTEX
8
OBJECT__0
10
0
20
0
30
0
70
128
71
74
72
73
73
23
0
VERTEX
8
OBJECT__0
10
0
20
0
30
0
70
128
71
73
72
72
73
21
0
VERTEX
8
OBJECT__0
10
0
20
0
30
0
70
128
71
72
72
71
73
19
0
VERTEX
8
OBJECT__0
10
0
20
0
30
0
70
128
71
71
72
70
73
17
0
VERTEX
8
OBJECT__0
10
0
20
0
30
0
70
128
71
70
72
69
73
15
0
VERTEX
8
OBJECT__0
10
0
20
0
30
0
70
128
71
69
72
68
73
13
0
VERTEX
8
OBJECT__0
10
0
20
0
30
0
70
128
71
68
72
67
73
11
0
VERTEX
8
OBJECT__0
10
0
20
0
30
0
70
128
71
67
72
66
73
9
0
VERTEX
8
OBJECT__0
10
0
20
0
30
0
70
128
71
66
72
65
73
7
0
VERTEX
8
OBJECT__0
10
0
20
0
30
0
70
128
71
65
72
64
73
5
0
VERTEX
8
OBJECT__0
10
0
20
0
30
0
70
128
71
64
72
62
73
2
0
VERTEX
8
OBJECT__0
10
0
20
0
30
0
70
128
71
63
72
3
73
2
0
VERTEX
8
OBJECT__0
10
0
20
0
30
0
70
128
71
61
72
59
73
58
0
VERTEX
8
OBJECT__0
10
0
20
0
30
0
70
128
71
59
72
57
73
56
0
VERTEX
8
OBJECT__0
10
0
20
0
30
0
70
128
71
57
72
55
73
54
0
VERTEX
8
OBJECT__0
10
0
20
0
30
0
70
128
71
55
72
53
73
52
0
VERTEX
8
OBJECT__0
10
0
20
0
30
0
70
128
71
53
72
51
73
50
0
VERTEX
8
OBJECT__0
10
0
20
0
30
0
70
128
71
49
72
48
73
50
0
VERTEX
8
OBJECT__0
10
0
20
0
30
0
70
128
71
47
72
46
73
48
0
VERTEX
8
OBJECT__0
10
0
20
0
30
0
70
128
71
47
72
45
73
44
0
VERTEX
8
OBJECT__0
10
0
20
0
30
0
70
128
71
43
72
42
73
44
0
VERTEX
8
OBJECT__0
10
0
20
0
30
0
70
128
71
43
72
41
73
40
0
VERTEX
8
OBJECT__0
10
0
20
0
30
0
70
128
71
39
72
38
73
40
0
VERTEX
8
OBJECT__0
10
0
20
0
30
0
70
128
71
37
72
36
73
38
0
VERTEX
8
OBJECT__0
10
0
20
0
30
0
70
128
71
37
72
35
73
34
0
VERTEX
8
OBJECT__0
10
0
20
0
30
0
70
128
71
35
72
33
73
32
0
VERTEX
8
OBJECT__0
10
0
20
0
30
0
70
128
71
33
72
31
73
30
0
VERTEX
8
OBJECT__0
10
0
20
0
30
0
70
128
71
29
72
28
73
30
0
VERTEX
8
OBJECT__0
10
0
20
0
30
0
70
128
71
27
72
26
73
28
0
VERTEX
8
OBJECT__0
10
0
20
0
30
0
70
128
71
27
72
25
73
24
0
VERTEX
8
OBJECT__0
10
0
20
0
30
0
70
128
71
25
72
23
73
22
0
VERTEX
8
OBJECT__0
10
0
20
0
30
0
70
128
71
21
72
20
73
22
0
VERTEX
8
OBJECT__0
10
0
20
0
30
0
70
128
71
19
72
18
73
20
0
VERTEX
8
OBJECT__0
10
0
20
0
30
0
70
128
71
17
72
16
73
18
0
VERTEX
8
OBJECT__0
10
0
20
0
30
0
70
128
71
17
72
15
73
14
0
VERTEX
8
OBJECT__0
10
0
20
0
30
0
70
128
71
15
72
13
73
12
0
VERTEX
8
OBJECT__0
10
0
20
0
30
0
70
128
71
13
72
11
73
10
0
VERTEX
8
OBJECT__0
10
0
20
0
30
0
70
128
71
11
72
9
73
8
0
VERTEX
8
OBJECT__0
10
0
20
0
30
0
70
128
71
7
72
6
73
8
0
VERTEX
8
OBJECT__0
10
0
20
0
30
0
70
128
71
7
72
5
73
4
0
VERTEX
8
OBJECT__0
10
0
20
0
30
0
70
128
71
5
72
2
73
1
0
VERTEX
8
OBJECT__0
10
0
20
0
30
0
70
128
71
3
72
155
73
1
0
SEQEND
8
OBJECT__0
0
POLYLINE
8
OBJECT__1
66
1
70
64
71
155
72
240
62
253
0
VERTEX
8
OBJECT__1
10
27.757000
20
-19.584000
30
-5.236000
70
192
0
VERTEX
8
OBJECT__1
10
27.757000
20
-3.139000
30
-4.086000
70
192
0
VERTEX
8
OBJECT__1
10
32.000000
20
-3.199000
30
-5.842000
70
192
0
VERTEX
8
OBJECT__1
10
32.000000
20
-19.281000
30
-6.967000
70
192
0
VERTEX
8
OBJECT__1
10
32.000000
20
-34.789001
30
-11.374000
70
192
0
VERTEX
8
OBJECT__1
10
27.757000
20
-35.441002
30
-9.742000
70
192
0
VERTEX
8
OBJECT__1
10
32.000000
20
-49.058998
30
-18.875000
70
192
0
VERTEX
8
OBJECT__1
10
27.757000
20
-62.737000
30
-27.917999
70
192
0
VERTEX
8
OBJECT__1
10
27.757000
20
-50.033001
30
-17.412001
70
192
0
VERTEX
8
OBJECT__1
10
27.757000
20
-73.009003
30
-40.811001
70
192
0
VERTEX
8
OBJECT__1
10
32.000000
20
-61.483002
30
-29.149000
70
192
0
VERTEX
8
OBJECT__1
10
27.757000
20
-80.411003
30
-55.541000
70
192
0
VERTEX
8
OBJECT__1
10
32.000000
20
-71.528999
30
-41.757999
70
192
0
VERTEX
8
OBJECT__1
10
27.757000
20
-84.626999
30
-71.476997
70
192
0
VERTEX
8
OBJECT__1
10
32.000000
20
-78.767998
30
-56.162998
70
192
0
VERTEX
8
OBJECT__1
10
27.757000
20
-85.476997
30
-87.940002
70
192
0
VERTEX
8
OBJECT__1
10
32.000000
20
-82.890999
30
-71.749001
70
192
0
VERTEX
8
OBJECT__1
10
27.757000
20
-82.924004
30
-104.225998
70
192
0
VERTEX
8
OBJECT__1
10
32.000000
20
-83.722000
30
-87.848999
70
192
0
VERTEX
8
OBJECT__1
10
27.757000
20
-77.077003
30
-119.639999
70
192
0
VERTEX
8
OBJECT__1
10
32.000000
20
-81.224998
30
-103.776001
70
192
0
VERTEX
8
OBJECT__1
10
27.757000
20
-68.186996
30
-133.522003
70
192
0
VERTEX
8
OBJECT__1
10
32.000000
20
-75.507004
30
-118.849998
70
192
0
VERTEX
8
OBJECT__1
10
27.757000
20
-56.632000
30
-145.279999
70
192
0
VERTEX
8
OBJECT__1
10
32.000000
20
-66.813004
30
-132.425995
70
192
0
VERTEX
8
OBJECT__1
10
27.757000
20
-42.908001
30
-154.410995
70
192
0
VERTEX
8
OBJECT__1
10
32.000000
20
-55.513000
30
-143.925003
70
192
0
VERTEX
8
OBJECT__1
10
32.000000
20
-42.090000
30
-152.854996
70
192
0
VERTEX
8
OBJECT__1
10
32.000000
20
-27.118999
30
-158.835007
70
192
0
VERTEX
8
OBJECT__1
10
27.757000
20
-27.599001
30
-160.526001
70
192
0
VERTEX
8
OBJECT__1
10
32.000000
20
-11.238000
30
-161.610001
70
192
0
VERTEX
8
OBJECT__1
10
27.757000
20
5.116000
30
-162.800995
70
192
0
VERTEX
8
OBJECT__1
10
27.757000
20
-11.360000
30
-163.363007
70
192
0
VERTEX
8
OBJECT__1
10
27.757000
20
21.124001
30
-158.863998
70
192
0
VERTEX
8
OBJECT__1
10
32.000000
20
4.875000
30
-161.059998
70
192
0
VERTEX
8
OBJECT__1
10
32.000000
20
20.530001
30
-157.210007
70
192
0
VERTEX
8
OBJECT__1
10
32.000000
20
35.058998
30
-150.223007
70
192
0
VERTEX
8
OBJECT__1
10
27.757000
20
49.050999
30
-141.673996
70
192
0
VERTEX
8
OBJECT__1
10
27.757000
20
35.980000
30
-151.720001
70
192
0
VERTEX
8
OBJECT__1
10
27.757000
20
59.777000
30
-129.156006
70
192
0
VERTEX
8
OBJECT__1
10
32.000000
20
47.841000
30
-140.399002
70
192
0
VERTEX
8
OBJECT__1
10
32.000000
20
58.331001
30
-128.156998
70
192
0
VERTEX
8
OBJECT__1
10
32.000000
20
66.080002
30
-114.018997
70
192
0
VERTEX
8
OBJECT__1
10
27.757000
20
67.699997
30
-114.699997
70
192
0
VERTEX
8
OBJECT__1
10
32.000000
20
70.757004
30
-98.591003
70
192
0
VERTEX
8
OBJECT__1
10
27.757000
20
73.919998
30
-82.501999
70
192
0
VERTEX
8
OBJECT__1
10
27.757000
20
72.483002
30
-98.924004
70
192
0
VERTEX
8
OBJECT__1
10
32.000000
20
72.163002
30
-82.530998
70
192
0
VERTEX
8
OBJECT__1
10
32.000000
20
70.236000
30
-66.525002
70
192
0
VERTEX
8
OBJECT__1
10
27.757000
20
71.949997
30
-66.135002
70
192
0
VERTEX
8
OBJECT__1
10
32.000000
20
65.060997
30
-51.256001
70
192
0
VERTEX
8
OBJECT__1
10
27.757000
20
66.657997
30
-50.522999
70
192
0
VERTEX
8
OBJECT__1
10
32.000000
20
56.856998
30
-37.377998
70
192
0
VERTEX
8
OBJECT__1
10
27.757000
20
58.269001
30
-36.332001
70
192
0
VERTEX
8
OBJECT__1
10
32.000000
20
45.974998
30
-25.483000
70
192
0
VERTEX
8
OBJECT__1
10
27.757000
20
47.141998
30
-24.169001
70
192
0
VERTEX
8
OBJECT__1
10
32.000000
20
32.880001
30
-16.079000
70
192
0
VERTEX
8
OBJECT__1
10
27.757000
20
18.671000
30
-7.896000
70
192
0
VERTEX
8
OBJECT__1
10
27.757000
20
33.751999
30
-14.553000
70
192
0
VERTEX
8
OBJECT__1
10
32.000000
20
18.131001
30
-9.568000
70
192
0
VERTEX
8
OBJECT__1
10
32.000000
20
2.359000
30
-6.228000
70
192
0
VERTEX
8
OBJECT__1
10
26.000000
20
-20.316000
30
-1.057000
70
192
0
VERTEX
8
OBJECT__1
10
26.000000
20
-2.996000
30
0.155000
70
192
0
VERTEX
8
OBJECT__1
10
26.000000
20
-37.016998
30
-5.803000
70
192
0
VERTEX
8
OBJECT__1
10
26.000000
20
-52.384998
30
-13.881000
70
192
0
VERTEX
8
OBJECT__1
10
26.000000
20
-65.764000
30
-24.945999
70
192
0
VERTEX
8
OBJECT__1
10
26.000000
20
-76.583000
30
-38.525002
70
192
0
VERTEX
8
OBJECT__1
10
26.000000
20
-84.377998
30
-54.037998
70
192
0
VERTEX
8
OBJECT__1
10
26.000000
20
-88.819000
30
-70.821999
70
192
0
VERTEX
8
OBJECT__1
10
26.000000
20
-89.713997
30
-88.161003
70
192
0
VERTEX
8
OBJECT__1
10
26.000000
20
-87.025002
30
-105.313004
70
192
0
VERTEX
8
OBJECT__1
10
26.000000
20
-80.866997
30
-121.545998
70
192
0
VERTEX
8
OBJECT__1
10
26.000000
20
-71.503998
30
-136.167007
70
192
0
VERTEX
8
OBJECT__1
10
26.000000
20
-59.334999
30
-148.550003
70
192
0
VERTEX
8
OBJECT__1
10
26.000000
20
-44.880001
30
-158.167007
70
192
0
VERTEX
8
OBJECT__1
10
26.000000
20
-28.757000
30
-164.606995
70
192
0
VERTEX
8
OBJECT__1
10
26.000000
20
-11.654000
30
-167.595001
70
192
0
VERTEX
8
OBJECT__1
10
26.000000
20
5.698000
30
-167.003006
70
192
0
VERTEX
8
OBJECT__1
10
26.000000
20
22.556999
30
-162.856995
70
192
0
VERTEX
8
OBJECT__1
10
26.000000
20
38.203999
30
-155.332993
70
192
0
VERTEX
8
OBJECT__1
10
26.000000
20
51.970001
30
-144.753006
70
192
0
VERTEX
8
OBJECT__1
10
26.000000
20
63.266998
30
-131.569000
70
192
0
VERTEX
8
OBJECT__1
10
26.000000
20
71.612000
30
-116.344002
70
192
0
VERTEX
8
OBJECT__1
10
26.000000
20
76.648003
30
-99.728996
70
192
0
VERTEX
8
OBJECT__1
10
26.000000
20
78.162003
30
-82.432999
70
192
0
VERTEX
8
OBJECT__1
10
26.000000
20
76.086998
30
-65.195999
70
192
0
VERTEX
8
OBJECT__1
10
26.000000
20
70.514000
30
-48.752998
70
192
0
VERTEX
8
OBJECT__1
10
26.000000
20
61.678001
30
-33.806999
70
192
0
VERTEX
8
OBJECT__1
10
26.000000
20
49.959000
30
-20.997000
70
192
0
VERTEX
8
OBJECT__1
10
26.000000
20
35.856998
30
-10.870000
70
192
0
VERTEX
8
OBJECT__1
10
26.000000
20
19.974001
30
-3.858000
70
192
0
VERTEX
8
OBJECT__1
10
27.757000
20
2.544000
30
-4.481000
70
192
0
VERTEX
8
OBJECT__1
10
27.757000
20
-21.048000
30
3.122000
70
192
0
VERTEX
8
OBJECT__1
10
27.757000
20
-2.854000
30
4.395000
70
192
0
VERTEX
8
OBJECT__1
10
27.757000
20
-38.591999
30
-1.863000
70
192
0
VERTEX
8
OBJECT__1
10
27.757000
20
-54.736000
30
-10.349000
70
192
0
VERTEX
8
OBJECT__1
10
27.757000
20
-68.791000
30
-21.973000
70
192
0
VERTEX
8
OBJECT__1
10
27.757000
20
-80.155998
30
-36.237999
70
192
0
VERTEX
8
OBJECT__1
10
27.757000
20
-88.346001
30
-52.534000
70
192
0
VERTEX
8
OBJECT__1
10
27.757000
20
-93.010002
30
-70.167000
70
192
0
VERTEX
8
OBJECT__1
10
27.757000
20
-93.950996
30
-88.380997
70
192
0
VERTEX
8
OBJECT__1
10
27.757000
20
-91.125999
30
-106.400002
70
192
0
VERTEX
8
OBJECT__1
10
27.757000
20
-84.656998
30
-123.453003
70
192
0
VERTEX
8
OBJECT__1
10
27.757000
20
-74.820999
30
-138.811996
70
192
0
VERTEX
8
OBJECT__1
10
27.757000
20
-62.036999
30
-151.820999
70
192
0
VERTEX
8
OBJECT__1
10
27.757000
20
-46.852001
30
-161.923996
70
192
0
VERTEX
8
OBJECT__1
10
27.757000
20
-29.915001
30
-168.688995
70
192
0
VERTEX
8
OBJECT__1
10
27.757000
20
-11.948000
30
-171.828003
70
192
0
VERTEX
8
OBJECT__1
10
27.757000
20
6.280000
30
-171.205994
70
192
0
VERTEX
8
OBJECT__1
10
27.757000
20
23.990999
30
-166.850006
70
192
0
VERTEX
8
OBJECT__1
10
27.757000
20
40.428001
30
-158.945999
70
192
0
VERTEX
8
OBJECT__1
10
27.757000
20
54.889000
30
-147.832001
70
192
0
VERTEX
8
OBJECT__1
10
27.757000
20
66.755997
30
-133.981995
70
192
0
VERTEX
8
OBJECT__1
10
27.757000
20
75.523003
30
-117.987999
70
192
0
VERTEX
8
OBJECT__1
10
27.757000
20
80.814003
30
-100.533997
70
192
0
VERTEX
8
OBJECT__1
10
27.757000
20
82.403999
30
-82.363998
70
192
0
VERTEX
8
OBJECT__1
10
27.757000
20
80.224998
30
-64.255997
70
192
0
VERTEX
8
OBJECT__1
10
27.757000
20
74.369003
30
-46.983002
70
192
0
VERTEX
8
OBJECT__1
10
27.757000
20
65.087997
30
-31.283001
70
192
0
VERTEX
8
OBJECT__1
10
27.757000
20
52.777000
30
-17.825001
70
192
0
VERTEX
8
OBJECT__1
10
27.757000
20
37.963001
30
-7.187000
70
192
0
VERTEX
8
OBJECT__1
10
27.757000
20
21.277000
30
0.179000
70
192
0
VERTEX
8
OBJECT__1
10
27.757000
20
3.434000
30
3.958000
70
192
0
VERTEX
8
OBJECT__1
10
32.000000
20
-21.351000
30
4.853000
70
192
0
VERTEX
8
OBJECT__1
10
32.000000
20
-2.794000
30
6.151000
70
192
0
VERTEX
8
OBJECT__1
10
32.000000
20
-39.243999
30
-0.232000
70
192
0
VERTEX
8
OBJECT__1
10
32.000000
20
-70.044998
30
-20.742001
70
192
0
VERTEX
8
OBJECT__1
10
32.000000
20
-55.709999
30
-8.887000
70
192
0
VERTEX
8
OBJECT__1
10
32.000000
20
-81.636002
30
-35.291000
70
192
0
VERTEX
8
OBJECT__1
10
32.000000
20
-89.988998
30
-51.911999
70
192
0
VERTEX
8
OBJECT__1
10
32.000000
20
-94.747002
30
-69.894997
70
192
0
VERTEX
8
OBJECT__1
10
32.000000
20
-92.824997
30
-106.849998
70
192
0
VERTEX
8
OBJECT__1
10
32.000000
20
-95.705002
30
-88.472000
70
192
0
VERTEX
8
OBJECT__1
10
32.000000
20
-86.226997
30
-124.242996
70
192
0
VERTEX
8
OBJECT__1
10
32.000000
20
-76.195000
30
-139.908005
70
192
0
VERTEX
8
OBJECT__1
10
32.000000
20
-63.157001
30
-153.175003
70
192
0
VERTEX
8
OBJECT__1
10
32.000000
20
-30.395000
30
-170.380005
70
192
0
VERTEX
8
OBJECT__1
10
32.000000
20
-47.668999
30
-163.479996
70
192
0
VERTEX
8
OBJECT__1
10
32.000000
20
-12.070000
30
-173.580994
70
192
0
VERTEX
8
OBJECT__1
10
32.000000
20
6.521000
30
-172.947006
70
192
0
VERTEX
8
OBJECT__1
10
32.000000
20
24.584999
30
-168.503998
70
192
0
VERTEX
8
OBJECT__1
10
32.000000
20
56.098000
30
-149.106995
70
192
0
VERTEX
8
OBJECT__1
10
32.000000
20
41.348999
30
-160.442001
70
192
0
VERTEX
8
OBJECT__1
10
32.000000
20
68.202003
30
-134.981003
70
192
0
VERTEX
8
OBJECT__1
10
32.000000
20
82.540001
30
-100.866997
70
192
0
VERTEX
8
OBJECT__1
10
32.000000
20
77.142998
30
-118.668999
70
192
0
VERTEX
8
OBJECT__1
10
32.000000
20
84.161003
30
-82.335999
70
192
0
VERTEX
8
OBJECT__1
10
32.000000
20
81.938004
30
-63.867001
70
192
0
VERTEX
8
OBJECT__1
10
32.000000
20
75.966003
30
-46.250000
70
192
0
VERTEX
8
OBJECT__1
10
32.000000
20
66.500000
30
-30.237000
70
192
0
VERTEX
8
OBJECT__1
10
32.000000
20
53.944000
30
-16.511999
70
192
0
VERTEX
8
OBJECT__1
10
32.000000
20
38.834999
30
-5.661000
70
192
0
VERTEX
8
OBJECT__1
10
32.000000
20
21.816999
30
1.852000
70
192
0
VERTEX
8
OBJECT__1
10
32.000000
20
3.619000
30
5.705000
70
192
0
VERTEX
8
OBJECT__1
10
26.000000
20
2.989000
30
-0.262000
70
192
0
VERTEX
8
OBJECT__1
10
0
20
0
30
0
70
128
71
1
72
2
73
3
0
VERTEX
8
OBJECT__1
10
0
20
0
30
0
70
128
71
1
72
4
73
5
0
VERTEX
8
OBJECT__1
10
0
20
0
30
0
70
128
71
6
72
5
73
7
0
VERTEX
8
OBJECT__1
10
0
20
0
30
0
70
128
71
8
72
9
73
7
0
VERTEX
8
OBJECT__1
10
0
20
0
30
0
70
128
71
10
72
8
73
11
0
VERTEX
8
OBJECT__1
10
0
20
0
30
0
70
128
71
12
72
10
73
13
0
VERTEX
8
OBJECT__1
10
0
20
0
30
0
70
128
71
14
72
12
73
15
0
VERTEX
8
OBJECT__1
10
0
20
0
30
0
70
128
71
16
72
14
73
17
0
VERTEX
8
OBJECT__1
10
0
20
0
30
0
70
128
71
18
72
16
73
19
0
VERTEX
8
OBJECT__1
10
0
20
0
30
0
70
128
71
20
72
18
73
21
0
VERTEX
8
OBJECT__1
10
0
20
0
30
0
70
128
71
22
72
20
73
23
0
VERTEX
8
OBJECT__1
10
0
20
0
30
0
70
128
71
24
72
22
73
25
0
VERTEX
8
OBJECT__1
10
0
20
0
30
0
70
128
71
26
72
24
73
27
0
VERTEX
8
OBJECT__1
10
0
20
0
30
0
70
128
71
26
72
28
73
29
0
VERTEX
8
OBJECT__1
10
0
20
0
30
0
70
128
71
30
72
29
73
31
0
VERTEX
8
OBJECT__1
10
0
20
0
30
0
70
128
71
32
72
33
73
31
0
VERTEX
8
OBJECT__1
10
0
20
0
30
0
70
128
71
34
72
32
73
35
0
VERTEX
8
OBJECT__1
10
0
20
0
30
0
70
128
71
34
72
36
73
37
0
VERTEX
8
OBJECT__1
10
0
20
0
30
0
70
128
71
38
72
39
73
37
0
VERTEX
8
OBJECT__1
10
0
20
0
30
0
70
128
71
40
72
38
73
41
0
VERTEX
8
OBJECT__1
10
0
20
0
30
0
70
128
71
40
72
42
73
43
0
VERTEX
8
OBJECT__1
10
0
20
0
30
0
70
128
71
44
72
43
73
45
0
VERTEX
8
OBJECT__1
10
0
20
0
30
0
70
128
71
46
72
47
73
45
0
VERTEX
8
OBJECT__1
10
0
20
0
30
0
70
128
71
46
72
48
73
49
0
VERTEX
8
OBJECT__1
10
0
20
0
30
0
70
128
71
50
72
49
73
51
0
VERTEX
8
OBJECT__1
10
0
20
0
30
0
70
128
71
52
72
51
73
53
0
VERTEX
8
OBJECT__1
10
0
20
0
30
0
70
128
71
54
72
53
73
55
0
VERTEX
8
OBJECT__1
10
0
20
0
30
0
70
128
71
56
72
55
73
57
0
VERTEX
8
OBJECT__1
10
0
20
0
30
0
70
128
71
58
72
59
73
57
0
VERTEX
8
OBJECT__1
10
0
20
0
30
0
70
128
71
58
72
60
73
61
0
VERTEX
8
OBJECT__1
10
0
20
0
30
0
70
128
71
62
72
63
73
2
0
VERTEX
8
OBJECT__1
10
0
20
0
30
0
70
128
71
1
72
6
73
64
0
VERTEX
8
OBJECT__1
10
0
20
0
30
0
70
128
71
6
72
9
73
65
0
VERTEX
8
OBJECT__1
10
0
20
0
30
0
70
128
71
9
72
8
73
66
0
VERTEX
8
OBJECT__1
10
0
20
0
30
0
70
128
71
8
72
10
73
67
0
VERTEX
8
OBJECT__1
10
0
20
0
30
0
70
128
71
10
72
12
73
68
0
VERTEX
8
OBJECT__1
10
0
20
0
30
0
70
128
71
12
72
14
73
69
0
VERTEX
8
OBJECT__1
10
0
20
0
30
0
70
128
71
14
72
16
73
70
0
VERTEX
8
OBJECT__1
10
0
20
0
30
0
70
128
71
16
72
18
73
71
0
VERTEX
8
OBJECT__1
10
0
20
0
30
0
70
128
71
18
72
20
73
72
0
VERTEX
8
OBJECT__1
10
0
20
0
30
0
70
128
71
20
72
22
73
73
0
VERTEX
8
OBJECT__1
10
0
20
0
30
0
70
128
71
22
72
24
73
74
0
VERTEX
8
OBJECT__1
10
0
20
0
30
0
70
128
71
24
72
26
73
75
0
VERTEX
8
OBJECT__1
10
0
20
0
30
0
70
128
71
26
72
30
73
76
0
VERTEX
8
OBJECT__1
10
0
20
0
30
0
70
128
71
30
72
33
73
77
0
VERTEX
8
OBJECT__1
10
0
20
0
30
0
70
128
71
33
72
32
73
78
0
VERTEX
8
OBJECT__1
10
0
20
0
30
0
70
128
71
32
72
34
73
79
0
VERTEX
8
OBJECT__1
10
0
20
0
30
0
70
128
71
34
72
39
73
80
0
VERTEX
8
OBJECT__1
10
0
20
0
30
0
70
128
71
39
72
38
73
81
0
VERTEX
8
OBJECT__1
10
0
20
0
30
0
70
128
71
38
72
40
73
82
0
VERTEX
8
OBJECT__1
10
0
20
0
30
0
70
128
71
40
72
44
73
83
0
VERTEX
8
OBJECT__1
10
0
20
0
30
0
70
128
71
44
72
47
73
84
0
VERTEX
8
OBJECT__1
10
0
20
0
30
0
70
128
71
47
72
46
73
85
0
VERTEX
8
OBJECT__1
10
0
20
0
30
0
70
128
71
46
72
50
73
86
0
VERTEX
8
OBJECT__1
10
0
20
0
30
0
70
128
71
50
72
52
73
87
0
VERTEX
8
OBJECT__1
10
0
20
0
30
0
70
128
71
52
72
54
73
88
0
VERTEX
8
OBJECT__1
10
0
20
0
30
0
70
128
71
54
72
56
73
89
0
VERTEX
8
OBJECT__1
10
0
20
0
30
0
70
128
71
56
72
59
73
90
0
VERTEX
8
OBJECT__1
10
0
20
0
30
0
70
128
71
59
72
58
73
91
0
VERTEX
8
OBJECT__1
10
0
20
0
30
0
70
128
71
91
72
58
73
92
0
VERTEX
8
OBJECT__1
10
0
20
0
30
0
70
128
71
93
72
94
73
63
0
VERTEX
8
OBJECT__1
10
0
20
0
30
0
70
128
71
62
72
64
73
95
0
VERTEX
8
OBJECT__1
10
0
20
0
30
0
70
128
71
64
72
65
73
96
0
VERTEX
8
OBJECT__1
10
0
20
0
30
0
70
128
71
65
72
66
73
97
0
VERTEX
8
OBJECT__1
10
0
20
0
30
0
70
128
71
66
72
67
73
98
0
VERTEX
8
OBJECT__1
10
0
20
0
30
0
70
128
71
67
72
68
73
99
0
VERTEX
8
OBJECT__1
10
0
20
0
30
0
70
128
71
68
72
69
73
100
0
VERTEX
8
OBJECT__1
10
0
20
0
30
0
70
128
71
69
72
70
73
101
0
VERTEX
8
OBJECT__1
10
0
20
0
30
0
70
128
71
70
72
71
73
102
0
VERTEX
8
OBJECT__1
10
0
20
0
30
0
70
128
71
71
72
72
73
103
0
VERTEX
8
OBJECT__1
10
0
20
0
30
0
70
128
71
72
72
73
73
104
0
VERTEX
8
OBJECT__1
10
0
20
0
30
0
70
128
71
73
72
74
73
105
0
VERTEX
8
OBJECT__1
10
0
20
0
30
0
70
128
71
74
72
75
73
106
0
VERTEX
8
OBJECT__1
10
0
20
0
30
0
70
128
71
75
72
76
73
107
0
VERTEX
8
OBJECT__1
10
0
20
0
30
0
70
128
71
76
72
77
73
108
0
VERTEX
8
OBJECT__1
10
0
20
0
30
0
70
128
71
77
72
78
73
109
0
VERTEX
8
OBJECT__1
10
0
20
0
30
0
70
128
71
78
72
79
73
110
0
VERTEX
8
OBJECT__1
10
0
20
0
30
0
70
128
71
79
72
80
73
111
0
VERTEX
8
OBJECT__1
10
0
20
0
30
0
70
128
71
80
72
81
73
112
0
VERTEX
8
OBJECT__1
10
0
20
0
30
0
70
128
71
81
72
82
73
113
0
VERTEX
8
OBJECT__1
10
0
20
0
30
0
70
128
71
82
72
83
73
114
0
VERTEX
8
OBJECT__1
10
0
20
0
30
0
70
128
71
83
72
84
73
115
0
VERTEX
8
OBJECT__1
10
0
20
0
30
0
70
128
71
84
72
85
73
116
0
VERTEX
8
OBJECT__1
10
0
20
0
30
0
70
128
71
85
72
86
73
117
0
VERTEX
8
OBJECT__1
10
0
20
0
30
0
70
128
71
86
72
87
73
118
0
VERTEX
8
OBJECT__1
10
0
20
0
30
0
70
128
71
87
72
88
73
119
0
VERTEX
8
OBJECT__1
10
0
20
0
30
0
70
128
71
88
72
89
73
120
0
VERTEX
8
OBJECT__1
10
0
20
0
30
0
70
128
71
89
72
90
73
121
0
VERTEX
8
OBJECT__1
10
0
20
0
30
0
70
128
71
90
72
91
73
122
0
VERTEX
8
OBJECT__1
10
0
20
0
30
0
70
128
71
123
72
122
73
91
0
VERTEX
8
OBJECT__1
10
0
20
0
30
0
70
128
71
124
72
125
73
94
0
VERTEX
8
OBJECT__1
10
0
20
0
30
0
70
128
71
126
72
124
73
93
0
VERTEX
8
OBJECT__1
10
0
20
0
30
0
70
128
71
126
72
95
73
96
0
VERTEX
8
OBJECT__1
10
0
20
0
30
0
70
128
71
127
72
128
73
96
0
VERTEX
8
OBJECT__1
10
0
20
0
30
0
70
128
71
127
72
97
73
98
0
VERTEX
8
OBJECT__1
10
0
20
0
30
0
70
128
71
129
72
98
73
99
0
VERTEX
8
OBJECT__1
10
0
20
0
30
0
70
128
71
130
72
99
73
100
0
VERTEX
8
OBJECT__1
10
0
20
0
30
0
70
128
71
131
72
100
73
101
0
VERTEX
8
OBJECT__1
10
0
20
0
30
0
70
128
71
132
72
133
73
101
0
VERTEX
8
OBJECT__1
10
0
20
0
30
0
70
128
71
134
72
132
73
102
0
VERTEX
8
OBJECT__1
10
0
20
0
30
0
70
128
71
135
72
134
73
103
0
VERTEX
8
OBJECT__1
10
0
20
0
30
0
70
128
71
135
72
104
73
105
0
VERTEX
8
OBJECT__1
10
0
20
0
30
0
70
128
71
136
72
105
73
106
0
VERTEX
8
OBJECT__1
10
0
20
0
30
0
70
128
71
137
72
138
73
106
0
VERTEX
8
OBJECT__1
10
0
20
0
30
0
70
128
71
139
72
137
73
107
0
VERTEX
8
OBJECT__1
10
0
20
0
30
0
70
128
71
139
72
108
73
109
0
VERTEX
8
OBJECT__1
10
0
20
0
30
0
70
128
71
140
72
109
73
110
0
VERTEX
8
OBJECT__1
10
0
20
0
30
0
70
128
71
141
72
110
73
111
0
VERTEX
8
OBJECT__1
10
0
20
0
30
0
70
128
71
142
72
143
73
111
0
VERTEX
8
OBJECT__1
10
0
20
0
30
0
70
128
71
144
72
142
73
112
0
VERTEX
8
OBJECT__1
10
0
20
0
30
0
70
128
71
144
72
113
73
114
0
VERTEX
8
OBJECT__1
10
0
20
0
30
0
70
128
71
145
72
146
73
114
0
VERTEX
8
OBJECT__1
10
0
20
0
30
0
70
128
71
147
72
145
73
115
0
VERTEX
8
OBJECT__1
10
0
20
0
30
0
70
128
71
148
72
147
73
116
0
VERTEX
8
OBJECT__1
10
0
20
0
30
0
70
128
71
149
72
148
73
117
0
VERTEX
8
OBJECT__1
10
0
20
0
30
0
70
128
71
149
72
118
73
119
0
VERTEX
8
OBJECT__1
10
0
20
0
30
0
70
128
71
150
72
119
73
120
0
VERTEX
8
OBJECT__1
10
0
20
0
30
0
70
128
71
151
72
120
73
121
0
VERTEX
8
OBJECT__1
10
0
20
0
30
0
70
128
71
152
72
121
73
122
0
VERTEX
8
OBJECT__1
10
0
20
0
30
0
70
128
71
153
72
122
73
123
0
VERTEX
8
OBJECT__1
10
0
20
0
30
0
70
128
71
123
72
154
73
153
0
VERTEX
8
OBJECT__1
10
0
20
0
30
0
70
128
71
122
72
153
73
152
0
VERTEX
8
OBJECT__1
10
0
20
0
30
0
70
128
71
121
72
152
73
151
0
VERTEX
8
OBJECT__1
10
0
20
0
30
0
70
128
71
120
72
151
73
150
0
VERTEX
8
OBJECT__1
10
0
20
0
30
0
70
128
71
119
72
150
73
149
0
VERTEX
8
OBJECT__1
10
0
20
0
30
0
70
128
71
117
72
118
73
149
0
VERTEX
8
OBJECT__1
10
0
20
0
30
0
70
128
71
116
72
117
73
148
0
VERTEX
8
OBJECT__1
10
0
20
0
30
0
70
128
71
115
72
116
73
147
0
VERTEX
8
OBJECT__1
10
0
20
0
30
0
70
128
71
114
72
115
73
145
0
VERTEX
8
OBJECT__1
10
0
20
0
30
0
70
128
71
114
72
146
73
144
0
VERTEX
8
OBJECT__1
10
0
20
0
30
0
70
128
71
112
72
113
73
144
0
VERTEX
8
OBJECT__1
10
0
20
0
30
0
70
128
71
111
72
112
73
142
0
VERTEX
8
OBJECT__1
10
0
20
0
30
0
70
128
71
111
72
143
73
141
0
VERTEX
8
OBJECT__1
10
0
20
0
30
0
70
128
71
110
72
141
73
140
0
VERTEX
8
OBJECT__1
10
0
20
0
30
0
70
128
71
109
72
140
73
139
0
VERTEX
8
OBJECT__1
10
0
20
0
30
0
70
128
71
107
72
108
73
139
0
VERTEX
8
OBJECT__1
10
0
20
0
30
0
70
128
71
106
72
107
73
137
0
VERTEX
8
OBJECT__1
10
0
20
0
30
0
70
128
71
106
72
138
73
136
0
VERTEX
8
OBJECT__1
10
0
20
0
30
0
70
128
71
105
72
136
73
135
0
VERTEX
8
OBJECT__1
10
0
20
0
30
0
70
128
71
103
72
104
73
135
0
VERTEX
8
OBJECT__1
10
0
20
0
30
0
70
128
71
102
72
103
73
134
0
VERTEX
8
OBJECT__1
10
0
20
0
30
0
70
128
71
101
72
102
73
132
0
VERTEX
8
OBJECT__1
10
0
20
0
30
0
70
128
71
101
72
133
73
131
0
VERTEX
8
OBJECT__1
10
0
20
0
30
0
70
128
71
100
72
131
73
130
0
VERTEX
8
OBJECT__1
10
0
20
0
30
0
70
128
71
99
72
130
73
129
0
VERTEX
8
OBJECT__1
10
0
20
0
30
0
70
128
71
98
72
129
73
127
0
VERTEX
8
OBJECT__1
10
0
20
0
30
0
70
128
71
96
72
97
73
127
0
VERTEX
8
OBJECT__1
10
0
20
0
30
0
70
128
71
96
72
128
73
126
0
VERTEX
8
OBJECT__1
10
0
20
0
30
0
70
128
71
93
72
95
73
126
0
VERTEX
8
OBJECT__1
10
0
20
0
30
0
70
128
71
94
72
93
73
124
0
VERTEX
8
OBJECT__1
10
0
20
0
30
0
70
128
71
91
72
155
73
123
0
VERTEX
8
OBJECT__1
10
0
20
0
30
0
70
128
71
122
72
121
73
90
0
VERTEX
8
OBJECT__1
10
0
20
0
30
0
70
128
71
121
72
120
73
89
0
VERTEX
8
OBJECT__1
10
0
20
0
30
0
70
128
71
120
72
119
73
88
0
VERTEX
8
OBJECT__1
10
0
20
0
30
0
70
128
71
119
72
118
73
87
0
VERTEX
8
OBJECT__1
10
0
20
0
30
0
70
128
71
118
72
117
73
86
0
VERTEX
8
OBJECT__1
10
0
20
0
30
0
70
128
71
117
72
116
73
85
0
VERTEX
8
OBJECT__1
10
0
20
0
30
0
70
128
71
116
72
115
73
84
0
VERTEX
8
OBJECT__1
10
0
20
0
30
0
70
128
71
115
72
114
73
83
0
VERTEX
8
OBJECT__1
10
0
20
0
30
0
70
128
71
114
72
113
73
82
0
VERTEX
8
OBJECT__1
10
0
20
0
30
0
70
128
71
113
72
112
73
81
0
VERTEX
8
OBJECT__1
10
0
20
0
30
0
70
128
71
112
72
111
73
80
0
VERTEX
8
OBJECT__1
10
0
20
0
30
0
70
128
71
111
72
110
73
79
0
VERTEX
8
OBJECT__1
10
0
20
0
30
0
70
128
71
110
72
109
73
78
0
VERTEX
8
OBJECT__1
10
0
20
0
30
0
70
128
71
109
72
108
73
77
0
VERTEX
8
OBJECT__1
10
0
20
0
30
0
70
128
71
108
72
107
73
76
0
VERTEX
8
OBJECT__1
10
0
20
0
30
0
70
128
71
107
72
106
73
75
0
VERTEX
8
OBJECT__1
10
0
20
0
30
0
70
128
71
106
72
105
73
74
0
VERTEX
8
OBJECT__1
10
0
20
0
30
0
70
128
71
105
72
104
73
73
0
VERTEX
8
OBJECT__1
10
0
20
0
30
0
70
128
71
104
72
103
73
72
0
VERTEX
8
OBJECT__1
10
0
20
0
30
0
70
128
71
103
72
102
73
71
0
VERTEX
8
OBJECT__1
10
0
20
0
30
0
70
128
71
102
72
101
73
70
0
VERTEX
8
OBJECT__1
10
0
20
0
30
0
70
128
71
101
72
100
73
69
0
VERTEX
8
OBJECT__1
10
0
20
0
30
0
70
128
71
100
72
99
73
68
0
VERTEX
8
OBJECT__1
10
0
20
0
30
0
70
128
71
99
72
98
73
67
0
VERTEX
8
OBJECT__1
10
0
20
0
30
0
70
128
71
98
72
97
73
66
0
VERTEX
8
OBJECT__1
10
0
20
0
30
0
70
128
71
97
72
96
73
65
0
VERTEX
8
OBJECT__1
10
0
20
0
30
0
70
128
71
96
72
95
73
64
0
VERTEX
8
OBJECT__1
10
0
20
0
30
0
70
128
71
95
72
93
73
62
0
VERTEX
8
OBJECT__1
10
0
20
0
30
0
70
128
71
63
72
62
73
93
0
VERTEX
8
OBJECT__1
10
0
20
0
30
0
70
128
71
92
72
155
73
91
0
VERTEX
8
OBJECT__1
10
0
20
0
30
0
70
128
71
91
72
90
73
59
0
VERTEX
8
OBJECT__1
10
0
20
0
30
0
70
128
71
90
72
89
73
56
0
VERTEX
8
OBJECT__1
10
0
20
0
30
0
70
128
71
89
72
88
73
54
0
VERTEX
8
OBJECT__1
10
0
20
0
30
0
70
128
71
88
72
87
73
52
0
VERTEX
8
OBJECT__1
10
0
20
0
30
0
70
128
71
87
72
86
73
50
0
VERTEX
8
OBJECT__1
10
0
20
0
30
0
70
128
71
86
72
85
73
46
0
VERTEX
8
OBJECT__1
10
0
20
0
30
0
70
128
71
85
72
84
73
47
0
VERTEX
8
OBJECT__1
10
0
20
0
30
0
70
128
71
84
72
83
73
44
0
VERTEX
8
OBJECT__1
10
0
20
0
30
0
70
128
71
83
72
82
73
40
0
VERTEX
8
OBJECT__1
10
0
20
0
30
0
70
128
71
82
72
81
73
38
0
VERTEX
8
OBJECT__1
10
0
20
0
30
0
70
128
71
81
72
80
73
39
0
VERTEX
8
OBJECT__1
10
0
20
0
30
0
70
128
71
80
72
79
73
34
0
VERTEX
8
OBJECT__1
10
0
20
0
30
0
70
128
71
79
72
78
73
32
0
VERTEX
8
OBJECT__1
10
0
20
0
30
0
70
128
71
78
72
77
73
33
0
VERTEX
8
OBJECT__1
10
0
20
0
30
0
70
128
71
77
72
76
73
30
0
VERTEX
8
OBJECT__1
10
0
20
0
30
0
70
128
71
76
72
75
73
26
0
VERTEX
8
OBJECT__1
10
0
20
0
30
0
70
128
71
75
72
74
73
24
0
VERTEX
8
OBJECT__1
10
0
20
0
30
0
70
128
71
74
72
73
73
22
0
VERTEX
8
OBJECT__1
10
0
20
0
30
0
70
128
71
73
72
72
73
20
0
VERTEX
8
OBJECT__1
10
0
20
0
30
0
70
128
71
72
72
71
73
18
0
VERTEX
8
OBJECT__1
10
0
20
0
30
0
70
128
71
71
72
70
73
16
0
VERTEX
8
OBJECT__1
10
0
20
0
30
0
70
128
71
70
72
69
73
14
0
VERTEX
8
OBJECT__1
10
0
20
0
30
0
70
128
71
69
72
68
73
12
0
VERTEX
8
OBJECT__1
10
0
20
0
30
0
70
128
71
68
72
67
73
10
0
VERTEX
8
OBJECT__1
10
0
20
0
30
0
70
128
71
67
72
66
73
8
0
VERTEX
8
OBJECT__1
10
0
20
0
30
0
70
128
71
66
72
65
73
9
0
VERTEX
8
OBJECT__1
10
0
20
0
30
0
70
128
71
65
72
64
73
6
0
VERTEX
8
OBJECT__1
10
0
20
0
30
0
70
128
71
64
72
62
73
1
0
VERTEX
8
OBJECT__1
10
0
20
0
30
0
70
128
71
2
72
1
73
62
0
VERTEX
8
OBJECT__1
10
0
20
0
30
0
70
128
71
61
72
92
73
58
0
VERTEX
8
OBJECT__1
10
0
20
0
30
0
70
128
71
57
72
60
73
58
0
VERTEX
8
OBJECT__1
10
0
20
0
30
0
70
128
71
57
72
59
73
56
0
VERTEX
8
OBJECT__1
10
0
20
0
30
0
70
128
71
55
72
56
73
54
0
VERTEX
8
OBJECT__1
10
0
20
0
30
0
70
128
71
53
72
54
73
52
0
VERTEX
8
OBJECT__1
10
0
20
0
30
0
70
128
71
51
72
52
73
50
0
VERTEX
8
OBJECT__1
10
0
20
0
30
0
70
128
71
49
72
50
73
46
0
VERTEX
8
OBJECT__1
10
0
20
0
30
0
70
128
71
45
72
48
73
46
0
VERTEX
8
OBJECT__1
10
0
20
0
30
0
70
128
71
45
72
47
73
44
0
VERTEX
8
OBJECT__1
10
0
20
0
30
0
70
128
71
43
72
44
73
40
0
VERTEX
8
OBJECT__1
10
0
20
0
30
0
70
128
71
41
72
42
73
40
0
VERTEX
8
OBJECT__1
10
0
20
0
30
0
70
128
71
37
72
41
73
38
0
VERTEX
8
OBJECT__1
10
0
20
0
30
0
70
128
71
37
72
39
73
34
0
VERTEX
8
OBJECT__1
10
0
20
0
30
0
70
128
71
35
72
36
73
34
0
VERTEX
8
OBJECT__1
10
0
20
0
30
0
70
128
71
31
72
35
73
32
0
VERTEX
8
OBJECT__1
10
0
20
0
30
0
70
128
71
31
72
33
73
30
0
VERTEX
8
OBJECT__1
10
0
20
0
30
0
70
128
71
29
72
30
73
26
0
VERTEX
8
OBJECT__1
10
0
20
0
30
0
70
128
71
27
72
28
73
26
0
VERTEX
8
OBJECT__1
10
0
20
0
30
0
70
128
71
25
72
27
73
24
0
VERTEX
8
OBJECT__1
10
0
20
0
30
0
70
128
71
23
72
25
73
22
0
VERTEX
8
OBJECT__1
10
0
20
0
30
0
70
128
71
21
72
23
73
20
0
VERTEX
8
OBJECT__1
10
0
20
0
30
0
70
128
71
19
72
21
73
18
0
VERTEX
8
OBJECT__1
10
0
20
0
30
0
70
128
71
17
72
19
73
16
0
VERTEX
8
OBJECT__1
10
0
20
0
30
0
70
128
71
15
72
17
73
14
0
VERTEX
8
OBJECT__1
10
0
20
0
30
0
70
128
71
13
72
15
73
12
0
VERTEX
8
OBJECT__1
10
0
20
0
30
0
70
128
71
11
72
13
73
10
0
VERTEX
8
OBJECT__1
10
0
20
0
30
0
70
128
71
7
72
11
73
8
0
VERTEX
8
OBJECT__1
10
0
20
0
30
0
70
128
71
7
72
9
73
6
0
VERTEX
8
OBJECT__1
10
0
20
0
30
0
70
128
71
5
72
6
73
1
0
VERTEX
8
OBJECT__1
10
0
20
0
30
0
70
128
71
3
72
4
73
1
0
SEQEND
8
OBJECT__1
0
POLYLINE
8
OBJECT__3
66
1
70
64
71
8
72
6
62
253
0
VERTEX
8
OBJECT__3
10
44.000000
20
6.364000
30
-6.364000
70
192
0
VERTEX
8
OBJECT__3
10
44.000000
20
6.364000
30
6.364000
70
192
0
VERTEX
8
OBJECT__3
10
44.000000
20
0.000000
30
9.000000
70
192
0
VERTEX
8
OBJECT__3
10
44.000000
20
-9.000000
30
0.000000
70
192
0
VERTEX
8
OBJECT__3
10
44.000000
20
-6.364000
30
-6.364000
70
192
0
VERTEX
8
OBJECT__3
10
44.000000
20
9.000000
30
0.000000
70
192
0
VERTEX
8
OBJECT__3
10
44.000000
20
-6.364000
30
6.364000
70
192
0
VERTEX
8
OBJECT__3
10
44.000000
20
0.000000
30
-9.000000
70
192
0
VERTEX
8
OBJECT__3
10
0
20
0
30
0
70
128
71
1
72
2
73
3
0
VERTEX
8
OBJECT__3
10
0
20
0
30
0
70
128
71
1
72
4
73
5
0
VERTEX
8
OBJECT__3
10
0
20
0
30
0
70
128
71
1
72
6
73
2
0
VERTEX
8
OBJECT__3
10
0
20
0
30
0
70
128
71
1
72
7
73
4
0
VERTEX
8
OBJECT__3
10
0
20
0
30
0
70
128
71
5
72
8
73
1
0
VERTEX
8
OBJECT__3
10
0
20
0
30
0
70
128
71
3
72
7
73
1
0
SEQEND
8
OBJECT__3
0
POLYLINE
8
OBJECT__4
66
1
70
64
71
38
72
38
62
253
0
VERTEX
8
OBJECT__4
10
44.000000
20
0.000000
30
-9.000000
70
192
0
VERTEX
8
OBJECT__4
10
44.000000
20
-6.364000
30
-6.364000
70
192
0
VERTEX
8
OBJECT__4
10
33.834999
20
-3.444000
30
-8.315000
70
192
0
VERTEX
8
OBJECT__4
10
33.834999
20
-6.364000
30
-6.364000
70
192
0
VERTEX
8
OBJECT__4
10
44.000000
20
6.364000
30
-6.364000
70
192
0
VERTEX
8
OBJECT__4
10
33.834999
20
3.444000
30
-8.315000
70
192
0
VERTEX
8
OBJECT__4
10
33.834999
20
0.000000
30
-9.000000
70
192
0
VERTEX
8
OBJECT__4
10
44.000000
20
0.000000
30
9.000000
70
192
0
VERTEX
8
OBJECT__4
10
44.000000
20
6.364000
30
6.364000
70
192
0
VERTEX
8
OBJECT__4
10
33.834999
20
3.444000
30
8.315000
70
192
0
VERTEX
8
OBJECT__4
10
33.834999
20
6.364000
30
6.364000
70
192
0
VERTEX
8
OBJECT__4
10
44.000000
20
-6.364000
30
6.364000
70
192
0
VERTEX
8
OBJECT__4
10
33.834999
20
-3.444000
30
8.315000
70
192
0
VERTEX
8
OBJECT__4
10
33.834999
20
0.000000
30
9.000000
70
192
0
VERTEX
8
OBJECT__4
10
44.000000
20
9.000000
30
0.000000
70
192
0
VERTEX
8
OBJECT__4
10
38.106998
20
8.837000
30
-1.707000
70
192
0
VERTEX
8
OBJECT__4
10
37.317001
20
8.295000
30
-3.493000
70
192
0
VERTEX
8
OBJECT__4
10
35.821999
20
7.393000
30
-5.133000
70
192
0
VERTEX
8
OBJECT__4
10
33.834999
20
6.364000
30
-6.364000
70
192
0
VERTEX
8
OBJECT__4
10
33.834999
20
6.538000
30
-6.185000
70
192
0
VERTEX
8
OBJECT__4
10
35.041000
20
7.057000
30
-5.547000
70
192
0
VERTEX
8
OBJECT__4
10
35.028000
20
7.063000
30
5.526000
70
192
0
VERTEX
8
OBJECT__4
10
36.000000
20
7.490000
30
4.990000
70
192
0
VERTEX
8
OBJECT__4
10
38.056000
20
8.801000
30
1.884000
70
192
0
VERTEX
8
OBJECT__4
10
37.282001
20
8.272000
30
3.547000
70
192
0
VERTEX
8
OBJECT__4
10
38.334999
20
9.000000
30
0.000000
70
192
0
VERTEX
8
OBJECT__4
10
44.000000
20
-9.000000
30
0.000000
70
192
0
VERTEX
8
OBJECT__4
10
38.106998
20
-8.837000
30
1.707000
70
192
0
VERTEX
8
OBJECT__4
10
37.317001
20
-8.295000
30
3.493000
70
192
0
VERTEX
8
OBJECT__4
10
35.821999
20
-7.393000
30
5.133000
70
192
0
VERTEX
8
OBJECT__4
10
33.834999
20
-6.364000
30
6.364000
70
192
0
VERTEX
8
OBJECT__4
10
33.834999
20
-6.538000
30
6.185000
70
192
0
VERTEX
8
OBJECT__4
10
36.000000
20
-7.490000
30
-4.990000
70
192
0
VERTEX
8
OBJECT__4
10
38.056000
20
-8.801000
30
-1.884000
70
192
0
VERTEX
8
OBJECT__4
10
37.282001
20
-8.272000
30
-3.547000
70
192
0
VERTEX
8
OBJECT__4
10
38.334999
20
-9.000000
30
0.000000
70
192
0
VERTEX
8
OBJECT__4
10
33.834999
20
-6.538000
30
-6.185000
70
192
0
VERTEX
8
OBJECT__4
10
33.834999
20
6.538000
30
6.185000
70
192
0
VERTEX
8
OBJECT__4
10
0
20
0
30
0
70
128
71
1
72
2
73
3
0
VERTEX
8
OBJECT__4
10
0
20
0
30
0
70
128
71
2
72
4
73
3
0
VERTEX
8
OBJECT__4
10
0
20
0
30
0
70
128
71
5
72
1
73
6
0
VERTEX
8
OBJECT__4
10
0
20
0
30
0
70
128
71
1
72
7
73
6
0
VERTEX
8
OBJECT__4
10
0
20
0
30
0
70
128
71
8
72
9
73
10
0
VERTEX
8
OBJECT__4
10
0
20
0
30
0
70
128
71
9
72
11
73
10
0
VERTEX
8
OBJECT__4
10
0
20
0
30
0
70
128
71
12
72
8
73
13
0
VERTEX
8
OBJECT__4
10
0
20
0
30
0
70
128
71
8
72
14
73
13
0
VERTEX
8
OBJECT__4
10
0
20
0
30
0
70
128
71
15
72
5
73
16
0
VERTEX
8
OBJECT__4
10
0
20
0
30
0
70
128
71
5
72
17
73
16
0
VERTEX
8
OBJECT__4
10
0
20
0
30
0
70
128
71
5
72
18
73
17
0
VERTEX
8
OBJECT__4
10
0
20
0
30
0
70
128
71
19
72
20
73
21
0
VERTEX
8
OBJECT__4
10
0
20
0
30
0
70
128
71
21
72
5
73
19
0
VERTEX
8
OBJECT__4
10
0
20
0
30
0
70
128
71
21
72
18
73
5
0
VERTEX
8
OBJECT__4
10
0
20
0
30
0
70
128
71
11
72
9
73
22
0
VERTEX
8
OBJECT__4
10
0
20
0
30
0
70
128
71
9
72
23
73
22
0
VERTEX
8
OBJECT__4
10
0
20
0
30
0
70
128
71
9
72
24
73
25
0
VERTEX
8
OBJECT__4
10
0
20
0
30
0
70
128
71
15
72
26
73
24
0
VERTEX
8
OBJECT__4
10
0
20
0
30
0
70
128
71
24
72
9
73
15
0
VERTEX
8
OBJECT__4
10
0
20
0
30
0
70
128
71
25
72
23
73
9
0
VERTEX
8
OBJECT__4
10
0
20
0
30
0
70
128
71
27
72
12
73
28
0
VERTEX
8
OBJECT__4
10
0
20
0
30
0
70
128
71
12
72
29
73
28
0
VERTEX
8
OBJECT__4
10
0
20
0
30
0
70
128
71
12
72
30
73
29
0
VERTEX
8
OBJECT__4
10
0
20
0
30
0
70
128
71
31
72
32
73
30
0
VERTEX
8
OBJECT__4
10
0
20
0
30
0
70
128
71
30
72
12
73
31
0
VERTEX
8
OBJECT__4
10
0
20
0
30
0
70
128
71
4
72
2
73
33
0
VERTEX
8
OBJECT__4
10
0
20
0
30
0
70
128
71
2
72
34
73
35
0
VERTEX
8
OBJECT__4
10
0
20
0
30
0
70
128
71
27
72
36
73
34
0
VERTEX
8
OBJECT__4
10
0
20
0
30
0
70
128
71
34
72
2
73
27
0
VERTEX
8
OBJECT__4
10
0
20
0
30
0
70
128
71
35
72
33
73
2
0
VERTEX
8
OBJECT__4
10
0
20
0
30
0
70
128
71
33
72
37
73
4
0
VERTEX
8
OBJECT__4
10
0
20
0
30
0
70
128
71
28
72
36
73
27
0
VERTEX
8
OBJECT__4
10
0
20
0
30
0
70
128
71
22
72
38
73
11
0
VERTEX
8
OBJECT__4
10
0
20
0
30
0
70
128
71
16
72
26
73
15
0
VERTEX
8
OBJECT__4
10
0
20
0
30
0
70
128
71
13
72
31
73
12
0
VERTEX
8
OBJECT__4
10
0
20
0
30
0
70
128
71
10
72
14
73
8
0
VERTEX
8
OBJECT__4
10
0
20
0
30
0
70
128
71
6
72
19
73
5
0
VERTEX
8
OBJECT__4
10
0
20
0
30
0
70
128
71
3
72
7
73
1
0
SEQEND
8
OBJECT__4
0
POLYLINE
8
OBJECT__6
66
1
70
64
71
13
72
11
62
253
0
VERTEX
8
OBJECT__6
10
33.834999
20
6.364000
30
6.364000
70
192
0
VERTEX
8
OBJECT__6
10
33.834999
20
5.831000
30
6.185000
70
192
0
VERTEX
8
OBJECT__6
10
33.834999
20
4.105000
30
7.443000
70
192
0
VERTEX
8
OBJECT__6
10
33.834999
20
3.444000
30
8.315000
70
192
0
VERTEX
8
OBJECT__6
10
33.834999
20
0.000000
30
9.000000
70
192
0
VERTEX
8
OBJECT__6
10
33.834999
20
2.119000
30
8.232000
70
192
0
VERTEX
8
OBJECT__6
10
33.834999
20
6.538000
30
6.185000
70
192
0
VERTEX
8
OBJECT__6
10
33.834999
20
-5.831000
30
6.185000
70
192
0
VERTEX
8
OBJECT__6
10
33.834999
20
-6.364000
30
6.364000
70
192
0
VERTEX
8
OBJECT__6
10
33.834999
20
-3.444000
30
8.315000
70
192
0
VERTEX
8
OBJECT__6
10
33.834999
20
0.000000
30
8.500000
70
192
0
VERTEX
8
OBJECT__6
10
33.834999
20
-2.119000
30
8.232000
70
192
0
VERTEX
8
OBJECT__6
10
33.834999
20
-6.538000
30
6.185000
70
192
0
VERTEX
8
OBJECT__6
10
0
20
0
30
0
70
128
71
1
72
2
73
3
0
VERTEX
8
OBJECT__6
10
0
20
0
30
0
70
128
71
3
72
4
73
1
0
VERTEX
8
OBJECT__6
10
0
20
0
30
0
70
128
71
5
72
4
73
6
0
VERTEX
8
OBJECT__6
10
0
20
0
30
0
70
128
71
1
72
7
73
2
0
VERTEX
8
OBJECT__6
10
0
20
0
30
0
70
128
71
8
72
9
73
10
0
VERTEX
8
OBJECT__6
10
0
20
0
30
0
70
128
71
5
72
11
73
12
0
VERTEX
8
OBJECT__6
10
0
20
0
30
0
70
128
71
3
72
6
73
4
0
VERTEX
8
OBJECT__6
10
0
20
0
30
0
70
128
71
8
72
13
73
9
0
VERTEX
8
OBJECT__6
10
0
20
0
30
0
70
128
71
6
72
11
73
5
0
VERTEX
8
OBJECT__6
10
0
20
0
30
0
70
128
71
12
72
10
73
5
0
VERTEX
8
OBJECT__6
10
0
20
0
30
0
70
128
71
10
72
12
73
8
0
SEQEND
8
OBJECT__6
0
POLYLINE
8
OBJECT__7
66
1
70
64
71
13
72
11
62
253
0
VERTEX
8
OBJECT__7
10
33.834999
20
6.364000
30
-6.364000
70
192
0
VERTEX
8
OBJECT__7
10
33.834999
20
3.444000
30
-8.315000
70
192
0
VERTEX
8
OBJECT__7
10
33.834999
20
4.105000
30
-7.443000
70
192
0
VERTEX
8
OBJECT__7
10
33.834999
20
5.831000
30
-6.185000
70
192
0
VERTEX
8
OBJECT__7
10
33.834999
20
6.538000
30
-6.185000
70
192
0
VERTEX
8
OBJECT__7
10
33.834999
20
2.119000
30
-8.232000
70
192
0
VERTEX
8
OBJECT__7
10
33.834999
20
0.000000
30
-9.000000
70
192
0
VERTEX
8
OBJECT__7
10
33.834999
20
0.000000
30
-8.500000
70
192
0
VERTEX
8
OBJECT__7
10
33.834999
20
-3.444000
30
-8.315000
70
192
0
VERTEX
8
OBJECT__7
10
33.834999
20
-2.119000
30
-8.232000
70
192
0
VERTEX
8
OBJECT__7
10
33.834999
20
-5.831000
30
-6.185000
70
192
0
VERTEX
8
OBJECT__7
10
33.834999
20
-6.364000
30
-6.364000
70
192
0
VERTEX
8
OBJECT__7
10
33.834999
20
-6.538000
30
-6.185000
70
192
0
VERTEX
8
OBJECT__7
10
0
20
0
30
0
70
128
71
1
72
2
73
3
0
VERTEX
8
OBJECT__7
10
0
20
0
30
0
70
128
71
4
72
5
73
1
0
VERTEX
8
OBJECT__7
10
0
20
0
30
0
70
128
71
2
72
6
73
3
0
VERTEX
8
OBJECT__7
10
0
20
0
30
0
70
128
71
7
72
8
73
6
0
VERTEX
8
OBJECT__7
10
0
20
0
30
0
70
128
71
6
72
2
73
7
0
VERTEX
8
OBJECT__7
10
0
20
0
30
0
70
128
71
7
72
9
73
10
0
VERTEX
8
OBJECT__7
10
0
20
0
30
0
70
128
71
11
72
10
73
9
0
VERTEX
8
OBJECT__7
10
0
20
0
30
0
70
128
71
10
72
8
73
7
0
VERTEX
8
OBJECT__7
10
0
20
0
30
0
70
128
71
9
72
12
73
11
0
VERTEX
8
OBJECT__7
10
0
20
0
30
0
70
128
71
12
72
13
73
11
0
VERTEX
8
OBJECT__7
10
0
20
0
30
0
70
128
71
3
72
4
73
1
0
SEQEND
8
OBJECT__7
0
POLYLINE
8
OBJECT__8
66
1
70
64
71
42
72
42
62
253
0
VERTEX
8
OBJECT__8
10
25.334999
20
4.000000
30
0.000000
70
192
0
VERTEX
8
OBJECT__8
10
26.388000
20
8.272000
30
-3.547000
70
192
0
VERTEX
8
OBJECT__8
10
25.614000
20
8.801000
30
-1.884000
70
192
0
VERTEX
8
OBJECT__8
10
27.670000
20
7.490000
30
-4.990000
70
192
0
VERTEX
8
OBJECT__8
10
28.584999
20
4.000000
30
-5.629000
70
192
0
VERTEX
8
OBJECT__8
10
28.642000
20
7.063000
30
-5.526000
70
192
0
VERTEX
8
OBJECT__8
10
28.584999
20
4.000000
30
5.629000
70
192
0
VERTEX
8
OBJECT__8
10
27.848000
20
7.393000
30
5.133000
70
192
0
VERTEX
8
OBJECT__8
10
25.334999
20
9.000000
30
0.000000
70
192
0
VERTEX
8
OBJECT__8
10
25.563000
20
8.837000
30
1.707000
70
192
0
VERTEX
8
OBJECT__8
10
26.353001
20
8.295000
30
3.493000
70
192
0
VERTEX
8
OBJECT__8
10
35.028000
20
7.063000
30
5.526000
70
192
0
VERTEX
8
OBJECT__8
10
35.084999
20
4.000000
30
5.629000
70
192
0
VERTEX
8
OBJECT__8
10
33.834999
20
5.831000
30
6.185000
70
192
0
VERTEX
8
OBJECT__8
10
32.834999
20
5.568000
30
6.423000
70
192
0
VERTEX
8
OBJECT__8
10
30.834999
20
5.568000
30
6.423000
70
192
0
VERTEX
8
OBJECT__8
10
31.290001
20
6.249000
30
6.477000
70
192
0
VERTEX
8
OBJECT__8
10
30.834999
20
6.305000
30
6.423000
70
192
0
VERTEX
8
OBJECT__8
10
29.834999
20
5.831000
30
6.185000
70
192
0
VERTEX
8
OBJECT__8
10
28.629000
20
7.057000
30
5.547000
70
192
0
VERTEX
8
OBJECT__8
10
29.834999
20
6.538000
30
6.185000
70
192
0
VERTEX
8
OBJECT__8
10
32.834999
20
6.305000
30
6.423000
70
192
0
VERTEX
8
OBJECT__8
10
38.334999
20
4.000000
30
0.000000
70
192
0
VERTEX
8
OBJECT__8
10
37.282001
20
8.272000
30
3.547000
70
192
0
VERTEX
8
OBJECT__8
10
38.056000
20
8.801000
30
1.884000
70
192
0
VERTEX
8
OBJECT__8
10
36.000000
20
7.490000
30
4.990000
70
192
0
VERTEX
8
OBJECT__8
10
35.084999
20
4.000000
30
-5.629000
70
192
0
VERTEX
8
OBJECT__8
10
35.821999
20
7.393000
30
-5.133000
70
192
0
VERTEX
8
OBJECT__8
10
38.334999
20
9.000000
30
0.000000
70
192
0
VERTEX
8
OBJECT__8
10
38.106998
20
8.837000
30
-1.707000
70
192
0
VERTEX
8
OBJECT__8
10
37.317001
20
8.295000
30
-3.493000
70
192
0
VERTEX
8
OBJECT__8
10
29.834999
20
5.831000
30
-6.185000
70
192
0
VERTEX
8
OBJECT__8
10
30.834999
20
5.568000
30
-6.423000
70
192
0
VERTEX
8
OBJECT__8
10
32.834999
20
5.568000
30
-6.423000
70
192
0
VERTEX
8
OBJECT__8
10
32.380001
20
6.249000
30
-6.477000
70
192
0
VERTEX
8
OBJECT__8
10
32.834999
20
6.305000
30
-6.423000
70
192
0
VERTEX
8
OBJECT__8
10
33.834999
20
5.831000
30
-6.185000
70
192
0
VERTEX
8
OBJECT__8
10
35.041000
20
7.057000
30
-5.547000
70
192
0
VERTEX
8
OBJECT__8
10
33.834999
20
6.538000
30
-6.185000
70
192
0
VERTEX
8
OBJECT__8
10
30.834999
20
6.305000
30
-6.423000
70
192
0
VERTEX
8
OBJECT__8
10
29.834999
20
6.538000
30
-6.185000
70
192
0
VERTEX
8
OBJECT__8
10
33.834999
20
6.538000
30
6.185000
70
192
0
VERTEX
8
OBJECT__8
10
0
20
0
30
0
70
128
71
1
72
2
73
3
0
VERTEX
8
OBJECT__8
10
0
20
0
30
0
70
128
71
1
72
4
73
2
0
VERTEX
8
OBJECT__8
10
0
20
0
30
0
70
128
71
5
72
6
73
4
0
VERTEX
8
OBJECT__8
10
0
20
0
30
0
70
128
71
4
72
1
73
5
0
VERTEX
8
OBJECT__8
10
0
20
0
30
0
70
128
71
7
72
1
73
8
0
VERTEX
8
OBJECT__8
10
0
20
0
30
0
70
128
71
1
72
9
73
10
0
VERTEX
8
OBJECT__8
10
0
20
0
30
0
70
128
71
10
72
11
73
1
0
VERTEX
8
OBJECT__8
10
0
20
0
30
0
70
128
71
11
72
8
73
1
0
VERTEX
8
OBJECT__8
10
0
20
0
30
0
70
128
71
12
72
13
73
14
0
VERTEX
8
OBJECT__8
10
0
20
0
30
0
70
128
71
13
72
7
73
15
0
VERTEX
8
OBJECT__8
10
0
20
0
30
0
70
128
71
15
72
14
73
13
0
VERTEX
8
OBJECT__8
10
0
20
0
30
0
70
128
71
15
72
16
73
17
0
VERTEX
8
OBJECT__8
10
0
20
0
30
0
70
128
71
16
72
18
73
17
0
VERTEX
8
OBJECT__8
10
0
20
0
30
0
70
128
71
7
72
19
73
16
0
VERTEX
8
OBJECT__8
10
0
20
0
30
0
70
128
71
20
72
21
73
19
0
VERTEX
8
OBJECT__8
10
0
20
0
30
0
70
128
71
19
72
7
73
20
0
VERTEX
8
OBJECT__8
10
0
20
0
30
0
70
128
71
16
72
15
73
7
0
VERTEX
8
OBJECT__8
10
0
20
0
30
0
70
128
71
17
72
22
73
15
0
VERTEX
8
OBJECT__8
10
0
20
0
30
0
70
128
71
23
72
24
73
25
0
VERTEX
8
OBJECT__8
10
0
20
0
30
0
70
128
71
23
72
26
73
24
0
VERTEX
8
OBJECT__8
10
0
20
0
30
0
70
128
71
13
72
12
73
26
0
VERTEX
8
OBJECT__8
10
0
20
0
30
0
70
128
71
26
72
23
73
13
0
VERTEX
8
OBJECT__8
10
0
20
0
30
0
70
128
71
27
72
23
73
28
0
VERTEX
8
OBJECT__8
10
0
20
0
30
0
70
128
71
23
72
29
73
30
0
VERTEX
8
OBJECT__8
10
0
20
0
30
0
70
128
71
30
72
31
73
23
0
VERTEX
8
OBJECT__8
10
0
20
0
30
0
70
128
71
31
72
28
73
23
0
VERTEX
8
OBJECT__8
10
0
20
0
30
0
70
128
71
6
72
5
73
32
0
VERTEX
8
OBJECT__8
10
0
20
0
30
0
70
128
71
5
72
27
73
33
0
VERTEX
8
OBJECT__8
10
0
20
0
30
0
70
128
71
33
72
32
73
5
0
VERTEX
8
OBJECT__8
10
0
20
0
30
0
70
128
71
33
72
34
73
35
0
VERTEX
8
OBJECT__8
10
0
20
0
30
0
70
128
71
34
72
36
73
35
0
VERTEX
8
OBJECT__8
10
0
20
0
30
0
70
128
71
27
72
37
73
34
0
VERTEX
8
OBJECT__8
10
0
20
0
30
0
70
128
71
38
72
39
73
37
0
VERTEX
8
OBJECT__8
10
0
20
0
30
0
70
128
71
37
72
27
73
38
0
VERTEX
8
OBJECT__8
10
0
20
0
30
0
70
128
71
34
72
33
73
27
0
VERTEX
8
OBJECT__8
10
0
20
0
30
0
70
128
71
35
72
40
73
33
0
VERTEX
8
OBJECT__8
10
0
20
0
30
0
70
128
71
32
72
41
73
6
0
VERTEX
8
OBJECT__8
10
0
20
0
30
0
70
128
71
28
72
38
73
27
0
VERTEX
8
OBJECT__8
10
0
20
0
30
0
70
128
71
25
72
29
73
23
0
VERTEX
8
OBJECT__8
10
0
20
0
30
0
70
128
71
14
72
42
73
12
0
VERTEX
8
OBJECT__8
10
0
20
0
30
0
70
128
71
8
72
20
73
7
0
VERTEX
8
OBJECT__8
10
0
20
0
30
0
70
128
71
3
72
9
73
1
0
SEQEND
8
OBJECT__8
0
POLYLINE
8
OBJECT__9
66
1
70
64
71
8
72
6
62
253
0
VERTEX
8
OBJECT__9
10
30.834999
20
0.000000
30
9.000000
70
192
0
VERTEX
8
OBJECT__9
10
30.834999
20
-6.305000
30
6.423000
70
192
0
VERTEX
8
OBJECT__9
10
32.380001
20
-6.249000
30
6.477000
70
192
0
VERTEX
8
OBJECT__9
10
32.834999
20
0.000000
30
9.000000
70
192
0
VERTEX
8
OBJECT__9
10
32.834999
20
6.305000
30
6.423000
70
192
0
VERTEX
8
OBJECT__9
10
31.290001
20
6.249000
30
6.477000
70
192
0
VERTEX
8
OBJECT__9
10
30.834999
20
6.305000
30
6.423000
70
192
0
VERTEX
8
OBJECT__9
10
32.834999
20
-6.305000
30
6.423000
70
192
0
VERTEX
8
OBJECT__9
10
0
20
0
30
0
70
128
71
1
72
2
73
3
0
VERTEX
8
OBJECT__9
10
0
20
0
30
0
70
128
71
3
72
4
73
1
0
VERTEX
8
OBJECT__9
10
0
20
0
30
0
70
128
71
4
72
5
73
6
0
VERTEX
8
OBJECT__9
10
0
20
0
30
0
70
128
71
6
72
1
73
4
0
VERTEX
8
OBJECT__9
10
0
20
0
30
0
70
128
71
6
72
7
73
1
0
VERTEX
8
OBJECT__9
10
0
20
0
30
0
70
128
71
3
72
8
73
4
0
SEQEND
8
OBJECT__9
0
POLYLINE
8
OBJECT__10
66
1
70
64
71
8
72
6
62
253
0
VERTEX
8
OBJECT__10
10
32.834999
20
0.000000
30
-9.000000
70
192
0
VERTEX
8
OBJECT__10
10
32.834999
20
-6.305000
30
-6.423000
70
192
0
VERTEX
8
OBJECT__10
10
31.290001
20
-6.249000
30
-6.477000
70
192
0
VERTEX
8
OBJECT__10
10
30.834999
20
0.000000
30
-9.000000
70
192
0
VERTEX
8
OBJECT__10
10
30.834999
20
6.305000
30
-6.423000
70
192
0
VERTEX
8
OBJECT__10
10
32.380001
20
6.249000
30
-6.477000
70
192
0
VERTEX
8
OBJECT__10
10
32.834999
20
6.305000
30
-6.423000
70
192
0
VERTEX
8
OBJECT__10
10
30.834999
20
-6.305000
30
-6.423000
70
192
0
VERTEX
8
OBJECT__10
10
0
20
0
30
0
70
128
71
1
72
2
73
3
0
VERTEX
8
OBJECT__10
10
0
20
0
30
0
70
128
71
3
72
4
73
1
0
VERTEX
8
OBJECT__10
10
0
20
0
30
0
70
128
71
4
72
5
73
6
0
VERTEX
8
OBJECT__10
10
0
20
0
30
0
70
128
71
6
72
1
73
4
0
VERTEX
8
OBJECT__10
10
0
20
0
30
0
70
128
71
6
72
7
73
1
0
VERTEX
8
OBJECT__10
10
0
20
0
30
0
70
128
71
3
72
8
73
4
0
SEQEND
8
OBJECT__10
0
POLYLINE
8
OBJECT__11
66
1
70
64
71
6
72
4
62
253
0
VERTEX
8
OBJECT__11
10
30.834999
20
0.000000
30
-9.000000
70
192
0
VERTEX
8
OBJECT__11
10
30.834999
20
0.000000
30
-8.500000
70
192
0
VERTEX
8
OBJECT__11
10
30.834999
20
5.568000
30
-6.423000
70
192
0
VERTEX
8
OBJECT__11
10
30.834999
20
-6.305000
30
-6.423000
70
192
0
VERTEX
8
OBJECT__11
10
30.834999
20
-5.568000
30
-6.423000
70
192
0
VERTEX
8
OBJECT__11
10
30.834999
20
6.305000
30
-6.423000
70
192
0
VERTEX
8
OBJECT__11
10
0
20
0
30
0
70
128
71
1
72
2
73
3
0
VERTEX
8
OBJECT__11
10
0
20
0
30
0
70
128
71
1
72
4
73
5
0
VERTEX
8
OBJECT__11
10
0
20
0
30
0
70
128
71
5
72
2
73
1
0
VERTEX
8
OBJECT__11
10
0
20
0
30
0
70
128
71
3
72
6
73
1
0
SEQEND
8
OBJECT__11
0
POLYLINE
8
OBJECT__12
66
1
70
64
71
6
72
4
62
253
0
VERTEX
8
OBJECT__12
10
29.834999
20
0.000000
30
-8.500000
70
192
0
VERTEX
8
OBJECT__12
10
30.834999
20
0.000000
30
-8.500000
70
192
0
VERTEX
8
OBJECT__12
10
30.834999
20
-5.568000
30
-6.423000
70
192
0
VERTEX
8
OBJECT__12
10
29.834999
20
5.831000
30
-6.185000
70
192
0
VERTEX
8
OBJECT__12
10
30.834999
20
5.568000
30
-6.423000
70
192
0
VERTEX
8
OBJECT__12
10
29.834999
20
-5.831000
30
-6.185000
70
192
0
VERTEX
8
OBJECT__12
10
0
20
0
30
0
70
128
71
1
72
2
73
3
0
VERTEX
8
OBJECT__12
10
0
20
0
30
0
70
128
71
1
72
4
73
5
0
VERTEX
8
OBJECT__12
10
0
20
0
30
0
70
128
71
5
72
2
73
1
0
VERTEX
8
OBJECT__12
10
0
20
0
30
0
70
128
71
3
72
6
73
1
0
SEQEND
8
OBJECT__12
0
POLYLINE
8
OBJECT__13
66
1
70
64
71
8
72
6
62
253
0
VERTEX
8
OBJECT__13
10
29.834999
20
0.000000
30
-9.000000
70
192
0
VERTEX
8
OBJECT__13
10
29.834999
20
0.000000
30
-8.500000
70
192
0
VERTEX
8
OBJECT__13
10
29.834999
20
-5.831000
30
-6.185000
70
192
0
VERTEX
8
OBJECT__13
10
29.834999
20
6.364000
30
-6.364000
70
192
0
VERTEX
8
OBJECT__13
10
29.834999
20
5.831000
30
-6.185000
70
192
0
VERTEX
8
OBJECT__13
10
29.834999
20
-6.364000
30
-6.364000
70
192
0
VERTEX
8
OBJECT__13
10
29.834999
20
6.538000
30
-6.185000
70
192
0
VERTEX
8
OBJECT__13
10
29.834999
20
-6.538000
30
-6.185000
70
192
0
VERTEX
8
OBJECT__13
10
0
20
0
30
0
70
128
71
1
72
2
73
3
0
VERTEX
8
OBJECT__13
10
0
20
0
30
0
70
128
71
1
72
4
73
5
0
VERTEX
8
OBJECT__13
10
0
20
0
30
0
70
128
71
3
72
6
73
1
0
VERTEX
8
OBJECT__13
10
0
20
0
30
0
70
128
71
4
72
7
73
5
0
VERTEX
8
OBJECT__13
10
0
20
0
30
0
70
128
71
5
72
2
73
1
0
VERTEX
8
OBJECT__13
10
0
20
0
30
0
70
128
71
3
72
8
73
6
0
SEQEND
8
OBJECT__13
0
POLYLINE
8
OBJECT__14
66
1
70
64
71
36
72
36
62
253
0
VERTEX
8
OBJECT__14
10
29.834999
20
-6.364000
30
-6.364000
70
192
0
VERTEX
8
OBJECT__14
10
10.000000
20
-6.364000
30
-6.364000
70
192
0
VERTEX
8
OBJECT__14
10
10.000000
20
0.000000
30
-9.000000
70
192
0
VERTEX
8
OBJECT__14
10
29.834999
20
6.364000
30
-6.364000
70
192
0
VERTEX
8
OBJECT__14
10
29.834999
20
0.000000
30
-9.000000
70
192
0
VERTEX
8
OBJECT__14
10
10.000000
20
6.364000
30
6.364000
70
192
0
VERTEX
8
OBJECT__14
10
10.000000
20
0.000000
30
9.000000
70
192
0
VERTEX
8
OBJECT__14
10
29.834999
20
3.444000
30
8.315000
70
192
0
VERTEX
8
OBJECT__14
10
29.834999
20
0.000000
30
9.000000
70
192
0
VERTEX
8
OBJECT__14
10
10.000000
20
-6.364000
30
6.364000
70
192
0
VERTEX
8
OBJECT__14
10
29.834999
20
-6.364000
30
6.364000
70
192
0
VERTEX
8
OBJECT__14
10
29.834999
20
-3.444000
30
8.315000
70
192
0
VERTEX
8
OBJECT__14
10
10.000000
20
-9.000000
30
0.000000
70
192
0
VERTEX
8
OBJECT__14
10
25.563000
20
-8.837000
30
-1.707000
70
192
0
VERTEX
8
OBJECT__14
10
26.353001
20
-8.295000
30
-3.493000
70
192
0
VERTEX
8
OBJECT__14
10
27.848000
20
-7.393000
30
-5.133000
70
192
0
VERTEX
8
OBJECT__14
10
29.834999
20
-6.538000
30
-6.185000
70
192
0
VERTEX
8
OBJECT__14
10
27.670000
20
-7.490000
30
4.990000
70
192
0
VERTEX
8
OBJECT__14
10
25.614000
20
-8.801000
30
1.884000
70
192
0
VERTEX
8
OBJECT__14
10
26.388000
20
-8.272000
30
3.547000
70
192
0
VERTEX
8
OBJECT__14
10
25.334999
20
-9.000000
30
0.000000
70
192
0
VERTEX
8
OBJECT__14
10
10.000000
20
9.000000
30
0.000000
70
192
0
VERTEX
8
OBJECT__14
10
25.563000
20
8.837000
30
1.707000
70
192
0
VERTEX
8
OBJECT__14
10
26.353001
20
8.295000
30
3.493000
70
192
0
VERTEX
8
OBJECT__14
10
27.848000
20
7.393000
30
5.133000
70
192
0
VERTEX
8
OBJECT__14
10
29.834999
20
6.364000
30
6.364000
70
192
0
VERTEX
8
OBJECT__14
10
29.834999
20
6.538000
30
6.185000
70
192
0
VERTEX
8
OBJECT__14
10
28.629000
20
7.057000
30
5.547000
70
192
0
VERTEX
8
OBJECT__14
10
10.000000
20
6.364000
30
-6.364000
70
192
0
VERTEX
8
OBJECT__14
10
28.642000
20
7.063000
30
-5.526000
70
192
0
VERTEX
8
OBJECT__14
10
27.670000
20
7.490000
30
-4.990000
70
192
0
VERTEX
8
OBJECT__14
10
25.614000
20
8.801000
30
-1.884000
70
192
0
VERTEX
8
OBJECT__14
10
26.388000
20
8.272000
30
-3.547000
70
192
0
VERTEX
8
OBJECT__14
10
25.334999
20
9.000000
30
0.000000
70
192
0
VERTEX
8
OBJECT__14
10
29.834999
20
6.538000
30
-6.185000
70
192
0
VERTEX
8
OBJECT__14
10
29.834999
20
-6.538000
30
6.185000
70
192
0
VERTEX
8
OBJECT__14
10
0
20
0
30
0
70
128
71
1
72
2
73
3
0
VERTEX
8
OBJECT__14
10
0
20
0
30
0
70
128
71
4
72
5
73
3
0
VERTEX
8
OBJECT__14
10
0
20
0
30
0
70
128
71
6
72
7
73
8
0
VERTEX
8
OBJECT__14
10
0
20
0
30
0
70
128
71
7
72
9
73
8
0
VERTEX
8
OBJECT__14
10
0
20
0
30
0
70
128
71
10
72
11
73
12
0
VERTEX
8
OBJECT__14
10
0
20
0
30
0
70
128
71
12
72
7
73
10
0
VERTEX
8
OBJECT__14
10
0
20
0
30
0
70
128
71
13
72
2
73
14
0
VERTEX
8
OBJECT__14
10
0
20
0
30
0
70
128
71
2
72
15
73
14
0
VERTEX
8
OBJECT__14
10
0
20
0
30
0
70
128
71
2
72
16
73
15
0
VERTEX
8
OBJECT__14
10
0
20
0
30
0
70
128
71
1
72
17
73
16
0
VERTEX
8
OBJECT__14
10
0
20
0
30
0
70
128
71
16
72
2
73
1
0
VERTEX
8
OBJECT__14
10
0
20
0
30
0
70
128
71
11
72
10
73
18
0
VERTEX
8
OBJECT__14
10
0
20
0
30
0
70
128
71
10
72
19
73
20
0
VERTEX
8
OBJECT__14
10
0
20
0
30
0
70
128
71
13
72
21
73
19
0
VERTEX
8
OBJECT__14
10
0
20
0
30
0
70
128
71
19
72
10
73
13
0
VERTEX
8
OBJECT__14
10
0
20
0
30
0
70
128
71
20
72
18
73
10
0
VERTEX
8
OBJECT__14
10
0
20
0
30
0
70
128
71
22
72
6
73
23
0
VERTEX
8
OBJECT__14
10
0
20
0
30
0
70
128
71
6
72
24
73
23
0
VERTEX
8
OBJECT__14
10
0
20
0
30
0
70
128
71
6
72
25
73
24
0
VERTEX
8
OBJECT__14
10
0
20
0
30
0
70
128
71
26
72
27
73
28
0
VERTEX
8
OBJECT__14
10
0
20
0
30
0
70
128
71
28
72
6
73
26
0
VERTEX
8
OBJECT__14
10
0
20
0
30
0
70
128
71
28
72
25
73
6
0
VERTEX
8
OBJECT__14
10
0
20
0
30
0
70
128
71
4
72
29
73
30
0
VERTEX
8
OBJECT__14
10
0
20
0
30
0
70
128
71
29
72
31
73
30
0
VERTEX
8
OBJECT__14
10
0
20
0
30
0
70
128
71
29
72
32
73
33
0
VERTEX
8
OBJECT__14
10
0
20
0
30
0
70
128
71
22
72
34
73
32
0
VERTEX
8
OBJECT__14
10
0
20
0
30
0
70
128
71
32
72
29
73
22
0
VERTEX
8
OBJECT__14
10
0
20
0
30
0
70
128
71
33
72
31
73
29
0
VERTEX
8
OBJECT__14
10
0
20
0
30
0
70
128
71
30
72
35
73
4
0
VERTEX
8
OBJECT__14
10
0
20
0
30
0
70
128
71
23
72
34
73
22
0
VERTEX
8
OBJECT__14
10
0
20
0
30
0
70
128
71
18
72
36
73
11
0
VERTEX
8
OBJECT__14
10
0
20
0
30
0
70
128
71
14
72
21
73
13
0
VERTEX
8
OBJECT__14
10
0
20
0
30
0
70
128
71
12
72
9
73
7
0
VERTEX
8
OBJECT__14
10
0
20
0
30
0
70
128
71
8
72
26
73
6
0
VERTEX
8
OBJECT__14
10
0
20
0
30
0
70
128
71
3
72
29
73
4
0
VERTEX
8
OBJECT__14
10
0
20
0
30
0
70
128
71
3
72
5
73
1
0
SEQEND
8
OBJECT__14
0
POLYLINE
8
OBJECT__15
66
1
70
64
71
6
72
4
62
253
0
VERTEX
8
OBJECT__15
10
30.834999
20
0.000000
30
9.000000
70
192
0
VERTEX
8
OBJECT__15
10
30.834999
20
0.000000
30
8.500000
70
192
0
VERTEX
8
OBJECT__15
10
30.834999
20
-5.568000
30
6.423000
70
192
0
VERTEX
8
OBJECT__15
10
30.834999
20
6.305000
30
6.423000
70
192
0
VERTEX
8
OBJECT__15
10
30.834999
20
5.568000
30
6.423000
70
192
0
VERTEX
8
OBJECT__15
10
30.834999
20
-6.305000
30
6.423000
70
192
0
VERTEX
8
OBJECT__15
10
0
20
0
30
0
70
128
71
1
72
2
73
3
0
VERTEX
8
OBJECT__15
10
0
20
0
30
0
70
128
71
1
72
4
73
5
0
VERTEX
8
OBJECT__15
10
0
20
0
30
0
70
128
71
5
72
2
73
1
0
VERTEX
8
OBJECT__15
10
0
20
0
30
0
70
128
71
3
72
6
73
1
0
SEQEND
8
OBJECT__15
0
POLYLINE
8
OBJECT__16
66
1
70
64
71
6
72
4
62
253
0
VERTEX
8
OBJECT__16
10
32.834999
20
0.000000
30
9.000000
70
192
0
VERTEX
8
OBJECT__16
10
32.834999
20
0.000000
30
8.500000
70
192
0
VERTEX
8
OBJECT__16
10
32.834999
20
5.568000
30
6.423000
70
192
0
VERTEX
8
OBJECT__16
10
32.834999
20
-6.305000
30
6.423000
70
192
0
VERTEX
8
OBJECT__16
10
32.834999
20
-5.568000
30
6.423000
70
192
0
VERTEX
8
OBJECT__16
10
32.834999
20
6.305000
30
6.423000
70
192
0
VERTEX
8
OBJECT__16
10
0
20
0
30
0
70
128
71
1
72
2
73
3
0
VERTEX
8
OBJECT__16
10
0
20
0
30
0
70
128
71
1
72
4
73
5
0
VERTEX
8
OBJECT__16
10
0
20
0
30
0
70
128
71
5
72
2
73
1
0
VERTEX
8
OBJECT__16
10
0
20
0
30
0
70
128
71
3
72
6
73
1
0
SEQEND
8
OBJECT__16
0
POLYLINE
8
OBJECT__17
66
1
70
64
71
6
72
4
62
253
0
VERTEX
8
OBJECT__17
10
32.834999
20
0.000000
30
-9.000000
70
192
0
VERTEX
8
OBJECT__17
10
32.834999
20
0.000000
30
-8.500000
70
192
0
VERTEX
8
OBJECT__17
10
32.834999
20
-5.568000
30
-6.423000
70
192
0
VERTEX
8
OBJECT__17
10
32.834999
20
6.305000
30
-6.423000
70
192
0
VERTEX
8
OBJECT__17
10
32.834999
20
5.568000
30
-6.423000
70
192
0
VERTEX
8
OBJECT__17
10
32.834999
20
-6.305000
30
-6.423000
70
192
0
VERTEX
8
OBJECT__17
10
0
20
0
30
0
70
128
71
1
72
2
73
3
0
VERTEX
8
OBJECT__17
10
0
20
0
30
0
70
128
71
1
72
4
73
5
0
VERTEX
8
OBJECT__17
10
0
20
0
30
0
70
128
71
5
72
2
73
1
0
VERTEX
8
OBJECT__17
10
0
20
0
30
0
70
128
71
3
72
6
73
1
0
SEQEND
8
OBJECT__17
0
POLYLINE
8
OBJECT__18
66
1
70
64
71
13
72
11
62
253
0
VERTEX
8
OBJECT__18
10
29.834999
20
6.364000
30
6.364000
70
192
0
VERTEX
8
OBJECT__18
10
29.834999
20
3.444000
30
8.315000
70
192
0
VERTEX
8
OBJECT__18
10
29.834999
20
4.105000
30
7.443000
70
192
0
VERTEX
8
OBJECT__18
10
29.834999
20
5.831000
30
6.185000
70
192
0
VERTEX
8
OBJECT__18
10
29.834999
20
6.538000
30
6.185000
70
192
0
VERTEX
8
OBJECT__18
10
29.834999
20
2.119000
30
8.232000
70
192
0
VERTEX
8
OBJECT__18
10
29.834999
20
0.000000
30
9.000000
70
192
0
VERTEX
8
OBJECT__18
10
29.834999
20
0.000000
30
8.500000
70
192
0
VERTEX
8
OBJECT__18
10
29.834999
20
-3.444000
30
8.315000
70
192
0
VERTEX
8
OBJECT__18
10
29.834999
20
-2.119000
30
8.232000
70
192
0
VERTEX
8
OBJECT__18
10
29.834999
20
-5.831000
30
6.185000
70
192
0
VERTEX
8
OBJECT__18
10
29.834999
20
-6.364000
30
6.364000
70
192
0
VERTEX
8
OBJECT__18
10
29.834999
20
-6.538000
30
6.185000
70
192
0
VERTEX
8
OBJECT__18
10
0
20
0
30
0
70
128
71
1
72
2
73
3
0
VERTEX
8
OBJECT__18
10
0
20
0
30
0
70
128
71
4
72
5
73
1
0
VERTEX
8
OBJECT__18
10
0
20
0
30
0
70
128
71
2
72
6
73
3
0
VERTEX
8
OBJECT__18
10
0
20
0
30
0
70
128
71
7
72
8
73
6
0
VERTEX
8
OBJECT__18
10
0
20
0
30
0
70
128
71
6
72
2
73
7
0
VERTEX
8
OBJECT__18
10
0
20
0
30
0
70
128
71
7
72
9
73
10
0
VERTEX
8
OBJECT__18
10
0
20
0
30
0
70
128
71
11
72
10
73
9
0
VERTEX
8
OBJECT__18
10
0
20
0
30
0
70
128
71
10
72
8
73
7
0
VERTEX
8
OBJECT__18
10
0
20
0
30
0
70
128
71
9
72
12
73
11
0
VERTEX
8
OBJECT__18
10
0
20
0
30
0
70
128
71
12
72
13
73
11
0
VERTEX
8
OBJECT__18
10
0
20
0
30
0
70
128
71
3
72
4
73
1
0
SEQEND
8
OBJECT__18
0
POLYLINE
8
OBJECT__19
66
1
70
64
71
8
72
6
62
253
0
VERTEX
8
OBJECT__19
10
24.950001
20
-8.287000
30
1.891000
70
192
0
VERTEX
8
OBJECT__19
10
24.950001
20
6.646000
30
-5.300000
70
192
0
VERTEX
8
OBJECT__19
10
24.950001
20
0.000000
30
-8.500000
70
192
0
VERTEX
8
OBJECT__19
10
24.950001
20
-3.688000
30
7.658000
70
192
0
VERTEX
8
OBJECT__19
10
24.950001
20
3.688000
30
7.658000
70
192
0
VERTEX
8
OBJECT__19
10
24.950001
20
8.500000
30
0.000000
70
192
0
VERTEX
8
OBJECT__19
10
24.950001
20
8.287000
30
1.891000
70
192
0
VERTEX
8
OBJECT__19
10
24.950001
20
-6.646000
30
-5.300000
70
192
0
VERTEX
8
OBJECT__19
10
0
20
0
30
0
70
128
71
1
72
2
73
3
0
VERTEX
8
OBJECT__19
10
0
20
0
30
0
70
128
71
1
72
4
73
5
0
VERTEX
8
OBJECT__19
10
0
20
0
30
0
70
128
71
1
72
6
73
2
0
VERTEX
8
OBJECT__19
10
0
20
0
30
0
70
128
71
5
72
7
73
1
0
VERTEX
8
OBJECT__19
10
0
20
0
30
0
70
128
71
7
72
6
73
1
0
VERTEX
8
OBJECT__19
10
0
20
0
30
0
70
128
71
3
72
8
73
1
0
SEQEND
8
OBJECT__19
0
POLYLINE
8
OBJECT__20
66
1
70
64
71
16
72
16
62
253
0
VERTEX
8
OBJECT__20
10
24.950001
20
6.646000
30
-5.300000
70
192
0
VERTEX
8
OBJECT__20
10
40.825001
20
6.646000
30
-5.300000
70
192
0
VERTEX
8
OBJECT__20
10
40.825001
20
0.000000
30
-8.500000
70
192
0
VERTEX
8
OBJECT__20
10
40.825001
20
8.500000
30
0.000000
70
192
0
VERTEX
8
OBJECT__20
10
24.950001
20
8.500000
30
0.000000
70
192
0
VERTEX
8
OBJECT__20
10
24.950001
20
8.287000
30
1.891000
70
192
0
VERTEX
8
OBJECT__20
10
24.950001
20
3.688000
30
7.658000
70
192
0
VERTEX
8
OBJECT__20
10
40.825001
20
3.688000
30
7.658000
70
192
0
VERTEX
8
OBJECT__20
10
40.825001
20
8.287000
30
1.891000
70
192
0
VERTEX
8
OBJECT__20
10
24.950001
20
-3.688000
30
7.658000
70
192
0
VERTEX
8
OBJECT__20
10
40.825001
20
-3.688000
30
7.658000
70
192
0
VERTEX
8
OBJECT__20
10
40.825001
20
-8.287000
30
1.891000
70
192
0
VERTEX
8
OBJECT__20
10
40.825001
20
-6.646000
30
-5.300000
70
192
0
VERTEX
8
OBJECT__20
10
24.950001
20
-8.287000
30
1.891000
70
192
0
VERTEX
8
OBJECT__20
10
24.950001
20
0.000000
30
-8.500000
70
192
0
VERTEX
8
OBJECT__20
10
24.950001
20
-6.646000
30
-5.300000
70
192
0
VERTEX
8
OBJECT__20
10
0
20
0
30
0
70
128
71
1
72
2
73
3
0
VERTEX
8
OBJECT__20
10
0
20
0
30
0
70
128
71
4
72
5
73
6
0
VERTEX
8
OBJECT__20
10
0
20
0
30
0
70
128
71
5
72
4
73
2
0
VERTEX
8
OBJECT__20
10
0
20
0
30
0
70
128
71
2
72
1
73
5
0
VERTEX
8
OBJECT__20
10
0
20
0
30
0
70
128
71
7
72
8
73
9
0
VERTEX
8
OBJECT__20
10
0
20
0
30
0
70
128
71
10
72
11
73
8
0
VERTEX
8
OBJECT__20
10
0
20
0
30
0
70
128
71
12
72
11
73
10
0
VERTEX
8
OBJECT__20
10
0
20
0
30
0
70
128
71
13
72
12
73
14
0
VERTEX
8
OBJECT__20
10
0
20
0
30
0
70
128
71
15
72
3
73
13
0
VERTEX
8
OBJECT__20
10
0
20
0
30
0
70
128
71
13
72
16
73
15
0
VERTEX
8
OBJECT__20
10
0
20
0
30
0
70
128
71
14
72
16
73
13
0
VERTEX
8
OBJECT__20
10
0
20
0
30
0
70
128
71
10
72
14
73
12
0
VERTEX
8
OBJECT__20
10
0
20
0
30
0
70
128
71
8
72
7
73
10
0
VERTEX
8
OBJECT__20
10
0
20
0
30
0
70
128
71
9
72
6
73
7
0
VERTEX
8
OBJECT__20
10
0
20
0
30
0
70
128
71
6
72
9
73
4
0
VERTEX
8
OBJECT__20
10
0
20
0
30
0
70
128
71
3
72
15
73
1
0
SEQEND
8
OBJECT__20
0
POLYLINE
8
OBJECT__22
66
1
70
64
71
8
72
6
62
253
0
VERTEX
8
OBJECT__22
10
40.825001
20
-8.287000
30
1.891000
70
192
0
VERTEX
8
OBJECT__22
10
40.825001
20
8.287000
30
1.891000
70
192
0
VERTEX
8
OBJECT__22
10
40.825001
20
3.688000
30
7.658000
70
192
0
VERTEX
8
OBJECT__22
10
40.825001
20
6.646000
30
-5.300000
70
192
0
VERTEX
8
OBJECT__22
10
40.825001
20
-6.646000
30
-5.300000
70
192
0
VERTEX
8
OBJECT__22
10
40.825001
20
8.500000
30
0.000000
70
192
0
VERTEX
8
OBJECT__22
10
40.825001
20
0.000000
30
-8.500000
70
192
0
VERTEX
8
OBJECT__22
10
40.825001
20
-3.688000
30
7.658000
70
192
0
VERTEX
8
OBJECT__22
10
0
20
0
30
0
70
128
71
1
72
2
73
3
0
VERTEX
8
OBJECT__22
10
0
20
0
30
0
70
128
71
4
72
1
73
5
0
VERTEX
8
OBJECT__22
10
0
20
0
30
0
70
128
71
1
72
6
73
2
0
VERTEX
8
OBJECT__22
10
0
20
0
30
0
70
128
71
5
72
7
73
4
0
VERTEX
8
OBJECT__22
10
0
20
0
30
0
70
128
71
4
72
6
73
1
0
VERTEX
8
OBJECT__22
10
0
20
0
30
0
70
128
71
3
72
8
73
1
0
SEQEND
8
OBJECT__22
0
POLYLINE
8
OBJECT__23
66
1
70
64
71
14
72
12
62
253
0
VERTEX
8
OBJECT__23
10
0.000000
20
22.445999
30
-1.561000
70
192
0
VERTEX
8
OBJECT__23
10
0.000000
20
3.473000
30
-22.230000
70
192
0
VERTEX
8
OBJECT__23
10
0.000000
20
12.774000
30
-18.521999
70
192
0
VERTEX
8
OBJECT__23
10
0.000000
20
-22.445999
30
1.561000
70
192
0
VERTEX
8
OBJECT__23
10
0.000000
20
-3.473000
30
22.230000
70
192
0
VERTEX
8
OBJECT__23
10
0.000000
20
-12.774000
30
18.521999
70
192
0
VERTEX
8
OBJECT__23
10
0.000000
20
-6.516000
30
-21.535999
70
192
0
VERTEX
8
OBJECT__23
10
0.000000
20
6.516000
30
21.535999
70
192
0
VERTEX
8
OBJECT__23
10
0.000000
20
-15.215000
30
-16.576000
70
192
0
VERTEX
8
OBJECT__23
10
0.000000
20
15.215000
30
16.576000
70
192
0
VERTEX
8
OBJECT__23
10
0.000000
20
-20.900000
30
-8.333000
70
192
0
VERTEX
8
OBJECT__23
10
0.000000
20
20.900000
30
8.333000
70
192
0
VERTEX
8
OBJECT__23
10
0.000000
20
-19.546000
30
11.145000
70
192
0
VERTEX
8
OBJECT__23
10
0.000000
20
19.546000
30
-11.145000
70
192
0
VERTEX
8
OBJECT__23
10
0
20
0
30
0
70
128
71
1
72
2
73
3
0
VERTEX
8
OBJECT__23
10
0
20
0
30
0
70
128
71
4
72
5
73
6
0
VERTEX
8
OBJECT__23
10
0
20
0
30
0
70
128
71
1
72
7
73
2
0
VERTEX
8
OBJECT__23
10
0
20
0
30
0
70
128
71
4
72
8
73
5
0
VERTEX
8
OBJECT__23
10
0
20
0
30
0
70
128
71
1
72
9
73
7
0
VERTEX
8
OBJECT__23
10
0
20
0
30
0
70
128
71
4
72
10
73
8
0
VERTEX
8
OBJECT__23
10
0
20
0
30
0
70
128
71
1
72
11
73
9
0
VERTEX
8
OBJECT__23
10
0
20
0
30
0
70
128
71
4
72
12
73
10
0
VERTEX
8
OBJECT__23
10
0
20
0
30
0
70
128
71
1
72
4
73
11
0
VERTEX
8
OBJECT__23
10
0
20
0
30
0
70
128
71
4
72
1
73
12
0
VERTEX
8
OBJECT__23
10
0
20
0
30
0
70
128
71
6
72
13
73
4
0
VERTEX
8
OBJECT__23
10
0
20
0
30
0
70
128
71
3
72
14
73
1
0
SEQEND
8
OBJECT__23
0
POLYLINE
8
OBJECT__25
66
1
70
64
71
28
72
28
62
253
0
VERTEX
8
OBJECT__25
10
0.000000
20
14.176000
30
22.979000
70
192
0
VERTEX
8
OBJECT__25
10
0.000000
20
15.215000
30
16.576000
70
192
0
VERTEX
8
OBJECT__25
10
0.000000
20
6.516000
30
21.535999
70
192
0
VERTEX
8
OBJECT__25
10
0.000000
20
23.231001
30
13.759000
70
192
0
VERTEX
8
OBJECT__25
10
0.000000
20
20.900000
30
8.333000
70
192
0
VERTEX
8
OBJECT__25
10
0.000000
20
-26.513000
30
5.106000
70
192
0
VERTEX
8
OBJECT__25
10
0.000000
20
-21.103001
30
16.841999
70
192
0
VERTEX
8
OBJECT__25
10
0.000000
20
-19.546000
30
11.145000
70
192
0
VERTEX
8
OBJECT__25
10
0.000000
20
26.964001
30
1.387000
70
192
0
VERTEX
8
OBJECT__25
10
0.000000
20
22.445999
30
-1.561000
70
192
0
VERTEX
8
OBJECT__25
10
0.000000
20
-25.849001
30
-7.800000
70
192
0
VERTEX
8
OBJECT__25
10
0.000000
20
-26.934999
30
1.873000
70
192
0
VERTEX
8
OBJECT__25
10
0.000000
20
-22.445999
30
1.561000
70
192
0
VERTEX
8
OBJECT__25
10
0.000000
20
24.520000
30
-11.303000
70
192
0
VERTEX
8
OBJECT__25
10
0.000000
20
19.546000
30
-11.145000
70
192
0
VERTEX
8
OBJECT__25
10
0.000000
20
4.627000
30
-26.601000
70
192
0
VERTEX
8
OBJECT__25
10
0.000000
20
-8.264000
30
-25.704000
70
192
0
VERTEX
8
OBJECT__25
10
0.000000
20
-6.516000
30
-21.535999
70
192
0
VERTEX
8
OBJECT__25
10
0.000000
20
-19.263000
30
-18.919001
70
192
0
VERTEX
8
OBJECT__25
10
0.000000
20
-15.215000
30
-16.576000
70
192
0
VERTEX
8
OBJECT__25
10
0.000000
20
-10.859000
30
24.719999
70
192
0
VERTEX
8
OBJECT__25
10
0.000000
20
-12.774000
30
18.521999
70
192
0
VERTEX
8
OBJECT__25
10
0.000000
20
16.459000
30
-21.403000
70
192
0
VERTEX
8
OBJECT__25
10
0.000000
20
12.774000
30
-18.521999
70
192
0
VERTEX
8
OBJECT__25
10
0.000000
20
3.473000
30
-22.230000
70
192
0
VERTEX
8
OBJECT__25
10
0.000000
20
-20.900000
30
-8.333000
70
192
0
VERTEX
8
OBJECT__25
10
0.000000
20
1.873000
30
26.934999
70
192
0
VERTEX
8
OBJECT__25
10
0.000000
20
-3.473000
30
22.230000
70
192
0
VERTEX
8
OBJECT__25
10
0
20
0
30
0
70
128
71
1
72
2
73
3
0
VERTEX
8
OBJECT__25
10
0
20
0
30
0
70
128
71
4
72
5
73
2
0
VERTEX
8
OBJECT__25
10
0
20
0
30
0
70
128
71
6
72
7
73
8
0
VERTEX
8
OBJECT__25
10
0
20
0
30
0
70
128
71
2
72
1
73
4
0
VERTEX
8
OBJECT__25
10
0
20
0
30
0
70
128
71
9
72
10
73
5
0
VERTEX
8
OBJECT__25
10
0
20
0
30
0
70
128
71
11
72
12
73
13
0
VERTEX
8
OBJECT__25
10
0
20
0
30
0
70
128
71
13
72
12
73
6
0
VERTEX
8
OBJECT__25
10
0
20
0
30
0
70
128
71
5
72
4
73
9
0
VERTEX
8
OBJECT__25
10
0
20
0
30
0
70
128
71
14
72
15
73
10
0
VERTEX
8
OBJECT__25
10
0
20
0
30
0
70
128
71
16
72
17
73
18
0
VERTEX
8
OBJECT__25
10
0
20
0
30
0
70
128
71
17
72
19
73
20
0
VERTEX
8
OBJECT__25
10
0
20
0
30
0
70
128
71
8
72
13
73
6
0
VERTEX
8
OBJECT__25
10
0
20
0
30
0
70
128
71
7
72
21
73
22
0
VERTEX
8
OBJECT__25
10
0
20
0
30
0
70
128
71
10
72
9
73
14
0
VERTEX
8
OBJECT__25
10
0
20
0
30
0
70
128
71
23
72
24
73
15
0
VERTEX
8
OBJECT__25
10
0
20
0
30
0
70
128
71
16
72
25
73
24
0
VERTEX
8
OBJECT__25
10
0
20
0
30
0
70
128
71
20
72
18
73
17
0
VERTEX
8
OBJECT__25
10
0
20
0
30
0
70
128
71
19
72
11
73
26
0
VERTEX
8
OBJECT__25
10
0
20
0
30
0
70
128
71
22
72
8
73
7
0
VERTEX
8
OBJECT__25
10
0
20
0
30
0
70
128
71
21
72
27
73
28
0
VERTEX
8
OBJECT__25
10
0
20
0
30
0
70
128
71
3
72
27
73
1
0
VERTEX
8
OBJECT__25
10
0
20
0
30
0
70
128
71
24
72
23
73
16
0
VERTEX
8
OBJECT__25
10
0
20
0
30
0
70
128
71
26
72
20
73
19
0
VERTEX
8
OBJECT__25
10
0
20
0
30
0
70
128
71
28
72
22
73
21
0
VERTEX
8
OBJECT__25
10
0
20
0
30
0
70
128
71
15
72
14
73
23
0
VERTEX
8
OBJECT__25
10
0
20
0
30
0
70
128
71
13
72
26
73
11
0
VERTEX
8
OBJECT__25
10
0
20
0
30
0
70
128
71
18
72
25
73
16
0
VERTEX
8
OBJECT__25
10
0
20
0
30
0
70
128
71
3
72
28
73
27
0
SEQEND
8
OBJECT__25
0
POLYLINE
8
OBJECT__26
66
1
70
64
71
40
72
42
62
253
0
VERTEX
8
OBJECT__26
10
0.000000
20
-10.859000
30
24.719999
70
192
0
VERTEX
8
OBJECT__26
10
10.000000
20
-10.859000
30
24.719999
70
192
0
VERTEX
8
OBJECT__26
10
10.000000
20
1.873000
30
26.934999
70
192
0
VERTEX
8
OBJECT__26
10
0.000000
20
-21.103001
30
16.841999
70
192
0
VERTEX
8
OBJECT__26
10
10.000000
20
-21.103001
30
16.841999
70
192
0
VERTEX
8
OBJECT__26
10
0.000000
20
-26.513000
30
5.106000
70
192
0
VERTEX
8
OBJECT__26
10
10.000000
20
-26.513000
30
5.106000
70
192
0
VERTEX
8
OBJECT__26
10
0.000000
20
-25.849001
30
-7.800000
70
192
0
VERTEX
8
OBJECT__26
10
10.000000
20
-25.849001
30
-7.800000
70
192
0
VERTEX
8
OBJECT__26
10
10.000000
20
-26.934999
30
1.873000
70
192
0
VERTEX
8
OBJECT__26
10
0.000000
20
-26.934999
30
1.873000
70
192
0
VERTEX
8
OBJECT__26
10
0.000000
20
-19.263000
30
-18.919001
70
192
0
VERTEX
8
OBJECT__26
10
0.000000
20
-8.264000
30
-25.704000
70
192
0
VERTEX
8
OBJECT__26
10
10.000000
20
-8.264000
30
-25.704000
70
192
0
VERTEX
8
OBJECT__26
10
10.000000
20
-19.263000
30
-18.919001
70
192
0
VERTEX
8
OBJECT__26
10
10.000000
20
4.627000
30
-26.601000
70
192
0
VERTEX
8
OBJECT__26
10
4.365000
20
0.297000
30
-26.997999
70
192
0
VERTEX
8
OBJECT__26
10
3.900000
20
0.345000
30
-26.997999
70
192
0
VERTEX
8
OBJECT__26
10
5.068000
20
0.017000
30
-27.000000
70
192
0
VERTEX
8
OBJECT__26
10
6.094000
20
-2.401000
30
-26.893000
70
192
0
VERTEX
8
OBJECT__26
10
6.150000
20
-1.873000
30
-26.934999
70
192
0
VERTEX
8
OBJECT__26
10
5.806000
20
-3.097000
30
-26.822001
70
192
0
VERTEX
8
OBJECT__26
10
3.371000
20
-4.081000
30
-26.690001
70
192
0
VERTEX
8
OBJECT__26
10
3.900000
20
-4.143000
30
-26.680000
70
192
0
VERTEX
8
OBJECT__26
10
2.676000
20
-3.784000
30
-26.733000
70
192
0
VERTEX
8
OBJECT__26
10
0.000000
20
4.627000
30
-26.601000
70
192
0
VERTEX
8
OBJECT__26
10
1.706000
20
-1.410000
30
-26.962999
70
192
0
VERTEX
8
OBJECT__26
10
1.650000
20
-1.873000
30
-26.934999
70
192
0
VERTEX
8
OBJECT__26
10
1.994000
20
-0.711000
30
-26.990999
70
192
0
VERTEX
8
OBJECT__26
10
0.000000
20
16.459000
30
-21.403000
70
192
0
VERTEX
8
OBJECT__26
10
10.000000
20
16.459000
30
-21.403000
70
192
0
VERTEX
8
OBJECT__26
10
10.000000
20
24.520000
30
-11.303000
70
192
0
VERTEX
8
OBJECT__26
10
10.000000
20
26.964001
30
1.387000
70
192
0
VERTEX
8
OBJECT__26
10
0.000000
20
24.520000
30
-11.303000
70
192
0
VERTEX
8
OBJECT__26
10
10.000000
20
23.231001
30
13.759000
70
192
0
VERTEX
8
OBJECT__26
10
0.000000
20
26.964001
30
1.387000
70
192
0
VERTEX
8
OBJECT__26
10
10.000000
20
14.176000
30
22.979000
70
192
0
VERTEX
8
OBJECT__26
10
0.000000
20
23.231001
30
13.759000
70
192
0
VERTEX
8
OBJECT__26
10
0.000000
20
1.873000
30
26.934999
70
192
0
VERTEX
8
OBJECT__26
10
0.000000
20
14.176000
30
22.979000
70
192
0
VERTEX
8
OBJECT__26
10
0
20
0
30
0
70
128
71
1
72
2
73
3
0
VERTEX
8
OBJECT__26
10
0
20
0
30
0
70
128
71
4
72
5
73
2
0
VERTEX
8
OBJECT__26
10
0
20
0
30
0
70
128
71
6
72
7
73
5
0
VERTEX
8
OBJECT__26
10
0
20
0
30
0
70
128
71
8
72
9
73
10
0
VERTEX
8
OBJECT__26
10
0
20
0
30
0
70
128
71
7
72
6
73
11
0
VERTEX
8
OBJECT__26
10
0
20
0
30
0
70
128
71
11
72
10
73
7
0
VERTEX
8
OBJECT__26
10
0
20
0
30
0
70
128
71
9
72
8
73
12
0
VERTEX
8
OBJECT__26
10
0
20
0
30
0
70
128
71
13
72
14
73
15
0
VERTEX
8
OBJECT__26
10
0
20
0
30
0
70
128
71
16
72
17
73
18
0
VERTEX
8
OBJECT__26
10
0
20
0
30
0
70
128
71
16
72
19
73
17
0
VERTEX
8
OBJECT__26
10
0
20
0
30
0
70
128
71
14
72
20
73
21
0
VERTEX
8
OBJECT__26
10
0
20
0
30
0
70
128
71
14
72
22
73
20
0
VERTEX
8
OBJECT__26
10
0
20
0
30
0
70
128
71
21
72
16
73
14
0
VERTEX
8
OBJECT__26
10
0
20
0
30
0
70
128
71
13
72
23
73
24
0
VERTEX
8
OBJECT__26
10
0
20
0
30
0
70
128
71
13
72
25
73
23
0
VERTEX
8
OBJECT__26
10
0
20
0
30
0
70
128
71
24
72
14
73
13
0
VERTEX
8
OBJECT__26
10
0
20
0
30
0
70
128
71
24
72
22
73
14
0
VERTEX
8
OBJECT__26
10
0
20
0
30
0
70
128
71
26
72
27
73
28
0
VERTEX
8
OBJECT__26
10
0
20
0
30
0
70
128
71
26
72
29
73
27
0
VERTEX
8
OBJECT__26
10
0
20
0
30
0
70
128
71
28
72
13
73
26
0
VERTEX
8
OBJECT__26
10
0
20
0
30
0
70
128
71
28
72
25
73
13
0
VERTEX
8
OBJECT__26
10
0
20
0
30
0
70
128
71
21
72
19
73
16
0
VERTEX
8
OBJECT__26
10
0
20
0
30
0
70
128
71
26
72
18
73
29
0
VERTEX
8
OBJECT__26
10
0
20
0
30
0
70
128
71
30
72
31
73
16
0
VERTEX
8
OBJECT__26
10
0
20
0
30
0
70
128
71
32
72
31
73
30
0
VERTEX
8
OBJECT__26
10
0
20
0
30
0
70
128
71
33
72
32
73
34
0
VERTEX
8
OBJECT__26
10
0
20
0
30
0
70
128
71
35
72
33
73
36
0
VERTEX
8
OBJECT__26
10
0
20
0
30
0
70
128
71
37
72
35
73
38
0
VERTEX
8
OBJECT__26
10
0
20
0
30
0
70
128
71
39
72
3
73
37
0
VERTEX
8
OBJECT__26
10
0
20
0
30
0
70
128
71
37
72
40
73
39
0
VERTEX
8
OBJECT__26
10
0
20
0
30
0
70
128
71
38
72
40
73
37
0
VERTEX
8
OBJECT__26
10
0
20
0
30
0
70
128
71
36
72
38
73
35
0
VERTEX
8
OBJECT__26
10
0
20
0
30
0
70
128
71
34
72
36
73
33
0
VERTEX
8
OBJECT__26
10
0
20
0
30
0
70
128
71
30
72
34
73
32
0
VERTEX
8
OBJECT__26
10
0
20
0
30
0
70
128
71
16
72
26
73
30
0
VERTEX
8
OBJECT__26
10
0
20
0
30
0
70
128
71
18
72
26
73
16
0
VERTEX
8
OBJECT__26
10
0
20
0
30
0
70
128
71
15
72
12
73
13
0
VERTEX
8
OBJECT__26
10
0
20
0
30
0
70
128
71
12
72
15
73
9
0
VERTEX
8
OBJECT__26
10
0
20
0
30
0
70
128
71
10
72
11
73
8
0
VERTEX
8
OBJECT__26
10
0
20
0
30
0
70
128
71
5
72
4
73
6
0
VERTEX
8
OBJECT__26
10
0
20
0
30
0
70
128
71
2
72
1
73
4
0
VERTEX
8
OBJECT__26
10
0
20
0
30
0
70
128
71
3
72
39
73
1
0
SEQEND
8
OBJECT__26
0
POLYLINE
8
OBJECT__28
66
1
70
64
71
18
72
18
62
253
0
VERTEX
8
OBJECT__28
10
10.000000
20
1.873000
30
26.934999
70
192
0
VERTEX
8
OBJECT__28
10
10.000000
20
-10.859000
30
24.719999
70
192
0
VERTEX
8
OBJECT__28
10
10.000000
20
-2.785000
30
3.201000
70
192
0
VERTEX
8
OBJECT__28
10
10.000000
20
3.201000
30
2.785000
70
192
0
VERTEX
8
OBJECT__28
10
10.000000
20
14.176000
30
22.979000
70
192
0
VERTEX
8
OBJECT__28
10
10.000000
20
26.964001
30
1.387000
70
192
0
VERTEX
8
OBJECT__28
10
10.000000
20
2.785000
30
-3.201000
70
192
0
VERTEX
8
OBJECT__28
10
10.000000
20
23.231001
30
13.759000
70
192
0
VERTEX
8
OBJECT__28
10
10.000000
20
-26.934999
30
1.873000
70
192
0
VERTEX
8
OBJECT__28
10
10.000000
20
-25.849001
30
-7.800000
70
192
0
VERTEX
8
OBJECT__28
10
10.000000
20
-3.201000
30
-2.785000
70
192
0
VERTEX
8
OBJECT__28
10
10.000000
20
24.520000
30
-11.303000
70
192
0
VERTEX
8
OBJECT__28
10
10.000000
20
-21.103001
30
16.841999
70
192
0
VERTEX
8
OBJECT__28
10
10.000000
20
-26.513000
30
5.106000
70
192
0
VERTEX
8
OBJECT__28
10
10.000000
20
4.627000
30
-26.601000
70
192
0
VERTEX
8
OBJECT__28
10
10.000000
20
-8.264000
30
-25.704000
70
192
0
VERTEX
8
OBJECT__28
10
10.000000
20
-19.263000
30
-18.919001
70
192
0
VERTEX
8
OBJECT__28
10
10.000000
20
16.459000
30
-21.403000
70
192
0
VERTEX
8
OBJECT__28
10
0
20
0
30
0
70
128
71
1
72
2
73
3
0
VERTEX
8
OBJECT__28
10
0
20
0
30
0
70
128
71
4
72
5
73
1
0
VERTEX
8
OBJECT__28
10
0
20
0
30
0
70
128
71
6
72
4
73
7
0
VERTEX
8
OBJECT__28
10
0
20
0
30
0
70
128
71
4
72
8
73
5
0
VERTEX
8
OBJECT__28
10
0
20
0
30
0
70
128
71
9
72
10
73
11
0
VERTEX
8
OBJECT__28
10
0
20
0
30
0
70
128
71
7
72
12
73
6
0
VERTEX
8
OBJECT__28
10
0
20
0
30
0
70
128
71
3
72
4
73
1
0
VERTEX
8
OBJECT__28
10
0
20
0
30
0
70
128
71
11
72
3
73
9
0
VERTEX
8
OBJECT__28
10
0
20
0
30
0
70
128
71
3
72
13
73
14
0
VERTEX
8
OBJECT__28
10
0
20
0
30
0
70
128
71
15
72
7
73
11
0
VERTEX
8
OBJECT__28
10
0
20
0
30
0
70
128
71
2
72
13
73
3
0
VERTEX
8
OBJECT__28
10
0
20
0
30
0
70
128
71
14
72
9
73
3
0
VERTEX
8
OBJECT__28
10
0
20
0
30
0
70
128
71
11
72
16
73
15
0
VERTEX
8
OBJECT__28
10
0
20
0
30
0
70
128
71
10
72
17
73
11
0
VERTEX
8
OBJECT__28
10
0
20
0
30
0
70
128
71
11
72
17
73
16
0
VERTEX
8
OBJECT__28
10
0
20
0
30
0
70
128
71
15
72
18
73
7
0
VERTEX
8
OBJECT__28
10
0
20
0
30
0
70
128
71
6
72
8
73
4
0
VERTEX
8
OBJECT__28
10
0
20
0
30
0
70
128
71
7
72
18
73
12
0
SEQEND
8
OBJECT__28
0
POLYLINE
8
OBJECT__29
66
1
70
64
71
13
72
12
62
253
0
VERTEX
8
OBJECT__29
10
2.775000
20
-3.011000
30
-26.832001
70
192
0
VERTEX
8
OBJECT__29
10
3.900000
20
-4.143000
30
-26.680000
70
192
0
VERTEX
8
OBJECT__29
10
5.159000
20
-3.761000
30
-26.737000
70
192
0
VERTEX
8
OBJECT__29
10
6.058000
20
-2.540000
30
-26.879999
70
192
0
VERTEX
8
OBJECT__29
10
6.150000
20
-1.873000
30
-26.934999
70
192
0
VERTEX
8
OBJECT__29
10
1.650000
20
-1.873000
30
-26.934999
70
192
0
VERTEX
8
OBJECT__29
10
2.017000
20
-3.132000
30
-26.818001
70
192
0
VERTEX
8
OBJECT__29
10
3.233000
20
-4.043000
30
-26.695999
70
192
0
VERTEX
8
OBJECT__29
10
3.900000
20
0.345000
30
-26.997999
70
192
0
VERTEX
8
OBJECT__29
10
2.459000
20
-0.178000
30
-26.999001
70
192
0
VERTEX
8
OBJECT__29
10
5.608000
20
-0.441000
30
-26.996000
70
192
0
VERTEX
8
OBJECT__29
10
4.275000
20
0.314000
30
-26.997999
70
192
0
VERTEX
8
OBJECT__29
10
1.687000
20
-1.499000
30
-26.958000
70
192
0
VERTEX
8
OBJECT__29
10
0
20
0
30
0
70
128
71
1
72
2
73
3
0
VERTEX
8
OBJECT__29
10
0
20
0
30
0
70
128
71
3
72
4
73
1
0
VERTEX
8
OBJECT__29
10
0
20
0
30
0
70
128
71
5
72
6
73
1
0
VERTEX
8
OBJECT__29
10
0
20
0
30
0
70
128
71
1
72
7
73
8
0
VERTEX
8
OBJECT__29
10
0
20
0
30
0
70
128
71
8
72
2
73
1
0
VERTEX
8
OBJECT__29
10
0
20
0
30
0
70
128
71
1
72
6
73
7
0
VERTEX
8
OBJECT__29
10
0
20
0
30
0
70
128
71
5
72
9
73
10
0
VERTEX
8
OBJECT__29
10
0
20
0
30
0
70
128
71
5
72
11
73
12
0
VERTEX
8
OBJECT__29
10
0
20
0
30
0
70
128
71
12
72
9
73
5
0
VERTEX
8
OBJECT__29
10
0
20
0
30
0
70
128
71
10
72
13
73
5
0
VERTEX
8
OBJECT__29
10
0
20
0
30
0
70
128
71
13
72
6
73
5
0
VERTEX
8
OBJECT__29
10
0
20
0
30
0
70
128
71
4
72
5
73
1
0
SEQEND
8
OBJECT__29
0
ENDSEC
0
EOF
