  0
SECTION
  2
HEADER
  9
$ACADVER
  1
AC1015
  9
$ACADMAINTVER
 70
     6
  9
$DWGCODEPAGE
  3
ANSI_1252
  9
$INSBASE
 10
0.0
 20
0.0
 30
0.0
  9
$EXTMIN
 10
0.0
 20
0.0
 30
0.0
  9
$EXTMAX
 10
3000.0
 20
4500.0
 30
0.0
  9
$LIMMIN
 10
0.0
 20
0.0
  9
$LIMMAX
 10
3000.0
 20
4500.0
  9
$ORTHOMODE
 70
     0
  9
$REGENMODE
 70
     1
  9
$FILLMODE
 70
     1
  9
$QTEXTMODE
 70
     0
  9
$MIRRTEXT
 70
     1
  9
$LTSCALE
 40
1.0
  9
$ATTMODE
 70
     1
  9
$TEXTSIZE
 40
10.0
  9
$TRACEWID
 40
1.0
  9
$TEXTSTYLE
  7
Standard
  9
$CLAYER
  8
0
  9
$CELTYPE
  6
ByLayer
  9
$CECOLOR
 62
   256
  9
$CELTSCALE
 40
1.0
  9
$DISPSILH
 70
     0
  9
$DIMSCALE
 40
1.0
  9
$DIMASZ
 40
2.5
  9
$DIMEXO
 40
0.625
  9
$DIMDLI
 40
3.75
  9
$DIMRND
 40
0.0
  9
$DIMDLE
 40
0.0
  9
$DIMEXE
 40
1.25
  9
$DIMTP
 40
0.0
  9
$DIMTM
 40
0.0
  9
$DIMTXT
 40
2.5
  9
$DIMCEN
 40
2.5
  9
$DIMTSZ
 40
0.0
  9
$DIMTOL
 70
     0
  9
$DIMLIM
 70
     0
  9
$DIMTIH
 70
     0
  9
$DIMTOH
 70
     0
  9
$DIMSE1
 70
     0
  9
$DIMSE2
 70
     0
  9
$DIMTAD
 70
     1
  9
$DIMZIN
 70
     8
  9
$DIMBLK
  1

  9
$DIMASO
 70
     1
  9
$DIMSHO
 70
     1
  9
$DIMPOST
  1

  9
$DIMAPOST
  1

  9
$DIMALT
 70
     0
  9
$DIMALTD
 70
     3
  9
$DIMALTF
 40
0.0393700787
  9
$DIMLFAC
 40
1.0
  9
$DIMTOFL
 70
     1
  9
$DIMTVP
 40
0.0
  9
$DIMTIX
 70
     0
  9
$DIMSOXD
 70
     0
  9
$DIMSAH
 70
     0
  9
$DIMBLK1
  1

  9
$DIMBLK2
  1

  9
$DIMSTYLE
  2
ISO-25
  9
$DIMCLRD
 70
     0
  9
$DIMCLRE
 70
     0
  9
$DIMCLRT
 70
     0
  9
$DIMTFAC
 40
1.0
  9
$DIMGAP
 40
0.625
  9
$DIMJUST
 70
     0
  9
$DIMSD1
 70
     0
  9
$DIMSD2
 70
     0
  9
$DIMTOLJ
 70
     0
  9
$DIMTZIN
 70
     8
  9
$DIMALTZ
 70
     0
  9
$DIMALTTZ
 70
     0
  9
$DIMUPT
 70
     0
  9
$DIMDEC
 70
     2
  9
$DIMTDEC
 70
     2
  9
$DIMALTU
 70
     2
  9
$DIMALTTD
 70
     3
  9
$DIMTXSTY
  7
Standard
  9
$DIMAUNIT
 70
     0
  9
$DIMADEC
 70
     0
  9
$DIMALTRND
 40
0.0
  9
$DIMAZIN
 70
     0
  9
$DIMDSEP
 70
    44
  9
$DIMATFIT
 70
     3
  9
$DIMFRAC
 70
     0
  9
$DIMLDRBLK
  1

  9
$DIMLUNIT
 70
     2
  9
$DIMLWD
 70
    -2
  9
$DIMLWE
 70
    -2
  9
$DIMTMOVE
 70
     0
  9
$LUNITS
 70
     2
  9
$LUPREC
 70
     4
  9
$SKETCHINC
 40
1.0
  9
$FILLETRAD
 40
10.0
  9
$AUNITS
 70
     0
  9
$AUPREC
 70
     0
  9
$MENU
  1
.
  9
$ELEVATION
 40
0.0
  9
$PELEVATION
 40
0.0
  9
$THICKNESS
 40
0.0
  9
$LIMCHECK
 70
     0
  9
$CHAMFERA
 40
0.0
  9
$CHAMFERB
 40
0.0
  9
$CHAMFERC
 40
0.0
  9
$CHAMFERD
 40
0.0
  9
$SKPOLY
 70
     0
  9
$TDCREATE
 40
2457981.574884884
  9
$TDUCREATE
 40
2457981.491551551
  9
$TDUPDATE
 40
2457981.574886331
  9
$TDUUPDATE
 40
2457981.491552998
  9
$TDINDWG
 40
0.0000000116
  9
$TDUSRTIMER
 40
0.0000000116
  9
$USRTIMER
 70
     1
  9
$ANGBASE
 50
0.0
  9
$ANGDIR
 70
     0
  9
$PDMODE
 70
     0
  9
$PDSIZE
 40
0.0
  9
$PLINEWID
 40
0.0
  9
$SPLFRAME
 70
     0
  9
$SPLINETYPE
 70
     6
  9
$SPLINESEGS
 70
     8
  9
$HANDSEED
  5
25B
  9
$SURFTAB1
 70
     6
  9
$SURFTAB2
 70
     6
  9
$SURFTYPE
 70
     6
  9
$SURFU
 70
     6
  9
$SURFV
 70
     6
  9
$UCSBASE
  2

  9
$UCSNAME
  2

  9
$UCSORG
 10
0.0
 20
0.0
 30
0.0
  9
$UCSXDIR
 10
1.0
 20
0.0
 30
0.0
  9
$UCSYDIR
 10
0.0
 20
1.0
 30
0.0
  9
$UCSORTHOREF
  2

  9
$UCSORTHOVIEW
 70
     0
  9
$UCSORGTOP
 10
0.0
 20
0.0
 30
0.0
  9
$UCSORGBOTTOM
 10
0.0
 20
0.0
 30
0.0
  9
$UCSORGLEFT
 10
0.0
 20
0.0
 30
0.0
  9
$UCSORGRIGHT
 10
0.0
 20
0.0
 30
0.0
  9
$UCSORGFRONT
 10
0.0
 20
0.0
 30
0.0
  9
$UCSORGBACK
 10
0.0
 20
0.0
 30
0.0
  9
$PUCSBASE
  2

  9
$PUCSNAME
  2

  9
$PUCSORG
 10
0.0
 20
0.0
 30
0.0
  9
$PUCSXDIR
 10
1.0
 20
0.0
 30
0.0
  9
$PUCSYDIR
 10
0.0
 20
1.0
 30
0.0
  9
$PUCSORTHOREF
  2

  9
$PUCSORTHOVIEW
 70
     0
  9
$PUCSORGTOP
 10
0.0
 20
0.0
 30
0.0
  9
$PUCSORGBOTTOM
 10
0.0
 20
0.0
 30
0.0
  9
$PUCSORGLEFT
 10
0.0
 20
0.0
 30
0.0
  9
$PUCSORGRIGHT
 10
0.0
 20
0.0
 30
0.0
  9
$PUCSORGFRONT
 10
0.0
 20
0.0
 30
0.0
  9
$PUCSORGBACK
 10
0.0
 20
0.0
 30
0.0
  9
$USERI1
 70
     0
  9
$USERI2
 70
     0
  9
$USERI3
 70
     0
  9
$USERI4
 70
     0
  9
$USERI5
 70
     0
  9
$USERR1
 40
0.0
  9
$USERR2
 40
0.0
  9
$USERR3
 40
0.0
  9
$USERR4
 40
0.0
  9
$USERR5
 40
0.0
  9
$WORLDVIEW
 70
     1
  9
$SHADEDGE
 70
     3
  9
$SHADEDIF
 70
    70
  9
$TILEMODE
 70
     1
  9
$MAXACTVP
 70
    64
  9
$PINSBASE
 10
0.0
 20
0.0
 30
0.0
  9
$PLIMCHECK
 70
     0
  9
$PEXTMIN
 10
0.0
 20
0.0
 30
0.0
  9
$PEXTMAX
 10
3000.0
 20
4500.0
 30
0.0
  9
$PLIMMIN
 10
0.0
 20
0.0
  9
$PLIMMAX
 10
3000.0
 20
4500.0
  9
$UNITMODE
 70
     0
  9
$VISRETAIN
 70
     1
  9
$PLINEGEN
 70
     0
  9
$PSLTSCALE
 70
     1
  9
$TREEDEPTH
 70
  3020
  9
$CMLSTYLE
  2
Standard
  9
$CMLJUST
 70
     0
  9
$CMLSCALE
 40
20.0
  9
$PROXYGRAPHICS
 70
     1
  9
$MEASUREMENT
 70
     1
  9
$CELWEIGHT
370
    -1
  9
$ENDCAPS
280
     0
  9
$JOINSTYLE
280
     0
  9
$LWDISPLAY
290
     0
  9
$INSUNITS
 70
     4
  9
$HYPERLINKBASE
  1

  9
$STYLESHEET
  1

  9
$XEDIT
290
     1
  9
$CEPSNTYPE
380
     0
  9
$PSTYLEMODE
290
     1
  9
$FINGERPRINTGUID
  2
{28CE8E94-7AFE-4089-8E34-FE55A5AA12F8}
  9
$VERSIONGUID
  2
{FAEB1C32-E019-11D5-929B-00C0DF256EC4}
  9
$EXTNAMES
290
     1
  9
$PSVPSCALE
 40
0.0
  9
$OLESTARTUP
290
     0
  0
ENDSEC
  0
SECTION
  2
CLASSES
  0
CLASS
  1
ACDBDICTIONARYWDFLT
  2
AcDbDictionaryWithDefault
  3
ObjectDBX Classes
 90
        0
280
     0
281
     0
  0
CLASS
  1
VISUALSTYLE
  2
AcDbVisualStyle
  3
ObjectDBX Classes
 90
     4095
280
     0
281
     0
  0
CLASS
  1
MATERIAL
  2
AcDbMaterial
  3
ObjectDBX Classes
 90
     1153
280
     0
281
     0
  0
CLASS
  1
SCALE
  2
AcDbScale
  3
ObjectDBX Classes
 90
     1153
280
     0
281
     0
  0
CLASS
  1
SUN
  2
AcDbSun
  3
SCENEOE
 90
     1153
280
     0
281
     0
  0
CLASS
  1
DICTIONARYVAR
  2
AcDbDictionaryVar
  3
ObjectDBX Classes
 90
        0
280
     0
281
     0
  0
CLASS
  1
ACDBPLACEHOLDER
  2
AcDbPlaceHolder
  3
ObjectDBX Classes
 90
        0
280
     0
281
     0
  0
CLASS
  1
LAYOUT
  2
AcDbLayout
  3
ObjectDBX Classes
 90
        0
280
     0
281
     0
  0
ENDSEC
  0
SECTION
  2
TABLES
  0
TABLE
  2
VPORT
  5
8
330
0
100
AcDbSymbolTable
 70
     1
  0
VPORT
  5
29
330
8
100
AcDbSymbolTableRecord
100
AcDbViewportTableRecord
  2
*Active
 70
     0
 10
0.0
 20
0.0
 11
1.0
 21
1.0
 12
344.1869158879
 22
148.5
 13
0.0
 23
0.0
 14
10.0
 24
10.0
 15
10.0
 25
10.0
 16
0.0
 26
0.0
 36
1.0
 17
0.0
 27
0.0
 37
0.0
 40
297.0
 41
1.9729729729
 42
50.0
 43
0.0
 44
0.0
 50
0.0
 51
0.0
 71
     0
 72
   100
 73
     1
 74
     3
 75
     0
 76
     0
 77
     0
 78
     0
281
     0
 65
     1
110
0.0
120
0.0
130
0.0
111
1.0
121
0.0
131
0.0
112
0.0
122
1.0
132
0.0
 79
     0
146
0.0
  0
ENDTAB
  0
TABLE
  2
LTYPE
  5
5
330
0
100
AcDbSymbolTable
 70
     2
  0
LTYPE
  5
14
330
5
100
AcDbSymbolTableRecord
100
AcDbLinetypeTableRecord
  2
ByBlock
 70
     0
  3

 72
    65
 73
     0
 40
0.0
  0
LTYPE
  5
15
330
5
100
AcDbSymbolTableRecord
100
AcDbLinetypeTableRecord
  2
ByLayer
 70
     0
  3

 72
    65
 73
     0
 40
0.0
  0
LTYPE
  5
16
330
5
100
AcDbSymbolTableRecord
100
AcDbLinetypeTableRecord
  2
Continuous
 70
     0
  3
Solid line
 72
    65
 73
     0
 40
0.0
  0
LTYPE
  5
6D
330
5
100
AcDbSymbolTableRecord
100
AcDbLinetypeTableRecord
  2
CENTER2
 70
     0
  3
Center (.5x) ___ _ ___ _ ___ _ ___ _ ___ _ ___
 72
    65
 73
     4
 40
28.575
 49
19.05
 74
     4
 75
     0
340
0
 46
0.0
 50
0.0
 44
0.0
 45
0.0
 49
-3.175
 74
     4
 75
     0
340
0
 46
0.0
 50
0.0
 44
0.0
 45
0.0
 49
3.175
 74
     4
 75
     0
340
0
 46
0.0
 50
0.0
 44
0.0
 45
0.0
 49
-3.175
 74
     4
 75
     0
340
0
 46
0.0
 50
0.0
 44
0.0
 45
0.0
  0
ENDTAB
  0
TABLE
  2
LAYER
  5
2
330
0
100
AcDbSymbolTable
 70
     5
  0
LAYER
  5
10
330
2
100
AcDbSymbolTableRecord
100
AcDbLayerTableRecord
  2
0
 70
     0
 62
     7
  6
Continuous
370
    -3
390
F
  0
LAYER
  5
6A
330
2
100
AcDbSymbolTableRecord
100
AcDbLayerTableRecord
  2
Default
 70
     0
 62
     7
  6
Continuous
370
    -3
390
F
  0
LAYER
  5
84
330
2
100
AcDbSymbolTableRecord
100
AcDbLayerTableRecord
  2
DV1_Default
 70
     0
 62
     7
  6
Continuous
370
    -3
390
F
  0
LAYER
  5
C2
330
2
100
AcDbSymbolTableRecord
100
AcDbLayerTableRecord
  2
DV2_Default
 70
     0
 62
     7
  6
Continuous
370
    -3
390
F
  0
LAYER
  5
107
330
2
100
AcDbSymbolTableRecord
100
AcDbLayerTableRecord
  2
DV3_Default
 70
     0
 62
     7
  6
Continuous
370
    -3
390
F
  0
ENDTAB
  0
TABLE
  2
STYLE
  5
3
330
0
100
AcDbSymbolTable
 70
     1
  0
STYLE
  5
11
330
3
100
AcDbSymbolTableRecord
100
AcDbTextStyleTableRecord
  2
Standard
 70
     0
 40
0.0
 41
1.0
 50
0.0
 71
     0
 42
10.0
  3
txt
  4

  0
ENDTAB
  0
TABLE
  2
VIEW
  5
6
330
0
100
AcDbSymbolTable
 70
     0
  0
ENDTAB
  0
TABLE
  2
UCS
  5
7
330
0
100
AcDbSymbolTable
 70
     0
  0
ENDTAB
  0
TABLE
  2
APPID
  5
9
330
0
100
AcDbSymbolTable
 70
     1
  0
APPID
  5
12
330
9
100
AcDbSymbolTableRecord
100
AcDbRegAppTableRecord
  2
ACAD
 70
     0
  0
ENDTAB
  0
TABLE
  2
DIMSTYLE
  5
A
330
0
100
AcDbSymbolTable
 70
     1
100
AcDbDimStyleTable
  0
DIMSTYLE
105
27
330
A
100
AcDbSymbolTableRecord
100
AcDbDimStyleTableRecord
  2
ISO-25
 70
     0
 41
2.5
 42
0.625
 43
3.75
 44
1.25
 73
     0
 74
     0
 77
     1
 78
     8
140
2.5
141
2.5
143
0.0393700787
147
0.625
171
     3
172
     1
178
     0
271
     2
272
     2
274
     3
278
    44
283
     0
284
     8
340
11
  0
ENDTAB
  0
TABLE
  2
BLOCK_RECORD
  5
1
330
0
100
AcDbSymbolTable
 70
     7
  0
BLOCK_RECORD
  5
1F
330
1
100
AcDbSymbolTableRecord
100
AcDbBlockTableRecord
  2
*Model_Space
340
22
  0
BLOCK_RECORD
  5
1B
330
1
100
AcDbSymbolTableRecord
100
AcDbBlockTableRecord
  2
*Paper_Space
340
1E
  0
BLOCK_RECORD
  5
6B
330
1
100
AcDbSymbolTableRecord
100
AcDbBlockTableRecord
  2
SEANNOT_GROUP
340
0
102
{BLKREFS
331
6C
102
}
  0
BLOCK_RECORD
  5
72
330
1
100
AcDbSymbolTableRecord
100
AcDbBlockTableRecord
  2
SEANNOT_GROUP1
340
0
102
{BLKREFS
331
73
102
}
  0
BLOCK_RECORD
  5
7C
330
1
100
AcDbSymbolTableRecord
100
AcDbBlockTableRecord
  2
SEANNOT_GROUP2
340
0
102
{BLKREFS
331
7D
102
}
  0
BLOCK_RECORD
  5
82
330
1
100
AcDbSymbolTableRecord
100
AcDbBlockTableRecord
  2
SE
340
0
102
{BLKREFS
331
83
102
}
  0
BLOCK_RECORD
  5
C0
330
1
100
AcDbSymbolTableRecord
100
AcDbBlockTableRecord
  2
SE1
340
0
102
{BLKREFS
331
C1
102
}
  0
BLOCK_RECORD
  5
105
330
1
100
AcDbSymbolTableRecord
100
AcDbBlockTableRecord
  2
SE2
340
0
102
{BLKREFS
331
106
102
}
  0
ENDTAB
  0
ENDSEC
  0
SECTION
  2
BLOCKS
  0
BLOCK
  5
20
330
1F
100
AcDbEntity
  8
0
100
AcDbBlockBegin
  2
*Model_Space
 70
     0
 10
0.0
 20
0.0
 30
0.0
  3
*Model_Space
  1
*Model_Space
  0
ENDBLK
  5
21
330
1F
100
AcDbEntity
  8
0
100
AcDbBlockEnd
  0
BLOCK
  5
1C
330
1B
100
AcDbEntity
 67
     1
  8
0
100
AcDbBlockBegin
  2
*Paper_Space
 70
     0
 10
0.0
 20
0.0
 30
0.0
  3
*Paper_Space
  1
*Paper_Space
  0
ENDBLK
  5
1D
330
1B
100
AcDbEntity
 67
     1
  8
0
100
AcDbBlockEnd
  0
BLOCK
  5
70
330
6B
100
AcDbEntity
  8
0
100
AcDbBlockBegin
  2
SEANNOT_GROUP
 70
     0
 10
0.0
 20
0.0
 30
0.0
  3
SEANNOT_GROUP
  1
SEANNOT_GROUP
  0
LINE
  5
6E
330
6B
100
AcDbEntity
  8
Default
  6
CENTER2
 62
     7
100
AcDbLine
 10
63.0999996623
 20
371.866178161
 30
0.0
 11
23.1000005564
 21
371.866178161
 31
0.0
  0
LINE
  5
6F
330
6B
100
AcDbEntity
  8
Default
  6
CENTER2
 62
     7
100
AcDbLine
 10
43.1000001093
 20
391.866177714
 30
0.0
 11
43.1000001093
 21
351.8661786081
 31
0.0
  0
ENDBLK
  5
71
330
6B
100
AcDbEntity
  8
0
100
AcDbBlockEnd
  0
BLOCK
  5
7A
330
72
100
AcDbEntity
  8
0
100
AcDbBlockBegin
  2
SEANNOT_GROUP1
 70
     0
 10
0.0
 20
0.0
 30
0.0
  3
SEANNOT_GROUP1
  1
SEANNOT_GROUP1
  0
LINE
  5
74
330
72
100
AcDbEntity
  8
Default
  6
CENTER2
 62
     7
100
AcDbLine
 10
63.0999996623
 20
284.1844585626
 30
0.0
 11
23.1000005564
 21
284.1844585626
 31
0.0
  0
LINE
  5
75
330
72
100
AcDbEntity
  8
Default
  6
CENTER2
 62
     7
100
AcDbLine
 10
43.1000001093
 20
304.1844581155
 30
0.0
 11
43.1000001093
 21
264.1844590096
 31
0.0
  0
LINE
  5
76
330
72
100
AcDbEntity
  8
Default
  6
CENTER2
 62
     7
100
AcDbLine
 10
68.0999986192
 20
284.1844585626
 30
0.0
 11
71.6000001093
 21
284.1844585626
 31
0.0
  0
LINE
  5
77
330
72
100
AcDbEntity
  8
Default
  6
CENTER2
 62
     7
100
AcDbLine
 10
43.1000001093
 20
309.1844570724
 30
0.0
 11
43.1000001093
 21
312.6844585626
 31
0.0
  0
LINE
  5
78
330
72
100
AcDbEntity
  8
Default
  6
CENTER2
 62
     7
100
AcDbLine
 10
18.1000015994
 20
284.1844585626
 30
0.0
 11
14.6000001093
 21
284.1844585626
 31
0.0
  0
LINE
  5
79
330
72
100
AcDbEntity
  8
Default
  6
CENTER2
 62
     7
100
AcDbLine
 10
43.1000001093
 20
259.1844600527
 30
0.0
 11
43.1000001093
 21
255.6844585626
 31
0.0
  0
ENDBLK
  5
7B
330
72
100
AcDbEntity
  8
0
100
AcDbBlockEnd
  0
BLOCK
  5
80
330
7C
100
AcDbEntity
  8
0
100
AcDbBlockBegin
  2
SEANNOT_GROUP2
 70
     0
 10
0.0
 20
0.0
 30
0.0
  3
SEANNOT_GROUP2
  1
SEANNOT_GROUP2
  0
LINE
  5
7E
330
7C
100
AcDbEntity
  8
Default
  6
CENTER2
 62
     7
100
AcDbLine
 10
234.0033472509
 20
371.866178161
 30
0.0
 11
194.003348145
 21
371.866178161
 31
0.0
  0
LINE
  5
7F
330
7C
100
AcDbEntity
  8
Default
  6
CENTER2
 62
     7
100
AcDbLine
 10
214.0033476979
 20
391.866177714
 30
0.0
 11
214.0033476979
 21
351.8661786081
 31
0.0
  0
ENDBLK
  5
81
330
7C
100
AcDbEntity
  8
0
100
AcDbBlockEnd
  0
BLOCK
  5
BE
330
82
100
AcDbEntity
  8
0
100
AcDbBlockBegin
  2
SE
 70
     0
 10
0.0
 20
0.0
 30
0.0
  3
SE
  1
SE
  0
LINE
  5
85
330
82
100
AcDbEntity
  8
DV1_Default
  6
Continuous
 62
     7
100
AcDbLine
 10
239.0033476979
 20
371.866178161
 30
0.0
 11
189.0033476979
 21
371.866178161
 31
0.0
  0
LINE
  5
86
330
82
100
AcDbEntity
  8
DV1_Default
  6
Continuous
 62
     7
100
AcDbLine
 10
238.7033476979
 20
376.666178161
 30
0.0
 11
189.3033476979
 21
376.666178161
 31
0.0
  0
LINE
  5
87
330
82
100
AcDbEntity
  8
DV1_Default
  6
Continuous
 62
     7
100
AcDbLine
 10
189.0033476979
 20
376.366178161
 30
0.0
 11
189.0033476979
 21
371.866178161
 31
0.0
  0
LINE
  5
88
330
82
100
AcDbEntity
  8
DV1_Default
  6
Continuous
 62
     7
100
AcDbLine
 10
239.0033476979
 20
371.866178161
 30
0.0
 11
239.0033476979
 21
376.366178161
 31
0.0
  0
ARC
  5
89
330
82
100
AcDbEntity
  8
DV1_Default
  6
Continuous
 62
     7
100
AcDbCircle
 10
189.3033476979
 20
376.366178161
 30
0.0
 40
0.2999999999999999
100
AcDbArc
 50
90.0
 51
180.0
  0
ARC
  5
8A
330
82
100
AcDbEntity
  8
DV1_Default
  6
Continuous
 62
     7
100
AcDbCircle
 10
238.7033476979
 20
376.366178161
 30
0.0
 40
0.3000000000000017
100
AcDbArc
 50
0.0
 51
90.0
  0
LINE
  5
8B
330
82
100
AcDbEntity
  8
DV1_Default
  6
Continuous
 62
     7
100
AcDbLine
 10
202.8033476979
 20
491.1014281582
 30
0.0
 11
225.2033476979
 21
491.1014281582
 31
0.0
  0
SPLINE
  5
8C
330
82
100
AcDbEntity
  8
DV1_Default
  6
Continuous
 62
     7
100
AcDbSpline
210
0.0
220
0.0
230
1.0
 70
     8
 71
     3
 72
    13
 73
     9
 74
     0
 42
0.000000001
 43
0.0000000001
 40
0.0
 40
0.0
 40
0.0
 40
0.0
 40
0.1612291062673815
 40
0.3273528384356668
 40
0.5008922708566834
 40
0.6822237170400266
 40
0.8837922209416602
 40
0.9999999999999999
 40
0.9999999999999999
 40
0.9999999999999999
 40
0.9999999999999999
 10
202.5033476978061
 20
473.2928912394427
 30
0.0
 10
202.4971618685323
 20
473.0596310121094
 30
0.0
 10
202.4819381886073
 20
472.6508421760071
 30
0.0
 10
202.2169769158851
 20
472.0626063764974
 30
0.0
 10
201.8937198507013
 20
471.6054038270612
 30
0.0
 10
201.6188077832271
 20
471.2832565593156
 30
0.0
 10
201.5051716836475
 20
471.1551370030058
 30
0.0
 10
201.4981745424718
 20
471.1359674888295
 30
0.0
 10
201.5015781049337
 20
471.1344559356419
 30
0.0
  0
LINE
  5
8D
330
82
100
AcDbEntity
  8
DV1_Default
  6
Continuous
 62
     7
100
AcDbLine
 10
225.5033476979
 20
473.2903900041
 30
0.0
 11
225.5033476979
 21
490.8014281582
 31
0.0
  0
LINE
  5
8E
330
82
100
AcDbEntity
  8
DV1_Default
  6
Continuous
 62
     7
100
AcDbLine
 10
202.5033476979
 20
490.8014281582
 30
0.0
 11
202.5033476979
 21
473.2903900041
 31
0.0
  0
ARC
  5
8F
330
82
100
AcDbEntity
  8
DV1_Default
  6
Continuous
 62
     7
100
AcDbCircle
 10
202.8033476979
 20
490.8014281582
 30
0.0
 40
0.2999999999999947
100
AcDbArc
 50
90.0
 51
180.0
  0
ARC
  5
90
330
82
100
AcDbEntity
  8
DV1_Default
  6
Continuous
 62
     7
100
AcDbCircle
 10
225.2033476979
 20
490.8014281582
 30
0.0
 40
0.2999999999999999
100
AcDbArc
 50
0.0
 51
90.0
  0
SPLINE
  5
91
330
82
100
AcDbEntity
  8
DV1_Default
  6
Continuous
 62
     7
100
AcDbSpline
210
0.0
220
0.0
230
1.0
 70
     8
 71
     3
 72
    12
 73
     8
 74
     0
 42
0.000000001
 43
0.0000000001
 40
0.0
 40
0.0
 40
0.0
 40
0.0
 40
0.1732734237524312
 40
0.3898965081390827
 40
0.6027279125572401
 40
0.8076403613075491
 40
1.0
 40
1.0
 40
1.0
 40
1.0
 10
201.7189496345318
 20
437.5299256756585
 30
0.0
 10
201.7145883253926
 20
437.5252229472704
 30
0.0
 10
201.7450744235449
 20
437.4769520037593
 30
0.0
 10
201.9356164676408
 20
437.2399614836967
 30
0.0
 10
202.2306659972752
 20
436.798513412603
 30
0.0
 10
202.4856025213098
 20
436.2002946602778
 30
0.0
 10
202.4976300583139
 20
435.7622680655011
 30
0.0
 10
202.5033476978061
 20
435.5099650743807
 30
0.0
  0
LINE
  5
92
330
82
100
AcDbEntity
  8
DV1_Default
  6
Continuous
 62
     7
100
AcDbLine
 10
225.5033476979
 20
376.666178161
 30
0.0
 11
225.5033476979
 21
435.5194515188
 31
0.0
  0
LINE
  5
93
330
82
100
AcDbEntity
  8
DV1_Default
  6
Continuous
 62
     7
100
AcDbLine
 10
202.5033476979
 20
435.5194515188
 30
0.0
 11
202.5033476979
 21
376.666178161
 31
0.0
  0
SPLINE
  5
94
330
82
100
AcDbEntity
  8
DV1_Default
  6
Continuous
 62
     7
100
AcDbSpline
210
0.0
220
0.0
230
1.0
 70
     8
 71
     3
 72
    12
 73
     8
 74
     0
 42
0.000000001
 43
0.0000000001
 40
0.0
 40
0.0
 40
0.0
 40
0.0
 40
0.1733082705456708
 40
0.3899245743385487
 40
0.6027534071628959
 40
0.8076573626564948
 40
1.0
 40
1.0
 40
1.0
 40
1.0
 10
226.2884475761017
 20
471.2729504679945
 30
0.0
 10
226.2928007028344
 20
471.277645228863
 30
0.0
 10
226.2622660604005
 20
471.3259090311495
 30
0.0
 10
226.07155169063
 20
471.5629175450396
 30
0.0
 10
225.7762783430818
 20
472.0043499167156
 30
0.0
 10
225.5211185219132
 20
472.6025526327597
 30
0.0
 10
225.5090743168567
 20
473.0405907854108
 30
0.0
 10
225.5033476981374
 20
473.2928912647811
 30
0.0
  0
ARC
  5
95
330
82
100
AcDbEntity
  8
DV1_Default
  6
Continuous
 62
     7
100
AcDbCircle
 10
213.6522333553
 20
458.0628847022
 30
0.0
 40
24.52396992998943
100
AcDbArc
 50
270.8213063661
 51
273.8676914661
  0
SPLINE
  5
96
330
82
100
AcDbEntity
  8
DV1_Default
  6
Continuous
 62
     7
100
AcDbSpline
210
0.0
220
0.0
230
1.0
 70
     8
 71
     3
 72
    13
 73
     9
 74
     0
 42
0.000000001
 43
0.0000000001
 40
0.0
 40
0.0
 40
0.0
 40
0.0
 40
0.1612137583269218
 40
0.3273351082246023
 40
0.500879950365727
 40
0.6822093746364324
 40
0.8837646106936314
 40
1.0
 40
1.0
 40
1.0
 40
1.0
 10
225.5033476981374
 20
435.5099650490412
 30
0.0
 10
225.5095408320375
 20
435.7432237534774
 30
0.0
 10
225.5247795487908
 20
436.1520349619366
 30
0.0
 10
225.7899312403309
 20
436.7402477884602
 30
0.0
 10
226.1133758147979
 20
437.1974262580167
 30
0.0
 10
226.3884534530374
 20
437.5195795266201
 30
0.0
 10
226.5021804601844
 20
437.6477169079448
 30
0.0
 10
226.5091976435357
 20
437.6668832894702
 30
0.0
 10
226.5057971137668
 20
437.6683923176105
 30
0.0
  0
LINE
  5
97
330
82
100
AcDbEntity
  8
DV1_Default
  6
Continuous
 62
     7
100
AcDbLine
 10
202.5033476979
 20
494.2661781624
 30
0.0
 11
210.9033476979
 21
494.2661781624
 31
0.0
  0
LINE
  5
98
330
82
100
AcDbEntity
  8
DV1_Default
  6
Continuous
 62
     7
100
AcDbLine
 10
210.9033476979
 20
495.6014281582
 30
0.0
 11
210.9033476979
 21
494.2661781624
 31
0.0
  0
LINE
  5
99
330
82
100
AcDbEntity
  8
DV1_Default
  6
Continuous
 62
     7
100
AcDbLine
 10
211.5033476979
 20
494.2661781624
 30
0.0
 11
211.4071938518
 21
494.2661781624
 31
0.0
  0
LINE
  5
9A
330
82
100
AcDbEntity
  8
DV1_Default
  6
Continuous
 62
     7
100
AcDbLine
 10
211.4071938518
 20
494.2661781624
 30
0.0
 11
210.9033476979
 21
494.2661781624
 31
0.0
  0
LINE
  5
9B
330
82
100
AcDbEntity
  8
DV1_Default
  6
Continuous
 62
     7
100
AcDbLine
 10
202.5033476979
 20
495.7661781624
 30
0.0
 11
202.5033476979
 21
494.2661781624
 31
0.0
  0
LINE
  5
9C
330
82
100
AcDbEntity
  8
DV1_Default
  6
Continuous
 62
     7
100
AcDbLine
 10
206.1654394176
 20
494.2661781624
 30
0.0
 11
206.1654394176
 21
494.0514281582
 31
0.0
  0
LINE
  5
9D
330
82
100
AcDbEntity
  8
DV1_Default
  6
Continuous
 62
     7
100
AcDbLine
 10
206.9154394176
 20
494.0514281582
 30
0.0
 11
206.9154394176
 21
494.2661781624
 31
0.0
  0
LINE
  5
9E
330
82
100
AcDbEntity
  8
DV1_Default
  6
Continuous
 62
     7
100
AcDbLine
 10
205.3533476979
 20
494.2661781624
 30
0.0
 11
205.3533476979
 21
494.0514281582
 31
0.0
  0
ARC
  5
9F
330
82
100
AcDbEntity
  8
DV1_Default
  6
Continuous
 62
     7
100
AcDbCircle
 10
206.6533554857
 20
490.7661781624
 30
0.0
 40
0.5000000000000004
100
AcDbArc
 50
42.1056661396
 51
76.0484595859
  0
ARC
  5
A0
330
82
100
AcDbEntity
  8
DV1_Default
  6
Continuous
 62
     7
100
AcDbCircle
 10
221.3533554857
 20
490.7661781624
 30
0.0
 40
0.5000000000000004
100
AcDbArc
 50
103.9515404141
 51
137.8943338604
  0
CIRCLE
  5
A1
330
82
100
AcDbEntity
  8
DV1_Default
  6
Continuous
 62
     7
100
AcDbCircle
 10
214.0037612501
 20
454.4014281569
 30
0.0
 40
20.85
  0
LINE
  5
A2
330
82
100
AcDbEntity
  8
DV1_Default
  6
Continuous
 62
     7
100
AcDbLine
 10
223.670709349
 20
491.1014281582
 30
0.0
 11
223.6916302851
 21
491.2514281582
 31
0.0
  0
LINE
  5
A3
330
82
100
AcDbEntity
  8
DV1_Default
  6
Continuous
 62
     7
100
AcDbLine
 10
225.5034150553
 20
504.2416554921
 30
0.0
 11
227.9419439888
 21
521.7255452608
 31
0.0
  0
ARC
  5
A4
330
82
100
AcDbEntity
  8
DV1_Default
  6
Continuous
 62
     7
100
AcDbCircle
 10
222.5643948127
 20
511.8266960704
 30
0.0
 40
11.45525967904038
100
AcDbArc
 50
62.9793012258
 51
75.1273579565
  0
ARC
  5
A5
330
82
100
AcDbEntity
  8
DV1_Default
  6
Continuous
 62
     7
100
AcDbCircle
 10
227.7026727147
 20
521.7816245486
 30
0.0
 40
0.2410604358397783
100
AcDbArc
 50
347.8730044739
 51
34.7514827936
  0
LINE
  5
A6
330
82
100
AcDbEntity
  8
DV1_Default
  6
Continuous
 62
     7
100
AcDbLine
 10
368.7342227042
 20
577.039532615
 30
0.0
 11
390.967256501
 21
579.7694059073
 31
0.0
  0
LINE
  5
A7
330
82
100
AcDbEntity
  8
DV1_Default
  6
Continuous
 62
     7
100
AcDbLine
 10
225.2034150553
 20
491.2514281582
 30
0.0
 11
202.8034150554
 21
491.2514281582
 31
0.0
  0
LINE
  5
A8
330
82
100
AcDbEntity
  8
DV1_Default
  6
Continuous
 62
     7
100
AcDbLine
 10
202.5034150554
 20
495.6014281582
 30
0.0
 11
211.5033476979
 21
495.6014281582
 31
0.0
  0
LINE
  5
A9
330
82
100
AcDbEntity
  8
DV1_Default
  6
Continuous
 62
     7
100
AcDbLine
 10
211.5033476979
 20
494.0514281582
 30
0.0
 11
202.5034150554
 21
494.0514281582
 31
0.0
  0
LINE
  5
AA
330
82
100
AcDbEntity
  8
DV1_Default
  6
Continuous
 62
     7
100
AcDbLine
 10
211.5033476979
 20
495.6014281582
 30
0.0
 11
211.5033476979
 21
494.0514281582
 31
0.0
  0
ARC
  5
AB
330
82
100
AcDbEntity
  8
DV1_Default
  6
Continuous
 62
     7
100
AcDbCircle
 10
296.5033415678
 20
580.2606592587
 30
0.0
 40
70.99992651249359
100
AcDbArc
 50
7.0
 51
180.0
  0
ARC
  5
AC
330
82
100
AcDbEntity
  8
DV1_Default
  6
Continuous
 62
     7
100
AcDbCircle
 10
296.5033415678
 20
580.2606592587
 30
0.0
 40
93.99992651249359
100
AcDbArc
 50
7.0
 51
180.0
  0
LINE
  5
AD
330
82
100
AcDbEntity
  8
DV1_Default
  6
Continuous
 62
     7
100
AcDbLine
 10
366.9740453946
 20
588.9133736846
 30
0.0
 11
368.3998980557
 21
577.3007356575
 31
0.0
  0
LINE
  5
AE
330
82
100
AcDbEntity
  8
DV1_Default
  6
Continuous
 62
     7
100
AcDbLine
 10
391.2284595435
 20
580.1037305558
 30
0.0
 11
389.8026068824
 21
591.716368583
 31
0.0
  0
ARC
  5
AF
330
82
100
AcDbEntity
  8
DV1_Default
  6
Continuous
 62
     7
100
AcDbCircle
 10
390.930695698
 20
580.0671697528
 30
0.0
 40
0.3000000000000096
100
AcDbArc
 50
277.0
 51
7.0
  0
ARC
  5
B0
330
82
100
AcDbEntity
  8
DV1_Default
  6
Continuous
 62
     7
100
AcDbCircle
 10
368.6976619012
 20
577.3372964605
 30
0.0
 40
0.3000000000000063
100
AcDbArc
 50
187.0
 51
277.0
  0
ARC
  5
B1
330
82
100
AcDbEntity
  8
DV1_Default
  6
Continuous
 62
     7
100
AcDbCircle
 10
225.2034150553
 20
491.5514281582
 30
0.0
 40
0.3000000000000086
100
AcDbArc
 50
270.0
 51
358.8360808695
  0
ARC
  5
B2
330
82
100
AcDbEntity
  8
DV1_Default
  6
Continuous
 62
     7
100
AcDbCircle
 10
202.8034150554
 20
491.5514281582
 30
0.0
 40
0.2999999999999993
100
AcDbArc
 50
179.6995814083
 51
270.0
  0
LINE
  5
B3
330
82
100
AcDbEntity
  8
DV1_Default
  6
Continuous
 62
     7
100
AcDbLine
 10
202.5034150554
 20
494.0514281582
 30
0.0
 11
202.5034150554
 21
491.5514281582
 31
0.0
  0
LINE
  5
B4
330
82
100
AcDbEntity
  8
DV1_Default
  6
Continuous
 62
     7
100
AcDbLine
 10
202.5034150554
 20
580.2606592587
 30
0.0
 11
202.5034150554
 21
495.7661781624
 31
0.0
  0
LINE
  5
B5
330
82
100
AcDbEntity
  8
DV1_Default
  6
Continuous
 62
     7
100
AcDbLine
 10
225.5034150553
 20
491.5514281582
 30
0.0
 11
225.5034150553
 21
580.2606592587
 31
0.0
  0
LINE
  5
B6
330
82
100
AcDbEntity
  8
DV1_Default
  6
Continuous
 62
     7
100
AcDbLine
 10
368.7342227042
 20
577.039532615
 30
0.0
 11
390.967256501
 21
579.7694059073
 31
0.0
  0
LINE
  5
B7
330
82
100
AcDbEntity
  8
DV1_Default
  6
Continuous
 62
     7
100
AcDbLine
 10
369.3435694212
 20
572.0768018568
 30
0.0
 11
391.576603218
 21
574.8066751491
 31
0.0
  0
ARC
  5
B8
330
82
100
AcDbEntity
  8
DV1_Default
  6
Continuous
 62
     7
100
AcDbCircle
 10
391.003817304
 20
579.4716420618
 30
0.0
 40
0.3000000000000096
100
AcDbArc
 50
7.0
 51
97.0
  0
ARC
  5
B9
330
82
100
AcDbEntity
  8
DV1_Default
  6
Continuous
 62
     7
100
AcDbCircle
 10
368.7707835072
 20
576.7417687695
 30
0.0
 40
0.3000000000000063
100
AcDbArc
 50
97.0
 51
187.0
  0
LINE
  5
BA
330
82
100
AcDbEntity
  8
DV1_Default
  6
Continuous
 62
     7
100
AcDbLine
 10
391.8378062605
 20
575.1409997976
 30
0.0
 11
391.3015811495
 21
579.5082028648
 31
0.0
  0
LINE
  5
BB
330
82
100
AcDbEntity
  8
DV1_Default
  6
Continuous
 62
     7
100
AcDbLine
 10
368.4730196617
 20
576.7052079665
 30
0.0
 11
369.0092447727
 21
572.3380048993
 31
0.0
  0
ARC
  5
BC
330
82
100
AcDbEntity
  8
DV1_Default
  6
Continuous
 62
     7
100
AcDbCircle
 10
391.540042415
 20
575.1044389946
 30
0.0
 40
0.3000000000000028
100
AcDbArc
 50
277.0
 51
7.0
  0
ARC
  5
BD
330
82
100
AcDbEntity
  8
DV1_Default
  6
Continuous
 62
     7
100
AcDbCircle
 10
369.3070086182
 20
572.3745657023
 30
0.0
 40
0.2999999999999787
100
AcDbArc
 50
187.0
 51
277.0
  0
ENDBLK
  5
BF
330
82
100
AcDbEntity
  8
0
100
AcDbBlockEnd
  0
BLOCK
  5
103
330
C0
100
AcDbEntity
  8
0
100
AcDbBlockBegin
  2
SE1
 70
     0
 10
0.0
 20
0.0
 30
0.0
  3
SE1
  1
SE1
  0
ARC
  5
C3
330
C0
100
AcDbEntity
  8
DV2_Default
  6
Continuous
 62
     7
100
AcDbCircle
 10
43.1000001093
 20
284.1844585626
 30
0.0
 40
25.0
100
AcDbArc
 50
56.5101367908
 51
123.4898632092
  0
ARC
  5
C4
330
C0
100
AcDbEntity
  8
DV2_Default
  6
Continuous
 62
     7
100
AcDbCircle
 10
43.1000001093
 20
284.1844585626
 30
0.0
 40
25.0
100
AcDbArc
 50
236.5135722847
 51
242.6128826445
  0
ARC
  5
C5
330
C0
100
AcDbEntity
  8
DV2_Default
  6
Continuous
 62
     7
100
AcDbCircle
 10
43.1000001093
 20
284.1844585626
 30
0.0
 40
25.0
100
AcDbArc
 50
297.3870973882
 51
303.4864277153
  0
ARC
  5
C6
330
C0
100
AcDbEntity
  8
DV2_Default
  6
Continuous
 62
     7
100
AcDbCircle
 10
43.1000001093
 20
284.1844585626
 30
0.0
 40
11.5
100
AcDbArc
 50
0.0
 51
7.1899017662
  0
LINE
  5
C7
330
C0
100
AcDbEntity
  8
DV2_Default
  6
Continuous
 62
     7
100
AcDbLine
 10
12.3500001093
 20
263.6340450104
 30
0.0
 11
12.3500001093
 21
304.7340450104
 31
0.0
  0
LINE
  5
C8
330
C0
100
AcDbEntity
  8
DV2_Default
  6
Continuous
 62
     7
100
AcDbLine
 10
93.3500001093
 20
263.6340450104
 30
0.0
 11
93.3500001093
 21
304.7340450104
 31
0.0
  0
LINE
  5
C9
330
C0
100
AcDbEntity
  8
DV2_Default
  6
Continuous
 62
     7
100
AcDbLine
 10
12.6500001093
 20
263.3340450104
 30
0.0
 11
31.5999968244
 21
263.3340450104
 31
0.0
  0
LINE
  5
CA
330
C0
100
AcDbEntity
  8
DV2_Default
  6
Continuous
 62
     7
100
AcDbLine
 10
54.5999968244
 20
263.3340450104
 30
0.0
 11
93.0500001093
 21
263.3340450104
 31
0.0
  0
LINE
  5
CB
330
C0
100
AcDbEntity
  8
DV2_Default
  6
Continuous
 62
     7
100
AcDbLine
 10
93.0500001093
 20
305.0340450104
 30
0.0
 11
12.6500001093
 21
305.0340450104
 31
0.0
  0
ARC
  5
CC
330
C0
100
AcDbEntity
  8
DV2_Default
  6
Continuous
 62
     7
100
AcDbCircle
 10
12.6500001093
 20
263.6340450104
 30
0.0
 40
0.2999999999999982
100
AcDbArc
 50
180.0
 51
270.0
  0
ARC
  5
CD
330
C0
100
AcDbEntity
  8
DV2_Default
  6
Continuous
 62
     7
100
AcDbCircle
 10
12.6500001093
 20
304.7340450104
 30
0.0
 40
0.3000000000001508
100
AcDbArc
 50
90.0
 51
180.0
  0
ARC
  5
CE
330
C0
100
AcDbEntity
  8
DV2_Default
  6
Continuous
 62
     7
100
AcDbCircle
 10
93.0500001093
 20
304.7340450104
 30
0.0
 40
0.3000000000000017
100
AcDbArc
 50
0.0
 51
90.0
  0
ARC
  5
CF
330
C0
100
AcDbEntity
  8
DV2_Default
  6
Continuous
 62
     7
100
AcDbCircle
 10
93.0500001093
 20
263.6340450104
 30
0.0
 40
0.3000000000001508
100
AcDbArc
 50
270.0
 51
0.0
  0
LINE
  5
D0
330
C0
100
AcDbEntity
  8
DV2_Default
  6
Continuous
 62
     7
100
AcDbLine
 10
93.3500001093
 20
263.6340450104
 30
0.0
 11
93.3500001093
 21
304.7340450104
 31
0.0
  0
LINE
  5
D1
330
C0
100
AcDbEntity
  8
DV2_Default
  6
Continuous
 62
     7
100
AcDbLine
 10
98.1499754358
 20
263.7740450104
 30
0.0
 11
98.1499754358
 21
304.5940450104
 31
0.0
  0
ARC
  5
D2
330
C0
100
AcDbEntity
  8
DV2_Default
  6
Continuous
 62
     7
100
AcDbCircle
 10
93.6500001093
 20
263.6340450104
 30
0.0
 40
0.3000000000000086
100
AcDbArc
 50
180.0
 51
270.0
  0
ARC
  5
D3
330
C0
100
AcDbEntity
  8
DV2_Default
  6
Continuous
 62
     7
100
AcDbCircle
 10
93.6500001093
 20
304.7340450104
 30
0.0
 40
0.3000000000000086
100
AcDbArc
 50
90.0
 51
180.0
  0
LINE
  5
D4
330
C0
100
AcDbEntity
  8
DV2_Default
  6
Continuous
 62
     7
100
AcDbLine
 10
93.6500001093
 20
263.3340450104
 30
0.0
 11
97.7099754358
 21
263.3340450104
 31
0.0
  0
LINE
  5
D5
330
C0
100
AcDbEntity
  8
DV2_Default
  6
Continuous
 62
     7
100
AcDbLine
 10
97.7099754358
 20
305.0340450104
 30
0.0
 11
93.6500001093
 21
305.0340450104
 31
0.0
  0
ARC
  5
D6
330
C0
100
AcDbEntity
  8
DV2_Default
  6
Continuous
 62
     7
100
AcDbCircle
 10
97.7099754358
 20
263.7740450104
 30
0.0
 40
0.4399999999999994
100
AcDbArc
 50
270.0
 51
0.0
  0
ARC
  5
D7
330
C0
100
AcDbEntity
  8
DV2_Default
  6
Continuous
 62
     7
100
AcDbCircle
 10
97.7099754358
 20
304.5940450104
 30
0.0
 40
0.4400000000000029
100
AcDbArc
 50
0.0
 51
90.0
  0
LINE
  5
D8
330
C0
100
AcDbEntity
  8
DV2_Default
  6
Continuous
 62
     7
100
AcDbLine
 10
54.1742946692
 20
287.2844585626
 30
0.0
 11
54.1742725311
 21
287.2844585626
 31
0.0
  0
LINE
  5
D9
330
C0
100
AcDbEntity
  8
DV2_Default
  6
Continuous
 62
     7
100
AcDbLine
 10
32.0257211221
 20
287.2844585626
 30
0.0
 11
32.0257055494
 21
287.2844585626
 31
0.0
  0
ELLIPSE
  5
DA
330
C0
100
AcDbEntity
  8
DV2_Default
  6
Continuous
 62
     7
100
AcDbEllipse
 10
126.1386136862
 20
283.2058360634
 30
0.0
 11
-0.147560231814628
 21
-8.698748529414269
 31
0.0
210
0.0
220
0.0
230
1.0
 40
0.0011771836
 41
0.0
 42
3.143974154325171
  0
ELLIPSE
  5
DB
330
C0
100
AcDbEntity
  8
DV2_Default
  6
Continuous
 62
     7
100
AcDbEllipse
 10
123.6389750361
 20
283.2482383995
 30
0.0
 11
0.147560231814628
 21
8.698748529414267
 31
0.0
210
0.0
220
0.0
230
1.0
 40
0.0011771836
 41
3.144427778783077
 42
6.281110703372404
  0
LINE
  5
DC
330
C0
100
AcDbEntity
  8
DV2_Default
  6
Continuous
 62
     7
100
AcDbLine
 10
123.7862831584
 20
274.2444447439
 30
0.0
 11
125.6860085325
 21
274.2122189685
 31
0.0
  0
LINE
  5
DD
330
C0
100
AcDbEntity
  8
DV2_Default
  6
Continuous
 62
     7
100
AcDbLine
 10
125.9913055638
 20
292.209629719
 30
0.0
 11
124.0915801898
 21
292.2418554944
 31
0.0
  0
ARC
  5
DE
330
C0
100
AcDbEntity
  8
DV2_Default
  6
Continuous
 62
     7
100
AcDbCircle
 10
125.7006030544
 20
274.5063167557
 30
0.0
 40
0.289674241813028
100
AcDbArc
 50
267.4571334341
 51
350.6805031006
  0
ARC
  5
DF
330
C0
100
AcDbEntity
  8
DV2_Default
  6
Continuous
 62
     7
100
AcDbCircle
 10
125.9963455506
 20
291.9157277406
 30
0.0
 40
0.2891620276024841
100
AcDbArc
 50
7.3129193053
 51
90.6128895835
  0
SPLINE
  5
E0
330
C0
100
AcDbEntity
  8
DV2_Default
  6
Continuous
 62
     7
100
AcDbSpline
210
0.0
220
0.0
230
1.0
 70
     8
 71
     3
 72
    13
 73
     9
 74
     0
 42
0.000000001
 43
0.0000000001
 40
0.0
 40
0.0
 40
0.0
 40
0.0
 40
0.0666886097934016
 40
0.2091087450726762
 40
0.396484735280724
 40
0.6489384878917558
 40
0.8991666365593659
 40
1.0
 40
1.0
 40
1.0
 40
1.0
 10
123.4955555879221
 20
274.4948598215756
 30
0.0
 10
123.4969051435044
 20
274.4870695482611
 30
0.0
 10
123.5008584654594
 20
274.4659134597653
 30
0.0
 10
123.5195983713169
 20
274.4104932654101
 30
0.0
 10
123.5640042159375
 20
274.3413142959301
 30
0.0
 10
123.6403452727608
 20
274.2787053112676
 30
0.0
 10
123.7250564842222
 20
274.2448236067033
 30
0.0
 10
123.7720537479249
 20
274.2479297884094
 30
0.0
 10
123.7877275841318
 20
274.2491457506256
 30
0.0
  0
SPLINE
  5
E1
330
C0
100
AcDbEntity
  8
DV2_Default
  6
Continuous
 62
     7
100
AcDbSpline
210
0.0
220
0.0
230
1.0
 70
     8
 71
     3
 72
    15
 73
    11
 74
     0
 42
0.000000001
 43
0.0000000001
 40
0.0
 40
0.0
 40
0.0
 40
0.0
 40
0.0940967294413962
 40
0.3307663647220609
 40
0.5208118164898017
 40
0.6811303450021581
 40
0.8153716051251086
 40
0.9203782473870723
 40
0.9890456657469564
 40
1.0
 40
1.0
 40
1.0
 40
1.0
 10
124.0918673695252
 20
292.237204911183
 30
0.0
 10
124.0769904342042
 20
292.2389042369455
 30
0.0
 10
124.0319567655144
 20
292.2435936520796
 30
0.0
 10
123.9561100202254
 20
292.2166015641138
 30
0.0
 10
123.8857851023173
 20
292.1693380082727
 30
0.0
 10
123.8393317976977
 20
292.1159490071926
 30
0.0
 10
123.8114018681121
 20
292.0651934675807
 30
0.0
 10
123.7975645739363
 20
292.025121773846
 30
0.0
 10
123.7924385465349
 20
292.0021959180302
 30
0.0
 10
123.7914859595165
 20
291.9964618090286
 30
0.0
 10
123.7913375080882
 20
291.9955502430321
 30
0.0
  0
LINE
  5
E2
330
C0
100
AcDbEntity
  8
DV2_Default
  6
Continuous
 62
     7
100
AcDbLine
 10
12.3500001093
 20
304.7340450104
 30
0.0
 11
12.3500001093
 21
263.6340450104
 31
0.0
  0
ARC
  5
E3
330
C0
100
AcDbEntity
  8
DV2_Default
  6
Continuous
 62
     7
100
AcDbCircle
 10
12.0500001093
 20
304.7340450104
 30
0.0
 40
0.3000000000000017
100
AcDbArc
 50
0.0
 51
90.0
  0
ARC
  5
E4
330
C0
100
AcDbEntity
  8
DV2_Default
  6
Continuous
 62
     7
100
AcDbCircle
 10
12.0500001093
 20
263.6340450104
 30
0.0
 40
0.3000000000000017
100
AcDbArc
 50
270.0
 51
0.0
  0
LINE
  5
E5
330
C0
100
AcDbEntity
  8
DV2_Default
  6
Continuous
 62
     7
100
AcDbLine
 10
12.0500001093
 20
305.0340450104
 30
0.0
 11
7.8175452941
 21
305.0340450104
 31
0.0
  0
LINE
  5
E6
330
C0
100
AcDbEntity
  8
DV2_Default
  6
Continuous
 62
     7
100
AcDbLine
 10
7.8175452941
 20
263.3340450104
 30
0.0
 11
12.0500001093
 21
263.3340450104
 31
0.0
  0
ARC
  5
E7
330
C0
100
AcDbEntity
  8
DV2_Default
  6
Continuous
 62
     7
100
AcDbCircle
 10
7.8175452941
 20
304.7340450104
 30
0.0
 40
0.3000000000000017
100
AcDbArc
 50
90.0
 51
173.4964886674
  0
ARC
  5
E8
330
C0
100
AcDbEntity
  8
DV2_Default
  6
Continuous
 62
     7
100
AcDbCircle
 10
7.8175452941
 20
263.6340450104
 30
0.0
 40
0.2999999999999967
100
AcDbArc
 50
186.5035113326
 51
270.0
  0
ARC
  5
E9
330
C0
100
AcDbEntity
  8
DV2_Default
  6
Continuous
 62
     7
100
AcDbCircle
 10
188.0843751093
 20
284.1840450104
 30
0.0
 40
181.7343750000057
100
AcDbArc
 50
173.4964892721
 51
186.5035107279
  0
ARC
  5
EA
330
C0
100
AcDbEntity
  8
DV2_Default
  6
Continuous
 62
     7
100
AcDbCircle
 10
84.3469309891
 20
284.1954082723
 30
0.0
 40
19.0
100
AcDbArc
 50
25.3213719301
 51
43.4082255229
  0
ARC
  5
EB
330
C0
100
AcDbEntity
  8
DV2_Default
  6
Continuous
 62
     7
100
AcDbCircle
 10
84.3469309891
 20
284.1954082723
 30
0.0
 40
19.0
100
AcDbArc
 50
316.5917744771
 51
330.8283771808
  0
ELLIPSE
  5
EC
330
C0
100
AcDbEntity
  8
DV2_Default
  6
Continuous
 62
     7
100
AcDbEllipse
 10
116.081784761
 20
274.187665401
 30
0.0
 11
3.979813299846993
 21
-0.03391570889276288
 31
0.0
210
0.0
220
0.0
230
1.0
 40
0.9904126087
 41
0.0
 42
6.283185307179586
  0
SPLINE
  5
ED
330
C0
100
AcDbEntity
  8
DV2_Default
  6
Continuous
 62
     7
100
AcDbSpline
210
0.0
220
0.0
230
1.0
 70
     8
 71
     3
 72
     8
 73
     4
 74
     0
 42
0.000000001
 43
0.0000000001
 40
0.0
 40
0.0
 40
0.0
 40
0.0
 40
0.9999999999999999
 40
0.9999999999999999
 40
0.9999999999999999
 40
0.9999999999999999
 10
120.1282788311761
 20
281.9953125949705
 30
0.0
 10
120.1284670355503
 20
282.0063009507668
 30
0.0
 10
120.1286078606433
 20
282.0172880813948
 30
0.0
 10
120.1287014800186
 20
282.0282736869752
 30
0.0
  0
SPLINE
  5
EE
330
C0
100
AcDbEntity
  8
DV2_Default
  6
Continuous
 62
     7
100
AcDbSpline
210
0.0
220
0.0
230
1.0
 70
     8
 71
     3
 72
    16
 73
    12
 74
     0
 42
0.000000001
 43
0.0000000001
 40
0.0
 40
0.0
 40
0.0
 40
0.0
 40
0.2474301119458231
 40
0.2474301119458231
 40
0.4974421889238998
 40
0.4974421889238998
 40
0.7474542659019769
 40
0.7474542659019769
 40
0.9974663428800541
 40
0.9974663428800541
 40
0.9999999999999999
 40
0.9999999999999999
 40
0.9999999999999999
 40
0.9999999999999999
 10
120.1287014800186
 20
282.0282736869752
 30
0.0
 10
120.1376730393598
 20
283.081025984004
 30
0.0
 10
119.7131347228869
 20
284.1197731308951
 30
0.0
 10
118.2951670605915
 20
285.6493802265652
 30
0.0
 10
117.2749532398225
 20
286.1420404388232
 30
0.0
 10
115.1545052543185
 20
286.1762981271564
 30
0.0
 10
114.1263734038661
 20
285.7226064190285
 30
0.0
 10
112.6440775838863
 20
284.2260861029217
 30
0.0
 10
112.1870443698857
 20
283.1757075779142
 30
0.0
 10
112.1693121540768
 20
282.1183145865725
 30
0.0
 10
112.1691798994349
 20
282.1077043708651
 30
0.0
 10
112.1690931217696
 20
282.0970927884594
 30
0.0
  0
ELLIPSE
  5
EF
330
C0
100
AcDbEntity
  8
DV2_Default
  6
Continuous
 62
     7
100
AcDbEllipse
 10
123.6389750361
 20
283.2482383995
 30
0.0
 11
-0.1475602318145447
 21
-8.698748529414269
 31
0.0
210
0.0
220
0.0
230
1.0
 40
0.0011771836
 41
0.0057243589296139
 42
3.135981873260108
  0
LINE
  5
F0
330
C0
100
AcDbEntity
  8
DV2_Default
  6
Continuous
 62
     7
100
AcDbLine
 10
123.4916669138
 20
292.2520320551
 30
0.0
 11
101.8825691521
 21
292.6185955285
 31
0.0
  0
LINE
  5
F1
330
C0
100
AcDbEntity
  8
DV2_Default
  6
Continuous
 62
     7
100
AcDbLine
 10
101.2910072249
 20
274.6260408
 30
0.0
 11
112.1038551255
 21
274.4426182838
 31
0.0
  0
LINE
  5
F2
330
C0
100
AcDbEntity
  8
DV2_Default
  6
Continuous
 62
     7
100
AcDbLine
 10
120.0629092123
 20
274.3076057746
 30
0.0
 11
123.1863698824
 21
274.2546213046
 31
0.0
  0
LINE
  5
F3
330
C0
100
AcDbEntity
  8
DV2_Default
  6
Continuous
 62
     7
100
AcDbLine
 10
120.0615980609
 20
274.1537496921
 30
0.0
 11
120.1287099597
 21
282.0289448802
 31
0.0
  0
LINE
  5
F4
330
C0
100
AcDbEntity
  8
DV2_Default
  6
Continuous
 62
     7
100
AcDbLine
 10
112.1690881066
 20
282.0973332847
 30
0.0
 11
112.1019714612
 21
274.2215811099
 31
0.0
  0
ARC
  5
F5
330
C0
100
AcDbEntity
  8
DV2_Default
  6
Continuous
 62
     7
100
AcDbCircle
 10
123.4974537048
 20
291.9595165733
 30
0.0
 40
0.2877903175447027
100
AcDbArc
 50
11.4658705999
 51
90.7585308625
  0
SPLINE
  5
F6
330
C0
100
AcDbEntity
  8
DV2_Default
  6
Continuous
 62
     7
100
AcDbSpline
210
0.0
220
0.0
230
1.0
 70
     8
 71
     3
 72
    14
 73
    10
 74
     0
 42
0.000000001
 43
0.0000000001
 40
0.0
 40
0.0
 40
0.0
 40
0.0
 40
0.0928232766532379
 40
0.3380248887250254
 40
0.5345278769866542
 40
0.7001928420779904
 40
0.839029378067139
 40
0.9480136691301381
 40
1.0
 40
1.0
 40
1.0
 40
1.0
 10
123.1844561296934
 20
274.2592246511117
 30
0.0
 10
123.1987084167013
 20
274.257458668201
 30
0.0
 10
123.2434083589392
 20
274.2523470583931
 30
0.0
 10
123.3194294492699
 20
274.278741631577
 30
0.0
 10
123.3904967249167
 20
274.325553505163
 30
0.0
 10
123.4376827549459
 20
274.3793309771365
 30
0.0
 10
123.465703990882
 20
274.4291159909121
 30
0.0
 10
123.4798672349411
 20
274.4698012280811
 30
0.0
 10
123.4833665185825
 20
274.4856651655336
 30
0.0
 10
123.4846129665193
 20
274.491594944292
 30
0.0
  0
ARC
  5
F7
330
C0
100
AcDbEntity
  8
DV2_Default
  6
Continuous
 62
     7
100
AcDbCircle
 10
162.9375878972
 20
281.639912691
 30
0.0
 40
62.63253913730334
100
AcDbArc
 50
174.9587668558
 51
177.5916277863
  0
SPLINE
  5
F8
330
C0
100
AcDbEntity
  8
DV2_Default
  6
Continuous
 62
     7
100
AcDbSpline
210
0.0
220
0.0
230
1.0
 70
     8
 71
     3
 72
    21
 73
    17
 74
     0
 42
0.000000001
 43
0.0000000001
 40
0.0
 40
0.0
 40
0.0
 40
0.0
 40
0.0051070180768125
 40
0.0580724295011287
 40
0.1115794664254221
 40
0.1792391900213113
 40
0.2709656137052802
 40
0.3636420063291376
 40
0.4523894864119684
 40
0.5388968299637313
 40
0.6236099246594888
 40
0.7066904177129687
 40
0.7902530514441758
 40
0.8745562366417862
 40
0.959379253710946
 40
1.0
 40
1.0
 40
1.0
 40
1.0
 10
101.8964611041382
 20
292.6137340335742
 30
0.0
 10
101.890872056739
 20
292.6152871183874
 30
0.0
 10
101.8364104949801
 20
292.6304360909596
 30
0.0
 10
101.7152666338082
 20
292.5809923587775
 30
0.0
 10
101.5993446590122
 20
292.4882638354227
 30
0.0
 10
101.4870100798462
 20
292.3333509205435
 30
0.0
 10
101.3722514033177
 20
292.094651668716
 30
0.0
 10
101.2528137034855
 20
291.7511659567332
 30
0.0
 10
101.1389979032205
 20
291.3315712434896
 30
0.0
 10
101.0314604329528
 20
290.8470949221089
 30
0.0
 10
100.9297859055392
 20
290.3004456190984
 30
0.0
 10
100.8338387277496
 20
289.6938363255109
 30
0.0
 10
100.7430518144153
 20
289.0284368154034
 30
0.0
 10
100.6588281445799
 20
288.3113607924378
 30
0.0
 10
100.5915304771846
 20
287.6621841155351
 30
0.0
 10
100.5594724058757
 20
287.2866935148479
 30
0.0
 10
100.5473290747869
 20
287.1435989882556
 30
0.0
  0
SPLINE
  5
F9
330
C0
100
AcDbEntity
  8
DV2_Default
  6
Continuous
 62
     7
100
AcDbSpline
210
0.0
220
0.0
230
1.0
 70
     8
 71
     3
 72
    25
 73
    21
 74
     0
 42
0.000000001
 43
0.0000000001
 40
0.0
 40
0.0
 40
0.0
 40
0.0
 40
0.0308744238919467
 40
0.0896089332880241
 40
0.1487927459966973
 40
0.2085941463635418
 40
0.2688565322565029
 40
0.3293658484679425
 40
0.3898186965896858
 40
0.4499677867746315
 40
0.5096414115127367
 40
0.5687907783091667
 40
0.628584494778623
 40
0.6894460456921364
 40
0.7512266051688068
 40
0.8138693002744395
 40
0.8777088893935291
 40
0.9321733963064355
 40
0.9710665726465771
 40
1.0
 40
1.0
 40
1.0
 40
1.0
 10
100.3603720535909
 20
284.2718351915468
 30
0.0
 10
100.3535554580563
 20
284.1074264693318
 30
0.0
 10
100.3369759566278
 20
283.7018512746195
 30
0.0
 10
100.3145439056003
 20
282.9608983628515
 30
0.0
 10
100.2990859697169
 20
282.1102174669365
 30
0.0
 10
100.2940740069846
 20
281.2594242024898
 30
0.0
 10
100.2999293390695
 20
280.4273422947466
 30
0.0
 10
100.3166391455916
 20
279.622780846474
 30
0.0
 10
100.3440918338782
 20
278.8579562655954
 30
0.0
 10
100.3819382033938
 20
278.1433833437269
 30
0.0
 10
100.4298085176401
 20
277.4884991020481
 30
0.0
 10
100.4871501940703
 20
276.8959751518286
 30
0.0
 10
100.5536065882025
 20
276.3640035851178
 30
0.0
 10
100.6292758628852
 20
275.8935926626656
 30
0.0
 10
100.7142339182208
 20
275.4895581898965
 30
0.0
 10
100.8087896064583
 20
275.1567906573569
 30
0.0
 10
100.9115984748493
 20
274.9098964007888
 30
0.0
 10
101.0175555965315
 20
274.751885508267
 30
0.0
 10
101.1501352155679
 20
274.6445507146935
 30
0.0
 10
101.242501582631
 20
274.6369138432753
 30
0.0
 10
101.2895357190491
 20
274.6333282940091
 30
0.0
  0
ARC
  5
FA
330
C0
100
AcDbEntity
  8
DV2_Default
  6
Continuous
 62
     7
100
AcDbCircle
 10
43.0999968266
 20
284.1843912051
 30
0.0
 40
11.50000000000001
100
AcDbArc
 50
0.0
 51
180.0
  0
ELLIPSE
  5
FB
330
C0
100
AcDbEntity
  8
DV2_Default
  6
Continuous
 62
     7
100
AcDbEllipse
 10
43.0999968266
 20
118.3736274609
 30
0.0
 11
11.49999999999992
 21
6.272760089132134E-12
 31
0.0
210
0.0
220
0.0
230
1.0
 40
0.9925461516
 41
3.141592653589793
 42
6.283185307179585
  0
LINE
  5
FC
330
C0
100
AcDbEntity
  8
DV2_Default
  6
Continuous
 62
     7
100
AcDbLine
 10
31.5999968266
 20
284.1843912051
 30
0.0
 11
31.5999968262
 21
119.799480122
 31
0.0
  0
LINE
  5
FD
330
C0
100
AcDbEntity
  8
DV2_Default
  6
Continuous
 62
     7
100
AcDbLine
 10
54.5999968262
 20
119.799480122
 30
0.0
 11
54.5999968266
 21
284.1843912051
 31
0.0
  0
LINE
  5
FE
330
C0
100
AcDbEntity
  8
DV2_Default
  6
Continuous
 62
     7
100
AcDbLine
 10
31.5999968262
 20
119.7994801183
 30
0.0
 11
31.5999968266
 21
118.3736274573
 31
0.0
  0
LINE
  5
FF
330
C0
100
AcDbEntity
  8
DV2_Default
  6
Continuous
 62
     7
100
AcDbLine
 10
54.5999968266
 20
118.3736274645
 30
0.0
 11
54.5999968262
 21
119.7994801257
 31
0.0
  0
ELLIPSE
  5
100
330
C0
100
AcDbEntity
  8
DV2_Default
  6
Continuous
 62
     7
100
AcDbEllipse
 10
43.0999968266
 20
117.7642807439
 30
0.0
 11
11.49999999999996
 21
-1.915134717478395E-12
 31
0.0
210
0.0
220
0.0
230
1.0
 40
0.9925461516
 41
3.141592653589793
 42
6.283185307179586
  0
LINE
  5
101
330
C0
100
AcDbEntity
  8
DV2_Default
  6
Continuous
 62
     7
100
AcDbLine
 10
54.5999968266
 20
117.7642807439
 30
0.0
 11
54.5999968266
 21
118.3005058549
 31
0.0
  0
LINE
  5
102
330
C0
100
AcDbEntity
  8
DV2_Default
  6
Continuous
 62
     7
100
AcDbLine
 10
31.5999968266
 20
118.3005058549
 30
0.0
 11
31.5999968266
 21
117.7642807439
 31
0.0
  0
ENDBLK
  5
104
330
C0
100
AcDbEntity
  8
0
100
AcDbBlockEnd
  0
BLOCK
  5
211
330
105
100
AcDbEntity
  8
0
100
AcDbBlockBegin
  2
SE2
 70
     0
 10
0.0
 20
0.0
 30
0.0
  3
SE2
  1
SE2
  0
LINE
  5
108
330
105
100
AcDbEntity
  8
DV3_Default
  6
Continuous
 62
     7
100
AcDbLine
 10
18.1000001093
 20
371.866178161
 30
0.0
 11
68.1000001093
 21
371.866178161
 31
0.0
  0
LINE
  5
109
330
105
100
AcDbEntity
  8
DV3_Default
  6
Continuous
 62
     7
100
AcDbLine
 10
18.4000001093
 20
376.666178161
 30
0.0
 11
67.8000001093
 21
376.666178161
 31
0.0
  0
LINE
  5
10A
330
105
100
AcDbEntity
  8
DV3_Default
  6
Continuous
 62
     7
100
AcDbLine
 10
18.1000001093
 20
376.366178161
 30
0.0
 11
18.1000001093
 21
371.866178161
 31
0.0
  0
LINE
  5
10B
330
105
100
AcDbEntity
  8
DV3_Default
  6
Continuous
 62
     7
100
AcDbLine
 10
68.1000001093
 20
371.866178161
 30
0.0
 11
68.1000001093
 21
376.366178161
 31
0.0
  0
ARC
  5
10C
330
105
100
AcDbEntity
  8
DV3_Default
  6
Continuous
 62
     7
100
AcDbCircle
 10
18.4000001093
 20
376.366178161
 30
0.0
 40
0.2999999999999999
100
AcDbArc
 50
90.0
 51
180.0
  0
ARC
  5
10D
330
105
100
AcDbEntity
  8
DV3_Default
  6
Continuous
 62
     7
100
AcDbCircle
 10
67.8000001093
 20
376.366178161
 30
0.0
 40
0.3000000000000017
100
AcDbArc
 50
0.0
 51
90.0
  0
SPLINE
  5
10E
330
105
100
AcDbEntity
  8
DV3_Default
  6
Continuous
 62
     7
100
AcDbSpline
210
0.0
220
0.0
230
1.0
 70
     8
 71
     5
 72
    12
 73
     6
 74
     0
 42
0.000000001
 43
0.0000000001
 40
0.0
 40
0.0
 40
0.0
 40
0.0
 40
0.0
 40
0.0
 40
1.0
 40
1.0
 40
1.0
 40
1.0
 40
1.0
 40
1.0
 10
54.60000010931951
 20
477.0813334579009
 30
0.0
 10
54.60000010931841
 20
476.455667087953
 30
0.0
 10
54.6000001093191
 20
475.8300007306029
 30
0.0
 10
55.88597036529102
 20
475.2514281535549
 30
0.0
 10
56.51163672246841
 20
475.2514281532829
 30
0.0
 10
57.13730307964581
 20
475.2514281529979
 30
0.0
  0
SPLINE
  5
10F
330
105
100
AcDbEntity
  8
DV3_Default
  6
Continuous
 62
     7
100
AcDbSpline
210
0.0
220
0.0
230
1.0
 70
     8
 71
     5
 72
    12
 73
     6
 74
     0
 42
0.000000001
 43
0.0000000001
 40
0.0
 40
0.0
 40
0.0
 40
0.0
 40
0.0
 40
0.0
 40
1.0
 40
1.0
 40
1.0
 40
1.0
 40
1.0
 40
1.0
 10
31.60000011238881
 20
477.0813334548949
 30
0.0
 10
31.60000011495871
 20
476.4556670836079
 30
0.0
 10
31.60000011448581
 20
475.8300007264439
 30
0.0
 10
30.31402984884381
 20
475.251428156912
 30
0.0
 10
29.68836349149361
 20
475.251428156912
 30
0.0
 10
29.06269713414331
 20
475.251428156912
 30
0.0
  0
LINE
  5
110
330
105
100
AcDbEntity
  8
DV3_Default
  6
Continuous
 62
     7
100
AcDbLine
 10
54.3000001093
 20
491.1014281582
 30
0.0
 11
31.9000001093
 21
491.1014281582
 31
0.0
  0
LINE
  5
111
330
105
100
AcDbEntity
  8
DV3_Default
  6
Continuous
 62
     7
100
AcDbLine
 10
12.3500001093
 20
433.8514281569
 30
0.0
 11
12.3500001093
 21
474.9514281569
 31
0.0
  0
LINE
  5
112
330
105
100
AcDbEntity
  8
DV3_Default
  6
Continuous
 62
     7
100
AcDbLine
 10
93.3500001093
 20
434.2444009468
 30
0.0
 11
93.3500001093
 21
474.9514281569
 31
0.0
  0
SPLINE
  5
113
330
105
100
AcDbEntity
  8
DV3_Default
  6
Continuous
 62
     7
100
AcDbSpline
210
0.0
220
0.0
230
1.0
 70
     8
 71
     5
 72
    12
 73
     6
 74
     0
 42
0.000000001
 43
0.0000000001
 40
0.0
 40
0.0
 40
0.0
 40
0.0
 40
0.0
 40
0.0
 40
1.0
 40
1.0
 40
1.0
 40
1.0
 40
1.0
 40
1.0
 10
29.06269713414331
 20
433.5514281569114
 30
0.0
 10
29.68836349149361
 20
433.5514281569114
 30
0.0
 10
30.31402984884381
 20
433.5514281569114
 30
0.0
 10
31.60000011448581
 20
432.9728555873792
 30
0.0
 10
31.60000011495871
 20
432.3471892302148
 30
0.0
 10
31.60000011527431
 20
431.7215228603185
 30
0.0
  0
SPLINE
  5
114
330
105
100
AcDbEntity
  8
DV3_Default
  6
Continuous
 62
     7
100
AcDbSpline
210
0.0
220
0.0
230
1.0
 70
     8
 71
     5
 72
    12
 73
     6
 74
     0
 42
0.000000001
 43
0.0000000001
 40
0.0
 40
0.0
 40
0.0
 40
0.0
 40
0.0
 40
0.0
 40
1.0
 40
1.0
 40
1.0
 40
1.0
 40
1.0
 40
1.0
 10
57.13730307964581
 20
433.5514281608247
 30
0.0
 10
56.51163351304593
 20
433.5514281605398
 30
0.0
 10
55.88596394644605
 20
433.5514281602678
 30
0.0
 10
54.59998031970118
 20
432.9728466796244
 30
0.0
 10
54.60000010952145
 20
432.3471763881724
 30
0.0
 10
54.60000010931931
 20
431.7215068113284
 30
0.0
  0
LINE
  5
115
330
105
100
AcDbEntity
  8
DV3_Default
  6
Continuous
 62
     7
100
AcDbLine
 10
91.8500001093
 20
433.5514281569
 30
0.0
 11
91.8500001093
 21
433.9386388566
 31
0.0
  0
SPLINE
  5
116
330
105
100
AcDbEntity
  8
DV3_Default
  6
Continuous
 62
     7
100
AcDbSpline
210
0.0
220
0.0
230
1.0
 70
     8
 71
     3
 72
    10
 73
     6
 74
     0
 42
0.000000001
 43
0.0000000001
 40
0.0
 40
0.0
 40
0.0
 40
0.0
 40
0.5
 40
0.5
 40
1.0
 40
1.0
 40
1.0
 40
1.0
 10
93.3500001093207
 20
434.2444009467668
 30
0.0
 10
93.3500001093207
 20
434.1650966350061
 30
0.0
 10
93.31870123319675
 20
434.0864005197336
 30
0.0
 10
93.20768209028125
 20
433.9721233223882
 30
0.0
 10
93.12926925319725
 20
433.9386388565616
 30
0.0
 10
93.0500001093207
 20
433.9386388565616
 30
0.0
  0
LINE
  5
117
330
105
100
AcDbEntity
  8
DV3_Default
  6
Continuous
 62
     7
100
AcDbLine
 10
93.0500001093
 20
433.9386388566
 30
0.0
 11
91.8500001093
 21
433.9386388566
 31
0.0
  0
LINE
  5
118
330
105
100
AcDbEntity
  8
DV3_Default
  6
Continuous
 62
     7
100
AcDbLine
 10
57.1373201174
 20
433.5514281569
 30
0.0
 11
91.8500001093
 21
433.5514281569
 31
0.0
  0
LINE
  5
119
330
105
100
AcDbEntity
  8
DV3_Default
  6
Continuous
 62
     7
100
AcDbLine
 10
12.6500001093
 20
433.5514281569
 30
0.0
 11
29.0626971341
 21
433.5514281569
 31
0.0
  0
LINE
  5
11A
330
105
100
AcDbEntity
  8
DV3_Default
  6
Continuous
 62
     7
100
AcDbLine
 10
29.0626971341
 20
475.2514281569
 30
0.0
 11
12.6500001093
 21
475.2514281569
 31
0.0
  0
LINE
  5
11B
330
105
100
AcDbEntity
  8
DV3_Default
  6
Continuous
 62
     7
100
AcDbLine
 10
93.0500001093
 20
475.2514281569
 30
0.0
 11
57.1372955329
 21
475.2514281569
 31
0.0
  0
LINE
  5
11C
330
105
100
AcDbEntity
  8
DV3_Default
  6
Continuous
 62
     7
100
AcDbLine
 10
54.6000001093
 20
477.081333656
 30
0.0
 11
54.6000001093
 21
490.8014281582
 31
0.0
  0
LINE
  5
11D
330
105
100
AcDbEntity
  8
DV3_Default
  6
Continuous
 62
     7
100
AcDbLine
 10
31.6000001093
 20
490.8014281582
 30
0.0
 11
31.6000001093
 21
477.0813288273
 31
0.0
  0
ARC
  5
11E
330
105
100
AcDbEntity
  8
DV3_Default
  6
Continuous
 62
     7
100
AcDbCircle
 10
31.9000001093
 20
490.8014281582
 30
0.0
 40
0.2999999999999947
100
AcDbArc
 50
90.0
 51
180.0
  0
ARC
  5
11F
330
105
100
AcDbEntity
  8
DV3_Default
  6
Continuous
 62
     7
100
AcDbCircle
 10
54.3000001093
 20
490.8014281582
 30
0.0
 40
0.2999999999999999
100
AcDbArc
 50
0.0
 51
90.0
  0
ARC
  5
120
330
105
100
AcDbEntity
  8
DV3_Default
  6
Continuous
 62
     7
100
AcDbCircle
 10
12.6500001093
 20
433.8514281569
 30
0.0
 40
0.2999999999999982
100
AcDbArc
 50
180.0
 51
270.0
  0
ARC
  5
121
330
105
100
AcDbEntity
  8
DV3_Default
  6
Continuous
 62
     7
100
AcDbCircle
 10
12.6500001093
 20
474.9514281569
 30
0.0
 40
0.3000000000001474
100
AcDbArc
 50
90.0
 51
180.0
  0
ARC
  5
122
330
105
100
AcDbEntity
  8
DV3_Default
  6
Continuous
 62
     7
100
AcDbCircle
 10
93.0500001093
 20
474.9514281569
 30
0.0
 40
0.3000000000000017
100
AcDbArc
 50
0.0
 51
90.0
  0
LINE
  5
123
330
105
100
AcDbEntity
  8
DV3_Default
  6
Continuous
 62
     7
100
AcDbLine
 10
54.6000001093
 20
376.666178161
 30
0.0
 11
54.6000001093
 21
431.7215228685
 31
0.0
  0
LINE
  5
124
330
105
100
AcDbEntity
  8
DV3_Default
  6
Continuous
 62
     7
100
AcDbLine
 10
31.6000001093
 20
431.7215130312
 30
0.0
 11
31.6000001093
 21
376.666178161
 31
0.0
  0
SPLINE
  5
125
330
105
100
AcDbEntity
  8
DV3_Default
  6
Continuous
 62
     7
100
AcDbSpline
210
0.0
220
0.0
230
1.0
 70
     8
 71
     3
 72
     8
 73
     4
 74
     0
 42
0.000000001
 43
0.0000000001
 40
0.0
 40
0.0
 40
0.0
 40
0.0
 40
0.9999999999999999
 40
0.9999999999999999
 40
0.9999999999999999
 40
0.9999999999999999
 10
54.68936533020094
 20
476.4345697334449
 30
0.0
 10
54.67539077387706
 20
476.4747205901737
 30
0.0
 10
54.66228544041943
 20
476.5161029078474
 30
0.0
 10
54.64884098869499
 20
476.5598837462591
 30
0.0
  0
LINE
  5
126
330
105
100
AcDbEntity
  8
DV3_Default
  6
Continuous
 62
     7
100
AcDbLine
 10
93.3500001093
 20
433.8514281569
 30
0.0
 11
93.3500001093
 21
474.9514281569
 31
0.0
  0
LINE
  5
127
330
105
100
AcDbEntity
  8
DV3_Default
  6
Continuous
 62
     7
100
AcDbLine
 10
98.1499754358
 20
433.9914281569
 30
0.0
 11
98.1499754358
 21
474.8114281569
 31
0.0
  0
ARC
  5
128
330
105
100
AcDbEntity
  8
DV3_Default
  6
Continuous
 62
     7
100
AcDbCircle
 10
93.6500001093
 20
433.8514281569
 30
0.0
 40
0.3000000000000086
100
AcDbArc
 50
180.0
 51
270.0
  0
ARC
  5
129
330
105
100
AcDbEntity
  8
DV3_Default
  6
Continuous
 62
     7
100
AcDbCircle
 10
93.6500001093
 20
474.9514281569
 30
0.0
 40
0.3000000000000225
100
AcDbArc
 50
90.0
 51
180.0
  0
LINE
  5
12A
330
105
100
AcDbEntity
  8
DV3_Default
  6
Continuous
 62
     7
100
AcDbLine
 10
93.6500001093
 20
433.5514281569
 30
0.0
 11
97.7099754358
 21
433.5514281569
 31
0.0
  0
LINE
  5
12B
330
105
100
AcDbEntity
  8
DV3_Default
  6
Continuous
 62
     7
100
AcDbLine
 10
97.7099754358
 20
475.2514281569
 30
0.0
 11
93.6500001093
 21
475.2514281569
 31
0.0
  0
ARC
  5
12C
330
105
100
AcDbEntity
  8
DV3_Default
  6
Continuous
 62
     7
100
AcDbCircle
 10
97.7099754358
 20
433.9914281569
 30
0.0
 40
0.4400000000000029
100
AcDbArc
 50
270.0
 51
0.0
  0
ARC
  5
12D
330
105
100
AcDbEntity
  8
DV3_Default
  6
Continuous
 62
     7
100
AcDbCircle
 10
97.7099754358
 20
474.8114281569
 30
0.0
 40
0.4400000000000029
100
AcDbArc
 50
0.0
 51
90.0
  0
ELLIPSE
  5
12E
330
105
100
AcDbEntity
  8
DV3_Default
  6
Continuous
 62
     7
100
AcDbEllipse
 10
126.1386136862
 20
456.3909905814
 30
0.0
 11
-0.01024297099230798
 21
-8.699993970201659
 31
0.0
210
0.0
220
0.0
230
1.0
 40
0.0169609344
 41
0.1053680155616048
 42
3.044406367407421
  0
ELLIPSE
  5
12F
330
105
100
AcDbEntity
  8
DV3_Default
  6
Continuous
 62
     7
100
AcDbEllipse
 10
126.1386136862
 20
456.3909905814
 30
0.0
 11
-0.01024297099230798
 21
-8.699993970201659
 31
0.0
210
0.0
220
0.0
230
1.0
 40
0.0169609344
 41
3.17903339042098
 42
6.242686151721039
  0
LINE
  5
130
330
105
100
AcDbEntity
  8
DV3_Default
  6
Continuous
 62
     7
100
AcDbLine
 10
123.9283354972
 20
447.3935866231
 30
0.0
 11
125.8280608713
 21
447.3913499742
 31
0.0
  0
LINE
  5
131
330
105
100
AcDbEntity
  8
DV3_Default
  6
Continuous
 62
     7
100
AcDbLine
 10
125.849253225
 20
465.3913374988
 30
0.0
 11
123.949527851
 21
465.3935741477
 31
0.0
  0
SPLINE
  5
132
330
105
100
AcDbEntity
  8
DV3_Default
  6
Continuous
 62
     7
100
AcDbSpline
210
0.0
220
0.0
230
1.0
 70
     8
 71
     3
 72
    14
 73
    10
 74
     0
 42
0.000000001
 43
0.0000000001
 40
0.0
 40
0.0
 40
0.0
 40
0.0
 40
0.0754198410626023
 40
0.1882787845614616
 40
0.2873029070399228
 40
0.3862171452759845
 40
0.510498755104205
 40
0.712569452971827
 40
1.0
 40
1.0
 40
1.0
 40
1.0
 10
125.8287062975901
 20
447.3973085711076
 30
0.0
 10
125.8560654348381
 20
447.396554858706
 30
0.0
 10
125.9143018607354
 20
447.3955462021171
 30
0.0
 10
126.0008968496346
 20
447.439740712182
 30
0.0
 10
126.0638310697362
 20
447.4988789138838
 30
0.0
 10
126.0998009282353
 20
447.5549340493245
 30
0.0
 10
126.1206304755481
 20
447.6045795319689
 30
0.0
 10
126.1325080319476
 20
447.6486910443311
 30
0.0
 10
126.1374477323857
 20
447.674827159121
 30
0.0
 10
126.1398128048234
 20
447.6914257649784
 30
0.0
  0
SPLINE
  5
133
330
105
100
AcDbEntity
  8
DV3_Default
  6
Continuous
 62
     7
100
AcDbSpline
210
0.0
220
0.0
230
1.0
 70
     8
 71
     3
 72
    14
 73
    10
 74
     0
 42
0.000000001
 43
0.0000000001
 40
0.0
 40
0.0
 40
0.0
 40
0.0
 40
0.0670441616371269
 40
0.3376612087218661
 40
0.5525439546320174
 40
0.7038501394097361
 40
0.8274157197682634
 40
0.9583824326483928
 40
1.0
 40
1.0
 40
1.0
 40
1.0
 10
126.1583481149183
 20
465.0999224216596
 30
0.0
 10
126.1578662229392
 20
465.1042930635954
 30
0.0
 10
126.1556881799112
 20
465.1234226765565
 30
0.0
 10
126.1477765584356
 20
465.1533862703752
 30
0.0
 10
126.1322333873538
 20
465.20573765123
 30
0.0
 10
126.085860456866
 20
465.2861528260299
 30
0.0
 10
126.0003571311392
 20
465.3575697268139
 30
0.0
 10
125.9091298275927
 20
465.3942705676918
 30
0.0
 10
125.8594347661487
 20
465.3878685672306
 30
0.0
 10
125.8454600772602
 20
465.3859828994852
 30
0.0
  0
SPLINE
  5
134
330
105
100
AcDbEntity
  8
DV3_Default
  6
Continuous
 62
     7
100
AcDbSpline
210
0.0
220
0.0
230
1.0
 70
     8
 71
     3
 72
    15
 73
    11
 74
     0
 42
0.000000001
 43
0.0000000001
 40
0.0
 40
0.0
 40
0.0
 40
0.0
 40
0.7980134832914344
 40
0.7980134832914344
 40
0.7980134832914344
 40
0.8574975617979257
 40
0.9047436655741264
 40
0.9429818550852554
 40
0.9835428759443369
 40
0.9999999999999999
 40
0.9999999999999999
 40
0.9999999999999999
 40
0.9999999999999999
 10
123.6188965397507
 20
447.7133891401149
 30
0.0
 10
123.6188424786881
 20
447.6822978720759
 30
0.0
 10
123.6213624184971
 20
447.6612215503221
 30
0.0
 10
123.6327725702702
 20
447.6221181933216
 30
0.0
 10
123.6367701995072
 20
447.6084180492466
 30
0.0
 10
123.645901041159
 20
447.5798659758512
 30
0.0
 10
123.6859075517085
 20
447.5066353605446
 30
0.0
 10
123.7665774006773
 20
447.4337012431918
 30
0.0
 10
123.8584174084323
 20
447.3929240395915
 30
0.0
 10
123.9114735445522
 20
447.3977893862017
 30
0.0
 10
123.9293624416673
 20
447.3995620127803
 30
0.0
  0
SPLINE
  5
135
330
105
100
AcDbEntity
  8
DV3_Default
  6
Continuous
 62
     7
100
AcDbSpline
210
0.0
220
0.0
230
1.0
 70
     8
 71
     3
 72
    14
 73
    10
 74
     0
 42
0.000000001
 43
0.0000000001
 40
0.0
 40
0.0
 40
0.0
 40
0.0
 40
0.0944996812960067
 40
0.2125628550290867
 40
0.3176857176897788
 40
0.4244312194209201
 40
0.5633761165290351
 40
0.7889815547293968
 40
1.0
 40
1.0
 40
1.0
 40
1.0
 10
123.9486804928241
 20
465.3884788277641
 30
0.0
 10
123.9165347155605
 20
465.3881447629377
 30
0.0
 10
123.8550087825054
 20
465.3868109571692
 30
0.0
 10
123.7680893515012
 20
465.3389494091342
 30
0.0
 10
123.7088031292421
 20
465.2796268267273
 30
0.0
 10
123.674940298902
 20
465.2243257407931
 30
0.0
 10
123.655429322589
 20
465.1755186952225
 30
0.0
 10
123.6455832172297
 20
465.1380292771946
 30
0.0
 10
123.6417086282512
 20
465.1162040013822
 30
0.0
 10
123.6400110088115
 20
465.1045483150371
 30
0.0
  0
ARC
  5
136
330
105
100
AcDbEntity
  8
DV3_Default
  6
Continuous
 62
     7
100
AcDbCircle
 10
35.7500001096
 20
490.7661781624
 30
0.0
 40
0.5000000000000004
100
AcDbArc
 50
42.1056661396
 51
76.0484595859
  0
ARC
  5
137
330
105
100
AcDbEntity
  8
DV3_Default
  6
Continuous
 62
     7
100
AcDbCircle
 10
50.4500001096
 20
490.7661781624
 30
0.0
 40
0.5000000000000004
100
AcDbArc
 50
103.9515404141
 51
137.8943338604
  0
LINE
  5
138
330
105
100
AcDbEntity
  8
DV3_Default
  6
Continuous
 62
     7
100
AcDbLine
 10
12.3500001093
 20
474.9514281569
 30
0.0
 11
12.3500001093
 21
433.8514281569
 31
0.0
  0
ARC
  5
139
330
105
100
AcDbEntity
  8
DV3_Default
  6
Continuous
 62
     7
100
AcDbCircle
 10
12.0500001093
 20
474.9514281569
 30
0.0
 40
0.3000000000000017
100
AcDbArc
 50
0.0
 51
90.0
  0
ARC
  5
13A
330
105
100
AcDbEntity
  8
DV3_Default
  6
Continuous
 62
     7
100
AcDbCircle
 10
12.0500001093
 20
433.8514281569
 30
0.0
 40
0.3000000000000017
100
AcDbArc
 50
270.0
 51
0.0
  0
LINE
  5
13B
330
105
100
AcDbEntity
  8
DV3_Default
  6
Continuous
 62
     7
100
AcDbLine
 10
12.0500001093
 20
475.2514281569
 30
0.0
 11
7.8175452941
 21
475.2514281569
 31
0.0
  0
LINE
  5
13C
330
105
100
AcDbEntity
  8
DV3_Default
  6
Continuous
 62
     7
100
AcDbLine
 10
7.8175452941
 20
433.5514281569
 30
0.0
 11
12.0500001093
 21
433.5514281569
 31
0.0
  0
ARC
  5
13D
330
105
100
AcDbEntity
  8
DV3_Default
  6
Continuous
 62
     7
100
AcDbCircle
 10
7.8175452941
 20
474.9514281569
 30
0.0
 40
0.2999999999999947
100
AcDbArc
 50
90.0
 51
173.4964886674
  0
ARC
  5
13E
330
105
100
AcDbEntity
  8
DV3_Default
  6
Continuous
 62
     7
100
AcDbCircle
 10
7.8175452941
 20
433.8514281569
 30
0.0
 40
0.3000000000000044
100
AcDbArc
 50
186.5035113326
 51
270.0
  0
ARC
  5
13F
330
105
100
AcDbEntity
  8
DV3_Default
  6
Continuous
 62
     7
100
AcDbCircle
 10
188.0843751093
 20
454.4014262265
 30
0.0
 40
181.7343751093264
100
AcDbArc
 50
173.4964889698
 51
186.5035104255
  0
ARC
  5
140
330
105
100
AcDbEntity
  8
DV3_Default
  6
Continuous
 62
     7
100
AcDbCircle
 10
84.3469309891
 20
454.4283138836
 30
0.0
 40
19.0
100
AcDbArc
 50
32.5088199118
 51
43.4082255229
  0
ARC
  5
141
330
105
100
AcDbEntity
  8
DV3_Default
  6
Continuous
 62
     7
100
AcDbCircle
 10
84.3469309891
 20
454.4283138836
 30
0.0
 40
19.0
100
AcDbArc
 50
316.5917744771
 51
340.8007563818
  0
ELLIPSE
  5
142
330
105
100
AcDbEntity
  8
DV3_Default
  6
Continuous
 62
     7
100
AcDbEllipse
 10
116.081450326
 20
522.5566938141
 30
0.0
 11
3.776332386060677
 21
0.004488469374452908
 31
0.0
210
0.0
220
0.0
230
1.0
 40
0.1381357258
 41
0.2492970988539689
 42
0.4283344672930671
  0
ELLIPSE
  5
143
330
105
100
AcDbEntity
  8
DV3_Default
  6
Continuous
 62
     7
100
AcDbEllipse
 10
116.081450326
 20
522.5566938141
 30
0.0
 11
3.776332386060677
 21
0.004488469374452908
 31
0.0
210
0.0
220
0.0
230
1.0
 40
0.1381357258
 41
-3.570558824956159
 42
-3.344281565450848
  0
ELLIPSE
  5
144
330
105
100
AcDbEntity
  8
DV3_Default
  6
Continuous
 62
     7
100
AcDbEllipse
 10
116.081784761
 20
522.2753200025
 30
0.0
 11
-3.97995499967077
 21
-0.004730490937132625
 31
0.0
210
0.0
220
0.0
230
1.0
 40
0.1381357258
 41
6.266059362464405
 42
6.283185307179586
  0
ELLIPSE
  5
145
330
105
100
AcDbEntity
  8
DV3_Default
  6
Continuous
 62
     7
100
AcDbEllipse
 10
123.6389750361
 20
456.3939335405
 30
0.0
 11
-0.01024297099237736
 21
-8.699993970201659
 31
0.0
210
0.0
220
0.0
230
1.0
 40
0.0169609344
 41
3.239237408708181
 42
6.185991287283802
  0
SPLINE
  5
146
330
105
100
AcDbEntity
  8
DV3_Default
  6
Continuous
 62
     7
100
AcDbSpline
210
0.0
220
0.0
230
1.0
 70
     8
 71
     3
 72
    18
 73
    14
 74
     0
 42
0.000000001
 43
0.0000000001
 40
0.0
 40
0.0
 40
0.0
 40
0.0
 40
0.1204902988006931
 40
0.1204902988006931
 40
0.2753132148919716
 40
0.2753132148919716
 40
0.43013613098325
 40
0.43013613098325
 40
0.5849590470745285
 40
0.5849590470745285
 40
0.739781963165807
 40
0.739781963165807
 40
1.0
 40
1.0
 40
1.0
 40
1.0
 10
102.2385244656638
 20
448.1989233348986
 30
0.0
 10
102.1784369699017
 20
448.4989481724924
 30
0.0
 10
102.1055549319079
 20
448.927234166826
 30
0.0
 10
101.917845224126
 20
450.1470410456098
 30
0.0
 10
101.7949377533993
 20
451.0207244664554
 30
0.0
 10
101.5365953433954
 20
452.9734115753913
 30
0.0
 10
101.3984491024407
 20
454.0724318249485
 30
0.0
 10
101.1285163388561
 20
456.3159009139546
 30
0.0
 10
100.995359286576
 20
457.471050073183
 30
0.0
 10
100.7530636014251
 20
459.6772298494288
 30
0.0
 10
100.6453291836846
 20
460.7147169384997
 30
0.0
 10
100.4102610048637
 20
463.1757548048009
 30
0.0
 10
100.3288812541227
 20
464.2962320072342
 30
0.0
 10
100.3298955116018
 20
464.8039038910514
 30
0.0
  0
LINE
  5
147
330
105
100
AcDbEntity
  8
DV3_Default
  6
Continuous
 62
     7
100
AcDbLine
 10
111.8966917815
 20
465.4077646001
 30
0.0
 11
100.5375766782
 21
465.4211382974
 31
0.0
  0
LINE
  5
148
330
105
100
AcDbEntity
  8
DV3_Default
  6
Continuous
 62
     7
100
AcDbLine
 10
123.349614575
 20
465.3942804579
 30
0.0
 11
120.4412761171
 21
465.3977046012
 31
0.0
  0
LINE
  5
149
330
105
100
AcDbEntity
  8
DV3_Default
  6
Continuous
 62
     7
100
AcDbLine
 10
102.5745860814
 20
447.4187275412
 30
0.0
 11
123.3284222212
 21
447.3942929333
 31
0.0
  0
LINE
  5
14A
330
105
100
AcDbEntity
  8
DV3_Default
  6
Continuous
 62
     7
100
AcDbLine
 10
112.1018297613
 20
522.2705895115
 30
0.0
 11
112.1689475787
 21
465.801631811
 31
0.0
  0
LINE
  5
14B
330
105
100
AcDbEntity
  8
DV3_Default
  6
Continuous
 62
     7
100
AcDbLine
 10
120.1288520398
 20
465.815752347
 30
0.0
 11
120.0617397607
 21
522.2800504934
 31
0.0
  0
ARC
  5
14C
330
105
100
AcDbEntity
  8
DV3_Default
  6
Continuous
 62
     7
100
AcDbCircle
 10
116.0973612621
 20
511.6432024652
 30
0.0
 40
11.64241454298375
100
AcDbArc
 50
73.071396723
 51
107.0345631044
  0
ARC
  5
14D
330
105
100
AcDbEntity
  8
DV3_Default
  6
Continuous
 62
     7
100
AcDbCircle
 10
112.5091737127
 20
522.2601510928
 30
0.0
 40
0.4084444201060793
100
AcDbArc
 50
119.4452256012
 51
172.1108706487
  0
SPLINE
  5
14E
330
105
100
AcDbEntity
  8
DV3_Default
  6
Continuous
 62
     7
100
AcDbSpline
210
0.0
220
0.0
230
1.0
 70
     8
 71
     3
 72
    11
 73
     7
 74
     0
 42
0.000000001
 43
0.0000000001
 40
0.0
 40
0.0
 40
0.0
 40
0.0
 40
0.1470176076981318
 40
0.4338172166698873
 40
0.7271858863488747
 40
1.0
 40
1.0
 40
1.0
 40
1.0
 10
120.0517697745335
 20
522.279731185134
 30
0.0
 10
120.0536499590933
 20
522.3128137278723
 30
0.0
 10
120.0581565725776
 20
522.3953828043457
 30
0.0
 10
119.9837143474933
 20
522.5210526060157
 30
0.0
 10
119.8906131872039
 20
522.6103597669147
 30
0.0
 10
119.8269131277855
 20
522.6464904461327
 30
0.0
 10
119.7905595038693
 20
522.6654846869807
 30
0.0
  0
SPLINE
  5
14F
330
105
100
AcDbEntity
  8
DV3_Default
  6
Continuous
 62
     7
100
AcDbSpline
210
0.0
220
0.0
230
1.0
 70
     8
 71
     3
 72
    12
 73
     8
 74
     0
 42
0.000000001
 43
0.0000000001
 40
0.0
 40
0.0
 40
0.0
 40
0.0
 40
0.1717118526808569
 40
0.4232285558695026
 40
0.6494307199689914
 40
0.8610193827670524
 40
0.9999999999999999
 40
0.9999999999999999
 40
0.9999999999999999
 40
0.9999999999999999
 10
112.1635059607713
 20
465.8015695391549
 30
0.0
 10
112.1627608335378
 20
465.7576790037083
 30
0.0
 10
112.1601800572367
 20
465.6680727857782
 30
0.0
 10
112.0620478991518
 20
465.5050739373435
 30
0.0
 10
111.9371037206014
 20
465.4248198220362
 30
0.0
 10
111.8744293796952
 20
465.4076164599794
 30
0.0
 10
111.8631749387942
 20
465.4068046360743
 30
0.0
 10
111.8631201283149
 20
465.4068523364445
 30
0.0
  0
ARC
  5
150
330
105
100
AcDbEntity
  8
DV3_Default
  6
Continuous
 62
     7
100
AcDbCircle
 10
120.548928942
 20
465.8023113762
 30
0.0
 40
0.4152584836533921
100
AcDbArc
 50
174.8706103489
 51
257.4084007433
  0
SPLINE
  5
151
330
105
100
AcDbEntity
  8
DV3_Default
  6
Continuous
 62
     7
100
AcDbSpline
210
0.0
220
0.0
230
1.0
 70
     8
 71
     3
 72
    13
 73
     9
 74
     0
 42
0.000000001
 43
0.0000000001
 40
0.0
 40
0.0
 40
0.0
 40
0.0
 40
0.1258955258239317
 40
0.2902359569897618
 40
0.4362561987897735
 40
0.5841627538427904
 40
0.7756805324033885
 40
1.0
 40
1.0
 40
1.0
 40
1.0
 10
123.3308687346003
 20
447.3996805755795
 30
0.0
 10
123.3617169881527
 20
447.3998564073552
 30
0.0
 10
123.422256857968
 20
447.4008618935299
 30
0.0
 10
123.5086370722227
 20
447.4480251343901
 30
0.0
 10
123.5684494358671
 20
447.5073117384474
 30
0.0
 10
123.602598403321
 20
447.5627069290383
 30
0.0
 10
123.6197107589992
 20
447.6052073144223
 30
0.0
 10
123.6260351193661
 20
447.6265190817394
 30
0.0
 10
123.6286854749172
 20
447.6367967398668
 30
0.0
  0
SPLINE
  5
152
330
105
100
AcDbEntity
  8
DV3_Default
  6
Continuous
 62
     7
100
AcDbSpline
210
0.0
220
0.0
230
1.0
 70
     8
 71
     3
 72
    14
 73
    10
 74
     0
 42
0.000000001
 43
0.0000000001
 40
0.0
 40
0.0
 40
0.0
 40
0.0
 40
0.5139857296464588
 40
0.5139857296464588
 40
0.5139857296464588
 40
0.6782262012973597
 40
0.8183506850675815
 40
0.9666902411995953
 40
1.0
 40
1.0
 40
1.0
 40
1.0
 10
123.6472151196486
 20
465.1428682797124
 30
0.0
 10
123.6391972571407
 20
465.1817045761935
 30
0.0
 10
123.6389360793254
 20
465.1934739555378
 30
0.0
 10
123.6191691513291
 20
465.2300824593067
 30
0.0
 10
123.6089851100898
 20
465.2489433825704
 30
0.0
 10
123.5805175158793
 20
465.2961141689296
 30
0.0
 10
123.4932720795487
 20
465.364144388429
 30
0.0
 10
123.4036883464138
 20
465.3991087145974
 30
0.0
 10
123.3577533560451
 20
465.3912500120381
 30
0.0
 10
123.3479548000508
 20
465.3895372591163
 30
0.0
  0
SPLINE
  5
153
330
105
100
AcDbEntity
  8
DV3_Default
  6
Continuous
 62
     7
100
AcDbSpline
210
0.0
220
0.0
230
1.0
 70
     8
 71
     3
 72
    14
 73
    10
 74
     0
 42
0.000000001
 43
0.0000000001
 40
0.0
 40
0.0
 40
0.0
 40
0.0
 40
0.0404313005642161
 40
0.3393502934352007
 40
0.6432459533303172
 40
0.8095409732403857
 40
0.9010302056820741
 40
0.9761213748465501
 40
1.0
 40
1.0
 40
1.0
 40
1.0
 10
102.2328452611268
 20
448.0722721244068
 30
0.0
 10
102.2359984222243
 20
448.0558272557117
 30
0.0
 10
102.2587101325564
 20
447.9375371709507
 30
0.0
 10
102.2987474490733
 20
447.7688565661167
 30
0.0
 10
102.340004155693
 20
447.6252664571285
 30
0.0
 10
102.3765755363852
 20
447.5415580824941
 30
0.0
 10
102.420989192313
 20
447.4805197892911
 30
0.0
 10
102.5039025708856
 20
447.4163124252195
 30
0.0
 10
102.5587281194677
 20
447.425745399559
 30
0.0
 10
102.5742733735223
 20
447.4282782133619
 30
0.0
  0
SPLINE
  5
154
330
105
100
AcDbEntity
  8
DV3_Default
  6
Continuous
 62
     7
100
AcDbSpline
210
0.0
220
0.0
230
1.0
 70
     8
 71
     3
 72
    14
 73
    10
 74
     0
 42
0.000000001
 43
0.0000000001
 40
0.0
 40
0.0
 40
0.0
 40
0.0
 40
0.0420427429225451
 40
0.1324977489677055
 40
0.2197538988015789
 40
0.3335064001018183
 40
0.5241940541162239
 40
0.8817285637635626
 40
1.0
 40
1.0
 40
1.0
 40
1.0
 10
100.5384628088007
 20
465.4104738327866
 30
0.0
 10
100.5161749627637
 20
465.4129330572781
 30
0.0
 10
100.4570773256251
 20
465.4201041829476
 30
0.0
 10
100.3705870936124
 20
465.3489079235234
 30
0.0
 10
100.3362846570722
 20
465.2862885954917
 30
0.0
 10
100.3159528658748
 20
465.2243108683539
 30
0.0
 10
100.3026394743474
 20
465.13379827073
 30
0.0
 10
100.2952217256166
 20
465.0223297987874
 30
0.0
 10
100.2966380630201
 20
464.9082333308683
 30
0.0
 10
100.2971037351469
 20
464.8748915713376
 30
0.0
  0
ELLIPSE
  5
155
330
105
100
AcDbEntity
  8
DV3_Default
  6
Continuous
 62
     7
100
AcDbEllipse
 10
43.0999968266
 20
573.8883842712
 30
0.0
 11
8.349999999995006
 21
2.775557561562891E-14
 31
0.0
210
0.0
220
0.0
230
1.0
 40
0.1218693434
 41
4.537856055185149
 42
4.886921905584211
  0
ELLIPSE
  5
156
330
105
100
AcDbEntity
  8
DV3_Default
  6
Continuous
 62
     7
100
AcDbEllipse
 10
43.0999968266
 20
573.8883842712
 30
0.0
 11
-9.200000000001481
 21
0.0
 31
0.0
210
0.0
220
0.0
230
1.0
 40
0.1218693434
 41
1.396263401595495
 42
1.745329251994304
  0
ELLIPSE
  5
157
330
105
100
AcDbEntity
  8
DV3_Default
  6
Continuous
 62
     7
100
AcDbEllipse
 10
43.0999968266
 20
573.8883842712
 30
0.0
 11
9.199999999996665
 21
1.387778780781446E-13
 31
0.0
210
0.0
220
0.0
230
1.0
 40
0.1218693434
 41
-0.9599310885970604
 42
-0.6108652381981337
  0
ELLIPSE
  5
158
330
105
100
AcDbEntity
  8
DV3_Default
  6
Continuous
 62
     7
100
AcDbEllipse
 10
43.0999968266
 20
573.8883842712
 30
0.0
 11
8.349999999996395
 21
2.498001805406602E-13
 31
0.0
210
0.0
220
0.0
230
1.0
 40
0.1218693434
 41
-0.9599310885970835
 42
-0.6108652381981274
  0
LINE
  5
159
330
105
100
AcDbEntity
  8
DV3_Default
  6
Continuous
 62
     7
100
AcDbLine
 10
36.3419924613
 20
574.2769659559
 30
0.0
 11
36.3419924613
 21
573.4109524709
 31
0.0
  0
LINE
  5
15A
330
105
100
AcDbEntity
  8
DV3_Default
  6
Continuous
 62
     7
100
AcDbLine
 10
41.6673993609
 20
573.8411681006
 30
0.0
 11
41.6673993609
 21
572.9974914239
 31
0.0
  0
LINE
  5
15B
330
105
100
AcDbEntity
  8
DV3_Default
  6
Continuous
 62
     7
100
AcDbLine
 10
47.8320024265
 20
574.0455372858
 30
0.0
 11
47.8320024265
 21
573.1640453316
 31
0.0
  0
LINE
  5
15C
330
105
100
AcDbEntity
  8
DV3_Default
  6
Continuous
 62
     7
100
AcDbLine
 10
51.224660789
 20
574.0706417102
 30
0.0
 11
51.224660789
 21
573.8130491738
 31
0.0
  0
ELLIPSE
  5
15D
330
105
100
AcDbEntity
  8
DV3_Default
  6
Continuous
 62
     7
100
AcDbEllipse
 10
43.0999968266
 20
573.9876388864
 30
0.0
 11
-8.25000000000265
 21
-4.718447854656915E-13
 31
0.0
210
0.0
220
0.0
230
1.0
 40
0.1218693434
 41
2.967059728390386
 42
3.202693970279726
  0
ELLIPSE
  5
15E
330
105
100
AcDbEntity
  8
DV3_Default
  6
Continuous
 62
     7
100
AcDbEllipse
 10
43.0999968266
 20
573.9876388864
 30
0.0
 11
8.249999999997158
 21
4.718447854656915E-13
 31
0.0
210
0.0
220
0.0
230
1.0
 40
0.1218693434
 41
3.080491336899868
 42
3.316125578789244
  0
ELLIPSE
  5
15F
330
105
100
AcDbEntity
  8
DV3_Default
  6
Continuous
 62
     7
100
AcDbEllipse
 10
43.0999968266
 20
573.8883842712
 30
0.0
 11
-9.200000000004888
 21
-5.828670879282072E-13
 31
0.0
210
0.0
220
0.0
230
1.0
 40
0.1218693434
 41
0.6108652381978965
 42
0.9599310885966403
  0
ELLIPSE
  5
160
330
105
100
AcDbEntity
  8
DV3_Default
  6
Continuous
 62
     7
100
AcDbEllipse
 10
43.0999968266
 20
573.8883842712
 30
0.0
 11
-8.350000000002563
 21
-2.775557561562891E-13
 31
0.0
210
0.0
220
0.0
230
1.0
 40
0.1218693434
 41
0.6108652381979525
 42
0.9599310885967473
  0
LINE
  5
161
330
105
100
AcDbEntity
  8
DV3_Default
  6
Continuous
 62
     7
100
AcDbLine
 10
44.7149248789
 20
573.7647641924
 30
0.0
 11
44.7149248789
 21
572.8714726559
 31
0.0
  0
LINE
  5
162
330
105
100
AcDbEntity
  8
DV3_Default
  6
Continuous
 62
     7
100
AcDbLine
 10
50.7181108385
 20
574.1586469071
 30
0.0
 11
50.7181108385
 21
573.337556018
 31
0.0
  0
LINE
  5
163
330
105
100
AcDbEntity
  8
DV3_Default
  6
Continuous
 62
     7
100
AcDbLine
 10
38.3679912267
 20
574.0393743182
 30
0.0
 11
38.3679912267
 21
573.1640453316
 31
0.0
  0
ELLIPSE
  5
164
330
105
100
AcDbEntity
  8
DV3_Default
  6
Continuous
 62
     7
100
AcDbEllipse
 10
38.3106335831
 20
573.1540623794
 30
0.0
 11
0.008502482488239108
 21
0.09963788331515677
 31
0.0
210
0.0
220
0.0
230
1.0
 40
0.5693010846
 41
3.290377241921551
 42
4.861173568718917
  0
LINE
  5
165
330
105
100
AcDbEntity
  8
DV3_Default
  6
Continuous
 62
     7
100
AcDbLine
 10
38.3106335831
 20
573.0548077643
 30
0.0
 11
37.8230936122
 21
572.9699526708
 31
0.0
  0
LINE
  5
166
330
105
100
AcDbEntity
  8
DV3_Default
  6
Continuous
 62
     7
100
AcDbLine
 10
41.5024335921
 20
572.7842198282
 30
0.0
 11
41.6500345431
 21
572.8862350213
 31
0.0
  0
ELLIPSE
  5
167
330
105
100
AcDbEntity
  8
DV3_Default
  6
Continuous
 62
     7
100
AcDbEllipse
 10
41.6500345431
 20
572.9854896365
 30
0.0
 11
-0.002148389361845277
 21
-0.09997691945221043
 31
0.0
210
0.0
220
0.0
230
1.0
 40
0.1723538305
 41
0.1240386356233714
 42
1.694834962423249
  0
LINE
  5
168
330
105
100
AcDbEntity
  8
DV3_Default
  6
Continuous
 62
     7
100
AcDbLine
 10
41.4850687743
 20
573.7647641924
 30
0.0
 11
41.4850687743
 21
572.8714726559
 31
0.0
  0
ELLIPSE
  5
169
330
105
100
AcDbEntity
  8
DV3_Default
  6
Continuous
 62
     7
100
AcDbEllipse
 10
41.5024335921
 20
572.8834744434
 30
0.0
 11
0.002148389361848096
 21
0.09997691945215492
 31
0.0
210
0.0
220
0.0
230
1.0
 40
0.1723538305
 41
1.694834962423325
 42
3.265631289227492
  0
LINE
  5
16A
330
105
100
AcDbEntity
  8
DV3_Default
  6
Continuous
 62
     7
100
AcDbLine
 10
41.4850687743
 20
573.7647641924
 30
0.0
 11
41.5982098076
 21
573.8429622275
 31
0.0
  0
ELLIPSE
  5
16B
330
105
100
AcDbEntity
  8
DV3_Default
  6
Continuous
 62
     7
100
AcDbEllipse
 10
43.0999968266
 20
574.8809304228
 30
0.0
 11
-8.449999999998948
 21
8.326672684688674E-14
 31
0.0
210
0.0
220
0.0
230
1.0
 40
0.1218693434
 41
0.9764097268956053
 42
1.020941356171017
  0
ELLIPSE
  5
16C
330
105
100
AcDbEntity
  8
DV3_Default
  6
Continuous
 62
     7
100
AcDbEllipse
 10
43.0999968266
 20
574.8809304228
 30
0.0
 11
-9.299999999999065
 21
0.0
 31
0.0
210
0.0
220
0.0
230
1.0
 40
0.1218693434
 41
1.036985342409977
 42
1.396263401595518
  0
ELLIPSE
  5
16D
330
105
100
AcDbEntity
  8
DV3_Default
  6
Continuous
 62
     7
100
AcDbEllipse
 10
34.876852089
 20
573.8109329349
 30
0.0
 11
0.05685690096533282
 21
0.08226355701412835
 31
0.0
210
0.0
220
0.0
230
1.0
 40
0.9774671454
 41
3.757059911442711
 42
5.32785623823829
  0
LINE
  5
16E
330
105
100
AcDbEntity
  8
DV3_Default
  6
Continuous
 62
     7
100
AcDbLine
 10
34.876852089
 20
573.7116783197
 30
0.0
 11
34.0397654989
 21
573.6936902888
 31
0.0
  0
ELLIPSE
  5
16F
330
105
100
AcDbEntity
  8
DV3_Default
  6
Continuous
 62
     7
100
AcDbEllipse
 10
34.0397654989
 20
573.7929449039
 30
0.0
 11
0.05685690096474475
 21
0.08226355701451696
 31
0.0
210
0.0
220
0.0
230
1.0
 40
0.9774671454
 41
2.186263584641515
 42
3.757059911435755
  0
LINE
  5
170
330
105
100
AcDbEntity
  8
DV3_Default
  6
Continuous
 62
     7
100
AcDbLine
 10
34.9753328643
 20
574.0706417102
 30
0.0
 11
34.9753328643
 21
573.8130491738
 31
0.0
  0
ELLIPSE
  5
171
330
105
100
AcDbEntity
  8
DV3_Default
  6
Continuous
 62
     7
100
AcDbEllipse
 10
36.2600772568
 20
573.4039623325
 30
0.0
 11
-0.01714697111692733
 21
-0.09851893920215238
 31
0.0
210
0.0
220
0.0
230
1.0
 40
0.8130462092
 41
0.2108855017936344
 42
1.781681828591693
  0
LINE
  5
172
330
105
100
AcDbEntity
  8
DV3_Default
  6
Continuous
 62
     7
100
AcDbLine
 10
35.4818828148
 20
574.1586469071
 30
0.0
 11
35.4818828148
 21
573.337556018
 31
0.0
  0
ELLIPSE
  5
173
330
105
100
AcDbEntity
  8
DV3_Default
  6
Continuous
 62
     7
100
AcDbEllipse
 10
35.5637980192
 20
573.3445461564
 30
0.0
 11
0.01714697111692039
 21
0.09851893920215238
 31
0.0
210
0.0
220
0.0
230
1.0
 40
0.8130462092
 41
1.781681828591628
 42
3.352478155383316
  0
LINE
  5
174
330
105
100
AcDbEntity
  8
DV3_Default
  6
Continuous
 62
     7
100
AcDbLine
 10
35.5637980192
 20
573.2452915412
 30
0.0
 11
36.2600772568
 21
573.3047077174
 31
0.0
  0
ELLIPSE
  5
175
330
105
100
AcDbEntity
  8
DV3_Default
  6
Continuous
 62
     7
100
AcDbEllipse
 10
49.9399163965
 20
573.4039623325
 30
0.0
 11
-0.01714697111692819
 21
0.09851893920215238
 31
0.0
210
0.0
220
0.0
230
1.0
 40
0.8130462092
 41
1.359910824996948
 42
2.930707151796028
  0
LINE
  5
176
330
105
100
AcDbEntity
  8
DV3_Default
  6
Continuous
 62
     7
100
AcDbLine
 10
49.9399163965
 20
573.3047077174
 30
0.0
 11
50.6361956341
 21
573.2452915412
 31
0.0
  0
ELLIPSE
  5
177
330
105
100
AcDbEntity
  8
DV3_Default
  6
Continuous
 62
     7
100
AcDbEllipse
 10
50.6361956341
 20
573.3445461564
 30
0.0
 11
-0.01714697111691258
 21
0.09851893920215236
 31
0.0
210
0.0
220
0.0
230
1.0
 40
0.8130462092
 41
2.930707151796395
 42
4.501503478586873
  0
LINE
  5
178
330
105
100
AcDbEntity
  8
DV3_Default
  6
Continuous
 62
     7
100
AcDbLine
 10
49.858001192
 20
574.2769659559
 30
0.0
 11
49.858001192
 21
573.4109524709
 31
0.0
  0
ELLIPSE
  5
179
330
105
100
AcDbEntity
  8
DV3_Default
  6
Continuous
 62
     7
100
AcDbEllipse
 10
51.3231415643
 20
573.8109329349
 30
0.0
 11
0.0568569009651316
 21
-0.08226355701426714
 31
0.0
210
0.0
220
0.0
230
1.0
 40
0.9774671454
 41
4.096921722533477
 42
5.66771804932892
  0
ELLIPSE
  5
17A
330
105
100
AcDbEntity
  8
DV3_Default
  6
Continuous
 62
     7
100
AcDbEllipse
 10
52.1602281544
 20
573.7929449039
 30
0.0
 11
-0.05685690096447413
 21
0.08226355701476673
 31
0.0
210
0.0
220
0.0
230
1.0
 40
0.9774671454
 41
2.526125395746035
 42
4.096921722542849
  0
LINE
  5
17B
330
105
100
AcDbEntity
  8
DV3_Default
  6
Continuous
 62
     7
100
AcDbLine
 10
52.1602281544
 20
573.6936902888
 30
0.0
 11
51.3231415643
 21
573.7116783197
 31
0.0
  0
ELLIPSE
  5
17C
330
105
100
AcDbEntity
  8
DV3_Default
  6
Continuous
 62
     7
100
AcDbEllipse
 10
44.5499591102
 20
572.9854896365
 30
0.0
 11
-0.002148389361848963
 21
0.09997691945215492
 31
0.0
210
0.0
220
0.0
230
1.0
 40
0.1723538305
 41
1.446757691165322
 42
3.017554017952092
  0
LINE
  5
17D
330
105
100
AcDbEntity
  8
DV3_Default
  6
Continuous
 62
     7
100
AcDbLine
 10
44.5499591102
 20
572.8862350213
 30
0.0
 11
44.6975600612
 21
572.7842198282
 31
0.0
  0
ELLIPSE
  5
17E
330
105
100
AcDbEntity
  8
DV3_Default
  6
Continuous
 62
     7
100
AcDbEllipse
 10
44.6975600612
 20
572.8834744434
 30
0.0
 11
-0.002148389361842241
 21
0.09997691945221045
 31
0.0
210
0.0
220
0.0
230
1.0
 40
0.1723538305
 41
3.017554017956975
 42
4.588350344755201
  0
LINE
  5
17F
330
105
100
AcDbEntity
  8
DV3_Default
  6
Continuous
 62
     7
100
AcDbLine
 10
44.5325942924
 20
573.8411681006
 30
0.0
 11
44.5325942924
 21
572.9974914239
 31
0.0
  0
ELLIPSE
  5
180
330
105
100
AcDbEntity
  8
DV3_Default
  6
Continuous
 62
     7
100
AcDbEllipse
 10
47.8893600702
 20
573.1540623794
 30
0.0
 11
0.008502482488226099
 21
-0.09963788331521228
 31
0.0
210
0.0
220
0.0
230
1.0
 40
0.5693010846
 41
4.56360439205177
 42
6.134400718853096
  0
LINE
  5
181
330
105
100
AcDbEntity
  8
DV3_Default
  6
Continuous
 62
     7
100
AcDbLine
 10
48.3769000411
 20
572.9699526708
 30
0.0
 11
47.8893600702
 21
573.0548077643
 31
0.0
  0
ELLIPSE
  5
182
330
105
100
AcDbEntity
  8
DV3_Default
  6
Continuous
 62
     7
100
AcDbEllipse
 10
43.0999968266
 20
574.8809304228
 30
0.0
 11
8.450000000001113
 21
-8.326672684688674E-14
 31
0.0
210
0.0
220
0.0
230
1.0
 40
0.1218693434
 41
-1.085794740481375
 42
-0.9764097268955849
  0
LINE
  5
183
330
105
100
AcDbEntity
  8
DV3_Default
  6
Continuous
 62
     7
100
AcDbLine
 10
44.6017838457
 20
573.8429622275
 30
0.0
 11
44.7149248789
 21
573.7647641924
 31
0.0
  0
ELLIPSE
  5
184
330
105
100
AcDbEntity
  8
DV3_Default
  6
Continuous
 62
     7
100
AcDbEllipse
 10
43.0999968266
 20
574.8809304228
 30
0.0
 11
9.299999999999073
 21
2.775557561562892E-14
 31
0.0
210
0.0
220
0.0
230
1.0
 40
0.1218693434
 41
-1.396263401595531
 42
-1.036985342409983
  0
ELLIPSE
  5
185
330
105
100
AcDbEntity
  8
DV3_Default
  6
Continuous
 62
     7
100
AcDbEllipse
 10
43.0999968266
 20
574.6824211925
 30
0.0
 11
6.900000000000001
 21
0.0
 31
0.0
210
0.0
220
0.0
230
1.0
 40
0.1218693434
 41
3.571940548225806
 42
5.852837412543573
  0
ELLIPSE
  5
186
330
105
100
AcDbEntity
  8
DV3_Default
  6
Continuous
 62
     7
100
AcDbEllipse
 10
43.0999968266
 20
574.7816758077
 30
0.0
 11
6.900000000000001
 21
0.0
 31
0.0
210
0.0
220
0.0
230
1.0
 40
0.1218693434
 41
3.665129811985105
 42
5.759648148784271
  0
ARC
  5
187
330
105
100
AcDbEntity
  8
DV3_Default
  6
Continuous
 62
     7
100
AcDbCircle
 10
39.0437467323
 20
574.5854689149
 30
0.0
 40
0.1084481246792414
100
AcDbArc
 50
238.6101891155
 51
264.5302058226
  0
ARC
  5
188
330
105
100
AcDbEntity
  8
DV3_Default
  6
Continuous
 62
     7
100
AcDbCircle
 10
40.1691786136
 20
574.5279983156
 30
0.0
 40
0.1342508312764213
100
AcDbArc
 50
179.5586035591
 51
238.7334986769
  0
ARC
  5
189
330
105
100
AcDbEntity
  8
DV3_Default
  6
Continuous
 62
     7
100
AcDbCircle
 10
40.1584796938
 20
574.5252195023
 30
0.0
 40
0.1265572867221351
100
AcDbArc
 50
242.2229028516
 51
266.4222390683
  0
ELLIPSE
  5
18A
330
105
100
AcDbEntity
  8
DV3_Default
  6
Continuous
 62
     7
100
AcDbEllipse
 10
40.4932603613
 20
574.5953109988
 30
0.0
 11
0.1443375672973892
 21
1.110223024625157E-13
 31
0.0
210
0.0
220
0.0
230
1.0
 40
0.8595701818
 41
4.471584883566607
 42
4.712388980384078
  0
ARC
  5
18B
330
105
100
AcDbEntity
  8
DV3_Default
  6
Continuous
 62
     7
100
AcDbCircle
 10
41.389285095
 20
574.4742094339
 30
0.0
 40
0.1286312715346142
100
AcDbArc
 50
185.3027124091
 51
243.5928865076
  0
ARC
  5
18C
330
105
100
AcDbEntity
  8
DV3_Default
  6
Continuous
 62
     7
100
AcDbCircle
 10
41.3935045294
 20
574.4940643773
 30
0.0
 40
0.148377065437852
100
AcDbArc
 50
245.5438028747
 51
268.0375607572
  0
ELLIPSE
  5
18D
330
105
100
AcDbEntity
  8
DV3_Default
  6
Continuous
 62
     7
100
AcDbEllipse
 10
41.6104331321
 20
574.5167052723
 30
0.0
 11
0.1443375672974063
 21
0.0
 31
0.0
210
0.0
220
0.0
230
1.0
 40
0.8595701817
 41
4.471584883567349
 42
4.71238898038469
  0
ARC
  5
18E
330
105
100
AcDbEntity
  8
DV3_Default
  6
Continuous
 62
     7
100
AcDbCircle
 10
42.6927912835
 20
574.4892049922
 30
0.0
 40
0.1677137281172403
100
AcDbArc
 50
258.0062822307
 51
269.8186988701
  0
ARC
  5
18F
330
105
100
AcDbEntity
  8
DV3_Default
  6
Continuous
 62
     7
100
AcDbCircle
 10
43.4800254811
 20
574.4496829857
 30
0.0
 40
0.1234186688164492
100
AcDbArc
 50
182.5678403519
 51
251.6307479696
  0
ARC
  5
190
330
105
100
AcDbEntity
  8
DV3_Default
  6
Continuous
 62
     7
100
AcDbCircle
 10
43.5067673649
 20
574.5217229996
 30
0.0
 40
0.2002332245727734
100
AcDbArc
 50
250.8648332684
 51
270.2763317446
  0
ELLIPSE
  5
191
330
105
100
AcDbEntity
  8
DV3_Default
  6
Continuous
 62
     7
100
AcDbEllipse
 10
43.8447786739
 20
574.5167052723
 30
0.0
 11
0.144337567297407
 21
0.0
 31
0.0
210
0.0
220
0.0
230
1.0
 40
0.8595701817
 41
4.471584883567399
 42
4.71238898038469
  0
ELLIPSE
  5
192
330
105
100
AcDbEntity
  8
DV3_Default
  6
Continuous
 62
     7
100
AcDbEllipse
 10
40.1208694376
 20
574.6739167253
 30
0.0
 11
-0.1443375672974174
 21
-1.387778780781446E-13
 31
0.0
210
0.0
220
0.0
230
1.0
 40
0.8595701817
 41
1.570796326795301
 42
1.811600423611443
  0
ELLIPSE
  5
193
330
105
100
AcDbEntity
  8
DV3_Default
  6
Continuous
 62
     7
100
AcDbEllipse
 10
40.4932603613
 20
574.5953109988
 30
0.0
 11
-0.01302602499762611
 21
-0.1247801687485062
 31
0.0
210
0.0
220
0.0
230
1.0
 40
0.568868369
 41
0.1814885722268471
 42
1.452478472552281
  0
ELLIPSE
  5
194
330
105
100
AcDbEntity
  8
DV3_Default
  6
Continuous
 62
     7
100
AcDbEllipse
 10
41.2380422085
 20
574.5953109988
 30
0.0
 11
0.01302602499759923
 21
-0.1247801687485339
 31
0.0
210
0.0
220
0.0
230
1.0
 40
0.568868369
 41
4.530900408155706
 42
6.101696734951178
  0
ELLIPSE
  5
195
330
105
100
AcDbEntity
  8
DV3_Default
  6
Continuous
 62
     7
100
AcDbEllipse
 10
41.2380422085
 20
574.5953109988
 30
0.0
 11
0.1443375672974065
 21
1.665334536937735E-13
 31
0.0
210
0.0
220
0.0
230
1.0
 40
0.8595701817
 41
4.71238898038488
 42
4.953193077200988
  0
ELLIPSE
  5
196
330
105
100
AcDbEntity
  8
DV3_Default
  6
Continuous
 62
     7
100
AcDbEllipse
 10
41.6104331321
 20
574.5167052723
 30
0.0
 11
-0.01302602499761506
 21
-0.1247801687485339
 31
0.0
210
0.0
220
0.0
230
1.0
 40
0.568868369
 41
0.1814885722285515
 42
1.75228489902304
  0
ELLIPSE
  5
197
330
105
100
AcDbEntity
  8
DV3_Default
  6
Continuous
 62
     7
100
AcDbEllipse
 10
42.3552149794
 20
574.5167052723
 30
0.0
 11
0.01302602499759619
 21
-0.1247801687485339
 31
0.0
210
0.0
220
0.0
230
1.0
 40
0.568868369
 41
4.530900408156635
 42
6.101696734951173
  0
ELLIPSE
  5
198
330
105
100
AcDbEntity
  8
DV3_Default
  6
Continuous
 62
     7
100
AcDbEllipse
 10
42.727605903
 20
574.5953109988
 30
0.0
 11
0.1443375672974066
 21
0.0
 31
0.0
210
0.0
220
0.0
230
1.0
 40
0.8595701817
 41
4.471584883567399
 42
4.712388980384739
  0
ELLIPSE
  5
199
330
105
100
AcDbEntity
  8
DV3_Default
  6
Continuous
 62
     7
100
AcDbEllipse
 10
42.3552149794
 20
574.6739167253
 30
0.0
 11
-0.1443375672974068
 21
-2.775557561562891E-14
 31
0.0
210
0.0
220
0.0
230
1.0
 40
0.8595701817
 41
1.570796326794731
 42
1.811600423612072
  0
ELLIPSE
  5
19A
330
105
100
AcDbEntity
  8
DV3_Default
  6
Continuous
 62
     7
100
AcDbEllipse
 10
42.727605903
 20
574.5953109988
 30
0.0
 11
-0.01302602499762075
 21
-0.1247801687485062
 31
0.0
210
0.0
220
0.0
230
1.0
 40
0.568868369
 41
0.1814885722269945
 42
1.752284899023106
  0
ELLIPSE
  5
19B
330
105
100
AcDbEntity
  8
DV3_Default
  6
Continuous
 62
     7
100
AcDbEllipse
 10
43.4723877503
 20
574.5953109988
 30
0.0
 11
0.01302602499759868
 21
-0.1247801687485339
 31
0.0
210
0.0
220
0.0
230
1.0
 40
0.568868369
 41
4.530900408155707
 42
6.101696734951182
  0
ELLIPSE
  5
19C
330
105
100
AcDbEntity
  8
DV3_Default
  6
Continuous
 62
     7
100
AcDbEllipse
 10
40.1208694376
 20
574.6739167253
 30
0.0
 11
0.0130260249976027
 21
-0.1247801687485339
 31
0.0
210
0.0
220
0.0
230
1.0
 40
0.568868369
 41
5.874195848824727
 42
6.101696734951179
  0
ELLIPSE
  5
19D
330
105
100
AcDbEntity
  8
DV3_Default
  6
Continuous
 62
     7
100
AcDbEllipse
 10
41.6104331321
 20
574.6739167253
 30
0.0
 11
-0.01302602499759294
 21
-0.1247801687485339
 31
0.0
210
0.0
220
0.0
230
1.0
 40
0.568868369
 41
0.1814885722284165
 42
1.013166472560544
  0
ELLIPSE
  5
19E
330
105
100
AcDbEntity
  8
DV3_Default
  6
Continuous
 62
     7
100
AcDbEllipse
 10
42.3552149794
 20
574.6739167253
 30
0.0
 11
0.01302602499762091
 21
-0.1247801687485062
 31
0.0
210
0.0
220
0.0
230
1.0
 40
0.568868369
 41
5.18376317875916
 42
6.101696734952592
  0
ARC
  5
19F
330
105
100
AcDbEntity
  8
DV3_Default
  6
Continuous
 62
     7
100
AcDbCircle
 10
44.8072330218
 20
574.4642676698
 30
0.0
 40
0.1185726830171099
100
AcDbArc
 50
257.8765574692
 51
272.096244051
  0
ARC
  5
1A0
330
105
100
AcDbEntity
  8
DV3_Default
  6
Continuous
 62
     7
100
AcDbCircle
 10
46.0432909495
 20
574.4951372046
 30
0.0
 40
0.0964227846586102
100
AcDbArc
 50
257.8074778244
 51
273.6393827666
  0
ARC
  5
1A1
330
105
100
AcDbEntity
  8
DV3_Default
  6
Continuous
 62
     7
100
AcDbCircle
 10
47.1592493906
 20
574.5547286911
 30
0.0
 40
0.0775616975755737
100
AcDbArc
 50
257.7345501429
 51
275.4264981843
  0
ELLIPSE
  5
1A2
330
105
100
AcDbEntity
  8
DV3_Default
  6
Continuous
 62
     7
100
AcDbEllipse
 10
43.8447786739
 20
574.6739167253
 30
0.0
 11
-0.01302602499760899
 21
-0.1247801687485339
 31
0.0
210
0.0
220
0.0
230
1.0
 40
0.568868369
 41
0.1814885722284636
 42
1.099422133022489
  0
ELLIPSE
  5
1A3
330
105
100
AcDbEntity
  8
DV3_Default
  6
Continuous
 62
     7
100
AcDbEllipse
 10
44.5895605212
 20
574.6739167253
 30
0.0
 11
0.01302602499763023
 21
-0.1247801687485062
 31
0.0
210
0.0
220
0.0
230
1.0
 40
0.568868369
 41
5.27001883779243
 42
6.10169673495254
  0
ELLIPSE
  5
1A4
330
105
100
AcDbEntity
  8
DV3_Default
  6
Continuous
 62
     7
100
AcDbEllipse
 10
46.0791242157
 20
574.6739167253
 30
0.0
 11
-0.144337567297417
 21
0.0
 31
0.0
210
0.0
220
0.0
230
1.0
 40
0.8595701817
 41
1.329992229977574
 42
1.570796326794897
  0
ELLIPSE
  5
1A5
330
105
100
AcDbEntity
  8
DV3_Default
  6
Continuous
 62
     7
100
AcDbEllipse
 10
44.5895605212
 20
574.6739167253
 30
0.0
 11
-0.1443375672974226
 21
-2.775557561562891E-14
 31
0.0
210
0.0
220
0.0
230
1.0
 40
0.8595701817
 41
1.570796326796011
 42
1.811600423611893
  0
ELLIPSE
  5
1A6
330
105
100
AcDbEntity
  8
DV3_Default
  6
Continuous
 62
     7
100
AcDbEllipse
 10
44.9619514448
 20
574.5953109988
 30
0.0
 11
-0.0130260249976053
 21
-0.1247801687485339
 31
0.0
210
0.0
220
0.0
230
1.0
 40
0.568868369
 41
0.1814885722284609
 42
1.752284899022998
  0
ELLIPSE
  5
1A7
330
105
100
AcDbEntity
  8
DV3_Default
  6
Continuous
 62
     7
100
AcDbEllipse
 10
45.706733292
 20
574.5953109988
 30
0.0
 11
0.01302602499762221
 21
-0.1247801687485062
 31
0.0
210
0.0
220
0.0
230
1.0
 40
0.568868369
 41
4.83070683464487
 42
6.101696734952678
  0
ELLIPSE
  5
1A8
330
105
100
AcDbEntity
  8
DV3_Default
  6
Continuous
 62
     7
100
AcDbEllipse
 10
43.4723877503
 20
574.5953109988
 30
0.0
 11
0.1443375672974067
 21
2.775557561562891E-14
 31
0.0
210
0.0
220
0.0
230
1.0
 40
0.8595701817
 41
4.712388980385312
 42
4.953193077201814
  0
ELLIPSE
  5
1A9
330
105
100
AcDbEntity
  8
DV3_Default
  6
Continuous
 62
     7
100
AcDbEllipse
 10
43.8447786739
 20
574.5167052723
 30
0.0
 11
-0.01302602499761777
 21
-0.1247801687485339
 31
0.0
210
0.0
220
0.0
230
1.0
 40
0.568868369
 41
0.1814885722286084
 42
1.752284899023968
  0
ELLIPSE
  5
1AA
330
105
100
AcDbEntity
  8
DV3_Default
  6
Continuous
 62
     7
100
AcDbEllipse
 10
44.5895605212
 20
574.5167052723
 30
0.0
 11
0.01302602499762048
 21
-0.1247801687485062
 31
0.0
210
0.0
220
0.0
230
1.0
 40
0.568868369
 41
4.530900408155565
 42
6.101696734952593
  0
ELLIPSE
  5
1AB
330
105
100
AcDbEntity
  8
DV3_Default
  6
Continuous
 62
     7
100
AcDbEllipse
 10
44.9619514448
 20
574.5953109988
 30
0.0
 11
0.1443375672974065
 21
0.0
 31
0.0
210
0.0
220
0.0
230
1.0
 40
0.8595701817
 41
4.471584883567349
 42
4.71238898038469
  0
LINE
  5
1AC
330
105
100
AcDbEntity
  8
DV3_Default
  6
Continuous
 62
     7
100
AcDbLine
 10
44.5173917375
 20
574.5319389403
 30
0.0
 11
44.5173917375
 21
574.5489167253
 31
0.0
  0
LINE
  5
1AD
330
105
100
AcDbEntity
  8
DV3_Default
  6
Continuous
 62
     7
100
AcDbLine
 10
43.9169474575
 20
574.5319389403
 30
0.0
 11
43.9169474575
 21
574.5489167253
 31
0.0
  0
ELLIPSE
  5
1AE
330
105
100
AcDbEntity
  8
DV3_Default
  6
Continuous
 62
     7
100
AcDbEllipse
 10
46.0791242157
 20
574.6739167253
 30
0.0
 11
-0.01302602499764693
 21
-0.1247801687485062
 31
0.0
210
0.0
220
0.0
230
1.0
 40
0.568868369
 41
0.1814885722272299
 42
0.4089894592885032
  0
ARC
  5
1AF
330
105
100
AcDbEntity
  8
DV3_Default
  6
Continuous
 62
     7
100
AcDbCircle
 10
47.155795744
 20
574.5868228512
 30
0.0
 40
0.1098393689265399
100
AcDbArc
 50
275.6367502167
 51
301.2228548451
  0
ELLIPSE
  5
1B0
330
105
100
AcDbEntity
  8
DV3_Default
  6
Continuous
 62
     7
100
AcDbEllipse
 10
43.0999968266
 20
575.1907255286
 30
0.0
 11
7.05000000000845
 21
3.053113317719180E-13
 31
0.0
210
0.0
220
0.0
230
1.0
 40
0.1218693434
 41
-0.9479285008810461
 42
-0.9367404229817762
  0
ARC
  5
1B1
330
105
100
AcDbEntity
  8
DV3_Default
  6
Continuous
 62
     7
100
AcDbCircle
 10
46.0415100303
 20
574.525233502
 30
0.0
 40
0.1265715043879483
100
AcDbArc
 50
273.5791406446
 51
297.7757174354
  0
ARC
  5
1B2
330
105
100
AcDbEntity
  8
DV3_Default
  6
Continuous
 62
     7
100
AcDbCircle
 10
46.0311293573
 20
574.5278230376
 30
0.0
 40
0.133937991163633
100
AcDbArc
 50
301.1904875596
 51
0.5174102042
  0
ELLIPSE
  5
1B3
330
105
100
AcDbEntity
  8
DV3_Default
  6
Continuous
 62
     7
100
AcDbEllipse
 10
45.706733292
 20
574.5953109988
 30
0.0
 11
0.1443375672973892
 21
5.551115123125783E-14
 31
0.0
210
0.0
220
0.0
230
1.0
 40
0.8595701817
 41
4.712388980384457
 42
4.95319307720178
  0
LINE
  5
1B4
330
105
100
AcDbEntity
  8
DV3_Default
  6
Continuous
 62
     7
100
AcDbLine
 10
46.1650618871
 20
574.5290325498
 30
0.0
 11
46.1650618871
 21
574.5489167253
 31
0.0
  0
ELLIPSE
  5
1B5
330
105
100
AcDbEntity
  8
DV3_Default
  6
Continuous
 62
     7
100
AcDbEllipse
 10
43.0999968266
 20
575.1907255286
 30
0.0
 11
7.050000000069894
 21
-5.551115123125783E-12
 31
0.0
210
0.0
220
0.0
230
1.0
 40
0.1218693434
 41
-1.131168830458197
 42
-0.9632262719278843
  0
ARC
  5
1B6
330
105
100
AcDbEntity
  8
DV3_Default
  6
Continuous
 62
     7
100
AcDbCircle
 10
44.8052141099
 20
574.4994964532
 30
0.0
 40
0.1538534662069172
100
AcDbArc
 50
272.3677116122
 51
294.0509247558
  0
ARC
  5
1B7
330
105
100
AcDbEntity
  8
DV3_Default
  6
Continuous
 62
     7
100
AcDbCircle
 10
44.8106200139
 20
574.4742647411
 30
0.0
 40
0.1287201991656109
100
AcDbArc
 50
296.4314649234
 51
354.775596932
  0
ELLIPSE
  5
1B8
330
105
100
AcDbEntity
  8
DV3_Default
  6
Continuous
 62
     7
100
AcDbEllipse
 10
44.5895605212
 20
574.5167052723
 30
0.0
 11
0.1443375672974063
 21
-1.110223024625157E-13
 31
0.0
210
0.0
220
0.0
230
1.0
 40
0.8595701818
 41
4.712388980386532
 42
4.953193077202692
  0
ELLIPSE
  5
1B9
330
105
100
AcDbEntity
  8
DV3_Default
  6
Continuous
 62
     7
100
AcDbEllipse
 10
43.0999968266
 20
575.1907255286
 30
0.0
 11
7.049999999998317
 21
3.330669073875470E-13
 31
0.0
210
0.0
220
0.0
230
1.0
 40
0.1218693434
 41
-1.317321979237235
 42
-1.146466601511904
  0
ARC
  5
1BA
330
105
100
AcDbEntity
  8
DV3_Default
  6
Continuous
 62
     7
100
AcDbCircle
 10
43.5084254977
 20
574.4828984207
 30
0.0
 40
0.1614078022076155
100
AcDbArc
 50
269.7542030211
 51
282.2147819806
  0
ELLIPSE
  5
1BB
330
105
100
AcDbEntity
  8
DV3_Default
  6
Continuous
 62
     7
100
AcDbEllipse
 10
43.0999968267
 20
575.1907255286
 30
0.0
 11
7.049999999956345
 21
1.665334536937735E-12
 31
0.0
210
0.0
220
0.0
230
1.0
 40
0.1218693434
 41
-1.504164168345279
 42
-1.333164033106777
  0
ELLIPSE
  5
1BC
330
105
100
AcDbEntity
  8
DV3_Default
  6
Continuous
 62
     7
100
AcDbEllipse
 10
43.8447786739
 20
574.6739167253
 30
0.0
 11
-0.1443375672974069
 21
0.0
 31
0.0
210
0.0
220
0.0
230
1.0
 40
0.8595701817
 41
1.329992229977607
 42
1.570796326794897
  0
LINE
  5
1BD
330
105
100
AcDbEntity
  8
DV3_Default
  6
Continuous
 62
     7
100
AcDbLine
 10
42.2830461957
 20
574.5319389403
 30
0.0
 11
42.2830461957
 21
574.5489167253
 31
0.0
  0
LINE
  5
1BE
330
105
100
AcDbEntity
  8
DV3_Default
  6
Continuous
 62
     7
100
AcDbLine
 10
41.6826019158
 20
574.5319389403
 30
0.0
 11
41.6826019158
 21
574.5489167253
 31
0.0
  0
ELLIPSE
  5
1BF
330
105
100
AcDbEntity
  8
DV3_Default
  6
Continuous
 62
     7
100
AcDbEllipse
 10
41.6104331321
 20
574.6739167253
 30
0.0
 11
-0.1443375672974228
 21
0.0
 31
0.0
210
0.0
220
0.0
230
1.0
 40
0.8595701817
 41
1.329992229977735
 42
1.570796326794897
  0
ARC
  5
1C0
330
105
100
AcDbEntity
  8
DV3_Default
  6
Continuous
 62
     7
100
AcDbCircle
 10
42.6930622162
 20
574.5227109307
 30
0.0
 40
0.2012204237887655
100
AcDbArc
 50
269.7717425399
 51
289.0870924471
  0
ARC
  5
1C1
330
105
100
AcDbEntity
  8
DV3_Default
  6
Continuous
 62
     7
100
AcDbCircle
 10
42.7178744026
 20
574.4512664507
 30
0.0
 40
0.1255900949307966
100
AcDbArc
 50
289.048143852
 51
356.7532678266
  0
ELLIPSE
  5
1C2
330
105
100
AcDbEntity
  8
DV3_Default
  6
Continuous
 62
     7
100
AcDbEllipse
 10
42.3552149794
 20
574.5167052723
 30
0.0
 11
0.1443375672974074
 21
1.665334536937735E-13
 31
0.0
210
0.0
220
0.0
230
1.0
 40
0.8595701817
 41
4.712388980383796
 42
4.953193077201037
  0
LINE
  5
1C3
330
105
100
AcDbEntity
  8
DV3_Default
  6
Continuous
 62
     7
100
AcDbLine
 10
42.8432629131
 20
574.4441535495
 30
0.0
 11
42.8432629131
 21
574.4703109988
 31
0.0
  0
ARC
  5
1C4
330
105
100
AcDbEntity
  8
DV3_Default
  6
Continuous
 62
     7
100
AcDbCircle
 10
43.0999968266
 20
632.1136289382
 30
0.0
 40
57.78208286198851
100
AcDbArc
 50
269.6617345552
 51
270.3382654448
  0
LINE
  5
1C5
330
105
100
AcDbEntity
  8
DV3_Default
  6
Continuous
 62
     7
100
AcDbLine
 10
43.3567307401
 20
574.4441535495
 30
0.0
 11
43.3567307401
 21
574.4703109988
 31
0.0
  0
ARC
  5
1C6
330
105
100
AcDbEntity
  8
DV3_Default
  6
Continuous
 62
     7
100
AcDbCircle
 10
41.3933175243
 20
574.4613482142
 30
0.0
 40
0.1156774530713041
100
AcDbArc
 50
267.5752131561
 51
282.2397967138
  0
ELLIPSE
  5
1C7
330
105
100
AcDbEntity
  8
DV3_Default
  6
Continuous
 62
     7
100
AcDbEllipse
 10
43.0999968267
 20
575.1907255286
 30
0.0
 11
-7.050000000039679
 21
-1.387778780781446E-12
 31
0.0
210
0.0
220
0.0
230
1.0
 40
0.1218693434
 41
1.333164033105967
 42
1.504164168342492
  0
ARC
  5
1C8
330
105
100
AcDbEntity
  8
DV3_Default
  6
Continuous
 62
     7
100
AcDbCircle
 10
40.1571215118
 20
574.4929157254
 30
0.0
 40
0.0942340277918046
100
AcDbArc
 50
266.0207494811
 51
282.2615841919
  0
ELLIPSE
  5
1C9
330
105
100
AcDbEntity
  8
DV3_Default
  6
Continuous
 62
     7
100
AcDbEllipse
 10
43.0999968267
 20
575.1907255286
 30
0.0
 11
-7.050000000020276
 21
-1.137978600240785E-12
 31
0.0
210
0.0
220
0.0
230
1.0
 40
0.1218693434
 41
1.146466601511274
 42
1.317321979236104
  0
ARC
  5
1CA
330
105
100
AcDbEntity
  8
DV3_Default
  6
Continuous
 62
     7
100
AcDbCircle
 10
39.0411037212
 20
574.5527947896
 30
0.0
 40
0.0756723886970016
100
AcDbArc
 50
264.1640783849
 51
282.3007593907
  0
ELLIPSE
  5
1CB
330
105
100
AcDbEntity
  8
DV3_Default
  6
Continuous
 62
     7
100
AcDbEllipse
 10
43.0999968266
 20
575.1907255286
 30
0.0
 11
-7.050000000004789
 21
-8.049116928532386E-13
 31
0.0
210
0.0
220
0.0
230
1.0
 40
0.1218693434
 41
0.9632262719307025
 42
1.131168830462235
  0
LINE
  5
1CC
330
105
100
AcDbEntity
  8
DV3_Default
  6
Continuous
 62
     7
100
AcDbLine
 10
40.0349317661
 20
574.5290325498
 30
0.0
 11
40.0349317661
 21
574.5489167253
 31
0.0
  0
ELLIPSE
  5
1CD
330
105
100
AcDbEntity
  8
DV3_Default
  6
Continuous
 62
     7
100
AcDbEllipse
 10
43.0999968266
 20
575.1907255286
 30
0.0
 11
-7.049999999954098
 21
2.498001805406602E-12
 31
0.0
210
0.0
220
0.0
230
1.0
 40
0.1218693434
 41
0.9367404229849248
 42
0.9479285008842102
  0
ELLIPSE
  5
1CE
330
105
100
AcDbEntity
  8
DV3_Default
  6
Continuous
 62
     7
100
AcDbEllipse
 10
43.0999968266
 20
574.6824211925
 30
0.0
 11
-7.049999999999999
 21
0.0
 31
0.0
210
0.0
220
0.0
230
1.0
 40
0.1218693434
 41
0.9671423537097636
 42
2.406339719293684
  0
LINE
  5
1CF
330
105
100
AcDbEntity
  8
DV3_Default
  6
Continuous
 62
     7
100
AcDbLine
 10
40.107820464
 20
574.5489167253
 30
0.0
 11
40.4588382187
 21
574.4748225306
 31
0.0
  0
LINE
  5
1D0
330
105
100
AcDbEntity
  8
DV3_Default
  6
Continuous
 62
     7
100
AcDbLine
 10
41.2249932349
 20
574.4703109988
 30
0.0
 11
41.5760109896
 21
574.3962168041
 31
0.0
  0
LINE
  5
1D1
330
105
100
AcDbEntity
  8
DV3_Default
  6
Continuous
 62
     7
100
AcDbLine
 10
42.3421660058
 20
574.3917052723
 30
0.0
 11
42.6579014025
 21
574.3250586151
 31
0.0
  0
LINE
  5
1D2
330
105
100
AcDbEntity
  8
DV3_Default
  6
Continuous
 62
     7
100
AcDbLine
 10
43.4593387767
 20
574.4703109988
 30
0.0
 11
43.8103565313
 21
574.3962168041
 31
0.0
  0
LINE
  5
1D3
330
105
100
AcDbEntity
  8
DV3_Default
  6
Continuous
 62
     7
100
AcDbLine
 10
42.7364010653
 20
574.4703109988
 30
0.0
 11
43.463592588
 21
574.4703109988
 31
0.0
  0
LINE
  5
1D4
330
105
100
AcDbEntity
  8
DV3_Default
  6
Continuous
 62
     7
100
AcDbLine
 10
40.1552915802
 20
574.5534282571
 30
0.0
 11
40.1846714479
 21
574.559629874
 31
0.0
  0
LINE
  5
1D5
330
105
100
AcDbEntity
  8
DV3_Default
  6
Continuous
 62
     7
100
AcDbLine
 10
41.6192282944
 20
574.5489167253
 30
0.0
 11
42.3464198171
 21
574.5489167253
 31
0.0
  0
LINE
  5
1D6
330
105
100
AcDbEntity
  8
DV3_Default
  6
Continuous
 62
     7
100
AcDbLine
 10
41.2724643511
 20
574.4748225306
 30
0.0
 11
41.6234821057
 21
574.5489167253
 31
0.0
  0
LINE
  5
1D7
330
105
100
AcDbEntity
  8
DV3_Default
  6
Continuous
 62
     7
100
AcDbLine
 10
42.3896371219
 20
574.5534282571
 30
0.0
 11
42.6746262105
 21
574.6135848638
 31
0.0
  0
LINE
  5
1D8
330
105
100
AcDbEntity
  8
DV3_Default
  6
Continuous
 62
     7
100
AcDbLine
 10
44.5765115476
 20
574.3917052723
 30
0.0
 11
44.7824606244
 21
574.3482327391
 31
0.0
  0
LINE
  5
1D9
330
105
100
AcDbEntity
  8
DV3_Default
  6
Continuous
 62
     7
100
AcDbLine
 10
45.6936843185
 20
574.4703109988
 30
0.0
 11
46.0231086215
 21
574.4007748339
 31
0.0
  0
LINE
  5
1DA
330
105
100
AcDbEntity
  8
DV3_Default
  6
Continuous
 62
     7
100
AcDbLine
 10
44.9707466071
 20
574.4703109988
 30
0.0
 11
45.6979381298
 21
574.4703109988
 31
0.0
  0
LINE
  5
1DB
330
105
100
AcDbEntity
  8
DV3_Default
  6
Continuous
 62
     7
100
AcDbLine
 10
46.9673831864
 20
574.5158765871
 30
0.0
 11
47.1429939705
 21
574.4788079789
 31
0.0
  0
LINE
  5
1DC
330
105
100
AcDbEntity
  8
DV3_Default
  6
Continuous
 62
     7
100
AcDbLine
 10
46.0879193779
 20
574.5489167253
 30
0.0
 11
46.2786931091
 21
574.5489167253
 31
0.0
  0
LINE
  5
1DD
330
105
100
AcDbEntity
  8
DV3_Default
  6
Continuous
 62
     7
100
AcDbLine
 10
46.0153222054
 20
574.559629874
 30
0.0
 11
46.0447020731
 21
574.5534282571
 31
0.0
  0
LINE
  5
1DE
330
105
100
AcDbEntity
  8
DV3_Default
  6
Continuous
 62
     7
100
AcDbLine
 10
44.6239826637
 20
574.5534282571
 30
0.0
 11
44.8244814086
 21
574.595750313
 31
0.0
  0
LINE
  5
1DF
330
105
100
AcDbEntity
  8
DV3_Default
  6
Continuous
 62
     7
100
AcDbLine
 10
44.5765115476
 20
574.5489167253
 30
0.0
 11
44.9275293022
 21
574.4748225306
 31
0.0
  0
LINE
  5
1E0
330
105
100
AcDbEntity
  8
DV3_Default
  6
Continuous
 62
     7
100
AcDbLine
 10
43.8535738362
 20
574.5489167253
 30
0.0
 11
44.5807653589
 21
574.5489167253
 31
0.0
  0
LINE
  5
1E1
330
105
100
AcDbEntity
  8
DV3_Default
  6
Continuous
 62
     7
100
AcDbLine
 10
43.5068098928
 20
574.4748225306
 30
0.0
 11
43.8578276475
 21
574.5489167253
 31
0.0
  0
LINE
  5
1E2
330
105
100
AcDbEntity
  8
DV3_Default
  6
Continuous
 62
     7
100
AcDbLine
 10
45.7411554346
 20
574.4748225306
 30
0.0
 11
46.0921731892
 21
574.5489167253
 31
0.0
  0
LINE
  5
1E3
330
105
100
AcDbEntity
  8
DV3_Default
  6
Continuous
 62
     7
100
AcDbLine
 10
44.6239826637
 20
574.3962168041
 30
0.0
 11
44.9750004184
 21
574.4703109988
 31
0.0
  0
LINE
  5
1E4
330
105
100
AcDbEntity
  8
DV3_Default
  6
Continuous
 62
     7
100
AcDbLine
 10
43.8535738362
 20
574.3917052723
 30
0.0
 11
44.5807653589
 21
574.3917052723
 31
0.0
  0
LINE
  5
1E5
330
105
100
AcDbEntity
  8
DV3_Default
  6
Continuous
 62
     7
100
AcDbLine
 10
43.5425384857
 20
574.3251528081
 30
0.0
 11
43.8578276475
 21
574.3917052723
 31
0.0
  0
LINE
  5
1E6
330
105
100
AcDbEntity
  8
DV3_Default
  6
Continuous
 62
     7
100
AcDbLine
 10
43.5253674428
 20
574.6135848638
 30
0.0
 11
43.8103565313
 21
574.5534282571
 31
0.0
  0
LINE
  5
1E7
330
105
100
AcDbEntity
  8
DV3_Default
  6
Continuous
 62
     7
100
AcDbLine
 10
42.3421660058
 20
574.5489167253
 30
0.0
 11
42.6931837605
 21
574.4748225306
 31
0.0
  0
LINE
  5
1E8
330
105
100
AcDbEntity
  8
DV3_Default
  6
Continuous
 62
     7
100
AcDbLine
 10
41.3755122447
 20
574.595750313
 30
0.0
 11
41.5760109896
 21
574.5534282571
 31
0.0
  0
LINE
  5
1E9
330
105
100
AcDbEntity
  8
DV3_Default
  6
Continuous
 62
     7
100
AcDbLine
 10
42.3896371219
 20
574.3962168041
 30
0.0
 11
42.7406548766
 21
574.4703109988
 31
0.0
  0
LINE
  5
1EA
330
105
100
AcDbEntity
  8
DV3_Default
  6
Continuous
 62
     7
100
AcDbLine
 10
41.6192282944
 20
574.3917052723
 30
0.0
 11
42.3464198171
 21
574.3917052723
 31
0.0
  0
LINE
  5
1EB
330
105
100
AcDbEntity
  8
DV3_Default
  6
Continuous
 62
     7
100
AcDbLine
 10
41.4178397217
 20
574.348297477
 30
0.0
 11
41.6234821057
 21
574.3917052723
 31
0.0
  0
LINE
  5
1EC
330
105
100
AcDbEntity
  8
DV3_Default
  6
Continuous
 62
     7
100
AcDbLine
 10
40.5020555235
 20
574.4703109988
 30
0.0
 11
41.2292470462
 21
574.4703109988
 31
0.0
  0
LINE
  5
1ED
330
105
100
AcDbEntity
  8
DV3_Default
  6
Continuous
 62
     7
100
AcDbLine
 10
40.177128253
 20
574.400826174
 30
0.0
 11
40.5063093348
 21
574.4703109988
 31
0.0
  0
LINE
  5
1EE
330
105
100
AcDbEntity
  8
DV3_Default
  6
Continuous
 62
     7
100
AcDbLine
 10
39.9213005442
 20
574.5489167253
 30
0.0
 11
40.1120742753
 21
574.5489167253
 31
0.0
  0
LINE
  5
1EF
330
105
100
AcDbEntity
  8
DV3_Default
  6
Continuous
 62
     7
100
AcDbLine
 10
39.0572171575
 20
574.4788538843
 30
0.0
 11
39.2326104669
 21
574.5158765871
 31
0.0
  0
SPLINE
  5
1F0
330
105
100
AcDbEntity
  8
DV3_Default
  6
Continuous
 62
     7
100
AcDbSpline
210
0.0
220
0.0
230
1.0
 70
     8
 71
     3
 72
    10
 73
     6
 74
     0
 42
0.000000001
 43
0.0000000001
 40
0.0
 40
0.0
 40
0.0
 40
0.0
 40
0.4167198860731171
 40
0.8418476711655757
 40
1.0
 40
1.0
 40
1.0
 40
1.0
 10
48.41838430121186
 20
574.1100421401331
 30
0.0
 10
48.60944095670811
 20
574.1374681785163
 30
0.0
 10
48.93261349941029
 20
574.1846895766387
 30
0.0
 10
49.28926217920814
 20
574.2538656924141
 30
0.0
 10
49.47244902752512
 20
574.2961225999649
 30
0.0
 10
49.52042449715466
 20
574.3077784662408
 30
0.0
  0
ARC
  5
1F1
330
105
100
AcDbEntity
  8
DV3_Default
  6
Continuous
 62
     7
100
AcDbCircle
 10
40.8089950541
 20
595.931665869
 30
0.0
 40
22.02833830766497
100
AcDbArc
 50
262.6680840784
 51
265.4213658843
  0
SPLINE
  5
1F2
330
105
100
AcDbEntity
  8
DV3_Default
  6
Continuous
 62
     7
100
AcDbSpline
210
0.0
220
0.0
230
1.0
 70
     8
 71
     3
 72
    11
 73
     7
 74
     0
 42
0.000000001
 43
0.0000000001
 40
0.0
 40
0.0
 40
0.0
 40
0.0
 40
0.1561725573062064
 40
0.5328613390859217
 40
0.8974757922439731
 40
1.0
 40
1.0
 40
1.0
 40
1.0
 10
36.66289577798608
 20
574.3118205842151
 30
0.0
 10
36.7182899128102
 20
574.2981814216141
 30
0.0
 10
36.91454075213387
 20
574.252758412799
 30
0.0
 10
37.28730638227395
 20
574.1823064596416
 30
0.0
 10
37.69662527323478
 20
574.1185531736463
 30
0.0
 10
37.93619288607149
 20
574.090593894017
 30
0.0
 10
37.99780214433057
 20
574.0834420734624
 30
0.0
  0
ELLIPSE
  5
1F3
330
105
100
AcDbEntity
  8
DV3_Default
  6
Continuous
 62
     7
100
AcDbEllipse
 10
43.0999968266
 20
578.4044692612
 30
0.0
 11
11.20000000000001
 21
0.0
 31
0.0
210
0.0
220
0.0
230
1.0
 40
0.1218693434
 41
0.4468651014056322
 42
2.709386381384872
  0
LINE
  5
1F4
330
105
100
AcDbEntity
  8
DV3_Default
  6
Continuous
 62
     7
100
AcDbLine
 10
54.29999683
 20
491.2514281582
 30
0.0
 11
31.8999968301
 21
491.2514281582
 31
0.0
  0
ARC
  5
1F5
330
105
100
AcDbEntity
  8
DV3_Default
  6
Continuous
 62
     7
100
AcDbCircle
 10
43.0999968233
 20
662.7605857712
 30
0.0
 40
11.50000000000001
100
AcDbArc
 50
0.0000000023
 51
180.0000000023
  0
LINE
  5
1F6
330
105
100
AcDbEntity
  8
DV3_Default
  6
Continuous
 62
     7
100
AcDbLine
 10
31.5999968233
 20
662.7605857708
 30
0.0
 11
31.5999968262
 21
590.3148711333
 31
0.0
  0
LINE
  5
1F7
330
105
100
AcDbEntity
  8
DV3_Default
  6
Continuous
 62
     7
100
AcDbLine
 10
54.5999968262
 20
590.3148711343
 30
0.0
 11
54.5999968233
 21
662.7605857717
 31
0.0
  0
LINE
  5
1F8
330
105
100
AcDbEntity
  8
DV3_Default
  6
Continuous
 62
     7
100
AcDbLine
 10
31.5999968262
 20
590.3148711333
 30
0.0
 11
31.5999968266
 21
578.7022331067
 31
0.0
  0
LINE
  5
1F9
330
105
100
AcDbEntity
  8
DV3_Default
  6
Continuous
 62
     7
100
AcDbLine
 10
54.5999968266
 20
578.7022331067
 30
0.0
 11
54.5999968262
 21
590.3148711343
 31
0.0
  0
SPLINE
  5
1FA
330
105
100
AcDbEntity
  8
DV3_Default
  6
Continuous
 62
     7
100
AcDbSpline
210
0.0
220
0.0
230
1.0
 70
     8
 71
     3
 72
    10
 73
     6
 74
     0
 42
0.000000001
 43
0.0000000001
 40
0.0
 40
0.0
 40
0.0
 40
0.0
 40
0.3845687289999375
 40
0.975650713951682
 40
1.0
 40
1.0
 40
1.0
 40
1.0
 10
31.61134603971612
 20
578.7016320826862
 30
0.0
 10
31.61051924414695
 20
578.6527919901405
 30
0.0
 10
31.6092849405638
 20
578.5488177021867
 30
0.0
 10
31.66591706938242
 20
578.452110343181
 30
0.0
 10
31.70376465275142
 20
578.401738562188
 30
0.0
 10
31.70526684093657
 20
578.3997596080472
 30
0.0
  0
SPLINE
  5
1FB
330
105
100
AcDbEntity
  8
DV3_Default
  6
Continuous
 62
     7
100
AcDbSpline
210
0.0
220
0.0
230
1.0
 70
     8
 71
     3
 72
    10
 73
     6
 74
     0
 42
0.000000001
 43
0.0000000001
 40
0.0
 40
0.0
 40
0.0
 40
0.0
 40
0.3395239735517508
 40
0.9099046752148914
 40
0.9999999999999999
 40
0.9999999999999999
 40
0.9999999999999999
 40
0.9999999999999999
 10
54.49496096125771
 20
578.4009560830664
 30
0.0
 10
54.51480904855524
 20
578.4280840070602
 30
0.0
 10
54.56425756212389
 20
578.5075066896936
 30
0.0
 10
54.60893083034793
 20
578.6230458500605
 30
0.0
 10
54.59644000532645
 20
578.6916398743547
 30
0.0
 10
54.59443479108052
 20
578.7025894168664
 30
0.0
  0
ARC
  5
1FC
330
105
100
AcDbEntity
  8
DV3_Default
  6
Continuous
 62
     7
100
AcDbCircle
 10
54.29999683
 20
491.5514281582
 30
0.0
 40
0.3000000000000086
100
AcDbArc
 50
270.0
 51
358.8297720909
  0
ARC
  5
1FD
330
105
100
AcDbEntity
  8
DV3_Default
  6
Continuous
 62
     7
100
AcDbCircle
 10
31.8999968301
 20
491.5514281582
 30
0.0
 40
0.3000000000000005
100
AcDbArc
 50
180.0237500059
 51
270.0
  0
LINE
  5
1FE
330
105
100
AcDbEntity
  8
DV3_Default
  6
Continuous
 62
     7
100
AcDbLine
 10
31.5999968267
 20
578.7022331067
 30
0.0
 11
31.5999968267
 21
578.1067054157
 31
0.0
  0
LINE
  5
1FF
330
105
100
AcDbEntity
  8
DV3_Default
  6
Continuous
 62
     7
100
AcDbLine
 10
31.5999968269
 20
573.7395023485
 30
0.0
 11
31.5999968301
 21
491.5514281582
 31
0.0
  0
LINE
  5
200
330
105
100
AcDbEntity
  8
DV3_Default
  6
Continuous
 62
     7
100
AcDbLine
 10
54.59999683
 20
491.5514281582
 30
0.0
 11
54.5999968268
 21
573.7395023485
 31
0.0
  0
LINE
  5
201
330
105
100
AcDbEntity
  8
DV3_Default
  6
Continuous
 62
     7
100
AcDbLine
 10
54.5999968266
 20
578.1067054157
 30
0.0
 11
54.5999968266
 21
578.7022331067
 31
0.0
  0
ELLIPSE
  5
202
330
105
100
AcDbEntity
  8
DV3_Default
  6
Continuous
 62
     7
100
AcDbEllipse
 10
43.0999968266
 20
578.4044692612
 30
0.0
 11
11.2
 21
0.0
 31
0.0
210
0.0
220
0.0
230
1.0
 40
0.1218693434
 41
0.4468651014060638
 42
2.709386381385329
  0
ELLIPSE
  5
203
330
105
100
AcDbEntity
  8
DV3_Default
  6
Continuous
 62
     7
100
AcDbEllipse
 10
43.0999968266
 20
578.1067054157
 30
0.0
 11
11.5
 21
0.0
 31
0.0
210
0.0
220
0.0
230
1.0
 40
0.1218693434
 41
0.0
 42
0.0057289601495737
  0
ELLIPSE
  5
204
330
105
100
AcDbEntity
  8
DV3_Default
  6
Continuous
 62
     7
100
AcDbEllipse
 10
43.0999968266
 20
573.7395023485
 30
0.0
 11
-11.5
 21
0.0
 31
0.0
210
0.0
220
0.0
230
1.0
 40
0.1218693434
 41
3.141592653589793
 42
3.147321613739289
  0
ELLIPSE
  5
205
330
105
100
AcDbEntity
  8
DV3_Default
  6
Continuous
 62
     7
100
AcDbEllipse
 10
43.0999968266
 20
573.441738503
 30
0.0
 11
11.1999999999999
 21
0.0
 31
0.0
210
0.0
220
0.0
230
1.0
 40
0.1218693434
 41
0.3153619272733472
 42
2.837811298220092
  0
ELLIPSE
  5
206
330
105
100
AcDbEntity
  8
DV3_Default
  6
Continuous
 62
     7
100
AcDbEllipse
 10
43.0999968266
 20
573.441738503
 30
0.0
 11
11.1999999999999
 21
0.0
 31
0.0
210
0.0
220
0.0
230
1.0
 40
0.1218693434
 41
3.589105163640212
 42
5.846596319451986
  0
ELLIPSE
  5
207
330
105
100
AcDbEntity
  8
DV3_Default
  6
Continuous
 62
     7
100
AcDbEllipse
 10
43.0999968266
 20
573.441738503
 30
0.0
 11
9.625
 21
0.0
 31
0.0
210
0.0
220
0.0
230
1.0
 40
0.1218693434
 41
3.49484069694463
 42
5.99990048837673
  0
ELLIPSE
  5
208
330
105
100
AcDbEntity
  8
DV3_Default
  6
Continuous
 62
     7
100
AcDbEllipse
 10
43.0999968266
 20
573.441738503
 30
0.0
 11
9.625
 21
0.0
 31
0.0
210
0.0
220
0.0
230
1.0
 40
0.1218693434
 41
0.2032200989907347
 42
2.883264344547636
  0
SPLINE
  5
209
330
105
100
AcDbEntity
  8
DV3_Default
  6
Continuous
 62
     7
100
AcDbSpline
210
0.0
220
0.0
230
1.0
 70
     8
 71
     3
 72
    14
 73
    10
 74
     0
 42
0.000000001
 43
0.0000000001
 40
0.0
 40
0.0
 40
0.0
 40
0.0
 40
0.0497902351174134
 40
0.2545594803981062
 40
0.4636907826469531
 40
0.6819191312925681
 40
0.8200586054547415
 40
0.9426713578795881
 40
1.0
 40
1.0
 40
1.0
 40
1.0
 10
32.85777431955774
 20
578.9671948236777
 30
0.0
 10
32.81621489567847
 20
578.957055077593
 30
0.0
 10
32.63485255332547
 20
578.9125805345752
 30
0.0
 10
32.34953552589442
 20
578.8170019518824
 30
0.0
 10
32.0347627640154
 20
578.6829513673587
 30
0.0
 10
31.81579279804383
 20
578.5413705793993
 30
0.0
 10
31.67362725672614
 20
578.3789687303956
 30
0.0
 10
31.59798745938548
 20
578.2196728911673
 30
0.0
 10
31.60798427184485
 20
578.1299720103826
 30
0.0
 10
31.61188742831577
 20
578.0960695346163
 30
0.0
  0
SPLINE
  5
20A
330
105
100
AcDbEntity
  8
DV3_Default
  6
Continuous
 62
     7
100
AcDbSpline
210
0.0
220
0.0
230
1.0
 70
     8
 71
     3
 72
    14
 73
    10
 74
     0
 42
0.000000001
 43
0.0000000001
 40
0.0
 40
0.0
 40
0.0
 40
0.0
 40
0.0954797904342939
 40
0.2189741414417268
 40
0.3582379152360141
 40
0.5390862309092397
 40
0.7592974453704037
 40
0.9709674485045108
 40
1.0
 40
1.0
 40
1.0
 40
1.0
 10
54.59136611476803
 20
578.1268107845046
 30
0.0
 10
54.58664572803053
 20
578.184486926693
 30
0.0
 10
54.57685116124615
 20
578.2952839142359
 30
0.0
 10
54.47302207995335
 20
578.4483418973803
 30
0.0
 10
54.32539126543083
 20
578.5821925791263
 30
0.0
 10
54.10152684935101
 20
578.7141208405772
 30
0.0
 10
53.77826101537116
 20
578.8429315269633
 30
0.0
 10
53.4788384786758
 20
578.938202293005
 30
0.0
 10
53.29747939808171
 20
578.9803024007606
 30
0.0
 10
53.27197266840621
 20
578.9862069699765
 30
0.0
  0
LINE
  5
20B
330
105
100
AcDbEntity
  8
DV3_Default
  6
Continuous
 62
     7
100
AcDbLine
 10
54.5999968266
 20
573.7395023485
 30
0.0
 11
54.5999968266
 21
578.1067054157
 31
0.0
  0
LINE
  5
20C
330
105
100
AcDbEntity
  8
DV3_Default
  6
Continuous
 62
     7
100
AcDbLine
 10
31.5999968266
 20
578.1067054157
 30
0.0
 11
31.5999968266
 21
573.7395023485
 31
0.0
  0
SPLINE
  5
20D
330
105
100
AcDbEntity
  8
DV3_Default
  6
Continuous
 62
     7
100
AcDbSpline
210
0.0
220
0.0
230
1.0
 70
     8
 71
     3
 72
    14
 73
    10
 74
     0
 42
0.000000001
 43
0.0000000001
 40
0.0
 40
0.0
 40
0.0
 40
0.0
 40
0.0735410798750527
 40
0.1960832281932904
 40
0.3285321137326377
 40
0.4970707544211386
 40
0.710923804473814
 40
0.923323448639552
 40
1.0
 40
1.0
 40
1.0
 40
1.0
 10
31.61188742831578
 20
573.7288664673944
 30
0.0
 10
31.6112764383882
 20
573.683879707318
 30
0.0
 10
31.6103612830382
 20
573.5830668903387
 30
0.0
 10
31.70093215671714
 20
573.4299978232009
 30
0.0
 10
31.8362000962005
 20
573.2930388654464
 30
0.0
 10
32.04183964352352
 20
573.1609901629247
 30
0.0
 10
32.34005087154021
 20
573.0318501538352
 30
0.0
 10
32.65785977110006
 20
572.9264935799986
 30
0.0
 10
32.86996127471464
 20
572.875342594067
 30
0.0
 10
32.93619681952969
 20
572.859494392458
 30
0.0
  0
SPLINE
  5
20E
330
105
100
AcDbEntity
  8
DV3_Default
  6
Continuous
 62
     7
100
AcDbSpline
210
0.0
220
0.0
230
1.0
 70
     8
 71
     3
 72
    14
 73
    10
 74
     0
 42
0.000000001
 43
0.0000000001
 40
0.0
 40
0.0
 40
0.0
 40
0.0
 40
0.1321498806911634
 40
0.3348548247275224
 40
0.5431585847650195
 40
0.719952253009617
 40
0.8499153163179981
 40
0.968783622331061
 40
1.0
 40
1.0
 40
1.0
 40
1.0
 10
53.31915737371175
 20
572.8735085991561
 30
0.0
 10
53.42632389269554
 20
572.9012466922088
 30
0.0
 10
53.65475112909148
 20
572.9612144554676
 30
0.0
 10
53.97436515766254
 20
573.0764722507955
 30
0.0
 10
54.2441522926879
 20
573.2086489457713
 30
0.0
 10
54.43406548596045
 20
573.3516560518759
 30
0.0
 10
54.55244903556337
 20
573.5120621928739
 30
0.0
 10
54.60951305896193
 20
573.6669517899642
 30
0.0
 10
54.59496801770077
 20
573.741386180055
 30
0.0
 10
54.59136611476803
 20
573.7596077172828
 30
0.0
  0
SPLINE
  5
20F
330
105
100
AcDbEntity
  8
DV3_Default
  6
Continuous
 62
     7
100
AcDbSpline
210
0.0
220
0.0
230
1.0
 70
     8
 71
     3
 72
     9
 73
     5
 74
     0
 42
0.000000001
 43
0.0000000001
 40
0.0
 40
0.0
 40
0.0
 40
0.0
 40
0.505599540233453
 40
1.0
 40
1.0
 40
1.0
 40
1.0
 10
52.39473004973384
 20
573.7127823163372
 30
0.0
 10
52.42539064290002
 20
573.6929271266538
 30
0.0
 10
52.47621483946292
 20
573.6626708097878
 30
0.0
 10
52.48412535442534
 20
573.6457142335553
 30
0.0
 10
52.48477088612563
 20
573.6459192895215
 30
0.0
  0
SPLINE
  5
210
330
105
100
AcDbEntity
  8
DV3_Default
  6
Continuous
 62
     7
100
AcDbSpline
210
0.0
220
0.0
230
1.0
 70
     8
 71
     3
 72
    10
 73
     6
 74
     0
 42
0.000000001
 43
0.0000000001
 40
0.0
 40
0.0
 40
0.0
 40
0.0
 40
0.401362696621631
 40
0.8292314723460994
 40
1.0
 40
1.0
 40
1.0
 40
1.0
 10
33.71459011408334
 20
573.6460851724601
 30
0.0
 10
33.71412953909129
 20
573.6439198456577
 30
0.0
 10
33.73374498502232
 20
573.6695518312484
 30
0.0
 10
33.80466156449276
 20
573.7192756970286
 30
0.0
 10
33.88013320211751
 20
573.7516181979099
 30
0.0
 10
33.90571209111975
 20
573.7625671833301
 30
0.0
  0
ENDBLK
  5
212
330
105
100
AcDbEntity
  8
0
100
AcDbBlockEnd
  0
ENDSEC
  0
SECTION
  2
ENTITIES
  0
INSERT
  5
6C
330
1F
100
AcDbEntity
  8
Default
100
AcDbBlockReference
  2
SEANNOT_GROUP
 10
0.0
 20
0.0
 30
0.0
  0
INSERT
  5
73
330
1F
100
AcDbEntity
  8
Default
100
AcDbBlockReference
  2
SEANNOT_GROUP1
 10
0.0
 20
0.0
 30
0.0
  0
INSERT
  5
7D
330
1F
100
AcDbEntity
  8
Default
100
AcDbBlockReference
  2
SEANNOT_GROUP2
 10
0.0
 20
0.0
 30
0.0
  0
INSERT
  5
83
330
1F
100
AcDbEntity
  8
Default
100
AcDbBlockReference
  2
SE
 10
0.0
 20
0.0
 30
0.0
  0
INSERT
  5
C1
330
1F
100
AcDbEntity
  8
Default
100
AcDbBlockReference
  2
SE1
 10
0.0
 20
0.0
 30
0.0
  0
INSERT
  5
106
330
1F
100
AcDbEntity
  8
Default
100
AcDbBlockReference
  2
SE2
 10
0.0
 20
0.0
 30
0.0
  0
MTEXT
  5
213
330
1F
100
AcDbEntity
  8
Default
100
AcDbMText
 10
5.9362635081
 20
63.4225120485
 30
0.0
 40
10.0
 41
113.8626497168
 71
     1
 72
     1
  1
{\fSolid Edge ISO|b0||i0||c0|p34;\C7;\H10.;\W1.;Grohe AG\P}{\fSolid Edge ISO|b0||i0||c0|p34;\C7;\H10.;\W1.;\P}{\fSolid Edge ISO|b0||i0||c0|p34;\C7;\H10.;\W1.;ecn:\P}{\fSolid Edge ISO|b0||i0||c0|p34;\C7;\H10.;\W1.;unit: mm}
 73
     1
 44
1.0
1001
ACAD
1000
ACAD_MTEXT_DEFINED_HEIGHT_BEGIN
1070
    46
1040
65.4545454545
1000
ACAD_MTEXT_DEFINED_HEIGHT_END
  0
LINE
  5
214
330
1F
100
AcDbEntity
  8
Default
  6
Continuous
 62
     7
100
AcDbLine
 10
0.0
 20
0.0
 30
0.0
 11
100.0
 21
0.0
 31
0.0
  0
LINE
  5
215
330
1F
100
AcDbEntity
  8
Default
  6
Continuous
 62
     7
100
AcDbLine
 10
0.0
 20
0.0
 30
0.0
 11
0.0
 21
100.0
 31
0.0
  0
MTEXT
  5
216
330
1F
100
AcDbEntity
  8
Default
100
AcDbMText
 10
24.3923665681
 20
-8.2375342018
 30
0.0
 40
10.0
 41
35.00001
 71
     1
 72
     1
  1
{\fSolid Edge ISO|b0||i0||c0|p34;\C7;\H10.;\W1.;100 mm}
 73
     1
 44
1.0
1001
ACAD
1000
ACAD_MTEXT_DEFINED_HEIGHT_BEGIN
1070
    46
1040
16.3636363636
1000
ACAD_MTEXT_DEFINED_HEIGHT_END
  0
MTEXT
  5
217
330
1F
100
AcDbEntity
  8
Default
100
AcDbMText
 10
-20.5695763349
 20
24.6231930421
 30
0.0
 40
10.0
 41
35.00001
 71
     1
 72
     1
  1
{\fSolid Edge ISO|b0||i0||c0|p34;\C7;\H10.;\W1.;100 mm}
 11
6.123233995736766E-17
 21
1.0
 31
0.0
 73
     1
 44
1.0
1001
ACAD
1000
ACAD_MTEXT_DEFINED_HEIGHT_BEGIN
1070
    46
1040
16.3636363636
1000
ACAD_MTEXT_DEFINED_HEIGHT_END
  0
MTEXT
  5
218
330
1F
100
AcDbEntity
  8
Default
100
AcDbMText
 10
28.4878128572
 20
24.8634936442
 30
0.0
 40
10.0
 41
86.691737001
 71
     4
 72
     1
  1
{\fSolid Edge ISO|b0||i0||c0|p34;\C7;\H10.;\W1.;240371}
 73
     1
 44
1.0
1001
ACAD
1000
ACAD_MTEXT_DEFINED_HEIGHT_BEGIN
1070
    46
1040
16.3636363636
1000
ACAD_MTEXT_DEFINED_HEIGHT_END
  0
MTEXT
  5
219
330
1F
100
AcDbEntity
  8
Default
100
AcDbMText
 10
5.9012241913
 20
41.4970052916
 30
0.0
 40
10.0
 41
109.9146987306
 71
     4
 72
     1
  1
{\fSolid Edge ISO|b0||i0||c0|p34;\C7;\H10.;\W1.;32042003}
 73
     1
 44
1.0
1001
ACAD
1000
ACAD_MTEXT_DEFINED_HEIGHT_BEGIN
1070
    46
1040
16.3636363636
1000
ACAD_MTEXT_DEFINED_HEIGHT_END
  0
ENDSEC
  0
SECTION
  2
OBJECTS
  0
DICTIONARY
  5
C
330
0
100
AcDbDictionary
281
     1
  3
ACAD_GROUP
350
D
  3
ACAD_LAYOUT
350
1A
  3
ACAD_MATERIAL
350
43
  3
ACAD_MLEADERSTYLE
350
21C
  3
ACAD_MLINESTYLE
350
17
  3
ACAD_PLOTSETTINGS
350
19
  3
ACAD_PLOTSTYLENAME
350
E
  3
ACAD_SCALELIST
350
47
  3
ACAD_VISUALSTYLE
350
2A
  3
AcDbVariableDictionary
350
21A
  0
DICTIONARY
  5
D
102
{ACAD_REACTORS
330
C
102
}
330
C
100
AcDbDictionary
281
     1
  0
DICTIONARY
  5
1A
102
{ACAD_REACTORS
330
C
102
}
330
C
100
AcDbDictionary
281
     1
  3
Layout1
350
1E
  3
Model
350
22
  0
DICTIONARY
  5
43
102
{ACAD_REACTORS
330
C
102
}
330
C
100
AcDbDictionary
281
     1
  3
ByBlock
350
45
  3
ByLayer
350
44
  3
Global
350
46
  0
DICTIONARY
  5
21C
102
{ACAD_REACTORS
330
C
102
}
330
C
100
AcDbDictionary
281
     1
  0
DICTIONARY
  5
17
102
{ACAD_REACTORS
330
C
102
}
330
C
100
AcDbDictionary
281
     1
  3
Standard
350
18
  0
DICTIONARY
  5
19
102
{ACAD_REACTORS
330
C
102
}
330
C
100
AcDbDictionary
281
     1
  0
ACDBDICTIONARYWDFLT
  5
E
102
{ACAD_REACTORS
330
C
102
}
330
C
100
AcDbDictionary
281
     1
  3
Normal
350
F
100
AcDbDictionaryWithDefault
340
F
  0
DICTIONARY
  5
47
102
{ACAD_REACTORS
330
C
102
}
330
C
100
AcDbDictionary
281
     1
  3
A0
350
48
  3
A1
350
49
  3
A2
350
4A
  3
A3
350
4B
  3
A4
350
4C
  3
A5
350
4D
  3
A6
350
4E
  3
A7
350
4F
  3
A8
350
50
  3
A9
350
51
  3
B0
350
52
  3
B1
350
53
  3
B2
350
54
  3
B3
350
55
  3
B4
350
56
  3
B5
350
57
  3
B6
350
58
  3
B7
350
59
  3
B8
350
5A
  3
B9
350
5B
  3
C0
350
5C
  3
C1
350
5D
  3
C2
350
5E
  3
C3
350
5F
  3
C4
350
60
  3
C5
350
61
  3
C6
350
62
  3
C7
350
63
  3
C8
350
64
  3
C9
350
65
  3
D0
350
66
  3
D1
350
67
  3
D2
350
68
  0
DICTIONARY
  5
2A
102
{ACAD_REACTORS
330
C
102
}
330
C
100
AcDbDictionary
281
     1
  3
2dWireframe
350
2F
  3
Basic
350
32
  3
Brighten
350
36
  3
ColorChange
350
3A
  3
Conceptual
350
34
  3
Dim
350
35
  3
EdgeColorOff
350
3D
  3
Facepattern
350
39
  3
Flat
350
2B
  3
FlatWithEdges
350
2C
  3
Gouraud
350
2D
  3
GouraudWithEdges
350
2E
  3
Hidden
350
31
  3
JitterOff
350
3B
  3
Linepattern
350
38
  3
OverhangOff
350
3C
  3
Realistic
350
33
  3
Shaded
350
42
  3
Shaded with edges
350
41
  3
Shades of Gray
350
3E
  3
Sketchy
350
3F
  3
Thicken
350
37
  3
Wireframe
350
30
  3
X-Ray
350
40
  0
DICTIONARY
  5
21A
102
{ACAD_REACTORS
330
C
102
}
330
C
100
AcDbDictionary
281
     1
  3
CANNOSCALE
350
223
  3
DIMASSOC
350
221
  3
HIDETEXT
350
222
  3
MSLTSCALE
350
224
  3
PSOLHEIGHT
350
21E
  3
PSOLWIDTH
350
21D
  0
LAYOUT
  5
1E
102
{ACAD_REACTORS
330
1A
102
}
330
1A
100
AcDbPlotSettings
  1

  2
none_device
  4

  6

 40
0.0
 41
0.0
 42
0.0
 43
0.0
 44
0.0
 45
0.0
 46
0.0
 47
0.0
 48
0.0
 49
0.0
140
0.0
141
0.0
142
1.0
143
1.0
 70
   688
 72
     1
 73
     0
 74
     5
  7

 75
    16
147
1.0
148
0.0
149
0.0
100
AcDbLayout
  1
Layout1
 70
     1
 71
     1
 10
0.0
 20
0.0
 11
3000.0
 21
4500.0
 12
0.0
 22
0.0
 32
0.0
 14
0.0
 24
0.0
 34
0.0
 15
3000.0
 25
4500.0
 35
0.0
146
0.0
 13
0.0
 23
0.0
 33
0.0
 16
1.0
 26
0.0
 36
0.0
 17
0.0
 27
1.0
 37
0.0
 76
     0
330
1B
  0
LAYOUT
  5
22
102
{ACAD_REACTORS
330
1A
102
}
330
1A
100
AcDbPlotSettings
  1

  2
none_device
  4
Letter_(8.50_x_11.00_Inches)
  6

 40
6.35
 41
6.35
 42
6.35000508
 43
6.35000508
 44
215.9
 45
279.4
 46
0.0
 47
0.0
 48
0.0
 49
0.0
140
0.0
141
0.0
142
1.0
143
1.0
 70
  1712
 72
     1
 73
     0
 74
     0
  7

 75
     0
147
1.0
148
0.0
149
0.0
100
AcDbLayout
  1
Model
 70
     1
 71
     0
 10
0.0
 20
0.0
 11
3000.0
 21
4500.0
 12
0.0
 22
0.0
 32
0.0
 14
0.0
 24
0.0
 34
0.0
 15
3000.0
 25
4500.0
 35
0.0
146
0.0
 13
0.0
 23
0.0
 33
0.0
 16
1.0
 26
0.0
 36
0.0
 17
0.0
 27
1.0
 37
0.0
 76
     0
330
1F
331
29
  0
MATERIAL
  5
45
102
{ACAD_REACTORS
330
43
102
}
102
{ACAD_XDICTIONARY
360
257
102
}
330
43
100
AcDbMaterial
  1
ByBlock
  0
MATERIAL
  5
44
102
{ACAD_REACTORS
330
43
102
}
102
{ACAD_XDICTIONARY
360
255
102
}
330
43
100
AcDbMaterial
  1
ByLayer
  0
MATERIAL
  5
46
102
{ACAD_REACTORS
330
43
102
}
102
{ACAD_XDICTIONARY
360
259
102
}
330
43
100
AcDbMaterial
  1
Global
  0
MLINESTYLE
  5
18
102
{ACAD_REACTORS
330
17
102
}
330
17
100
AcDbMlineStyle
  2
Standard
 70
     0
  3

 62
   256
 51
90.0
 52
90.0
 71
     2
 49
0.5
 62
   256
  6
BYLAYER
 49
-0.5
 62
   256
  6
BYLAYER
  0
ACDBPLACEHOLDER
  5
F
102
{ACAD_REACTORS
330
E
102
}
330
E
  0
SCALE
  5
48
102
{ACAD_REACTORS
330
47
102
}
330
47
100
AcDbScale
 70
     0
300
1:1
140
1.0
141
1.0
290
     1
  0
SCALE
  5
49
102
{ACAD_REACTORS
330
47
102
}
330
47
100
AcDbScale
 70
     0
300
1:2
140
1.0
141
2.0
290
     0
  0
SCALE
  5
4A
102
{ACAD_REACTORS
330
47
102
}
330
47
100
AcDbScale
 70
     0
300
1:4
140
1.0
141
4.0
290
     0
  0
SCALE
  5
4B
102
{ACAD_REACTORS
330
47
102
}
330
47
100
AcDbScale
 70
     0
300
1:5
140
1.0
141
5.0
290
     0
  0
SCALE
  5
4C
102
{ACAD_REACTORS
330
47
102
}
330
47
100
AcDbScale
 70
     0
300
1:8
140
1.0
141
8.0
290
     0
  0
SCALE
  5
4D
102
{ACAD_REACTORS
330
47
102
}
330
47
100
AcDbScale
 70
     0
300
1:10
140
1.0
141
10.0
290
     0
  0
SCALE
  5
4E
102
{ACAD_REACTORS
330
47
102
}
330
47
100
AcDbScale
 70
     0
300
1:16
140
1.0
141
16.0
290
     0
  0
SCALE
  5
4F
102
{ACAD_REACTORS
330
47
102
}
330
47
100
AcDbScale
 70
     0
300
1:20
140
1.0
141
20.0
290
     0
  0
SCALE
  5
50
102
{ACAD_REACTORS
330
47
102
}
330
47
100
AcDbScale
 70
     0
300
1:30
140
1.0
141
30.0
290
     0
  0
SCALE
  5
51
102
{ACAD_REACTORS
330
47
102
}
330
47
100
AcDbScale
 70
     0
300
1:40
140
1.0
141
40.0
290
     0
  0
SCALE
  5
52
102
{ACAD_REACTORS
330
47
102
}
330
47
100
AcDbScale
 70
     0
300
1:50
140
1.0
141
50.0
290
     0
  0
SCALE
  5
53
102
{ACAD_REACTORS
330
47
102
}
330
47
100
AcDbScale
 70
     0
300
1:100
140
1.0
141
100.0
290
     0
  0
SCALE
  5
54
102
{ACAD_REACTORS
330
47
102
}
330
47
100
AcDbScale
 70
     0
300
2:1
140
2.0
141
1.0
290
     0
  0
SCALE
  5
55
102
{ACAD_REACTORS
330
47
102
}
330
47
100
AcDbScale
 70
     0
300
4:1
140
4.0
141
1.0
290
     0
  0
SCALE
  5
56
102
{ACAD_REACTORS
330
47
102
}
330
47
100
AcDbScale
 70
     0
300
8:1
140
8.0
141
1.0
290
     0
  0
SCALE
  5
57
102
{ACAD_REACTORS
330
47
102
}
330
47
100
AcDbScale
 70
     0
300
10:1
140
10.0
141
1.0
290
     0
  0
SCALE
  5
58
102
{ACAD_REACTORS
330
47
102
}
330
47
100
AcDbScale
 70
     0
300
100:1
140
100.0
141
1.0
290
     0
  0
SCALE
  5
59
102
{ACAD_REACTORS
330
47
102
}
330
47
100
AcDbScale
 70
     0
300
1/128" = 1'-0"
140
0.0078125
141
12.0
290
     0
  0
SCALE
  5
5A
102
{ACAD_REACTORS
330
47
102
}
330
47
100
AcDbScale
 70
     0
300
1/64" = 1'-0"
140
0.015625
141
12.0
290
     0
  0
SCALE
  5
5B
102
{ACAD_REACTORS
330
47
102
}
330
47
100
AcDbScale
 70
     0
300
1/32" = 1'-0"
140
0.03125
141
12.0
290
     0
  0
SCALE
  5
5C
102
{ACAD_REACTORS
330
47
102
}
330
47
100
AcDbScale
 70
     0
300
1/16" = 1'-0"
140
0.0625
141
12.0
290
     0
  0
SCALE
  5
5D
102
{ACAD_REACTORS
330
47
102
}
330
47
100
AcDbScale
 70
     0
300
3/32" = 1'-0"
140
0.09375
141
12.0
290
     0
  0
SCALE
  5
5E
102
{ACAD_REACTORS
330
47
102
}
330
47
100
AcDbScale
 70
     0
300
1/8" = 1'-0"
140
0.125
141
12.0
290
     0
  0
SCALE
  5
5F
102
{ACAD_REACTORS
330
47
102
}
330
47
100
AcDbScale
 70
     0
300
3/16" = 1'-0"
140
0.1875
141
12.0
290
     0
  0
SCALE
  5
60
102
{ACAD_REACTORS
330
47
102
}
330
47
100
AcDbScale
 70
     0
300
1/4" = 1'-0"
140
0.25
141
12.0
290
     0
  0
SCALE
  5
61
102
{ACAD_REACTORS
330
47
102
}
330
47
100
AcDbScale
 70
     0
300
3/8" = 1'-0"
140
0.375
141
12.0
290
     0
  0
SCALE
  5
62
102
{ACAD_REACTORS
330
47
102
}
330
47
100
AcDbScale
 70
     0
300
1/2" = 1'-0"
140
0.5
141
12.0
290
     0
  0
SCALE
  5
63
102
{ACAD_REACTORS
330
47
102
}
330
47
100
AcDbScale
 70
     0
300
3/4" = 1'-0"
140
0.75
141
12.0
290
     0
  0
SCALE
  5
64
102
{ACAD_REACTORS
330
47
102
}
330
47
100
AcDbScale
 70
     0
300
1" = 1'-0"
140
1.0
141
12.0
290
     0
  0
SCALE
  5
65
102
{ACAD_REACTORS
330
47
102
}
330
47
100
AcDbScale
 70
     0
300
1-1/2" = 1'-0"
140
1.5
141
12.0
290
     0
  0
SCALE
  5
66
102
{ACAD_REACTORS
330
47
102
}
330
47
100
AcDbScale
 70
     0
300
3" = 1'-0"
140
3.0
141
12.0
290
     0
  0
SCALE
  5
67
102
{ACAD_REACTORS
330
47
102
}
330
47
100
AcDbScale
 70
     0
300
6" = 1'-0"
140
6.0
141
12.0
290
     0
  0
SCALE
  5
68
102
{ACAD_REACTORS
330
47
102
}
330
47
100
AcDbScale
 70
     0
300
1'-0" = 1'-0"
140
12.0
141
12.0
290
     0
  0
VISUALSTYLE
  5
2F
102
{ACAD_REACTORS
330
2A
102
}
102
{ACAD_XDICTIONARY
360
22D
102
}
330
2A
100
AcDbVisualStyle
  2
2dWireframe
 70
     4
 71
     0
 72
     2
 73
     0
 90
        0
 40
0.6
 41
30.0
 62
     5
 63
     7
 74
     1
 91
        4
 64
     7
 65
   257
 75
     1
175
     1
 42
1.0
 92
        0
 66
   257
 43
1.0
 76
     1
 77
     6
 78
     2
 67
     7
 79
     5
170
     0
171
     0
290
     0
174
     0
 93
        1
 44
0.0
173
     0
291
     0
 45
0.0
1001
ACAD
1000
AcDbSavedByObjectVersion
1070
     0
  0
VISUALSTYLE
  5
32
102
{ACAD_REACTORS
330
2A
102
}
102
{ACAD_XDICTIONARY
360
233
102
}
330
2A
100
AcDbVisualStyle
  2
Basic
 70
     7
 71
     1
 72
     0
 73
     1
 90
        0
 40
0.6
 41
30.0
 62
     5
 63
     7
 74
     0
 91
        4
 64
     7
 65
   257
 75
     1
175
     1
 42
1.0
 92
        8
 66
     7
 43
1.0
 76
     1
 77
     6
 78
     2
 67
     7
 79
     5
170
     0
171
     0
290
     0
174
     0
 93
        1
 44
0.0
173
     0
291
     1
 45
0.0
1001
ACAD
1000
AcDbSavedByObjectVersion
1070
     0
  0
VISUALSTYLE
  5
36
102
{ACAD_REACTORS
330
2A
102
}
102
{ACAD_XDICTIONARY
360
23B
102
}
330
2A
100
AcDbVisualStyle
  2
Brighten
 70
    12
 71
     2
 72
     2
 73
     0
 90
        0
 40
0.6
 41
30.0
 62
     5
 63
     7
 74
     1
 91
        4
 64
     7
 65
   257
 75
     1
175
     1
 42
1.0
 92
        8
 66
     7
 43
1.0
 76
     1
 77
     6
 78
     2
 67
     7
 79
     5
170
     0
171
     0
290
     0
174
     0
 93
        1
 44
50.0
173
     0
291
     1
 45
0.0
1001
ACAD
1000
AcDbSavedByObjectVersion
1070
     0
  0
VISUALSTYLE
  5
3A
102
{ACAD_REACTORS
330
2A
102
}
102
{ACAD_XDICTIONARY
360
243
102
}
330
2A
100
AcDbVisualStyle
  2
ColorChange
 70
    16
 71
     2
 72
     2
 73
     3
 90
        0
 40
0.6
 41
30.0
 62
     5
 63
     8
 74
     1
 91
        4
 64
     7
 65
   257
 75
     1
175
     1
 42
1.0
 92
        8
 66
     8
 43
1.0
 76
     1
 77
     6
 78
     2
 67
     7
 79
     5
170
     0
171
     0
290
     0
174
     0
 93
        1
 44
0.0
173
     0
291
     1
 45
0.0
1001
ACAD
1000
AcDbSavedByObjectVersion
1070
     0
  0
VISUALSTYLE
  5
34
102
{ACAD_REACTORS
330
2A
102
}
102
{ACAD_XDICTIONARY
360
237
102
}
330
2A
100
AcDbVisualStyle
  2
Conceptual
 70
     9
 71
     3
 72
     2
 73
     0
 90
        0
 40
0.6
 41
30.0
 62
     5
 63
     7
 74
     2
 91
        2
 64
     7
 65
   257
 75
     1
175
     1
 42
179.0
 92
        8
 66
     7
 43
1.0
 76
     1
 77
     6
 78
     2
 67
     7
 79
     3
170
     0
171
     0
290
     0
174
     0
 93
        1
 44
0.0
173
     0
291
     0
 45
0.0
1001
ACAD
1000
AcDbSavedByObjectVersion
1070
     0
  0
VISUALSTYLE
  5
35
102
{ACAD_REACTORS
330
2A
102
}
102
{ACAD_XDICTIONARY
360
239
102
}
330
2A
100
AcDbVisualStyle
  2
Dim
 70
    11
 71
     2
 72
     2
 73
     0
 90
        0
 40
0.6
 41
30.0
 62
     5
 63
     7
 74
     1
 91
        4
 64
     7
 65
   257
 75
     1
175
     1
 42
1.0
 92
        8
 66
     7
 43
1.0
 76
     1
 77
     6
 78
     2
 67
     7
 79
     5
170
     0
171
     0
290
     0
174
     0
 93
        1
 44
-50.0
173
     0
291
     1
 45
0.0
1001
ACAD
1000
AcDbSavedByObjectVersion
1070
     0
  0
VISUALSTYLE
  5
3D
102
{ACAD_REACTORS
330
2A
102
}
102
{ACAD_XDICTIONARY
360
249
102
}
330
2A
100
AcDbVisualStyle
  2
EdgeColorOff
 70
    22
 71
     2
 72
     2
 73
     0
 90
        0
 40
0.6
 41
30.0
 62
     5
 63
     7
 74
     1
 91
        4
 64
     7
 65
   257
 75
     1
175
     1
 42
1.0
 92
        8
 66
     7
 43
1.0
 76
     1
 77
     6
 78
     2
 67
     7
 79
     5
170
     0
171
     0
290
     0
174
     0
 93
        1
 44
0.0
173
     0
291
     1
 45
0.0
1001
ACAD
1000
AcDbSavedByObjectVersion
1070
     0
  0
VISUALSTYLE
  5
39
102
{ACAD_REACTORS
330
2A
102
}
102
{ACAD_XDICTIONARY
360
241
102
}
330
2A
100
AcDbVisualStyle
  2
Facepattern
 70
    15
 71
     2
 72
     2
 73
     0
 90
        0
 40
0.6
 41
30.0
 62
     5
 63
     7
 74
     1
 91
        4
 64
     7
 65
   257
 75
     1
175
     1
 42
1.0
 92
        8
 66
     7
 43
1.0
 76
     1
 77
     6
 78
     2
 67
     7
 79
     5
170
     0
171
     0
290
     0
174
     0
 93
        1
 44
0.0
173
     0
291
     1
 45
0.0
1001
ACAD
1000
AcDbSavedByObjectVersion
1070
     0
  0
VISUALSTYLE
  5
2B
102
{ACAD_REACTORS
330
2A
102
}
102
{ACAD_XDICTIONARY
360
225
102
}
330
2A
100
AcDbVisualStyle
  2
Flat
 70
     0
 71
     2
 72
     1
 73
     1
 90
        2
 40
0.6
 41
30.0
 62
     5
 63
     7
 74
     0
 91
        0
 64
     7
 65
   257
 75
     1
175
     1
 42
1.0
 92
        8
 66
     7
 43
1.0
 76
     1
 77
     6
 78
     2
 67
     7
 79
     5
170
     0
171
     0
290
     0
174
     0
 93
       13
 44
0.0
173
     0
291
     1
 45
0.0
1001
ACAD
1000
AcDbSavedByObjectVersion
1070
     0
  0
VISUALSTYLE
  5
2C
102
{ACAD_REACTORS
330
2A
102
}
102
{ACAD_XDICTIONARY
360
227
102
}
330
2A
100
AcDbVisualStyle
  2
FlatWithEdges
 70
     1
 71
     2
 72
     1
 73
     1
 90
        2
 40
0.6
 41
30.0
 62
     5
 63
     7
 74
     1
 91
        0
 64
     7
 65
   257
 75
     1
175
     1
 42
1.0
 92
        0
 66
   257
 43
1.0
 76
     1
 77
     6
 78
     2
 67
     7
 79
     5
170
     0
171
     0
290
     0
174
     0
 93
       13
 44
0.0
173
     0
291
     1
 45
0.0
1001
ACAD
1000
AcDbSavedByObjectVersion
1070
     0
  0
VISUALSTYLE
  5
2D
102
{ACAD_REACTORS
330
2A
102
}
102
{ACAD_XDICTIONARY
360
229
102
}
330
2A
100
AcDbVisualStyle
  2
Gouraud
 70
     2
 71
     2
 72
     2
 73
     1
 90
        2
 40
0.6
 41
30.0
 62
     5
 63
     7
 74
     0
 91
        0
 64
     7
 65
   257
 75
     1
175
     1
 42
1.0
 92
        0
 66
     7
 43
1.0
 76
     1
 77
     6
 78
     2
 67
     7
 79
     5
170
     0
171
     0
290
     0
174
     0
 93
       13
 44
0.0
173
     0
291
     1
 45
0.0
1001
ACAD
1000
AcDbSavedByObjectVersion
1070
     0
  0
VISUALSTYLE
  5
2E
102
{ACAD_REACTORS
330
2A
102
}
102
{ACAD_XDICTIONARY
360
22B
102
}
330
2A
100
AcDbVisualStyle
  2
GouraudWithEdges
 70
     3
 71
     2
 72
     2
 73
     1
 90
        2
 40
0.6
 41
30.0
 62
     5
 63
     7
 74
     1
 91
        0
 64
     7
 65
   257
 75
     1
175
     1
 42
1.0
 92
        0
 66
   257
 43
1.0
 76
     1
 77
     6
 78
     2
 67
     7
 79
     5
170
     0
171
     0
290
     0
174
     0
 93
       13
 44
0.0
173
     0
291
     1
 45
0.0
1001
ACAD
1000
AcDbSavedByObjectVersion
1070
     0
  0
VISUALSTYLE
  5
31
102
{ACAD_REACTORS
330
2A
102
}
102
{ACAD_XDICTIONARY
360
231
102
}
330
2A
100
AcDbVisualStyle
  2
Hidden
 70
     6
 71
     1
 72
     2
 73
     2
 90
        0
 40
0.6
 41
30.0
 62
     5
 63
     7
 74
     2
 91
        2
 64
     7
 65
   257
 75
     2
175
     1
 42
40.0
 92
        0
 66
   257
 43
1.0
 76
     1
 77
     6
 78
     2
 67
     7
 79
     3
170
     0
171
     0
290
     0
174
     0
 93
        1
 44
0.0
173
     0
291
     0
 45
0.0
1001
ACAD
1000
AcDbSavedByObjectVersion
1070
     0
  0
VISUALSTYLE
  5
3B
102
{ACAD_REACTORS
330
2A
102
}
102
{ACAD_XDICTIONARY
360
245
102
}
330
2A
100
AcDbVisualStyle
  2
JitterOff
 70
    20
 71
     2
 72
     2
 73
     0
 90
        0
 40
0.6
 41
30.0
 62
     5
 63
     7
 74
     1
 91
        4
 64
     7
 65
   257
 75
     1
175
     1
 42
1.0
 92
       10
 66
     7
 43
1.0
 76
     1
 77
     6
 78
     2
 67
     7
 79
     5
170
     0
171
     0
290
     0
174
     0
 93
        1
 44
0.0
173
     0
291
     1
 45
0.0
1001
ACAD
1000
AcDbSavedByObjectVersion
1070
     0
  0
VISUALSTYLE
  5
38
102
{ACAD_REACTORS
330
2A
102
}
102
{ACAD_XDICTIONARY
360
23F
102
}
330
2A
100
AcDbVisualStyle
  2
Linepattern
 70
    14
 71
     2
 72
     2
 73
     0
 90
        0
 40
0.6
 41
30.0
 62
     5
 63
     7
 74
     1
 91
        4
 64
     7
 65
   257
 75
     7
175
     7
 42
1.0
 92
        8
 66
     7
 43
1.0
 76
     1
 77
     6
 78
     2
 67
     7
 79
     5
170
     0
171
     0
290
     0
174
     0
 93
        1
 44
0.0
173
     0
291
     1
 45
0.0
1001
ACAD
1000
AcDbSavedByObjectVersion
1070
     0
  0
VISUALSTYLE
  5
3C
102
{ACAD_REACTORS
330
2A
102
}
102
{ACAD_XDICTIONARY
360
247
102
}
330
2A
100
AcDbVisualStyle
  2
OverhangOff
 70
    21
 71
     2
 72
     2
 73
     0
 90
        0
 40
0.6
 41
30.0
 62
     5
 63
     7
 74
     1
 91
        4
 64
     7
 65
   257
 75
     1
175
     1
 42
1.0
 92
        9
 66
     7
 43
1.0
 76
     1
 77
     6
 78
     2
 67
     7
 79
     5
170
     0
171
     0
290
     0
174
     0
 93
        1
 44
0.0
173
     0
291
     1
 45
0.0
1001
ACAD
1000
AcDbSavedByObjectVersion
1070
     0
  0
VISUALSTYLE
  5
33
102
{ACAD_REACTORS
330
2A
102
}
102
{ACAD_XDICTIONARY
360
235
102
}
330
2A
100
AcDbVisualStyle
  2
Realistic
 70
     8
 71
     2
 72
     3
 73
     0
 90
        2
 40
0.6
 41
30.0
 62
     5
 63
     7
 74
     0
 91
        0
 64
     7
 65
   257
 75
     1
175
     1
 42
1.0
 92
        8
 66
   257
 43
1.0
 76
     1
 77
     6
 78
     2
 67
     7
 79
     3
170
     0
171
     0
290
     0
174
     0
 93
       13
 44
0.0
173
     0
291
     0
 45
0.0
1001
ACAD
1000
AcDbSavedByObjectVersion
1070
     0
  0
VISUALSTYLE
  5
42
102
{ACAD_REACTORS
330
2A
102
}
102
{ACAD_XDICTIONARY
360
253
102
}
330
2A
100
AcDbVisualStyle
  2
Shaded
 70
    27
 71
     2
 72
     2
 73
     1
 90
        2
 40
0.6
 41
30.0
 62
     5
 63
     7
 74
     0
 91
        4
 64
     7
 65
   257
 75
     1
175
     1
 42
1.0
 92
        8
 66
   257
 43
1.0
 76
     1
 77
     6
 78
     2
 67
     8
 79
     3
170
     0
171
     0
290
     0
174
     0
 93
        5
 44
0.0
173
     0
291
     0
 45
0.0
1001
ACAD
1000
AcDbSavedByObjectVersion
1070
     0
  0
VISUALSTYLE
  5
41
102
{ACAD_REACTORS
330
2A
102
}
102
{ACAD_XDICTIONARY
360
251
102
}
330
2A
100
AcDbVisualStyle
  2
Shaded with edges
 70
    26
 71
     2
 72
     2
 73
     1
 90
        2
 40
0.6
 41
30.0
 62
     5
 63
     7
 74
     1
 91
       10
 64
     7
 65
   257
 75
     2
175
     1
 42
1.0
 92
        8
 66
   257
 43
1.0
 76
     1
 77
     6
 78
     2
 67
     7
 79
     3
170
     0
171
     0
290
     0
174
     0
 93
        5
 44
0.0
173
     0
291
     0
 45
0.0
1001
ACAD
1000
AcDbSavedByObjectVersion
1070
     0
  0
VISUALSTYLE
  5
3E
102
{ACAD_REACTORS
330
2A
102
}
102
{ACAD_XDICTIONARY
360
24B
102
}
330
2A
100
AcDbVisualStyle
  2
Shades of Gray
 70
    23
 71
     2
 72
     2
 73
     3
 90
        0
 40
0.6
 41
30.0
 62
     5
 63
     7
 74
     2
 91
        2
 64
     7
 65
     7
 75
     1
175
     1
 42
40.0
 92
        8
 66
     7
 43
1.0
 76
     1
 77
     6
 78
     2
 67
     7
 79
     3
170
     0
171
     0
290
     0
174
     0
 93
        1
 44
0.0
173
     0
291
     0
 45
0.0
1001
ACAD
1000
AcDbSavedByObjectVersion
1070
     0
  0
VISUALSTYLE
  5
3F
102
{ACAD_REACTORS
330
2A
102
}
102
{ACAD_XDICTIONARY
360
24D
102
}
330
2A
100
AcDbVisualStyle
  2
Sketchy
 70
    24
 71
     1
 72
     2
 73
     2
 90
        0
 40
0.6
 41
30.0
 62
     5
 63
     7
 74
     2
 91
        2
 64
     7
 65
     7
 75
     1
175
     1
 42
40.0
 92
       11
 66
     7
 43
1.0
 76
     1
 77
     6
 78
     2
 67
     7
 79
     6
170
     0
171
     0
290
     0
174
     0
 93
        1
 44
0.0
173
     0
291
     0
 45
0.0
1001
ACAD
1000
AcDbSavedByObjectVersion
1070
     0
  0
VISUALSTYLE
  5
37
102
{ACAD_REACTORS
330
2A
102
}
102
{ACAD_XDICTIONARY
360
23D
102
}
330
2A
100
AcDbVisualStyle
  2
Thicken
 70
    13
 71
     2
 72
     2
 73
     0
 90
        0
 40
0.6
 41
30.0
 62
     5
 63
     7
 74
     1
 91
        4
 64
     7
 65
   257
 75
     1
175
     1
 42
1.0
 92
       12
 66
     7
 43
1.0
 76
     1
 77
     6
 78
     2
 67
     7
 79
     5
170
     0
171
     0
290
     0
174
     0
 93
        1
 44
0.0
173
     0
291
     1
 45
0.0
1001
ACAD
1000
AcDbSavedByObjectVersion
1070
     0
  0
VISUALSTYLE
  5
30
102
{ACAD_REACTORS
330
2A
102
}
102
{ACAD_XDICTIONARY
360
22F
102
}
330
2A
100
AcDbVisualStyle
  2
Wireframe
 70
     5
 71
     0
 72
     2
 73
     0
 90
        0
 40
0.6
 41
30.0
 62
     5
 63
     7
 74
     1
 91
        4
 64
     7
 65
   257
 75
     1
175
     1
 42
1.0
 92
        0
 66
   257
 43
1.0
 76
     1
 77
     6
 78
     2
 67
     7
 79
     3
170
     0
171
     0
290
     0
174
     0
 93
        1
 44
0.0
173
     0
291
     0
 45
0.0
1001
ACAD
1000
AcDbSavedByObjectVersion
1070
     0
  0
VISUALSTYLE
  5
40
102
{ACAD_REACTORS
330
2A
102
}
102
{ACAD_XDICTIONARY
360
24F
102
}
330
2A
100
AcDbVisualStyle
  2
X-Ray
 70
    25
 71
     2
 72
     2
 73
     1
 90
        1
 40
0.5
 41
30.0
 62
     5
 63
     7
 74
     1
 91
        0
 64
     7
 65
   257
 75
     1
175
     1
 42
1.0
 92
        8
 66
     7
 43
1.0
 76
     1
 77
     6
 78
     2
 67
     7
 79
     3
170
     0
171
     0
290
     0
174
     0
 93
       13
 44
0.0
173
     0
291
     0
 45
0.0
1001
ACAD
1000
AcDbSavedByObjectVersion
1070
     0
  0
DICTIONARYVAR
  5
223
102
{ACAD_REACTORS
330
21A
102
}
330
21A
100
DictionaryVariables
280
     0
  1
1:1
  0
DICTIONARYVAR
  5
221
102
{ACAD_REACTORS
330
21A
102
}
330
21A
100
DictionaryVariables
280
     0
  1
2
  0
DICTIONARYVAR
  5
222
102
{ACAD_REACTORS
330
21A
102
}
330
21A
100
DictionaryVariables
280
     0
  1
1
  0
DICTIONARYVAR
  5
224
102
{ACAD_REACTORS
330
21A
102
}
330
21A
100
DictionaryVariables
280
     0
  1
1
  0
DICTIONARYVAR
  5
21E
102
{ACAD_REACTORS
330
21A
102
}
330
21A
100
DictionaryVariables
280
     0
  1
80.000000
  0
DICTIONARYVAR
  5
21D
102
{ACAD_REACTORS
330
21A
102
}
330
21A
100
DictionaryVariables
280
     0
  1
5.000000
  0
DICTIONARY
  5
257
330
45
100
AcDbDictionary
280
     1
281
     1
  3
ACAD_XREC_ROUNDTRIP
360
258
  0
DICTIONARY
  5
255
330
44
100
AcDbDictionary
280
     1
281
     1
  3
ACAD_XREC_ROUNDTRIP
360
256
  0
DICTIONARY
  5
259
330
46
100
AcDbDictionary
280
     1
281
     1
  3
ACAD_XREC_ROUNDTRIP
360
25A
  0
DICTIONARY
  5
22D
330
2F
100
AcDbDictionary
280
     1
281
     1
  3
ACAD_XREC_ROUNDTRIP
360
22E
  0
DICTIONARY
  5
233
330
32
100
AcDbDictionary
280
     1
281
     1
  3
ACAD_XREC_ROUNDTRIP
360
234
  0
DICTIONARY
  5
23B
330
36
100
AcDbDictionary
280
     1
281
     1
  3
ACAD_XREC_ROUNDTRIP
360
23C
  0
DICTIONARY
  5
243
330
3A
100
AcDbDictionary
280
     1
281
     1
  3
ACAD_XREC_ROUNDTRIP
360
244
  0
DICTIONARY
  5
237
330
34
100
AcDbDictionary
280
     1
281
     1
  3
ACAD_XREC_ROUNDTRIP
360
238
  0
DICTIONARY
  5
239
330
35
100
AcDbDictionary
280
     1
281
     1
  3
ACAD_XREC_ROUNDTRIP
360
23A
  0
DICTIONARY
  5
249
330
3D
100
AcDbDictionary
280
     1
281
     1
  3
ACAD_XREC_ROUNDTRIP
360
24A
  0
DICTIONARY
  5
241
330
39
100
AcDbDictionary
280
     1
281
     1
  3
ACAD_XREC_ROUNDTRIP
360
242
  0
DICTIONARY
  5
225
330
2B
100
AcDbDictionary
280
     1
281
     1
  3
ACAD_XREC_ROUNDTRIP
360
226
  0
DICTIONARY
  5
227
330
2C
100
AcDbDictionary
280
     1
281
     1
  3
ACAD_XREC_ROUNDTRIP
360
228
  0
DICTIONARY
  5
229
330
2D
100
AcDbDictionary
280
     1
281
     1
  3
ACAD_XREC_ROUNDTRIP
360
22A
  0
DICTIONARY
  5
22B
330
2E
100
AcDbDictionary
280
     1
281
     1
  3
ACAD_XREC_ROUNDTRIP
360
22C
  0
DICTIONARY
  5
231
330
31
100
AcDbDictionary
280
     1
281
     1
  3
ACAD_XREC_ROUNDTRIP
360
232
  0
DICTIONARY
  5
245
330
3B
100
AcDbDictionary
280
     1
281
     1
  3
ACAD_XREC_ROUNDTRIP
360
246
  0
DICTIONARY
  5
23F
330
38
100
AcDbDictionary
280
     1
281
     1
  3
ACAD_XREC_ROUNDTRIP
360
240
  0
DICTIONARY
  5
247
330
3C
100
AcDbDictionary
280
     1
281
     1
  3
ACAD_XREC_ROUNDTRIP
360
248
  0
DICTIONARY
  5
235
330
33
100
AcDbDictionary
280
     1
281
     1
  3
ACAD_XREC_ROUNDTRIP
360
236
  0
DICTIONARY
  5
253
330
42
100
AcDbDictionary
280
     1
281
     1
  3
ACAD_XREC_ROUNDTRIP
360
254
  0
DICTIONARY
  5
251
330
41
100
AcDbDictionary
280
     1
281
     1
  3
ACAD_XREC_ROUNDTRIP
360
252
  0
DICTIONARY
  5
24B
330
3E
100
AcDbDictionary
280
     1
281
     1
  3
ACAD_XREC_ROUNDTRIP
360
24C
  0
DICTIONARY
  5
24D
330
3F
100
AcDbDictionary
280
     1
281
     1
  3
ACAD_XREC_ROUNDTRIP
360
24E
  0
DICTIONARY
  5
23D
330
37
100
AcDbDictionary
280
     1
281
     1
  3
ACAD_XREC_ROUNDTRIP
360
23E
  0
DICTIONARY
  5
22F
330
30
100
AcDbDictionary
280
     1
281
     1
  3
ACAD_XREC_ROUNDTRIP
360
230
  0
DICTIONARY
  5
24F
330
40
100
AcDbDictionary
280
     1
281
     1
  3
ACAD_XREC_ROUNDTRIP
360
250
  0
XRECORD
  5
258
102
{ACAD_REACTORS
330
257
102
}
330
257
100
AcDbXrecord
280
     1
102
MATERIAL
148
0.0
149
0.0
149
0.0
 93
        0
 94
      127
282
     0
 72
     1
 77
     1
171
     1
175
     1
179
     1
273
     0
  0
XRECORD
  5
256
102
{ACAD_REACTORS
330
255
102
}
330
255
100
AcDbXrecord
280
     1
102
MATERIAL
148
0.0
149
0.0
149
0.0
 93
        0
 94
      127
282
     0
 72
     1
 77
     1
171
     1
175
     1
179
     1
273
     0
  0
XRECORD
  5
25A
102
{ACAD_REACTORS
330
259
102
}
330
259
100
AcDbXrecord
280
     1
102
MATERIAL
148
0.0
149
0.0
149
0.0
 93
        0
 94
      127
282
     0
 72
     1
 77
     1
171
     1
175
     1
179
     1
273
     0
  0
XRECORD
  5
22E
102
{ACAD_REACTORS
330
22D
102
}
330
22D
100
AcDbXrecord
280
     1
102
RTVSPropertyOp0
 70
     1
102
RTVSPropertyOp1
 70
     1
102
RTVSPropertyOp2
 70
     1
102
RTVSPropertyOp3
 70
     1
102
RTVSPropertyOp4
 70
     1
102
RTVSPropertyOp5
 70
     1
102
RTVSPropertyOp6
 70
     1
102
RTVSPropertyOp7
 70
     1
102
RTVSPropertyOp8
 70
     1
102
RTVSPropertyOp9
 70
     1
102
RTVSPropertyOp10
 70
     1
102
RTVSPropertyOp11
 70
     1
102
RTVSPropertyOp12
 70
     1
102
RTVSPropertyOp13
 70
     1
102
RTVSPropertyOp14
 70
     1
102
RTVSPropertyOp15
 70
     1
102
RTVSPropertyOp16
 70
     1
102
RTVSPropertyOp17
 70
     1
102
RTVSPropertyOp18
 70
     1
102
RTVSPropertyOp19
 70
     1
102
RTVSPropertyOp20
 70
     1
102
RTVSPropertyOp21
 70
     1
102
RTVSPropertyOp22
 70
     1
102
RTVSPropertyOp23
 70
     1
102
RTVSPropertyOp24
 70
     1
102
RTVSPropertyOp25
 70
     1
102
RTVSPropertyOp26
 70
     1
102
RTVSPropertyOp27
 70
     1
102
RTVSPropertyOp28
 70
     1
102
RTVSPropertyOp29
 70
     1
102
RTVSPropertyOp30
 70
     1
102
RTVSPropertyOp31
 70
     1
102
RTVSPropertyOp32
 70
     1
102
RTVSPropertyOp33
 70
     1
102
RTVSPropertyOp34
 70
     1
102
RTVSPropertyOp35
 70
     1
102
RTVSPropertyOp36
 70
     1
102
RTVSPropertyOp37
 70
     1
102
RTVSPropertyOp38
 70
     1
102
RTVSPropertyOp39
 70
     1
102
RTVSPropertyOp40
 70
     1
102
RTVSPropertyOp41
 70
     1
102
RTVSPropertyOp42
 70
     1
102
RTVSPropertyOp43
 70
     1
102
RTVSPropertyOp44
 70
     1
102
RTVSPropertyOp45
 70
     1
102
RTVSPropertyOp46
 70
     1
102
RTVSPropertyOp47
 70
     1
102
RTVSPropertyOp48
 70
     1
102
RTVSPropertyOp49
 70
     1
102
RTVSPropertyOp50
 70
     1
102
RTVSPropertyOp51
 70
     0
102
RTVSPropertyOp52
 70
     0
102
RTVSPropertyOp53
 70
     1
102
RTVSPropertyOp54
 70
     1
102
RTVSPropertyOp55
 70
     1
102
RTVSPropertyOp56
 70
     1
102
RTVSPropertyOp57
 70
     1
102
RTVSPost2010Prop28
280
     1
102
RTVSPost2010PropOp28
 70
     1
102
RTVSPost2010Prop29
280
     1
102
RTVSPost2010PropOp29
 70
     1
102
RTVSPost2010Prop30
280
     0
102
RTVSPost2010PropOp30
 70
     1
102
RTVSPost2010Prop31
280
     0
102
RTVSPost2010PropOp31
 70
     1
102
RTVSPost2010Prop32
280
     0
102
RTVSPost2010PropOp32
 70
     1
102
RTVSPost2010Prop33
280
     0
102
RTVSPost2010PropOp33
 70
     1
102
RTVSPost2010Prop34
280
     0
102
RTVSPost2010PropOp34
 70
     1
102
RTVSPost2010Prop35
280
     0
102
RTVSPost2010PropOp35
 70
     1
102
RTVSPost2010Prop36
280
     0
102
RTVSPost2010PropOp36
 70
     1
102
RTVSPost2010Prop37
 90
       50
102
RTVSPost2010PropOp37
 70
     1
102
RTVSPost2010Prop38
140
0.0
102
RTVSPost2010PropOp38
 70
     1
102
RTVSPost2010Prop39
140
1.0
102
RTVSPost2010PropOp39
 70
     1
102
RTVSPost2010Prop40
 90
        0
102
RTVSPost2010PropOp40
 70
     1
102
RTVSPost2010Prop41ColorIndex
 90
       18
102
RTVSPost2010Prop41ColorRGB
 90
        0
102
RTVSPost2010PropOp41
 70
     1
102
RTVSPost2010Prop42
 90
       50
102
RTVSPost2010PropOp42
 70
     1
102
RTVSPost2010Prop43
 90
        3
102
RTVSPost2010PropOp43
 70
     1
102
RTVSPost2010Prop44ColorIndex
 90
        5
102
RTVSPost2010Prop44ColorRGB
 90
      255
102
RTVSPost2010PropOp44
 70
     1
102
RTVSPost2010Prop45
280
     0
102
RTVSPost2010PropOp45
 70
     1
102
RTVSPost2010Prop46
 90
       50
102
RTVSPost2010PropOp46
 70
     1
102
RTVSPost2010Prop47
 90
       50
102
RTVSPost2010PropOp47
 70
     1
102
RTVSPost2010Prop48
 90
       50
102
RTVSPost2010PropOp48
 70
     1
102
RTVSPost2010Prop49
280
     0
102
RTVSPost2010PropOp49
 70
     1
102
RTVSPost2010Prop50
 90
       50
102
RTVSPost2010PropOp50
 70
     1
102
RTVSPost2010Prop51ColorIndex
 90
      256
102
RTVSPost2010Prop51ColorRGB
 90
-16777216
102
RTVSPost2010PropOp51
 70
     0
102
RTVSPost2010Prop52
140
1.0
102
RTVSPost2010PropOp52
 70
     0
102
RTVSPost2010Prop53
 90
        2
102
RTVSPost2010PropOp53
 70
     1
102
RTVSPost2010Prop54
  1
strokes_ogs.tif
102
RTVSPost2010PropOp54
 70
     1
102
RTVSPost2010Prop55
280
     0
102
RTVSPost2010PropOp55
 70
     1
102
RTVSPost2010Prop56
140
1.0
102
RTVSPost2010PropOp56
 70
     1
102
RTVSPost2010Prop57
140
1.0
102
RTVSPost2010PropOp57
 70
     1
  0
XRECORD
  5
234
102
{ACAD_REACTORS
330
233
102
}
330
233
100
AcDbXrecord
280
     1
102
RTVSPropertyOp0
 70
     1
102
RTVSPropertyOp1
 70
     1
102
RTVSPropertyOp2
 70
     1
102
RTVSPropertyOp3
 70
     1
102
RTVSPropertyOp4
 70
     1
102
RTVSPropertyOp5
 70
     1
102
RTVSPropertyOp6
 70
     1
102
RTVSPropertyOp7
 70
     1
102
RTVSPropertyOp8
 70
     1
102
RTVSPropertyOp9
 70
     1
102
RTVSPropertyOp10
 70
     1
102
RTVSPropertyOp11
 70
     1
102
RTVSPropertyOp12
 70
     1
102
RTVSPropertyOp13
 70
     1
102
RTVSPropertyOp14
 70
     1
102
RTVSPropertyOp15
 70
     1
102
RTVSPropertyOp16
 70
     1
102
RTVSPropertyOp17
 70
     1
102
RTVSPropertyOp18
 70
     1
102
RTVSPropertyOp19
 70
     1
102
RTVSPropertyOp20
 70
     1
102
RTVSPropertyOp21
 70
     1
102
RTVSPropertyOp22
 70
     1
102
RTVSPropertyOp23
 70
     1
102
RTVSPropertyOp24
 70
     1
102
RTVSPropertyOp25
 70
     1
102
RTVSPropertyOp26
 70
     1
102
RTVSPropertyOp27
 70
     1
102
RTVSPropertyOp28
 70
     1
102
RTVSPropertyOp29
 70
     1
102
RTVSPropertyOp30
 70
     1
102
RTVSPropertyOp31
 70
     1
102
RTVSPropertyOp32
 70
     1
102
RTVSPropertyOp33
 70
     1
102
RTVSPropertyOp34
 70
     1
102
RTVSPropertyOp35
 70
     1
102
RTVSPropertyOp36
 70
     1
102
RTVSPropertyOp37
 70
     1
102
RTVSPropertyOp38
 70
     1
102
RTVSPropertyOp39
 70
     1
102
RTVSPropertyOp40
 70
     1
102
RTVSPropertyOp41
 70
     1
102
RTVSPropertyOp42
 70
     1
102
RTVSPropertyOp43
 70
     1
102
RTVSPropertyOp44
 70
     1
102
RTVSPropertyOp45
 70
     1
102
RTVSPropertyOp46
 70
     1
102
RTVSPropertyOp47
 70
     1
102
RTVSPropertyOp48
 70
     1
102
RTVSPropertyOp49
 70
     1
102
RTVSPropertyOp50
 70
     1
102
RTVSPropertyOp51
 70
     0
102
RTVSPropertyOp52
 70
     0
102
RTVSPropertyOp53
 70
     1
102
RTVSPropertyOp54
 70
     1
102
RTVSPropertyOp55
 70
     1
102
RTVSPropertyOp56
 70
     1
102
RTVSPropertyOp57
 70
     1
102
RTVSPost2010Prop28
280
     0
102
RTVSPost2010PropOp28
 70
     1
102
RTVSPost2010Prop29
280
     1
102
RTVSPost2010PropOp29
 70
     1
102
RTVSPost2010Prop30
280
     1
102
RTVSPost2010PropOp30
 70
     1
102
RTVSPost2010Prop31
280
     0
102
RTVSPost2010PropOp31
 70
     1
102
RTVSPost2010Prop32
280
     0
102
RTVSPost2010PropOp32
 70
     1
102
RTVSPost2010Prop33
280
     0
102
RTVSPost2010PropOp33
 70
     1
102
RTVSPost2010Prop34
280
     0
102
RTVSPost2010PropOp34
 70
     1
102
RTVSPost2010Prop35
280
     0
102
RTVSPost2010PropOp35
 70
     1
102
RTVSPost2010Prop36
280
     0
102
RTVSPost2010PropOp36
 70
     1
102
RTVSPost2010Prop37
 90
       50
102
RTVSPost2010PropOp37
 70
     1
102
RTVSPost2010Prop38
140
0.0
102
RTVSPost2010PropOp38
 70
     1
102
RTVSPost2010Prop39
140
1.0
102
RTVSPost2010PropOp39
 70
     1
102
RTVSPost2010Prop40
 90
        0
102
RTVSPost2010PropOp40
 70
     1
102
RTVSPost2010Prop41ColorIndex
 90
       18
102
RTVSPost2010Prop41ColorRGB
 90
        0
102
RTVSPost2010PropOp41
 70
     1
102
RTVSPost2010Prop42
 90
       50
102
RTVSPost2010PropOp42
 70
     1
102
RTVSPost2010Prop43
 90
        3
102
RTVSPost2010PropOp43
 70
     1
102
RTVSPost2010Prop44ColorIndex
 90
        5
102
RTVSPost2010Prop44ColorRGB
 90
      255
102
RTVSPost2010PropOp44
 70
     1
102
RTVSPost2010Prop45
280
     0
102
RTVSPost2010PropOp45
 70
     1
102
RTVSPost2010Prop46
 90
       50
102
RTVSPost2010PropOp46
 70
     1
102
RTVSPost2010Prop47
 90
       50
102
RTVSPost2010PropOp47
 70
     1
102
RTVSPost2010Prop48
 90
       50
102
RTVSPost2010PropOp48
 70
     1
102
RTVSPost2010Prop49
280
     0
102
RTVSPost2010PropOp49
 70
     1
102
RTVSPost2010Prop50
 90
       50
102
RTVSPost2010PropOp50
 70
     1
102
RTVSPost2010Prop51ColorIndex
 90
      256
102
RTVSPost2010Prop51ColorRGB
 90
-16777216
102
RTVSPost2010PropOp51
 70
     0
102
RTVSPost2010Prop52
140
1.0
102
RTVSPost2010PropOp52
 70
     0
102
RTVSPost2010Prop53
 90
        2
102
RTVSPost2010PropOp53
 70
     1
102
RTVSPost2010Prop54
  1
strokes_ogs.tif
102
RTVSPost2010PropOp54
 70
     1
102
RTVSPost2010Prop55
280
     0
102
RTVSPost2010PropOp55
 70
     1
102
RTVSPost2010Prop56
140
1.0
102
RTVSPost2010PropOp56
 70
     1
102
RTVSPost2010Prop57
140
1.0
102
RTVSPost2010PropOp57
 70
     1
  0
XRECORD
  5
23C
102
{ACAD_REACTORS
330
23B
102
}
330
23B
100
AcDbXrecord
280
     1
102
RTVSPropertyOp0
 70
     1
102
RTVSPropertyOp1
 70
     1
102
RTVSPropertyOp2
 70
     1
102
RTVSPropertyOp3
 70
     1
102
RTVSPropertyOp4
 70
     1
102
RTVSPropertyOp5
 70
     1
102
RTVSPropertyOp6
 70
     1
102
RTVSPropertyOp7
 70
     1
102
RTVSPropertyOp8
 70
     1
102
RTVSPropertyOp9
 70
     1
102
RTVSPropertyOp10
 70
     1
102
RTVSPropertyOp11
 70
     1
102
RTVSPropertyOp12
 70
     1
102
RTVSPropertyOp13
 70
     1
102
RTVSPropertyOp14
 70
     1
102
RTVSPropertyOp15
 70
     1
102
RTVSPropertyOp16
 70
     1
102
RTVSPropertyOp17
 70
     1
102
RTVSPropertyOp18
 70
     1
102
RTVSPropertyOp19
 70
     1
102
RTVSPropertyOp20
 70
     1
102
RTVSPropertyOp21
 70
     1
102
RTVSPropertyOp22
 70
     1
102
RTVSPropertyOp23
 70
     1
102
RTVSPropertyOp24
 70
     1
102
RTVSPropertyOp25
 70
     1
102
RTVSPropertyOp26
 70
     1
102
RTVSPropertyOp27
 70
     1
102
RTVSPropertyOp28
 70
     1
102
RTVSPropertyOp29
 70
     1
102
RTVSPropertyOp30
 70
     1
102
RTVSPropertyOp31
 70
     1
102
RTVSPropertyOp32
 70
     1
102
RTVSPropertyOp33
 70
     1
102
RTVSPropertyOp34
 70
     1
102
RTVSPropertyOp35
 70
     1
102
RTVSPropertyOp36
 70
     1
102
RTVSPropertyOp37
 70
     1
102
RTVSPropertyOp38
 70
     1
102
RTVSPropertyOp39
 70
     1
102
RTVSPropertyOp40
 70
     1
102
RTVSPropertyOp41
 70
     1
102
RTVSPropertyOp42
 70
     1
102
RTVSPropertyOp43
 70
     1
102
RTVSPropertyOp44
 70
     1
102
RTVSPropertyOp45
 70
     1
102
RTVSPropertyOp46
 70
     1
102
RTVSPropertyOp47
 70
     1
102
RTVSPropertyOp48
 70
     1
102
RTVSPropertyOp49
 70
     1
102
RTVSPropertyOp50
 70
     1
102
RTVSPropertyOp51
 70
     0
102
RTVSPropertyOp52
 70
     0
102
RTVSPropertyOp53
 70
     1
102
RTVSPropertyOp54
 70
     1
102
RTVSPropertyOp55
 70
     1
102
RTVSPropertyOp56
 70
     1
102
RTVSPropertyOp57
 70
     1
102
RTVSPost2010Prop28
280
     0
102
RTVSPost2010PropOp28
 70
     1
102
RTVSPost2010Prop29
280
     1
102
RTVSPost2010PropOp29
 70
     1
102
RTVSPost2010Prop30
280
     1
102
RTVSPost2010PropOp30
 70
     1
102
RTVSPost2010Prop31
280
     0
102
RTVSPost2010PropOp31
 70
     1
102
RTVSPost2010Prop32
280
     0
102
RTVSPost2010PropOp32
 70
     1
102
RTVSPost2010Prop33
280
     0
102
RTVSPost2010PropOp33
 70
     1
102
RTVSPost2010Prop34
280
     0
102
RTVSPost2010PropOp34
 70
     1
102
RTVSPost2010Prop35
280
     0
102
RTVSPost2010PropOp35
 70
     1
102
RTVSPost2010Prop36
280
     0
102
RTVSPost2010PropOp36
 70
     1
102
RTVSPost2010Prop37
 90
       50
102
RTVSPost2010PropOp37
 70
     1
102
RTVSPost2010Prop38
140
0.0
102
RTVSPost2010PropOp38
 70
     1
102
RTVSPost2010Prop39
140
1.0
102
RTVSPost2010PropOp39
 70
     1
102
RTVSPost2010Prop40
 90
        0
102
RTVSPost2010PropOp40
 70
     1
102
RTVSPost2010Prop41ColorIndex
 90
       18
102
RTVSPost2010Prop41ColorRGB
 90
        0
102
RTVSPost2010PropOp41
 70
     1
102
RTVSPost2010Prop42
 90
       50
102
RTVSPost2010PropOp42
 70
     1
102
RTVSPost2010Prop43
 90
        3
102
RTVSPost2010PropOp43
 70
     1
102
RTVSPost2010Prop44ColorIndex
 90
        5
102
RTVSPost2010Prop44ColorRGB
 90
      255
102
RTVSPost2010PropOp44
 70
     1
102
RTVSPost2010Prop45
280
     0
102
RTVSPost2010PropOp45
 70
     1
102
RTVSPost2010Prop46
 90
       50
102
RTVSPost2010PropOp46
 70
     1
102
RTVSPost2010Prop47
 90
       50
102
RTVSPost2010PropOp47
 70
     1
102
RTVSPost2010Prop48
 90
       50
102
RTVSPost2010PropOp48
 70
     1
102
RTVSPost2010Prop49
280
     0
102
RTVSPost2010PropOp49
 70
     1
102
RTVSPost2010Prop50
 90
       50
102
RTVSPost2010PropOp50
 70
     1
102
RTVSPost2010Prop51ColorIndex
 90
      256
102
RTVSPost2010Prop51ColorRGB
 90
-16777216
102
RTVSPost2010PropOp51
 70
     0
102
RTVSPost2010Prop52
140
1.0
102
RTVSPost2010PropOp52
 70
     0
102
RTVSPost2010Prop53
 90
        2
102
RTVSPost2010PropOp53
 70
     1
102
RTVSPost2010Prop54
  1
strokes_ogs.tif
102
RTVSPost2010PropOp54
 70
     1
102
RTVSPost2010Prop55
280
     0
102
RTVSPost2010PropOp55
 70
     1
102
RTVSPost2010Prop56
140
1.0
102
RTVSPost2010PropOp56
 70
     1
102
RTVSPost2010Prop57
140
1.0
102
RTVSPost2010PropOp57
 70
     1
  0
XRECORD
  5
244
102
{ACAD_REACTORS
330
243
102
}
330
243
100
AcDbXrecord
280
     1
102
RTVSPropertyOp0
 70
     1
102
RTVSPropertyOp1
 70
     1
102
RTVSPropertyOp2
 70
     1
102
RTVSPropertyOp3
 70
     1
102
RTVSPropertyOp4
 70
     1
102
RTVSPropertyOp5
 70
     1
102
RTVSPropertyOp6
 70
     1
102
RTVSPropertyOp7
 70
     1
102
RTVSPropertyOp8
 70
     1
102
RTVSPropertyOp9
 70
     1
102
RTVSPropertyOp10
 70
     1
102
RTVSPropertyOp11
 70
     1
102
RTVSPropertyOp12
 70
     1
102
RTVSPropertyOp13
 70
     1
102
RTVSPropertyOp14
 70
     1
102
RTVSPropertyOp15
 70
     1
102
RTVSPropertyOp16
 70
     1
102
RTVSPropertyOp17
 70
     1
102
RTVSPropertyOp18
 70
     1
102
RTVSPropertyOp19
 70
     1
102
RTVSPropertyOp20
 70
     1
102
RTVSPropertyOp21
 70
     1
102
RTVSPropertyOp22
 70
     1
102
RTVSPropertyOp23
 70
     1
102
RTVSPropertyOp24
 70
     1
102
RTVSPropertyOp25
 70
     1
102
RTVSPropertyOp26
 70
     1
102
RTVSPropertyOp27
 70
     1
102
RTVSPropertyOp28
 70
     1
102
RTVSPropertyOp29
 70
     1
102
RTVSPropertyOp30
 70
     1
102
RTVSPropertyOp31
 70
     1
102
RTVSPropertyOp32
 70
     1
102
RTVSPropertyOp33
 70
     1
102
RTVSPropertyOp34
 70
     1
102
RTVSPropertyOp35
 70
     1
102
RTVSPropertyOp36
 70
     1
102
RTVSPropertyOp37
 70
     1
102
RTVSPropertyOp38
 70
     1
102
RTVSPropertyOp39
 70
     1
102
RTVSPropertyOp40
 70
     1
102
RTVSPropertyOp41
 70
     1
102
RTVSPropertyOp42
 70
     1
102
RTVSPropertyOp43
 70
     1
102
RTVSPropertyOp44
 70
     1
102
RTVSPropertyOp45
 70
     1
102
RTVSPropertyOp46
 70
     1
102
RTVSPropertyOp47
 70
     1
102
RTVSPropertyOp48
 70
     1
102
RTVSPropertyOp49
 70
     1
102
RTVSPropertyOp50
 70
     1
102
RTVSPropertyOp51
 70
     0
102
RTVSPropertyOp52
 70
     0
102
RTVSPropertyOp53
 70
     1
102
RTVSPropertyOp54
 70
     1
102
RTVSPropertyOp55
 70
     1
102
RTVSPropertyOp56
 70
     1
102
RTVSPropertyOp57
 70
     1
102
RTVSPost2010Prop28
280
     0
102
RTVSPost2010PropOp28
 70
     1
102
RTVSPost2010Prop29
280
     1
102
RTVSPost2010PropOp29
 70
     1
102
RTVSPost2010Prop30
280
     1
102
RTVSPost2010PropOp30
 70
     1
102
RTVSPost2010Prop31
280
     0
102
RTVSPost2010PropOp31
 70
     1
102
RTVSPost2010Prop32
280
     0
102
RTVSPost2010PropOp32
 70
     1
102
RTVSPost2010Prop33
280
     0
102
RTVSPost2010PropOp33
 70
     1
102
RTVSPost2010Prop34
280
     0
102
RTVSPost2010PropOp34
 70
     1
102
RTVSPost2010Prop35
280
     0
102
RTVSPost2010PropOp35
 70
     1
102
RTVSPost2010Prop36
280
     0
102
RTVSPost2010PropOp36
 70
     1
102
RTVSPost2010Prop37
 90
       50
102
RTVSPost2010PropOp37
 70
     1
102
RTVSPost2010Prop38
140
0.0
102
RTVSPost2010PropOp38
 70
     1
102
RTVSPost2010Prop39
140
1.0
102
RTVSPost2010PropOp39
 70
     1
102
RTVSPost2010Prop40
 90
        0
102
RTVSPost2010PropOp40
 70
     1
102
RTVSPost2010Prop41ColorIndex
 90
       18
102
RTVSPost2010Prop41ColorRGB
 90
        0
102
RTVSPost2010PropOp41
 70
     1
102
RTVSPost2010Prop42
 90
       50
102
RTVSPost2010PropOp42
 70
     1
102
RTVSPost2010Prop43
 90
        3
102
RTVSPost2010PropOp43
 70
     1
102
RTVSPost2010Prop44ColorIndex
 90
        5
102
RTVSPost2010Prop44ColorRGB
 90
      255
102
RTVSPost2010PropOp44
 70
     1
102
RTVSPost2010Prop45
280
     0
102
RTVSPost2010PropOp45
 70
     1
102
RTVSPost2010Prop46
 90
       50
102
RTVSPost2010PropOp46
 70
     1
102
RTVSPost2010Prop47
 90
       50
102
RTVSPost2010PropOp47
 70
     1
102
RTVSPost2010Prop48
 90
       50
102
RTVSPost2010PropOp48
 70
     1
102
RTVSPost2010Prop49
280
     0
102
RTVSPost2010PropOp49
 70
     1
102
RTVSPost2010Prop50
 90
       50
102
RTVSPost2010PropOp50
 70
     1
102
RTVSPost2010Prop51ColorIndex
 90
      256
102
RTVSPost2010Prop51ColorRGB
 90
-16777216
102
RTVSPost2010PropOp51
 70
     0
102
RTVSPost2010Prop52
140
1.0
102
RTVSPost2010PropOp52
 70
     0
102
RTVSPost2010Prop53
 90
        2
102
RTVSPost2010PropOp53
 70
     1
102
RTVSPost2010Prop54
  1
strokes_ogs.tif
102
RTVSPost2010PropOp54
 70
     1
102
RTVSPost2010Prop55
280
     0
102
RTVSPost2010PropOp55
 70
     1
102
RTVSPost2010Prop56
140
1.0
102
RTVSPost2010PropOp56
 70
     1
102
RTVSPost2010Prop57
140
1.0
102
RTVSPost2010PropOp57
 70
     1
  0
XRECORD
  5
238
102
{ACAD_REACTORS
330
237
102
}
330
237
100
AcDbXrecord
280
     1
102
RTVSPropertyOp0
 70
     1
102
RTVSPropertyOp1
 70
     1
102
RTVSPropertyOp2
 70
     1
102
RTVSPropertyOp3
 70
     1
102
RTVSPropertyOp4
 70
     1
102
RTVSPropertyOp5
 70
     1
102
RTVSPropertyOp6
 70
     1
102
RTVSPropertyOp7
 70
     1
102
RTVSPropertyOp8
 70
     1
102
RTVSPropertyOp9
 70
     1
102
RTVSPropertyOp10
 70
     1
102
RTVSPropertyOp11
 70
     1
102
RTVSPropertyOp12
 70
     1
102
RTVSPropertyOp13
 70
     1
102
RTVSPropertyOp14
 70
     1
102
RTVSPropertyOp15
 70
     1
102
RTVSPropertyOp16
 70
     1
102
RTVSPropertyOp17
 70
     1
102
RTVSPropertyOp18
 70
     1
102
RTVSPropertyOp19
 70
     1
102
RTVSPropertyOp20
 70
     1
102
RTVSPropertyOp21
 70
     1
102
RTVSPropertyOp22
 70
     1
102
RTVSPropertyOp23
 70
     1
102
RTVSPropertyOp24
 70
     1
102
RTVSPropertyOp25
 70
     1
102
RTVSPropertyOp26
 70
     1
102
RTVSPropertyOp27
 70
     1
102
RTVSPropertyOp28
 70
     1
102
RTVSPropertyOp29
 70
     1
102
RTVSPropertyOp30
 70
     1
102
RTVSPropertyOp31
 70
     1
102
RTVSPropertyOp32
 70
     1
102
RTVSPropertyOp33
 70
     1
102
RTVSPropertyOp34
 70
     1
102
RTVSPropertyOp35
 70
     1
102
RTVSPropertyOp36
 70
     1
102
RTVSPropertyOp37
 70
     1
102
RTVSPropertyOp38
 70
     1
102
RTVSPropertyOp39
 70
     1
102
RTVSPropertyOp40
 70
     1
102
RTVSPropertyOp41
 70
     1
102
RTVSPropertyOp42
 70
     1
102
RTVSPropertyOp43
 70
     1
102
RTVSPropertyOp44
 70
     1
102
RTVSPropertyOp45
 70
     1
102
RTVSPropertyOp46
 70
     1
102
RTVSPropertyOp47
 70
     1
102
RTVSPropertyOp48
 70
     1
102
RTVSPropertyOp49
 70
     1
102
RTVSPropertyOp50
 70
     1
102
RTVSPropertyOp51
 70
     0
102
RTVSPropertyOp52
 70
     0
102
RTVSPropertyOp53
 70
     1
102
RTVSPropertyOp54
 70
     1
102
RTVSPropertyOp55
 70
     1
102
RTVSPropertyOp56
 70
     1
102
RTVSPropertyOp57
 70
     1
102
RTVSPost2010Prop28
280
     0
102
RTVSPost2010PropOp28
 70
     1
102
RTVSPost2010Prop29
280
     1
102
RTVSPost2010PropOp29
 70
     1
102
RTVSPost2010Prop30
280
     1
102
RTVSPost2010PropOp30
 70
     1
102
RTVSPost2010Prop31
280
     0
102
RTVSPost2010PropOp31
 70
     1
102
RTVSPost2010Prop32
280
     0
102
RTVSPost2010PropOp32
 70
     1
102
RTVSPost2010Prop33
280
     0
102
RTVSPost2010PropOp33
 70
     1
102
RTVSPost2010Prop34
280
     0
102
RTVSPost2010PropOp34
 70
     1
102
RTVSPost2010Prop35
280
     0
102
RTVSPost2010PropOp35
 70
     1
102
RTVSPost2010Prop36
280
     0
102
RTVSPost2010PropOp36
 70
     1
102
RTVSPost2010Prop37
 90
       50
102
RTVSPost2010PropOp37
 70
     1
102
RTVSPost2010Prop38
140
0.0
102
RTVSPost2010PropOp38
 70
     1
102
RTVSPost2010Prop39
140
1.0
102
RTVSPost2010PropOp39
 70
     1
102
RTVSPost2010Prop40
 90
        0
102
RTVSPost2010PropOp40
 70
     1
102
RTVSPost2010Prop41ColorIndex
 90
       18
102
RTVSPost2010Prop41ColorRGB
 90
        0
102
RTVSPost2010PropOp41
 70
     1
102
RTVSPost2010Prop42
 90
       50
102
RTVSPost2010PropOp42
 70
     1
102
RTVSPost2010Prop43
 90
        3
102
RTVSPost2010PropOp43
 70
     1
102
RTVSPost2010Prop44ColorIndex
 90
        5
102
RTVSPost2010Prop44ColorRGB
 90
      255
102
RTVSPost2010PropOp44
 70
     1
102
RTVSPost2010Prop45
280
     0
102
RTVSPost2010PropOp45
 70
     1
102
RTVSPost2010Prop46
 90
       50
102
RTVSPost2010PropOp46
 70
     1
102
RTVSPost2010Prop47
 90
       50
102
RTVSPost2010PropOp47
 70
     1
102
RTVSPost2010Prop48
 90
       50
102
RTVSPost2010PropOp48
 70
     1
102
RTVSPost2010Prop49
280
     0
102
RTVSPost2010PropOp49
 70
     1
102
RTVSPost2010Prop50
 90
       50
102
RTVSPost2010PropOp50
 70
     1
102
RTVSPost2010Prop51ColorIndex
 90
      256
102
RTVSPost2010Prop51ColorRGB
 90
-16777216
102
RTVSPost2010PropOp51
 70
     0
102
RTVSPost2010Prop52
140
1.0
102
RTVSPost2010PropOp52
 70
     0
102
RTVSPost2010Prop53
 90
        2
102
RTVSPost2010PropOp53
 70
     1
102
RTVSPost2010Prop54
  1
strokes_ogs.tif
102
RTVSPost2010PropOp54
 70
     1
102
RTVSPost2010Prop55
280
     0
102
RTVSPost2010PropOp55
 70
     1
102
RTVSPost2010Prop56
140
1.0
102
RTVSPost2010PropOp56
 70
     1
102
RTVSPost2010Prop57
140
1.0
102
RTVSPost2010PropOp57
 70
     1
  0
XRECORD
  5
23A
102
{ACAD_REACTORS
330
239
102
}
330
239
100
AcDbXrecord
280
     1
102
RTVSPropertyOp0
 70
     1
102
RTVSPropertyOp1
 70
     1
102
RTVSPropertyOp2
 70
     1
102
RTVSPropertyOp3
 70
     1
102
RTVSPropertyOp4
 70
     1
102
RTVSPropertyOp5
 70
     1
102
RTVSPropertyOp6
 70
     1
102
RTVSPropertyOp7
 70
     1
102
RTVSPropertyOp8
 70
     1
102
RTVSPropertyOp9
 70
     1
102
RTVSPropertyOp10
 70
     1
102
RTVSPropertyOp11
 70
     1
102
RTVSPropertyOp12
 70
     1
102
RTVSPropertyOp13
 70
     1
102
RTVSPropertyOp14
 70
     1
102
RTVSPropertyOp15
 70
     1
102
RTVSPropertyOp16
 70
     1
102
RTVSPropertyOp17
 70
     1
102
RTVSPropertyOp18
 70
     1
102
RTVSPropertyOp19
 70
     1
102
RTVSPropertyOp20
 70
     1
102
RTVSPropertyOp21
 70
     1
102
RTVSPropertyOp22
 70
     1
102
RTVSPropertyOp23
 70
     1
102
RTVSPropertyOp24
 70
     1
102
RTVSPropertyOp25
 70
     1
102
RTVSPropertyOp26
 70
     1
102
RTVSPropertyOp27
 70
     1
102
RTVSPropertyOp28
 70
     1
102
RTVSPropertyOp29
 70
     1
102
RTVSPropertyOp30
 70
     1
102
RTVSPropertyOp31
 70
     1
102
RTVSPropertyOp32
 70
     1
102
RTVSPropertyOp33
 70
     1
102
RTVSPropertyOp34
 70
     1
102
RTVSPropertyOp35
 70
     1
102
RTVSPropertyOp36
 70
     1
102
RTVSPropertyOp37
 70
     1
102
RTVSPropertyOp38
 70
     1
102
RTVSPropertyOp39
 70
     1
102
RTVSPropertyOp40
 70
     1
102
RTVSPropertyOp41
 70
     1
102
RTVSPropertyOp42
 70
     1
102
RTVSPropertyOp43
 70
     1
102
RTVSPropertyOp44
 70
     1
102
RTVSPropertyOp45
 70
     1
102
RTVSPropertyOp46
 70
     1
102
RTVSPropertyOp47
 70
     1
102
RTVSPropertyOp48
 70
     1
102
RTVSPropertyOp49
 70
     1
102
RTVSPropertyOp50
 70
     1
102
RTVSPropertyOp51
 70
     0
102
RTVSPropertyOp52
 70
     0
102
RTVSPropertyOp53
 70
     1
102
RTVSPropertyOp54
 70
     1
102
RTVSPropertyOp55
 70
     1
102
RTVSPropertyOp56
 70
     1
102
RTVSPropertyOp57
 70
     1
102
RTVSPost2010Prop28
280
     0
102
RTVSPost2010PropOp28
 70
     1
102
RTVSPost2010Prop29
280
     1
102
RTVSPost2010PropOp29
 70
     1
102
RTVSPost2010Prop30
280
     1
102
RTVSPost2010PropOp30
 70
     1
102
RTVSPost2010Prop31
280
     0
102
RTVSPost2010PropOp31
 70
     1
102
RTVSPost2010Prop32
280
     0
102
RTVSPost2010PropOp32
 70
     1
102
RTVSPost2010Prop33
280
     0
102
RTVSPost2010PropOp33
 70
     1
102
RTVSPost2010Prop34
280
     0
102
RTVSPost2010PropOp34
 70
     1
102
RTVSPost2010Prop35
280
     0
102
RTVSPost2010PropOp35
 70
     1
102
RTVSPost2010Prop36
280
     0
102
RTVSPost2010PropOp36
 70
     1
102
RTVSPost2010Prop37
 90
       50
102
RTVSPost2010PropOp37
 70
     1
102
RTVSPost2010Prop38
140
0.0
102
RTVSPost2010PropOp38
 70
     1
102
RTVSPost2010Prop39
140
1.0
102
RTVSPost2010PropOp39
 70
     1
102
RTVSPost2010Prop40
 90
        0
102
RTVSPost2010PropOp40
 70
     1
102
RTVSPost2010Prop41ColorIndex
 90
       18
102
RTVSPost2010Prop41ColorRGB
 90
        0
102
RTVSPost2010PropOp41
 70
     1
102
RTVSPost2010Prop42
 90
       50
102
RTVSPost2010PropOp42
 70
     1
102
RTVSPost2010Prop43
 90
        3
102
RTVSPost2010PropOp43
 70
     1
102
RTVSPost2010Prop44ColorIndex
 90
        5
102
RTVSPost2010Prop44ColorRGB
 90
      255
102
RTVSPost2010PropOp44
 70
     1
102
RTVSPost2010Prop45
280
     0
102
RTVSPost2010PropOp45
 70
     1
102
RTVSPost2010Prop46
 90
       50
102
RTVSPost2010PropOp46
 70
     1
102
RTVSPost2010Prop47
 90
       50
102
RTVSPost2010PropOp47
 70
     1
102
RTVSPost2010Prop48
 90
       50
102
RTVSPost2010PropOp48
 70
     1
102
RTVSPost2010Prop49
280
     0
102
RTVSPost2010PropOp49
 70
     1
102
RTVSPost2010Prop50
 90
       50
102
RTVSPost2010PropOp50
 70
     1
102
RTVSPost2010Prop51ColorIndex
 90
      256
102
RTVSPost2010Prop51ColorRGB
 90
-16777216
102
RTVSPost2010PropOp51
 70
     0
102
RTVSPost2010Prop52
140
1.0
102
RTVSPost2010PropOp52
 70
     0
102
RTVSPost2010Prop53
 90
        2
102
RTVSPost2010PropOp53
 70
     1
102
RTVSPost2010Prop54
  1
strokes_ogs.tif
102
RTVSPost2010PropOp54
 70
     1
102
RTVSPost2010Prop55
280
     0
102
RTVSPost2010PropOp55
 70
     1
102
RTVSPost2010Prop56
140
1.0
102
RTVSPost2010PropOp56
 70
     1
102
RTVSPost2010Prop57
140
1.0
102
RTVSPost2010PropOp57
 70
     1
  0
XRECORD
  5
24A
102
{ACAD_REACTORS
330
249
102
}
330
249
100
AcDbXrecord
280
     1
102
RTVSPropertyOp0
 70
     0
102
RTVSPropertyOp1
 70
     0
102
RTVSPropertyOp2
 70
     0
102
RTVSPropertyOp3
 70
     0
102
RTVSPropertyOp4
 70
     0
102
RTVSPropertyOp5
 70
     0
102
RTVSPropertyOp6
 70
     0
102
RTVSPropertyOp7
 70
     0
102
RTVSPropertyOp8
 70
     0
102
RTVSPropertyOp9
 70
     0
102
RTVSPropertyOp10
 70
     0
102
RTVSPropertyOp11
 70
     0
102
RTVSPropertyOp12
 70
     0
102
RTVSPropertyOp13
 70
     0
102
RTVSPropertyOp14
 70
     2
102
RTVSPropertyOp15
 70
     0
102
RTVSPropertyOp16
 70
     0
102
RTVSPropertyOp17
 70
     0
102
RTVSPropertyOp18
 70
     0
102
RTVSPropertyOp19
 70
     0
102
RTVSPropertyOp20
 70
     0
102
RTVSPropertyOp21
 70
     0
102
RTVSPropertyOp22
 70
     0
102
RTVSPropertyOp23
 70
     0
102
RTVSPropertyOp24
 70
     0
102
RTVSPropertyOp25
 70
     0
102
RTVSPropertyOp26
 70
     0
102
RTVSPropertyOp27
 70
     0
102
RTVSPropertyOp28
 70
     0
102
RTVSPropertyOp29
 70
     0
102
RTVSPropertyOp30
 70
     0
102
RTVSPropertyOp31
 70
     0
102
RTVSPropertyOp32
 70
     0
102
RTVSPropertyOp33
 70
     0
102
RTVSPropertyOp34
 70
     0
102
RTVSPropertyOp35
 70
     0
102
RTVSPropertyOp36
 70
     0
102
RTVSPropertyOp37
 70
     0
102
RTVSPropertyOp38
 70
     0
102
RTVSPropertyOp39
 70
     0
102
RTVSPropertyOp40
 70
     0
102
RTVSPropertyOp41
 70
     0
102
RTVSPropertyOp42
 70
     0
102
RTVSPropertyOp43
 70
     0
102
RTVSPropertyOp44
 70
     0
102
RTVSPropertyOp45
 70
     0
102
RTVSPropertyOp46
 70
     0
102
RTVSPropertyOp47
 70
     0
102
RTVSPropertyOp48
 70
     0
102
RTVSPropertyOp49
 70
     0
102
RTVSPropertyOp50
 70
     0
102
RTVSPropertyOp51
 70
     0
102
RTVSPropertyOp52
 70
     0
102
RTVSPropertyOp53
 70
     0
102
RTVSPropertyOp54
 70
     0
102
RTVSPropertyOp55
 70
     0
102
RTVSPropertyOp56
 70
     0
102
RTVSPropertyOp57
 70
     0
102
RTVSPost2010Prop28
280
     0
102
RTVSPost2010PropOp28
 70
     0
102
RTVSPost2010Prop29
280
     1
102
RTVSPost2010PropOp29
 70
     0
102
RTVSPost2010Prop30
280
     1
102
RTVSPost2010PropOp30
 70
     0
102
RTVSPost2010Prop31
280
     0
102
RTVSPost2010PropOp31
 70
     0
102
RTVSPost2010Prop32
280
     0
102
RTVSPost2010PropOp32
 70
     0
102
RTVSPost2010Prop33
280
     0
102
RTVSPost2010PropOp33
 70
     0
102
RTVSPost2010Prop34
280
     0
102
RTVSPost2010PropOp34
 70
     0
102
RTVSPost2010Prop35
280
     0
102
RTVSPost2010PropOp35
 70
     0
102
RTVSPost2010Prop36
280
     0
102
RTVSPost2010PropOp36
 70
     0
102
RTVSPost2010Prop37
 90
       50
102
RTVSPost2010PropOp37
 70
     0
102
RTVSPost2010Prop38
140
0.0
102
RTVSPost2010PropOp38
 70
     0
102
RTVSPost2010Prop39
140
1.0
102
RTVSPost2010PropOp39
 70
     0
102
RTVSPost2010Prop40
 90
        0
102
RTVSPost2010PropOp40
 70
     0
102
RTVSPost2010Prop41ColorIndex
 90
       18
102
RTVSPost2010Prop41ColorRGB
 90
        0
102
RTVSPost2010PropOp41
 70
     0
102
RTVSPost2010Prop42
 90
       50
102
RTVSPost2010PropOp42
 70
     0
102
RTVSPost2010Prop43
 90
        3
102
RTVSPost2010PropOp43
 70
     0
102
RTVSPost2010Prop44ColorIndex
 90
        5
102
RTVSPost2010Prop44ColorRGB
 90
      255
102
RTVSPost2010PropOp44
 70
     0
102
RTVSPost2010Prop45
280
     0
102
RTVSPost2010PropOp45
 70
     0
102
RTVSPost2010Prop46
 90
       50
102
RTVSPost2010PropOp46
 70
     0
102
RTVSPost2010Prop47
 90
       50
102
RTVSPost2010PropOp47
 70
     0
102
RTVSPost2010Prop48
 90
       50
102
RTVSPost2010PropOp48
 70
     0
102
RTVSPost2010Prop49
280
     0
102
RTVSPost2010PropOp49
 70
     0
102
RTVSPost2010Prop50
 90
       50
102
RTVSPost2010PropOp50
 70
     0
102
RTVSPost2010Prop51ColorIndex
 90
      256
102
RTVSPost2010Prop51ColorRGB
 90
-16777216
102
RTVSPost2010PropOp51
 70
     0
102
RTVSPost2010Prop52
140
1.0
102
RTVSPost2010PropOp52
 70
     0
102
RTVSPost2010Prop53
 90
        2
102
RTVSPost2010PropOp53
 70
     0
102
RTVSPost2010Prop54
  1
strokes_ogs.tif
102
RTVSPost2010PropOp54
 70
     0
102
RTVSPost2010Prop55
280
     0
102
RTVSPost2010PropOp55
 70
     0
102
RTVSPost2010Prop56
140
1.0
102
RTVSPost2010PropOp56
 70
     0
102
RTVSPost2010Prop57
140
1.0
102
RTVSPost2010PropOp57
 70
     0
  0
XRECORD
  5
242
102
{ACAD_REACTORS
330
241
102
}
330
241
100
AcDbXrecord
280
     1
102
RTVSPropertyOp0
 70
     1
102
RTVSPropertyOp1
 70
     1
102
RTVSPropertyOp2
 70
     1
102
RTVSPropertyOp3
 70
     1
102
RTVSPropertyOp4
 70
     1
102
RTVSPropertyOp5
 70
     1
102
RTVSPropertyOp6
 70
     1
102
RTVSPropertyOp7
 70
     1
102
RTVSPropertyOp8
 70
     1
102
RTVSPropertyOp9
 70
     1
102
RTVSPropertyOp10
 70
     1
102
RTVSPropertyOp11
 70
     1
102
RTVSPropertyOp12
 70
     1
102
RTVSPropertyOp13
 70
     1
102
RTVSPropertyOp14
 70
     1
102
RTVSPropertyOp15
 70
     1
102
RTVSPropertyOp16
 70
     1
102
RTVSPropertyOp17
 70
     1
102
RTVSPropertyOp18
 70
     1
102
RTVSPropertyOp19
 70
     1
102
RTVSPropertyOp20
 70
     1
102
RTVSPropertyOp21
 70
     1
102
RTVSPropertyOp22
 70
     1
102
RTVSPropertyOp23
 70
     1
102
RTVSPropertyOp24
 70
     1
102
RTVSPropertyOp25
 70
     1
102
RTVSPropertyOp26
 70
     1
102
RTVSPropertyOp27
 70
     1
102
RTVSPropertyOp28
 70
     1
102
RTVSPropertyOp29
 70
     1
102
RTVSPropertyOp30
 70
     1
102
RTVSPropertyOp31
 70
     1
102
RTVSPropertyOp32
 70
     1
102
RTVSPropertyOp33
 70
     1
102
RTVSPropertyOp34
 70
     1
102
RTVSPropertyOp35
 70
     1
102
RTVSPropertyOp36
 70
     1
102
RTVSPropertyOp37
 70
     1
102
RTVSPropertyOp38
 70
     1
102
RTVSPropertyOp39
 70
     1
102
RTVSPropertyOp40
 70
     1
102
RTVSPropertyOp41
 70
     1
102
RTVSPropertyOp42
 70
     1
102
RTVSPropertyOp43
 70
     1
102
RTVSPropertyOp44
 70
     1
102
RTVSPropertyOp45
 70
     1
102
RTVSPropertyOp46
 70
     1
102
RTVSPropertyOp47
 70
     1
102
RTVSPropertyOp48
 70
     1
102
RTVSPropertyOp49
 70
     1
102
RTVSPropertyOp50
 70
     1
102
RTVSPropertyOp51
 70
     0
102
RTVSPropertyOp52
 70
     0
102
RTVSPropertyOp53
 70
     1
102
RTVSPropertyOp54
 70
     1
102
RTVSPropertyOp55
 70
     1
102
RTVSPropertyOp56
 70
     1
102
RTVSPropertyOp57
 70
     1
102
RTVSPost2010Prop28
280
     0
102
RTVSPost2010PropOp28
 70
     1
102
RTVSPost2010Prop29
280
     1
102
RTVSPost2010PropOp29
 70
     1
102
RTVSPost2010Prop30
280
     1
102
RTVSPost2010PropOp30
 70
     1
102
RTVSPost2010Prop31
280
     0
102
RTVSPost2010PropOp31
 70
     1
102
RTVSPost2010Prop32
280
     0
102
RTVSPost2010PropOp32
 70
     1
102
RTVSPost2010Prop33
280
     0
102
RTVSPost2010PropOp33
 70
     1
102
RTVSPost2010Prop34
280
     0
102
RTVSPost2010PropOp34
 70
     1
102
RTVSPost2010Prop35
280
     0
102
RTVSPost2010PropOp35
 70
     1
102
RTVSPost2010Prop36
280
     0
102
RTVSPost2010PropOp36
 70
     1
102
RTVSPost2010Prop37
 90
       50
102
RTVSPost2010PropOp37
 70
     1
102
RTVSPost2010Prop38
140
0.0
102
RTVSPost2010PropOp38
 70
     1
102
RTVSPost2010Prop39
140
1.0
102
RTVSPost2010PropOp39
 70
     1
102
RTVSPost2010Prop40
 90
        0
102
RTVSPost2010PropOp40
 70
     1
102
RTVSPost2010Prop41ColorIndex
 90
       18
102
RTVSPost2010Prop41ColorRGB
 90
        0
102
RTVSPost2010PropOp41
 70
     1
102
RTVSPost2010Prop42
 90
       50
102
RTVSPost2010PropOp42
 70
     1
102
RTVSPost2010Prop43
 90
        3
102
RTVSPost2010PropOp43
 70
     1
102
RTVSPost2010Prop44ColorIndex
 90
        5
102
RTVSPost2010Prop44ColorRGB
 90
      255
102
RTVSPost2010PropOp44
 70
     1
102
RTVSPost2010Prop45
280
     0
102
RTVSPost2010PropOp45
 70
     1
102
RTVSPost2010Prop46
 90
       50
102
RTVSPost2010PropOp46
 70
     1
102
RTVSPost2010Prop47
 90
       50
102
RTVSPost2010PropOp47
 70
     1
102
RTVSPost2010Prop48
 90
       50
102
RTVSPost2010PropOp48
 70
     1
102
RTVSPost2010Prop49
280
     0
102
RTVSPost2010PropOp49
 70
     1
102
RTVSPost2010Prop50
 90
       50
102
RTVSPost2010PropOp50
 70
     1
102
RTVSPost2010Prop51ColorIndex
 90
      256
102
RTVSPost2010Prop51ColorRGB
 90
-16777216
102
RTVSPost2010PropOp51
 70
     0
102
RTVSPost2010Prop52
140
1.0
102
RTVSPost2010PropOp52
 70
     0
102
RTVSPost2010Prop53
 90
        2
102
RTVSPost2010PropOp53
 70
     1
102
RTVSPost2010Prop54
  1
strokes_ogs.tif
102
RTVSPost2010PropOp54
 70
     1
102
RTVSPost2010Prop55
280
     0
102
RTVSPost2010PropOp55
 70
     1
102
RTVSPost2010Prop56
140
1.0
102
RTVSPost2010PropOp56
 70
     1
102
RTVSPost2010Prop57
140
1.0
102
RTVSPost2010PropOp57
 70
     1
  0
XRECORD
  5
226
102
{ACAD_REACTORS
330
225
102
}
330
225
100
AcDbXrecord
280
     1
102
RTVSPropertyOp0
 70
     1
102
RTVSPropertyOp1
 70
     1
102
RTVSPropertyOp2
 70
     1
102
RTVSPropertyOp3
 70
     1
102
RTVSPropertyOp4
 70
     1
102
RTVSPropertyOp5
 70
     1
102
RTVSPropertyOp6
 70
     1
102
RTVSPropertyOp7
 70
     1
102
RTVSPropertyOp8
 70
     1
102
RTVSPropertyOp9
 70
     1
102
RTVSPropertyOp10
 70
     1
102
RTVSPropertyOp11
 70
     1
102
RTVSPropertyOp12
 70
     1
102
RTVSPropertyOp13
 70
     1
102
RTVSPropertyOp14
 70
     1
102
RTVSPropertyOp15
 70
     1
102
RTVSPropertyOp16
 70
     1
102
RTVSPropertyOp17
 70
     1
102
RTVSPropertyOp18
 70
     1
102
RTVSPropertyOp19
 70
     1
102
RTVSPropertyOp20
 70
     1
102
RTVSPropertyOp21
 70
     1
102
RTVSPropertyOp22
 70
     1
102
RTVSPropertyOp23
 70
     1
102
RTVSPropertyOp24
 70
     1
102
RTVSPropertyOp25
 70
     1
102
RTVSPropertyOp26
 70
     1
102
RTVSPropertyOp27
 70
     1
102
RTVSPropertyOp28
 70
     1
102
RTVSPropertyOp29
 70
     1
102
RTVSPropertyOp30
 70
     1
102
RTVSPropertyOp31
 70
     1
102
RTVSPropertyOp32
 70
     1
102
RTVSPropertyOp33
 70
     1
102
RTVSPropertyOp34
 70
     1
102
RTVSPropertyOp35
 70
     1
102
RTVSPropertyOp36
 70
     1
102
RTVSPropertyOp37
 70
     1
102
RTVSPropertyOp38
 70
     1
102
RTVSPropertyOp39
 70
     1
102
RTVSPropertyOp40
 70
     1
102
RTVSPropertyOp41
 70
     1
102
RTVSPropertyOp42
 70
     1
102
RTVSPropertyOp43
 70
     1
102
RTVSPropertyOp44
 70
     1
102
RTVSPropertyOp45
 70
     1
102
RTVSPropertyOp46
 70
     1
102
RTVSPropertyOp47
 70
     1
102
RTVSPropertyOp48
 70
     1
102
RTVSPropertyOp49
 70
     1
102
RTVSPropertyOp50
 70
     1
102
RTVSPropertyOp51
 70
     0
102
RTVSPropertyOp52
 70
     0
102
RTVSPropertyOp53
 70
     1
102
RTVSPropertyOp54
 70
     1
102
RTVSPropertyOp55
 70
     1
102
RTVSPropertyOp56
 70
     1
102
RTVSPropertyOp57
 70
     1
102
RTVSPost2010Prop28
280
     0
102
RTVSPost2010PropOp28
 70
     1
102
RTVSPost2010Prop29
280
     1
102
RTVSPost2010PropOp29
 70
     1
102
RTVSPost2010Prop30
280
     1
102
RTVSPost2010PropOp30
 70
     1
102
RTVSPost2010Prop31
280
     0
102
RTVSPost2010PropOp31
 70
     1
102
RTVSPost2010Prop32
280
     0
102
RTVSPost2010PropOp32
 70
     1
102
RTVSPost2010Prop33
280
     0
102
RTVSPost2010PropOp33
 70
     1
102
RTVSPost2010Prop34
280
     0
102
RTVSPost2010PropOp34
 70
     1
102
RTVSPost2010Prop35
280
     0
102
RTVSPost2010PropOp35
 70
     1
102
RTVSPost2010Prop36
280
     0
102
RTVSPost2010PropOp36
 70
     1
102
RTVSPost2010Prop37
 90
       50
102
RTVSPost2010PropOp37
 70
     1
102
RTVSPost2010Prop38
140
0.0
102
RTVSPost2010PropOp38
 70
     1
102
RTVSPost2010Prop39
140
1.0
102
RTVSPost2010PropOp39
 70
     1
102
RTVSPost2010Prop40
 90
        0
102
RTVSPost2010PropOp40
 70
     1
102
RTVSPost2010Prop41ColorIndex
 90
       18
102
RTVSPost2010Prop41ColorRGB
 90
        0
102
RTVSPost2010PropOp41
 70
     1
102
RTVSPost2010Prop42
 90
       50
102
RTVSPost2010PropOp42
 70
     1
102
RTVSPost2010Prop43
 90
        3
102
RTVSPost2010PropOp43
 70
     1
102
RTVSPost2010Prop44ColorIndex
 90
        5
102
RTVSPost2010Prop44ColorRGB
 90
      255
102
RTVSPost2010PropOp44
 70
     1
102
RTVSPost2010Prop45
280
     0
102
RTVSPost2010PropOp45
 70
     1
102
RTVSPost2010Prop46
 90
       50
102
RTVSPost2010PropOp46
 70
     1
102
RTVSPost2010Prop47
 90
       50
102
RTVSPost2010PropOp47
 70
     1
102
RTVSPost2010Prop48
 90
       50
102
RTVSPost2010PropOp48
 70
     1
102
RTVSPost2010Prop49
280
     0
102
RTVSPost2010PropOp49
 70
     1
102
RTVSPost2010Prop50
 90
       50
102
RTVSPost2010PropOp50
 70
     1
102
RTVSPost2010Prop51ColorIndex
 90
      256
102
RTVSPost2010Prop51ColorRGB
 90
-16777216
102
RTVSPost2010PropOp51
 70
     0
102
RTVSPost2010Prop52
140
1.0
102
RTVSPost2010PropOp52
 70
     0
102
RTVSPost2010Prop53
 90
        2
102
RTVSPost2010PropOp53
 70
     1
102
RTVSPost2010Prop54
  1
strokes_ogs.tif
102
RTVSPost2010PropOp54
 70
     1
102
RTVSPost2010Prop55
280
     0
102
RTVSPost2010PropOp55
 70
     1
102
RTVSPost2010Prop56
140
1.0
102
RTVSPost2010PropOp56
 70
     1
102
RTVSPost2010Prop57
140
1.0
102
RTVSPost2010PropOp57
 70
     1
  0
XRECORD
  5
228
102
{ACAD_REACTORS
330
227
102
}
330
227
100
AcDbXrecord
280
     1
102
RTVSPropertyOp0
 70
     1
102
RTVSPropertyOp1
 70
     1
102
RTVSPropertyOp2
 70
     1
102
RTVSPropertyOp3
 70
     1
102
RTVSPropertyOp4
 70
     1
102
RTVSPropertyOp5
 70
     1
102
RTVSPropertyOp6
 70
     1
102
RTVSPropertyOp7
 70
     1
102
RTVSPropertyOp8
 70
     1
102
RTVSPropertyOp9
 70
     1
102
RTVSPropertyOp10
 70
     1
102
RTVSPropertyOp11
 70
     1
102
RTVSPropertyOp12
 70
     1
102
RTVSPropertyOp13
 70
     1
102
RTVSPropertyOp14
 70
     1
102
RTVSPropertyOp15
 70
     1
102
RTVSPropertyOp16
 70
     1
102
RTVSPropertyOp17
 70
     1
102
RTVSPropertyOp18
 70
     1
102
RTVSPropertyOp19
 70
     1
102
RTVSPropertyOp20
 70
     1
102
RTVSPropertyOp21
 70
     1
102
RTVSPropertyOp22
 70
     1
102
RTVSPropertyOp23
 70
     1
102
RTVSPropertyOp24
 70
     1
102
RTVSPropertyOp25
 70
     1
102
RTVSPropertyOp26
 70
     1
102
RTVSPropertyOp27
 70
     1
102
RTVSPropertyOp28
 70
     1
102
RTVSPropertyOp29
 70
     1
102
RTVSPropertyOp30
 70
     1
102
RTVSPropertyOp31
 70
     1
102
RTVSPropertyOp32
 70
     1
102
RTVSPropertyOp33
 70
     1
102
RTVSPropertyOp34
 70
     1
102
RTVSPropertyOp35
 70
     1
102
RTVSPropertyOp36
 70
     1
102
RTVSPropertyOp37
 70
     1
102
RTVSPropertyOp38
 70
     1
102
RTVSPropertyOp39
 70
     1
102
RTVSPropertyOp40
 70
     1
102
RTVSPropertyOp41
 70
     1
102
RTVSPropertyOp42
 70
     1
102
RTVSPropertyOp43
 70
     1
102
RTVSPropertyOp44
 70
     1
102
RTVSPropertyOp45
 70
     1
102
RTVSPropertyOp46
 70
     1
102
RTVSPropertyOp47
 70
     1
102
RTVSPropertyOp48
 70
     1
102
RTVSPropertyOp49
 70
     1
102
RTVSPropertyOp50
 70
     1
102
RTVSPropertyOp51
 70
     0
102
RTVSPropertyOp52
 70
     0
102
RTVSPropertyOp53
 70
     1
102
RTVSPropertyOp54
 70
     1
102
RTVSPropertyOp55
 70
     1
102
RTVSPropertyOp56
 70
     1
102
RTVSPropertyOp57
 70
     1
102
RTVSPost2010Prop28
280
     0
102
RTVSPost2010PropOp28
 70
     1
102
RTVSPost2010Prop29
280
     1
102
RTVSPost2010PropOp29
 70
     1
102
RTVSPost2010Prop30
280
     1
102
RTVSPost2010PropOp30
 70
     1
102
RTVSPost2010Prop31
280
     0
102
RTVSPost2010PropOp31
 70
     1
102
RTVSPost2010Prop32
280
     0
102
RTVSPost2010PropOp32
 70
     1
102
RTVSPost2010Prop33
280
     0
102
RTVSPost2010PropOp33
 70
     1
102
RTVSPost2010Prop34
280
     0
102
RTVSPost2010PropOp34
 70
     1
102
RTVSPost2010Prop35
280
     0
102
RTVSPost2010PropOp35
 70
     1
102
RTVSPost2010Prop36
280
     0
102
RTVSPost2010PropOp36
 70
     1
102
RTVSPost2010Prop37
 90
       50
102
RTVSPost2010PropOp37
 70
     1
102
RTVSPost2010Prop38
140
0.0
102
RTVSPost2010PropOp38
 70
     1
102
RTVSPost2010Prop39
140
1.0
102
RTVSPost2010PropOp39
 70
     1
102
RTVSPost2010Prop40
 90
        0
102
RTVSPost2010PropOp40
 70
     1
102
RTVSPost2010Prop41ColorIndex
 90
       18
102
RTVSPost2010Prop41ColorRGB
 90
        0
102
RTVSPost2010PropOp41
 70
     1
102
RTVSPost2010Prop42
 90
       50
102
RTVSPost2010PropOp42
 70
     1
102
RTVSPost2010Prop43
 90
        3
102
RTVSPost2010PropOp43
 70
     1
102
RTVSPost2010Prop44ColorIndex
 90
        5
102
RTVSPost2010Prop44ColorRGB
 90
      255
102
RTVSPost2010PropOp44
 70
     1
102
RTVSPost2010Prop45
280
     0
102
RTVSPost2010PropOp45
 70
     1
102
RTVSPost2010Prop46
 90
       50
102
RTVSPost2010PropOp46
 70
     1
102
RTVSPost2010Prop47
 90
       50
102
RTVSPost2010PropOp47
 70
     1
102
RTVSPost2010Prop48
 90
       50
102
RTVSPost2010PropOp48
 70
     1
102
RTVSPost2010Prop49
280
     0
102
RTVSPost2010PropOp49
 70
     1
102
RTVSPost2010Prop50
 90
       50
102
RTVSPost2010PropOp50
 70
     1
102
RTVSPost2010Prop51ColorIndex
 90
      256
102
RTVSPost2010Prop51ColorRGB
 90
-16777216
102
RTVSPost2010PropOp51
 70
     0
102
RTVSPost2010Prop52
140
1.0
102
RTVSPost2010PropOp52
 70
     0
102
RTVSPost2010Prop53
 90
        2
102
RTVSPost2010PropOp53
 70
     1
102
RTVSPost2010Prop54
  1
strokes_ogs.tif
102
RTVSPost2010PropOp54
 70
     1
102
RTVSPost2010Prop55
280
     0
102
RTVSPost2010PropOp55
 70
     1
102
RTVSPost2010Prop56
140
1.0
102
RTVSPost2010PropOp56
 70
     1
102
RTVSPost2010Prop57
140
1.0
102
RTVSPost2010PropOp57
 70
     1
  0
XRECORD
  5
22A
102
{ACAD_REACTORS
330
229
102
}
330
229
100
AcDbXrecord
280
     1
102
RTVSPropertyOp0
 70
     1
102
RTVSPropertyOp1
 70
     1
102
RTVSPropertyOp2
 70
     1
102
RTVSPropertyOp3
 70
     1
102
RTVSPropertyOp4
 70
     1
102
RTVSPropertyOp5
 70
     1
102
RTVSPropertyOp6
 70
     1
102
RTVSPropertyOp7
 70
     1
102
RTVSPropertyOp8
 70
     1
102
RTVSPropertyOp9
 70
     1
102
RTVSPropertyOp10
 70
     1
102
RTVSPropertyOp11
 70
     1
102
RTVSPropertyOp12
 70
     1
102
RTVSPropertyOp13
 70
     1
102
RTVSPropertyOp14
 70
     1
102
RTVSPropertyOp15
 70
     1
102
RTVSPropertyOp16
 70
     1
102
RTVSPropertyOp17
 70
     1
102
RTVSPropertyOp18
 70
     1
102
RTVSPropertyOp19
 70
     1
102
RTVSPropertyOp20
 70
     1
102
RTVSPropertyOp21
 70
     1
102
RTVSPropertyOp22
 70
     1
102
RTVSPropertyOp23
 70
     1
102
RTVSPropertyOp24
 70
     1
102
RTVSPropertyOp25
 70
     1
102
RTVSPropertyOp26
 70
     1
102
RTVSPropertyOp27
 70
     1
102
RTVSPropertyOp28
 70
     1
102
RTVSPropertyOp29
 70
     1
102
RTVSPropertyOp30
 70
     1
102
RTVSPropertyOp31
 70
     1
102
RTVSPropertyOp32
 70
     1
102
RTVSPropertyOp33
 70
     1
102
RTVSPropertyOp34
 70
     1
102
RTVSPropertyOp35
 70
     1
102
RTVSPropertyOp36
 70
     1
102
RTVSPropertyOp37
 70
     1
102
RTVSPropertyOp38
 70
     1
102
RTVSPropertyOp39
 70
     1
102
RTVSPropertyOp40
 70
     1
102
RTVSPropertyOp41
 70
     1
102
RTVSPropertyOp42
 70
     1
102
RTVSPropertyOp43
 70
     1
102
RTVSPropertyOp44
 70
     1
102
RTVSPropertyOp45
 70
     1
102
RTVSPropertyOp46
 70
     1
102
RTVSPropertyOp47
 70
     1
102
RTVSPropertyOp48
 70
     1
102
RTVSPropertyOp49
 70
     1
102
RTVSPropertyOp50
 70
     1
102
RTVSPropertyOp51
 70
     0
102
RTVSPropertyOp52
 70
     0
102
RTVSPropertyOp53
 70
     1
102
RTVSPropertyOp54
 70
     1
102
RTVSPropertyOp55
 70
     1
102
RTVSPropertyOp56
 70
     1
102
RTVSPropertyOp57
 70
     1
102
RTVSPost2010Prop28
280
     0
102
RTVSPost2010PropOp28
 70
     1
102
RTVSPost2010Prop29
280
     1
102
RTVSPost2010PropOp29
 70
     1
102
RTVSPost2010Prop30
280
     1
102
RTVSPost2010PropOp30
 70
     1
102
RTVSPost2010Prop31
280
     0
102
RTVSPost2010PropOp31
 70
     1
102
RTVSPost2010Prop32
280
     0
102
RTVSPost2010PropOp32
 70
     1
102
RTVSPost2010Prop33
280
     0
102
RTVSPost2010PropOp33
 70
     1
102
RTVSPost2010Prop34
280
     0
102
RTVSPost2010PropOp34
 70
     1
102
RTVSPost2010Prop35
280
     0
102
RTVSPost2010PropOp35
 70
     1
102
RTVSPost2010Prop36
280
     0
102
RTVSPost2010PropOp36
 70
     1
102
RTVSPost2010Prop37
 90
       50
102
RTVSPost2010PropOp37
 70
     1
102
RTVSPost2010Prop38
140
0.0
102
RTVSPost2010PropOp38
 70
     1
102
RTVSPost2010Prop39
140
1.0
102
RTVSPost2010PropOp39
 70
     1
102
RTVSPost2010Prop40
 90
        0
102
RTVSPost2010PropOp40
 70
     1
102
RTVSPost2010Prop41ColorIndex
 90
       18
102
RTVSPost2010Prop41ColorRGB
 90
        0
102
RTVSPost2010PropOp41
 70
     1
102
RTVSPost2010Prop42
 90
       50
102
RTVSPost2010PropOp42
 70
     1
102
RTVSPost2010Prop43
 90
        3
102
RTVSPost2010PropOp43
 70
     1
102
RTVSPost2010Prop44ColorIndex
 90
        5
102
RTVSPost2010Prop44ColorRGB
 90
      255
102
RTVSPost2010PropOp44
 70
     1
102
RTVSPost2010Prop45
280
     0
102
RTVSPost2010PropOp45
 70
     1
102
RTVSPost2010Prop46
 90
       50
102
RTVSPost2010PropOp46
 70
     1
102
RTVSPost2010Prop47
 90
       50
102
RTVSPost2010PropOp47
 70
     1
102
RTVSPost2010Prop48
 90
       50
102
RTVSPost2010PropOp48
 70
     1
102
RTVSPost2010Prop49
280
     0
102
RTVSPost2010PropOp49
 70
     1
102
RTVSPost2010Prop50
 90
       50
102
RTVSPost2010PropOp50
 70
     1
102
RTVSPost2010Prop51ColorIndex
 90
      256
102
RTVSPost2010Prop51ColorRGB
 90
-16777216
102
RTVSPost2010PropOp51
 70
     0
102
RTVSPost2010Prop52
140
1.0
102
RTVSPost2010PropOp52
 70
     0
102
RTVSPost2010Prop53
 90
        2
102
RTVSPost2010PropOp53
 70
     1
102
RTVSPost2010Prop54
  1
strokes_ogs.tif
102
RTVSPost2010PropOp54
 70
     1
102
RTVSPost2010Prop55
280
     0
102
RTVSPost2010PropOp55
 70
     1
102
RTVSPost2010Prop56
140
1.0
102
RTVSPost2010PropOp56
 70
     1
102
RTVSPost2010Prop57
140
1.0
102
RTVSPost2010PropOp57
 70
     1
  0
XRECORD
  5
22C
102
{ACAD_REACTORS
330
22B
102
}
330
22B
100
AcDbXrecord
280
     1
102
RTVSPropertyOp0
 70
     1
102
RTVSPropertyOp1
 70
     1
102
RTVSPropertyOp2
 70
     1
102
RTVSPropertyOp3
 70
     1
102
RTVSPropertyOp4
 70
     1
102
RTVSPropertyOp5
 70
     1
102
RTVSPropertyOp6
 70
     1
102
RTVSPropertyOp7
 70
     1
102
RTVSPropertyOp8
 70
     1
102
RTVSPropertyOp9
 70
     1
102
RTVSPropertyOp10
 70
     1
102
RTVSPropertyOp11
 70
     1
102
RTVSPropertyOp12
 70
     1
102
RTVSPropertyOp13
 70
     1
102
RTVSPropertyOp14
 70
     1
102
RTVSPropertyOp15
 70
     1
102
RTVSPropertyOp16
 70
     1
102
RTVSPropertyOp17
 70
     1
102
RTVSPropertyOp18
 70
     1
102
RTVSPropertyOp19
 70
     1
102
RTVSPropertyOp20
 70
     1
102
RTVSPropertyOp21
 70
     1
102
RTVSPropertyOp22
 70
     1
102
RTVSPropertyOp23
 70
     1
102
RTVSPropertyOp24
 70
     1
102
RTVSPropertyOp25
 70
     1
102
RTVSPropertyOp26
 70
     1
102
RTVSPropertyOp27
 70
     1
102
RTVSPropertyOp28
 70
     1
102
RTVSPropertyOp29
 70
     1
102
RTVSPropertyOp30
 70
     1
102
RTVSPropertyOp31
 70
     1
102
RTVSPropertyOp32
 70
     1
102
RTVSPropertyOp33
 70
     1
102
RTVSPropertyOp34
 70
     1
102
RTVSPropertyOp35
 70
     1
102
RTVSPropertyOp36
 70
     1
102
RTVSPropertyOp37
 70
     1
102
RTVSPropertyOp38
 70
     1
102
RTVSPropertyOp39
 70
     1
102
RTVSPropertyOp40
 70
     1
102
RTVSPropertyOp41
 70
     1
102
RTVSPropertyOp42
 70
     1
102
RTVSPropertyOp43
 70
     1
102
RTVSPropertyOp44
 70
     1
102
RTVSPropertyOp45
 70
     1
102
RTVSPropertyOp46
 70
     1
102
RTVSPropertyOp47
 70
     1
102
RTVSPropertyOp48
 70
     1
102
RTVSPropertyOp49
 70
     1
102
RTVSPropertyOp50
 70
     1
102
RTVSPropertyOp51
 70
     0
102
RTVSPropertyOp52
 70
     0
102
RTVSPropertyOp53
 70
     1
102
RTVSPropertyOp54
 70
     1
102
RTVSPropertyOp55
 70
     1
102
RTVSPropertyOp56
 70
     1
102
RTVSPropertyOp57
 70
     1
102
RTVSPost2010Prop28
280
     0
102
RTVSPost2010PropOp28
 70
     1
102
RTVSPost2010Prop29
280
     1
102
RTVSPost2010PropOp29
 70
     1
102
RTVSPost2010Prop30
280
     1
102
RTVSPost2010PropOp30
 70
     1
102
RTVSPost2010Prop31
280
     0
102
RTVSPost2010PropOp31
 70
     1
102
RTVSPost2010Prop32
280
     0
102
RTVSPost2010PropOp32
 70
     1
102
RTVSPost2010Prop33
280
     0
102
RTVSPost2010PropOp33
 70
     1
102
RTVSPost2010Prop34
280
     0
102
RTVSPost2010PropOp34
 70
     1
102
RTVSPost2010Prop35
280
     0
102
RTVSPost2010PropOp35
 70
     1
102
RTVSPost2010Prop36
280
     0
102
RTVSPost2010PropOp36
 70
     1
102
RTVSPost2010Prop37
 90
       50
102
RTVSPost2010PropOp37
 70
     1
102
RTVSPost2010Prop38
140
0.0
102
RTVSPost2010PropOp38
 70
     1
102
RTVSPost2010Prop39
140
1.0
102
RTVSPost2010PropOp39
 70
     1
102
RTVSPost2010Prop40
 90
        0
102
RTVSPost2010PropOp40
 70
     1
102
RTVSPost2010Prop41ColorIndex
 90
       18
102
RTVSPost2010Prop41ColorRGB
 90
        0
102
RTVSPost2010PropOp41
 70
     1
102
RTVSPost2010Prop42
 90
       50
102
RTVSPost2010PropOp42
 70
     1
102
RTVSPost2010Prop43
 90
        3
102
RTVSPost2010PropOp43
 70
     1
102
RTVSPost2010Prop44ColorIndex
 90
        5
102
RTVSPost2010Prop44ColorRGB
 90
      255
102
RTVSPost2010PropOp44
 70
     1
102
RTVSPost2010Prop45
280
     0
102
RTVSPost2010PropOp45
 70
     1
102
RTVSPost2010Prop46
 90
       50
102
RTVSPost2010PropOp46
 70
     1
102
RTVSPost2010Prop47
 90
       50
102
RTVSPost2010PropOp47
 70
     1
102
RTVSPost2010Prop48
 90
       50
102
RTVSPost2010PropOp48
 70
     1
102
RTVSPost2010Prop49
280
     0
102
RTVSPost2010PropOp49
 70
     1
102
RTVSPost2010Prop50
 90
       50
102
RTVSPost2010PropOp50
 70
     1
102
RTVSPost2010Prop51ColorIndex
 90
      256
102
RTVSPost2010Prop51ColorRGB
 90
-16777216
102
RTVSPost2010PropOp51
 70
     0
102
RTVSPost2010Prop52
140
1.0
102
RTVSPost2010PropOp52
 70
     0
102
RTVSPost2010Prop53
 90
        2
102
RTVSPost2010PropOp53
 70
     1
102
RTVSPost2010Prop54
  1
strokes_ogs.tif
102
RTVSPost2010PropOp54
 70
     1
102
RTVSPost2010Prop55
280
     0
102
RTVSPost2010PropOp55
 70
     1
102
RTVSPost2010Prop56
140
1.0
102
RTVSPost2010PropOp56
 70
     1
102
RTVSPost2010Prop57
140
1.0
102
RTVSPost2010PropOp57
 70
     1
  0
XRECORD
  5
232
102
{ACAD_REACTORS
330
231
102
}
330
231
100
AcDbXrecord
280
     1
102
RTVSPropertyOp0
 70
     1
102
RTVSPropertyOp1
 70
     1
102
RTVSPropertyOp2
 70
     1
102
RTVSPropertyOp3
 70
     1
102
RTVSPropertyOp4
 70
     1
102
RTVSPropertyOp5
 70
     1
102
RTVSPropertyOp6
 70
     1
102
RTVSPropertyOp7
 70
     1
102
RTVSPropertyOp8
 70
     1
102
RTVSPropertyOp9
 70
     1
102
RTVSPropertyOp10
 70
     1
102
RTVSPropertyOp11
 70
     1
102
RTVSPropertyOp12
 70
     1
102
RTVSPropertyOp13
 70
     1
102
RTVSPropertyOp14
 70
     1
102
RTVSPropertyOp15
 70
     1
102
RTVSPropertyOp16
 70
     1
102
RTVSPropertyOp17
 70
     1
102
RTVSPropertyOp18
 70
     1
102
RTVSPropertyOp19
 70
     1
102
RTVSPropertyOp20
 70
     1
102
RTVSPropertyOp21
 70
     1
102
RTVSPropertyOp22
 70
     1
102
RTVSPropertyOp23
 70
     1
102
RTVSPropertyOp24
 70
     1
102
RTVSPropertyOp25
 70
     1
102
RTVSPropertyOp26
 70
     1
102
RTVSPropertyOp27
 70
     1
102
RTVSPropertyOp28
 70
     1
102
RTVSPropertyOp29
 70
     1
102
RTVSPropertyOp30
 70
     1
102
RTVSPropertyOp31
 70
     1
102
RTVSPropertyOp32
 70
     1
102
RTVSPropertyOp33
 70
     1
102
RTVSPropertyOp34
 70
     1
102
RTVSPropertyOp35
 70
     1
102
RTVSPropertyOp36
 70
     1
102
RTVSPropertyOp37
 70
     1
102
RTVSPropertyOp38
 70
     1
102
RTVSPropertyOp39
 70
     1
102
RTVSPropertyOp40
 70
     1
102
RTVSPropertyOp41
 70
     1
102
RTVSPropertyOp42
 70
     1
102
RTVSPropertyOp43
 70
     1
102
RTVSPropertyOp44
 70
     1
102
RTVSPropertyOp45
 70
     1
102
RTVSPropertyOp46
 70
     1
102
RTVSPropertyOp47
 70
     1
102
RTVSPropertyOp48
 70
     1
102
RTVSPropertyOp49
 70
     1
102
RTVSPropertyOp50
 70
     1
102
RTVSPropertyOp51
 70
     0
102
RTVSPropertyOp52
 70
     0
102
RTVSPropertyOp53
 70
     1
102
RTVSPropertyOp54
 70
     1
102
RTVSPropertyOp55
 70
     1
102
RTVSPropertyOp56
 70
     1
102
RTVSPropertyOp57
 70
     1
102
RTVSPost2010Prop28
280
     0
102
RTVSPost2010PropOp28
 70
     1
102
RTVSPost2010Prop29
280
     1
102
RTVSPost2010PropOp29
 70
     1
102
RTVSPost2010Prop30
280
     1
102
RTVSPost2010PropOp30
 70
     1
102
RTVSPost2010Prop31
280
     0
102
RTVSPost2010PropOp31
 70
     1
102
RTVSPost2010Prop32
280
     0
102
RTVSPost2010PropOp32
 70
     1
102
RTVSPost2010Prop33
280
     0
102
RTVSPost2010PropOp33
 70
     1
102
RTVSPost2010Prop34
280
     0
102
RTVSPost2010PropOp34
 70
     1
102
RTVSPost2010Prop35
280
     0
102
RTVSPost2010PropOp35
 70
     1
102
RTVSPost2010Prop36
280
     0
102
RTVSPost2010PropOp36
 70
     1
102
RTVSPost2010Prop37
 90
       50
102
RTVSPost2010PropOp37
 70
     1
102
RTVSPost2010Prop38
140
0.0
102
RTVSPost2010PropOp38
 70
     1
102
RTVSPost2010Prop39
140
1.0
102
RTVSPost2010PropOp39
 70
     1
102
RTVSPost2010Prop40
 90
        0
102
RTVSPost2010PropOp40
 70
     1
102
RTVSPost2010Prop41ColorIndex
 90
       18
102
RTVSPost2010Prop41ColorRGB
 90
        0
102
RTVSPost2010PropOp41
 70
     1
102
RTVSPost2010Prop42
 90
       50
102
RTVSPost2010PropOp42
 70
     1
102
RTVSPost2010Prop43
 90
        3
102
RTVSPost2010PropOp43
 70
     1
102
RTVSPost2010Prop44ColorIndex
 90
        5
102
RTVSPost2010Prop44ColorRGB
 90
      255
102
RTVSPost2010PropOp44
 70
     1
102
RTVSPost2010Prop45
280
     0
102
RTVSPost2010PropOp45
 70
     1
102
RTVSPost2010Prop46
 90
       50
102
RTVSPost2010PropOp46
 70
     1
102
RTVSPost2010Prop47
 90
       50
102
RTVSPost2010PropOp47
 70
     1
102
RTVSPost2010Prop48
 90
       50
102
RTVSPost2010PropOp48
 70
     1
102
RTVSPost2010Prop49
280
     0
102
RTVSPost2010PropOp49
 70
     1
102
RTVSPost2010Prop50
 90
       50
102
RTVSPost2010PropOp50
 70
     1
102
RTVSPost2010Prop51ColorIndex
 90
      256
102
RTVSPost2010Prop51ColorRGB
 90
-16777216
102
RTVSPost2010PropOp51
 70
     0
102
RTVSPost2010Prop52
140
1.0
102
RTVSPost2010PropOp52
 70
     0
102
RTVSPost2010Prop53
 90
        2
102
RTVSPost2010PropOp53
 70
     1
102
RTVSPost2010Prop54
  1
strokes_ogs.tif
102
RTVSPost2010PropOp54
 70
     1
102
RTVSPost2010Prop55
280
     0
102
RTVSPost2010PropOp55
 70
     1
102
RTVSPost2010Prop56
140
1.0
102
RTVSPost2010PropOp56
 70
     1
102
RTVSPost2010Prop57
140
1.0
102
RTVSPost2010PropOp57
 70
     1
  0
XRECORD
  5
246
102
{ACAD_REACTORS
330
245
102
}
330
245
100
AcDbXrecord
280
     1
102
RTVSPropertyOp0
 70
     0
102
RTVSPropertyOp1
 70
     0
102
RTVSPropertyOp2
 70
     0
102
RTVSPropertyOp3
 70
     0
102
RTVSPropertyOp4
 70
     0
102
RTVSPropertyOp5
 70
     0
102
RTVSPropertyOp6
 70
     0
102
RTVSPropertyOp7
 70
     0
102
RTVSPropertyOp8
 70
     0
102
RTVSPropertyOp9
 70
     0
102
RTVSPropertyOp10
 70
     0
102
RTVSPropertyOp11
 70
     0
102
RTVSPropertyOp12
 70
     0
102
RTVSPropertyOp13
 70
     0
102
RTVSPropertyOp14
 70
     2
102
RTVSPropertyOp15
 70
     0
102
RTVSPropertyOp16
 70
     0
102
RTVSPropertyOp17
 70
     0
102
RTVSPropertyOp18
 70
     0
102
RTVSPropertyOp19
 70
     0
102
RTVSPropertyOp20
 70
     0
102
RTVSPropertyOp21
 70
     0
102
RTVSPropertyOp22
 70
     0
102
RTVSPropertyOp23
 70
     0
102
RTVSPropertyOp24
 70
     0
102
RTVSPropertyOp25
 70
     0
102
RTVSPropertyOp26
 70
     0
102
RTVSPropertyOp27
 70
     0
102
RTVSPropertyOp28
 70
     0
102
RTVSPropertyOp29
 70
     0
102
RTVSPropertyOp30
 70
     0
102
RTVSPropertyOp31
 70
     0
102
RTVSPropertyOp32
 70
     0
102
RTVSPropertyOp33
 70
     0
102
RTVSPropertyOp34
 70
     0
102
RTVSPropertyOp35
 70
     0
102
RTVSPropertyOp36
 70
     0
102
RTVSPropertyOp37
 70
     0
102
RTVSPropertyOp38
 70
     0
102
RTVSPropertyOp39
 70
     0
102
RTVSPropertyOp40
 70
     0
102
RTVSPropertyOp41
 70
     0
102
RTVSPropertyOp42
 70
     0
102
RTVSPropertyOp43
 70
     0
102
RTVSPropertyOp44
 70
     0
102
RTVSPropertyOp45
 70
     0
102
RTVSPropertyOp46
 70
     0
102
RTVSPropertyOp47
 70
     0
102
RTVSPropertyOp48
 70
     0
102
RTVSPropertyOp49
 70
     0
102
RTVSPropertyOp50
 70
     0
102
RTVSPropertyOp51
 70
     0
102
RTVSPropertyOp52
 70
     0
102
RTVSPropertyOp53
 70
     0
102
RTVSPropertyOp54
 70
     0
102
RTVSPropertyOp55
 70
     0
102
RTVSPropertyOp56
 70
     0
102
RTVSPropertyOp57
 70
     0
102
RTVSPost2010Prop28
280
     0
102
RTVSPost2010PropOp28
 70
     0
102
RTVSPost2010Prop29
280
     1
102
RTVSPost2010PropOp29
 70
     0
102
RTVSPost2010Prop30
280
     1
102
RTVSPost2010PropOp30
 70
     0
102
RTVSPost2010Prop31
280
     0
102
RTVSPost2010PropOp31
 70
     0
102
RTVSPost2010Prop32
280
     0
102
RTVSPost2010PropOp32
 70
     0
102
RTVSPost2010Prop33
280
     0
102
RTVSPost2010PropOp33
 70
     0
102
RTVSPost2010Prop34
280
     0
102
RTVSPost2010PropOp34
 70
     0
102
RTVSPost2010Prop35
280
     0
102
RTVSPost2010PropOp35
 70
     0
102
RTVSPost2010Prop36
280
     0
102
RTVSPost2010PropOp36
 70
     0
102
RTVSPost2010Prop37
 90
       50
102
RTVSPost2010PropOp37
 70
     0
102
RTVSPost2010Prop38
140
0.0
102
RTVSPost2010PropOp38
 70
     0
102
RTVSPost2010Prop39
140
1.0
102
RTVSPost2010PropOp39
 70
     0
102
RTVSPost2010Prop40
 90
        0
102
RTVSPost2010PropOp40
 70
     0
102
RTVSPost2010Prop41ColorIndex
 90
       18
102
RTVSPost2010Prop41ColorRGB
 90
        0
102
RTVSPost2010PropOp41
 70
     0
102
RTVSPost2010Prop42
 90
       50
102
RTVSPost2010PropOp42
 70
     0
102
RTVSPost2010Prop43
 90
        3
102
RTVSPost2010PropOp43
 70
     0
102
RTVSPost2010Prop44ColorIndex
 90
        5
102
RTVSPost2010Prop44ColorRGB
 90
      255
102
RTVSPost2010PropOp44
 70
     0
102
RTVSPost2010Prop45
280
     0
102
RTVSPost2010PropOp45
 70
     0
102
RTVSPost2010Prop46
 90
       50
102
RTVSPost2010PropOp46
 70
     0
102
RTVSPost2010Prop47
 90
       50
102
RTVSPost2010PropOp47
 70
     0
102
RTVSPost2010Prop48
 90
       50
102
RTVSPost2010PropOp48
 70
     0
102
RTVSPost2010Prop49
280
     0
102
RTVSPost2010PropOp49
 70
     0
102
RTVSPost2010Prop50
 90
       50
102
RTVSPost2010PropOp50
 70
     0
102
RTVSPost2010Prop51ColorIndex
 90
      256
102
RTVSPost2010Prop51ColorRGB
 90
-16777216
102
RTVSPost2010PropOp51
 70
     0
102
RTVSPost2010Prop52
140
1.0
102
RTVSPost2010PropOp52
 70
     0
102
RTVSPost2010Prop53
 90
        2
102
RTVSPost2010PropOp53
 70
     0
102
RTVSPost2010Prop54
  1
strokes_ogs.tif
102
RTVSPost2010PropOp54
 70
     0
102
RTVSPost2010Prop55
280
     0
102
RTVSPost2010PropOp55
 70
     0
102
RTVSPost2010Prop56
140
1.0
102
RTVSPost2010PropOp56
 70
     0
102
RTVSPost2010Prop57
140
1.0
102
RTVSPost2010PropOp57
 70
     0
  0
XRECORD
  5
240
102
{ACAD_REACTORS
330
23F
102
}
330
23F
100
AcDbXrecord
280
     1
102
RTVSPropertyOp0
 70
     1
102
RTVSPropertyOp1
 70
     1
102
RTVSPropertyOp2
 70
     1
102
RTVSPropertyOp3
 70
     1
102
RTVSPropertyOp4
 70
     1
102
RTVSPropertyOp5
 70
     1
102
RTVSPropertyOp6
 70
     1
102
RTVSPropertyOp7
 70
     1
102
RTVSPropertyOp8
 70
     1
102
RTVSPropertyOp9
 70
     1
102
RTVSPropertyOp10
 70
     1
102
RTVSPropertyOp11
 70
     1
102
RTVSPropertyOp12
 70
     1
102
RTVSPropertyOp13
 70
     1
102
RTVSPropertyOp14
 70
     1
102
RTVSPropertyOp15
 70
     1
102
RTVSPropertyOp16
 70
     1
102
RTVSPropertyOp17
 70
     1
102
RTVSPropertyOp18
 70
     1
102
RTVSPropertyOp19
 70
     1
102
RTVSPropertyOp20
 70
     1
102
RTVSPropertyOp21
 70
     1
102
RTVSPropertyOp22
 70
     1
102
RTVSPropertyOp23
 70
     1
102
RTVSPropertyOp24
 70
     1
102
RTVSPropertyOp25
 70
     1
102
RTVSPropertyOp26
 70
     1
102
RTVSPropertyOp27
 70
     1
102
RTVSPropertyOp28
 70
     1
102
RTVSPropertyOp29
 70
     1
102
RTVSPropertyOp30
 70
     1
102
RTVSPropertyOp31
 70
     1
102
RTVSPropertyOp32
 70
     1
102
RTVSPropertyOp33
 70
     1
102
RTVSPropertyOp34
 70
     1
102
RTVSPropertyOp35
 70
     1
102
RTVSPropertyOp36
 70
     1
102
RTVSPropertyOp37
 70
     1
102
RTVSPropertyOp38
 70
     1
102
RTVSPropertyOp39
 70
     1
102
RTVSPropertyOp40
 70
     1
102
RTVSPropertyOp41
 70
     1
102
RTVSPropertyOp42
 70
     1
102
RTVSPropertyOp43
 70
     1
102
RTVSPropertyOp44
 70
     1
102
RTVSPropertyOp45
 70
     1
102
RTVSPropertyOp46
 70
     1
102
RTVSPropertyOp47
 70
     1
102
RTVSPropertyOp48
 70
     1
102
RTVSPropertyOp49
 70
     1
102
RTVSPropertyOp50
 70
     1
102
RTVSPropertyOp51
 70
     0
102
RTVSPropertyOp52
 70
     0
102
RTVSPropertyOp53
 70
     1
102
RTVSPropertyOp54
 70
     1
102
RTVSPropertyOp55
 70
     1
102
RTVSPropertyOp56
 70
     1
102
RTVSPropertyOp57
 70
     1
102
RTVSPost2010Prop28
280
     0
102
RTVSPost2010PropOp28
 70
     1
102
RTVSPost2010Prop29
280
     1
102
RTVSPost2010PropOp29
 70
     1
102
RTVSPost2010Prop30
280
     1
102
RTVSPost2010PropOp30
 70
     1
102
RTVSPost2010Prop31
280
     0
102
RTVSPost2010PropOp31
 70
     1
102
RTVSPost2010Prop32
280
     0
102
RTVSPost2010PropOp32
 70
     1
102
RTVSPost2010Prop33
280
     0
102
RTVSPost2010PropOp33
 70
     1
102
RTVSPost2010Prop34
280
     0
102
RTVSPost2010PropOp34
 70
     1
102
RTVSPost2010Prop35
280
     0
102
RTVSPost2010PropOp35
 70
     1
102
RTVSPost2010Prop36
280
     0
102
RTVSPost2010PropOp36
 70
     1
102
RTVSPost2010Prop37
 90
       50
102
RTVSPost2010PropOp37
 70
     1
102
RTVSPost2010Prop38
140
0.0
102
RTVSPost2010PropOp38
 70
     1
102
RTVSPost2010Prop39
140
1.0
102
RTVSPost2010PropOp39
 70
     1
102
RTVSPost2010Prop40
 90
        0
102
RTVSPost2010PropOp40
 70
     1
102
RTVSPost2010Prop41ColorIndex
 90
       18
102
RTVSPost2010Prop41ColorRGB
 90
        0
102
RTVSPost2010PropOp41
 70
     1
102
RTVSPost2010Prop42
 90
       50
102
RTVSPost2010PropOp42
 70
     1
102
RTVSPost2010Prop43
 90
        3
102
RTVSPost2010PropOp43
 70
     1
102
RTVSPost2010Prop44ColorIndex
 90
        5
102
RTVSPost2010Prop44ColorRGB
 90
      255
102
RTVSPost2010PropOp44
 70
     1
102
RTVSPost2010Prop45
280
     0
102
RTVSPost2010PropOp45
 70
     1
102
RTVSPost2010Prop46
 90
       50
102
RTVSPost2010PropOp46
 70
     1
102
RTVSPost2010Prop47
 90
       50
102
RTVSPost2010PropOp47
 70
     1
102
RTVSPost2010Prop48
 90
       50
102
RTVSPost2010PropOp48
 70
     1
102
RTVSPost2010Prop49
280
     0
102
RTVSPost2010PropOp49
 70
     1
102
RTVSPost2010Prop50
 90
       50
102
RTVSPost2010PropOp50
 70
     1
102
RTVSPost2010Prop51ColorIndex
 90
      256
102
RTVSPost2010Prop51ColorRGB
 90
-16777216
102
RTVSPost2010PropOp51
 70
     0
102
RTVSPost2010Prop52
140
1.0
102
RTVSPost2010PropOp52
 70
     0
102
RTVSPost2010Prop53
 90
        2
102
RTVSPost2010PropOp53
 70
     1
102
RTVSPost2010Prop54
  1
strokes_ogs.tif
102
RTVSPost2010PropOp54
 70
     1
102
RTVSPost2010Prop55
280
     0
102
RTVSPost2010PropOp55
 70
     1
102
RTVSPost2010Prop56
140
1.0
102
RTVSPost2010PropOp56
 70
     1
102
RTVSPost2010Prop57
140
1.0
102
RTVSPost2010PropOp57
 70
     1
  0
XRECORD
  5
248
102
{ACAD_REACTORS
330
247
102
}
330
247
100
AcDbXrecord
280
     1
102
RTVSPropertyOp0
 70
     0
102
RTVSPropertyOp1
 70
     0
102
RTVSPropertyOp2
 70
     0
102
RTVSPropertyOp3
 70
     0
102
RTVSPropertyOp4
 70
     0
102
RTVSPropertyOp5
 70
     0
102
RTVSPropertyOp6
 70
     0
102
RTVSPropertyOp7
 70
     0
102
RTVSPropertyOp8
 70
     0
102
RTVSPropertyOp9
 70
     0
102
RTVSPropertyOp10
 70
     0
102
RTVSPropertyOp11
 70
     0
102
RTVSPropertyOp12
 70
     0
102
RTVSPropertyOp13
 70
     0
102
RTVSPropertyOp14
 70
     2
102
RTVSPropertyOp15
 70
     0
102
RTVSPropertyOp16
 70
     0
102
RTVSPropertyOp17
 70
     0
102
RTVSPropertyOp18
 70
     0
102
RTVSPropertyOp19
 70
     0
102
RTVSPropertyOp20
 70
     0
102
RTVSPropertyOp21
 70
     0
102
RTVSPropertyOp22
 70
     0
102
RTVSPropertyOp23
 70
     0
102
RTVSPropertyOp24
 70
     0
102
RTVSPropertyOp25
 70
     0
102
RTVSPropertyOp26
 70
     0
102
RTVSPropertyOp27
 70
     0
102
RTVSPropertyOp28
 70
     0
102
RTVSPropertyOp29
 70
     0
102
RTVSPropertyOp30
 70
     0
102
RTVSPropertyOp31
 70
     0
102
RTVSPropertyOp32
 70
     0
102
RTVSPropertyOp33
 70
     0
102
RTVSPropertyOp34
 70
     0
102
RTVSPropertyOp35
 70
     0
102
RTVSPropertyOp36
 70
     0
102
RTVSPropertyOp37
 70
     0
102
RTVSPropertyOp38
 70
     0
102
RTVSPropertyOp39
 70
     0
102
RTVSPropertyOp40
 70
     0
102
RTVSPropertyOp41
 70
     0
102
RTVSPropertyOp42
 70
     0
102
RTVSPropertyOp43
 70
     0
102
RTVSPropertyOp44
 70
     0
102
RTVSPropertyOp45
 70
     0
102
RTVSPropertyOp46
 70
     0
102
RTVSPropertyOp47
 70
     0
102
RTVSPropertyOp48
 70
     0
102
RTVSPropertyOp49
 70
     0
102
RTVSPropertyOp50
 70
     0
102
RTVSPropertyOp51
 70
     0
102
RTVSPropertyOp52
 70
     0
102
RTVSPropertyOp53
 70
     0
102
RTVSPropertyOp54
 70
     0
102
RTVSPropertyOp55
 70
     0
102
RTVSPropertyOp56
 70
     0
102
RTVSPropertyOp57
 70
     0
102
RTVSPost2010Prop28
280
     0
102
RTVSPost2010PropOp28
 70
     0
102
RTVSPost2010Prop29
280
     1
102
RTVSPost2010PropOp29
 70
     0
102
RTVSPost2010Prop30
280
     1
102
RTVSPost2010PropOp30
 70
     0
102
RTVSPost2010Prop31
280
     0
102
RTVSPost2010PropOp31
 70
     0
102
RTVSPost2010Prop32
280
     0
102
RTVSPost2010PropOp32
 70
     0
102
RTVSPost2010Prop33
280
     0
102
RTVSPost2010PropOp33
 70
     0
102
RTVSPost2010Prop34
280
     0
102
RTVSPost2010PropOp34
 70
     0
102
RTVSPost2010Prop35
280
     0
102
RTVSPost2010PropOp35
 70
     0
102
RTVSPost2010Prop36
280
     0
102
RTVSPost2010PropOp36
 70
     0
102
RTVSPost2010Prop37
 90
       50
102
RTVSPost2010PropOp37
 70
     0
102
RTVSPost2010Prop38
140
0.0
102
RTVSPost2010PropOp38
 70
     0
102
RTVSPost2010Prop39
140
1.0
102
RTVSPost2010PropOp39
 70
     0
102
RTVSPost2010Prop40
 90
        0
102
RTVSPost2010PropOp40
 70
     0
102
RTVSPost2010Prop41ColorIndex
 90
       18
102
RTVSPost2010Prop41ColorRGB
 90
        0
102
RTVSPost2010PropOp41
 70
     0
102
RTVSPost2010Prop42
 90
       50
102
RTVSPost2010PropOp42
 70
     0
102
RTVSPost2010Prop43
 90
        3
102
RTVSPost2010PropOp43
 70
     0
102
RTVSPost2010Prop44ColorIndex
 90
        5
102
RTVSPost2010Prop44ColorRGB
 90
      255
102
RTVSPost2010PropOp44
 70
     0
102
RTVSPost2010Prop45
280
     0
102
RTVSPost2010PropOp45
 70
     0
102
RTVSPost2010Prop46
 90
       50
102
RTVSPost2010PropOp46
 70
     0
102
RTVSPost2010Prop47
 90
       50
102
RTVSPost2010PropOp47
 70
     0
102
RTVSPost2010Prop48
 90
       50
102
RTVSPost2010PropOp48
 70
     0
102
RTVSPost2010Prop49
280
     0
102
RTVSPost2010PropOp49
 70
     0
102
RTVSPost2010Prop50
 90
       50
102
RTVSPost2010PropOp50
 70
     0
102
RTVSPost2010Prop51ColorIndex
 90
      256
102
RTVSPost2010Prop51ColorRGB
 90
-16777216
102
RTVSPost2010PropOp51
 70
     0
102
RTVSPost2010Prop52
140
1.0
102
RTVSPost2010PropOp52
 70
     0
102
RTVSPost2010Prop53
 90
        2
102
RTVSPost2010PropOp53
 70
     0
102
RTVSPost2010Prop54
  1
strokes_ogs.tif
102
RTVSPost2010PropOp54
 70
     0
102
RTVSPost2010Prop55
280
     0
102
RTVSPost2010PropOp55
 70
     0
102
RTVSPost2010Prop56
140
1.0
102
RTVSPost2010PropOp56
 70
     0
102
RTVSPost2010Prop57
140
1.0
102
RTVSPost2010PropOp57
 70
     0
  0
XRECORD
  5
236
102
{ACAD_REACTORS
330
235
102
}
330
235
100
AcDbXrecord
280
     1
102
RTVSPropertyOp0
 70
     1
102
RTVSPropertyOp1
 70
     1
102
RTVSPropertyOp2
 70
     1
102
RTVSPropertyOp3
 70
     1
102
RTVSPropertyOp4
 70
     1
102
RTVSPropertyOp5
 70
     1
102
RTVSPropertyOp6
 70
     1
102
RTVSPropertyOp7
 70
     1
102
RTVSPropertyOp8
 70
     1
102
RTVSPropertyOp9
 70
     1
102
RTVSPropertyOp10
 70
     1
102
RTVSPropertyOp11
 70
     1
102
RTVSPropertyOp12
 70
     1
102
RTVSPropertyOp13
 70
     1
102
RTVSPropertyOp14
 70
     1
102
RTVSPropertyOp15
 70
     1
102
RTVSPropertyOp16
 70
     1
102
RTVSPropertyOp17
 70
     1
102
RTVSPropertyOp18
 70
     1
102
RTVSPropertyOp19
 70
     1
102
RTVSPropertyOp20
 70
     1
102
RTVSPropertyOp21
 70
     1
102
RTVSPropertyOp22
 70
     1
102
RTVSPropertyOp23
 70
     1
102
RTVSPropertyOp24
 70
     1
102
RTVSPropertyOp25
 70
     1
102
RTVSPropertyOp26
 70
     1
102
RTVSPropertyOp27
 70
     1
102
RTVSPropertyOp28
 70
     1
102
RTVSPropertyOp29
 70
     1
102
RTVSPropertyOp30
 70
     1
102
RTVSPropertyOp31
 70
     1
102
RTVSPropertyOp32
 70
     1
102
RTVSPropertyOp33
 70
     1
102
RTVSPropertyOp34
 70
     1
102
RTVSPropertyOp35
 70
     1
102
RTVSPropertyOp36
 70
     1
102
RTVSPropertyOp37
 70
     1
102
RTVSPropertyOp38
 70
     1
102
RTVSPropertyOp39
 70
     1
102
RTVSPropertyOp40
 70
     1
102
RTVSPropertyOp41
 70
     1
102
RTVSPropertyOp42
 70
     1
102
RTVSPropertyOp43
 70
     1
102
RTVSPropertyOp44
 70
     1
102
RTVSPropertyOp45
 70
     1
102
RTVSPropertyOp46
 70
     1
102
RTVSPropertyOp47
 70
     1
102
RTVSPropertyOp48
 70
     1
102
RTVSPropertyOp49
 70
     1
102
RTVSPropertyOp50
 70
     1
102
RTVSPropertyOp51
 70
     0
102
RTVSPropertyOp52
 70
     0
102
RTVSPropertyOp53
 70
     1
102
RTVSPropertyOp54
 70
     1
102
RTVSPropertyOp55
 70
     1
102
RTVSPropertyOp56
 70
     1
102
RTVSPropertyOp57
 70
     1
102
RTVSPost2010Prop28
280
     0
102
RTVSPost2010PropOp28
 70
     1
102
RTVSPost2010Prop29
280
     1
102
RTVSPost2010PropOp29
 70
     1
102
RTVSPost2010Prop30
280
     1
102
RTVSPost2010PropOp30
 70
     1
102
RTVSPost2010Prop31
280
     0
102
RTVSPost2010PropOp31
 70
     1
102
RTVSPost2010Prop32
280
     0
102
RTVSPost2010PropOp32
 70
     1
102
RTVSPost2010Prop33
280
     0
102
RTVSPost2010PropOp33
 70
     1
102
RTVSPost2010Prop34
280
     0
102
RTVSPost2010PropOp34
 70
     1
102
RTVSPost2010Prop35
280
     0
102
RTVSPost2010PropOp35
 70
     1
102
RTVSPost2010Prop36
280
     0
102
RTVSPost2010PropOp36
 70
     1
102
RTVSPost2010Prop37
 90
       50
102
RTVSPost2010PropOp37
 70
     1
102
RTVSPost2010Prop38
140
0.0
102
RTVSPost2010PropOp38
 70
     1
102
RTVSPost2010Prop39
140
1.0
102
RTVSPost2010PropOp39
 70
     1
102
RTVSPost2010Prop40
 90
        0
102
RTVSPost2010PropOp40
 70
     1
102
RTVSPost2010Prop41ColorIndex
 90
       18
102
RTVSPost2010Prop41ColorRGB
 90
        0
102
RTVSPost2010PropOp41
 70
     1
102
RTVSPost2010Prop42
 90
       50
102
RTVSPost2010PropOp42
 70
     1
102
RTVSPost2010Prop43
 90
        3
102
RTVSPost2010PropOp43
 70
     1
102
RTVSPost2010Prop44ColorIndex
 90
        5
102
RTVSPost2010Prop44ColorRGB
 90
      255
102
RTVSPost2010PropOp44
 70
     1
102
RTVSPost2010Prop45
280
     0
102
RTVSPost2010PropOp45
 70
     1
102
RTVSPost2010Prop46
 90
       50
102
RTVSPost2010PropOp46
 70
     1
102
RTVSPost2010Prop47
 90
       50
102
RTVSPost2010PropOp47
 70
     1
102
RTVSPost2010Prop48
 90
       50
102
RTVSPost2010PropOp48
 70
     1
102
RTVSPost2010Prop49
280
     0
102
RTVSPost2010PropOp49
 70
     1
102
RTVSPost2010Prop50
 90
       50
102
RTVSPost2010PropOp50
 70
     1
102
RTVSPost2010Prop51ColorIndex
 90
      256
102
RTVSPost2010Prop51ColorRGB
 90
-16777216
102
RTVSPost2010PropOp51
 70
     0
102
RTVSPost2010Prop52
140
1.0
102
RTVSPost2010PropOp52
 70
     0
102
RTVSPost2010Prop53
 90
        2
102
RTVSPost2010PropOp53
 70
     1
102
RTVSPost2010Prop54
  1
strokes_ogs.tif
102
RTVSPost2010PropOp54
 70
     1
102
RTVSPost2010Prop55
280
     0
102
RTVSPost2010PropOp55
 70
     1
102
RTVSPost2010Prop56
140
1.0
102
RTVSPost2010PropOp56
 70
     1
102
RTVSPost2010Prop57
140
1.0
102
RTVSPost2010PropOp57
 70
     1
  0
XRECORD
  5
254
102
{ACAD_REACTORS
330
253
102
}
330
253
100
AcDbXrecord
280
     1
102
RTVSPropertyOp0
 70
     1
102
RTVSPropertyOp1
 70
     1
102
RTVSPropertyOp2
 70
     1
102
RTVSPropertyOp3
 70
     1
102
RTVSPropertyOp4
 70
     1
102
RTVSPropertyOp5
 70
     1
102
RTVSPropertyOp6
 70
     1
102
RTVSPropertyOp7
 70
     1
102
RTVSPropertyOp8
 70
     1
102
RTVSPropertyOp9
 70
     1
102
RTVSPropertyOp10
 70
     1
102
RTVSPropertyOp11
 70
     1
102
RTVSPropertyOp12
 70
     1
102
RTVSPropertyOp13
 70
     1
102
RTVSPropertyOp14
 70
     1
102
RTVSPropertyOp15
 70
     1
102
RTVSPropertyOp16
 70
     1
102
RTVSPropertyOp17
 70
     1
102
RTVSPropertyOp18
 70
     1
102
RTVSPropertyOp19
 70
     1
102
RTVSPropertyOp20
 70
     1
102
RTVSPropertyOp21
 70
     1
102
RTVSPropertyOp22
 70
     1
102
RTVSPropertyOp23
 70
     1
102
RTVSPropertyOp24
 70
     1
102
RTVSPropertyOp25
 70
     1
102
RTVSPropertyOp26
 70
     1
102
RTVSPropertyOp27
 70
     1
102
RTVSPropertyOp28
 70
     1
102
RTVSPropertyOp29
 70
     1
102
RTVSPropertyOp30
 70
     1
102
RTVSPropertyOp31
 70
     1
102
RTVSPropertyOp32
 70
     1
102
RTVSPropertyOp33
 70
     1
102
RTVSPropertyOp34
 70
     1
102
RTVSPropertyOp35
 70
     1
102
RTVSPropertyOp36
 70
     1
102
RTVSPropertyOp37
 70
     1
102
RTVSPropertyOp38
 70
     1
102
RTVSPropertyOp39
 70
     1
102
RTVSPropertyOp40
 70
     1
102
RTVSPropertyOp41
 70
     1
102
RTVSPropertyOp42
 70
     1
102
RTVSPropertyOp43
 70
     1
102
RTVSPropertyOp44
 70
     1
102
RTVSPropertyOp45
 70
     1
102
RTVSPropertyOp46
 70
     1
102
RTVSPropertyOp47
 70
     1
102
RTVSPropertyOp48
 70
     1
102
RTVSPropertyOp49
 70
     1
102
RTVSPropertyOp50
 70
     1
102
RTVSPropertyOp51
 70
     0
102
RTVSPropertyOp52
 70
     0
102
RTVSPropertyOp53
 70
     1
102
RTVSPropertyOp54
 70
     1
102
RTVSPropertyOp55
 70
     1
102
RTVSPropertyOp56
 70
     1
102
RTVSPropertyOp57
 70
     1
102
RTVSPost2010Prop28
280
     0
102
RTVSPost2010PropOp28
 70
     1
102
RTVSPost2010Prop29
280
     1
102
RTVSPost2010PropOp29
 70
     1
102
RTVSPost2010Prop30
280
     1
102
RTVSPost2010PropOp30
 70
     1
102
RTVSPost2010Prop31
280
     0
102
RTVSPost2010PropOp31
 70
     1
102
RTVSPost2010Prop32
280
     0
102
RTVSPost2010PropOp32
 70
     1
102
RTVSPost2010Prop33
280
     0
102
RTVSPost2010PropOp33
 70
     1
102
RTVSPost2010Prop34
280
     0
102
RTVSPost2010PropOp34
 70
     1
102
RTVSPost2010Prop35
280
     0
102
RTVSPost2010PropOp35
 70
     1
102
RTVSPost2010Prop36
280
     0
102
RTVSPost2010PropOp36
 70
     1
102
RTVSPost2010Prop37
 90
       50
102
RTVSPost2010PropOp37
 70
     1
102
RTVSPost2010Prop38
140
0.0
102
RTVSPost2010PropOp38
 70
     1
102
RTVSPost2010Prop39
140
1.0
102
RTVSPost2010PropOp39
 70
     1
102
RTVSPost2010Prop40
 90
        0
102
RTVSPost2010PropOp40
 70
     1
102
RTVSPost2010Prop41ColorIndex
 90
       18
102
RTVSPost2010Prop41ColorRGB
 90
        0
102
RTVSPost2010PropOp41
 70
     1
102
RTVSPost2010Prop42
 90
       50
102
RTVSPost2010PropOp42
 70
     1
102
RTVSPost2010Prop43
 90
        3
102
RTVSPost2010PropOp43
 70
     1
102
RTVSPost2010Prop44ColorIndex
 90
        5
102
RTVSPost2010Prop44ColorRGB
 90
      255
102
RTVSPost2010PropOp44
 70
     1
102
RTVSPost2010Prop45
280
     0
102
RTVSPost2010PropOp45
 70
     1
102
RTVSPost2010Prop46
 90
       50
102
RTVSPost2010PropOp46
 70
     1
102
RTVSPost2010Prop47
 90
       50
102
RTVSPost2010PropOp47
 70
     1
102
RTVSPost2010Prop48
 90
       50
102
RTVSPost2010PropOp48
 70
     1
102
RTVSPost2010Prop49
280
     0
102
RTVSPost2010PropOp49
 70
     1
102
RTVSPost2010Prop50
 90
       50
102
RTVSPost2010PropOp50
 70
     1
102
RTVSPost2010Prop51ColorIndex
 90
      256
102
RTVSPost2010Prop51ColorRGB
 90
-16777216
102
RTVSPost2010PropOp51
 70
     0
102
RTVSPost2010Prop52
140
1.0
102
RTVSPost2010PropOp52
 70
     0
102
RTVSPost2010Prop53
 90
        2
102
RTVSPost2010PropOp53
 70
     1
102
RTVSPost2010Prop54
  1
strokes_ogs.tif
102
RTVSPost2010PropOp54
 70
     1
102
RTVSPost2010Prop55
280
     0
102
RTVSPost2010PropOp55
 70
     1
102
RTVSPost2010Prop56
140
1.0
102
RTVSPost2010PropOp56
 70
     1
102
RTVSPost2010Prop57
140
1.0
102
RTVSPost2010PropOp57
 70
     1
  0
XRECORD
  5
252
102
{ACAD_REACTORS
330
251
102
}
330
251
100
AcDbXrecord
280
     1
102
RTVSPropertyOp0
 70
     1
102
RTVSPropertyOp1
 70
     1
102
RTVSPropertyOp2
 70
     1
102
RTVSPropertyOp3
 70
     1
102
RTVSPropertyOp4
 70
     1
102
RTVSPropertyOp5
 70
     1
102
RTVSPropertyOp6
 70
     1
102
RTVSPropertyOp7
 70
     1
102
RTVSPropertyOp8
 70
     1
102
RTVSPropertyOp9
 70
     1
102
RTVSPropertyOp10
 70
     1
102
RTVSPropertyOp11
 70
     1
102
RTVSPropertyOp12
 70
     1
102
RTVSPropertyOp13
 70
     1
102
RTVSPropertyOp14
 70
     1
102
RTVSPropertyOp15
 70
     1
102
RTVSPropertyOp16
 70
     1
102
RTVSPropertyOp17
 70
     1
102
RTVSPropertyOp18
 70
     1
102
RTVSPropertyOp19
 70
     1
102
RTVSPropertyOp20
 70
     1
102
RTVSPropertyOp21
 70
     1
102
RTVSPropertyOp22
 70
     1
102
RTVSPropertyOp23
 70
     1
102
RTVSPropertyOp24
 70
     1
102
RTVSPropertyOp25
 70
     1
102
RTVSPropertyOp26
 70
     1
102
RTVSPropertyOp27
 70
     1
102
RTVSPropertyOp28
 70
     1
102
RTVSPropertyOp29
 70
     1
102
RTVSPropertyOp30
 70
     1
102
RTVSPropertyOp31
 70
     1
102
RTVSPropertyOp32
 70
     1
102
RTVSPropertyOp33
 70
     1
102
RTVSPropertyOp34
 70
     1
102
RTVSPropertyOp35
 70
     1
102
RTVSPropertyOp36
 70
     1
102
RTVSPropertyOp37
 70
     1
102
RTVSPropertyOp38
 70
     1
102
RTVSPropertyOp39
 70
     1
102
RTVSPropertyOp40
 70
     1
102
RTVSPropertyOp41
 70
     1
102
RTVSPropertyOp42
 70
     1
102
RTVSPropertyOp43
 70
     1
102
RTVSPropertyOp44
 70
     1
102
RTVSPropertyOp45
 70
     1
102
RTVSPropertyOp46
 70
     1
102
RTVSPropertyOp47
 70
     1
102
RTVSPropertyOp48
 70
     1
102
RTVSPropertyOp49
 70
     1
102
RTVSPropertyOp50
 70
     1
102
RTVSPropertyOp51
 70
     0
102
RTVSPropertyOp52
 70
     0
102
RTVSPropertyOp53
 70
     1
102
RTVSPropertyOp54
 70
     1
102
RTVSPropertyOp55
 70
     1
102
RTVSPropertyOp56
 70
     1
102
RTVSPropertyOp57
 70
     1
102
RTVSPost2010Prop28
280
     0
102
RTVSPost2010PropOp28
 70
     1
102
RTVSPost2010Prop29
280
     1
102
RTVSPost2010PropOp29
 70
     1
102
RTVSPost2010Prop30
280
     1
102
RTVSPost2010PropOp30
 70
     1
102
RTVSPost2010Prop31
280
     0
102
RTVSPost2010PropOp31
 70
     1
102
RTVSPost2010Prop32
280
     0
102
RTVSPost2010PropOp32
 70
     1
102
RTVSPost2010Prop33
280
     0
102
RTVSPost2010PropOp33
 70
     1
102
RTVSPost2010Prop34
280
     0
102
RTVSPost2010PropOp34
 70
     1
102
RTVSPost2010Prop35
280
     0
102
RTVSPost2010PropOp35
 70
     1
102
RTVSPost2010Prop36
280
     0
102
RTVSPost2010PropOp36
 70
     1
102
RTVSPost2010Prop37
 90
       50
102
RTVSPost2010PropOp37
 70
     1
102
RTVSPost2010Prop38
140
0.0
102
RTVSPost2010PropOp38
 70
     1
102
RTVSPost2010Prop39
140
1.0
102
RTVSPost2010PropOp39
 70
     1
102
RTVSPost2010Prop40
 90
        0
102
RTVSPost2010PropOp40
 70
     1
102
RTVSPost2010Prop41ColorIndex
 90
       18
102
RTVSPost2010Prop41ColorRGB
 90
        0
102
RTVSPost2010PropOp41
 70
     1
102
RTVSPost2010Prop42
 90
       50
102
RTVSPost2010PropOp42
 70
     1
102
RTVSPost2010Prop43
 90
        3
102
RTVSPost2010PropOp43
 70
     1
102
RTVSPost2010Prop44ColorIndex
 90
        5
102
RTVSPost2010Prop44ColorRGB
 90
      255
102
RTVSPost2010PropOp44
 70
     1
102
RTVSPost2010Prop45
280
     0
102
RTVSPost2010PropOp45
 70
     1
102
RTVSPost2010Prop46
 90
       50
102
RTVSPost2010PropOp46
 70
     1
102
RTVSPost2010Prop47
 90
       50
102
RTVSPost2010PropOp47
 70
     1
102
RTVSPost2010Prop48
 90
       50
102
RTVSPost2010PropOp48
 70
     1
102
RTVSPost2010Prop49
280
     0
102
RTVSPost2010PropOp49
 70
     1
102
RTVSPost2010Prop50
 90
       50
102
RTVSPost2010PropOp50
 70
     1
102
RTVSPost2010Prop51ColorIndex
 90
      256
102
RTVSPost2010Prop51ColorRGB
 90
-16777216
102
RTVSPost2010PropOp51
 70
     0
102
RTVSPost2010Prop52
140
1.0
102
RTVSPost2010PropOp52
 70
     0
102
RTVSPost2010Prop53
 90
        2
102
RTVSPost2010PropOp53
 70
     1
102
RTVSPost2010Prop54
  1
strokes_ogs.tif
102
RTVSPost2010PropOp54
 70
     1
102
RTVSPost2010Prop55
280
     0
102
RTVSPost2010PropOp55
 70
     1
102
RTVSPost2010Prop56
140
1.0
102
RTVSPost2010PropOp56
 70
     1
102
RTVSPost2010Prop57
140
1.0
102
RTVSPost2010PropOp57
 70
     1
  0
XRECORD
  5
24C
102
{ACAD_REACTORS
330
24B
102
}
330
24B
100
AcDbXrecord
280
     1
102
RTVSPropertyOp0
 70
     1
102
RTVSPropertyOp1
 70
     1
102
RTVSPropertyOp2
 70
     1
102
RTVSPropertyOp3
 70
     1
102
RTVSPropertyOp4
 70
     1
102
RTVSPropertyOp5
 70
     1
102
RTVSPropertyOp6
 70
     1
102
RTVSPropertyOp7
 70
     1
102
RTVSPropertyOp8
 70
     1
102
RTVSPropertyOp9
 70
     1
102
RTVSPropertyOp10
 70
     1
102
RTVSPropertyOp11
 70
     1
102
RTVSPropertyOp12
 70
     1
102
RTVSPropertyOp13
 70
     1
102
RTVSPropertyOp14
 70
     1
102
RTVSPropertyOp15
 70
     1
102
RTVSPropertyOp16
 70
     1
102
RTVSPropertyOp17
 70
     1
102
RTVSPropertyOp18
 70
     1
102
RTVSPropertyOp19
 70
     1
102
RTVSPropertyOp20
 70
     1
102
RTVSPropertyOp21
 70
     1
102
RTVSPropertyOp22
 70
     1
102
RTVSPropertyOp23
 70
     1
102
RTVSPropertyOp24
 70
     1
102
RTVSPropertyOp25
 70
     1
102
RTVSPropertyOp26
 70
     1
102
RTVSPropertyOp27
 70
     1
102
RTVSPropertyOp28
 70
     1
102
RTVSPropertyOp29
 70
     1
102
RTVSPropertyOp30
 70
     1
102
RTVSPropertyOp31
 70
     1
102
RTVSPropertyOp32
 70
     1
102
RTVSPropertyOp33
 70
     1
102
RTVSPropertyOp34
 70
     1
102
RTVSPropertyOp35
 70
     1
102
RTVSPropertyOp36
 70
     1
102
RTVSPropertyOp37
 70
     1
102
RTVSPropertyOp38
 70
     1
102
RTVSPropertyOp39
 70
     1
102
RTVSPropertyOp40
 70
     1
102
RTVSPropertyOp41
 70
     1
102
RTVSPropertyOp42
 70
     1
102
RTVSPropertyOp43
 70
     1
102
RTVSPropertyOp44
 70
     1
102
RTVSPropertyOp45
 70
     1
102
RTVSPropertyOp46
 70
     1
102
RTVSPropertyOp47
 70
     1
102
RTVSPropertyOp48
 70
     1
102
RTVSPropertyOp49
 70
     1
102
RTVSPropertyOp50
 70
     1
102
RTVSPropertyOp51
 70
     0
102
RTVSPropertyOp52
 70
     0
102
RTVSPropertyOp53
 70
     1
102
RTVSPropertyOp54
 70
     1
102
RTVSPropertyOp55
 70
     1
102
RTVSPropertyOp56
 70
     1
102
RTVSPropertyOp57
 70
     1
102
RTVSPost2010Prop28
280
     0
102
RTVSPost2010PropOp28
 70
     1
102
RTVSPost2010Prop29
280
     1
102
RTVSPost2010PropOp29
 70
     1
102
RTVSPost2010Prop30
280
     1
102
RTVSPost2010PropOp30
 70
     1
102
RTVSPost2010Prop31
280
     0
102
RTVSPost2010PropOp31
 70
     1
102
RTVSPost2010Prop32
280
     0
102
RTVSPost2010PropOp32
 70
     1
102
RTVSPost2010Prop33
280
     0
102
RTVSPost2010PropOp33
 70
     1
102
RTVSPost2010Prop34
280
     0
102
RTVSPost2010PropOp34
 70
     1
102
RTVSPost2010Prop35
280
     0
102
RTVSPost2010PropOp35
 70
     1
102
RTVSPost2010Prop36
280
     0
102
RTVSPost2010PropOp36
 70
     1
102
RTVSPost2010Prop37
 90
       50
102
RTVSPost2010PropOp37
 70
     1
102
RTVSPost2010Prop38
140
0.0
102
RTVSPost2010PropOp38
 70
     1
102
RTVSPost2010Prop39
140
1.0
102
RTVSPost2010PropOp39
 70
     1
102
RTVSPost2010Prop40
 90
        0
102
RTVSPost2010PropOp40
 70
     1
102
RTVSPost2010Prop41ColorIndex
 90
       18
102
RTVSPost2010Prop41ColorRGB
 90
        0
102
RTVSPost2010PropOp41
 70
     1
102
RTVSPost2010Prop42
 90
       50
102
RTVSPost2010PropOp42
 70
     1
102
RTVSPost2010Prop43
 90
        3
102
RTVSPost2010PropOp43
 70
     1
102
RTVSPost2010Prop44ColorIndex
 90
        5
102
RTVSPost2010Prop44ColorRGB
 90
      255
102
RTVSPost2010PropOp44
 70
     1
102
RTVSPost2010Prop45
280
     0
102
RTVSPost2010PropOp45
 70
     1
102
RTVSPost2010Prop46
 90
       50
102
RTVSPost2010PropOp46
 70
     1
102
RTVSPost2010Prop47
 90
       50
102
RTVSPost2010PropOp47
 70
     1
102
RTVSPost2010Prop48
 90
       50
102
RTVSPost2010PropOp48
 70
     1
102
RTVSPost2010Prop49
280
     0
102
RTVSPost2010PropOp49
 70
     1
102
RTVSPost2010Prop50
 90
       50
102
RTVSPost2010PropOp50
 70
     1
102
RTVSPost2010Prop51ColorIndex
 90
      256
102
RTVSPost2010Prop51ColorRGB
 90
-16777216
102
RTVSPost2010PropOp51
 70
     0
102
RTVSPost2010Prop52
140
1.0
102
RTVSPost2010PropOp52
 70
     0
102
RTVSPost2010Prop53
 90
        2
102
RTVSPost2010PropOp53
 70
     1
102
RTVSPost2010Prop54
  1
strokes_ogs.tif
102
RTVSPost2010PropOp54
 70
     1
102
RTVSPost2010Prop55
280
     0
102
RTVSPost2010PropOp55
 70
     1
102
RTVSPost2010Prop56
140
1.0
102
RTVSPost2010PropOp56
 70
     1
102
RTVSPost2010Prop57
140
1.0
102
RTVSPost2010PropOp57
 70
     1
  0
XRECORD
  5
24E
102
{ACAD_REACTORS
330
24D
102
}
330
24D
100
AcDbXrecord
280
     1
102
RTVSPropertyOp0
 70
     1
102
RTVSPropertyOp1
 70
     1
102
RTVSPropertyOp2
 70
     1
102
RTVSPropertyOp3
 70
     1
102
RTVSPropertyOp4
 70
     1
102
RTVSPropertyOp5
 70
     1
102
RTVSPropertyOp6
 70
     1
102
RTVSPropertyOp7
 70
     1
102
RTVSPropertyOp8
 70
     1
102
RTVSPropertyOp9
 70
     1
102
RTVSPropertyOp10
 70
     1
102
RTVSPropertyOp11
 70
     1
102
RTVSPropertyOp12
 70
     1
102
RTVSPropertyOp13
 70
     1
102
RTVSPropertyOp14
 70
     1
102
RTVSPropertyOp15
 70
     1
102
RTVSPropertyOp16
 70
     1
102
RTVSPropertyOp17
 70
     1
102
RTVSPropertyOp18
 70
     1
102
RTVSPropertyOp19
 70
     1
102
RTVSPropertyOp20
 70
     1
102
RTVSPropertyOp21
 70
     1
102
RTVSPropertyOp22
 70
     1
102
RTVSPropertyOp23
 70
     1
102
RTVSPropertyOp24
 70
     1
102
RTVSPropertyOp25
 70
     1
102
RTVSPropertyOp26
 70
     1
102
RTVSPropertyOp27
 70
     1
102
RTVSPropertyOp28
 70
     1
102
RTVSPropertyOp29
 70
     1
102
RTVSPropertyOp30
 70
     1
102
RTVSPropertyOp31
 70
     1
102
RTVSPropertyOp32
 70
     1
102
RTVSPropertyOp33
 70
     1
102
RTVSPropertyOp34
 70
     1
102
RTVSPropertyOp35
 70
     1
102
RTVSPropertyOp36
 70
     1
102
RTVSPropertyOp37
 70
     1
102
RTVSPropertyOp38
 70
     1
102
RTVSPropertyOp39
 70
     1
102
RTVSPropertyOp40
 70
     1
102
RTVSPropertyOp41
 70
     1
102
RTVSPropertyOp42
 70
     1
102
RTVSPropertyOp43
 70
     1
102
RTVSPropertyOp44
 70
     1
102
RTVSPropertyOp45
 70
     1
102
RTVSPropertyOp46
 70
     1
102
RTVSPropertyOp47
 70
     1
102
RTVSPropertyOp48
 70
     1
102
RTVSPropertyOp49
 70
     1
102
RTVSPropertyOp50
 70
     1
102
RTVSPropertyOp51
 70
     0
102
RTVSPropertyOp52
 70
     0
102
RTVSPropertyOp53
 70
     1
102
RTVSPropertyOp54
 70
     1
102
RTVSPropertyOp55
 70
     1
102
RTVSPropertyOp56
 70
     1
102
RTVSPropertyOp57
 70
     1
102
RTVSPost2010Prop28
280
     0
102
RTVSPost2010PropOp28
 70
     1
102
RTVSPost2010Prop29
280
     1
102
RTVSPost2010PropOp29
 70
     1
102
RTVSPost2010Prop30
280
     1
102
RTVSPost2010PropOp30
 70
     1
102
RTVSPost2010Prop31
280
     0
102
RTVSPost2010PropOp31
 70
     1
102
RTVSPost2010Prop32
280
     0
102
RTVSPost2010PropOp32
 70
     1
102
RTVSPost2010Prop33
280
     0
102
RTVSPost2010PropOp33
 70
     1
102
RTVSPost2010Prop34
280
     0
102
RTVSPost2010PropOp34
 70
     1
102
RTVSPost2010Prop35
280
     0
102
RTVSPost2010PropOp35
 70
     1
102
RTVSPost2010Prop36
280
     0
102
RTVSPost2010PropOp36
 70
     1
102
RTVSPost2010Prop37
 90
       50
102
RTVSPost2010PropOp37
 70
     1
102
RTVSPost2010Prop38
140
0.0
102
RTVSPost2010PropOp38
 70
     1
102
RTVSPost2010Prop39
140
1.0
102
RTVSPost2010PropOp39
 70
     1
102
RTVSPost2010Prop40
 90
        0
102
RTVSPost2010PropOp40
 70
     1
102
RTVSPost2010Prop41ColorIndex
 90
       18
102
RTVSPost2010Prop41ColorRGB
 90
        0
102
RTVSPost2010PropOp41
 70
     1
102
RTVSPost2010Prop42
 90
       50
102
RTVSPost2010PropOp42
 70
     1
102
RTVSPost2010Prop43
 90
        3
102
RTVSPost2010PropOp43
 70
     1
102
RTVSPost2010Prop44ColorIndex
 90
        5
102
RTVSPost2010Prop44ColorRGB
 90
      255
102
RTVSPost2010PropOp44
 70
     1
102
RTVSPost2010Prop45
280
     0
102
RTVSPost2010PropOp45
 70
     1
102
RTVSPost2010Prop46
 90
       50
102
RTVSPost2010PropOp46
 70
     1
102
RTVSPost2010Prop47
 90
       50
102
RTVSPost2010PropOp47
 70
     1
102
RTVSPost2010Prop48
 90
       50
102
RTVSPost2010PropOp48
 70
     1
102
RTVSPost2010Prop49
280
     0
102
RTVSPost2010PropOp49
 70
     1
102
RTVSPost2010Prop50
 90
       50
102
RTVSPost2010PropOp50
 70
     1
102
RTVSPost2010Prop51ColorIndex
 90
      256
102
RTVSPost2010Prop51ColorRGB
 90
-16777216
102
RTVSPost2010PropOp51
 70
     0
102
RTVSPost2010Prop52
140
1.0
102
RTVSPost2010PropOp52
 70
     0
102
RTVSPost2010Prop53
 90
        2
102
RTVSPost2010PropOp53
 70
     1
102
RTVSPost2010Prop54
  1
strokes_ogs.tif
102
RTVSPost2010PropOp54
 70
     1
102
RTVSPost2010Prop55
280
     0
102
RTVSPost2010PropOp55
 70
     1
102
RTVSPost2010Prop56
140
1.0
102
RTVSPost2010PropOp56
 70
     1
102
RTVSPost2010Prop57
140
1.0
102
RTVSPost2010PropOp57
 70
     1
  0
XRECORD
  5
23E
102
{ACAD_REACTORS
330
23D
102
}
330
23D
100
AcDbXrecord
280
     1
102
RTVSPropertyOp0
 70
     1
102
RTVSPropertyOp1
 70
     1
102
RTVSPropertyOp2
 70
     1
102
RTVSPropertyOp3
 70
     1
102
RTVSPropertyOp4
 70
     1
102
RTVSPropertyOp5
 70
     1
102
RTVSPropertyOp6
 70
     1
102
RTVSPropertyOp7
 70
     1
102
RTVSPropertyOp8
 70
     1
102
RTVSPropertyOp9
 70
     1
102
RTVSPropertyOp10
 70
     1
102
RTVSPropertyOp11
 70
     1
102
RTVSPropertyOp12
 70
     1
102
RTVSPropertyOp13
 70
     1
102
RTVSPropertyOp14
 70
     1
102
RTVSPropertyOp15
 70
     1
102
RTVSPropertyOp16
 70
     1
102
RTVSPropertyOp17
 70
     1
102
RTVSPropertyOp18
 70
     1
102
RTVSPropertyOp19
 70
     1
102
RTVSPropertyOp20
 70
     1
102
RTVSPropertyOp21
 70
     1
102
RTVSPropertyOp22
 70
     1
102
RTVSPropertyOp23
 70
     1
102
RTVSPropertyOp24
 70
     1
102
RTVSPropertyOp25
 70
     1
102
RTVSPropertyOp26
 70
     1
102
RTVSPropertyOp27
 70
     1
102
RTVSPropertyOp28
 70
     1
102
RTVSPropertyOp29
 70
     1
102
RTVSPropertyOp30
 70
     1
102
RTVSPropertyOp31
 70
     1
102
RTVSPropertyOp32
 70
     1
102
RTVSPropertyOp33
 70
     1
102
RTVSPropertyOp34
 70
     1
102
RTVSPropertyOp35
 70
     1
102
RTVSPropertyOp36
 70
     1
102
RTVSPropertyOp37
 70
     1
102
RTVSPropertyOp38
 70
     1
102
RTVSPropertyOp39
 70
     1
102
RTVSPropertyOp40
 70
     1
102
RTVSPropertyOp41
 70
     1
102
RTVSPropertyOp42
 70
     1
102
RTVSPropertyOp43
 70
     1
102
RTVSPropertyOp44
 70
     1
102
RTVSPropertyOp45
 70
     1
102
RTVSPropertyOp46
 70
     1
102
RTVSPropertyOp47
 70
     1
102
RTVSPropertyOp48
 70
     1
102
RTVSPropertyOp49
 70
     1
102
RTVSPropertyOp50
 70
     1
102
RTVSPropertyOp51
 70
     0
102
RTVSPropertyOp52
 70
     0
102
RTVSPropertyOp53
 70
     1
102
RTVSPropertyOp54
 70
     1
102
RTVSPropertyOp55
 70
     1
102
RTVSPropertyOp56
 70
     1
102
RTVSPropertyOp57
 70
     1
102
RTVSPost2010Prop28
280
     0
102
RTVSPost2010PropOp28
 70
     1
102
RTVSPost2010Prop29
280
     1
102
RTVSPost2010PropOp29
 70
     1
102
RTVSPost2010Prop30
280
     1
102
RTVSPost2010PropOp30
 70
     1
102
RTVSPost2010Prop31
280
     0
102
RTVSPost2010PropOp31
 70
     1
102
RTVSPost2010Prop32
280
     0
102
RTVSPost2010PropOp32
 70
     1
102
RTVSPost2010Prop33
280
     0
102
RTVSPost2010PropOp33
 70
     1
102
RTVSPost2010Prop34
280
     0
102
RTVSPost2010PropOp34
 70
     1
102
RTVSPost2010Prop35
280
     0
102
RTVSPost2010PropOp35
 70
     1
102
RTVSPost2010Prop36
280
     0
102
RTVSPost2010PropOp36
 70
     1
102
RTVSPost2010Prop37
 90
       50
102
RTVSPost2010PropOp37
 70
     1
102
RTVSPost2010Prop38
140
0.0
102
RTVSPost2010PropOp38
 70
     1
102
RTVSPost2010Prop39
140
1.0
102
RTVSPost2010PropOp39
 70
     1
102
RTVSPost2010Prop40
 90
        0
102
RTVSPost2010PropOp40
 70
     1
102
RTVSPost2010Prop41ColorIndex
 90
       18
102
RTVSPost2010Prop41ColorRGB
 90
        0
102
RTVSPost2010PropOp41
 70
     1
102
RTVSPost2010Prop42
 90
       50
102
RTVSPost2010PropOp42
 70
     1
102
RTVSPost2010Prop43
 90
        3
102
RTVSPost2010PropOp43
 70
     1
102
RTVSPost2010Prop44ColorIndex
 90
        5
102
RTVSPost2010Prop44ColorRGB
 90
      255
102
RTVSPost2010PropOp44
 70
     1
102
RTVSPost2010Prop45
280
     0
102
RTVSPost2010PropOp45
 70
     1
102
RTVSPost2010Prop46
 90
       50
102
RTVSPost2010PropOp46
 70
     1
102
RTVSPost2010Prop47
 90
       50
102
RTVSPost2010PropOp47
 70
     1
102
RTVSPost2010Prop48
 90
       50
102
RTVSPost2010PropOp48
 70
     1
102
RTVSPost2010Prop49
280
     0
102
RTVSPost2010PropOp49
 70
     1
102
RTVSPost2010Prop50
 90
       50
102
RTVSPost2010PropOp50
 70
     1
102
RTVSPost2010Prop51ColorIndex
 90
      256
102
RTVSPost2010Prop51ColorRGB
 90
-16777216
102
RTVSPost2010PropOp51
 70
     0
102
RTVSPost2010Prop52
140
1.0
102
RTVSPost2010PropOp52
 70
     0
102
RTVSPost2010Prop53
 90
        2
102
RTVSPost2010PropOp53
 70
     1
102
RTVSPost2010Prop54
  1
strokes_ogs.tif
102
RTVSPost2010PropOp54
 70
     1
102
RTVSPost2010Prop55
280
     0
102
RTVSPost2010PropOp55
 70
     1
102
RTVSPost2010Prop56
140
1.0
102
RTVSPost2010PropOp56
 70
     1
102
RTVSPost2010Prop57
140
1.0
102
RTVSPost2010PropOp57
 70
     1
  0
XRECORD
  5
230
102
{ACAD_REACTORS
330
22F
102
}
330
22F
100
AcDbXrecord
280
     1
102
RTVSPropertyOp0
 70
     1
102
RTVSPropertyOp1
 70
     1
102
RTVSPropertyOp2
 70
     1
102
RTVSPropertyOp3
 70
     1
102
RTVSPropertyOp4
 70
     1
102
RTVSPropertyOp5
 70
     1
102
RTVSPropertyOp6
 70
     1
102
RTVSPropertyOp7
 70
     1
102
RTVSPropertyOp8
 70
     1
102
RTVSPropertyOp9
 70
     1
102
RTVSPropertyOp10
 70
     1
102
RTVSPropertyOp11
 70
     1
102
RTVSPropertyOp12
 70
     1
102
RTVSPropertyOp13
 70
     1
102
RTVSPropertyOp14
 70
     1
102
RTVSPropertyOp15
 70
     1
102
RTVSPropertyOp16
 70
     1
102
RTVSPropertyOp17
 70
     1
102
RTVSPropertyOp18
 70
     1
102
RTVSPropertyOp19
 70
     1
102
RTVSPropertyOp20
 70
     1
102
RTVSPropertyOp21
 70
     1
102
RTVSPropertyOp22
 70
     1
102
RTVSPropertyOp23
 70
     1
102
RTVSPropertyOp24
 70
     1
102
RTVSPropertyOp25
 70
     1
102
RTVSPropertyOp26
 70
     1
102
RTVSPropertyOp27
 70
     1
102
RTVSPropertyOp28
 70
     1
102
RTVSPropertyOp29
 70
     1
102
RTVSPropertyOp30
 70
     1
102
RTVSPropertyOp31
 70
     1
102
RTVSPropertyOp32
 70
     1
102
RTVSPropertyOp33
 70
     1
102
RTVSPropertyOp34
 70
     1
102
RTVSPropertyOp35
 70
     1
102
RTVSPropertyOp36
 70
     1
102
RTVSPropertyOp37
 70
     1
102
RTVSPropertyOp38
 70
     1
102
RTVSPropertyOp39
 70
     1
102
RTVSPropertyOp40
 70
     1
102
RTVSPropertyOp41
 70
     1
102
RTVSPropertyOp42
 70
     1
102
RTVSPropertyOp43
 70
     1
102
RTVSPropertyOp44
 70
     1
102
RTVSPropertyOp45
 70
     1
102
RTVSPropertyOp46
 70
     1
102
RTVSPropertyOp47
 70
     1
102
RTVSPropertyOp48
 70
     1
102
RTVSPropertyOp49
 70
     1
102
RTVSPropertyOp50
 70
     1
102
RTVSPropertyOp51
 70
     0
102
RTVSPropertyOp52
 70
     0
102
RTVSPropertyOp53
 70
     1
102
RTVSPropertyOp54
 70
     1
102
RTVSPropertyOp55
 70
     1
102
RTVSPropertyOp56
 70
     1
102
RTVSPropertyOp57
 70
     1
102
RTVSPost2010Prop28
280
     0
102
RTVSPost2010PropOp28
 70
     1
102
RTVSPost2010Prop29
280
     1
102
RTVSPost2010PropOp29
 70
     1
102
RTVSPost2010Prop30
280
     1
102
RTVSPost2010PropOp30
 70
     1
102
RTVSPost2010Prop31
280
     0
102
RTVSPost2010PropOp31
 70
     1
102
RTVSPost2010Prop32
280
     0
102
RTVSPost2010PropOp32
 70
     1
102
RTVSPost2010Prop33
280
     0
102
RTVSPost2010PropOp33
 70
     1
102
RTVSPost2010Prop34
280
     0
102
RTVSPost2010PropOp34
 70
     1
102
RTVSPost2010Prop35
280
     0
102
RTVSPost2010PropOp35
 70
     1
102
RTVSPost2010Prop36
280
     0
102
RTVSPost2010PropOp36
 70
     1
102
RTVSPost2010Prop37
 90
       50
102
RTVSPost2010PropOp37
 70
     1
102
RTVSPost2010Prop38
140
0.0
102
RTVSPost2010PropOp38
 70
     1
102
RTVSPost2010Prop39
140
1.0
102
RTVSPost2010PropOp39
 70
     1
102
RTVSPost2010Prop40
 90
        0
102
RTVSPost2010PropOp40
 70
     1
102
RTVSPost2010Prop41ColorIndex
 90
       18
102
RTVSPost2010Prop41ColorRGB
 90
        0
102
RTVSPost2010PropOp41
 70
     1
102
RTVSPost2010Prop42
 90
       50
102
RTVSPost2010PropOp42
 70
     1
102
RTVSPost2010Prop43
 90
        3
102
RTVSPost2010PropOp43
 70
     1
102
RTVSPost2010Prop44ColorIndex
 90
        5
102
RTVSPost2010Prop44ColorRGB
 90
      255
102
RTVSPost2010PropOp44
 70
     1
102
RTVSPost2010Prop45
280
     0
102
RTVSPost2010PropOp45
 70
     1
102
RTVSPost2010Prop46
 90
       50
102
RTVSPost2010PropOp46
 70
     1
102
RTVSPost2010Prop47
 90
       50
102
RTVSPost2010PropOp47
 70
     1
102
RTVSPost2010Prop48
 90
       50
102
RTVSPost2010PropOp48
 70
     1
102
RTVSPost2010Prop49
280
     0
102
RTVSPost2010PropOp49
 70
     1
102
RTVSPost2010Prop50
 90
       50
102
RTVSPost2010PropOp50
 70
     1
102
RTVSPost2010Prop51ColorIndex
 90
      256
102
RTVSPost2010Prop51ColorRGB
 90
-16777216
102
RTVSPost2010PropOp51
 70
     0
102
RTVSPost2010Prop52
140
1.0
102
RTVSPost2010PropOp52
 70
     0
102
RTVSPost2010Prop53
 90
        2
102
RTVSPost2010PropOp53
 70
     1
102
RTVSPost2010Prop54
  1
strokes_ogs.tif
102
RTVSPost2010PropOp54
 70
     1
102
RTVSPost2010Prop55
280
     0
102
RTVSPost2010PropOp55
 70
     1
102
RTVSPost2010Prop56
140
1.0
102
RTVSPost2010PropOp56
 70
     1
102
RTVSPost2010Prop57
140
1.0
102
RTVSPost2010PropOp57
 70
     1
  0
XRECORD
  5
250
102
{ACAD_REACTORS
330
24F
102
}
330
24F
100
AcDbXrecord
280
     1
102
RTVSPropertyOp0
 70
     1
102
RTVSPropertyOp1
 70
     1
102
RTVSPropertyOp2
 70
     1
102
RTVSPropertyOp3
 70
     1
102
RTVSPropertyOp4
 70
     1
102
RTVSPropertyOp5
 70
     1
102
RTVSPropertyOp6
 70
     1
102
RTVSPropertyOp7
 70
     1
102
RTVSPropertyOp8
 70
     1
102
RTVSPropertyOp9
 70
     1
102
RTVSPropertyOp10
 70
     1
102
RTVSPropertyOp11
 70
     1
102
RTVSPropertyOp12
 70
     1
102
RTVSPropertyOp13
 70
     1
102
RTVSPropertyOp14
 70
     1
102
RTVSPropertyOp15
 70
     1
102
RTVSPropertyOp16
 70
     1
102
RTVSPropertyOp17
 70
     1
102
RTVSPropertyOp18
 70
     1
102
RTVSPropertyOp19
 70
     1
102
RTVSPropertyOp20
 70
     1
102
RTVSPropertyOp21
 70
     1
102
RTVSPropertyOp22
 70
     1
102
RTVSPropertyOp23
 70
     1
102
RTVSPropertyOp24
 70
     1
102
RTVSPropertyOp25
 70
     1
102
RTVSPropertyOp26
 70
     1
102
RTVSPropertyOp27
 70
     1
102
RTVSPropertyOp28
 70
     1
102
RTVSPropertyOp29
 70
     1
102
RTVSPropertyOp30
 70
     1
102
RTVSPropertyOp31
 70
     1
102
RTVSPropertyOp32
 70
     1
102
RTVSPropertyOp33
 70
     1
102
RTVSPropertyOp34
 70
     1
102
RTVSPropertyOp35
 70
     1
102
RTVSPropertyOp36
 70
     1
102
RTVSPropertyOp37
 70
     1
102
RTVSPropertyOp38
 70
     1
102
RTVSPropertyOp39
 70
     1
102
RTVSPropertyOp40
 70
     1
102
RTVSPropertyOp41
 70
     1
102
RTVSPropertyOp42
 70
     1
102
RTVSPropertyOp43
 70
     1
102
RTVSPropertyOp44
 70
     1
102
RTVSPropertyOp45
 70
     1
102
RTVSPropertyOp46
 70
     1
102
RTVSPropertyOp47
 70
     1
102
RTVSPropertyOp48
 70
     1
102
RTVSPropertyOp49
 70
     1
102
RTVSPropertyOp50
 70
     1
102
RTVSPropertyOp51
 70
     0
102
RTVSPropertyOp52
 70
     0
102
RTVSPropertyOp53
 70
     1
102
RTVSPropertyOp54
 70
     1
102
RTVSPropertyOp55
 70
     1
102
RTVSPropertyOp56
 70
     1
102
RTVSPropertyOp57
 70
     1
102
RTVSPost2010Prop28
280
     0
102
RTVSPost2010PropOp28
 70
     1
102
RTVSPost2010Prop29
280
     1
102
RTVSPost2010PropOp29
 70
     1
102
RTVSPost2010Prop30
280
     1
102
RTVSPost2010PropOp30
 70
     1
102
RTVSPost2010Prop31
280
     0
102
RTVSPost2010PropOp31
 70
     1
102
RTVSPost2010Prop32
280
     0
102
RTVSPost2010PropOp32
 70
     1
102
RTVSPost2010Prop33
280
     0
102
RTVSPost2010PropOp33
 70
     1
102
RTVSPost2010Prop34
280
     0
102
RTVSPost2010PropOp34
 70
     1
102
RTVSPost2010Prop35
280
     0
102
RTVSPost2010PropOp35
 70
     1
102
RTVSPost2010Prop36
280
     0
102
RTVSPost2010PropOp36
 70
     1
102
RTVSPost2010Prop37
 90
       50
102
RTVSPost2010PropOp37
 70
     1
102
RTVSPost2010Prop38
140
0.0
102
RTVSPost2010PropOp38
 70
     1
102
RTVSPost2010Prop39
140
1.0
102
RTVSPost2010PropOp39
 70
     1
102
RTVSPost2010Prop40
 90
        0
102
RTVSPost2010PropOp40
 70
     1
102
RTVSPost2010Prop41ColorIndex
 90
       18
102
RTVSPost2010Prop41ColorRGB
 90
        0
102
RTVSPost2010PropOp41
 70
     1
102
RTVSPost2010Prop42
 90
       50
102
RTVSPost2010PropOp42
 70
     1
102
RTVSPost2010Prop43
 90
        3
102
RTVSPost2010PropOp43
 70
     1
102
RTVSPost2010Prop44ColorIndex
 90
        5
102
RTVSPost2010Prop44ColorRGB
 90
      255
102
RTVSPost2010PropOp44
 70
     1
102
RTVSPost2010Prop45
280
     0
102
RTVSPost2010PropOp45
 70
     1
102
RTVSPost2010Prop46
 90
       50
102
RTVSPost2010PropOp46
 70
     1
102
RTVSPost2010Prop47
 90
       50
102
RTVSPost2010PropOp47
 70
     1
102
RTVSPost2010Prop48
 90
       50
102
RTVSPost2010PropOp48
 70
     1
102
RTVSPost2010Prop49
280
     0
102
RTVSPost2010PropOp49
 70
     1
102
RTVSPost2010Prop50
 90
       50
102
RTVSPost2010PropOp50
 70
     1
102
RTVSPost2010Prop51ColorIndex
 90
      256
102
RTVSPost2010Prop51ColorRGB
 90
-16777216
102
RTVSPost2010PropOp51
 70
     0
102
RTVSPost2010Prop52
140
1.0
102
RTVSPost2010PropOp52
 70
     0
102
RTVSPost2010Prop53
 90
        2
102
RTVSPost2010PropOp53
 70
     1
102
RTVSPost2010Prop54
  1
strokes_ogs.tif
102
RTVSPost2010PropOp54
 70
     1
102
RTVSPost2010Prop55
280
     0
102
RTVSPost2010PropOp55
 70
     1
102
RTVSPost2010Prop56
140
1.0
102
RTVSPost2010PropOp56
 70
     1
102
RTVSPost2010Prop57
140
1.0
102
RTVSPost2010PropOp57
 70
     1
  0
ENDSEC
  0
EOF
