  0
SECTION
  2
HEADER
  9
$ACADVER
  1
AC1015
  9
$ACADMAINTVER
 70
     6
  9
$DWGCODEPAGE
  3
ANSI_1252
  9
$INSBASE
 10
0.0
 20
0.0
 30
0.0
  9
$EXTMIN
 10
0.0
 20
0.0
 30
0.0
  9
$EXTMAX
 10
1682.0
 20
2378.0
 30
0.0
  9
$LIMMIN
 10
0.0
 20
0.0
  9
$LIMMAX
 10
1682.0
 20
2378.0
  9
$ORTHOMODE
 70
     0
  9
$REGENMODE
 70
     1
  9
$FILLMODE
 70
     1
  9
$QTEXTMODE
 70
     0
  9
$MIRRTEXT
 70
     1
  9
$LTSCALE
 40
1.0
  9
$ATTMODE
 70
     1
  9
$TEXTSIZE
 40
2.5
  9
$TRACEWID
 40
1.0
  9
$TEXTSTYLE
  7
Standard
  9
$CLAYER
  8
0
  9
$CELTYPE
  6
ByLayer
  9
$CECOLOR
 62
   256
  9
$CELTSCALE
 40
1.0
  9
$DISPSILH
 70
     0
  9
$DIMSCALE
 40
1.0
  9
$DIMASZ
 40
2.5
  9
$DIMEXO
 40
0.625
  9
$DIMDLI
 40
3.75
  9
$DIMRND
 40
0.0
  9
$DIMDLE
 40
0.0
  9
$DIMEXE
 40
1.25
  9
$DIMTP
 40
0.0
  9
$DIMTM
 40
0.0
  9
$DIMTXT
 40
2.5
  9
$DIMCEN
 40
2.5
  9
$DIMTSZ
 40
0.0
  9
$DIMTOL
 70
     0
  9
$DIMLIM
 70
     0
  9
$DIMTIH
 70
     0
  9
$DIMTOH
 70
     0
  9
$DIMSE1
 70
     0
  9
$DIMSE2
 70
     0
  9
$DIMTAD
 70
     1
  9
$DIMZIN
 70
     8
  9
$DIMBLK
  1

  9
$DIMASO
 70
     1
  9
$DIMSHO
 70
     1
  9
$DIMPOST
  1

  9
$DIMAPOST
  1

  9
$DIMALT
 70
     0
  9
$DIMALTD
 70
     3
  9
$DIMALTF
 40
0.0393700787
  9
$DIMLFAC
 40
1.0
  9
$DIMTOFL
 70
     1
  9
$DIMTVP
 40
0.0
  9
$DIMTIX
 70
     0
  9
$DIMSOXD
 70
     0
  9
$DIMSAH
 70
     0
  9
$DIMBLK1
  1

  9
$DIMBLK2
  1

  9
$DIMSTYLE
  2
ISO-25
  9
$DIMCLRD
 70
     0
  9
$DIMCLRE
 70
     0
  9
$DIMCLRT
 70
     0
  9
$DIMTFAC
 40
1.0
  9
$DIMGAP
 40
0.625
  9
$DIMJUST
 70
     0
  9
$DIMSD1
 70
     0
  9
$DIMSD2
 70
     0
  9
$DIMTOLJ
 70
     0
  9
$DIMTZIN
 70
     8
  9
$DIMALTZ
 70
     0
  9
$DIMALTTZ
 70
     0
  9
$DIMUPT
 70
     0
  9
$DIMDEC
 70
     2
  9
$DIMTDEC
 70
     2
  9
$DIMALTU
 70
     2
  9
$DIMALTTD
 70
     3
  9
$DIMTXSTY
  7
Standard
  9
$DIMAUNIT
 70
     0
  9
$DIMADEC
 70
     0
  9
$DIMALTRND
 40
0.0
  9
$DIMAZIN
 70
     0
  9
$DIMDSEP
 70
    44
  9
$DIMATFIT
 70
     3
  9
$DIMFRAC
 70
     0
  9
$DIMLDRBLK
  1

  9
$DIMLUNIT
 70
     2
  9
$DIMLWD
 70
    -2
  9
$DIMLWE
 70
    -2
  9
$DIMTMOVE
 70
     0
  9
$LUNITS
 70
     2
  9
$LUPREC
 70
     4
  9
$SKETCHINC
 40
1.0
  9
$FILLETRAD
 40
10.0
  9
$AUNITS
 70
     0
  9
$AUPREC
 70
     0
  9
$MENU
  1
.
  9
$ELEVATION
 40
0.0
  9
$PELEVATION
 40
0.0
  9
$THICKNESS
 40
0.0
  9
$LIMCHECK
 70
     0
  9
$CHAMFERA
 40
10.0
  9
$CHAMFERB
 40
10.0
  9
$CHAMFERC
 40
20.0
  9
$CHAMFERD
 40
0.0
  9
$SKPOLY
 70
     0
  9
$TDCREATE
 40
2455315.566617662
  9
$TDUCREATE
 40
2455315.483284329
  9
$TDUPDATE
 40
2455315.566617674
  9
$TDUUPDATE
 40
2455315.48328434
  9
$TDINDWG
 40
0.0000000116
  9
$TDUSRTIMER
 40
0.0000000116
  9
$USRTIMER
 70
     1
  9
$ANGBASE
 50
0.0
  9
$ANGDIR
 70
     0
  9
$PDMODE
 70
     0
  9
$PDSIZE
 40
0.0
  9
$PLINEWID
 40
0.0
  9
$SPLFRAME
 70
     0
  9
$SPLINETYPE
 70
     6
  9
$SPLINESEGS
 70
     8
  9
$HANDSEED
  5
190
  9
$SURFTAB1
 70
     6
  9
$SURFTAB2
 70
     6
  9
$SURFTYPE
 70
     6
  9
$SURFU
 70
     6
  9
$SURFV
 70
     6
  9
$UCSBASE
  2

  9
$UCSNAME
  2

  9
$UCSORG
 10
0.0
 20
0.0
 30
0.0
  9
$UCSXDIR
 10
1.0
 20
0.0
 30
0.0
  9
$UCSYDIR
 10
0.0
 20
1.0
 30
0.0
  9
$UCSORTHOREF
  2

  9
$UCSORTHOVIEW
 70
     0
  9
$UCSORGTOP
 10
0.0
 20
0.0
 30
0.0
  9
$UCSORGBOTTOM
 10
0.0
 20
0.0
 30
0.0
  9
$UCSORGLEFT
 10
0.0
 20
0.0
 30
0.0
  9
$UCSORGRIGHT
 10
0.0
 20
0.0
 30
0.0
  9
$UCSORGFRONT
 10
0.0
 20
0.0
 30
0.0
  9
$UCSORGBACK
 10
0.0
 20
0.0
 30
0.0
  9
$PUCSBASE
  2

  9
$PUCSNAME
  2

  9
$PUCSORG
 10
0.0
 20
0.0
 30
0.0
  9
$PUCSXDIR
 10
1.0
 20
0.0
 30
0.0
  9
$PUCSYDIR
 10
0.0
 20
1.0
 30
0.0
  9
$PUCSORTHOREF
  2

  9
$PUCSORTHOVIEW
 70
     0
  9
$PUCSORGTOP
 10
0.0
 20
0.0
 30
0.0
  9
$PUCSORGBOTTOM
 10
0.0
 20
0.0
 30
0.0
  9
$PUCSORGLEFT
 10
0.0
 20
0.0
 30
0.0
  9
$PUCSORGRIGHT
 10
0.0
 20
0.0
 30
0.0
  9
$PUCSORGFRONT
 10
0.0
 20
0.0
 30
0.0
  9
$PUCSORGBACK
 10
0.0
 20
0.0
 30
0.0
  9
$USERI1
 70
     0
  9
$USERI2
 70
     0
  9
$USERI3
 70
     0
  9
$USERI4
 70
     0
  9
$USERI5
 70
     0
  9
$USERR1
 40
0.0
  9
$USERR2
 40
0.0
  9
$USERR3
 40
0.0
  9
$USERR4
 40
0.0
  9
$USERR5
 40
0.0
  9
$WORLDVIEW
 70
     1
  9
$SHADEDGE
 70
     3
  9
$SHADEDIF
 70
    70
  9
$TILEMODE
 70
     1
  9
$MAXACTVP
 70
    64
  9
$PINSBASE
 10
0.0
 20
0.0
 30
0.0
  9
$PLIMCHECK
 70
     0
  9
$PEXTMIN
 10
0.0
 20
0.0
 30
0.0
  9
$PEXTMAX
 10
1682.0
 20
2378.0
 30
0.0
  9
$PLIMMIN
 10
0.0
 20
0.0
  9
$PLIMMAX
 10
1682.0
 20
2378.0
  9
$UNITMODE
 70
     0
  9
$VISRETAIN
 70
     1
  9
$PLINEGEN
 70
     0
  9
$PSLTSCALE
 70
     1
  9
$TREEDEPTH
 70
  3020
  9
$CMLSTYLE
  2
Standard
  9
$CMLJUST
 70
     0
  9
$CMLSCALE
 40
20.0
  9
$PROXYGRAPHICS
 70
     1
  9
$MEASUREMENT
 70
     1
  9
$CELWEIGHT
370
    -1
  9
$ENDCAPS
280
     0
  9
$JOINSTYLE
280
     0
  9
$LWDISPLAY
290
     0
  9
$INSUNITS
 70
     4
  9
$HYPERLINKBASE
  1

  9
$STYLESHEET
  1

  9
$XEDIT
290
     1
  9
$CEPSNTYPE
380
     0
  9
$PSTYLEMODE
290
     1
  9
$FINGERPRINTGUID
  2
{4E1C12AA-3E4E-4923-875C-B1AC4FD68171}
  9
$VERSIONGUID
  2
{FAEB1C32-E019-11D5-929B-00C0DF256EC4}
  9
$EXTNAMES
290
     1
  9
$PSVPSCALE
 40
0.0
  9
$OLESTARTUP
290
     0
  0
ENDSEC
  0
SECTION
  2
CLASSES
  0
CLASS
  1
ACDBDICTIONARYWDFLT
  2
AcDbDictionaryWithDefault
  3
ObjectDBX Classes
 90
        0
280
     0
281
     0
  0
CLASS
  1
VISUALSTYLE
  2
AcDbVisualStyle
  3
ObjectDBX Classes
 90
     4095
280
     0
281
     0
  0
CLASS
  1
SCALE
  2
AcDbScale
  3
ObjectDBX Classes
 90
     1153
280
     0
281
     0
  0
CLASS
  1
DICTIONARYVAR
  2
AcDbDictionaryVar
  3
ObjectDBX Classes
 90
        0
280
     0
281
     0
  0
CLASS
  1
ACDBPLACEHOLDER
  2
AcDbPlaceHolder
  3
ObjectDBX Classes
 90
        0
280
     0
281
     0
  0
CLASS
  1
LAYOUT
  2
AcDbLayout
  3
ObjectDBX Classes
 90
        0
280
     0
281
     0
  0
ENDSEC
  0
SECTION
  2
TABLES
  0
TABLE
  2
VPORT
  5
8
330
0
100
AcDbSymbolTable
 70
     1
  0
VPORT
  5
29
330
8
100
AcDbSymbolTableRecord
100
AcDbViewportTableRecord
  2
*Active
 70
     0
 10
0.0
 20
0.0
 11
1.0
 21
1.0
 12
344.1869158879
 22
148.5
 13
0.0
 23
0.0
 14
10.0
 24
10.0
 15
10.0
 25
10.0
 16
0.0
 26
0.0
 36
1.0
 17
0.0
 27
0.0
 37
0.0
 40
297.0
 41
1.9729729729
 42
50.0
 43
0.0
 44
0.0
 50
0.0
 51
0.0
 71
     0
 72
   100
 73
     1
 74
     3
 75
     0
 76
     0
 77
     0
 78
     0
281
     0
 65
     1
110
0.0
120
0.0
130
0.0
111
1.0
121
0.0
131
0.0
112
0.0
122
1.0
132
0.0
 79
     0
146
0.0
  0
ENDTAB
  0
TABLE
  2
LTYPE
  5
5
330
0
100
AcDbSymbolTable
 70
     1
  0
LTYPE
  5
14
330
5
100
AcDbSymbolTableRecord
100
AcDbLinetypeTableRecord
  2
ByBlock
 70
     0
  3

 72
    65
 73
     0
 40
0.0
  0
LTYPE
  5
15
330
5
100
AcDbSymbolTableRecord
100
AcDbLinetypeTableRecord
  2
ByLayer
 70
     0
  3

 72
    65
 73
     0
 40
0.0
  0
LTYPE
  5
16
330
5
100
AcDbSymbolTableRecord
100
AcDbLinetypeTableRecord
  2
Continuous
 70
     0
  3
Solid line
 72
    65
 73
     0
 40
0.0
  0
ENDTAB
  0
TABLE
  2
LAYER
  5
2
330
0
100
AcDbSymbolTable
 70
    10
  0
LAYER
  5
10
330
2
100
AcDbSymbolTableRecord
100
AcDbLayerTableRecord
  2
0
 70
     0
 62
     7
  6
Continuous
370
    -3
390
F
  0
LAYER
  5
5D
330
2
100
AcDbSymbolTableRecord
100
AcDbLayerTableRecord
  2
Default
 70
     0
 62
     7
  6
Continuous
370
    -3
390
F
  0
LAYER
  5
60
330
2
100
AcDbSymbolTableRecord
100
AcDbLayerTableRecord
  2
$DDT_AUDIT_GENERATED_(60)
 70
     0
 62
     7
  6
Continuous
370
    -3
390
F
  0
LAYER
  5
67
330
2
100
AcDbSymbolTableRecord
100
AcDbLayerTableRecord
  2
$DDT_AUDIT_GENERATED_(67)
 70
     0
 62
     7
  6
Continuous
370
    -3
390
F
  0
LAYER
  5
A8
330
2
100
AcDbSymbolTableRecord
100
AcDbLayerTableRecord
  2
$DDT_AUDIT_GENERATED_(A8)
 70
     0
 62
     7
  6
Continuous
370
    -3
390
F
  0
LAYER
  5
B5
330
2
100
AcDbSymbolTableRecord
100
AcDbLayerTableRecord
  2
$DDT_AUDIT_GENERATED_(B5)
 70
     0
 62
     7
  6
Continuous
370
    -3
390
F
  0
LAYER
  5
BA
330
2
100
AcDbSymbolTableRecord
100
AcDbLayerTableRecord
  2
02636038_GEHÄUSE
 70
     0
 62
     7
  6
Continuous
370
    -3
390
F
  0
LAYER
  5
CC
330
2
100
AcDbSymbolTableRecord
100
AcDbLayerTableRecord
  2
$DDT_AUDIT_GENERATED_(CC)
 70
     0
 62
     7
  6
Continuous
370
    -3
390
F
  0
LAYER
  5
12C
330
2
100
AcDbSymbolTableRecord
100
AcDbLayerTableRecord
  2
$DDT_AUDIT_GENERATED_(12C)
 70
     0
 62
     7
  6
Continuous
370
    -3
390
F
  0
LAYER
  5
145
330
2
100
AcDbSymbolTableRecord
100
AcDbLayerTableRecord
  2
$DDT_AUDIT_GENERATED_(145)
 70
     0
 62
     7
  6
Continuous
370
    -3
390
F
  0
ENDTAB
  0
TABLE
  2
STYLE
  5
3
330
0
100
AcDbSymbolTable
 70
     2
  0
STYLE
  5
11
330
3
100
AcDbSymbolTableRecord
100
AcDbTextStyleTableRecord
  2
Standard
 70
     0
 40
0.0
 41
1.0
 50
0.0
 71
     0
 42
2.5
  3
txt
  4

  0
STYLE
  5
17F
330
3
100
AcDbSymbolTableRecord
100
AcDbTextStyleTableRecord
  2
SEACAD_seiso_ttf
 70
     0
 40
0.0
 41
1.0
 50
0.0
 71
     0
 42
0.2
  3
seiso.ttf
  4

  0
ENDTAB
  0
TABLE
  2
VIEW
  5
6
330
0
100
AcDbSymbolTable
 70
     0
  0
ENDTAB
  0
TABLE
  2
UCS
  5
7
330
0
100
AcDbSymbolTable
 70
     0
  0
ENDTAB
  0
TABLE
  2
APPID
  5
9
330
0
100
AcDbSymbolTable
 70
     1
  0
APPID
  5
12
330
9
100
AcDbSymbolTableRecord
100
AcDbRegAppTableRecord
  2
ACAD
 70
     0
  0
ENDTAB
  0
TABLE
  2
DIMSTYLE
  5
A
330
0
100
AcDbSymbolTable
 70
     1
100
AcDbDimStyleTable
  0
DIMSTYLE
105
27
330
A
100
AcDbSymbolTableRecord
100
AcDbDimStyleTableRecord
  2
ISO-25
 70
     0
 41
2.5
 42
0.625
 43
3.75
 44
1.25
 73
     0
 74
     0
 77
     1
 78
     8
140
2.5
141
2.5
143
0.0393700787
147
0.625
171
     3
172
     1
271
     2
272
     2
274
     3
278
    44
283
     0
284
     8
340
11
  0
ENDTAB
  0
TABLE
  2
BLOCK_RECORD
  5
1
330
0
100
AcDbSymbolTable
 70
     4
  0
BLOCK_RECORD
  5
1F
330
1
100
AcDbSymbolTableRecord
100
AcDbBlockTableRecord
  2
*Model_Space
340
22
  0
BLOCK_RECORD
  5
1B
330
1
100
AcDbSymbolTableRecord
100
AcDbBlockTableRecord
  2
*Paper_Space
340
1E
  0
BLOCK_RECORD
  5
5E
330
1
100
AcDbSymbolTableRecord
100
AcDbBlockTableRecord
  2
SE
340
0
102
{BLKREFS
331
5F
102
}
  0
BLOCK_RECORD
  5
EA
330
1
100
AcDbSymbolTableRecord
100
AcDbBlockTableRecord
  2
SE1
340
0
102
{BLKREFS
331
EB
102
}
  0
BLOCK_RECORD
  5
14F
330
1
100
AcDbSymbolTableRecord
100
AcDbBlockTableRecord
  2
SE2
340
0
102
{BLKREFS
331
150
102
}
  0
ENDTAB
  0
ENDSEC
  0
SECTION
  2
BLOCKS
  0
BLOCK
  5
20
330
1F
100
AcDbEntity
  8
0
100
AcDbBlockBegin
  2
*Model_Space
 70
     0
 10
0.0
 20
0.0
 30
0.0
  3
*Model_Space
  1

  0
ENDBLK
  5
21
330
1F
100
AcDbEntity
  8
0
100
AcDbBlockEnd
  0
BLOCK
  5
1C
330
1B
100
AcDbEntity
 67
     1
  8
0
100
AcDbBlockBegin
  2
*Paper_Space
 70
     0
 10
0.0
 20
0.0
 30
0.0
  3
*Paper_Space
  1

  0
ENDBLK
  5
1D
330
1B
100
AcDbEntity
 67
     1
  8
0
100
AcDbBlockEnd
  0
BLOCK
  5
E8
330
5E
100
AcDbEntity
  8
0
100
AcDbBlockBegin
  2
SE
 70
     0
 10
0.0
 20
0.0
 30
0.0
  3
SE
  1

  0
LINE
  5
61
330
5E
100
AcDbEntity
  8
$DDT_AUDIT_GENERATED_(60)
  6
Continuous
 62
     7
100
AcDbLine
 10
198.8499707961
 20
340.8271184464
 30
0.0
 11
143.8499707961
 21
340.8271184464
 31
0.0
  0
LINE
  5
62
330
5E
100
AcDbEntity
  8
$DDT_AUDIT_GENERATED_(60)
  6
Continuous
 62
     7
100
AcDbLine
 10
144.8499707961
 20
346.8271184464
 30
0.0
 11
197.8499707961
 21
346.8271184464
 31
0.0
  0
LINE
  5
63
330
5E
100
AcDbEntity
  8
$DDT_AUDIT_GENERATED_(60)
  6
Continuous
 62
     7
100
AcDbLine
 10
198.8499707961
 20
340.8271184464
 30
0.0
 11
198.8499707961
 21
345.8271184464
 31
0.0
  0
LINE
  5
64
330
5E
100
AcDbEntity
  8
$DDT_AUDIT_GENERATED_(60)
  6
Continuous
 62
     7
100
AcDbLine
 10
143.8499707961
 20
345.8271184464
 30
0.0
 11
143.8499707961
 21
340.8271184464
 31
0.0
  0
ARC
  5
65
330
5E
100
AcDbEntity
  8
$DDT_AUDIT_GENERATED_(60)
  6
Continuous
 62
     7
100
AcDbCircle
 10
197.8499707961
 20
345.8271184464
 30
0.0
 40
1.000000000000001
100
AcDbArc
 50
0.0
 51
90.0
  0
ARC
  5
66
330
5E
100
AcDbEntity
  8
$DDT_AUDIT_GENERATED_(60)
  6
Continuous
 62
     7
100
AcDbCircle
 10
144.8499707961
 20
345.8271184464
 30
0.0
 40
1.000000000000001
100
AcDbArc
 50
90.0
 51
180.0
  0
LINE
  5
68
330
5E
100
AcDbEntity
  8
$DDT_AUDIT_GENERATED_(67)
  6
Continuous
 62
     7
100
AcDbLine
 10
288.3445758094
 20
379.4365524602
 30
0.0
 11
271.3499715926
 21
379.2201832502
 31
0.0
  0
LINE
  5
69
330
5E
100
AcDbEntity
  8
$DDT_AUDIT_GENERATED_(67)
  6
Continuous
 62
     7
100
AcDbLine
 10
311.3499697553
 20
379.4365533699
 30
0.0
 11
288.3446661731
 21
379.4365521366
 31
0.0
  0
SPLINE
  5
6A
330
5E
100
AcDbEntity
  8
$DDT_AUDIT_GENERATED_(67)
  6
Continuous
 62
     7
100
AcDbSpline
210
0.0
220
0.0
230
1.0
 70
     8
 71
     5
 72
    12
 73
     6
 74
     0
 42
0.0000000011237615
 43
0.0000000001
 40
0.0
 40
0.0
 40
0.0
 40
0.0
 40
0.0
 40
0.0
 40
1.0
 40
1.0
 40
1.0
 40
1.0
 40
1.0
 40
1.0
 10
286.3499469052531
 20
374.1594123308589
 30
0.0
 10
286.3499707960611
 20
375.7450734914553
 30
0.0
 10
286.3499722167921
 20
377.0120307235804
 30
0.0
 10
287.9482858686993
 20
378.1243982733274
 30
0.0
 10
289.7687228650093
 20
378.1243992620093
 30
0.0
 10
292.0470555486839
 20
378.1244045311851
 30
0.0
  0
LINE
  5
6B
330
5E
100
AcDbEntity
  8
$DDT_AUDIT_GENERATED_(67)
  6
Continuous
 62
     7
100
AcDbLine
 10
311.3499708179
 20
379.43655337
 30
0.0
 11
321.3499695544
 21
379.4365546033
 31
0.0
  0
LINE
  5
6C
330
5E
100
AcDbEntity
  8
$DDT_AUDIT_GENERATED_(67)
  6
Continuous
 62
     7
100
AcDbLine
 10
286.3381936289
 20
347.3771182183
 30
0.0
 11
286.3498469319
 21
347.3771182181
 31
0.0
  0
LINE
  5
6D
330
5E
100
AcDbEntity
  8
$DDT_AUDIT_GENERATED_(67)
  6
Continuous
 62
     7
100
AcDbLine
 10
256.3676503641
 20
381.2993217047
 30
0.0
 11
256.3499959384
 21
381.2993217153
 31
0.0
  0
LINE
  5
6E
330
5E
100
AcDbEntity
  8
$DDT_AUDIT_GENERATED_(67)
  6
Continuous
 62
     7
100
AcDbLine
 10
256.3500820366
 20
347.3771178119
 30
0.0
 11
256.3645040111
 21
347.3771178125
 31
0.0
  0
LINE
  5
6F
330
5E
100
AcDbEntity
  8
$DDT_AUDIT_GENERATED_(67)
  6
Continuous
 62
     7
100
AcDbLine
 10
256.3499959384
 20
381.2993217153
 30
0.0
 11
256.3500820366
 21
347.3771178119
 31
0.0
  0
SPLINE
  5
70
330
5E
100
AcDbEntity
  8
$DDT_AUDIT_GENERATED_(67)
  6
Continuous
 62
     7
100
AcDbSpline
210
0.0
220
0.0
230
1.0
 70
    12
 71
     3
 72
    72
 73
    68
 74
     0
 42
0.000000000666668
 43
0.0000000001
 40
0.0
 40
0.0
 40
0.0
 40
0.0
 40
0.0624999999998931
 40
0.0624999999998931
 40
0.1249999999997862
 40
0.1249999999997862
 40
0.1406249999998664
 40
0.1406249999998664
 40
0.1562499999999465
 40
0.1562499999999465
 40
0.187500000000107
 40
0.187500000000107
 40
0.2031249999997596
 40
0.2031249999997596
 40
0.2109375000000134
 40
0.2109375000000134
 40
0.2187499999998397
 40
0.2187499999998397
 40
0.2500000000000001
 40
0.2500000000000001
 40
0.3124999999998931
 40
0.3124999999998931
 40
0.3437500000000535
 40
0.3437500000000535
 40
0.3749999999997863
 40
0.3749999999997863
 40
0.4062499999999468
 40
0.4062499999999468
 40
0.4218750000000269
 40
0.4218750000000269
 40
0.4296874999998531
 40
0.4296874999998531
 40
0.4375000000001067
 40
0.4375000000001067
 40
0.5000000000000002
 40
0.5000000000000002
 40
0.5624999999998934
 40
0.5624999999998934
 40
0.5937500000000536
 40
0.5937500000000536
 40
0.6250000000002138
 40
0.6250000000002138
 40
0.6406249999998664
 40
0.6406249999998664
 40
0.6484375000001205
 40
0.6484375000001205
 40
0.6562499999999466
 40
0.6562499999999466
 40
0.687500000000107
 40
0.687500000000107
 40
0.7500000000000002
 40
0.7500000000000002
 40
0.7812500000001608
 40
0.7812500000001608
 40
0.8124999999998932
 40
0.8124999999998932
 40
0.8437500000000536
 40
0.8437500000000536
 40
0.8515625000003076
 40
0.8515625000003076
 40
0.8593750000001338
 40
0.8593750000001338
 40
0.8750000000002139
 40
0.8750000000002139
 40
0.9375000000001071
 40
0.9375000000001071
 40
1.0
 40
1.0
 40
1.0
 40
1.0
 10
336.3499369878925
 20
379.4365471423161
 30
0.0
 41
1.0
 10
336.3499369878901
 20
379.4365470706753
 30
0.0
 41
1.0
 10
336.3255839938572
 20
379.4366087833603
 30
0.0
 41
1.0
 10
336.2293991811152
 20
379.4367789074633
 30
0.0
 41
1.0
 10
336.1575853339481
 20
379.4368910609402
 30
0.0
 41
1.0
 10
336.0384245758781
 20
379.4370620149243
 30
0.0
 41
1.0
 10
336.0131103134111
 20
379.4370969194963
 30
0.0
 41
1.0
 10
335.9595490431252
 20
379.4371716549153
 30
0.0
 41
1.0
 10
335.9312998580881
 20
379.4372116327773
 30
0.0
 41
1.0
 10
335.8420768725321
 20
379.4373339469533
 30
0.0
 41
1.0
 10
335.7766756283711
 20
379.4374212947333
 30
0.0
 41
1.0
 10
335.6695576587201
 20
379.4375608656723
 30
0.0
 41
1.0
 10
335.6323534503961
 20
379.4376092374313
 30
0.0
 41
1.0
 10
335.5742661516071
 20
379.4376834803703
 30
0.0
 41
1.0
 10
335.5545237485301
 20
379.4377085011463
 30
0.0
 41
1.0
 10
335.5142739944661
 20
379.4377589369143
 30
0.0
 41
1.0
 10
335.4937556335701
 20
379.4377843649852
 30
0.0
 41
1.0
 10
335.3895198570222
 20
379.4379118927642
 30
0.0
 41
1.0
 10
335.3007008858061
 20
379.4380148700843
 30
0.0
 41
1.0
 10
335.0183488577642
 20
379.4383286459152
 30
0.0
 41
1.0
 10
334.8088641640641
 20
379.4385371338092
 30
0.0
 41
1.0
 10
334.4633770992932
 20
379.4388179121183
 30
0.0
 41
1.0
 10
334.3429820415491
 20
379.4389065389173
 30
0.0
 41
1.0
 10
334.0917480323221
 20
379.4390711548783
 30
0.0
 41
1.0
 10
333.9609011566391
 20
379.4391472747853
 30
0.0
 41
1.0
 10
333.6886770609611
 20
379.4392858649633
 30
0.0
 41
1.0
 10
333.5473120565761
 20
379.4393500761813
 30
0.0
 41
1.0
 10
333.3272228836911
 20
379.4394333633012
 30
0.0
 41
1.0
 10
333.2525208427051
 20
379.4394590287453
 30
0.0
 41
1.0
 10
333.1384421796061
 20
379.4394946020963
 30
0.0
 41
1.0
 10
333.1000756418782
 20
379.4395059800183
 30
0.0
 41
1.0
 10
333.0226755457201
 20
379.4395278915813
 30
0.0
 41
1.0
 10
332.9837179550681
 20
379.4395384039563
 30
0.0
 41
1.0
 10
332.6308016349611
 20
379.4396298591893
 30
0.0
 41
1.0
 10
332.3006770109391
 20
379.4396811187143
 30
0.0
 41
1.0
 10
331.6086795963941
 20
379.4397041966322
 30
0.0
 41
1.0
 10
331.2467071178401
 20
379.4396747779073
 30
0.0
 41
1.0
 10
330.6799146359492
 20
379.4395564373243
 30
0.0
 41
1.0
 10
330.4869803168351
 20
379.4395049776693
 30
0.0
 41
1.0
 10
330.0930742881911
 20
379.4393789563712
 30
0.0
 41
1.0
 10
329.8920930575601
 20
379.4393044786912
 30
0.0
 41
1.0
 10
329.5844961739971
 20
379.4391785974512
 30
0.0
 41
1.0
 10
329.4809472587521
 20
379.4391347455833
 30
0.0
 41
1.0
 10
329.3240684228742
 20
379.4390660167303
 30
0.0
 41
1.0
 10
329.2714917512081
 20
379.4390426020412
 30
0.0
 41
1.0
 10
329.1661027238131
 20
379.4389949524263
 30
0.0
 41
1.0
 10
329.1132604639261
 20
379.4389707047993
 30
0.0
 41
1.0
 10
328.8483160908021
 20
379.4388476022532
 30
0.0
 41
1.0
 10
328.6340148947231
 20
379.4387426636333
 30
0.0
 41
1.0
 10
327.9842883331542
 20
379.4384300594843
 30
0.0
 41
1.0
 10
327.5419327009761
 20
379.4382199149513
 30
0.0
 41
1.0
 10
326.8649756787941
 20
379.4379349540442
 30
0.0
 41
1.0
 10
326.6370402208611
 20
379.4378447347483
 30
0.0
 41
1.0
 10
326.1766599202661
 20
379.4376750086633
 30
0.0
 41
1.0
 10
325.9441917036921
 20
379.4375955517273
 30
0.0
 41
1.0
 10
325.4746536712441
 20
379.4374459477803
 30
0.0
 41
1.0
 10
325.2375876079151
 20
379.4373773142893
 30
0.0
 41
1.0
 10
324.9382932941771
 20
379.4372934227003
 30
0.0
 41
1.0
 10
324.8782869025281
 20
379.4372767647163
 30
0.0
 41
1.0
 10
324.7579776480451
 20
379.4372436584543
 30
0.0
 41
1.0
 10
324.6976596744711
 20
379.4372272060633
 30
0.0
 41
1.0
 10
324.5163547340782
 20
379.4371782181872
 30
0.0
 41
1.0
 10
324.3953840050962
 20
379.4371461264873
 30
0.0
 41
1.0
 10
323.7900420535311
 20
379.4369903232853
 30
0.0
 41
1.0
 10
323.3041103819111
 20
379.4368741056162
 30
0.0
 41
1.0
 10
322.3292257500461
 20
379.4366559694323
 30
0.0
 41
1.0
 10
321.8402765453441
 20
379.4365545713932
 30
0.0
 41
1.0
 10
321.3499695544209
 20
379.4365547674001
 30
0.0
 41
1.0
  0
ARC
  5
71
330
5E
100
AcDbEntity
  8
$DDT_AUDIT_GENERATED_(67)
  6
Continuous
 62
     7
100
AcDbCircle
 10
336.0999369889
 20
379.4365476192
 30
0.0
 40
0.2499999989471835
100
AcDbArc
 50
278.1905839831
 51
359.9998906949
  0
LINE
  5
72
330
5E
100
AcDbEntity
  8
$DDT_AUDIT_GENERATED_(67)
  6
Continuous
 62
     7
100
AcDbLine
 10
286.3498469319
 20
347.3771182181
 30
0.0
 11
286.3352666709
 21
347.3771182183
 31
0.0
  0
LINE
  5
73
330
5E
100
AcDbEntity
  8
$DDT_AUDIT_GENERATED_(67)
  6
Continuous
 62
     7
100
AcDbLine
 10
271.3499771781
 20
347.1271184464
 30
0.0
 11
286.0998594677
 21
347.1271184464
 31
0.0
  0
ARC
  5
74
330
5E
100
AcDbEntity
  8
$DDT_AUDIT_GENERATED_(67)
  6
Continuous
 62
     7
100
AcDbCircle
 10
286.0998594677
 20
347.3771066774
 30
0.0
 40
0.2499882310329034
100
AcDbArc
 50
269.9999999999
 51
0.0026450621
  0
ARC
  5
75
330
5E
100
AcDbEntity
  8
$DDT_AUDIT_GENERATED_(67)
  6
Continuous
 62
     7
100
AcDbCircle
 10
256.8500323842
 20
381.2993066019
 30
0.0
 40
0.5000364460256487
100
AcDbArc
 50
92.5914802763
 51
108.6793840719
  0
ARC
  5
76
330
5E
100
AcDbEntity
  8
$DDT_AUDIT_GENERATED_(67)
  6
Continuous
 62
     7
100
AcDbCircle
 10
256.8500323842
 20
381.2993066019
 30
0.0
 40
0.5000364460256487
100
AcDbArc
 50
145.6257484058
 51
179.9982682619
  0
LINE
  5
77
330
5E
100
AcDbEntity
  8
$DDT_AUDIT_GENERATED_(67)
  6
Continuous
 62
     7
100
AcDbLine
 10
336.3499369879
 20
379.4365471423
 30
0.0
 11
336.3499415921
 21
381.2993218901
 31
0.0
  0
LINE
  5
78
330
5E
100
AcDbEntity
  8
$DDT_AUDIT_GENERATED_(67)
  6
Continuous
 62
     7
100
AcDbLine
 10
256.6000820363
 20
347.1271184464
 30
0.0
 11
271.3499771781
 21
347.1271184464
 31
0.0
  0
ARC
  5
79
330
5E
100
AcDbEntity
  8
$DDT_AUDIT_GENERATED_(67)
  6
Continuous
 62
     7
100
AcDbCircle
 10
256.6000820363
 20
347.3771184464
 30
0.0
 40
0.2499999997109263
100
AcDbArc
 50
180.0001454274
 51
270.0
  0
ARC
  5
7A
330
5E
100
AcDbEntity
  8
$DDT_AUDIT_GENERATED_(67)
  6
Continuous
 62
     7
100
AcDbCircle
 10
335.8499051414
 20
381.2993067832
 30
0.0
 40
0.5000364509573545
100
AcDbArc
 50
0.0017310012
 51
87.4085146972
  0
LINE
  5
7B
330
5E
100
AcDbEntity
  8
$DDT_AUDIT_GENERATED_(67)
  6
Continuous
 62
     7
100
AcDbLine
 10
292.0470582384
 20
378.124399262
 30
0.0
 11
311.3499707961
 21
378.124399262
 31
0.0
  0
LINE
  5
7C
330
5E
100
AcDbEntity
  8
$DDT_AUDIT_GENERATED_(67)
  6
Continuous
 62
     7
100
AcDbLine
 10
286.3498337936
 20
347.3739932181
 30
0.0
 11
286.3499230152
 21
374.1594135501
 31
0.0
  0
LINE
  5
7D
330
5E
100
AcDbEntity
  8
$DDT_AUDIT_GENERATED_(67)
  6
Continuous
 62
     7
100
AcDbLine
 10
311.3499708002
 20
378.1244267371
 30
0.0
 11
321.3499708002
 21
378.1244270862
 31
0.0
  0
ARC
  5
7E
330
5E
100
AcDbEntity
  8
$DDT_AUDIT_GENERATED_(67)
  6
Continuous
 62
     7
100
AcDbCircle
 10
286.1296873521
 20
347.3468632578
 30
0.0
 40
0.2078146248272932
100
AcDbArc
 50
303.3026619579
 51
8.3711165941
  0
ARC
  5
7F
330
5E
100
AcDbEntity
  8
$DDT_AUDIT_GENERATED_(67)
  6
Continuous
 62
     7
100
AcDbCircle
 10
256.8394320607
 20
381.3257568554
 30
0.0
 40
0.4718998260249589
100
AcDbArc
 50
102.3115997701
 51
183.2136367294
  0
LINE
  5
80
330
5E
100
AcDbEntity
  8
$DDT_AUDIT_GENERATED_(67)
  6
Continuous
 62
     7
100
AcDbLine
 10
311.3499707961
 20
382.1271302933
 30
0.0
 11
271.3499707961
 21
382.1271302933
 31
0.0
  0
ARC
  5
81
330
5E
100
AcDbEntity
  8
$DDT_AUDIT_GENERATED_(67)
  6
Continuous
 62
     7
100
AcDbCircle
 10
256.5595283795
 20
347.3398359302
 30
0.0
 40
0.1949760492269238
100
AcDbArc
 50
168.9764420176
 51
225.6998419714
  0
SPLINE
  5
82
330
5E
100
AcDbEntity
  8
$DDT_AUDIT_GENERATED_(67)
  6
Continuous
 62
     7
100
AcDbSpline
210
0.0
220
0.0
230
1.0
 70
     8
 71
     3
 72
     8
 73
     4
 74
     0
 42
0.0000000006693919
 43
0.0000000001
 40
0.0
 40
0.0
 40
0.0
 40
0.0
 40
1.0
 40
1.0
 40
1.0
 40
1.0
 10
321.3499707960611
 20
378.1244545612775
 30
0.0
 10
325.8520754696063
 20
378.093959296235
 30
0.0
 10
330.8101762529781
 20
378.4531097011748
 30
0.0
 10
336.2242731461764
 20
379.2019057760967
 30
0.0
  0
ARC
  5
83
330
5E
100
AcDbEntity
  8
$DDT_AUDIT_GENERATED_(67)
  6
Continuous
 62
     7
100
AcDbCircle
 10
256.8680002833
 20
381.299609128
 30
0.0
 40
0.499726315151097
100
AcDbArc
 50
92.6234594477
 51
113.4676193289
  0
SPLINE
  5
84
330
5E
100
AcDbEntity
  8
$DDT_AUDIT_GENERATED_(67)
  6
Continuous
 62
     7
100
AcDbSpline
210
0.0
220
0.0
230
1.0
 70
     8
 71
     3
 72
     8
 73
     4
 74
     0
 42
0.0000000006801292
 43
0.0000000001
 40
0.0
 40
0.0
 40
0.0
 40
0.0
 40
1.0
 40
1.0
 40
1.0
 40
1.0
 10
271.4371281021168
 20
382.1271056874047
 30
0.0
 10
267.0013914371993
 20
382.1380754516263
 30
0.0
 10
262.1024621320618
 20
382.0273406148165
 30
0.0
 10
256.7403401867042
 20
381.7949011769753
 30
0.0
  0
LINE
  5
85
330
5E
100
AcDbEntity
  8
$DDT_AUDIT_GENERATED_(67)
  6
Continuous
 62
     7
100
AcDbLine
 10
321.349970796
 20
382.1271241993
 30
0.0
 11
311.3499707961
 21
382.1271245404
 31
0.0
  0
SPLINE
  5
86
330
5E
100
AcDbEntity
  8
$DDT_AUDIT_GENERATED_(67)
  6
Continuous
 62
     7
100
AcDbSpline
210
0.0
220
0.0
230
1.0
 70
     8
 71
     3
 72
     8
 73
     4
 74
     0
 42
0.0000000542883925
 43
0.0000000001
 40
0.0
 40
0.0
 40
0.0
 40
0.0
 40
1.0
 40
1.0
 40
1.0
 40
1.0
 10
256.4133744927158
 20
347.3529216207378
 30
0.0
 10
256.3736846879944
 20
347.3056377361129
 30
0.0
 10
256.3770028025171
 20
347.2547699489479
 30
0.0
 10
256.4233288362837
 20
347.2003182592426
 30
0.0
  0
SPLINE
  5
87
330
5E
100
AcDbEntity
  8
$DDT_AUDIT_GENERATED_(67)
  6
Continuous
 62
     7
100
AcDbSpline
210
0.0
220
0.0
230
1.0
 70
     8
 71
     3
 72
     8
 73
     4
 74
     0
 42
0.0000000006841871
 43
0.0000000001
 40
0.0
 40
0.0
 40
0.0
 40
0.0
 40
1.0
 40
1.0
 40
1.0
 40
1.0
 10
335.9595902591497
 20
381.7949016839345
 30
0.0
 10
331.5551613267602
 20
382.004975521435
 30
0.0
 10
326.6852922657818
 20
382.115713465138
 30
0.0
 10
321.3499830762147
 20
382.1271155150433
 30
0.0
  0
SPLINE
  5
88
330
5E
100
AcDbEntity
  8
$DDT_AUDIT_GENERATED_(67)
  6
Continuous
 62
     7
100
AcDbSpline
210
0.0
220
0.0
230
1.0
 70
     8
 71
     5
 72
    12
 73
     6
 74
     0
 42
0.0000000011237615
 43
0.0000000001
 40
0.0
 40
0.0
 40
0.0
 40
0.0
 40
0.0
 40
0.0
 40
1.0
 40
1.0
 40
1.0
 40
1.0
 40
1.0
 40
1.0
 10
56.34999468686915
 20
374.1594123308589
 30
0.0
 10
56.3499707960612
 20
375.7450734914553
 30
0.0
 10
56.3499693753302
 20
377.0120307235804
 30
0.0
 10
54.75165572342303
 20
378.1243982733274
 30
0.0
 10
52.93121872711301
 20
378.1243992620092
 30
0.0
 10
50.6528860434384
 20
378.1244045311851
 30
0.0
  0
LINE
  5
89
330
5E
100
AcDbEntity
  8
$DDT_AUDIT_GENERATED_(67)
  6
Continuous
 62
     7
100
AcDbLine
 10
86.3498595555
 20
347.3771178119
 30
0.0
 11
86.335437581
 21
347.3771178125
 31
0.0
  0
LINE
  5
8A
330
5E
100
AcDbEntity
  8
$DDT_AUDIT_GENERATED_(67)
  6
Continuous
 62
     7
100
AcDbLine
 10
86.3499456537
 20
381.2993217153
 30
0.0
 11
86.3498595555
 21
347.3771178119
 31
0.0
  0
ARC
  5
8B
330
5E
100
AcDbEntity
  8
$DDT_AUDIT_GENERATED_(67)
  6
Continuous
 62
     7
100
AcDbCircle
 10
6.6000046032
 20
379.4365476192
 30
0.0
 40
0.2499999989471511
100
AcDbArc
 50
180.0001093051
 51
261.8094160169
  0
LINE
  5
8C
330
5E
100
AcDbEntity
  8
$DDT_AUDIT_GENERATED_(67)
  6
Continuous
 62
     7
100
AcDbLine
 10
54.3552745473
 20
379.4365521366
 30
0.0
 11
31.3499707961
 21
379.4365521366
 31
0.0
  0
LINE
  5
8D
330
5E
100
AcDbEntity
  8
$DDT_AUDIT_GENERATED_(67)
  6
Continuous
 62
     7
100
AcDbLine
 10
71.3499705994
 20
379.2201832359
 30
0.0
 11
54.355352364
 21
379.4365524444
 31
0.0
  0
LINE
  5
8E
330
5E
100
AcDbEntity
  8
$DDT_AUDIT_GENERATED_(67)
  6
Continuous
 62
     7
100
AcDbLine
 10
56.3500946602
 20
347.3771182181
 30
0.0
 11
56.3646749212
 21
347.3771182183
 31
0.0
  0
ARC
  5
8F
330
5E
100
AcDbEntity
  8
$DDT_AUDIT_GENERATED_(67)
  6
Continuous
 62
     7
100
AcDbCircle
 10
56.6000821244
 20
347.3771066774
 30
0.0
 40
0.2499882310329163
100
AcDbArc
 50
179.9973549379
 51
270.0000000001
  0
ARC
  5
90
330
5E
100
AcDbEntity
  8
$DDT_AUDIT_GENERATED_(67)
  6
Continuous
 62
     7
100
AcDbCircle
 10
85.8499092079
 20
381.2993066019
 30
0.0
 40
0.5000364460256307
100
AcDbArc
 50
0.0017317381
 51
87.4085197237
  0
LINE
  5
91
330
5E
100
AcDbEntity
  8
$DDT_AUDIT_GENERATED_(67)
  6
Continuous
 62
     7
100
AcDbLine
 10
6.3500046042
 20
379.4365471423
 30
0.0
 11
6.35
 21
381.2993218901
 31
0.0
  0
ARC
  5
92
330
5E
100
AcDbEntity
  8
$DDT_AUDIT_GENERATED_(67)
  6
Continuous
 62
     7
100
AcDbCircle
 10
86.0998595558
 20
347.3771184464
 30
0.0
 40
0.2499999997109263
100
AcDbArc
 50
270.0
 51
359.9998545726
  0
LINE
  5
93
330
5E
100
AcDbEntity
  8
$DDT_AUDIT_GENERATED_(67)
  6
Continuous
 62
     7
100
AcDbLine
 10
86.3499456537
 20
381.2993217153
 30
0.0
 11
86.3316166072
 21
381.2993217013
 31
0.0
  0
LINE
  5
94
330
5E
100
AcDbEntity
  8
$DDT_AUDIT_GENERATED_(67)
  6
Continuous
 62
     7
100
AcDbLine
 10
21.3499707961
 20
379.4365546033
 30
0.0
 11
31.3499703523
 21
379.4365521366
 31
0.0
  0
ARC
  5
95
330
5E
100
AcDbEntity
  8
$DDT_AUDIT_GENERATED_(67)
  6
Continuous
 62
     7
100
AcDbCircle
 10
13.8540258355
 20
-7738.3873214062
 30
0.0
 40
8117.827336862407
100
AcDbArc
 50
89.9470934708
 51
90.0529635319
  0
LINE
  5
96
330
5E
100
AcDbEntity
  8
$DDT_AUDIT_GENERATED_(67)
  6
Continuous
 62
     7
100
AcDbLine
 10
56.6000821244
 20
347.1271184464
 30
0.0
 11
71.349964414
 21
347.1271184464
 31
0.0
  0
LINE
  5
97
330
5E
100
AcDbEntity
  8
$DDT_AUDIT_GENERATED_(67)
  6
Continuous
 62
     7
100
AcDbLine
 10
86.0998595558
 20
347.1271184464
 30
0.0
 11
71.349964414
 21
347.1271184464
 31
0.0
  0
SPLINE
  5
98
330
5E
100
AcDbEntity
  8
$DDT_AUDIT_GENERATED_(67)
  6
Continuous
 62
     7
100
AcDbSpline
210
0.0
220
0.0
230
1.0
 70
     8
 71
     3
 72
     9
 73
     5
 74
     0
 42
0.0000000177520269
 43
0.0000000001
 40
0.0
 40
0.0
 40
0.0
 40
0.0
 40
0.0001162788057435
 40
0.0312156172744524
 40
0.0312156172744524
 40
0.0312156172744524
 40
0.0312156172744524
 10
85.87251807752193
 20
381.7988316627253
 30
0.0
 10
85.87251718768762
 20
381.7988134942317
 30
0.0
 10
85.8724911439667
 20
381.7988133830232
 30
0.0
 10
85.86660173176612
 20
381.7988125856787
 30
0.0
 10
85.85495112301436
 20
381.7988111766698
 30
0.0
  0
ARC
  5
99
330
5E
100
AcDbEntity
  8
$DDT_AUDIT_GENERATED_(67)
  6
Continuous
 62
     7
100
AcDbCircle
 10
6.8500364507
 20
381.2993067832
 30
0.0
 40
0.5000364509573607
100
AcDbArc
 50
92.5914853028
 51
179.9982689988
  0
LINE
  5
9A
330
5E
100
AcDbEntity
  8
$DDT_AUDIT_GENERATED_(67)
  6
Continuous
 62
     7
100
AcDbLine
 10
31.3499707961
 20
378.124399262
 30
0.0
 11
50.6528870498
 21
378.124399262
 31
0.0
  0
LINE
  5
9B
330
5E
100
AcDbEntity
  8
$DDT_AUDIT_GENERATED_(67)
  6
Continuous
 62
     7
100
AcDbLine
 10
56.350018577
 20
374.1594076678
 30
0.0
 11
56.3501077986
 21
347.3739932181
 31
0.0
  0
LINE
  5
9C
330
5E
100
AcDbEntity
  8
$DDT_AUDIT_GENERATED_(67)
  6
Continuous
 62
     7
100
AcDbLine
 10
21.3499707919
 20
378.1244270862
 30
0.0
 11
31.3499707919
 21
378.1244267371
 31
0.0
  0
ARC
  5
9D
330
5E
100
AcDbEntity
  8
$DDT_AUDIT_GENERATED_(67)
  6
Continuous
 62
     7
100
AcDbCircle
 10
56.57025424
 20
347.3468632578
 30
0.0
 40
0.2078146248272004
100
AcDbArc
 50
171.6288834059
 51
184.9313114526
  0
LINE
  5
9E
330
5E
100
AcDbEntity
  8
$DDT_AUDIT_GENERATED_(67)
  6
Continuous
 62
     7
100
AcDbLine
 10
71.349970796
 20
382.1271302933
 30
0.0
 11
31.3499707961
 21
382.1271302933
 31
0.0
  0
ARC
  5
9F
330
5E
100
AcDbEntity
  8
$DDT_AUDIT_GENERATED_(67)
  6
Continuous
 62
     7
100
AcDbCircle
 10
86.1404132126
 20
347.3398359302
 30
0.0
 40
0.1949760492269473
100
AcDbArc
 50
314.3001580286
 51
11.0235579824
  0
SPLINE
  5
A0
330
5E
100
AcDbEntity
  8
$DDT_AUDIT_GENERATED_(67)
  6
Continuous
 62
     7
100
AcDbSpline
210
0.0
220
0.0
230
1.0
 70
     8
 71
     3
 72
     8
 73
     4
 74
     0
 42
0.000000000669394
 43
0.0000000001
 40
0.0
 40
0.0
 40
0.0
 40
0.0
 40
1.0
 40
1.0
 40
1.0
 40
1.0
 10
6.475668445945853
 20
379.2019057760966
 30
0.0
 10
10.9458733477639
 20
378.5216758021865
 30
0.0
 10
15.90397413113564
 20
378.1625253972467
 30
0.0
 10
21.34997079606119
 20
378.1244545612774
 30
0.0
  0
ARC
  5
A1
330
5E
100
AcDbEntity
  8
$DDT_AUDIT_GENERATED_(67)
  6
Continuous
 62
     7
100
AcDbCircle
 10
56.5591415826
 20
347.3394802993
 30
0.0
 40
0.1944513521793475
100
AcDbArc
 50
168.8395343701
 51
225.7074518014
  0
ARC
  5
A2
330
5E
100
AcDbEntity
  8
$DDT_AUDIT_GENERATED_(67)
  6
Continuous
 62
     7
100
AcDbCircle
 10
85.8319413088
 20
381.299609128
 30
0.0
 40
0.4997263151510268
100
AcDbArc
 50
359.9648459457
 51
87.3765405523
  0
SPLINE
  5
A3
330
5E
100
AcDbEntity
  8
$DDT_AUDIT_GENERATED_(67)
  6
Continuous
 62
     7
100
AcDbSpline
210
0.0
220
0.0
230
1.0
 70
     8
 71
     3
 72
     8
 73
     4
 74
     0
 42
0.0000000006801292
 43
0.0000000001
 40
0.0
 40
0.0
 40
0.0
 40
0.0
 40
1.0
 40
1.0
 40
1.0
 40
1.0
 10
85.95960140541813
 20
381.7949011769753
 30
0.0
 10
81.52889084295168
 20
382.0062870986167
 30
0.0
 10
76.62996153781413
 20
382.1170219354265
 30
0.0
 10
71.26281349000547
 20
382.1271056874046
 30
0.0
  0
LINE
  5
A4
330
5E
100
AcDbEntity
  8
$DDT_AUDIT_GENERATED_(67)
  6
Continuous
 62
     7
100
AcDbLine
 10
31.3499707961
 20
382.1271245404
 30
0.0
 11
21.3499707961
 21
382.1271241993
 31
0.0
  0
LINE
  5
A5
330
5E
100
AcDbEntity
  8
$DDT_AUDIT_GENERATED_(67)
  6
Continuous
 62
     7
100
AcDbLine
 10
86.2865670994
 20
347.3529216207
 30
0.0
 11
86.2767695348
 21
347.3771178005
 31
0.0
  0
SPLINE
  5
A6
330
5E
100
AcDbEntity
  8
$DDT_AUDIT_GENERATED_(67)
  6
Continuous
 62
     7
100
AcDbSpline
210
0.0
220
0.0
230
1.0
 70
     8
 71
     3
 72
     8
 73
     4
 74
     0
 42
0.0000000563499643
 43
0.0000000001
 40
0.0
 40
0.0
 40
0.0
 40
0.0
 40
0.7489943447898321
 40
0.7489943447898321
 40
0.7489943447898321
 40
0.7489943447898321
 10
86.2766127558386
 20
347.2003182592426
 30
0.0
 10
86.31131069314644
 20
347.2411022668961
 30
0.0
 10
86.32188150909084
 20
347.2798757320016
 30
0.0
 10
86.30832520367179
 20
347.316638654559
 30
0.0
  0
SPLINE
  5
A7
330
5E
100
AcDbEntity
  8
$DDT_AUDIT_GENERATED_(67)
  6
Continuous
 62
     7
100
AcDbSpline
210
0.0
220
0.0
230
1.0
 70
     8
 71
     3
 72
     8
 73
     4
 74
     0
 42
0.0000000006841871
 43
0.0000000001
 40
0.0
 40
0.0
 40
0.0
 40
0.0
 40
1.0
 40
1.0
 40
1.0
 40
1.0
 10
21.34995851590759
 20
382.1271155150433
 30
0.0
 10
16.94053314784077
 20
382.1367675159178
 30
0.0
 10
12.0706640868625
 20
382.0260295722148
 30
0.0
 10
6.740351332972738
 20
381.7949016839344
 30
0.0
  0
LINE
  5
A9
330
5E
100
AcDbEntity
  8
$DDT_AUDIT_GENERATED_(A8)
  6
Continuous
 62
     7
100
AcDbLine
 10
98.8554488651
 20
340.8271184464
 30
0.0
 11
43.8713504461
 21
340.8271184464
 31
0.0
  0
LINE
  5
AA
330
5E
100
AcDbEntity
  8
$DDT_AUDIT_GENERATED_(A8)
  6
Continuous
 62
     7
100
AcDbLine
 10
97.8552545432
 20
346.8271184464
 30
0.0
 11
44.8715502952
 21
346.8271184464
 31
0.0
  0
LINE
  5
AB
330
5E
100
AcDbEntity
  8
$DDT_AUDIT_GENERATED_(A8)
  6
Continuous
 62
     7
100
AcDbLine
 10
98.8554489671
 20
340.8271184464
 30
0.0
 11
98.8554489671
 21
345.8271184315
 31
0.0
  0
LINE
  5
AC
330
5E
100
AcDbEntity
  8
$DDT_AUDIT_GENERATED_(A8)
  6
Continuous
 62
     7
100
AcDbLine
 10
43.8713502809
 20
345.8271184315
 30
0.0
 11
43.8713502809
 21
340.8271184464
 31
0.0
  0
ARC
  5
AD
330
5E
100
AcDbEntity
  8
$DDT_AUDIT_GENERATED_(A8)
  6
Continuous
 62
     7
100
AcDbCircle
 10
97.8555685179
 20
345.8274532523
 30
0.0
 40
0.9996652691798205
100
AcDbArc
 50
359.9808097583
 51
90.022203444
  0
ARC
  5
AE
330
5E
100
AcDbEntity
  8
$DDT_AUDIT_GENERATED_(A8)
  6
Continuous
 62
     7
100
AcDbCircle
 10
44.8712470897
 20
345.8274540756
 30
0.0
 40
0.999664446068544
100
AcDbArc
 50
89.977770298
 51
180.0192374443
  0
LINE
  5
AF
330
5E
100
AcDbEntity
  8
$DDT_AUDIT_GENERATED_(A8)
  6
Continuous
 62
     7
100
AcDbLine
 10
243.8713504461
 20
340.8271184464
 30
0.0
 11
298.8554488651
 21
340.8271184464
 31
0.0
  0
LINE
  5
B0
330
5E
100
AcDbEntity
  8
$DDT_AUDIT_GENERATED_(A8)
  6
Continuous
 62
     7
100
AcDbLine
 10
244.8715502952
 20
346.8271184464
 30
0.0
 11
297.8552545432
 21
346.8271184464
 31
0.0
  0
LINE
  5
B1
330
5E
100
AcDbEntity
  8
$DDT_AUDIT_GENERATED_(A8)
  6
Continuous
 62
     7
100
AcDbLine
 10
298.8554489671
 20
340.8271184464
 30
0.0
 11
298.8554489671
 21
345.8271184315
 31
0.0
  0
LINE
  5
B2
330
5E
100
AcDbEntity
  8
$DDT_AUDIT_GENERATED_(A8)
  6
Continuous
 62
     7
100
AcDbLine
 10
243.8713502809
 20
345.8271184315
 30
0.0
 11
243.8713502809
 21
340.8271184464
 31
0.0
  0
ARC
  5
B3
330
5E
100
AcDbEntity
  8
$DDT_AUDIT_GENERATED_(A8)
  6
Continuous
 62
     7
100
AcDbCircle
 10
297.8555685179
 20
345.8274532523
 30
0.0
 40
0.9996652691798453
100
AcDbArc
 50
359.9808097583
 51
90.022203444
  0
ARC
  5
B4
330
5E
100
AcDbEntity
  8
$DDT_AUDIT_GENERATED_(A8)
  6
Continuous
 62
     7
100
AcDbCircle
 10
244.8712470897
 20
345.8274540756
 30
0.0
 40
0.9996644460684785
100
AcDbArc
 50
89.977770298
 51
180.0192374443
  0
LINE
  5
B6
330
5E
100
AcDbEntity
  8
$DDT_AUDIT_GENERATED_(B5)
  6
Continuous
 62
     7
100
AcDbLine
 10
56.9749707961
 20
347.1271184464
 30
0.0
 11
56.9749707961
 21
346.8271184464
 31
0.0
  0
LINE
  5
B7
330
5E
100
AcDbEntity
  8
$DDT_AUDIT_GENERATED_(B5)
  6
Continuous
 62
     7
100
AcDbLine
 10
85.7249707961
 20
346.8271184464
 30
0.0
 11
85.7249707961
 21
347.1271184464
 31
0.0
  0
LINE
  5
B8
330
5E
100
AcDbEntity
  8
$DDT_AUDIT_GENERATED_(B5)
  6
Continuous
 62
     7
100
AcDbLine
 10
256.9749707961
 20
347.1271184464
 30
0.0
 11
256.9749707961
 21
346.8271184464
 31
0.0
  0
LINE
  5
B9
330
5E
100
AcDbEntity
  8
$DDT_AUDIT_GENERATED_(B5)
  6
Continuous
 62
     7
100
AcDbLine
 10
285.7249707961
 20
346.8271184464
 30
0.0
 11
285.7249707961
 21
347.1271184464
 31
0.0
  0
ELLIPSE
  5
BB
330
5E
100
AcDbEntity
  8
02636038_GEHÄUSE
  6
Continuous
 62
     7
100
AcDbEllipse
 10
171.3499707961
 20
425.5846606424
 30
0.0
 11
10.75000000000001
 21
0.0
 31
0.0
210
0.0
220
0.0
230
1.0
 40
0.3307120547
 41
0.0
 42
6.283185307179586
  0
LINE
  5
BC
330
5E
100
AcDbEntity
  8
02636038_GEHÄUSE
  6
Continuous
 62
     7
100
AcDbLine
 10
160.3499707961
 20
426.7397235722
 30
0.0
 11
160.3499707961
 21
425.0289478439
 31
0.0
  0
ELLIPSE
  5
BD
330
5E
100
AcDbEntity
  8
02636038_GEHÄUSE
  6
Continuous
 62
     7
100
AcDbEllipse
 10
171.3499707961
 20
428.4158557668
 30
0.0
 11
11.79999999999986
 21
-5.551115123125783E-14
 31
0.0
210
0.0
220
0.0
230
1.0
 40
0.3307120547
 41
2.771250021498079
 42
3.511935285681517
  0
LINE
  5
BE
330
5E
100
AcDbEntity
  8
02636038_GEHÄUSE
  6
Continuous
 62
     7
100
AcDbLine
 10
160.3499707961
 20
429.8282711614
 30
0.0
 11
160.3499707961
 21
428.1140467363
 31
0.0
  0
LINE
  5
BF
330
5E
100
AcDbEntity
  8
02636038_GEHÄUSE
  6
Continuous
 62
     7
100
AcDbLine
 10
160.3499707961
 20
428.1140467363
 30
0.0
 11
160.3499707961
 21
426.7397235722
 31
0.0
  0
ELLIPSE
  5
C0
330
5E
100
AcDbEntity
  8
02636038_GEHÄUSE
  6
Continuous
 62
     7
100
AcDbEllipse
 10
171.3499707961
 20
425.8843357081
 30
0.0
 11
11.3
 21
-1.387778780781446E-14
 31
0.0
210
0.0
220
0.0
230
1.0
 40
0.3307120547
 41
-0.6522333690119035
 42
-0.4309101146547247
  0
ELLIPSE
  5
C1
330
5E
100
AcDbEntity
  8
02636038_GEHÄUSE
  6
Continuous
 62
     7
100
AcDbEllipse
 10
171.3499707961
 20
425.8843357081
 30
0.0
 11
11.3
 21
-1.387778780781446E-14
 31
0.0
210
0.0
220
0.0
230
1.0
 40
0.3307120547
 41
3.532009459503692
 42
3.793826022601705
  0
LINE
  5
C2
330
5E
100
AcDbEntity
  8
02636038_GEHÄUSE
  6
Continuous
 62
     7
100
AcDbLine
 10
182.3499707961
 20
425.0289478439
 30
0.0
 11
182.3499707961
 21
426.7397235722
 31
0.0
  0
ELLIPSE
  5
C3
330
5E
100
AcDbEntity
  8
02636038_GEHÄUSE
  6
Continuous
 62
     7
100
AcDbEllipse
 10
171.3499707961
 20
428.4158557668
 30
0.0
 11
-11.80000000000024
 21
0.0
 31
0.0
210
0.0
220
0.0
230
1.0
 40
0.3307120547
 41
2.771250021498079
 42
3.511935285681494
  0
LINE
  5
C4
330
5E
100
AcDbEntity
  8
02636038_GEHÄUSE
  6
Continuous
 62
     7
100
AcDbLine
 10
182.3499707961
 20
426.7397235722
 30
0.0
 11
182.3499707961
 21
428.1140467363
 31
0.0
  0
LINE
  5
C5
330
5E
100
AcDbEntity
  8
02636038_GEHÄUSE
  6
Continuous
 62
     7
100
AcDbLine
 10
182.3499707961
 20
428.1140467363
 30
0.0
 11
182.3499707961
 21
429.8282711614
 31
0.0
  0
LINE
  5
C6
330
5E
100
AcDbEntity
  8
02636038_GEHÄUSE
  6
Continuous
 62
     7
100
AcDbLine
 10
162.3695194264
 20
423.6160875082
 30
0.0
 11
162.8066210418
 21
423.4268139036
 31
0.0
  0
LINE
  5
C7
330
5E
100
AcDbEntity
  8
02636038_GEHÄUSE
  6
Continuous
 62
     7
100
AcDbLine
 10
179.8933205503
 20
423.4268139036
 30
0.0
 11
180.3304221657
 21
423.6160875082
 31
0.0
  0
ARC
  5
C8
330
5E
100
AcDbEntity
  8
02636038_GEHÄUSE
  6
Continuous
 62
     7
100
AcDbCircle
 10
179.2514257154
 20
428.0541593873
 30
0.0
 40
4.40698401759303
100
AcDbArc
 50
304.2292181148
 51
314.939325022
  0
LINE
  5
C9
330
5E
100
AcDbEntity
  8
02636038_GEHÄUSE
  6
Continuous
 62
     7
100
AcDbLine
 10
160.3452414336
 20
424.9311587261
 30
0.0
 11
160.7493287788
 21
424.5744753791
 31
0.0
  0
LINE
  5
CA
330
5E
100
AcDbEntity
  8
02636038_GEHÄUSE
  6
Continuous
 62
     7
100
AcDbLine
 10
159.5499707961
 20
431.8741587449
 30
0.0
 11
159.5499707961
 21
428.4158557668
 31
0.0
  0
LINE
  5
CB
330
5E
100
AcDbEntity
  8
02636038_GEHÄUSE
  6
Continuous
 62
     7
100
AcDbLine
 10
183.1499707961
 20
428.4158557668
 30
0.0
 11
183.1499707961
 21
431.8816507028
 31
0.0
  0
SPLINE
  5
CD
330
5E
100
AcDbEntity
  8
$DDT_AUDIT_GENERATED_(CC)
  6
Continuous
 62
     7
100
AcDbSpline
210
0.0
220
0.0
230
1.0
 70
     8
 71
     5
 72
    17
 73
    11
 74
     0
 42
0.000000000254781
 43
0.0000000001
 40
0.0
 40
0.0
 40
0.0
 40
0.0
 40
0.0
 40
0.0
 40
0.214137725841
 40
0.471723904604
 40
0.621742101427
 40
0.7479075501779999
 40
0.8550346798899999
 40
1.0
 40
1.0
 40
1.0
 40
1.0
 40
1.0
 40
1.0
 10
152.2593101469489
 20
437.8318238641491
 30
0.0
 10
152.2593101469493
 20
436.2520135448002
 30
0.0
 10
152.4095541299723
 20
432.7624470405292
 30
0.0
 10
153.0208425302673
 20
428.2199430231142
 30
0.0
 10
154.4950675806013
 20
422.7691939869062
 30
0.0
 10
157.3289392361733
 20
416.9195674096382
 30
0.0
 10
161.2320059944353
 20
412.0548388282313
 30
0.0
 10
164.7727473219843
 20
409.4486893228472
 30
0.0
 10
167.8582648204283
 20
408.2701989298142
 30
0.0
 10
170.0805097614613
 20
407.9805897737542
 30
0.0
 10
171.3499707960614
 20
407.9805897737742
 30
0.0
  0
LINE
  5
CE
330
5E
100
AcDbEntity
  8
$DDT_AUDIT_GENERATED_(CC)
  6
Continuous
 62
     7
100
AcDbLine
 10
152.2593101469
 20
357.8271260745
 30
0.0
 11
152.2593101469
 21
437.8318238642
 31
0.0
  0
SPLINE
  5
CF
330
5E
100
AcDbEntity
  8
$DDT_AUDIT_GENERATED_(CC)
  6
Continuous
 62
     7
100
AcDbSpline
210
0.0
220
0.0
230
1.0
 70
     8
 71
     5
 72
    17
 73
    11
 74
     0
 42
0.000000000254781
 43
0.0000000001
 40
0.0
 40
0.0
 40
0.0
 40
0.0
 40
0.0
 40
0.0
 40
0.144965320207
 40
0.2520924497220001
 40
0.3782578968
 40
0.528276092964
 40
0.785862272883
 40
1.0
 40
1.0
 40
1.0
 40
1.0
 40
1.0
 40
1.0
 10
171.3499707960614
 20
407.9805897737742
 30
0.0
 10
172.6194318315113
 20
407.9805897737542
 30
0.0
 10
174.8416767716023
 20
408.2701989298952
 30
0.0
 10
177.9271942555443
 20
409.4486893173042
 30
0.0
 10
181.4679355706303
 20
412.0548388062982
 30
0.0
 10
185.3710023328643
 20
416.9195673732382
 30
0.0
 10
188.2048739981923
 20
422.7691939471553
 30
0.0
 10
189.6790990550693
 20
428.2199429827252
 30
0.0
 10
190.2903874605243
 20
432.7624470132842
 30
0.0
 10
190.4406314451733
 20
436.2520135353752
 30
0.0
 10
190.4406314451736
 20
437.8318238641491
 30
0.0
  0
LINE
  5
D0
330
5E
100
AcDbEntity
  8
$DDT_AUDIT_GENERATED_(CC)
  6
Continuous
 62
     7
100
AcDbLine
 10
190.4406314452
 20
437.8318238642
 30
0.0
 11
190.4406314452
 21
357.8271260745
 31
0.0
  0
LINE
  5
D1
330
5E
100
AcDbEntity
  8
$DDT_AUDIT_GENERATED_(CC)
  6
Continuous
 62
     7
100
AcDbLine
 10
152.2593101469
 20
437.8318238641
 30
0.0
 11
152.2593101469
 21
447.3271260684
 31
0.0
  0
SPLINE
  5
D2
330
5E
100
AcDbEntity
  8
$DDT_AUDIT_GENERATED_(CC)
  6
Continuous
 62
     7
100
AcDbSpline
210
0.0
220
0.0
230
1.0
 70
     8
 71
     5
 72
    12
 73
     6
 74
     0
 42
0.0000000010494544
 43
0.0000000001
 40
0.624108794593284
 40
0.624108794593284
 40
0.624108794593284
 40
0.624108794593284
 40
0.624108794593284
 40
0.624108794593284
 40
1.0
 40
1.0
 40
1.0
 40
1.0
 40
1.0
 40
1.0
 10
156.5118544180509
 20
433.1943625929126
 30
0.0
 10
157.0653993991142
 20
432.7218988592821
 30
0.0
 10
157.6314205886285
 20
432.2753868360592
 30
0.0
 10
158.2099648750147
 20
431.8548342368048
 30
0.0
 10
158.8010542533576
 20
431.4602515356012
 30
0.0
 10
159.4045283629821
 20
431.0916499610418
 30
0.0
  0
LINE
  5
D3
330
5E
100
AcDbEntity
  8
$DDT_AUDIT_GENERATED_(CC)
  6
Continuous
 62
     7
100
AcDbLine
 10
190.4406314452
 20
447.3271260684
 30
0.0
 11
190.4406314452
 21
437.8318238641
 31
0.0
  0
SPLINE
  5
D4
330
5E
100
AcDbEntity
  8
$DDT_AUDIT_GENERATED_(CC)
  6
Continuous
 62
     7
100
AcDbSpline
210
0.0
220
0.0
230
1.0
 70
     8
 71
     2
 72
    48
 73
    45
 74
     0
 42
0.000000000268945
 43
0.0000000001
 40
0.0
 40
0.0
 40
0.0
 40
0.015625
 40
0.015625
 40
0.03125
 40
0.03125
 40
0.0625
 40
0.0625
 40
0.125
 40
0.125
 40
0.15625
 40
0.15625
 40
0.1875
 40
0.1875
 40
0.25
 40
0.25
 40
0.3125
 40
0.3125
 40
0.375
 40
0.375
 40
0.4375
 40
0.4375
 40
0.5
 40
0.5
 40
0.5625
 40
0.5625
 40
0.625
 40
0.625
 40
0.6875
 40
0.6875
 40
0.75
 40
0.75
 40
0.8125
 40
0.8125
 40
0.84375
 40
0.84375
 40
0.875
 40
0.875
 40
0.9375
 40
0.9375
 40
0.96875
 40
0.96875
 40
0.984375
 40
0.984375
 40
1.0
 40
1.0
 40
1.0
 10
152.7593100679323
 20
447.8270380850709
 30
0.0
 10
152.7590675224073
 20
447.8271260758092
 30
0.0
 10
152.7659100154551
 20
447.8271260758092
 30
0.0
 10
152.7756224078759
 20
447.8271260758092
 30
0.0
 10
152.80291276482
 20
447.8271260758092
 30
0.0
 10
152.8626082548894
 20
447.8271260758092
 30
0.0
 10
153.0203828934037
 20
447.8271260758092
 30
0.0
 10
153.3436364181141
 20
447.8271260758092
 30
0.0
 10
154.0852452132052
 20
447.8271260758091
 30
0.0
 10
154.4516548151135
 20
447.8271260758091
 30
0.0
 10
154.9145421468948
 20
447.8271260758091
 30
0.0
 10
155.3733146188846
 20
447.8271260758091
 30
0.0
 10
155.9194891524581
 20
447.8271260758091
 30
0.0
 10
157.0001384962261
 20
447.8271260758091
 30
0.0
 10
158.3757015598283
 20
447.827126075809
 30
0.0
 10
159.7207299580877
 20
447.827126075809
 30
0.0
 10
161.2893510298294
 20
447.827126075809
 30
0.0
 10
162.8165639777534
 20
447.827126075809
 30
0.0
 10
164.5052618042056
 20
447.8271260758089
 30
0.0
 10
166.1511089790915
 20
447.8271260758089
 30
0.0
 10
167.8910799342028
 20
447.8271260758088
 30
0.0
 10
169.603922081693
 20
447.8271260758088
 30
0.0
 10
171.3499707960647
 20
447.8271260758087
 30
0.0
 10
173.0950120668752
 20
447.8271260758087
 30
0.0
 10
174.8088616579263
 20
447.8271260758087
 30
0.0
 10
176.5478466613991
 20
447.8271260758086
 30
0.0
 10
178.1946797879225
 20
447.8271260758086
 30
0.0
 10
179.8824415457055
 20
447.8271260758085
 30
0.0
 10
181.4105905622974
 20
447.8271260758085
 30
0.0
 10
182.9783633298653
 20
447.8271260758085
 30
0.0
 10
184.3242400322978
 20
447.8271260758084
 30
0.0
 10
185.6991047814074
 20
447.8271260758083
 30
0.0
 10
186.7804524396674
 20
447.8271260758083
 30
0.0
 10
187.3260850277075
 20
447.8271260758083
 30
0.0
 10
187.7853994452301
 20
447.8271260758083
 30
0.0
 10
188.2478247923193
 20
447.8271260758083
 30
0.0
 10
188.6146963789188
 20
447.8271260758083
 30
0.0
 10
189.3559966361745
 20
447.8271260758082
 30
0.0
 10
189.6795586987184
 20
447.8271260758082
 30
0.0
 10
189.8372130089708
 20
447.8271260758082
 30
0.0
 10
189.8970288273017
 20
447.8271260758082
 30
0.0
 10
189.9242793854383
 20
447.8271260758082
 30
0.0
 10
189.9340315766667
 20
447.8271260758082
 30
0.0
 10
189.9408743543945
 20
447.8271260758082
 30
0.0
 10
189.9406315240654
 20
447.82703808535
 30
0.0
  0
ARC
  5
D5
330
5E
100
AcDbEntity
  8
$DDT_AUDIT_GENERATED_(CC)
  6
Continuous
 62
     7
100
AcDbCircle
 10
152.7589266049
 20
447.3273794987
 30
0.0
 40
0.4996587335620141
100
AcDbArc
 50
89.9560283544
 51
134.649353103
  0
LINE
  5
D6
330
5E
100
AcDbEntity
  8
$DDT_AUDIT_GENERATED_(CC)
  6
Continuous
 62
     7
100
AcDbLine
 10
190.4406736561
 20
447.3271260478
 30
0.0
 11
190.396942282
 21
447.3271260478
 31
0.0
  0
LINE
  5
D7
330
5E
100
AcDbEntity
  8
$DDT_AUDIT_GENERATED_(CC)
  6
Continuous
 62
     7
100
AcDbLine
 10
152.30299931
 20
447.3271260478
 30
0.0
 11
152.2592679356
 21
447.3271260478
 31
0.0
  0
ARC
  5
D8
330
5E
100
AcDbEntity
  8
$DDT_AUDIT_GENERATED_(CC)
  6
Continuous
 62
     7
100
AcDbCircle
 10
190.4439533611
 20
437.6051157961
 30
0.0
 40
0.2267324044418279
100
AcDbArc
 50
90.8394855309
 51
96.0479708744
  0
ARC
  5
D9
330
5E
100
AcDbEntity
  8
$DDT_AUDIT_GENERATED_(CC)
  6
Continuous
 62
     7
100
AcDbCircle
 10
181.6673701831
 20
752.7917039552
 30
0.0
 40
315.0827119148227
100
AcDbArc
 50
268.2084963104
 51
271.5649682943
  0
ARC
  5
DA
330
5E
100
AcDbEntity
  8
$DDT_AUDIT_GENERATED_(CC)
  6
Continuous
 62
     7
100
AcDbCircle
 10
181.6673701831
 20
752.7917039552
 30
0.0
 40
315.0827119148227
100
AcDbArc
 50
271.5725012076
 51
271.5918263694
  0
LINE
  5
DB
330
5E
100
AcDbEntity
  8
$DDT_AUDIT_GENERATED_(CC)
  6
Continuous
 62
     7
100
AcDbLine
 10
171.3501695241
 20
437.8631641353
 30
0.0
 11
171.8170832546
 21
437.8630021908
 31
0.0
  0
ARC
  5
DC
330
5E
100
AcDbEntity
  8
$DDT_AUDIT_GENERATED_(CC)
  6
Continuous
 62
     7
100
AcDbCircle
 10
161.3508326082
 20
709.5723501119
 30
0.0
 40
271.893119594449
100
AcDbArc
 50
268.119269349
 51
272.10758252
  0
ARC
  5
DD
330
5E
100
AcDbEntity
  8
$DDT_AUDIT_GENERATED_(CC)
  6
Continuous
 62
     7
100
AcDbCircle
 10
152.255988238
 20
437.605117175
 30
0.0
 40
0.2267310255649976
100
AcDbArc
 50
83.9520092532
 51
89.1605111219
  0
SPLINE
  5
DE
330
5E
100
AcDbEntity
  8
$DDT_AUDIT_GENERATED_(CC)
  6
Continuous
 62
     7
100
AcDbSpline
210
0.0
220
0.0
230
1.0
 70
     8
 71
     3
 72
     8
 73
     4
 74
     0
 42
0.0000000124220081
 43
0.0000000001
 40
0.0
 40
0.0
 40
0.0
 40
0.0
 40
0.4961551652404883
 40
0.4961551652404883
 40
0.4961551652404883
 40
0.4961551652404883
 10
189.9406315240654
 20
447.82703808535
 30
0.0
 10
190.0705393931875
 20
447.8270816991641
 30
0.0
 10
190.1997038456956
 20
447.7740893148759
 30
0.0
 10
190.2921575153229
 20
447.6828464906
 30
0.0
  0
LINE
  5
DF
330
5E
100
AcDbEntity
  8
$DDT_AUDIT_GENERATED_(CC)
  6
Continuous
 62
     7
100
AcDbLine
 10
152.2593101469
 20
346.8271184464
 30
0.0
 11
152.2593101469
 21
357.8271260745
 31
0.0
  0
LINE
  5
E0
330
5E
100
AcDbEntity
  8
$DDT_AUDIT_GENERATED_(CC)
  6
Continuous
 62
     7
100
AcDbLine
 10
190.4406314452
 20
346.8271184464
 30
0.0
 11
190.4406314452
 21
357.8271260745
 31
0.0
  0
SPLINE
  5
E1
330
5E
100
AcDbEntity
  8
$DDT_AUDIT_GENERATED_(CC)
  6
Continuous
 62
     7
100
AcDbSpline
210
0.0
220
0.0
230
1.0
 70
     8
 71
     5
 72
    12
 73
     6
 74
     0
 42
0.0000000010494544
 43
0.0000000001
 40
0.0
 40
0.0
 40
0.0
 40
0.0
 40
0.0
 40
0.0
 40
0.3758908433603947
 40
0.3758908433603947
 40
0.3758908433603947
 40
0.3758908433603947
 40
0.3758908433603947
 40
0.3758908433603947
 10
183.2954132291406
 20
431.0916499610418
 30
0.0
 10
183.8988867575183
 20
431.4602511805762
 30
0.0
 10
184.4899755784715
 20
431.8548334767064
 30
0.0
 10
185.0685193317884
 20
432.2753856208714
 30
0.0
 10
185.6345400123147
 20
432.7218971390186
 30
0.0
 10
186.188084508288
 20
433.1943603176038
 30
0.0
  0
SPLINE
  5
E2
330
5E
100
AcDbEntity
  8
$DDT_AUDIT_GENERATED_(CC)
  6
Continuous
 62
     7
100
AcDbSpline
210
0.0
220
0.0
230
1.0
 70
     8
 71
     3
 72
    26
 73
    22
 74
     0
 42
0.0000000003692412
 43
0.0000000001
 40
0.0
 40
0.0
 40
0.0
 40
0.0
 40
0.0625000000000004
 40
0.0625000000000004
 40
0.1250000000000007
 40
0.1250000000000007
 40
0.2500000000000005
 40
0.2500000000000005
 40
0.3125000000000003
 40
0.3125000000000003
 40
0.3750000000000003
 40
0.3750000000000003
 40
0.5000000000000003
 40
0.5000000000000003
 40
0.6250000000000004
 40
0.6250000000000004
 40
0.6875000000000006
 40
0.6875000000000006
 40
0.7500000000000006
 40
0.7500000000000006
 40
1.0
 40
1.0
 40
1.0
 40
1.0
 10
183.2954132291406
 20
431.0916499610418
 30
0.0
 10
183.498408191694
 20
431.2156394931419
 30
0.0
 10
183.5983699239025
 20
431.3371108020905
 30
0.0
 10
183.6015339939512
 20
431.5771017761126
 30
0.0
 10
183.5011383893323
 20
431.696693398812
 30
0.0
 10
182.9080704094439
 20
432.0462387237305
 30
0.0
 10
182.1086341760393
 20
432.2834264579002
 30
0.0
 10
180.4189887786008
 20
432.6333574465793
 30
0.0
 10
179.7630742592865
 20
432.7493615542045
 30
0.0
 10
178.3319304905399
 20
432.9591938227816
 30
0.0
 10
177.5579193097589
 20
433.0534303927557
 30
0.0
 10
175.0568710031418
 20
433.2920477117052
 30
0.0
 10
173.2066801768119
 20
433.3827863403342
 30
0.0
 10
169.5100921504388
 20
433.3833131764542
 30
0.0
 10
167.656534399928
 20
433.2924881242629
 30
0.0
 10
165.1737981534095
 20
433.0568743480794
 30
0.0
 10
164.3802573214433
 20
432.9607663032093
 30
0.0
 10
162.9490684131439
 20
432.7513697233358
 30
0.0
 10
162.304587720815
 20
432.6379009720848
 30
0.0
 10
159.4447506170219
 20
432.0473536377918
 30
0.0
 10
158.5925530117269
 20
431.587605341475
 30
0.0
 10
159.4045283629821
 20
431.0916499610418
 30
0.0
  0
SPLINE
  5
E3
330
5E
100
AcDbEntity
  8
$DDT_AUDIT_GENERATED_(CC)
  6
Continuous
 62
     7
100
AcDbSpline
210
0.0
220
0.0
230
1.0
 70
     8
 71
     3
 72
     8
 73
     4
 74
     0
 42
0.0000000243059893
 43
0.0000000001
 40
0.950932258891952
 40
0.950932258891952
 40
0.950932258891952
 40
0.950932258891952
 40
1.0
 40
1.0
 40
1.0
 40
1.0
 10
158.2510450310481
 20
431.843621882128
 30
0.0
 10
158.2548229046279
 20
431.8424786860326
 30
0.0
 10
158.2607428766284
 20
431.8393140197601
 30
0.0
 10
158.2689000751859
 20
431.8343909025429
 30
0.0
  0
ARC
  5
E4
330
5E
100
AcDbEntity
  8
$DDT_AUDIT_GENERATED_(CC)
  6
Continuous
 62
     7
100
AcDbCircle
 10
172.8296609412
 20
451.579182754
 30
0.0
 40
24.58167337223589
100
AcDbArc
 50
213.9680553759
 51
228.4423662076
  0
ARC
  5
E5
330
5E
100
AcDbEntity
  8
$DDT_AUDIT_GENERATED_(CC)
  6
Continuous
 62
     7
100
AcDbCircle
 10
169.884520272
 20
451.5650331653
 30
0.0
 40
24.56163917478173
100
AcDbArc
 50
311.5546653729
 51
326.0288231131
  0
ARC
  5
E6
330
5E
100
AcDbEntity
  8
$DDT_AUDIT_GENERATED_(CC)
  6
Continuous
 62
     7
100
AcDbCircle
 10
152.6447530739
 20
447.4205505858
 30
0.0
 40
0.3533846598310783
100
AcDbArc
 50
132.0788105334
 51
195.3295575884
  0
ARC
  5
E7
330
5E
100
AcDbEntity
  8
$DDT_AUDIT_GENERATED_(CC)
  6
Continuous
 62
     7
100
AcDbCircle
 10
190.0551885182
 20
447.4205505857
 30
0.0
 40
0.353384659850049
100
AcDbArc
 50
344.6704424131
 51
47.9211894716
  0
ENDBLK
  5
E9
330
5E
100
AcDbEntity
  8
0
100
AcDbBlockEnd
  0
BLOCK
  5
14D
330
EA
100
AcDbEntity
  8
0
100
AcDbBlockBegin
  2
SE1
 70
     0
 10
0.0
 20
0.0
 30
0.0
  3
SE1
  1

  0
SPLINE
  5
EC
330
EA
100
AcDbEntity
  8
$DDT_AUDIT_GENERATED_(67)
  6
Continuous
 62
     7
100
AcDbSpline
210
0.0
220
0.0
230
1.0
 70
     8
 71
     3
 72
    14
 73
    10
 74
     0
 42
0.0000000264594962
 43
0.0000000001
 40
0.0
 40
0.0
 40
0.0
 40
0.0
 40
0.0312503807571633
 40
0.0624565921193454
 40
0.062500735918664
 40
0.0708942734175577
 40
0.1079941540602343
 40
0.1544046292715908
 40
0.1641060211785509
 40
0.1641060211785509
 40
0.1641060211785509
 40
0.1641060211785509
 10
422.3001825976584
 20
379.2201832121538
 30
0.0
 10
422.3006219629787
 20
379.216253536049
 30
0.0
 10
422.3010839118138
 20
379.2083997355044
 30
0.0
 10
422.3034916856682
 20
379.2009136787028
 30
0.0
 10
422.3053728799532
 20
379.1963350366926
 30
0.0
 10
422.3076657441359
 20
379.1911303775324
 30
0.0
 10
422.3136702528324
 20
379.181252105379
 30
0.0
 10
422.3218667869831
 20
379.1727291502897
 30
0.0
 10
422.327399745093
 20
379.1682981580521
 30
0.0
 10
422.3283728565627
 20
379.1675529587238
 30
0.0
  0
SPLINE
  5
ED
330
EA
100
AcDbEntity
  8
$DDT_AUDIT_GENERATED_(67)
  6
Continuous
 62
     7
100
AcDbSpline
210
0.0
220
0.0
230
1.0
 70
     8
 71
     3
 72
    20
 73
    16
 74
     0
 42
0.0000000005964495
 43
0.0000000001
 40
0.0
 40
0.0
 40
0.0
 40
0.0
 40
0.03655281878849
 40
0.0723259423243378
 40
0.1250027469969695
 40
0.1620099041762734
 40
0.2386507168774759
 40
0.2500142066056185
 40
0.3932224138137016
 40
0.5307736146255355
 40
0.668289773486736
 40
0.751217272565604
 40
0.8341493355509189
 40
0.9170745996118764
 40
1.0
 40
1.0
 40
1.0
 40
1.0
 10
422.3001825976584
 20
379.2201832121538
 30
0.0
 10
422.304901860007
 20
379.1259953268129
 30
0.0
 10
422.3138277063014
 20
378.9396291389288
 30
0.0
 10
422.3961418983928
 20
378.6185037895997
 30
0.0
 10
422.5395045211974
 20
378.297614968555
 30
0.0
 10
422.8171580316579
 20
377.8779860477436
 30
0.0
 10
423.1074322104208
 20
377.5685437963903
 30
0.0
 10
423.7577098662546
 20
377.009978462073
 30
0.0
 10
424.8356679586894
 20
376.332596909415
 30
0.0
 10
426.9843568614914
 20
375.4917562779873
 30
0.0
 10
429.2692303760705
 20
374.9147089526093
 30
0.0
 10
431.4350795223123
 20
374.5460456041108
 30
0.0
 10
433.3249170621652
 20
374.3259867544741
 30
0.0
 10
435.2926807698675
 20
374.1856535538918
 30
0.0
 10
436.6311537733639
 20
374.1681596166346
 30
0.0
 10
437.3003908250326
 20
374.1594123308589
 30
0.0
  0
LINE
  5
EE
330
EA
100
AcDbEntity
  8
$DDT_AUDIT_GENERATED_(67)
  6
Continuous
 62
     7
100
AcDbLine
 10
422.3003908252
 20
379.43655337
 30
0.0
 11
422.3003908252
 21
381.2993230645
 31
0.0
  0
ARC
  5
EF
330
EA
100
AcDbEntity
  8
$DDT_AUDIT_GENERATED_(67)
  6
Continuous
 62
     7
100
AcDbCircle
 10
422.5503852381
 20
379.43655329
 30
0.0
 40
0.2499999999931601
100
AcDbArc
 50
179.9996614009
 51
261.8093943049
  0
SPLINE
  5
F0
330
EA
100
AcDbEntity
  8
$DDT_AUDIT_GENERATED_(67)
  6
Continuous
 62
     7
100
AcDbSpline
210
0.0
220
0.0
230
1.0
 70
     8
 71
     3
 72
    10
 73
     6
 74
     0
 42
0.0000000262373779
 43
0.0000000001
 40
0.0
 40
0.0
 40
0.0
 40
0.0
 40
0.0630698128535906
 40
0.1255993474531584
 40
0.1677482874895746
 40
0.1677482874895746
 40
0.1677482874895746
 40
0.1677482874895746
 10
452.3005990527533
 20
379.2201831656132
 30
0.0
 10
452.2994407175878
 20
379.2122997766623
 30
0.0
 10
452.2975486412889
 20
379.1966004088636
 30
0.0
 10
452.285417431904
 20
379.1787481616078
 30
0.0
 10
452.2755521175936
 20
379.1698989978837
 30
0.0
 10
452.2712850259696
 20
379.1667264967458
 30
0.0
  0
SPLINE
  5
F1
330
EA
100
AcDbEntity
  8
$DDT_AUDIT_GENERATED_(67)
  6
Continuous
 62
     7
100
AcDbSpline
210
0.0
220
0.0
230
1.0
 70
     8
 71
     3
 72
    23
 73
    19
 74
     0
 42
0.0000000005963677
 43
0.0000000001
 40
0.0
 40
0.0
 40
0.0
 40
0.0
 40
0.0120399307216444
 40
0.0346232192665052
 40
0.06256507865293
 40
0.1251051010533288
 40
0.1254211625165962
 40
0.2496639963202628
 40
0.40225373968046
 40
0.4998781040580716
 40
0.6094735767796325
 40
0.7498261378279826
 40
0.7653146013048509
 40
0.8401371198721803
 40
0.9331998254152304
 40
0.9374436105565895
 40
0.9687204616615881
 40
1.0
 40
1.0
 40
1.0
 40
1.0
 10
437.3003908250326
 20
374.1594123308589
 30
0.0
 10
437.3974651345706
 20
374.1598819929239
 30
0.0
 10
437.6766216493072
 20
374.1612317084094
 30
0.0
 10
438.1808345178649
 20
374.1663698030271
 30
0.0
 10
439.0895340047488
 20
374.1914061228353
 30
0.0
 10
439.8141254216246
 20
374.2284407411149
 30
0.0
 10
441.2886370585864
 20
374.3302789231502
 30
0.0
 10
443.4284712465105
 20
374.5547798807415
 30
0.0
 10
446.0328944272149
 20
375.0641923296499
 30
0.0
 10
448.1638631523792
 20
375.6982326505878
 30
0.0
 10
449.8888021382431
 20
376.4093016028942
 30
0.0
 10
450.8644412704533
 20
377.0251755482234
 30
0.0
 10
451.5082406942406
 20
377.5829484496985
 30
0.0
 10
451.9276014347059
 20
378.037026287333
 30
0.0
 10
452.1554217292341
 20
378.4767852950366
 30
0.0
 10
452.252312123475
 20
378.8067122205182
 30
0.0
 10
452.2905646616055
 20
378.9784231014859
 30
0.0
 10
452.2971153435465
 20
379.1395941690014
 30
0.0
 10
452.3005990527533
 20
379.2201831656132
 30
0.0
  0
LINE
  5
F2
330
EA
100
AcDbEntity
  8
$DDT_AUDIT_GENERATED_(67)
  6
Continuous
 62
     7
100
AcDbLine
 10
422.2999932309
 20
347.3771184405
 30
0.0
 11
422.3133287693
 21
347.3771184403
 31
0.0
  0
LINE
  5
F3
330
EA
100
AcDbEntity
  8
$DDT_AUDIT_GENERATED_(67)
  6
Continuous
 62
     7
100
AcDbLine
 10
422.3002654788
 20
379.220183212
 30
0.0
 11
422.3002654813
 21
347.3771184405
 31
0.0
  0
ARC
  5
F4
330
EA
100
AcDbEntity
  8
$DDT_AUDIT_GENERATED_(67)
  6
Continuous
 62
     7
100
AcDbCircle
 10
422.8023765501
 20
381.2949097858
 30
0.0
 40
0.5044679244905232
100
AcDbArc
 50
111.2268251803
 51
136.0872781115
  0
ARC
  5
F5
330
EA
100
AcDbEntity
  8
$DDT_AUDIT_GENERATED_(67)
  6
Continuous
 62
     7
100
AcDbCircle
 10
437.3003908252
 20
481.3266075397
 30
0.0
 40
103.2021529783843
100
AcDbArc
 50
261.7629727324
 51
278.2370272696
  0
SPLINE
  5
F6
330
EA
100
AcDbEntity
  8
$DDT_AUDIT_GENERATED_(67)
  6
Continuous
 62
     7
100
AcDbSpline
210
0.0
220
0.0
230
1.0
 70
     8
 71
     3
 72
     8
 73
     4
 74
     0
 42
0.0000000557241415
 43
0.0000000001
 40
0.0
 40
0.0
 40
0.0
 40
0.0
 40
0.5245239284228085
 40
0.5245239284228085
 40
0.5245239284228085
 40
0.5245239284228085
 10
452.2393351982637
 20
379.2728567780665
 30
0.0
 10
452.2189050071821
 20
379.2492691794467
 30
0.0
 10
452.1939245166025
 20
379.2297153192749
 30
0.0
 10
452.1662900380427
 20
379.2152317864485
 30
0.0
  0
LINE
  5
F7
330
EA
100
AcDbEntity
  8
$DDT_AUDIT_GENERATED_(67)
  6
Continuous
 62
     7
100
AcDbLine
 10
452.3003908252
 20
379.2201832359
 30
0.0
 11
452.3003908252
 21
379.4365524444
 31
0.0
  0
LINE
  5
F8
330
EA
100
AcDbEntity
  8
$DDT_AUDIT_GENERATED_(67)
  6
Continuous
 62
     7
100
AcDbLine
 10
452.3008076509
 20
347.3771184249
 30
0.0
 11
452.3008076534
 21
379.2201831655
 31
0.0
  0
LINE
  5
F9
330
EA
100
AcDbEntity
  8
$DDT_AUDIT_GENERATED_(67)
  6
Continuous
 62
     7
100
AcDbLine
 10
452.2876953406
 20
347.3771184247
 30
0.0
 11
452.3007884037
 21
347.3771184249
 31
0.0
  0
LINE
  5
FA
330
EA
100
AcDbEntity
  8
$DDT_AUDIT_GENERATED_(67)
  6
Continuous
 62
     7
100
AcDbLine
 10
422.5499931726
 20
347.1271184464
 30
0.0
 11
437.3004506917
 21
347.1271184464
 31
0.0
  0
ARC
  5
FB
330
EA
100
AcDbEntity
  8
$DDT_AUDIT_GENERATED_(67)
  6
Continuous
 62
     7
100
AcDbCircle
 10
422.5499936274
 20
347.3771188428
 30
0.0
 40
0.2500003964328755
100
AcDbArc
 50
224.7766291242
 51
269.9998957736
  0
SPLINE
  5
FC
330
EA
100
AcDbEntity
  8
$DDT_AUDIT_GENERATED_(67)
  6
Continuous
 62
     7
100
AcDbSpline
210
0.0
220
0.0
230
1.0
 70
     8
 71
     3
 72
     8
 73
     4
 74
     0
 42
0.0000000197202911
 43
0.0000000001
 40
0.0
 40
0.0
 40
0.0
 40
0.0
 40
0.012272193523123
 40
0.012272193523123
 40
0.012272193523123
 40
0.012272193523123
 10
422.7775313074072
 20
381.7987995200431
 30
0.0
 10
422.7795004736253
 20
381.7987978372552
 30
0.0
 10
422.7814783275107
 20
381.7987965583835
 30
0.0
 10
422.7837544360596
 20
381.7987955490153
 30
0.0
  0
ARC
  5
FD
330
EA
100
AcDbEntity
  8
$DDT_AUDIT_GENERATED_(67)
  6
Continuous
 62
     7
100
AcDbCircle
 10
422.8051032562
 20
381.2973825682
 30
0.0
 40
0.5047305695575888
100
AcDbArc
 50
154.3664076077
 51
179.7797190651
  0
LINE
  5
FE
330
EA
100
AcDbEntity
  8
$DDT_AUDIT_GENERATED_(67)
  6
Continuous
 62
     7
100
AcDbLine
 10
422.4389281947
 20
381.6448192275
 30
0.0
 11
422.4389892827
 21
381.6447660905
 31
0.0
  0
SPLINE
  5
FF
330
EA
100
AcDbEntity
  8
$DDT_AUDIT_GENERATED_(67)
  6
Continuous
 62
     7
100
AcDbSpline
210
0.0
220
0.0
230
1.0
 70
     8
 71
     3
 72
    10
 73
     6
 74
     0
 42
0.0000000268479029
 43
0.0000000001
 40
0.3953211754285366
 40
0.3953211754285366
 40
0.3953211754285366
 40
0.3953211754285366
 40
0.5
 40
0.5
 40
1.0
 40
1.0
 40
1.0
 40
1.0
 10
422.3498553788664
 20
381.5160546783854
 30
0.0
 10
422.3439177936779
 20
381.5037583648883
 30
0.0
 10
422.3385226445473
 20
381.4912985405486
 30
0.0
 10
422.3106372934575
 20
381.4187641283588
 30
0.0
 10
422.3003953259989
 20
381.3569048242811
 30
0.0
 10
422.3004213608269
 20
381.2993249115912
 30
0.0
  0
SPLINE
  5
100
330
EA
100
AcDbEntity
  8
$DDT_AUDIT_GENERATED_(67)
  6
Continuous
 62
     7
100
AcDbSpline
210
0.0
220
0.0
230
1.0
 70
     8
 71
     3
 72
    10
 73
     6
 74
     0
 42
0.0000000251968203
 43
0.0000000001
 40
0.4444991588423331
 40
0.4444991588423331
 40
0.4444991588423331
 40
0.4444991588423331
 40
0.5
 40
0.5
 40
1.0
 40
1.0
 40
1.0
 40
1.0
 10
422.619779835404
 20
381.7655525334141
 30
0.0
 10
422.61319252484
 20
381.7630054084606
 30
0.0
 10
422.6066269268879
 20
381.7603047165672
 30
0.0
 10
422.5412158574895
 20
381.7317054063586
 30
0.0
 10
422.4851345880242
 20
381.6931224696206
 30
0.0
 10
422.4389690638174
 20
381.6447854183982
 30
0.0
  0
LINE
  5
101
330
EA
100
AcDbEntity
  8
$DDT_AUDIT_GENERATED_(67)
  6
Continuous
 62
     7
100
AcDbLine
 10
452.239347811
 20
379.2728458435
 30
0.0
 11
452.2393302677
 21
379.2728658039
 31
0.0
  0
SPLINE
  5
102
330
EA
100
AcDbEntity
  8
$DDT_AUDIT_GENERATED_(67)
  6
Continuous
 62
     7
100
AcDbSpline
210
0.0
220
0.0
230
1.0
 70
     8
 71
     3
 72
     8
 73
     4
 74
     0
 42
0.0000000541551329
 43
0.0000000001
 40
0.0
 40
0.0
 40
0.0
 40
0.0
 40
0.5132270227737544
 40
0.5132270227737544
 40
0.5132270227737544
 40
0.5132270227737544
 10
452.239338604677
 20
379.2728585804972
 30
0.0
 10
452.2602310290238
 20
379.2969656858629
 30
0.0
 10
452.2757611626159
 20
379.3250726455321
 30
0.0
 10
452.2859286224545
 20
379.3541006308832
 30
0.0
  0
SPLINE
  5
103
330
EA
100
AcDbEntity
  8
$DDT_AUDIT_GENERATED_(67)
  6
Continuous
 62
     7
100
AcDbSpline
210
0.0
220
0.0
230
1.0
 70
     8
 71
     3
 72
     8
 73
     4
 74
     0
 42
0.0000000575863211
 43
0.0000000001
 40
0.0
 40
0.0
 40
0.0
 40
0.0
 40
0.4901342877818166
 40
0.4901342877818166
 40
0.4901342877818166
 40
0.4901342877818166
 10
452.0860130776884
 20
379.1891033897084
 30
0.0
 10
452.1124852824028
 20
379.1929136626408
 30
0.0
 10
452.1400655963654
 20
379.201822491017
 30
0.0
 10
452.1660997004722
 20
379.2154487182863
 30
0.0
  0
SPLINE
  5
104
330
EA
100
AcDbEntity
  8
$DDT_AUDIT_GENERATED_(67)
  6
Continuous
 62
     7
100
AcDbSpline
210
0.0
220
0.0
230
1.0
 70
     8
 71
     3
 72
     8
 73
     4
 74
     0
 42
0.0000000557845874
 43
0.0000000001
 40
0.0
 40
0.0
 40
0.0
 40
0.0
 40
0.4712326429775027
 40
0.4712326429775027
 40
0.4712326429775027
 40
0.4712326429775027
 10
452.3003963642477
 20
379.4365529945413
 30
0.0
 10
452.3003937540747
 20
379.4085173858529
 30
0.0
 10
452.2954862949489
 20
379.3805377927956
 30
0.0
 10
452.2862201369702
 20
379.3540823029006
 30
0.0
  0
ARC
  5
105
330
EA
100
AcDbEntity
  8
$DDT_AUDIT_GENERATED_(67)
  6
Continuous
 62
     7
100
AcDbCircle
 10
452.0507880427
 20
347.3771188074
 30
0.0
 40
0.250000360991861
100
AcDbArc
 50
270.0000669541
 51
359.999912337
  0
LINE
  5
106
330
EA
100
AcDbEntity
  8
$DDT_AUDIT_GENERATED_(67)
  6
Continuous
 62
     7
100
AcDbLine
 10
437.3004506917
 20
347.1271184464
 30
0.0
 11
452.0507883349
 21
347.1271184464
 31
0.0
  0
SPLINE
  5
107
330
EA
100
AcDbEntity
  8
$DDT_AUDIT_GENERATED_(67)
  6
Continuous
 62
     7
100
AcDbSpline
210
0.0
220
0.0
230
1.0
 70
     8
 71
     3
 72
     8
 73
     4
 74
     0
 42
0.0000000116208072
 43
0.0000000001
 40
0.9896038947565342
 40
0.9896038947565342
 40
0.9896038947565342
 40
0.9896038947565342
 40
1.0
 40
1.0
 40
1.0
 40
1.0
 10
451.814304230628
 20
381.7987967986826
 30
0.0
 10
451.8173545450177
 20
381.7987976262675
 30
0.0
 10
451.8203034529077
 20
381.7987985262491
 30
0.0
 10
451.8232503430148
 20
381.7987995200437
 30
0.0
  0
ARC
  5
108
330
EA
100
AcDbEntity
  8
$DDT_AUDIT_GENERATED_(67)
  6
Continuous
 62
     7
100
AcDbCircle
 10
451.7959031487
 20
381.2975244554
 30
0.0
 40
0.5044635292723537
100
AcDbArc
 50
23.7847949209
 51
43.5016974666
  0
LINE
  5
109
330
EA
100
AcDbEntity
  8
$DDT_AUDIT_GENERATED_(67)
  6
Continuous
 62
     7
100
AcDbLine
 10
451.8229607396
 20
381.7988123307
 30
0.0
 11
451.8229567196
 21
381.7987503841
 31
0.0
  0
ARC
  5
10A
330
EA
100
AcDbEntity
  8
$DDT_AUDIT_GENERATED_(67)
  6
Continuous
 62
     7
100
AcDbCircle
 10
437.3003908252
 20
60.7581823056
 30
0.0
 40
321.368933209409
100
AcDbArc
 50
87.4099384406
 51
92.5900615594
  0
SPLINE
  5
10B
330
EA
100
AcDbEntity
  8
$DDT_AUDIT_GENERATED_(67)
  6
Continuous
 62
     7
100
AcDbSpline
210
0.0
220
0.0
230
1.0
 70
     8
 71
     3
 72
    10
 73
     6
 74
     0
 42
0.0000000181811383
 43
0.0000000001
 40
0.9687068103872338
 40
0.9687068103872338
 40
0.9687068103872338
 40
0.9687068103872338
 40
0.9842341838602721
 40
0.9962719520402539
 40
1.0
 40
1.0
 40
1.0
 40
1.0
 10
422.7950345930423
 20
381.7987997663785
 30
0.0
 10
422.7893249767839
 20
381.7988029580555
 30
0.0
 10
422.7817156945717
 20
381.7988068804934
 30
0.0
 10
422.7781828225794
 20
381.7988166188168
 30
0.0
 10
422.7778920912728
 20
381.7988133258389
 30
0.0
 10
422.7778227338177
 20
381.798812519604
 30
0.0
  0
LINE
  5
10C
330
EA
100
AcDbEntity
  8
$DDT_AUDIT_GENERATED_(67)
  6
Continuous
 62
     7
100
AcDbLine
 10
452.3003982272
 20
381.2993242362
 30
0.0
 11
452.2290956589
 21
381.2993242251
 31
0.0
  0
LINE
  5
10D
330
EA
100
AcDbEntity
  8
$DDT_AUDIT_GENERATED_(67)
  6
Continuous
 62
     7
100
AcDbLine
 10
452.3003964123
 20
379.436554604
 30
0.0
 11
452.3003866269
 21
381.2993240455
 31
0.0
  0
SPLINE
  5
10E
330
EA
100
AcDbEntity
  8
$DDT_AUDIT_GENERATED_(67)
  6
Continuous
 62
     7
100
AcDbSpline
210
0.0
220
0.0
230
1.0
 70
     8
 71
     3
 72
     8
 73
     4
 74
     0
 42
0.0000000261069496
 43
0.0000000001
 40
0.0
 40
0.0
 40
0.0
 40
0.0
 40
0.4418504130363305
 40
0.4418504130363305
 40
0.4418504130363305
 40
0.4418504130363305
 10
451.8229612117326
 20
381.7988126450034
 30
0.0
 10
451.8790800658447
 20
381.7962766375616
 30
0.0
 10
451.9346155100353
 20
381.7838570846154
 30
0.0
 10
451.9867031985955
 20
381.762853541795
 30
0.0
  0
LINE
  5
10F
330
EA
100
AcDbEntity
  8
$DDT_AUDIT_GENERATED_(67)
  6
Continuous
 62
     7
100
AcDbLine
 10
452.1618522471
 20
381.6448233837
 30
0.0
 11
452.1617988901
 21
381.644767021
 31
0.0
  0
SPLINE
  5
110
330
EA
100
AcDbEntity
  8
$DDT_AUDIT_GENERATED_(67)
  6
Continuous
 62
     7
100
AcDbSpline
210
0.0
220
0.0
230
1.0
 70
     8
 71
     3
 72
     8
 73
     4
 74
     0
 42
0.0000000272255868
 43
0.0000000001
 40
0.5385389964961127
 40
0.5385389964961127
 40
0.5385389964961127
 40
0.5385389964961127
 40
1.0
 40
1.0
 40
1.0
 40
1.0
 10
451.9870350048557
 20
381.76317410512
 30
0.0
 10
451.9323819067217
 20
381.7851350104095
 30
0.0
 10
451.8760465957285
 20
381.7964134527224
 30
0.0
 10
451.8229589166135
 20
381.7988125196035
 30
0.0
  0
ARC
  5
111
330
EA
100
AcDbEntity
  8
$DDT_AUDIT_GENERATED_(67)
  6
Continuous
 62
     7
100
AcDbCircle
 10
451.8004339417
 20
381.2992987446
 30
0.0
 40
0.499964286093455
100
AcDbArc
 50
23.7871547325
 51
43.7120772207
  0
SPLINE
  5
112
330
EA
100
AcDbEntity
  8
$DDT_AUDIT_GENERATED_(67)
  6
Continuous
 62
     7
100
AcDbSpline
210
0.0
220
0.0
230
1.0
 70
     8
 71
     3
 72
    10
 73
     6
 74
     0
 42
0.0000000090370561
 43
0.0000000001
 40
0.9376090855223439
 40
0.9376090855223439
 40
0.9376090855223439
 40
0.9376090855223439
 40
0.9587145934399328
 40
0.9764304536752036
 40
1.0
 40
1.0
 40
1.0
 40
1.0
 10
451.7539199897493
 20
381.7987483652786
 30
0.0
 10
451.7694863217449
 20
381.7987552870309
 30
0.0
 10
451.7932972787865
 20
381.7987695212392
 30
0.0
 10
451.8178867880883
 20
381.7987937209382
 30
0.0
 10
451.8211151344499
 20
381.7988038442567
 30
0.0
 10
451.8229589166135
 20
381.7988125196035
 30
0.0
  0
ARC
  5
113
330
EA
100
AcDbEntity
  8
$DDT_AUDIT_GENERATED_(67)
  6
Continuous
 62
     7
100
AcDbCircle
 10
422.4832090024
 20
347.3426678156
 30
0.0
 40
0.1721140818005197
100
AcDbArc
 50
168.4536498087
 51
232.5743220641
  0
LINE
  5
114
330
EA
100
AcDbEntity
  8
$DDT_AUDIT_GENERATED_(67)
  6
Continuous
 62
     7
100
AcDbLine
 10
422.619859374
 20
381.7655454124
 30
0.0
 11
422.6196815094
 21
381.765476505
 31
0.0
  0
LINE
  5
115
330
EA
100
AcDbEntity
  8
$DDT_AUDIT_GENERATED_(67)
  6
Continuous
 62
     7
100
AcDbLine
 10
422.3498803553
 20
381.5161040883
 30
0.0
 11
422.3497945547
 21
381.5159256929
 31
0.0
  0
LINE
  5
116
330
EA
100
AcDbEntity
  8
$DDT_AUDIT_GENERATED_(67)
  6
Continuous
 62
     7
100
AcDbLine
 10
452.1661919091
 20
379.2150069488
 30
0.0
 11
452.166255661
 21
379.2150402794
 31
0.0
  0
LINE
  5
117
330
EA
100
AcDbEntity
  8
$DDT_AUDIT_GENERATED_(67)
  6
Continuous
 62
     7
100
AcDbLine
 10
452.2863835042
 20
379.3540864934
 30
0.0
 11
452.2864095597
 21
379.3541610811
 31
0.0
  0
ARC
  5
118
330
EA
100
AcDbEntity
  8
$DDT_AUDIT_GENERATED_(67)
  6
Continuous
 62
     7
100
AcDbCircle
 10
452.1174767569
 20
347.3429306118
 30
0.0
 40
0.1723457574227259
100
AcDbArc
 50
307.4347850153
 51
11.4414647987
  0
ARC
  5
119
330
EA
100
AcDbEntity
  8
$DDT_AUDIT_GENERATED_(67)
  6
Continuous
 62
     7
100
AcDbCircle
 10
422.8178673641
 20
381.2995842028
 30
0.0
 40
0.4997392350574978
100
AcDbArc
 50
92.6178184698
 51
180.0312136577
  0
LINE
  5
11A
330
EA
100
AcDbEntity
  8
$DDT_AUDIT_GENERATED_(67)
  6
Continuous
 62
     7
100
AcDbLine
 10
451.9869439274
 20
381.7631683639
 30
0.0
 11
451.9867695824
 21
381.7632384409
 31
0.0
  0
LINE
  5
11B
330
EA
100
AcDbEntity
  8
$DDT_AUDIT_GENERATED_(67)
  6
Continuous
 62
     7
100
AcDbLine
 10
452.257857931
 20
381.5010118841
 30
0.0
 11
452.2577840765
 21
381.5011793015
 31
0.0
  0
ARC
  5
11C
330
EA
100
AcDbEntity
  8
$DDT_AUDIT_GENERATED_(67)
  6
Continuous
 62
     7
100
AcDbCircle
 10
451.7302217815
 20
381.3003952479
 30
0.0
 40
0.4989478699212297
100
AcDbArc
 50
359.8728859564
 51
87.2729942165
  0
LINE
  5
11D
330
EA
100
AcDbEntity
  8
$DDT_AUDIT_GENERATED_(A8)
  6
Continuous
 62
     7
100
AcDbLine
 10
409.8022374105
 20
340.8271184464
 30
0.0
 11
464.8073548453
 21
340.8271184464
 31
0.0
  0
LINE
  5
11E
330
EA
100
AcDbEntity
  8
$DDT_AUDIT_GENERATED_(A8)
  6
Continuous
 62
     7
100
AcDbLine
 10
410.8022374254
 20
346.8271184464
 30
0.0
 11
463.8071477373
 21
346.8271184464
 31
0.0
  0
LINE
  5
11F
330
EA
100
AcDbEntity
  8
$DDT_AUDIT_GENERATED_(A8)
  6
Continuous
 62
     7
100
AcDbLine
 10
409.8022374105
 20
345.8271184315
 30
0.0
 11
409.8022374105
 21
340.8271184464
 31
0.0
  0
LINE
  5
120
330
EA
100
AcDbEntity
  8
$DDT_AUDIT_GENERATED_(A8)
  6
Continuous
 62
     7
100
AcDbLine
 10
464.8073549727
 20
340.8271184464
 30
0.0
 11
464.8073549727
 21
345.8271184315
 31
0.0
  0
ARC
  5
121
330
EA
100
AcDbEntity
  8
$DDT_AUDIT_GENERATED_(A8)
  6
Continuous
 62
     7
100
AcDbCircle
 10
463.8074760037
 20
345.8274531992
 30
0.0
 40
0.9996653011589778
100
AcDbArc
 50
359.9808128048
 51
90.0188145777
  0
SPLINE
  5
122
330
EA
100
AcDbEntity
  8
$DDT_AUDIT_GENERATED_(A8)
  6
Continuous
 62
     7
100
AcDbSpline
210
0.0
220
0.0
230
1.0
 70
     8
 71
     3
 72
    13
 73
     9
 74
     0
 42
0.0000000063014676
 43
0.0000000001
 40
0.0
 40
0.0
 40
0.0
 40
0.0
 40
0.1294353618362334
 40
0.2550301133060643
 40
0.4999999999999991
 40
0.7449698866939325
 40
0.8705646381637665
 40
1.0
 40
1.0
 40
1.0
 40
1.0
 10
410.8022374254027
 20
346.8271184464142
 30
0.0
 10
410.7280580464694
 20
346.823437436883
 30
0.0
 10
410.6041465800919
 20
346.8153641084897
 30
0.0
 10
410.3492010684533
 20
346.7352930098984
 30
0.0
 10
410.0776113517986
 20
346.5517445051173
 30
0.0
 10
409.8940628470176
 20
346.2801547884627
 30
0.0
 10
409.8139917484262
 20
346.025209276824
 30
0.0
 10
409.8059184200329
 20
345.9012978104466
 30
0.0
 10
409.8022374105017
 20
345.8271184315132
 30
0.0
  0
LINE
  5
123
330
EA
100
AcDbEntity
  8
$DDT_AUDIT_GENERATED_(B5)
  6
Continuous
 62
     7
100
AcDbLine
 10
422.9275983075
 20
347.1271184464
 30
0.0
 11
422.9275983075
 21
346.8271184464
 31
0.0
  0
LINE
  5
124
330
EA
100
AcDbEntity
  8
$DDT_AUDIT_GENERATED_(B5)
  6
Continuous
 62
     7
100
AcDbLine
 10
451.6775983075
 20
346.8271184464
 30
0.0
 11
451.6775983075
 21
347.1271184464
 31
0.0
  0
LINE
  5
125
330
EA
100
AcDbEntity
  8
02636038_GEHÄUSE
  6
Continuous
 62
     7
100
AcDbLine
 10
516.2503920646
 20
422.0295060547
 30
0.0
 11
536.540623789
 21
429.1398152301
 31
0.0
  0
LINE
  5
126
330
EA
100
AcDbEntity
  8
02636038_GEHÄUSE
  6
Continuous
 62
     7
100
AcDbLine
 10
515.6263244435
 20
422.1472894903
 30
0.0
 11
516.2503920646
 21
422.0295060547
 31
0.0
  0
LINE
  5
127
330
EA
100
AcDbEntity
  8
02636038_GEHÄUSE
  6
Continuous
 62
     7
100
AcDbLine
 10
536.540623789
 20
429.1398152301
 30
0.0
 11
536.9546610469
 21
429.6213819259
 31
0.0
  0
ARC
  5
128
330
EA
100
AcDbEntity
  8
02636038_GEHÄUSE
  6
Continuous
 62
     7
100
AcDbCircle
 10
515.8117852569
 20
423.1299411512
 30
0.0
 40
1.000000000000013
100
AcDbArc
 50
199.312
 51
259.312
  0
ARC
  5
129
330
EA
100
AcDbEntity
  8
02636038_GEHÄUSE
  6
Continuous
 62
     7
100
AcDbCircle
 10
536.1963901521
 20
430.2733215321
 30
0.0
 40
0.9999999999999981
100
AcDbArc
 50
319.312
 51
19.312
  0
LINE
  5
12A
330
EA
100
AcDbEntity
  8
02636038_GEHÄUSE
  6
Continuous
 62
     7
100
AcDbLine
 10
513.0282151821
 20
428.0494574446
 30
0.0
 11
514.8680535488
 21
422.7992290965
 31
0.0
  0
LINE
  5
12B
330
EA
100
AcDbEntity
  8
02636038_GEHÄUSE
  6
Continuous
 62
     7
100
AcDbLine
 10
537.1401218602
 20
430.6040335868
 30
0.0
 11
536.1985593227
 21
433.2909100078
 31
0.0
  0
LINE
  5
12D
330
EA
100
AcDbEntity
  8
$DDT_AUDIT_GENERATED_(12C)
  6
Continuous
 62
     7
100
AcDbLine
 10
518.0342073757
 20
422.2307594671
 30
0.0
 11
535.0213781217
 21
428.1835764512
 31
0.0
  0
LINE
  5
12E
330
EA
100
AcDbEntity
  8
$DDT_AUDIT_GENERATED_(12C)
  6
Continuous
 62
     7
100
AcDbLine
 10
517.9019225538
 20
422.6082521504
 30
0.0
 11
518.0342073757
 21
422.2307594671
 31
0.0
  0
LINE
  5
12F
330
EA
100
AcDbEntity
  8
$DDT_AUDIT_GENERATED_(12C)
  6
Continuous
 62
     7
100
AcDbLine
 10
535.0213781217
 20
428.1835764512
 30
0.0
 11
534.8890932998
 21
428.5610691345
 31
0.0
  0
LINE
  5
130
330
EA
100
AcDbEntity
  8
$DDT_AUDIT_GENERATED_(CC)
  6
Continuous
 62
     7
100
AcDbLine
 10
456.3932589566
 20
357.8271260745
 30
0.0
 11
456.3932589566
 21
346.8271184464
 31
0.0
  0
LINE
  5
131
330
EA
100
AcDbEntity
  8
$DDT_AUDIT_GENERATED_(CC)
  6
Continuous
 62
     7
100
AcDbLine
 10
456.3932589566
 20
407.9805897738
 30
0.0
 11
456.3932589566
 21
357.8271260745
 31
0.0
  0
SPLINE
  5
132
330
EA
100
AcDbEntity
  8
$DDT_AUDIT_GENERATED_(CC)
  6
Continuous
 62
     7
100
AcDbSpline
210
0.0
220
0.0
230
1.0
 70
     8
 71
     5
 72
    13
 73
     7
 74
     0
 42
0.0000000002419741
 43
0.0000000001
 40
0.0
 40
0.0
 40
0.0
 40
0.0
 40
0.0
 40
0.0
 40
0.5
 40
1.0
 40
1.0
 40
1.0
 40
1.0
 40
1.0
 40
1.0
 10
482.8372949938373
 20
427.8277808501268
 30
0.0
 10
477.5542810603977
 20
427.8277808501262
 30
0.0
 10
468.0471439648127
 20
427.8277701264732
 30
0.0
 10
460.1081257807427
 20
425.0396344971662
 30
0.0
 10
456.3932864940747
 20
419.0811268376662
 30
0.0
 10
456.3932589565857
 20
411.9456824898502
 30
0.0
 10
456.3932589565857
 20
407.9805897737742
 30
0.0
  0
LINE
  5
133
330
EA
100
AcDbEntity
  8
$DDT_AUDIT_GENERATED_(CC)
  6
Continuous
 62
     7
100
AcDbLine
 10
437.3025983075
 20
437.8318238641
 30
0.0
 11
466.5121818711
 21
437.8318238641
 31
0.0
  0
ARC
  5
134
330
EA
100
AcDbEntity
  8
$DDT_AUDIT_GENERATED_(CC)
  6
Continuous
 62
     7
100
AcDbCircle
 10
418.711639181
 20
447.3274245532
 30
0.0
 40
0.4997016117744707
100
AcDbArc
 50
89.9657757358
 51
180.0342242675
  0
LINE
  5
135
330
EA
100
AcDbEntity
  8
$DDT_AUDIT_GENERATED_(CC)
  6
Continuous
 62
     7
100
AcDbLine
 10
437.3025986413
 20
447.8270380843
 30
0.0
 11
418.7119376658
 21
447.8271260758
 31
0.0
  0
LINE
  5
136
330
EA
100
AcDbEntity
  8
$DDT_AUDIT_GENERATED_(CC)
  6
Continuous
 62
     7
100
AcDbLine
 10
466.5121818711
 20
437.8318238641
 30
0.0
 11
521.5892685704
 21
437.8318238641
 31
0.0
  0
SPLINE
  5
137
330
EA
100
AcDbEntity
  8
$DDT_AUDIT_GENERATED_(CC)
  6
Continuous
 62
     7
100
AcDbSpline
210
0.0
220
0.0
230
1.0
 70
     8
 71
     2
 72
    26
 73
    23
 74
     0
 42
0.0000000002689523
 43
0.0000000001
 40
0.0000016530513611
 40
0.0000016530513611
 40
0.0000016530513611
 40
0.015625
 40
0.015625
 40
0.03125
 40
0.03125
 40
0.0625
 40
0.0625
 40
0.125
 40
0.125
 40
0.15625
 40
0.15625
 40
0.1875
 40
0.1875
 40
0.25
 40
0.25
 40
0.3125
 40
0.3125
 40
0.375
 40
0.375
 40
0.4375
 40
0.4375
 40
0.5
 40
0.5
 40
0.5
 10
521.5892691911861
 20
447.8270381036879
 30
0.0
 10
522.146002835897
 20
447.8271260758092
 30
0.0
 10
522.4837483504358
 20
447.8271260758092
 30
0.0
 10
522.9632028462554
 20
447.8271260758092
 30
0.0
 10
523.3907428600795
 20
447.8271260758092
 30
0.0
 10
524.3259527110125
 20
447.8271260758092
 30
0.0
 10
525.2212628532019
 20
447.8271260758092
 30
0.0
 10
527.0556017678524
 20
447.8271260758092
 30
0.0
 10
528.8184463056709
 20
447.8271260758091
 30
0.0
 10
529.6894219057502
 20
447.8271260758091
 30
0.0
 10
530.5279463666225
 20
447.8271260758091
 30
0.0
 10
531.3590167228969
 20
447.8271260758091
 30
0.0
 10
532.1441531430073
 20
447.8271260758091
 30
0.0
 10
533.6976074053463
 20
447.8271260758091
 30
0.0
 10
535.0075841069386
 20
447.827126075809
 30
0.0
 10
536.2884820252688
 20
447.827126075809
 30
0.0
 10
537.2789237811265
 20
447.827126075809
 30
0.0
 10
538.2432200671831
 20
447.827126075809
 30
0.0
 10
538.8993266440186
 20
447.8271260758089
 30
0.0
 10
539.538784538139
 20
447.8271260758089
 30
0.0
 10
539.8618215935874
 20
447.8271260758088
 30
0.0
 10
540.1798220074147
 20
447.8271260758088
 30
0.0
 10
540.1798681448882
 20
447.8271260758087
 30
0.0
  0
LINE
  5
138
330
EA
100
AcDbEntity
  8
$DDT_AUDIT_GENERATED_(CC)
  6
Continuous
 62
     7
100
AcDbLine
 10
437.3025986413
 20
447.8271260758
 30
0.0
 11
521.5891513767
 21
447.8271260758
 31
0.0
  0
ARC
  5
139
330
EA
100
AcDbEntity
  8
$DDT_AUDIT_GENERATED_(CC)
  6
Continuous
 62
     7
100
AcDbCircle
 10
533.2137532534
 20
-328.3997112585
 30
0.0
 40
766.2992483295069
100
AcDbArc
 50
89.4417492367
 51
90.7686197153
  0
ARC
  5
13A
330
EA
100
AcDbEntity
  8
$DDT_AUDIT_GENERATED_(CC)
  6
Continuous
 62
     7
100
AcDbCircle
 10
521.9528083613
 20
102.1274297859
 30
0.0
 40
335.704590919768
100
AcDbArc
 50
89.8325025843
 51
90.0620465145
  0
ARC
  5
13B
330
EA
100
AcDbEntity
  8
$DDT_AUDIT_GENERATED_(CC)
  6
Continuous
 62
     7
100
AcDbCircle
 10
525.5339138839
 20
406.3314639759
 30
0.0
 40
25.07243579449752
100
AcDbArc
 50
99.0519513643
 51
120.9775799161
  0
ARC
  5
13C
330
EA
100
AcDbEntity
  8
$DDT_AUDIT_GENERATED_(CC)
  6
Continuous
 62
     7
100
AcDbCircle
 10
502.9835464594
 20
603.9211663184
 30
0.0
 40
173.8281180350021
100
AcDbArc
 50
276.1444341051
 51
281.1651107079
  0
LINE
  5
13D
330
EA
100
AcDbEntity
  8
$DDT_AUDIT_GENERATED_(CC)
  6
Continuous
 62
     7
100
AcDbLine
 10
418.2119376584
 20
357.2190641677
 30
0.0
 11
418.2119376584
 21
346.8271184464
 31
0.0
  0
LINE
  5
13E
330
EA
100
AcDbEntity
  8
$DDT_AUDIT_GENERATED_(CC)
  6
Continuous
 62
     7
100
AcDbLine
 10
418.2119376584
 20
376.3118652349
 30
0.0
 11
418.2119376584
 21
447.3271260684
 31
0.0
  0
ARC
  5
13F
330
EA
100
AcDbEntity
  8
$DDT_AUDIT_GENERATED_(CC)
  6
Continuous
 62
     7
100
AcDbCircle
 10
227.1463305902
 20
366.7654647013
 30
0.0
 40
191.3039465548497
100
AcDbArc
 50
357.139652718
 51
2.860347282
  0
LINE
  5
140
330
EA
100
AcDbEntity
  8
$DDT_AUDIT_GENERATED_(CC)
  6
Continuous
 62
     7
100
AcDbLine
 10
482.8373037847
 20
427.8277870631
 30
0.0
 11
512.6651308573
 21
427.8277870631
 31
0.0
  0
ARC
  5
141
330
EA
100
AcDbEntity
  8
$DDT_AUDIT_GENERATED_(CC)
  6
Continuous
 62
     7
100
AcDbCircle
 10
418.6560049108
 20
447.4442219302
 30
0.0
 40
0.3705454861894391
100
AcDbArc
 50
111.9787065423
 51
198.4217619293
  0
LINE
  5
142
330
EA
100
AcDbEntity
  8
$DDT_AUDIT_GENERATED_(CC)
  6
Continuous
 62
     7
100
AcDbLine
 10
540.6799292195
 20
437.8318238641
 30
0.0
 11
540.6799292195
 21
447.3271260684
 31
0.0
  0
SPLINE
  5
143
330
EA
100
AcDbEntity
  8
$DDT_AUDIT_GENERATED_(CC)
  6
Continuous
 62
     7
100
AcDbSpline
210
0.0
220
0.0
230
1.0
 70
     8
 71
     3
 72
    10
 73
     6
 74
     0
 42
0.0000000016419795
 43
0.0000000001
 40
0.0
 40
0.0
 40
0.0
 40
0.0
 40
0.025414828318487
 40
0.5011080807555159
 40
1.0
 40
1.0
 40
1.0
 40
1.0
 10
536.6093600034743
 20
433.3652134653682
 30
0.0
 10
536.6540562766155
 20
433.399998788518
 30
0.0
 10
537.4127933537128
 20
433.9909143413018
 30
0.0
 10
538.8920202984955
 20
435.5659619511645
 30
0.0
 10
540.0081658864692
 20
436.9772733095456
 30
0.0
 10
540.6799292195356
 20
437.8631641353626
 30
0.0
  0
SPLINE
  5
144
330
EA
100
AcDbEntity
  8
$DDT_AUDIT_GENERATED_(CC)
  6
Continuous
 62
     7
100
AcDbSpline
210
0.0
220
0.0
230
1.0
 70
     8
 71
     3
 72
    13
 73
     9
 74
     0
 42
0.000000012602985
 43
0.0000000001
 40
0.0
 40
0.0
 40
0.0
 40
0.0
 40
0.1294358618735699
 40
0.2550310214669268
 40
0.5000012703154946
 40
0.7449707948559804
 40
0.8705651382019517
 40
1.0
 40
1.0
 40
1.0
 40
1.0
 10
540.6798642098056
 20
447.3271260683579
 30
0.0
 10
540.6780237213351
 20
447.364215755684
 30
0.0
 10
540.673987090933
 20
447.4261714608955
 30
0.0
 10
540.6339519021145
 20
447.5536441159451
 30
0.0
 10
540.5421785377957
 20
447.6894388921912
 30
0.0
 10
540.4063846681407
 20
447.7812133090084
 30
0.0
 10
540.2789128166822
 20
447.8212489030993
 30
0.0
 10
540.2169575440412
 20
447.8252855692612
 30
0.0
 10
540.1798681448882
 20
447.8271260758094
 30
0.0
  0
LINE
  5
146
330
EA
100
AcDbEntity
  8
$DDT_AUDIT_GENERATED_(145)
  6
Continuous
 62
     7
100
AcDbLine
 10
396.9416861474
 20
386.9956201385
 30
0.0
 11
396.9416861474
 21
382.9956201385
 31
0.0
  0
LINE
  5
147
330
EA
100
AcDbEntity
  8
$DDT_AUDIT_GENERATED_(145)
  6
Continuous
 62
     7
100
AcDbLine
 10
410.4089735074
 20
386.9956201385
 30
0.0
 11
396.9416861474
 21
386.9956201385
 31
0.0
  0
LINE
  5
148
330
EA
100
AcDbEntity
  8
$DDT_AUDIT_GENERATED_(145)
  6
Continuous
 62
     7
100
AcDbLine
 10
396.9416861474
 20
382.9956201385
 30
0.0
 11
410.4089735074
 21
382.9956201385
 31
0.0
  0
ARC
  5
149
330
EA
100
AcDbEntity
  8
$DDT_AUDIT_GENERATED_(145)
  6
Continuous
 62
     7
100
AcDbCircle
 10
410.4089735074
 20
381.9956201385
 30
0.0
 40
0.9999999999999454
100
AcDbArc
 50
18.0
 51
90.0
  0
ARC
  5
14A
330
EA
100
AcDbEntity
  8
$DDT_AUDIT_GENERATED_(145)
  6
Continuous
 62
     7
100
AcDbCircle
 10
410.4089735074
 20
381.9956201385
 30
0.0
 40
4.999999999999971
100
AcDbArc
 50
18.0
 51
90.0
  0
LINE
  5
14B
330
EA
100
AcDbEntity
  8
$DDT_AUDIT_GENERATED_(145)
  6
Continuous
 62
     7
100
AcDbLine
 10
418.3058555101
 20
373.8718562914
 30
0.0
 11
415.1642560889
 21
383.5407051104
 31
0.0
  0
LINE
  5
14C
330
EA
100
AcDbEntity
  8
$DDT_AUDIT_GENERATED_(145)
  6
Continuous
 62
     7
100
AcDbLine
 10
411.3600300237
 20
382.3046371329
 30
0.0
 11
418.3668129969
 21
360.7399765276
 31
0.0
  0
ENDBLK
  5
14E
330
EA
100
AcDbEntity
  8
0
100
AcDbBlockEnd
  0
BLOCK
  5
17D
330
14F
100
AcDbEntity
  8
0
100
AcDbBlockBegin
  2
SE2
 70
     0
 10
0.0
 20
0.0
 30
0.0
  3
SE2
  1

  0
ARC
  5
151
330
14F
100
AcDbEntity
  8
$DDT_AUDIT_GENERATED_(60)
  6
Continuous
 62
     7
100
AcDbCircle
 10
171.3499707961
 20
213.9412169015
 30
0.0
 40
27.50000000000001
100
AcDbArc
 50
313.988803674
 51
360.0
  0
ARC
  5
152
330
14F
100
AcDbEntity
  8
$DDT_AUDIT_GENERATED_(60)
  6
Continuous
 62
     7
100
AcDbCircle
 10
171.3499707961
 20
213.9412169015
 30
0.0
 40
27.50000000000001
100
AcDbArc
 50
94.1706479119
 51
225.9526261397
  0
ARC
  5
153
330
14F
100
AcDbEntity
  8
$DDT_AUDIT_GENERATED_(60)
  6
Continuous
 62
     7
100
AcDbCircle
 10
171.3499707961
 20
213.9412169015
 30
0.0
 40
27.50000000000001
100
AcDbArc
 50
0.0
 51
85.8293520881
  0
LINE
  5
154
330
14F
100
AcDbEntity
  8
$DDT_AUDIT_GENERATED_(67)
  6
Continuous
 62
     7
100
AcDbLine
 10
311.349970501
 20
198.9390094192
 30
0.0
 11
271.3499707899
 21
198.9390094192
 31
0.0
  0
LINE
  5
155
330
14F
100
AcDbEntity
  8
$DDT_AUDIT_GENERATED_(67)
  6
Continuous
 62
     7
100
AcDbLine
 10
311.3499708179
 20
198.9389996338
 30
0.0
 11
321.3499695544
 21
198.9390038321
 31
0.0
  0
LINE
  5
156
330
14F
100
AcDbEntity
  8
$DDT_AUDIT_GENERATED_(67)
  6
Continuous
 62
     7
100
AcDbLine
 10
311.3499706488
 20
198.9389805999
 30
0.0
 11
321.3499703968
 21
198.9390662979
 31
0.0
  0
ARC
  5
157
330
14F
100
AcDbEntity
  8
$DDT_AUDIT_GENERATED_(67)
  6
Continuous
 62
     7
100
AcDbCircle
 10
271.3498735576
 20
213.9386782051
 30
0.0
 40
14.99987762275728
100
AcDbArc
 50
179.9987541531
 51
270.0003713643
  0
ARC
  5
158
330
14F
100
AcDbEntity
  8
$DDT_AUDIT_GENERATED_(67)
  6
Continuous
 62
     7
100
AcDbCircle
 10
321.349239053
 20
213.9397017652
 30
0.0
 40
15.00069795085221
100
AcDbArc
 50
270.00279018
 51
334.797125005
  0
ARC
  5
159
330
14F
100
AcDbEntity
  8
$DDT_AUDIT_GENERATED_(67)
  6
Continuous
 62
     7
100
AcDbCircle
 10
321.3498604134
 20
213.9391211335
 30
0.0
 40
15.00008117908792
100
AcDbArc
 50
333.6127226143
 51
359.9995803165
  0
ARC
  5
15A
330
14F
100
AcDbEntity
  8
$DDT_AUDIT_GENERATED_(67)
  6
Continuous
 62
     7
100
AcDbCircle
 10
271.3498735579
 20
213.9393406328
 30
0.0
 40
14.99987762325909
100
AcDbArc
 50
89.9996286367
 51
180.0012844613
  0
LINE
  5
15B
330
14F
100
AcDbEntity
  8
$DDT_AUDIT_GENERATED_(67)
  6
Continuous
 62
     7
100
AcDbLine
 10
321.349970796
 20
228.9390150063
 30
0.0
 11
311.3499712398
 21
228.9390094192
 31
0.0
  0
ARC
  5
15C
330
14F
100
AcDbEntity
  8
$DDT_AUDIT_GENERATED_(67)
  6
Continuous
 62
     7
100
AcDbCircle
 10
321.3490003135
 20
213.9380681003
 30
0.0
 40
15.00093670396944
100
AcDbArc
 50
25.203323209
 51
89.9962931616
  0
LINE
  5
15D
330
14F
100
AcDbEntity
  8
$DDT_AUDIT_GENERATED_(67)
  6
Continuous
 62
     7
100
AcDbLine
 10
271.3499707899
 20
228.9390094192
 30
0.0
 11
311.349972081
 21
228.9390094192
 31
0.0
  0
ARC
  5
15E
330
14F
100
AcDbEntity
  8
$DDT_AUDIT_GENERATED_(67)
  6
Continuous
 62
     7
100
AcDbCircle
 10
321.3497929101
 20
213.9388681395
 30
0.0
 40
15.00014868274406
100
AcDbArc
 50
0.0005466748
 51
26.3873126643
  0
LINE
  5
15F
330
14F
100
AcDbEntity
  8
$DDT_AUDIT_GENERATED_(67)
  6
Continuous
 62
     7
100
AcDbLine
 10
321.3499716799
 20
228.9390284787
 30
0.0
 11
311.3499720812
 21
228.9389547094
 31
0.0
  0
LINE
  5
160
330
14F
100
AcDbEntity
  8
$DDT_AUDIT_GENERATED_(67)
  6
Continuous
 62
     7
100
AcDbLine
 10
31.3499710912
 20
228.9434243837
 30
0.0
 11
71.3499708022
 21
228.9434243837
 31
0.0
  0
LINE
  5
161
330
14F
100
AcDbEntity
  8
$DDT_AUDIT_GENERATED_(67)
  6
Continuous
 62
     7
100
AcDbLine
 10
31.3499707742
 20
228.9434341691
 30
0.0
 11
21.3499720377
 21
228.9434299708
 31
0.0
  0
LINE
  5
162
330
14F
100
AcDbEntity
  8
$DDT_AUDIT_GENERATED_(67)
  6
Continuous
 62
     7
100
AcDbLine
 10
31.3499709434
 20
228.943453203
 30
0.0
 11
21.3499711953
 21
228.9433675051
 31
0.0
  0
ARC
  5
163
330
14F
100
AcDbEntity
  8
$DDT_AUDIT_GENERATED_(67)
  6
Continuous
 62
     7
100
AcDbCircle
 10
71.3500680345
 20
213.9437555979
 30
0.0
 40
14.99987762275727
100
AcDbArc
 50
359.9987541531
 51
90.0003713643
  0
ARC
  5
164
330
14F
100
AcDbEntity
  8
$DDT_AUDIT_GENERATED_(67)
  6
Continuous
 62
     7
100
AcDbCircle
 10
21.3507025391
 20
213.9427320377
 30
0.0
 40
15.00069795085216
100
AcDbArc
 50
90.00279018
 51
154.797125005
  0
ARC
  5
165
330
14F
100
AcDbEntity
  8
$DDT_AUDIT_GENERATED_(67)
  6
Continuous
 62
     7
100
AcDbCircle
 10
21.3500811787
 20
213.9433126694
 30
0.0
 40
15.00008117908789
100
AcDbArc
 50
153.6127226143
 51
179.9995803165
  0
ARC
  5
166
330
14F
100
AcDbEntity
  8
$DDT_AUDIT_GENERATED_(67)
  6
Continuous
 62
     7
100
AcDbCircle
 10
71.3500680342
 20
213.9430931701
 30
0.0
 40
14.99987762325907
100
AcDbArc
 50
269.9996286367
 51
0.0012844613
  0
LINE
  5
167
330
14F
100
AcDbEntity
  8
$DDT_AUDIT_GENERATED_(67)
  6
Continuous
 62
     7
100
AcDbLine
 10
21.3499707961
 20
198.9434187967
 30
0.0
 11
31.3499703523
 21
198.9434243837
 31
0.0
  0
ARC
  5
168
330
14F
100
AcDbEntity
  8
$DDT_AUDIT_GENERATED_(67)
  6
Continuous
 62
     7
100
AcDbCircle
 10
21.3509412787
 20
213.9443657027
 30
0.0
 40
15.00093670396947
100
AcDbArc
 50
205.203323209
 51
269.9962931616
  0
LINE
  5
169
330
14F
100
AcDbEntity
  8
$DDT_AUDIT_GENERATED_(67)
  6
Continuous
 62
     7
100
AcDbLine
 10
71.3499708022
 20
198.9434243837
 30
0.0
 11
31.3499695111
 21
198.9434243837
 31
0.0
  0
ARC
  5
16A
330
14F
100
AcDbEntity
  8
$DDT_AUDIT_GENERATED_(67)
  6
Continuous
 62
     7
100
AcDbCircle
 10
21.3501486821
 20
213.9435656635
 30
0.0
 40
15.00014868274403
100
AcDbArc
 50
180.0005466748
 51
206.3873126643
  0
LINE
  5
16B
330
14F
100
AcDbEntity
  8
$DDT_AUDIT_GENERATED_(67)
  6
Continuous
 62
     7
100
AcDbLine
 10
21.3499699123
 20
198.9434053242
 30
0.0
 11
31.349969511
 21
198.9434790935
 31
0.0
  0
SPLINE
  5
16C
330
14F
100
AcDbEntity
  8
$DDT_AUDIT_GENERATED_(A8)
  6
Continuous
 62
     7
100
AcDbSpline
210
0.0
220
0.0
230
1.0
 70
     8
 71
     3
 72
    13
 73
     9
 74
     0
 42
0.000000000057125
 43
0.0000000001
 40
0.0
 40
0.0
 40
0.0
 40
0.0
 40
0.031249999999989
 40
0.062499999999978
 40
0.0937500000000258
 40
0.1250000000000148
 40
0.1562500000000037
 40
0.1566605861813933
 40
0.1566605861813933
 40
0.1566605861813933
 40
0.1566605861813933
 10
71.36341932763354
 20
241.4415777984469
 30
0.0
 10
69.59129859654023
 20
241.4415777984379
 30
0.0
 10
65.99195011058224
 20
241.0947605089569
 30
0.0
 10
60.72862616987123
 20
239.4958997450539
 30
0.0
 10
55.85160320931323
 20
236.8631324495919
 30
0.0
 10
51.61763600622923
 20
233.3241131410579
 30
0.0
 10
49.33818210277517
 20
230.4873833958789
 30
0.0
 10
48.3468827959838
 20
228.9704666896699
 30
0.0
 10
48.33405349867037
 20
228.9507798134953
 30
0.0
  0
SPLINE
  5
16D
330
14F
100
AcDbEntity
  8
$DDT_AUDIT_GENERATED_(A8)
  6
Continuous
 62
     7
100
AcDbSpline
210
0.0
220
0.0
230
1.0
 70
     8
 71
     3
 72
    28
 73
    24
 74
     0
 42
0.0000000000575284
 43
0.0000000001
 40
0.3422632036379354
 40
0.3422632036379354
 40
0.3422632036379354
 40
0.3422632036379354
 40
0.3437499999999964
 40
0.3749999999999853
 40
0.4062499999999742
 40
0.4375000000000221
 40
0.5
 40
0.531249999999989
 40
0.562499999999978
 40
0.5937500000000258
 40
0.6250000000000148
 40
0.6562500000000038
 40
0.6874999999999928
 40
0.7187499999999817
 40
0.7500000000000294
 40
0.7812500000000183
 40
0.8125000000000073
 40
0.8437499999999963
 40
0.8749999999999852
 40
0.9062499999999742
 40
0.9375000000000221
 40
0.968750000000011
 40
1.0
 40
1.0
 40
1.0
 40
1.0
 10
48.3250013295583
 20
198.9356272889312
 30
0.0
 10
48.37241633306573
 20
198.8627698028747
 30
0.0
 10
49.42415156370021
 20
197.2634142543394
 30
0.0
 10
51.81103807684823
 20
194.3502575687109
 30
0.0
 10
56.06656913196023
 20
190.8715432432599
 30
0.0
 10
62.50111129436123
 20
187.4692580138739
 30
0.0
 10
69.58706252041723
 20
186.0930992566279
 30
0.0
 10
76.67476335011624
 20
186.7797843845889
 30
0.0
 10
81.82705053827922
 20
188.3165653234049
 30
0.0
 10
86.65463215301624
 20
190.8678194982169
 30
0.0
 10
90.91106663397822
 20
194.3456156584509
 30
0.0
 10
94.40976439209022
 20
198.6133608602799
 30
0.0
 10
96.98132566701423
 20
203.4768234596789
 30
0.0
 10
98.52607636016621
 20
208.6790618090429
 30
0.0
 10
99.02594393666223
 20
214.0195235698225
 30
0.0
 10
98.50109350203923
 20
219.2776056186719
 30
0.0
 10
96.99307690681223
 20
224.3445506784849
 30
0.0
 10
94.50748617874723
 20
229.0947846006249
 30
0.0
 10
91.11016660308523
 20
233.3232475017429
 30
0.0
 10
86.87551895845023
 20
236.8628530005479
 30
0.0
 10
81.99774083720324
 20
239.4964644830399
 30
0.0
 10
76.73377872699324
 20
241.0946465730769
 30
0.0
 10
73.13496350062323
 20
241.4415777984559
 30
0.0
 10
71.36341932763354
 20
241.4415777984469
 30
0.0
  0
SPLINE
  5
16E
330
14F
100
AcDbEntity
  8
$DDT_AUDIT_GENERATED_(A8)
  6
Continuous
 62
     7
100
AcDbSpline
210
0.0
220
0.0
230
1.0
 70
     8
 71
     3
 72
    28
 73
    24
 74
     0
 42
0.0000000000575315
 43
0.0000000001
 40
0.0
 40
0.0
 40
0.0
 40
0.0
 40
0.031249999999989
 40
0.062499999999978
 40
0.0937500000000258
 40
0.1250000000000148
 40
0.1562500000000037
 40
0.1874999999999927
 40
0.2187499999999817
 40
0.2500000000000295
 40
0.2812500000000184
 40
0.3125000000000074
 40
0.3437499999999964
 40
0.3749999999999853
 40
0.4062499999999742
 40
0.4375000000000221
 40
0.5
 40
0.531249999999989
 40
0.562499999999978
 40
0.5937500000000258
 40
0.6250000000000148
 40
0.6562500000000038
 40
0.6577425693670949
 40
0.6577425693670949
 40
0.6577425693670949
 40
0.6577425693670949
 10
271.3634193276336
 20
241.4415777984468
 30
0.0
 10
269.5912985965402
 20
241.4415777984378
 30
0.0
 10
265.9919501105823
 20
241.0947605089568
 30
0.0
 10
260.7286261698712
 20
239.4958997450538
 30
0.0
 10
255.8516032093132
 20
236.8631324495918
 30
0.0
 10
251.6176360062292
 20
233.3241131410578
 30
0.0
 10
248.2207704479802
 20
229.0967894145908
 30
0.0
 10
245.7350026865912
 20
224.3475024705298
 30
0.0
 10
244.2266784101332
 20
219.2818427854338
 30
0.0
 10
243.7008754109432
 20
214.0245231257069
 30
0.0
 10
244.1998431427972
 20
208.6845884173038
 30
0.0
 10
245.7431494689093
 20
203.4822305452118
 30
0.0
 10
248.3139008027542
 20
198.6184574912748
 30
0.0
 10
251.8110380768482
 20
194.3502575687108
 30
0.0
 10
256.0665691319603
 20
190.8715432432598
 30
0.0
 10
262.5011112943612
 20
187.4692580138738
 30
0.0
 10
269.5870625204172
 20
186.0930992566278
 30
0.0
 10
276.6747633501162
 20
186.7797843845888
 30
0.0
 10
281.8270505382792
 20
188.3165653234048
 30
0.0
 10
286.6546321530162
 20
190.8678194982168
 30
0.0
 10
290.9110666339782
 20
194.3456156584508
 30
0.0
 10
293.2992336631032
 20
197.2587247877213
 30
0.0
 10
294.3515321583076
 20
198.8582491724241
 30
0.0
 10
294.3991468521849
 20
198.9313852881631
 30
0.0
  0
SPLINE
  5
16F
330
14F
100
AcDbEntity
  8
$DDT_AUDIT_GENERATED_(A8)
  6
Continuous
 62
     7
100
AcDbSpline
210
0.0
220
0.0
230
1.0
 70
     8
 71
     3
 72
    13
 73
     9
 74
     0
 42
0.0000000000571201
 43
0.0000000001
 40
0.8433232636385365
 40
0.8433232636385365
 40
0.8433232636385365
 40
0.8433232636385365
 40
0.8437499999999963
 40
0.8749999999999852
 40
0.9062499999999742
 40
0.9375000000000221
 40
0.968750000000011
 40
1.0
 40
1.0
 40
1.0
 40
1.0
 10
294.3956135636221
 20
228.9464696197342
 30
0.0
 10
294.3822811870002
 20
228.9669368258913
 30
0.0
 10
293.3905104246672
 20
230.4850248863522
 30
0.0
 10
291.1101666030852
 20
233.3232475017428
 30
0.0
 10
286.8755189584502
 20
236.8628530005478
 30
0.0
 10
281.9977408372032
 20
239.4964644830398
 30
0.0
 10
276.7337787269933
 20
241.0946465730768
 30
0.0
 10
273.1349635006232
 20
241.4415777984558
 30
0.0
 10
271.3634193276336
 20
241.4415777984468
 30
0.0
  0
ARC
  5
170
330
14F
100
AcDbEntity
  8
$DDT_AUDIT_GENERATED_(CC)
  6
Continuous
 62
     7
100
AcDbCircle
 10
171.3482953374
 20
213.9428501501
 30
0.0
 40
19.08902747203275
100
AcDbArc
 50
89.9950397796
 51
180.0049029515
  0
ARC
  5
171
330
14F
100
AcDbEntity
  8
$DDT_AUDIT_GENERATED_(CC)
  6
Continuous
 62
     7
100
AcDbCircle
 10
171.3516461899
 20
213.9428501333
 30
0.0
 40
19.08902749279114
100
AcDbArc
 50
359.9950743131
 51
90.0050973745
  0
LINE
  5
172
330
14F
100
AcDbEntity
  8
$DDT_AUDIT_GENERATED_(CC)
  6
Continuous
 62
     7
100
AcDbLine
 10
152.2593101469
 20
129.6545464323
 30
0.0
 11
152.2593101469
 21
213.9412166515
 31
0.0
  0
LINE
  5
173
330
14F
100
AcDbEntity
  8
$DDT_AUDIT_GENERATED_(CC)
  6
Continuous
 62
     7
100
AcDbLine
 10
190.4406314452
 20
213.9412012369
 30
0.0
 11
190.4406314452
 21
129.6545464323
 31
0.0
  0
SPLINE
  5
174
330
14F
100
AcDbEntity
  8
$DDT_AUDIT_GENERATED_(CC)
  6
Continuous
 62
     7
100
AcDbSpline
210
0.0
220
0.0
230
1.0
 70
     8
 71
     5
 72
    14
 73
     8
 74
     0
 42
0.0000000001369591
 43
0.0000000001
 40
0.0
 40
0.0
 40
0.0
 40
0.0
 40
0.0
 40
0.0
 40
0.3333333311574653
 40
0.666666668842534
 40
1.0
 40
1.0
 40
1.0
 40
1.0
 40
1.0
 40
1.0
 10
190.440673656147
 20
129.6545464323117
 30
0.0
 10
190.4406314451733
 20
127.5481863174137
 30
0.0
 10
190.4406314557393
 20
121.6769076372779
 30
0.0
 10
182.7162418298973
 20
106.3500000000009
 30
0.0
 10
159.9836997622245
 20
106.3499999999999
 30
0.0
 10
152.2593101363823
 20
121.6769076372779
 30
0.0
 10
152.2593101469483
 20
127.5481863174137
 30
0.0
 10
152.2592679355971
 20
129.6545464323117
 30
0.0
  0
ARC
  5
175
330
14F
100
AcDbEntity
  8
$DDT_AUDIT_GENERATED_(CC)
  6
Continuous
 62
     7
100
AcDbCircle
 10
171.3501822662
 20
213.927975188
 30
0.0
 40
19.10390236377141
100
AcDbArc
 50
80.9708407347
 51
83.9402523189
  0
LINE
  5
176
330
14F
100
AcDbEntity
  8
$DDT_AUDIT_GENERATED_(145)
  6
Continuous
 62
     7
100
AcDbLine
 10
169.3499707961
 20
254.3021290615
 30
0.0
 11
173.3499707961
 21
254.3021290615
 31
0.0
  0
LINE
  5
177
330
14F
100
AcDbEntity
  8
$DDT_AUDIT_GENERATED_(145)
  6
Continuous
 62
     7
100
AcDbLine
 10
173.3499707961
 20
240.8348417015
 30
0.0
 11
173.3499707961
 21
254.3021290615
 31
0.0
  0
LINE
  5
178
330
14F
100
AcDbEntity
  8
$DDT_AUDIT_GENERATED_(145)
  6
Continuous
 62
     7
100
AcDbLine
 10
169.3499707961
 20
254.3021290615
 30
0.0
 11
169.3499707961
 21
240.8348417015
 31
0.0
  0
LINE
  5
179
330
14F
100
AcDbEntity
  8
$DDT_AUDIT_GENERATED_(145)
  6
Continuous
 62
     7
100
AcDbLine
 10
169.3499707961
 20
240.8348417015
 30
0.0
 11
169.3499707961
 21
237.9816721527
 31
0.0
  0
LINE
  5
17A
330
14F
100
AcDbEntity
  8
$DDT_AUDIT_GENERATED_(145)
  6
Continuous
 62
     7
100
AcDbLine
 10
173.3499707961
 20
237.9816721527
 30
0.0
 11
173.3499707961
 21
240.8348417015
 31
0.0
  0
LINE
  5
17B
330
14F
100
AcDbEntity
  8
$DDT_AUDIT_GENERATED_(145)
  6
Continuous
 62
     7
100
AcDbLine
 10
173.3499707961
 20
232.9007439298
 30
0.0
 11
173.3499707961
 21
237.9816721527
 31
0.0
  0
LINE
  5
17C
330
14F
100
AcDbEntity
  8
$DDT_AUDIT_GENERATED_(145)
  6
Continuous
 62
     7
100
AcDbLine
 10
169.3499707961
 20
237.9816721527
 30
0.0
 11
169.3499707961
 21
232.9007415459
 31
0.0
  0
ENDBLK
  5
17E
330
14F
100
AcDbEntity
  8
0
100
AcDbBlockEnd
  0
ENDSEC
  0
SECTION
  2
ENTITIES
  0
INSERT
  5
5F
330
1F
100
AcDbEntity
  8
Default
100
AcDbBlockReference
  2
SE
 10
0.0
 20
0.0
 30
0.0
  0
INSERT
  5
EB
330
1F
100
AcDbEntity
  8
Default
100
AcDbBlockReference
  2
SE1
 10
0.0
 20
0.0
 30
0.0
  0
INSERT
  5
150
330
1F
100
AcDbEntity
  8
Default
100
AcDbBlockReference
  2
SE2
 10
0.0
 20
0.0
 30
0.0
  0
TEXT
  5
180
330
1F
100
AcDbEntity
  8
Default
  6
Continuous
 62
     7
100
AcDbText
 10
5.9362635081
 20
53.4225120485
 30
0.0
 40
10.0
  1
Grohe AG^J
  7
SEACAD_seiso_ttf
 11
5.9362635081
 21
63.4225120485
 31
0.0
100
AcDbText
 73
     3
  0
TEXT
  5
181
330
1F
100
AcDbEntity
  8
Default
  6
Continuous
 62
     7
100
AcDbText
 10
5.9362635081
 20
37.0588756849
 30
0.0
 40
10.0
  1
 
  7
SEACAD_seiso_ttf
 11
5.9362635081
 21
47.0588756849
 31
0.0
100
AcDbText
 73
     3
  0
TEXT
  5
182
330
1F
100
AcDbEntity
  8
Default
  6
Continuous
 62
     7
100
AcDbText
 10
5.9362635081
 20
20.6952393213
 30
0.0
 40
10.0
  1
ecn: 
  7
SEACAD_seiso_ttf
 11
5.9362635081
 21
30.6952393213
 31
0.0
100
AcDbText
 73
     3
  0
TEXT
  5
183
330
1F
100
AcDbEntity
  8
Default
  6
Continuous
 62
     7
100
AcDbText
 10
5.9362635081
 20
4.3316029576
 30
0.0
 40
10.0
  1
unit: mm
  7
SEACAD_seiso_ttf
 11
5.9362635081
 21
14.3316029576
 31
0.0
100
AcDbText
 73
     3
  0
LINE
  5
184
330
1F
100
AcDbEntity
  8
Default
  6
Continuous
 62
     7
100
AcDbLine
 10
0.0
 20
0.0
 30
0.0
 11
100.0
 21
0.0
 31
0.0
  0
LINE
  5
185
330
1F
100
AcDbEntity
  8
Default
  6
Continuous
 62
     7
100
AcDbLine
 10
0.0
 20
0.0
 30
0.0
 11
0.0
 21
100.0
 31
0.0
  0
TEXT
  5
186
330
1F
100
AcDbEntity
  8
Default
  6
Continuous
 62
     7
100
AcDbText
 10
24.3923665681
 20
-18.2375342018
 30
0.0
 40
10.0
  1
100 mm
  7
SEACAD_seiso_ttf
 11
24.3923665681
 21
-8.2375342018
 31
0.0
100
AcDbText
 73
     3
  0
TEXT
  5
187
330
1F
100
AcDbEntity
  8
Default
  6
Continuous
 62
     7
100
AcDbText
 10
-7.6150308803
 20
24.6231930421
 30
0.0
 40
10.0
  1
100 mm
 50
90.0
  7
SEACAD_seiso_ttf
 11
-17.6150308803
 21
24.6231930421
 31
0.0
100
AcDbText
 73
     3
  0
TEXT
  5
188
330
1F
100
AcDbEntity
  8
Default
  6
Continuous
 62
     7
100
AcDbText
 10
28.4878128572
 20
20.0907663715
 30
0.0
 40
10.0
  1
216868
  7
SEACAD_seiso_ttf
 11
28.4878128572
 21
30.0907663715
 31
0.0
100
AcDbText
 73
     3
  0
TEXT
  5
189
330
1F
100
AcDbEntity
  8
Default
  6
Continuous
 62
     7
100
AcDbText
 10
5.9012241913
 20
36.7242780188
 30
0.0
 40
10.0
  1
20199000
  7
SEACAD_seiso_ttf
 11
5.9012241913
 21
46.7242780188
 31
0.0
100
AcDbText
 73
     3
  0
ENDSEC
  0
SECTION
  2
OBJECTS
  0
DICTIONARY
  5
C
330
0
100
AcDbDictionary
281
     1
  3
ACAD_GROUP
350
D
  3
ACAD_LAYOUT
350
1A
  3
ACAD_MLEADERSTYLE
350
18D
  3
ACAD_MLINESTYLE
350
17
  3
ACAD_PLOTSETTINGS
350
19
  3
ACAD_PLOTSTYLENAME
350
E
  3
ACAD_SCALELIST
350
3B
  3
ACAD_TABLESTYLE
350
18C
  3
ACAD_VISUALSTYLE
350
2A
  3
AcDbVariableDictionary
350
18A
  0
DICTIONARY
  5
D
102
{ACAD_REACTORS
330
C
102
}
330
C
100
AcDbDictionary
281
     1
  0
DICTIONARY
  5
1A
102
{ACAD_REACTORS
330
C
102
}
330
C
100
AcDbDictionary
281
     1
  3
Layout1
350
1E
  3
Model
350
22
  0
DICTIONARY
  5
18D
102
{ACAD_REACTORS
330
C
102
}
330
C
100
AcDbDictionary
281
     1
  0
DICTIONARY
  5
17
102
{ACAD_REACTORS
330
C
102
}
330
C
100
AcDbDictionary
281
     1
  3
Standard
350
18
  0
DICTIONARY
  5
19
102
{ACAD_REACTORS
330
C
102
}
330
C
100
AcDbDictionary
281
     1
  0
ACDBDICTIONARYWDFLT
  5
E
102
{ACAD_REACTORS
330
C
102
}
330
C
100
AcDbDictionary
281
     1
  3
Normal
350
F
100
AcDbDictionaryWithDefault
340
F
  0
DICTIONARY
  5
3B
102
{ACAD_REACTORS
330
C
102
}
330
C
100
AcDbDictionary
281
     1
  3
A0
350
3C
  3
A1
350
3D
  3
A2
350
3E
  3
A3
350
3F
  3
A4
350
40
  3
A5
350
41
  3
A6
350
42
  3
A7
350
43
  3
A8
350
44
  3
A9
350
45
  3
B0
350
46
  3
B1
350
47
  3
B2
350
48
  3
B3
350
49
  3
B4
350
4A
  3
B5
350
4B
  3
B6
350
4C
  3
B7
350
4D
  3
B8
350
4E
  3
B9
350
4F
  3
C0
350
50
  3
C1
350
51
  3
C2
350
52
  3
C3
350
53
  3
C4
350
54
  3
C5
350
55
  3
C6
350
56
  3
C7
350
57
  3
C8
350
58
  3
C9
350
59
  3
D0
350
5A
  3
D1
350
5B
  3
D2
350
5C
  0
DICTIONARY
  5
18C
102
{ACAD_REACTORS
330
C
102
}
330
C
100
AcDbDictionary
281
     1
  0
DICTIONARY
  5
2A
102
{ACAD_REACTORS
330
C
102
}
330
C
100
AcDbDictionary
281
     1
  3
2dWireframe
350
2F
  3
3D Hidden
350
31
  3
3dWireframe
350
30
  3
Basic
350
32
  3
Brighten
350
36
  3
ColorChange
350
3A
  3
Conceptual
350
34
  3
Dim
350
35
  3
Facepattern
350
39
  3
Flat
350
2B
  3
FlatWithEdges
350
2C
  3
Gouraud
350
2D
  3
GouraudWithEdges
350
2E
  3
Linepattern
350
38
  3
Realistic
350
33
  3
Thicken
350
37
  0
DICTIONARY
  5
18A
102
{ACAD_REACTORS
330
C
102
}
330
C
100
AcDbDictionary
281
     1
  3
CANNOSCALE
350
18B
  3
PSOLHEIGHT
350
18F
  3
PSOLWIDTH
350
18E
  0
LAYOUT
  5
1E
102
{ACAD_REACTORS
330
1A
102
}
330
1A
100
AcDbPlotSettings
  1

  2
none_device
  4

  6

 40
0.0
 41
0.0
 42
0.0
 43
0.0
 44
0.0
 45
0.0
 46
0.0
 47
0.0
 48
0.0
 49
0.0
140
0.0
141
0.0
142
1.0
143
1.0
 70
   688
 72
     0
 73
     0
 74
     5
  7

 75
    16
147
1.0
148
0.0
149
0.0
100
AcDbLayout
  1
Layout1
 70
     1
 71
     1
 10
0.0
 20
0.0
 11
1682.0
 21
2378.0
 12
0.0
 22
0.0
 32
0.0
 14
0.0
 24
0.0
 34
0.0
 15
1682.0
 25
2378.0
 35
0.0
146
0.0
 13
0.0
 23
0.0
 33
0.0
 16
1.0
 26
0.0
 36
0.0
 17
0.0
 27
1.0
 37
0.0
 76
     0
330
1B
  0
LAYOUT
  5
22
102
{ACAD_REACTORS
330
1A
102
}
330
1A
100
AcDbPlotSettings
  1

  2
none_device
  4

  6

 40
0.0
 41
0.0
 42
0.0
 43
0.0
 44
0.0
 45
0.0
 46
0.0
 47
0.0
 48
0.0
 49
0.0
140
0.0
141
0.0
142
1.0
143
1.0
 70
  1712
 72
     0
 73
     0
 74
     0
  7

 75
     0
147
1.0
148
0.0
149
0.0
100
AcDbLayout
  1
Model
 70
     1
 71
     0
 10
0.0
 20
0.0
 11
1682.0
 21
2378.0
 12
0.0
 22
0.0
 32
0.0
 14
0.0
 24
0.0
 34
0.0
 15
1682.0
 25
2378.0
 35
0.0
146
0.0
 13
0.0
 23
0.0
 33
0.0
 16
1.0
 26
0.0
 36
0.0
 17
0.0
 27
1.0
 37
0.0
 76
     0
330
1F
331
29
  0
MLINESTYLE
  5
18
102
{ACAD_REACTORS
330
17
102
}
330
17
100
AcDbMlineStyle
  2
Standard
 70
     0
  3

 62
   256
 51
90.0
 52
90.0
 71
     2
 49
0.5
 62
   256
  6
BYLAYER
 49
-0.5
 62
   256
  6
BYLAYER
  0
ACDBPLACEHOLDER
  5
F
102
{ACAD_REACTORS
330
E
102
}
330
E
  0
SCALE
  5
3C
102
{ACAD_REACTORS
330
3B
102
}
330
3B
100
AcDbScale
 70
     0
300
1:1
140
1.0
141
1.0
290
     1
  0
SCALE
  5
3D
102
{ACAD_REACTORS
330
3B
102
}
330
3B
100
AcDbScale
 70
     0
300
1:2
140
1.0
141
2.0
290
     0
  0
SCALE
  5
3E
102
{ACAD_REACTORS
330
3B
102
}
330
3B
100
AcDbScale
 70
     0
300
1:4
140
1.0
141
4.0
290
     0
  0
SCALE
  5
3F
102
{ACAD_REACTORS
330
3B
102
}
330
3B
100
AcDbScale
 70
     0
300
1:5
140
1.0
141
5.0
290
     0
  0
SCALE
  5
40
102
{ACAD_REACTORS
330
3B
102
}
330
3B
100
AcDbScale
 70
     0
300
1:8
140
1.0
141
8.0
290
     0
  0
SCALE
  5
41
102
{ACAD_REACTORS
330
3B
102
}
330
3B
100
AcDbScale
 70
     0
300
1:10
140
1.0
141
10.0
290
     0
  0
SCALE
  5
42
102
{ACAD_REACTORS
330
3B
102
}
330
3B
100
AcDbScale
 70
     0
300
1:16
140
1.0
141
16.0
290
     0
  0
SCALE
  5
43
102
{ACAD_REACTORS
330
3B
102
}
330
3B
100
AcDbScale
 70
     0
300
1:20
140
1.0
141
20.0
290
     0
  0
SCALE
  5
44
102
{ACAD_REACTORS
330
3B
102
}
330
3B
100
AcDbScale
 70
     0
300
1:30
140
1.0
141
30.0
290
     0
  0
SCALE
  5
45
102
{ACAD_REACTORS
330
3B
102
}
330
3B
100
AcDbScale
 70
     0
300
1:40
140
1.0
141
40.0
290
     0
  0
SCALE
  5
46
102
{ACAD_REACTORS
330
3B
102
}
330
3B
100
AcDbScale
 70
     0
300
1:50
140
1.0
141
50.0
290
     0
  0
SCALE
  5
47
102
{ACAD_REACTORS
330
3B
102
}
330
3B
100
AcDbScale
 70
     0
300
1:100
140
1.0
141
100.0
290
     0
  0
SCALE
  5
48
102
{ACAD_REACTORS
330
3B
102
}
330
3B
100
AcDbScale
 70
     0
300
2:1
140
2.0
141
1.0
290
     0
  0
SCALE
  5
49
102
{ACAD_REACTORS
330
3B
102
}
330
3B
100
AcDbScale
 70
     0
300
4:1
140
4.0
141
1.0
290
     0
  0
SCALE
  5
4A
102
{ACAD_REACTORS
330
3B
102
}
330
3B
100
AcDbScale
 70
     0
300
8:1
140
8.0
141
1.0
290
     0
  0
SCALE
  5
4B
102
{ACAD_REACTORS
330
3B
102
}
330
3B
100
AcDbScale
 70
     0
300
10:1
140
10.0
141
1.0
290
     0
  0
SCALE
  5
4C
102
{ACAD_REACTORS
330
3B
102
}
330
3B
100
AcDbScale
 70
     0
300
100:1
140
100.0
141
1.0
290
     0
  0
SCALE
  5
4D
102
{ACAD_REACTORS
330
3B
102
}
330
3B
100
AcDbScale
 70
     0
300
1/128" = 1'-0"
140
0.0078125
141
12.0
290
     0
  0
SCALE
  5
4E
102
{ACAD_REACTORS
330
3B
102
}
330
3B
100
AcDbScale
 70
     0
300
1/64" = 1'-0"
140
0.015625
141
12.0
290
     0
  0
SCALE
  5
4F
102
{ACAD_REACTORS
330
3B
102
}
330
3B
100
AcDbScale
 70
     0
300
1/32" = 1'-0"
140
0.03125
141
12.0
290
     0
  0
SCALE
  5
50
102
{ACAD_REACTORS
330
3B
102
}
330
3B
100
AcDbScale
 70
     0
300
1/16" = 1'-0"
140
0.0625
141
12.0
290
     0
  0
SCALE
  5
51
102
{ACAD_REACTORS
330
3B
102
}
330
3B
100
AcDbScale
 70
     0
300
3/32" = 1'-0"
140
0.09375
141
12.0
290
     0
  0
SCALE
  5
52
102
{ACAD_REACTORS
330
3B
102
}
330
3B
100
AcDbScale
 70
     0
300
1/8" = 1'-0"
140
0.125
141
12.0
290
     0
  0
SCALE
  5
53
102
{ACAD_REACTORS
330
3B
102
}
330
3B
100
AcDbScale
 70
     0
300
3/16" = 1'-0"
140
0.1875
141
12.0
290
     0
  0
SCALE
  5
54
102
{ACAD_REACTORS
330
3B
102
}
330
3B
100
AcDbScale
 70
     0
300
1/4" = 1'-0"
140
0.25
141
12.0
290
     0
  0
SCALE
  5
55
102
{ACAD_REACTORS
330
3B
102
}
330
3B
100
AcDbScale
 70
     0
300
3/8" = 1'-0"
140
0.375
141
12.0
290
     0
  0
SCALE
  5
56
102
{ACAD_REACTORS
330
3B
102
}
330
3B
100
AcDbScale
 70
     0
300
1/2" = 1'-0"
140
0.5
141
12.0
290
     0
  0
SCALE
  5
57
102
{ACAD_REACTORS
330
3B
102
}
330
3B
100
AcDbScale
 70
     0
300
3/4" = 1'-0"
140
0.75
141
12.0
290
     0
  0
SCALE
  5
58
102
{ACAD_REACTORS
330
3B
102
}
330
3B
100
AcDbScale
 70
     0
300
1" = 1'-0"
140
1.0
141
12.0
290
     0
  0
SCALE
  5
59
102
{ACAD_REACTORS
330
3B
102
}
330
3B
100
AcDbScale
 70
     0
300
1-1/2" = 1'-0"
140
1.5
141
12.0
290
     0
  0
SCALE
  5
5A
102
{ACAD_REACTORS
330
3B
102
}
330
3B
100
AcDbScale
 70
     0
300
3" = 1'-0"
140
3.0
141
12.0
290
     0
  0
SCALE
  5
5B
102
{ACAD_REACTORS
330
3B
102
}
330
3B
100
AcDbScale
 70
     0
300
6" = 1'-0"
140
6.0
141
12.0
290
     0
  0
SCALE
  5
5C
102
{ACAD_REACTORS
330
3B
102
}
330
3B
100
AcDbScale
 70
     0
300
1'-0" = 1'-0"
140
12.0
141
12.0
290
     0
  0
VISUALSTYLE
  5
2F
102
{ACAD_REACTORS
330
2A
102
}
330
2A
100
AcDbVisualStyle
  2
2dWireframe
 70
     4
 71
     0
 72
     2
 73
     0
 90
        0
 40
-0.6
 41
-30.0
 62
     5
 63
     7
 74
     1
 91
        4
 64
     7
 65
   257
 75
     1
175
     1
 42
1.0
 92
        0
 66
   257
 43
1.0
 76
     1
 77
     6
 78
     2
 67
     7
 79
     5
170
     0
171
     0
290
     0
174
     0
 93
        1
 44
0.0
173
     0
291
     0
 45
0.0
1001
ACAD
1000
AcDbSavedByObjectVersion
1070
     0
  0
VISUALSTYLE
  5
31
102
{ACAD_REACTORS
330
2A
102
}
330
2A
100
AcDbVisualStyle
  2
3D Hidden
 70
     6
 71
     1
 72
     2
 73
     2
 90
        0
 40
-0.6
 41
-30.0
 62
     5
 63
     7
 74
     2
 91
        2
 64
     7
 65
   257
 75
     2
175
     1
 42
40.0
 92
        0
 66
   257
 43
1.0
 76
     1
 77
     6
 78
     2
 67
     7
 79
     3
170
     0
171
     0
290
     0
174
     0
 93
        1
 44
0.0
173
     0
291
     0
 45
0.0
1001
ACAD
1000
AcDbSavedByObjectVersion
1070
     0
  0
VISUALSTYLE
  5
30
102
{ACAD_REACTORS
330
2A
102
}
330
2A
100
AcDbVisualStyle
  2
3dWireframe
 70
     5
 71
     0
 72
     2
 73
     0
 90
        0
 40
-0.6
 41
-30.0
 62
     5
 63
     7
 74
     1
 91
        4
 64
     7
 65
   257
 75
     1
175
     1
 42
1.0
 92
        0
 66
   257
 43
1.0
 76
     1
 77
     6
 78
     2
 67
     7
 79
     5
170
     0
171
     0
290
     0
174
     0
 93
        1
 44
0.0
173
     0
291
     0
 45
0.0
1001
ACAD
1000
AcDbSavedByObjectVersion
1070
     0
  0
VISUALSTYLE
  5
32
102
{ACAD_REACTORS
330
2A
102
}
330
2A
100
AcDbVisualStyle
  2
Basic
 70
     7
 71
     1
 72
     0
 73
     1
 90
        0
 40
-0.6
 41
-30.0
 62
     5
 63
     7
 74
     0
 91
        4
 64
     7
 65
   257
 75
     1
175
     1
 42
1.0
 92
        8
 66
     7
 43
1.0
 76
     1
 77
     6
 78
     2
 67
     7
 79
     5
170
     0
171
     0
290
     0
174
     0
 93
        1
 44
0.0
173
     0
291
     1
 45
0.0
1001
ACAD
1000
AcDbSavedByObjectVersion
1070
     0
  0
VISUALSTYLE
  5
36
102
{ACAD_REACTORS
330
2A
102
}
330
2A
100
AcDbVisualStyle
  2
Brighten
 70
    12
 71
     2
 72
     2
 73
     0
 90
        0
 40
-0.6
 41
-30.0
 62
     5
 63
     7
 74
     1
 91
        4
 64
     7
 65
   257
 75
     1
175
     1
 42
1.0
 92
        8
 66
     7
 43
1.0
 76
     1
 77
     6
 78
     2
 67
     7
 79
     5
170
     0
171
     0
290
     0
174
     0
 93
        1
 44
50.0
173
     0
291
     1
 45
0.0
1001
ACAD
1000
AcDbSavedByObjectVersion
1070
     0
  0
VISUALSTYLE
  5
3A
102
{ACAD_REACTORS
330
2A
102
}
330
2A
100
AcDbVisualStyle
  2
ColorChange
 70
    16
 71
     2
 72
     2
 73
     3
 90
        0
 40
-0.6
 41
-30.0
 62
     5
 63
     8
 74
     1
 91
        4
 64
     7
 65
   257
 75
     1
175
     1
 42
1.0
 92
        8
 66
     8
 43
1.0
 76
     1
 77
     6
 78
     2
 67
     7
 79
     5
170
     0
171
     0
290
     0
174
     0
 93
        1
 44
0.0
173
     0
291
     1
 45
0.0
1001
ACAD
1000
AcDbSavedByObjectVersion
1070
     0
  0
VISUALSTYLE
  5
34
102
{ACAD_REACTORS
330
2A
102
}
330
2A
100
AcDbVisualStyle
  2
Conceptual
 70
     9
 71
     3
 72
     2
 73
     0
 90
        0
 40
-0.6
 41
-30.0
 62
     5
 63
     7
 74
     2
 91
        2
 64
     7
 65
   257
 75
     1
175
     1
 42
40.0
 92
        8
 66
     7
 43
1.0
 76
     1
 77
     6
 78
     2
 67
     7
 79
     3
170
     0
171
     0
290
     0
174
     0
 93
        1
 44
0.0
173
     0
291
     0
 45
0.0
1001
ACAD
1000
AcDbSavedByObjectVersion
1070
     0
  0
VISUALSTYLE
  5
35
102
{ACAD_REACTORS
330
2A
102
}
330
2A
100
AcDbVisualStyle
  2
Dim
 70
    11
 71
     2
 72
     2
 73
     0
 90
        0
 40
-0.6
 41
-30.0
 62
     5
 63
     7
 74
     1
 91
        4
 64
     7
 65
   257
 75
     1
175
     1
 42
1.0
 92
        8
 66
     7
 43
1.0
 76
     1
 77
     6
 78
     2
 67
     7
 79
     5
170
     0
171
     0
290
     0
174
     0
 93
        1
 44
-50.0
173
     0
291
     1
 45
0.0
1001
ACAD
1000
AcDbSavedByObjectVersion
1070
     0
  0
VISUALSTYLE
  5
39
102
{ACAD_REACTORS
330
2A
102
}
330
2A
100
AcDbVisualStyle
  2
Facepattern
 70
    15
 71
     2
 72
     2
 73
     0
 90
        0
 40
-0.6
 41
-30.0
 62
     5
 63
     7
 74
     1
 91
        4
 64
     7
 65
   257
 75
     1
175
     1
 42
1.0
 92
        8
 66
     7
 43
1.0
 76
     1
 77
     6
 78
     2
 67
     7
 79
     5
170
     0
171
     0
290
     0
174
     0
 93
        1
 44
0.0
173
     0
291
     1
 45
0.0
1001
ACAD
1000
AcDbSavedByObjectVersion
1070
     0
  0
VISUALSTYLE
  5
2B
102
{ACAD_REACTORS
330
2A
102
}
330
2A
100
AcDbVisualStyle
  2
Flat
 70
     0
 71
     2
 72
     1
 73
     1
 90
        2
 40
-0.6
 41
30.0
 62
     5
 63
     7
 74
     0
 91
        4
 64
     7
 65
   257
 75
     1
175
     1
 42
1.0
 92
        8
 66
     7
 43
1.0
 76
     1
 77
     6
 78
     2
 67
     7
 79
     5
170
     0
171
     0
290
     0
174
     0
 93
       13
 44
0.0
173
     0
291
     1
 45
0.0
1001
ACAD
1000
AcDbSavedByObjectVersion
1070
     0
  0
VISUALSTYLE
  5
2C
102
{ACAD_REACTORS
330
2A
102
}
330
2A
100
AcDbVisualStyle
  2
FlatWithEdges
 70
     1
 71
     2
 72
     1
 73
     1
 90
        2
 40
-0.6
 41
30.0
 62
     5
 63
     7
 74
     1
 91
        4
 64
     7
 65
   257
 75
     1
175
     1
 42
1.0
 92
        0
 66
   257
 43
1.0
 76
     1
 77
     6
 78
     2
 67
     7
 79
     5
170
     0
171
     0
290
     0
174
     0
 93
       13
 44
0.0
173
     0
291
     1
 45
0.0
1001
ACAD
1000
AcDbSavedByObjectVersion
1070
     0
  0
VISUALSTYLE
  5
2D
102
{ACAD_REACTORS
330
2A
102
}
330
2A
100
AcDbVisualStyle
  2
Gouraud
 70
     2
 71
     2
 72
     2
 73
     1
 90
        2
 40
-0.6
 41
30.0
 62
     5
 63
     7
 74
     0
 91
        4
 64
     7
 65
   257
 75
     1
175
     1
 42
1.0
 92
        0
 66
     7
 43
1.0
 76
     1
 77
     6
 78
     2
 67
     7
 79
     5
170
     0
171
     0
290
     0
174
     0
 93
       13
 44
0.0
173
     0
291
     1
 45
0.0
1001
ACAD
1000
AcDbSavedByObjectVersion
1070
     0
  0
VISUALSTYLE
  5
2E
102
{ACAD_REACTORS
330
2A
102
}
330
2A
100
AcDbVisualStyle
  2
GouraudWithEdges
 70
     3
 71
     2
 72
     2
 73
     1
 90
        2
 40
-0.6
 41
30.0
 62
     5
 63
     7
 74
     1
 91
        4
 64
     7
 65
   257
 75
     1
175
     1
 42
1.0
 92
        0
 66
   257
 43
1.0
 76
     1
 77
     6
 78
     2
 67
     7
 79
     5
170
     0
171
     0
290
     0
174
     0
 93
       13
 44
0.0
173
     0
291
     1
 45
0.0
1001
ACAD
1000
AcDbSavedByObjectVersion
1070
     0
  0
VISUALSTYLE
  5
38
102
{ACAD_REACTORS
330
2A
102
}
330
2A
100
AcDbVisualStyle
  2
Linepattern
 70
    14
 71
     2
 72
     2
 73
     0
 90
        0
 40
-0.6
 41
-30.0
 62
     5
 63
     7
 74
     1
 91
        4
 64
     7
 65
   257
 75
     7
175
     7
 42
1.0
 92
        8
 66
     7
 43
1.0
 76
     1
 77
     6
 78
     2
 67
     7
 79
     5
170
     0
171
     0
290
     0
174
     0
 93
        1
 44
0.0
173
     0
291
     1
 45
0.0
1001
ACAD
1000
AcDbSavedByObjectVersion
1070
     0
  0
VISUALSTYLE
  5
33
102
{ACAD_REACTORS
330
2A
102
}
330
2A
100
AcDbVisualStyle
  2
Realistic
 70
     8
 71
     2
 72
     2
 73
     0
 90
        0
 40
-0.6
 41
-30.0
 62
     5
 63
     7
 74
     1
 91
        0
 64
     7
 65
   257
 75
     1
175
     1
 42
1.0
 92
        8
 66
     8
 43
1.0
 76
     1
 77
     6
 78
     2
 67
     7
 79
     5
170
     0
171
     0
290
     0
174
     0
 93
       13
 44
0.0
173
     0
291
     0
 45
0.0
1001
ACAD
1000
AcDbSavedByObjectVersion
1070
     0
  0
VISUALSTYLE
  5
37
102
{ACAD_REACTORS
330
2A
102
}
330
2A
100
AcDbVisualStyle
  2
Thicken
 70
    13
 71
     2
 72
     2
 73
     0
 90
        0
 40
-0.6
 41
-30.0
 62
     5
 63
     7
 74
     1
 91
        4
 64
     7
 65
   257
 75
     1
175
     1
 42
1.0
 92
       12
 66
     7
 43
1.0
 76
     1
 77
     6
 78
     2
 67
     7
 79
     5
170
     0
171
     0
290
     0
174
     0
 93
        1
 44
0.0
173
     0
291
     1
 45
0.0
1001
ACAD
1000
AcDbSavedByObjectVersion
1070
     0
  0
DICTIONARYVAR
  5
18B
102
{ACAD_REACTORS
330
18A
102
}
330
18A
100
DictionaryVariables
280
     0
  1
1:1
  0
DICTIONARYVAR
  5
18F
102
{ACAD_REACTORS
330
18A
102
}
330
18A
100
DictionaryVariables
280
     0
  1
80.000000
  0
DICTIONARYVAR
  5
18E
102
{ACAD_REACTORS
330
18A
102
}
330
18A
100
DictionaryVariables
280
     0
  1
5.000000
  0
ENDSEC
  0
EOF
