  0
SECTION
  2
HEADER
  9
$ACADVER
  1
AC1015
  9
$ACADMAINTVER
 70
     6
  9
$DWGCODEPAGE
  3
ANSI_1252
  9
$INSBASE
 10
0.0
 20
0.0
 30
0.0
  9
$EXTMIN
 10
0.0
 20
0.0
 30
0.0
  9
$EXTMAX
 10
1682.0
 20
2378.0
 30
0.0
  9
$LIMMIN
 10
0.0
 20
0.0
  9
$LIMMAX
 10
1682.0
 20
2378.0
  9
$ORTHOMODE
 70
     0
  9
$REGENMODE
 70
     1
  9
$FILLMODE
 70
     1
  9
$QTEXTMODE
 70
     0
  9
$MIRRTEXT
 70
     1
  9
$LTSCALE
 40
1.0
  9
$ATTMODE
 70
     1
  9
$TEXTSIZE
 40
2.5
  9
$TRACEWID
 40
1.0
  9
$TEXTSTYLE
  7
Standard
  9
$CLAYER
  8
0
  9
$CELTYPE
  6
ByLayer
  9
$CECOLOR
 62
   256
  9
$CELTSCALE
 40
1.0
  9
$DISPSILH
 70
     0
  9
$DIMSCALE
 40
1.0
  9
$DIMASZ
 40
2.5
  9
$DIMEXO
 40
0.625
  9
$DIMDLI
 40
3.75
  9
$DIMRND
 40
0.0
  9
$DIMDLE
 40
0.0
  9
$DIMEXE
 40
1.25
  9
$DIMTP
 40
0.0
  9
$DIMTM
 40
0.0
  9
$DIMTXT
 40
2.5
  9
$DIMCEN
 40
2.5
  9
$DIMTSZ
 40
0.0
  9
$DIMTOL
 70
     0
  9
$DIMLIM
 70
     0
  9
$DIMTIH
 70
     0
  9
$DIMTOH
 70
     0
  9
$DIMSE1
 70
     0
  9
$DIMSE2
 70
     0
  9
$DIMTAD
 70
     1
  9
$DIMZIN
 70
     8
  9
$DIMBLK
  1

  9
$DIMASO
 70
     1
  9
$DIMSHO
 70
     1
  9
$DIMPOST
  1

  9
$DIMAPOST
  1

  9
$DIMALT
 70
     0
  9
$DIMALTD
 70
     3
  9
$DIMALTF
 40
0.0393700787
  9
$DIMLFAC
 40
1.0
  9
$DIMTOFL
 70
     1
  9
$DIMTVP
 40
0.0
  9
$DIMTIX
 70
     0
  9
$DIMSOXD
 70
     0
  9
$DIMSAH
 70
     0
  9
$DIMBLK1
  1

  9
$DIMBLK2
  1

  9
$DIMSTYLE
  2
ISO-25
  9
$DIMCLRD
 70
     0
  9
$DIMCLRE
 70
     0
  9
$DIMCLRT
 70
     0
  9
$DIMTFAC
 40
1.0
  9
$DIMGAP
 40
0.625
  9
$DIMJUST
 70
     0
  9
$DIMSD1
 70
     0
  9
$DIMSD2
 70
     0
  9
$DIMTOLJ
 70
     0
  9
$DIMTZIN
 70
     8
  9
$DIMALTZ
 70
     0
  9
$DIMALTTZ
 70
     0
  9
$DIMUPT
 70
     0
  9
$DIMDEC
 70
     2
  9
$DIMTDEC
 70
     2
  9
$DIMALTU
 70
     2
  9
$DIMALTTD
 70
     3
  9
$DIMTXSTY
  7
Standard
  9
$DIMAUNIT
 70
     0
  9
$DIMADEC
 70
     0
  9
$DIMALTRND
 40
0.0
  9
$DIMAZIN
 70
     0
  9
$DIMDSEP
 70
    44
  9
$DIMATFIT
 70
     3
  9
$DIMFRAC
 70
     0
  9
$DIMLDRBLK
  1

  9
$DIMLUNIT
 70
     2
  9
$DIMLWD
 70
    -2
  9
$DIMLWE
 70
    -2
  9
$DIMTMOVE
 70
     0
  9
$LUNITS
 70
     2
  9
$LUPREC
 70
     4
  9
$SKETCHINC
 40
1.0
  9
$FILLETRAD
 40
10.0
  9
$AUNITS
 70
     0
  9
$AUPREC
 70
     0
  9
$MENU
  1
.
  9
$ELEVATION
 40
0.0
  9
$PELEVATION
 40
0.0
  9
$THICKNESS
 40
0.0
  9
$LIMCHECK
 70
     0
  9
$CHAMFERA
 40
10.0
  9
$CHAMFERB
 40
10.0
  9
$CHAMFERC
 40
20.0
  9
$CHAMFERD
 40
0.0
  9
$SKPOLY
 70
     0
  9
$TDCREATE
 40
2455453.45119162
  9
$TDUCREATE
 40
2455453.367858287
  9
$TDUPDATE
 40
2455453.451191632
  9
$TDUUPDATE
 40
2455453.367858299
  9
$TDINDWG
 40
0.0000000116
  9
$TDUSRTIMER
 40
0.0000000116
  9
$USRTIMER
 70
     1
  9
$ANGBASE
 50
0.0
  9
$ANGDIR
 70
     0
  9
$PDMODE
 70
     0
  9
$PDSIZE
 40
0.0
  9
$PLINEWID
 40
0.0
  9
$SPLFRAME
 70
     0
  9
$SPLINETYPE
 70
     6
  9
$SPLINESEGS
 70
     8
  9
$HANDSEED
  5
107
  9
$SURFTAB1
 70
     6
  9
$SURFTAB2
 70
     6
  9
$SURFTYPE
 70
     6
  9
$SURFU
 70
     6
  9
$SURFV
 70
     6
  9
$UCSBASE
  2

  9
$UCSNAME
  2

  9
$UCSORG
 10
0.0
 20
0.0
 30
0.0
  9
$UCSXDIR
 10
1.0
 20
0.0
 30
0.0
  9
$UCSYDIR
 10
0.0
 20
1.0
 30
0.0
  9
$UCSORTHOREF
  2

  9
$UCSORTHOVIEW
 70
     0
  9
$UCSORGTOP
 10
0.0
 20
0.0
 30
0.0
  9
$UCSORGBOTTOM
 10
0.0
 20
0.0
 30
0.0
  9
$UCSORGLEFT
 10
0.0
 20
0.0
 30
0.0
  9
$UCSORGRIGHT
 10
0.0
 20
0.0
 30
0.0
  9
$UCSORGFRONT
 10
0.0
 20
0.0
 30
0.0
  9
$UCSORGBACK
 10
0.0
 20
0.0
 30
0.0
  9
$PUCSBASE
  2

  9
$PUCSNAME
  2

  9
$PUCSORG
 10
0.0
 20
0.0
 30
0.0
  9
$PUCSXDIR
 10
1.0
 20
0.0
 30
0.0
  9
$PUCSYDIR
 10
0.0
 20
1.0
 30
0.0
  9
$PUCSORTHOREF
  2

  9
$PUCSORTHOVIEW
 70
     0
  9
$PUCSORGTOP
 10
0.0
 20
0.0
 30
0.0
  9
$PUCSORGBOTTOM
 10
0.0
 20
0.0
 30
0.0
  9
$PUCSORGLEFT
 10
0.0
 20
0.0
 30
0.0
  9
$PUCSORGRIGHT
 10
0.0
 20
0.0
 30
0.0
  9
$PUCSORGFRONT
 10
0.0
 20
0.0
 30
0.0
  9
$PUCSORGBACK
 10
0.0
 20
0.0
 30
0.0
  9
$USERI1
 70
     0
  9
$USERI2
 70
     0
  9
$USERI3
 70
     0
  9
$USERI4
 70
     0
  9
$USERI5
 70
     0
  9
$USERR1
 40
0.0
  9
$USERR2
 40
0.0
  9
$USERR3
 40
0.0
  9
$USERR4
 40
0.0
  9
$USERR5
 40
0.0
  9
$WORLDVIEW
 70
     1
  9
$SHADEDGE
 70
     3
  9
$SHADEDIF
 70
    70
  9
$TILEMODE
 70
     1
  9
$MAXACTVP
 70
    64
  9
$PINSBASE
 10
0.0
 20
0.0
 30
0.0
  9
$PLIMCHECK
 70
     0
  9
$PEXTMIN
 10
0.0
 20
0.0
 30
0.0
  9
$PEXTMAX
 10
1682.0
 20
2378.0
 30
0.0
  9
$PLIMMIN
 10
0.0
 20
0.0
  9
$PLIMMAX
 10
1682.0
 20
2378.0
  9
$UNITMODE
 70
     0
  9
$VISRETAIN
 70
     1
  9
$PLINEGEN
 70
     0
  9
$PSLTSCALE
 70
     1
  9
$TREEDEPTH
 70
  3020
  9
$CMLSTYLE
  2
Standard
  9
$CMLJUST
 70
     0
  9
$CMLSCALE
 40
20.0
  9
$PROXYGRAPHICS
 70
     1
  9
$MEASUREMENT
 70
     1
  9
$CELWEIGHT
370
    -1
  9
$ENDCAPS
280
     0
  9
$JOINSTYLE
280
     0
  9
$LWDISPLAY
290
     0
  9
$INSUNITS
 70
     4
  9
$HYPERLINKBASE
  1

  9
$STYLESHEET
  1

  9
$XEDIT
290
     1
  9
$CEPSNTYPE
380
     0
  9
$PSTYLEMODE
290
     1
  9
$FINGERPRINTGUID
  2
{18F9EE9C-337B-4B30-88C3-8286DE02DCE8}
  9
$VERSIONGUID
  2
{FAEB1C32-E019-11D5-929B-00C0DF256EC4}
  9
$EXTNAMES
290
     1
  9
$PSVPSCALE
 40
0.0
  9
$OLESTARTUP
290
     0
  0
ENDSEC
  0
SECTION
  2
CLASSES
  0
CLASS
  1
ACDBDICTIONARYWDFLT
  2
AcDbDictionaryWithDefault
  3
ObjectDBX Classes
 90
        0
280
     0
281
     0
  0
CLASS
  1
VISUALSTYLE
  2
AcDbVisualStyle
  3
ObjectDBX Classes
 90
     4095
280
     0
281
     0
  0
CLASS
  1
SCALE
  2
AcDbScale
  3
ObjectDBX Classes
 90
     1153
280
     0
281
     0
  0
CLASS
  1
DICTIONARYVAR
  2
AcDbDictionaryVar
  3
ObjectDBX Classes
 90
        0
280
     0
281
     0
  0
CLASS
  1
ACDBPLACEHOLDER
  2
AcDbPlaceHolder
  3
ObjectDBX Classes
 90
        0
280
     0
281
     0
  0
CLASS
  1
LAYOUT
  2
AcDbLayout
  3
ObjectDBX Classes
 90
        0
280
     0
281
     0
  0
ENDSEC
  0
SECTION
  2
TABLES
  0
TABLE
  2
VPORT
  5
8
330
0
100
AcDbSymbolTable
 70
     1
  0
VPORT
  5
29
330
8
100
AcDbSymbolTableRecord
100
AcDbViewportTableRecord
  2
*Active
 70
     0
 10
0.0
 20
0.0
 11
1.0
 21
1.0
 12
344.1869158879
 22
148.5
 13
0.0
 23
0.0
 14
10.0
 24
10.0
 15
10.0
 25
10.0
 16
0.0
 26
0.0
 36
1.0
 17
0.0
 27
0.0
 37
0.0
 40
297.0
 41
1.9729729729
 42
50.0
 43
0.0
 44
0.0
 50
0.0
 51
0.0
 71
     0
 72
   100
 73
     1
 74
     3
 75
     0
 76
     0
 77
     0
 78
     0
281
     0
 65
     1
110
0.0
120
0.0
130
0.0
111
1.0
121
0.0
131
0.0
112
0.0
122
1.0
132
0.0
 79
     0
146
0.0
  0
ENDTAB
  0
TABLE
  2
LTYPE
  5
5
330
0
100
AcDbSymbolTable
 70
     2
  0
LTYPE
  5
14
330
5
100
AcDbSymbolTableRecord
100
AcDbLinetypeTableRecord
  2
ByBlock
 70
     0
  3

 72
    65
 73
     0
 40
0.0
  0
LTYPE
  5
15
330
5
100
AcDbSymbolTableRecord
100
AcDbLinetypeTableRecord
  2
ByLayer
 70
     0
  3

 72
    65
 73
     0
 40
0.0
  0
LTYPE
  5
16
330
5
100
AcDbSymbolTableRecord
100
AcDbLinetypeTableRecord
  2
Continuous
 70
     0
  3
Solid line
 72
    65
 73
     0
 40
0.0
  0
LTYPE
  5
60
330
5
100
AcDbSymbolTableRecord
100
AcDbLinetypeTableRecord
  2
CENTER2
 70
     0
  3
Center (.5x) ___ _ ___ _ ___ _ ___ _ ___ _ ___
 72
    65
 73
     4
 40
28.575
 49
19.05
 74
     4
 75
     0
340
0
 46
0.0
 50
0.0
 44
0.0
 45
0.0
 49
-3.175
 74
     4
 75
     0
340
0
 46
0.0
 50
0.0
 44
0.0
 45
0.0
 49
3.175
 74
     4
 75
     0
340
0
 46
0.0
 50
0.0
 44
0.0
 45
0.0
 49
-3.175
 74
     4
 75
     0
340
0
 46
0.0
 50
0.0
 44
0.0
 45
0.0
  0
ENDTAB
  0
TABLE
  2
LAYER
  5
2
330
0
100
AcDbSymbolTable
 70
     3
  0
LAYER
  5
10
330
2
100
AcDbSymbolTableRecord
100
AcDbLayerTableRecord
  2
0
 70
     0
 62
     7
  6
Continuous
370
    -3
390
F
  0
LAYER
  5
5D
330
2
100
AcDbSymbolTableRecord
100
AcDbLayerTableRecord
  2
Default
 70
     0
 62
     7
  6
Continuous
370
    -3
390
F
  0
LAYER
  5
87
330
2
100
AcDbSymbolTableRecord
100
AcDbLayerTableRecord
  2
40366000_HALT_BA
 70
     0
 62
     7
  6
Continuous
370
    -3
390
F
  0
ENDTAB
  0
TABLE
  2
STYLE
  5
3
330
0
100
AcDbSymbolTable
 70
     2
  0
STYLE
  5
11
330
3
100
AcDbSymbolTableRecord
100
AcDbTextStyleTableRecord
  2
Standard
 70
     0
 40
0.0
 41
1.0
 50
0.0
 71
     0
 42
2.5
  3
txt
  4

  0
STYLE
  5
F6
330
3
100
AcDbSymbolTableRecord
100
AcDbTextStyleTableRecord
  2
SEACAD_seiso_ttf
 70
     0
 40
0.0
 41
1.0
 50
0.0
 71
     0
 42
0.2
  3
seiso.ttf
  4

  0
ENDTAB
  0
TABLE
  2
VIEW
  5
6
330
0
100
AcDbSymbolTable
 70
     0
  0
ENDTAB
  0
TABLE
  2
UCS
  5
7
330
0
100
AcDbSymbolTable
 70
     0
  0
ENDTAB
  0
TABLE
  2
APPID
  5
9
330
0
100
AcDbSymbolTable
 70
     1
  0
APPID
  5
12
330
9
100
AcDbSymbolTableRecord
100
AcDbRegAppTableRecord
  2
ACAD
 70
     0
  0
ENDTAB
  0
TABLE
  2
DIMSTYLE
  5
A
330
0
100
AcDbSymbolTable
 70
     1
100
AcDbDimStyleTable
  0
DIMSTYLE
105
27
330
A
100
AcDbSymbolTableRecord
100
AcDbDimStyleTableRecord
  2
ISO-25
 70
     0
 41
2.5
 42
0.625
 43
3.75
 44
1.25
 73
     0
 74
     0
 77
     1
 78
     8
140
2.5
141
2.5
143
0.0393700787
147
0.625
171
     3
172
     1
271
     2
272
     2
274
     3
278
    44
283
     0
284
     8
340
11
  0
ENDTAB
  0
TABLE
  2
BLOCK_RECORD
  5
1
330
0
100
AcDbSymbolTable
 70
     9
  0
BLOCK_RECORD
  5
1F
330
1
100
AcDbSymbolTableRecord
100
AcDbBlockTableRecord
  2
*Model_Space
340
22
  0
BLOCK_RECORD
  5
1B
330
1
100
AcDbSymbolTableRecord
100
AcDbBlockTableRecord
  2
*Paper_Space
340
1E
  0
BLOCK_RECORD
  5
5E
330
1
100
AcDbSymbolTableRecord
100
AcDbBlockTableRecord
  2
SEANNOT_GROUP
340
0
102
{BLKREFS
331
5F
102
}
  0
BLOCK_RECORD
  5
69
330
1
100
AcDbSymbolTableRecord
100
AcDbBlockTableRecord
  2
SEANNOT_GROUP1
340
0
102
{BLKREFS
331
6A
102
}
  0
BLOCK_RECORD
  5
73
330
1
100
AcDbSymbolTableRecord
100
AcDbBlockTableRecord
  2
SEANNOT_GROUP2
340
0
102
{BLKREFS
331
74
102
}
  0
BLOCK_RECORD
  5
79
330
1
100
AcDbSymbolTableRecord
100
AcDbBlockTableRecord
  2
SEANNOT_GROUP3
340
0
102
{BLKREFS
331
7A
102
}
  0
BLOCK_RECORD
  5
7F
330
1
100
AcDbSymbolTableRecord
100
AcDbBlockTableRecord
  2
SEANNOT_GROUP4
340
0
102
{BLKREFS
331
80
102
}
  0
BLOCK_RECORD
  5
85
330
1
100
AcDbSymbolTableRecord
100
AcDbBlockTableRecord
  2
SE
340
0
102
{BLKREFS
331
86
102
}
  0
BLOCK_RECORD
  5
94
330
1
100
AcDbSymbolTableRecord
100
AcDbBlockTableRecord
  2
SE1
340
0
102
{BLKREFS
331
95
102
}
  0
BLOCK_RECORD
  5
B4
330
1
100
AcDbSymbolTableRecord
100
AcDbBlockTableRecord
  2
SE2
340
0
102
{BLKREFS
331
B5
102
}
  0
ENDTAB
  0
ENDSEC
  0
SECTION
  2
BLOCKS
  0
BLOCK
  5
20
330
1F
100
AcDbEntity
  8
0
100
AcDbBlockBegin
  2
*Model_Space
 70
     0
 10
0.0
 20
0.0
 30
0.0
  3
*Model_Space
  1

  0
ENDBLK
  5
21
330
1F
100
AcDbEntity
  8
0
100
AcDbBlockEnd
  0
BLOCK
  5
1C
330
1B
100
AcDbEntity
 67
     1
  8
0
100
AcDbBlockBegin
  2
*Paper_Space
 70
     0
 10
0.0
 20
0.0
 30
0.0
  3
*Paper_Space
  1

  0
ENDBLK
  5
1D
330
1B
100
AcDbEntity
 67
     1
  8
0
100
AcDbBlockEnd
  0
BLOCK
  5
67
330
5E
100
AcDbEntity
  8
0
100
AcDbBlockBegin
  2
SEANNOT_GROUP
 70
     0
 10
0.0
 20
0.0
 30
0.0
  3
SEANNOT_GROUP
  1

  0
LINE
  5
61
330
5E
100
AcDbEntity
  8
Default
  6
CENTER2
 62
     7
100
AcDbLine
 10
53.349999553
 20
256.048995
 30
0.0
 11
13.350000447
 21
256.048995
 31
0.0
  0
LINE
  5
62
330
5E
100
AcDbEntity
  8
Default
  6
CENTER2
 62
     7
100
AcDbLine
 10
33.35
 20
276.048994553
 30
0.0
 11
33.35
 21
236.048995447
 31
0.0
  0
LINE
  5
63
330
5E
100
AcDbEntity
  8
Default
  6
CENTER2
 62
     7
100
AcDbLine
 10
58.3499994412
 20
256.048995
 30
0.0
 11
63.85
 21
256.048995
 31
0.0
  0
LINE
  5
64
330
5E
100
AcDbEntity
  8
Default
  6
CENTER2
 62
     7
100
AcDbLine
 10
33.35
 20
281.0489944412
 30
0.0
 11
33.35
 21
286.548995
 31
0.0
  0
LINE
  5
65
330
5E
100
AcDbEntity
  8
Default
  6
CENTER2
 62
     7
100
AcDbLine
 10
8.3500005588
 20
256.048995
 30
0.0
 11
2.85
 21
256.048995
 31
0.0
  0
LINE
  5
66
330
5E
100
AcDbEntity
  8
Default
  6
CENTER2
 62
     7
100
AcDbLine
 10
33.35
 20
231.0489955588
 30
0.0
 11
33.35
 21
225.548995
 31
0.0
  0
ENDBLK
  5
68
330
5E
100
AcDbEntity
  8
0
100
AcDbBlockEnd
  0
BLOCK
  5
71
330
69
100
AcDbEntity
  8
0
100
AcDbBlockBegin
  2
SEANNOT_GROUP1
 70
     0
 10
0.0
 20
0.0
 30
0.0
  3
SEANNOT_GROUP1
  1

  0
LINE
  5
6B
330
69
100
AcDbEntity
  8
Default
  6
CENTER2
 62
     7
100
AcDbLine
 10
853.349999553
 20
256.048995
 30
0.0
 11
813.350000447
 21
256.048995
 31
0.0
  0
LINE
  5
6C
330
69
100
AcDbEntity
  8
Default
  6
CENTER2
 62
     7
100
AcDbLine
 10
833.35
 20
276.048994553
 30
0.0
 11
833.35
 21
236.048995447
 31
0.0
  0
LINE
  5
6D
330
69
100
AcDbEntity
  8
Default
  6
CENTER2
 62
     7
100
AcDbLine
 10
858.3499994412
 20
256.048995
 30
0.0
 11
863.8496479269
 21
256.048995
 31
0.0
  0
LINE
  5
6E
330
69
100
AcDbEntity
  8
Default
  6
CENTER2
 62
     7
100
AcDbLine
 10
833.35
 20
281.0489944412
 30
0.0
 11
833.35
 21
286.5486429269
 31
0.0
  0
LINE
  5
6F
330
69
100
AcDbEntity
  8
Default
  6
CENTER2
 62
     7
100
AcDbLine
 10
808.3500005588
 20
256.048995
 30
0.0
 11
802.8503520731
 21
256.048995
 31
0.0
  0
LINE
  5
70
330
69
100
AcDbEntity
  8
Default
  6
CENTER2
 62
     7
100
AcDbLine
 10
833.35
 20
231.0489955588
 30
0.0
 11
833.35
 21
225.5493470731
 31
0.0
  0
ENDBLK
  5
72
330
69
100
AcDbEntity
  8
0
100
AcDbBlockEnd
  0
BLOCK
  5
77
330
73
100
AcDbEntity
  8
0
100
AcDbBlockBegin
  2
SEANNOT_GROUP2
 70
     0
 10
0.0
 20
0.0
 30
0.0
  3
SEANNOT_GROUP2
  1

  0
LINE
  5
75
330
73
100
AcDbEntity
  8
Default
  6
CENTER2
 62
     7
100
AcDbLine
 10
53.349999553
 20
166.348995
 30
0.0
 11
13.350000447
 21
166.348995
 31
0.0
  0
LINE
  5
76
330
73
100
AcDbEntity
  8
Default
  6
CENTER2
 62
     7
100
AcDbLine
 10
33.35
 20
186.348994553
 30
0.0
 11
33.35
 21
146.348995447
 31
0.0
  0
ENDBLK
  5
78
330
73
100
AcDbEntity
  8
0
100
AcDbBlockEnd
  0
BLOCK
  5
7D
330
79
100
AcDbEntity
  8
0
100
AcDbBlockBegin
  2
SEANNOT_GROUP3
 70
     0
 10
0.0
 20
0.0
 30
0.0
  3
SEANNOT_GROUP3
  1

  0
LINE
  5
7B
330
79
100
AcDbEntity
  8
Default
  6
CENTER2
 62
     7
100
AcDbLine
 10
853.349999553
 20
166.348995
 30
0.0
 11
813.350000447
 21
166.348995
 31
0.0
  0
LINE
  5
7C
330
79
100
AcDbEntity
  8
Default
  6
CENTER2
 62
     7
100
AcDbLine
 10
833.35
 20
186.348994553
 30
0.0
 11
833.35
 21
146.348995447
 31
0.0
  0
ENDBLK
  5
7E
330
79
100
AcDbEntity
  8
0
100
AcDbBlockEnd
  0
BLOCK
  5
83
330
7F
100
AcDbEntity
  8
0
100
AcDbBlockBegin
  2
SEANNOT_GROUP4
 70
     0
 10
0.0
 20
0.0
 30
0.0
  3
SEANNOT_GROUP4
  1

  0
LINE
  5
81
330
7F
100
AcDbEntity
  8
Default
  6
CENTER2
 62
     7
100
AcDbLine
 10
943.049999553
 20
256.048995
 30
0.0
 11
903.050000447
 21
256.048995
 31
0.0
  0
LINE
  5
82
330
7F
100
AcDbEntity
  8
Default
  6
CENTER2
 62
     7
100
AcDbLine
 10
923.05
 20
276.048994553
 30
0.0
 11
923.05
 21
236.048995447
 31
0.0
  0
ENDBLK
  5
84
330
7F
100
AcDbEntity
  8
0
100
AcDbBlockEnd
  0
BLOCK
  5
92
330
85
100
AcDbEntity
  8
0
100
AcDbBlockBegin
  2
SE
 70
     0
 10
0.0
 20
0.0
 30
0.0
  3
SE
  1

  0
ARC
  5
88
330
85
100
AcDbEntity
  8
40366000_HALT_BA
  6
Continuous
 62
     7
100
AcDbCircle
 10
33.35
 20
256.048995
 30
0.0
 40
26.99999999999994
100
AcDbArc
 50
12.8395884069
 51
347.1604115931
  0
CIRCLE
  5
89
330
85
100
AcDbEntity
  8
40366000_HALT_BA
  6
Continuous
 62
     7
100
AcDbCircle
 10
33.35
 20
256.048995
 30
0.0
 40
8.99999999999998
  0
ARC
  5
8A
330
85
100
AcDbEntity
  8
40366000_HALT_BA
  6
Continuous
 62
     7
100
AcDbCircle
 10
33.35
 20
256.048995
 30
0.0
 40
26.99964792688644
100
AcDbArc
 50
12.8397586942
 51
347.1602413058
  0
ARC
  5
8B
330
85
100
AcDbEntity
  8
40366000_HALT_BA
  6
Continuous
 62
     7
100
AcDbCircle
 10
833.35
 20
256.048995
 30
0.0
 40
26.99964792688644
100
AcDbArc
 50
0.0
 51
167.1602413058
  0
ARC
  5
8C
330
85
100
AcDbEntity
  8
40366000_HALT_BA
  6
Continuous
 62
     7
100
AcDbCircle
 10
833.35
 20
256.048995
 30
0.0
 40
26.99964792688644
100
AcDbArc
 50
192.8397586942
 51
0.0
  0
CIRCLE
  5
8D
330
85
100
AcDbEntity
  8
40366000_HALT_BA
  6
Continuous
 62
     7
100
AcDbCircle
 10
833.35
 20
256.048995
 30
0.0
 40
8.99999999999998
  0
ARC
  5
8E
330
85
100
AcDbEntity
  8
40366000_HALT_BA
  6
Continuous
 62
     7
100
AcDbCircle
 10
833.35
 20
256.048995
 30
0.0
 40
26.99999999999994
100
AcDbArc
 50
0.0
 51
167.1604115931
  0
ARC
  5
8F
330
85
100
AcDbEntity
  8
40366000_HALT_BA
  6
Continuous
 62
     7
100
AcDbCircle
 10
833.35
 20
256.048995
 30
0.0
 40
26.99999999999994
100
AcDbArc
 50
192.8395884069
 51
0.0
  0
LINE
  5
90
330
85
100
AcDbEntity
  8
40366000_HALT_BA
  6
Continuous
 62
     7
100
AcDbLine
 10
40.0582039325
 20
250.048995
 30
0.0
 11
826.6417960675
 21
250.048995
 31
0.0
  0
LINE
  5
91
330
85
100
AcDbEntity
  8
40366000_HALT_BA
  6
Continuous
 62
     7
100
AcDbLine
 10
826.6333447019
 20
262.048995
 30
0.0
 11
40.0666405332
 21
262.048995
 31
0.0
  0
ENDBLK
  5
93
330
85
100
AcDbEntity
  8
0
100
AcDbBlockEnd
  0
BLOCK
  5
B2
330
94
100
AcDbEntity
  8
0
100
AcDbBlockBegin
  2
SE1
 70
     0
 10
0.0
 20
0.0
 30
0.0
  3
SE1
  1

  0
LINE
  5
96
330
94
100
AcDbEntity
  8
40366000_HALT_BA
  6
Continuous
 62
     7
100
AcDbLine
 10
923.05
 20
229.048995
 30
0.0
 11
923.05
 21
283.048995
 31
0.0
  0
LINE
  5
97
330
94
100
AcDbEntity
  8
40366000_HALT_BA
  6
Continuous
 62
     7
100
AcDbLine
 10
983.048995
 20
247.048995
 30
0.0
 11
983.048995
 21
265.048995
 31
0.0
  0
LINE
  5
98
330
94
100
AcDbEntity
  8
40366000_HALT_BA
  6
Continuous
 62
     7
100
AcDbLine
 10
970.049215
 20
265.048995
 30
0.0
 11
970.049215
 21
247.048995
 31
0.0
  0
LINE
  5
99
330
94
100
AcDbEntity
  8
40366000_HALT_BA
  6
Continuous
 62
     7
100
AcDbLine
 10
969.06634
 20
264.548995
 30
0.0
 11
969.06634
 21
247.548995
 31
0.0
  0
LINE
  5
9A
330
94
100
AcDbEntity
  8
40366000_HALT_BA
  6
Continuous
 62
     7
100
AcDbLine
 10
969.04923
 20
265.048995
 30
0.0
 11
969.04923
 21
247.048995
 31
0.0
  0
LINE
  5
9B
330
94
100
AcDbEntity
  8
40366000_HALT_BA
  6
Continuous
 62
     7
100
AcDbLine
 10
967.049265
 20
265.048995
 30
0.0
 11
967.049265
 21
247.048995
 31
0.0
  0
LINE
  5
9C
330
94
100
AcDbEntity
  8
40366000_HALT_BA
  6
Continuous
 62
     7
100
AcDbLine
 10
966.066395
 20
264.548995
 30
0.0
 11
966.066395
 21
247.548995
 31
0.0
  0
LINE
  5
9D
330
94
100
AcDbEntity
  8
40366000_HALT_BA
  6
Continuous
 62
     7
100
AcDbLine
 10
966.04928
 20
265.048995
 30
0.0
 11
966.04928
 21
247.048995
 31
0.0
  0
LINE
  5
9E
330
94
100
AcDbEntity
  8
40366000_HALT_BA
  6
Continuous
 62
     7
100
AcDbLine
 10
933.1970971693
 20
247.048995
 30
0.0
 11
933.1970971693
 21
265.048995
 31
0.0
  0
LINE
  5
9F
330
94
100
AcDbEntity
  8
40366000_HALT_BA
  6
Continuous
 62
     7
100
AcDbLine
 10
933.0503940475
 20
229.0493470731
 30
0.0
 11
933.0503940475
 21
283.0486429269
 31
0.0
  0
LINE
  5
A0
330
94
100
AcDbEntity
  8
40366000_HALT_BA
  6
Continuous
 62
     7
100
AcDbLine
 10
983.048995
 20
265.048995
 30
0.0
 11
970.049215
 21
265.048995
 31
0.0
  0
LINE
  5
A1
330
94
100
AcDbEntity
  8
40366000_HALT_BA
  6
Continuous
 62
     7
100
AcDbLine
 10
970.049215
 20
247.048995
 30
0.0
 11
983.048995
 21
247.048995
 31
0.0
  0
LINE
  5
A2
330
94
100
AcDbEntity
  8
40366000_HALT_BA
  6
Continuous
 62
     7
100
AcDbLine
 10
970.049215
 20
264.548995
 30
0.0
 11
969.06634
 21
264.548995
 31
0.0
  0
LINE
  5
A3
330
94
100
AcDbEntity
  8
40366000_HALT_BA
  6
Continuous
 62
     7
100
AcDbLine
 10
969.06634
 20
247.548995
 30
0.0
 11
970.049215
 21
247.548995
 31
0.0
  0
LINE
  5
A4
330
94
100
AcDbEntity
  8
40366000_HALT_BA
  6
Continuous
 62
     7
100
AcDbLine
 10
969.04923
 20
247.048995
 30
0.0
 11
969.06634
 21
247.548995
 31
0.0
  0
LINE
  5
A5
330
94
100
AcDbEntity
  8
40366000_HALT_BA
  6
Continuous
 62
     7
100
AcDbLine
 10
969.06634
 20
264.548995
 30
0.0
 11
969.04923
 21
265.048995
 31
0.0
  0
LINE
  5
A6
330
94
100
AcDbEntity
  8
40366000_HALT_BA
  6
Continuous
 62
     7
100
AcDbLine
 10
969.04923
 20
265.048995
 30
0.0
 11
967.049265
 21
265.048995
 31
0.0
  0
LINE
  5
A7
330
94
100
AcDbEntity
  8
40366000_HALT_BA
  6
Continuous
 62
     7
100
AcDbLine
 10
967.049265
 20
247.048995
 30
0.0
 11
969.04923
 21
247.048995
 31
0.0
  0
LINE
  5
A8
330
94
100
AcDbEntity
  8
40366000_HALT_BA
  6
Continuous
 62
     7
100
AcDbLine
 10
967.049265
 20
264.548995
 30
0.0
 11
966.066395
 21
264.548995
 31
0.0
  0
LINE
  5
A9
330
94
100
AcDbEntity
  8
40366000_HALT_BA
  6
Continuous
 62
     7
100
AcDbLine
 10
966.066395
 20
247.548995
 30
0.0
 11
967.049265
 21
247.548995
 31
0.0
  0
LINE
  5
AA
330
94
100
AcDbEntity
  8
40366000_HALT_BA
  6
Continuous
 62
     7
100
AcDbLine
 10
966.04928
 20
247.048995
 30
0.0
 11
966.066395
 21
247.548995
 31
0.0
  0
LINE
  5
AB
330
94
100
AcDbEntity
  8
40366000_HALT_BA
  6
Continuous
 62
     7
100
AcDbLine
 10
966.066395
 20
264.548995
 30
0.0
 11
966.04928
 21
265.048995
 31
0.0
  0
LINE
  5
AC
330
94
100
AcDbEntity
  8
40366000_HALT_BA
  6
Continuous
 62
     7
100
AcDbLine
 10
966.04928
 20
265.048995
 30
0.0
 11
933.1970971693
 21
265.048995
 31
0.0
  0
LINE
  5
AD
330
94
100
AcDbEntity
  8
40366000_HALT_BA
  6
Continuous
 62
     7
100
AcDbLine
 10
933.1970971693
 20
247.048995
 30
0.0
 11
966.04928
 21
247.048995
 31
0.0
  0
ELLIPSE
  5
AE
330
94
100
AcDbEntity
  8
40366000_HALT_BA
  6
Continuous
 62
     7
100
AcDbEllipse
 10
933.04983
 20
256.048995
 30
0.0
 11
0.0
 21
9.001204787091286
 31
0.0
210
0.0
220
0.0
230
1.0
 40
1.0
 41
-0.0163615586548302
 42
-0.0000208909209534
  0
ELLIPSE
  5
AF
330
94
100
AcDbEntity
  8
40366000_HALT_BA
  6
Continuous
 62
     7
100
AcDbEllipse
 10
933.04983
 20
256.048995
 30
0.0
 11
-1.653262399613221E-15
 21
-26.99982396172165
 31
0.0
210
0.0
220
0.0
230
1.0
 40
0.0057852432
 41
0.0036110547780698
 42
1.230957112179239
  0
LINE
  5
B0
330
94
100
AcDbEntity
  8
40366000_HALT_BA
  6
Continuous
 62
     7
100
AcDbLine
 10
923.05
 20
229.048995
 30
0.0
 11
933.0503940475
 21
229.0493470731
 31
0.0
  0
LINE
  5
B1
330
94
100
AcDbEntity
  8
40366000_HALT_BA
  6
Continuous
 62
     7
100
AcDbLine
 10
933.0503940475
 20
283.0486429269
 30
0.0
 11
923.05
 21
283.048995
 31
0.0
  0
ENDBLK
  5
B3
330
94
100
AcDbEntity
  8
0
100
AcDbBlockEnd
  0
BLOCK
  5
F4
330
B4
100
AcDbEntity
  8
0
100
AcDbBlockBegin
  2
SE2
 70
     0
 10
0.0
 20
0.0
 30
0.0
  3
SE2
  1

  0
LINE
  5
B6
330
B4
100
AcDbEntity
  8
40366000_HALT_BA
  6
Continuous
 62
     7
100
AcDbLine
 10
60.35
 20
166.348995
 30
0.0
 11
6.35
 21
166.348995
 31
0.0
  0
LINE
  5
B7
330
B4
100
AcDbEntity
  8
40366000_HALT_BA
  6
Continuous
 62
     7
100
AcDbLine
 10
42.35
 20
106.35
 30
0.0
 11
24.35
 21
106.35
 31
0.0
  0
LINE
  5
B8
330
B4
100
AcDbEntity
  8
40366000_HALT_BA
  6
Continuous
 62
     7
100
AcDbLine
 10
40.3498302953
 20
119.34978
 30
0.0
 11
24.35
 21
119.34978
 31
0.0
  0
LINE
  5
B9
330
B4
100
AcDbEntity
  8
40366000_HALT_BA
  6
Continuous
 62
     7
100
AcDbLine
 10
39.4560081213
 20
120.332655
 30
0.0
 11
24.85
 21
120.332655
 31
0.0
  0
LINE
  5
BA
330
B4
100
AcDbEntity
  8
40366000_HALT_BA
  6
Continuous
 62
     7
100
AcDbLine
 10
40.1322446314
 20
120.349765
 30
0.0
 11
24.35
 21
120.349765
 31
0.0
  0
LINE
  5
BB
330
B4
100
AcDbEntity
  8
40366000_HALT_BA
  6
Continuous
 62
     7
100
AcDbLine
 10
40.1324102199
 20
122.34973
 30
0.0
 11
24.35
 21
122.34973
 31
0.0
  0
LINE
  5
BC
330
B4
100
AcDbEntity
  8
40366000_HALT_BA
  6
Continuous
 62
     7
100
AcDbLine
 10
39.6890796875
 20
123.3326
 30
0.0
 11
24.85
 21
123.3326
 31
0.0
  0
LINE
  5
BD
330
B4
100
AcDbEntity
  8
40366000_HALT_BA
  6
Continuous
 62
     7
100
AcDbLine
 10
40.3501511748
 20
123.349715
 30
0.0
 11
24.35
 21
123.349715
 31
0.0
  0
LINE
  5
BE
330
B4
100
AcDbEntity
  8
40366000_HALT_BA
  6
Continuous
 62
     7
100
AcDbLine
 10
42.35
 20
156.2018978307
 30
0.0
 11
24.35
 21
156.2018978307
 31
0.0
  0
LINE
  5
BF
330
B4
100
AcDbEntity
  8
40366000_HALT_BA
  6
Continuous
 62
     7
100
AcDbLine
 10
60.3496479269
 20
156.3486009525
 30
0.0
 11
6.3503520731
 21
156.3486009525
 31
0.0
  0
LINE
  5
C0
330
B4
100
AcDbEntity
  8
40366000_HALT_BA
  6
Continuous
 62
     7
100
AcDbLine
 10
806.3503520731
 20
156.3486009525
 30
0.0
 11
860.3496479269
 21
156.3486009525
 31
0.0
  0
LINE
  5
C1
330
B4
100
AcDbEntity
  8
40366000_HALT_BA
  6
Continuous
 62
     7
100
AcDbLine
 10
824.35
 20
156.2018978307
 30
0.0
 11
842.35
 21
156.2018978307
 31
0.0
  0
LINE
  5
C2
330
B4
100
AcDbEntity
  8
40366000_HALT_BA
  6
Continuous
 62
     7
100
AcDbLine
 10
826.3498488252
 20
123.349715
 30
0.0
 11
842.35
 21
123.349715
 31
0.0
  0
LINE
  5
C3
330
B4
100
AcDbEntity
  8
40366000_HALT_BA
  6
Continuous
 62
     7
100
AcDbLine
 10
827.0109203125
 20
123.3326
 30
0.0
 11
841.85
 21
123.3326
 31
0.0
  0
LINE
  5
C4
330
B4
100
AcDbEntity
  8
40366000_HALT_BA
  6
Continuous
 62
     7
100
AcDbLine
 10
826.5675897801
 20
122.34973
 30
0.0
 11
842.35
 21
122.34973
 31
0.0
  0
LINE
  5
C5
330
B4
100
AcDbEntity
  8
40366000_HALT_BA
  6
Continuous
 62
     7
100
AcDbLine
 10
826.5677553686
 20
120.349765
 30
0.0
 11
842.35
 21
120.349765
 31
0.0
  0
LINE
  5
C6
330
B4
100
AcDbEntity
  8
40366000_HALT_BA
  6
Continuous
 62
     7
100
AcDbLine
 10
827.2439918787
 20
120.332655
 30
0.0
 11
841.85
 21
120.332655
 31
0.0
  0
LINE
  5
C7
330
B4
100
AcDbEntity
  8
40366000_HALT_BA
  6
Continuous
 62
     7
100
AcDbLine
 10
826.3501697047
 20
119.34978
 30
0.0
 11
842.35
 21
119.34978
 31
0.0
  0
LINE
  5
C8
330
B4
100
AcDbEntity
  8
40366000_HALT_BA
  6
Continuous
 62
     7
100
AcDbLine
 10
824.35
 20
106.35
 30
0.0
 11
842.35
 21
106.35
 31
0.0
  0
LINE
  5
C9
330
B4
100
AcDbEntity
  8
40366000_HALT_BA
  6
Continuous
 62
     7
100
AcDbLine
 10
806.35
 20
166.348995
 30
0.0
 11
860.35
 21
166.348995
 31
0.0
  0
ARC
  5
CA
330
B4
100
AcDbEntity
  8
40366000_HALT_BA
  6
Continuous
 62
     7
100
AcDbCircle
 10
811.0655483332
 20
124.4912956305
 30
0.0
 40
16.12621571998185
100
AcDbArc
 50
325.4649851292
 51
341.4078384716
  0
LINE
  5
CB
330
B4
100
AcDbEntity
  8
40366000_HALT_BA
  6
Continuous
 62
     7
100
AcDbLine
 10
827.0109203125
 20
123.3326
 30
0.0
 11
826.3498488252
 21
123.349715
 31
0.0
  0
ARC
  5
CC
330
B4
100
AcDbEntity
  8
40366000_HALT_BA
  6
Continuous
 62
     7
100
AcDbCircle
 10
811.0646463128
 20
118.2064064826
 30
0.0
 40
16.12733822892249
100
AcDbArc
 50
18.5975404574
 51
34.5351554456
  0
ARC
  5
CD
330
B4
100
AcDbEntity
  8
40366000_HALT_BA
  6
Continuous
 62
     7
100
AcDbCircle
 10
820.1378213457
 20
121.5337909166
 30
0.0
 40
7.20696795709773
100
AcDbArc
 50
342.3596209373
 51
350.406136646
  0
LINE
  5
CE
330
B4
100
AcDbEntity
  8
40366000_HALT_BA
  6
Continuous
 62
     7
100
AcDbLine
 10
827.2439918787
 20
120.332655
 30
0.0
 11
826.5677553686
 21
120.349765
 31
0.0
  0
ARC
  5
CF
330
B4
100
AcDbEntity
  8
40366000_HALT_BA
  6
Continuous
 62
     7
100
AcDbCircle
 10
819.8540198093
 20
121.3491916385
 30
0.0
 40
6.78771675648252
100
AcDbArc
 50
351.5329582657
 51
8.476529422
  0
ARC
  5
D0
330
B4
100
AcDbEntity
  8
40366000_HALT_BA
  6
Continuous
 62
     7
100
AcDbCircle
 10
820.1633277644
 20
121.1707051445
 30
0.0
 40
7.180759923015077
100
AcDbArc
 50
9.4503116454
 51
17.5217427849
  0
ARC
  5
D1
330
B4
100
AcDbEntity
  8
40366000_HALT_BA
  6
Continuous
 62
     7
100
AcDbCircle
 10
55.6366414822
 20
118.2057636341
 30
0.0
 40
16.12876379555238
100
AcDbArc
 50
145.4655538691
 51
161.4017541129
  0
LINE
  5
D2
330
B4
100
AcDbEntity
  8
40366000_HALT_BA
  6
Continuous
 62
     7
100
AcDbLine
 10
40.3501511748
 20
123.349715
 30
0.0
 11
39.6890796875
 21
123.3326
 31
0.0
  0
ARC
  5
D3
330
B4
100
AcDbEntity
  8
40366000_HALT_BA
  6
Continuous
 62
     7
100
AcDbCircle
 10
46.5376034197
 20
121.1704818271
 30
0.0
 40
7.181715136649341
100
AcDbArc
 50
162.4787948801
 51
170.5491506896
  0
ARC
  5
D4
330
B4
100
AcDbEntity
  8
40366000_HALT_BA
  6
Continuous
 62
     7
100
AcDbCircle
 10
46.8460280674
 20
121.3491916345
 30
0.0
 40
6.787764110786075
100
AcDbArc
 50
171.5235301152
 51
188.4669821971
  0
LINE
  5
D5
330
B4
100
AcDbEntity
  8
40366000_HALT_BA
  6
Continuous
 62
     7
100
AcDbLine
 10
40.1322446314
 20
120.349765
 30
0.0
 11
39.4560081213
 21
120.332655
 31
0.0
  0
ARC
  5
D6
330
B4
100
AcDbEntity
  8
40366000_HALT_BA
  6
Continuous
 62
     7
100
AcDbCircle
 10
46.5612387307
 20
121.5335632278
 30
0.0
 40
7.206003232339162
100
AcDbArc
 50
189.5933238414
 51
197.6409185753
  0
ARC
  5
D7
330
B4
100
AcDbEntity
  8
40366000_HALT_BA
  6
Continuous
 62
     7
100
AcDbCircle
 10
55.6331625605
 20
124.4906522026
 30
0.0
 40
16.12478874694411
100
AcDbArc
 50
198.5914549837
 51
214.5357252977
  0
LINE
  5
D8
330
B4
100
AcDbEntity
  8
40366000_HALT_BA
  6
Continuous
 62
     7
100
AcDbLine
 10
42.35
 20
106.35
 30
0.0
 11
42.35
 21
115.3582176533
 31
0.0
  0
LINE
  5
D9
330
B4
100
AcDbEntity
  8
40366000_HALT_BA
  6
Continuous
 62
     7
100
AcDbLine
 10
24.35
 20
119.34978
 30
0.0
 11
24.35
 21
106.35
 31
0.0
  0
LINE
  5
DA
330
B4
100
AcDbEntity
  8
40366000_HALT_BA
  6
Continuous
 62
     7
100
AcDbLine
 10
24.85
 20
120.332655
 30
0.0
 11
24.85
 21
119.34978
 31
0.0
  0
LINE
  5
DB
330
B4
100
AcDbEntity
  8
40366000_HALT_BA
  6
Continuous
 62
     7
100
AcDbLine
 10
24.35
 20
120.349765
 30
0.0
 11
24.85
 21
120.332655
 31
0.0
  0
LINE
  5
DC
330
B4
100
AcDbEntity
  8
40366000_HALT_BA
  6
Continuous
 62
     7
100
AcDbLine
 10
24.35
 20
122.34973
 30
0.0
 11
24.35
 21
120.349765
 31
0.0
  0
LINE
  5
DD
330
B4
100
AcDbEntity
  8
40366000_HALT_BA
  6
Continuous
 62
     7
100
AcDbLine
 10
24.85
 20
123.3326
 30
0.0
 11
24.85
 21
122.34973
 31
0.0
  0
LINE
  5
DE
330
B4
100
AcDbEntity
  8
40366000_HALT_BA
  6
Continuous
 62
     7
100
AcDbLine
 10
24.35
 20
123.349715
 30
0.0
 11
24.85
 21
123.3326
 31
0.0
  0
LINE
  5
DF
330
B4
100
AcDbEntity
  8
40366000_HALT_BA
  6
Continuous
 62
     7
100
AcDbLine
 10
42.35
 20
127.3453083885
 30
0.0
 11
42.35
 21
156.2018978307
 31
0.0
  0
LINE
  5
E0
330
B4
100
AcDbEntity
  8
40366000_HALT_BA
  6
Continuous
 62
     7
100
AcDbLine
 10
24.35
 20
156.2018978307
 30
0.0
 11
24.35
 21
123.349715
 31
0.0
  0
ELLIPSE
  5
E1
330
B4
100
AcDbEntity
  8
40366000_HALT_BA
  6
Continuous
 62
     7
100
AcDbEllipse
 10
33.35
 20
156.349165
 30
0.0
 11
26.99982396172165
 21
1.653262399613221E-15
 31
0.0
210
0.0
220
0.0
230
1.0
 40
0.0057852432
 41
5.052228195000339
 42
6.279574252401209
  0
ELLIPSE
  5
E2
330
B4
100
AcDbEntity
  8
40366000_HALT_BA
  6
Continuous
 62
     7
100
AcDbEllipse
 10
33.35
 20
156.349165
 30
0.0
 11
-26.99982396172165
 21
1.653262399613222E-15
 31
0.0
210
0.0
220
0.0
230
1.0
 40
0.0057852432
 41
0.003611054778285
 42
1.230957112179247
  0
LINE
  5
E3
330
B4
100
AcDbEntity
  8
40366000_HALT_BA
  6
Continuous
 62
     7
100
AcDbLine
 10
6.35
 20
166.348995
 30
0.0
 11
6.3503520731
 21
156.3486009525
 31
0.0
  0
LINE
  5
E4
330
B4
100
AcDbEntity
  8
40366000_HALT_BA
  6
Continuous
 62
     7
100
AcDbLine
 10
60.3496479269
 20
156.3486009525
 30
0.0
 11
60.35
 21
166.348995
 31
0.0
  0
LINE
  5
E5
330
B4
100
AcDbEntity
  8
40366000_HALT_BA
  6
Continuous
 62
     7
100
AcDbLine
 10
806.35
 20
166.348995
 30
0.0
 11
806.3503520731
 21
156.3486009525
 31
0.0
  0
LINE
  5
E6
330
B4
100
AcDbEntity
  8
40366000_HALT_BA
  6
Continuous
 62
     7
100
AcDbLine
 10
860.3496479269
 20
156.3486009525
 30
0.0
 11
860.35
 21
166.348995
 31
0.0
  0
ELLIPSE
  5
E7
330
B4
100
AcDbEntity
  8
40366000_HALT_BA
  6
Continuous
 62
     7
100
AcDbEllipse
 10
833.35
 20
156.349165
 30
0.0
 11
26.99982396172165
 21
1.653262399613221E-15
 31
0.0
210
0.0
220
0.0
230
1.0
 40
0.0057852432
 41
5.052228195000342
 42
6.2795742524021
  0
ELLIPSE
  5
E8
330
B4
100
AcDbEntity
  8
40366000_HALT_BA
  6
Continuous
 62
     7
100
AcDbEllipse
 10
833.35
 20
156.349165
 30
0.0
 11
-26.99982396172165
 21
1.653262399613222E-15
 31
0.0
210
0.0
220
0.0
230
1.0
 40
0.0057852432
 41
0.0036110547786232
 42
1.230957112179248
  0
LINE
  5
E9
330
B4
100
AcDbEntity
  8
40366000_HALT_BA
  6
Continuous
 62
     7
100
AcDbLine
 10
842.35
 20
123.349715
 30
0.0
 11
842.35
 21
156.2018978307
 31
0.0
  0
LINE
  5
EA
330
B4
100
AcDbEntity
  8
40366000_HALT_BA
  6
Continuous
 62
     7
100
AcDbLine
 10
824.35
 20
156.2018978307
 30
0.0
 11
824.35
 21
127.3401542516
 31
0.0
  0
LINE
  5
EB
330
B4
100
AcDbEntity
  8
40366000_HALT_BA
  6
Continuous
 62
     7
100
AcDbLine
 10
841.85
 20
123.3326
 30
0.0
 11
842.35
 21
123.349715
 31
0.0
  0
LINE
  5
EC
330
B4
100
AcDbEntity
  8
40366000_HALT_BA
  6
Continuous
 62
     7
100
AcDbLine
 10
841.85
 20
122.34973
 30
0.0
 11
841.85
 21
123.3326
 31
0.0
  0
LINE
  5
ED
330
B4
100
AcDbEntity
  8
40366000_HALT_BA
  6
Continuous
 62
     7
100
AcDbLine
 10
842.35
 20
120.349765
 30
0.0
 11
842.35
 21
122.34973
 31
0.0
  0
LINE
  5
EE
330
B4
100
AcDbEntity
  8
40366000_HALT_BA
  6
Continuous
 62
     7
100
AcDbLine
 10
841.85
 20
120.332655
 30
0.0
 11
842.35
 21
120.349765
 31
0.0
  0
LINE
  5
EF
330
B4
100
AcDbEntity
  8
40366000_HALT_BA
  6
Continuous
 62
     7
100
AcDbLine
 10
841.85
 20
119.34978
 30
0.0
 11
841.85
 21
120.332655
 31
0.0
  0
LINE
  5
F0
330
B4
100
AcDbEntity
  8
40366000_HALT_BA
  6
Continuous
 62
     7
100
AcDbLine
 10
842.35
 20
106.35
 30
0.0
 11
842.35
 21
119.34978
 31
0.0
  0
LINE
  5
F1
330
B4
100
AcDbEntity
  8
40366000_HALT_BA
  6
Continuous
 62
     7
100
AcDbLine
 10
824.35
 20
115.3530635165
 30
0.0
 11
824.35
 21
106.35
 31
0.0
  0
LINE
  5
F2
330
B4
100
AcDbEntity
  8
40366000_HALT_BA
  6
Continuous
 62
     7
100
AcDbLine
 10
42.3440012609
 20
115.3491859525
 30
0.0
 11
824.3525861987
 21
115.3491859525
 31
0.0
  0
LINE
  5
F3
330
B4
100
AcDbEntity
  8
40366000_HALT_BA
  6
Continuous
 62
     7
100
AcDbLine
 10
824.3559987391
 20
127.3491859525
 30
0.0
 11
42.3474138013
 21
127.3491859525
 31
0.0
  0
ENDBLK
  5
F5
330
B4
100
AcDbEntity
  8
0
100
AcDbBlockEnd
  0
ENDSEC
  0
SECTION
  2
ENTITIES
  0
INSERT
  5
5F
330
1F
100
AcDbEntity
  8
Default
100
AcDbBlockReference
  2
SEANNOT_GROUP
 10
0.0
 20
0.0
 30
0.0
  0
INSERT
  5
6A
330
1F
100
AcDbEntity
  8
Default
100
AcDbBlockReference
  2
SEANNOT_GROUP1
 10
0.0
 20
0.0
 30
0.0
  0
INSERT
  5
74
330
1F
100
AcDbEntity
  8
Default
100
AcDbBlockReference
  2
SEANNOT_GROUP2
 10
0.0
 20
0.0
 30
0.0
  0
INSERT
  5
7A
330
1F
100
AcDbEntity
  8
Default
100
AcDbBlockReference
  2
SEANNOT_GROUP3
 10
0.0
 20
0.0
 30
0.0
  0
INSERT
  5
80
330
1F
100
AcDbEntity
  8
Default
100
AcDbBlockReference
  2
SEANNOT_GROUP4
 10
0.0
 20
0.0
 30
0.0
  0
INSERT
  5
86
330
1F
100
AcDbEntity
  8
Default
100
AcDbBlockReference
  2
SE
 10
0.0
 20
0.0
 30
0.0
  0
INSERT
  5
95
330
1F
100
AcDbEntity
  8
Default
100
AcDbBlockReference
  2
SE1
 10
0.0
 20
0.0
 30
0.0
  0
INSERT
  5
B5
330
1F
100
AcDbEntity
  8
Default
100
AcDbBlockReference
  2
SE2
 10
0.0
 20
0.0
 30
0.0
  0
TEXT
  5
F7
330
1F
100
AcDbEntity
  8
Default
  6
Continuous
 62
     7
100
AcDbText
 10
5.9362635081
 20
53.4225120485
 30
0.0
 40
10.0
  1
Grohe AG^J
  7
SEACAD_seiso_ttf
 11
5.9362635081
 21
63.4225120485
 31
0.0
100
AcDbText
 73
     3
  0
TEXT
  5
F8
330
1F
100
AcDbEntity
  8
Default
  6
Continuous
 62
     7
100
AcDbText
 10
5.9362635081
 20
37.0588756849
 30
0.0
 40
10.0
  1
 
  7
SEACAD_seiso_ttf
 11
5.9362635081
 21
47.0588756849
 31
0.0
100
AcDbText
 73
     3
  0
TEXT
  5
F9
330
1F
100
AcDbEntity
  8
Default
  6
Continuous
 62
     7
100
AcDbText
 10
5.9362635081
 20
20.6952393213
 30
0.0
 40
10.0
  1
ecn: 
  7
SEACAD_seiso_ttf
 11
5.9362635081
 21
30.6952393213
 31
0.0
100
AcDbText
 73
     3
  0
TEXT
  5
FA
330
1F
100
AcDbEntity
  8
Default
  6
Continuous
 62
     7
100
AcDbText
 10
5.9362635081
 20
4.3316029576
 30
0.0
 40
10.0
  1
unit: mm
  7
SEACAD_seiso_ttf
 11
5.9362635081
 21
14.3316029576
 31
0.0
100
AcDbText
 73
     3
  0
LINE
  5
FB
330
1F
100
AcDbEntity
  8
Default
  6
Continuous
 62
     7
100
AcDbLine
 10
0.0
 20
0.0
 30
0.0
 11
100.0
 21
0.0
 31
0.0
  0
LINE
  5
FC
330
1F
100
AcDbEntity
  8
Default
  6
Continuous
 62
     7
100
AcDbLine
 10
0.0
 20
0.0
 30
0.0
 11
0.0
 21
100.0
 31
0.0
  0
TEXT
  5
FD
330
1F
100
AcDbEntity
  8
Default
  6
Continuous
 62
     7
100
AcDbText
 10
24.3923665681
 20
-18.2375342018
 30
0.0
 40
10.0
  1
100 mm
  7
SEACAD_seiso_ttf
 11
24.3923665681
 21
-8.2375342018
 31
0.0
100
AcDbText
 73
     3
  0
TEXT
  5
FE
330
1F
100
AcDbEntity
  8
Default
  6
Continuous
 62
     7
100
AcDbText
 10
-7.6150308803
 20
24.6231930421
 30
0.0
 40
10.0
  1
100 mm
 50
90.0
  7
SEACAD_seiso_ttf
 11
-17.6150308803
 21
24.6231930421
 31
0.0
100
AcDbText
 73
     3
  0
TEXT
  5
FF
330
1F
100
AcDbEntity
  8
Default
  6
Continuous
 62
     7
100
AcDbText
 10
28.4878128572
 20
20.0907663715
 30
0.0
 40
10.0
  1
205884
  7
SEACAD_seiso_ttf
 11
28.4878128572
 21
30.0907663715
 31
0.0
100
AcDbText
 73
     3
  0
TEXT
  5
100
330
1F
100
AcDbEntity
  8
Default
  6
Continuous
 62
     7
100
AcDbText
 10
5.9012241913
 20
36.7242780188
 30
0.0
 40
10.0
  1
40366000
  7
SEACAD_seiso_ttf
 11
5.9012241913
 21
46.7242780188
 31
0.0
100
AcDbText
 73
     3
  0
ENDSEC
  0
SECTION
  2
OBJECTS
  0
DICTIONARY
  5
C
330
0
100
AcDbDictionary
281
     1
  3
ACAD_GROUP
350
D
  3
ACAD_LAYOUT
350
1A
  3
ACAD_MLEADERSTYLE
350
104
  3
ACAD_MLINESTYLE
350
17
  3
ACAD_PLOTSETTINGS
350
19
  3
ACAD_PLOTSTYLENAME
350
E
  3
ACAD_SCALELIST
350
3B
  3
ACAD_TABLESTYLE
350
103
  3
ACAD_VISUALSTYLE
350
2A
  3
AcDbVariableDictionary
350
101
  0
DICTIONARY
  5
D
102
{ACAD_REACTORS
330
C
102
}
330
C
100
AcDbDictionary
281
     1
  0
DICTIONARY
  5
1A
102
{ACAD_REACTORS
330
C
102
}
330
C
100
AcDbDictionary
281
     1
  3
Layout1
350
1E
  3
Model
350
22
  0
DICTIONARY
  5
104
102
{ACAD_REACTORS
330
C
102
}
330
C
100
AcDbDictionary
281
     1
  0
DICTIONARY
  5
17
102
{ACAD_REACTORS
330
C
102
}
330
C
100
AcDbDictionary
281
     1
  3
Standard
350
18
  0
DICTIONARY
  5
19
102
{ACAD_REACTORS
330
C
102
}
330
C
100
AcDbDictionary
281
     1
  0
ACDBDICTIONARYWDFLT
  5
E
102
{ACAD_REACTORS
330
C
102
}
330
C
100
AcDbDictionary
281
     1
  3
Normal
350
F
100
AcDbDictionaryWithDefault
340
F
  0
DICTIONARY
  5
3B
102
{ACAD_REACTORS
330
C
102
}
330
C
100
AcDbDictionary
281
     1
  3
A0
350
3C
  3
A1
350
3D
  3
A2
350
3E
  3
A3
350
3F
  3
A4
350
40
  3
A5
350
41
  3
A6
350
42
  3
A7
350
43
  3
A8
350
44
  3
A9
350
45
  3
B0
350
46
  3
B1
350
47
  3
B2
350
48
  3
B3
350
49
  3
B4
350
4A
  3
B5
350
4B
  3
B6
350
4C
  3
B7
350
4D
  3
B8
350
4E
  3
B9
350
4F
  3
C0
350
50
  3
C1
350
51
  3
C2
350
52
  3
C3
350
53
  3
C4
350
54
  3
C5
350
55
  3
C6
350
56
  3
C7
350
57
  3
C8
350
58
  3
C9
350
59
  3
D0
350
5A
  3
D1
350
5B
  3
D2
350
5C
  0
DICTIONARY
  5
103
102
{ACAD_REACTORS
330
C
102
}
330
C
100
AcDbDictionary
281
     1
  0
DICTIONARY
  5
2A
102
{ACAD_REACTORS
330
C
102
}
330
C
100
AcDbDictionary
281
     1
  3
2dWireframe
350
2F
  3
3D Hidden
350
31
  3
3dWireframe
350
30
  3
Basic
350
32
  3
Brighten
350
36
  3
ColorChange
350
3A
  3
Conceptual
350
34
  3
Dim
350
35
  3
Facepattern
350
39
  3
Flat
350
2B
  3
FlatWithEdges
350
2C
  3
Gouraud
350
2D
  3
GouraudWithEdges
350
2E
  3
Linepattern
350
38
  3
Realistic
350
33
  3
Thicken
350
37
  0
DICTIONARY
  5
101
102
{ACAD_REACTORS
330
C
102
}
330
C
100
AcDbDictionary
281
     1
  3
CANNOSCALE
350
102
  3
PSOLHEIGHT
350
106
  3
PSOLWIDTH
350
105
  0
LAYOUT
  5
1E
102
{ACAD_REACTORS
330
1A
102
}
330
1A
100
AcDbPlotSettings
  1

  2
none_device
  4

  6

 40
0.0
 41
0.0
 42
0.0
 43
0.0
 44
0.0
 45
0.0
 46
0.0
 47
0.0
 48
0.0
 49
0.0
140
0.0
141
0.0
142
1.0
143
1.0
 70
   688
 72
     0
 73
     0
 74
     5
  7

 75
    16
147
1.0
148
0.0
149
0.0
100
AcDbLayout
  1
Layout1
 70
     1
 71
     1
 10
0.0
 20
0.0
 11
1682.0
 21
2378.0
 12
0.0
 22
0.0
 32
0.0
 14
0.0
 24
0.0
 34
0.0
 15
1682.0
 25
2378.0
 35
0.0
146
0.0
 13
0.0
 23
0.0
 33
0.0
 16
1.0
 26
0.0
 36
0.0
 17
0.0
 27
1.0
 37
0.0
 76
     0
330
1B
  0
LAYOUT
  5
22
102
{ACAD_REACTORS
330
1A
102
}
330
1A
100
AcDbPlotSettings
  1

  2
none_device
  4

  6

 40
0.0
 41
0.0
 42
0.0
 43
0.0
 44
0.0
 45
0.0
 46
0.0
 47
0.0
 48
0.0
 49
0.0
140
0.0
141
0.0
142
1.0
143
1.0
 70
  1712
 72
     0
 73
     0
 74
     0
  7

 75
     0
147
1.0
148
0.0
149
0.0
100
AcDbLayout
  1
Model
 70
     1
 71
     0
 10
0.0
 20
0.0
 11
1682.0
 21
2378.0
 12
0.0
 22
0.0
 32
0.0
 14
0.0
 24
0.0
 34
0.0
 15
1682.0
 25
2378.0
 35
0.0
146
0.0
 13
0.0
 23
0.0
 33
0.0
 16
1.0
 26
0.0
 36
0.0
 17
0.0
 27
1.0
 37
0.0
 76
     0
330
1F
331
29
  0
MLINESTYLE
  5
18
102
{ACAD_REACTORS
330
17
102
}
330
17
100
AcDbMlineStyle
  2
Standard
 70
     0
  3

 62
   256
 51
90.0
 52
90.0
 71
     2
 49
0.5
 62
   256
  6
BYLAYER
 49
-0.5
 62
   256
  6
BYLAYER
  0
ACDBPLACEHOLDER
  5
F
102
{ACAD_REACTORS
330
E
102
}
330
E
  0
SCALE
  5
3C
102
{ACAD_REACTORS
330
3B
102
}
330
3B
100
AcDbScale
 70
     0
300
1:1
140
1.0
141
1.0
290
     1
  0
SCALE
  5
3D
102
{ACAD_REACTORS
330
3B
102
}
330
3B
100
AcDbScale
 70
     0
300
1:2
140
1.0
141
2.0
290
     0
  0
SCALE
  5
3E
102
{ACAD_REACTORS
330
3B
102
}
330
3B
100
AcDbScale
 70
     0
300
1:4
140
1.0
141
4.0
290
     0
  0
SCALE
  5
3F
102
{ACAD_REACTORS
330
3B
102
}
330
3B
100
AcDbScale
 70
     0
300
1:5
140
1.0
141
5.0
290
     0
  0
SCALE
  5
40
102
{ACAD_REACTORS
330
3B
102
}
330
3B
100
AcDbScale
 70
     0
300
1:8
140
1.0
141
8.0
290
     0
  0
SCALE
  5
41
102
{ACAD_REACTORS
330
3B
102
}
330
3B
100
AcDbScale
 70
     0
300
1:10
140
1.0
141
10.0
290
     0
  0
SCALE
  5
42
102
{ACAD_REACTORS
330
3B
102
}
330
3B
100
AcDbScale
 70
     0
300
1:16
140
1.0
141
16.0
290
     0
  0
SCALE
  5
43
102
{ACAD_REACTORS
330
3B
102
}
330
3B
100
AcDbScale
 70
     0
300
1:20
140
1.0
141
20.0
290
     0
  0
SCALE
  5
44
102
{ACAD_REACTORS
330
3B
102
}
330
3B
100
AcDbScale
 70
     0
300
1:30
140
1.0
141
30.0
290
     0
  0
SCALE
  5
45
102
{ACAD_REACTORS
330
3B
102
}
330
3B
100
AcDbScale
 70
     0
300
1:40
140
1.0
141
40.0
290
     0
  0
SCALE
  5
46
102
{ACAD_REACTORS
330
3B
102
}
330
3B
100
AcDbScale
 70
     0
300
1:50
140
1.0
141
50.0
290
     0
  0
SCALE
  5
47
102
{ACAD_REACTORS
330
3B
102
}
330
3B
100
AcDbScale
 70
     0
300
1:100
140
1.0
141
100.0
290
     0
  0
SCALE
  5
48
102
{ACAD_REACTORS
330
3B
102
}
330
3B
100
AcDbScale
 70
     0
300
2:1
140
2.0
141
1.0
290
     0
  0
SCALE
  5
49
102
{ACAD_REACTORS
330
3B
102
}
330
3B
100
AcDbScale
 70
     0
300
4:1
140
4.0
141
1.0
290
     0
  0
SCALE
  5
4A
102
{ACAD_REACTORS
330
3B
102
}
330
3B
100
AcDbScale
 70
     0
300
8:1
140
8.0
141
1.0
290
     0
  0
SCALE
  5
4B
102
{ACAD_REACTORS
330
3B
102
}
330
3B
100
AcDbScale
 70
     0
300
10:1
140
10.0
141
1.0
290
     0
  0
SCALE
  5
4C
102
{ACAD_REACTORS
330
3B
102
}
330
3B
100
AcDbScale
 70
     0
300
100:1
140
100.0
141
1.0
290
     0
  0
SCALE
  5
4D
102
{ACAD_REACTORS
330
3B
102
}
330
3B
100
AcDbScale
 70
     0
300
1/128" = 1'-0"
140
0.0078125
141
12.0
290
     0
  0
SCALE
  5
4E
102
{ACAD_REACTORS
330
3B
102
}
330
3B
100
AcDbScale
 70
     0
300
1/64" = 1'-0"
140
0.015625
141
12.0
290
     0
  0
SCALE
  5
4F
102
{ACAD_REACTORS
330
3B
102
}
330
3B
100
AcDbScale
 70
     0
300
1/32" = 1'-0"
140
0.03125
141
12.0
290
     0
  0
SCALE
  5
50
102
{ACAD_REACTORS
330
3B
102
}
330
3B
100
AcDbScale
 70
     0
300
1/16" = 1'-0"
140
0.0625
141
12.0
290
     0
  0
SCALE
  5
51
102
{ACAD_REACTORS
330
3B
102
}
330
3B
100
AcDbScale
 70
     0
300
3/32" = 1'-0"
140
0.09375
141
12.0
290
     0
  0
SCALE
  5
52
102
{ACAD_REACTORS
330
3B
102
}
330
3B
100
AcDbScale
 70
     0
300
1/8" = 1'-0"
140
0.125
141
12.0
290
     0
  0
SCALE
  5
53
102
{ACAD_REACTORS
330
3B
102
}
330
3B
100
AcDbScale
 70
     0
300
3/16" = 1'-0"
140
0.1875
141
12.0
290
     0
  0
SCALE
  5
54
102
{ACAD_REACTORS
330
3B
102
}
330
3B
100
AcDbScale
 70
     0
300
1/4" = 1'-0"
140
0.25
141
12.0
290
     0
  0
SCALE
  5
55
102
{ACAD_REACTORS
330
3B
102
}
330
3B
100
AcDbScale
 70
     0
300
3/8" = 1'-0"
140
0.375
141
12.0
290
     0
  0
SCALE
  5
56
102
{ACAD_REACTORS
330
3B
102
}
330
3B
100
AcDbScale
 70
     0
300
1/2" = 1'-0"
140
0.5
141
12.0
290
     0
  0
SCALE
  5
57
102
{ACAD_REACTORS
330
3B
102
}
330
3B
100
AcDbScale
 70
     0
300
3/4" = 1'-0"
140
0.75
141
12.0
290
     0
  0
SCALE
  5
58
102
{ACAD_REACTORS
330
3B
102
}
330
3B
100
AcDbScale
 70
     0
300
1" = 1'-0"
140
1.0
141
12.0
290
     0
  0
SCALE
  5
59
102
{ACAD_REACTORS
330
3B
102
}
330
3B
100
AcDbScale
 70
     0
300
1-1/2" = 1'-0"
140
1.5
141
12.0
290
     0
  0
SCALE
  5
5A
102
{ACAD_REACTORS
330
3B
102
}
330
3B
100
AcDbScale
 70
     0
300
3" = 1'-0"
140
3.0
141
12.0
290
     0
  0
SCALE
  5
5B
102
{ACAD_REACTORS
330
3B
102
}
330
3B
100
AcDbScale
 70
     0
300
6" = 1'-0"
140
6.0
141
12.0
290
     0
  0
SCALE
  5
5C
102
{ACAD_REACTORS
330
3B
102
}
330
3B
100
AcDbScale
 70
     0
300
1'-0" = 1'-0"
140
12.0
141
12.0
290
     0
  0
VISUALSTYLE
  5
2F
102
{ACAD_REACTORS
330
2A
102
}
330
2A
100
AcDbVisualStyle
  2
2dWireframe
 70
     4
 71
     0
 72
     2
 73
     0
 90
        0
 40
-0.6
 41
-30.0
 62
     5
 63
     7
 74
     1
 91
        4
 64
     7
 65
   257
 75
     1
175
     1
 42
1.0
 92
        0
 66
   257
 43
1.0
 76
     1
 77
     6
 78
     2
 67
     7
 79
     5
170
     0
171
     0
290
     0
174
     0
 93
        1
 44
0.0
173
     0
291
     0
 45
0.0
1001
ACAD
1000
AcDbSavedByObjectVersion
1070
     0
  0
VISUALSTYLE
  5
31
102
{ACAD_REACTORS
330
2A
102
}
330
2A
100
AcDbVisualStyle
  2
3D Hidden
 70
     6
 71
     1
 72
     2
 73
     2
 90
        0
 40
-0.6
 41
-30.0
 62
     5
 63
     7
 74
     2
 91
        2
 64
     7
 65
   257
 75
     2
175
     1
 42
40.0
 92
        0
 66
   257
 43
1.0
 76
     1
 77
     6
 78
     2
 67
     7
 79
     3
170
     0
171
     0
290
     0
174
     0
 93
        1
 44
0.0
173
     0
291
     0
 45
0.0
1001
ACAD
1000
AcDbSavedByObjectVersion
1070
     0
  0
VISUALSTYLE
  5
30
102
{ACAD_REACTORS
330
2A
102
}
330
2A
100
AcDbVisualStyle
  2
3dWireframe
 70
     5
 71
     0
 72
     2
 73
     0
 90
        0
 40
-0.6
 41
-30.0
 62
     5
 63
     7
 74
     1
 91
        4
 64
     7
 65
   257
 75
     1
175
     1
 42
1.0
 92
        0
 66
   257
 43
1.0
 76
     1
 77
     6
 78
     2
 67
     7
 79
     5
170
     0
171
     0
290
     0
174
     0
 93
        1
 44
0.0
173
     0
291
     0
 45
0.0
1001
ACAD
1000
AcDbSavedByObjectVersion
1070
     0
  0
VISUALSTYLE
  5
32
102
{ACAD_REACTORS
330
2A
102
}
330
2A
100
AcDbVisualStyle
  2
Basic
 70
     7
 71
     1
 72
     0
 73
     1
 90
        0
 40
-0.6
 41
-30.0
 62
     5
 63
     7
 74
     0
 91
        4
 64
     7
 65
   257
 75
     1
175
     1
 42
1.0
 92
        8
 66
     7
 43
1.0
 76
     1
 77
     6
 78
     2
 67
     7
 79
     5
170
     0
171
     0
290
     0
174
     0
 93
        1
 44
0.0
173
     0
291
     1
 45
0.0
1001
ACAD
1000
AcDbSavedByObjectVersion
1070
     0
  0
VISUALSTYLE
  5
36
102
{ACAD_REACTORS
330
2A
102
}
330
2A
100
AcDbVisualStyle
  2
Brighten
 70
    12
 71
     2
 72
     2
 73
     0
 90
        0
 40
-0.6
 41
-30.0
 62
     5
 63
     7
 74
     1
 91
        4
 64
     7
 65
   257
 75
     1
175
     1
 42
1.0
 92
        8
 66
     7
 43
1.0
 76
     1
 77
     6
 78
     2
 67
     7
 79
     5
170
     0
171
     0
290
     0
174
     0
 93
        1
 44
50.0
173
     0
291
     1
 45
0.0
1001
ACAD
1000
AcDbSavedByObjectVersion
1070
     0
  0
VISUALSTYLE
  5
3A
102
{ACAD_REACTORS
330
2A
102
}
330
2A
100
AcDbVisualStyle
  2
ColorChange
 70
    16
 71
     2
 72
     2
 73
     3
 90
        0
 40
-0.6
 41
-30.0
 62
     5
 63
     8
 74
     1
 91
        4
 64
     7
 65
   257
 75
     1
175
     1
 42
1.0
 92
        8
 66
     8
 43
1.0
 76
     1
 77
     6
 78
     2
 67
     7
 79
     5
170
     0
171
     0
290
     0
174
     0
 93
        1
 44
0.0
173
     0
291
     1
 45
0.0
1001
ACAD
1000
AcDbSavedByObjectVersion
1070
     0
  0
VISUALSTYLE
  5
34
102
{ACAD_REACTORS
330
2A
102
}
330
2A
100
AcDbVisualStyle
  2
Conceptual
 70
     9
 71
     3
 72
     2
 73
     0
 90
        0
 40
-0.6
 41
-30.0
 62
     5
 63
     7
 74
     2
 91
        2
 64
     7
 65
   257
 75
     1
175
     1
 42
40.0
 92
        8
 66
     7
 43
1.0
 76
     1
 77
     6
 78
     2
 67
     7
 79
     3
170
     0
171
     0
290
     0
174
     0
 93
        1
 44
0.0
173
     0
291
     0
 45
0.0
1001
ACAD
1000
AcDbSavedByObjectVersion
1070
     0
  0
VISUALSTYLE
  5
35
102
{ACAD_REACTORS
330
2A
102
}
330
2A
100
AcDbVisualStyle
  2
Dim
 70
    11
 71
     2
 72
     2
 73
     0
 90
        0
 40
-0.6
 41
-30.0
 62
     5
 63
     7
 74
     1
 91
        4
 64
     7
 65
   257
 75
     1
175
     1
 42
1.0
 92
        8
 66
     7
 43
1.0
 76
     1
 77
     6
 78
     2
 67
     7
 79
     5
170
     0
171
     0
290
     0
174
     0
 93
        1
 44
-50.0
173
     0
291
     1
 45
0.0
1001
ACAD
1000
AcDbSavedByObjectVersion
1070
     0
  0
VISUALSTYLE
  5
39
102
{ACAD_REACTORS
330
2A
102
}
330
2A
100
AcDbVisualStyle
  2
Facepattern
 70
    15
 71
     2
 72
     2
 73
     0
 90
        0
 40
-0.6
 41
-30.0
 62
     5
 63
     7
 74
     1
 91
        4
 64
     7
 65
   257
 75
     1
175
     1
 42
1.0
 92
        8
 66
     7
 43
1.0
 76
     1
 77
     6
 78
     2
 67
     7
 79
     5
170
     0
171
     0
290
     0
174
     0
 93
        1
 44
0.0
173
     0
291
     1
 45
0.0
1001
ACAD
1000
AcDbSavedByObjectVersion
1070
     0
  0
VISUALSTYLE
  5
2B
102
{ACAD_REACTORS
330
2A
102
}
330
2A
100
AcDbVisualStyle
  2
Flat
 70
     0
 71
     2
 72
     1
 73
     1
 90
        2
 40
-0.6
 41
30.0
 62
     5
 63
     7
 74
     0
 91
        4
 64
     7
 65
   257
 75
     1
175
     1
 42
1.0
 92
        8
 66
     7
 43
1.0
 76
     1
 77
     6
 78
     2
 67
     7
 79
     5
170
     0
171
     0
290
     0
174
     0
 93
       13
 44
0.0
173
     0
291
     1
 45
0.0
1001
ACAD
1000
AcDbSavedByObjectVersion
1070
     0
  0
VISUALSTYLE
  5
2C
102
{ACAD_REACTORS
330
2A
102
}
330
2A
100
AcDbVisualStyle
  2
FlatWithEdges
 70
     1
 71
     2
 72
     1
 73
     1
 90
        2
 40
-0.6
 41
30.0
 62
     5
 63
     7
 74
     1
 91
        4
 64
     7
 65
   257
 75
     1
175
     1
 42
1.0
 92
        0
 66
   257
 43
1.0
 76
     1
 77
     6
 78
     2
 67
     7
 79
     5
170
     0
171
     0
290
     0
174
     0
 93
       13
 44
0.0
173
     0
291
     1
 45
0.0
1001
ACAD
1000
AcDbSavedByObjectVersion
1070
     0
  0
VISUALSTYLE
  5
2D
102
{ACAD_REACTORS
330
2A
102
}
330
2A
100
AcDbVisualStyle
  2
Gouraud
 70
     2
 71
     2
 72
     2
 73
     1
 90
        2
 40
-0.6
 41
30.0
 62
     5
 63
     7
 74
     0
 91
        4
 64
     7
 65
   257
 75
     1
175
     1
 42
1.0
 92
        0
 66
     7
 43
1.0
 76
     1
 77
     6
 78
     2
 67
     7
 79
     5
170
     0
171
     0
290
     0
174
     0
 93
       13
 44
0.0
173
     0
291
     1
 45
0.0
1001
ACAD
1000
AcDbSavedByObjectVersion
1070
     0
  0
VISUALSTYLE
  5
2E
102
{ACAD_REACTORS
330
2A
102
}
330
2A
100
AcDbVisualStyle
  2
GouraudWithEdges
 70
     3
 71
     2
 72
     2
 73
     1
 90
        2
 40
-0.6
 41
30.0
 62
     5
 63
     7
 74
     1
 91
        4
 64
     7
 65
   257
 75
     1
175
     1
 42
1.0
 92
        0
 66
   257
 43
1.0
 76
     1
 77
     6
 78
     2
 67
     7
 79
     5
170
     0
171
     0
290
     0
174
     0
 93
       13
 44
0.0
173
     0
291
     1
 45
0.0
1001
ACAD
1000
AcDbSavedByObjectVersion
1070
     0
  0
VISUALSTYLE
  5
38
102
{ACAD_REACTORS
330
2A
102
}
330
2A
100
AcDbVisualStyle
  2
Linepattern
 70
    14
 71
     2
 72
     2
 73
     0
 90
        0
 40
-0.6
 41
-30.0
 62
     5
 63
     7
 74
     1
 91
        4
 64
     7
 65
   257
 75
     7
175
     7
 42
1.0
 92
        8
 66
     7
 43
1.0
 76
     1
 77
     6
 78
     2
 67
     7
 79
     5
170
     0
171
     0
290
     0
174
     0
 93
        1
 44
0.0
173
     0
291
     1
 45
0.0
1001
ACAD
1000
AcDbSavedByObjectVersion
1070
     0
  0
VISUALSTYLE
  5
33
102
{ACAD_REACTORS
330
2A
102
}
330
2A
100
AcDbVisualStyle
  2
Realistic
 70
     8
 71
     2
 72
     2
 73
     0
 90
        0
 40
-0.6
 41
-30.0
 62
     5
 63
     7
 74
     1
 91
        0
 64
     7
 65
   257
 75
     1
175
     1
 42
1.0
 92
        8
 66
     8
 43
1.0
 76
     1
 77
     6
 78
     2
 67
     7
 79
     5
170
     0
171
     0
290
     0
174
     0
 93
       13
 44
0.0
173
     0
291
     0
 45
0.0
1001
ACAD
1000
AcDbSavedByObjectVersion
1070
     0
  0
VISUALSTYLE
  5
37
102
{ACAD_REACTORS
330
2A
102
}
330
2A
100
AcDbVisualStyle
  2
Thicken
 70
    13
 71
     2
 72
     2
 73
     0
 90
        0
 40
-0.6
 41
-30.0
 62
     5
 63
     7
 74
     1
 91
        4
 64
     7
 65
   257
 75
     1
175
     1
 42
1.0
 92
       12
 66
     7
 43
1.0
 76
     1
 77
     6
 78
     2
 67
     7
 79
     5
170
     0
171
     0
290
     0
174
     0
 93
        1
 44
0.0
173
     0
291
     1
 45
0.0
1001
ACAD
1000
AcDbSavedByObjectVersion
1070
     0
  0
DICTIONARYVAR
  5
102
102
{ACAD_REACTORS
330
101
102
}
330
101
100
DictionaryVariables
280
     0
  1
1:1
  0
DICTIONARYVAR
  5
106
102
{ACAD_REACTORS
330
101
102
}
330
101
100
DictionaryVariables
280
     0
  1
80.000000
  0
DICTIONARYVAR
  5
105
102
{ACAD_REACTORS
330
101
102
}
330
101
100
DictionaryVariables
280
     0
  1
5.000000
  0
ENDSEC
  0
EOF
