  0
SECTION
  2
HEADER
  9
$ACADVER
  1
AC1021
  9
$ACADMAINTVER
 70
    25
  9
$DWGCODEPAGE
  3
ANSI_1252
  9
$INSBASE
 10
0.0
 20
0.0
 30
0.0
  9
$EXTMIN
 10
0.0
 20
0.0
 30
0.0
  9
$EXTMAX
 10
3000.0
 20
4500.0
 30
0.0
  9
$LIMMIN
 10
0.0
 20
0.0
  9
$LIMMAX
 10
3000.0
 20
4500.0
  9
$ORTHOMODE
 70
     0
  9
$REGENMODE
 70
     1
  9
$FILLMODE
 70
     1
  9
$QTEXTMODE
 70
     0
  9
$MIRRTEXT
 70
     1
  9
$LTSCALE
 40
1.0
  9
$ATTMODE
 70
     1
  9
$TEXTSIZE
 40
10.0
  9
$TRACEWID
 40
1.0
  9
$TEXTSTYLE
  7
Standard
  9
$CLAYER
  8
0
  9
$CELTYPE
  6
ByLayer
  9
$CECOLOR
 62
   256
  9
$CELTSCALE
 40
1.0
  9
$DISPSILH
 70
     0
  9
$DIMSCALE
 40
1.0
  9
$DIMASZ
 40
2.5
  9
$DIMEXO
 40
0.625
  9
$DIMDLI
 40
3.75
  9
$DIMRND
 40
0.0
  9
$DIMDLE
 40
0.0
  9
$DIMEXE
 40
1.25
  9
$DIMTP
 40
0.0
  9
$DIMTM
 40
0.0
  9
$DIMTXT
 40
2.5
  9
$DIMCEN
 40
2.5
  9
$DIMTSZ
 40
0.0
  9
$DIMTOL
 70
     0
  9
$DIMLIM
 70
     0
  9
$DIMTIH
 70
     0
  9
$DIMTOH
 70
     0
  9
$DIMSE1
 70
     0
  9
$DIMSE2
 70
     0
  9
$DIMTAD
 70
     1
  9
$DIMZIN
 70
     8
  9
$DIMBLK
  1

  9
$DIMASO
 70
     1
  9
$DIMSHO
 70
     1
  9
$DIMPOST
  1

  9
$DIMAPOST
  1

  9
$DIMALT
 70
     0
  9
$DIMALTD
 70
     3
  9
$DIMALTF
 40
0.0393700787
  9
$DIMLFAC
 40
1.0
  9
$DIMTOFL
 70
     1
  9
$DIMTVP
 40
0.0
  9
$DIMTIX
 70
     0
  9
$DIMSOXD
 70
     0
  9
$DIMSAH
 70
     0
  9
$DIMBLK1
  1

  9
$DIMBLK2
  1

  9
$DIMSTYLE
  2
ISO-25
  9
$DIMCLRD
 70
     0
  9
$DIMCLRE
 70
     0
  9
$DIMCLRT
 70
     0
  9
$DIMTFAC
 40
1.0
  9
$DIMGAP
 40
0.625
  9
$DIMJUST
 70
     0
  9
$DIMSD1
 70
     0
  9
$DIMSD2
 70
     0
  9
$DIMTOLJ
 70
     0
  9
$DIMTZIN
 70
     8
  9
$DIMALTZ
 70
     0
  9
$DIMALTTZ
 70
     0
  9
$DIMUPT
 70
     0
  9
$DIMDEC
 70
     2
  9
$DIMTDEC
 70
     2
  9
$DIMALTU
 70
     2
  9
$DIMALTTD
 70
     3
  9
$DIMTXSTY
  7
Standard
  9
$DIMAUNIT
 70
     0
  9
$DIMADEC
 70
     0
  9
$DIMALTRND
 40
0.0
  9
$DIMAZIN
 70
     0
  9
$DIMDSEP
 70
    44
  9
$DIMATFIT
 70
     3
  9
$DIMFRAC
 70
     0
  9
$DIMLDRBLK
  1

  9
$DIMLUNIT
 70
     2
  9
$DIMLWD
 70
    -2
  9
$DIMLWE
 70
    -2
  9
$DIMTMOVE
 70
     0
  9
$DIMFXL
 40
1.0
  9
$DIMFXLON
 70
     0
  9
$DIMJOGANG
 40
0.7853981634
  9
$DIMTFILL
 70
     0
  9
$DIMTFILLCLR
 70
     0
  9
$DIMARCSYM
 70
     0
  9
$DIMLTYPE
  6

  9
$DIMLTEX1
  6

  9
$DIMLTEX2
  6

  9
$LUNITS
 70
     2
  9
$LUPREC
 70
     4
  9
$SKETCHINC
 40
1.0
  9
$FILLETRAD
 40
10.0
  9
$AUNITS
 70
     0
  9
$AUPREC
 70
     0
  9
$MENU
  1
.
  9
$ELEVATION
 40
0.0
  9
$PELEVATION
 40
0.0
  9
$THICKNESS
 40
0.0
  9
$LIMCHECK
 70
     0
  9
$CHAMFERA
 40
0.0
  9
$CHAMFERB
 40
0.0
  9
$CHAMFERC
 40
0.0
  9
$CHAMFERD
 40
0.0
  9
$SKPOLY
 70
     0
  9
$TDCREATE
 40
2458507.606813842
  9
$TDUCREATE
 40
2458507.565147176
  9
$TDUPDATE
 40
2458507.606816018
  9
$TDUUPDATE
 40
2458507.565149352
  9
$TDINDWG
 40
0.0000000116
  9
$TDUSRTIMER
 40
0.0000000116
  9
$USRTIMER
 70
     1
  9
$ANGBASE
 50
0.0
  9
$ANGDIR
 70
     0
  9
$PDMODE
 70
     0
  9
$PDSIZE
 40
0.0
  9
$PLINEWID
 40
0.0
  9
$SPLFRAME
 70
     0
  9
$SPLINETYPE
 70
     6
  9
$SPLINESEGS
 70
     8
  9
$HANDSEED
  5
290
  9
$SURFTAB1
 70
     6
  9
$SURFTAB2
 70
     6
  9
$SURFTYPE
 70
     6
  9
$SURFU
 70
     6
  9
$SURFV
 70
     6
  9
$UCSBASE
  2

  9
$UCSNAME
  2

  9
$UCSORG
 10
0.0
 20
0.0
 30
0.0
  9
$UCSXDIR
 10
1.0
 20
0.0
 30
0.0
  9
$UCSYDIR
 10
0.0
 20
1.0
 30
0.0
  9
$UCSORTHOREF
  2

  9
$UCSORTHOVIEW
 70
     0
  9
$UCSORGTOP
 10
0.0
 20
0.0
 30
0.0
  9
$UCSORGBOTTOM
 10
0.0
 20
0.0
 30
0.0
  9
$UCSORGLEFT
 10
0.0
 20
0.0
 30
0.0
  9
$UCSORGRIGHT
 10
0.0
 20
0.0
 30
0.0
  9
$UCSORGFRONT
 10
0.0
 20
0.0
 30
0.0
  9
$UCSORGBACK
 10
0.0
 20
0.0
 30
0.0
  9
$PUCSBASE
  2

  9
$PUCSNAME
  2

  9
$PUCSORG
 10
0.0
 20
0.0
 30
0.0
  9
$PUCSXDIR
 10
1.0
 20
0.0
 30
0.0
  9
$PUCSYDIR
 10
0.0
 20
1.0
 30
0.0
  9
$PUCSORTHOREF
  2

  9
$PUCSORTHOVIEW
 70
     0
  9
$PUCSORGTOP
 10
0.0
 20
0.0
 30
0.0
  9
$PUCSORGBOTTOM
 10
0.0
 20
0.0
 30
0.0
  9
$PUCSORGLEFT
 10
0.0
 20
0.0
 30
0.0
  9
$PUCSORGRIGHT
 10
0.0
 20
0.0
 30
0.0
  9
$PUCSORGFRONT
 10
0.0
 20
0.0
 30
0.0
  9
$PUCSORGBACK
 10
0.0
 20
0.0
 30
0.0
  9
$USERI1
 70
     0
  9
$USERI2
 70
     0
  9
$USERI3
 70
     0
  9
$USERI4
 70
     0
  9
$USERI5
 70
     0
  9
$USERR1
 40
0.0
  9
$USERR2
 40
0.0
  9
$USERR3
 40
0.0
  9
$USERR4
 40
0.0
  9
$USERR5
 40
0.0
  9
$WORLDVIEW
 70
     1
  9
$SHADEDGE
 70
     3
  9
$SHADEDIF
 70
    70
  9
$TILEMODE
 70
     1
  9
$MAXACTVP
 70
    64
  9
$PINSBASE
 10
0.0
 20
0.0
 30
0.0
  9
$PLIMCHECK
 70
     0
  9
$PEXTMIN
 10
0.0
 20
0.0
 30
0.0
  9
$PEXTMAX
 10
3000.0
 20
4500.0
 30
0.0
  9
$PLIMMIN
 10
0.0
 20
0.0
  9
$PLIMMAX
 10
3000.0
 20
4500.0
  9
$UNITMODE
 70
     0
  9
$VISRETAIN
 70
     1
  9
$PLINEGEN
 70
     0
  9
$PSLTSCALE
 70
     1
  9
$TREEDEPTH
 70
  3020
  9
$CMLSTYLE
  2
Standard
  9
$CMLJUST
 70
     0
  9
$CMLSCALE
 40
20.0
  9
$PROXYGRAPHICS
 70
     1
  9
$MEASUREMENT
 70
     1
  9
$CELWEIGHT
370
    -1
  9
$ENDCAPS
280
     0
  9
$JOINSTYLE
280
     0
  9
$LWDISPLAY
290
     0
  9
$INSUNITS
 70
     4
  9
$HYPERLINKBASE
  1

  9
$STYLESHEET
  1

  9
$XEDIT
290
     1
  9
$CEPSNTYPE
380
     0
  9
$PSTYLEMODE
290
     1
  9
$FINGERPRINTGUID
  2
{A2A68C86-C330-44CA-A520-23472CF8064B}
  9
$VERSIONGUID
  2
{FAEB1C32-E019-11D5-929B-00C0DF256EC4}
  9
$EXTNAMES
290
     1
  9
$PSVPSCALE
 40
0.0
  9
$OLESTARTUP
290
     0
  9
$SORTENTS
280
   127
  9
$INDEXCTL
280
     0
  9
$HIDETEXT
280
     1
  9
$XCLIPFRAME
290
     0
  9
$HALOGAP
280
     0
  9
$OBSCOLOR
 70
   257
  9
$OBSLTYPE
280
     0
  9
$INTERSECTIONDISPLAY
280
     0
  9
$INTERSECTIONCOLOR
 70
   257
  9
$DIMASSOC
280
     2
  9
$PROJECTNAME
  1

  9
$CAMERADISPLAY
290
     0
  9
$LENSLENGTH
 40
50.0
  9
$CAMERAHEIGHT
 40
0.0
  9
$STEPSPERSEC
 40
2.0
  9
$STEPSIZE
 40
6.0
  9
$3DDWFPREC
 40
2.0
  9
$PSOLWIDTH
 40
5.0
  9
$PSOLHEIGHT
 40
80.0
  9
$LOFTANG1
 40
1.5707963268
  9
$LOFTANG2
 40
1.5707963268
  9
$LOFTMAG1
 40
0.0
  9
$LOFTMAG2
 40
0.0
  9
$LOFTPARAM
 70
     7
  9
$LOFTNORMALS
280
     1
  9
$LATITUDE
 40
37.795
  9
$LONGITUDE
 40
-122.394
  9
$NORTHDIRECTION
 40
0.0
  9
$TIMEZONE
 70
 -8000
  9
$LIGHTGLYPHDISPLAY
280
     1
  9
$TILEMODELIGHTSYNCH
280
     1
  9
$CMATERIAL
347
44
  9
$SOLIDHIST
280
     0
  9
$SHOWHIST
280
     1
  9
$DWFFRAME
280
     2
  9
$DGNFRAME
280
     2
  9
$REALWORLDSCALE
290
     1
  9
$INTERFERECOLOR
 62
   256
  9
$CSHADOW
280
     0
  9
$SHADOWPLANELOCATION
 40
0.0
  0
ENDSEC
  0
SECTION
  2
CLASSES
  0
CLASS
  1
ACDBDICTIONARYWDFLT
  2
AcDbDictionaryWithDefault
  3
ObjectDBX Classes
 90
        0
 91
        4
280
     0
281
     0
  0
CLASS
  1
VISUALSTYLE
  2
AcDbVisualStyle
  3
ObjectDBX Classes
 90
     4095
 91
        4
280
     0
281
     0
  0
CLASS
  1
MATERIAL
  2
AcDbMaterial
  3
ObjectDBX Classes
 90
     1153
 91
        4
280
     0
281
     0
  0
CLASS
  1
SCALE
  2
AcDbScale
  3
ObjectDBX Classes
 90
     1153
 91
        4
280
     0
281
     0
  0
CLASS
  1
TABLESTYLE
  2
AcDbTableStyle
  3
ObjectDBX Classes
 90
     4095
 91
        4
280
     0
281
     0
  0
CLASS
  1
MLEADERSTYLE
  2
AcDbMLeaderStyle
  3
ACDB_MLEADERSTYLE_CLASS
 90
     4095
 91
        4
280
     0
281
     0
  0
CLASS
  1
SUN
  2
AcDbSun
  3
SCENEOE
 90
     1153
 91
        4
280
     0
281
     0
  0
CLASS
  1
DICTIONARYVAR
  2
AcDbDictionaryVar
  3
ObjectDBX Classes
 90
        0
 91
        4
280
     0
281
     0
  0
CLASS
  1
CELLSTYLEMAP
  2
AcDbCellStyleMap
  3
ObjectDBX Classes
 90
     1152
 91
        4
280
     0
281
     0
  0
ENDSEC
  0
SECTION
  2
TABLES
  0
TABLE
  2
VPORT
  5
8
330
0
100
AcDbSymbolTable
 70
     1
  0
VPORT
  5
29
330
8
100
AcDbSymbolTableRecord
100
AcDbViewportTableRecord
  2
*Active
 70
     0
 10
0.0
 20
0.0
 11
1.0
 21
1.0
 12
344.1869158879
 22
148.5
 13
0.0
 23
0.0
 14
10.0
 24
10.0
 15
10.0
 25
10.0
 16
0.0
 26
0.0
 36
1.0
 17
0.0
 27
0.0
 37
0.0
 40
297.0
 41
1.9729729729
 42
50.0
 43
0.0
 44
0.0
 50
0.0
 51
0.0
 71
     0
 72
   100
 73
     1
 74
     3
 75
     0
 76
     0
 77
     0
 78
     0
281
     0
 65
     1
110
0.0
120
0.0
130
0.0
111
1.0
121
0.0
131
0.0
112
0.0
122
1.0
132
0.0
 79
     0
146
0.0
348
2F
 60
     3
 61
     5
292
     1
282
     1
141
0.0
142
0.0
 63
   250
361
6D
  0
ENDTAB
  0
TABLE
  2
LTYPE
  5
5
330
0
100
AcDbSymbolTable
 70
     1
  0
LTYPE
  5
14
330
5
100
AcDbSymbolTableRecord
100
AcDbLinetypeTableRecord
  2
ByBlock
 70
     0
  3

 72
    65
 73
     0
 40
0.0
  0
LTYPE
  5
15
330
5
100
AcDbSymbolTableRecord
100
AcDbLinetypeTableRecord
  2
ByLayer
 70
     0
  3

 72
    65
 73
     0
 40
0.0
  0
LTYPE
  5
16
330
5
100
AcDbSymbolTableRecord
100
AcDbLinetypeTableRecord
  2
Continuous
 70
     0
  3
Solid line
 72
    65
 73
     0
 40
0.0
  0
ENDTAB
  0
TABLE
  2
LAYER
  5
2
330
0
100
AcDbSymbolTable
 70
     5
  0
LAYER
  5
10
330
2
100
AcDbSymbolTableRecord
100
AcDbLayerTableRecord
  2
0
 70
     0
 62
     7
  6
Continuous
370
    -3
390
F
347
46
  0
LAYER
  5
6E
330
2
100
AcDbSymbolTableRecord
100
AcDbLayerTableRecord
  2
Default
 70
     0
 62
     7
  6
Continuous
370
    -3
390
F
347
46
  0
LAYER
  5
95
330
2
100
AcDbSymbolTableRecord
100
AcDbLayerTableRecord
  2
DV1_Default
 70
     0
 62
     7
  6
Continuous
370
    -3
390
F
347
46
  0
LAYER
  5
13E
330
2
100
AcDbSymbolTableRecord
100
AcDbLayerTableRecord
  2
DV2_Default
 70
     0
 62
     7
  6
Continuous
370
    -3
390
F
347
46
  0
LAYER
  5
220
330
2
100
AcDbSymbolTableRecord
100
AcDbLayerTableRecord
  2
DV3_Default
 70
     0
 62
     7
  6
Continuous
370
    -3
390
F
347
46
  0
ENDTAB
  0
TABLE
  2
STYLE
  5
3
330
0
100
AcDbSymbolTable
 70
     1
  0
STYLE
  5
11
330
3
100
AcDbSymbolTableRecord
100
AcDbTextStyleTableRecord
  2
Standard
 70
     0
 40
0.0
 41
1.0
 50
0.0
 71
     0
 42
10.0
  3
txt
  4

  0
ENDTAB
  0
TABLE
  2
VIEW
  5
6
330
0
100
AcDbSymbolTable
 70
     0
  0
ENDTAB
  0
TABLE
  2
UCS
  5
7
330
0
100
AcDbSymbolTable
 70
     0
  0
ENDTAB
  0
TABLE
  2
APPID
  5
9
330
0
100
AcDbSymbolTable
 70
     2
  0
APPID
  5
12
330
9
100
AcDbSymbolTableRecord
100
AcDbRegAppTableRecord
  2
ACAD
 70
     0
  0
APPID
  5
286
330
9
100
AcDbSymbolTableRecord
100
AcDbRegAppTableRecord
  2
ACAD_MLEADERVER
 70
     0
  0
ENDTAB
  0
TABLE
  2
DIMSTYLE
  5
A
330
0
100
AcDbSymbolTable
 70
     1
100
AcDbDimStyleTable
  0
DIMSTYLE
105
27
330
A
100
AcDbSymbolTableRecord
100
AcDbDimStyleTableRecord
  2
ISO-25
 70
     0
 41
2.5
 42
0.625
 43
3.75
 44
1.25
 73
     0
 74
     0
 77
     1
 78
     8
140
2.5
141
2.5
143
0.0393700787
147
0.625
171
     3
172
     1
178
     0
271
     2
272
     2
274
     3
278
    44
283
     0
284
     8
340
11
  0
ENDTAB
  0
TABLE
  2
BLOCK_RECORD
  5
1
330
0
100
AcDbSymbolTable
 70
    10
  0
BLOCK_RECORD
  5
1F
330
1
100
AcDbSymbolTableRecord
100
AcDbBlockTableRecord
  2
*Model_Space
340
22
 70
     0
280
     1
281
     0
  0
BLOCK_RECORD
  5
1B
330
1
100
AcDbSymbolTableRecord
100
AcDbBlockTableRecord
  2
*Paper_Space
340
1E
 70
     0
280
     1
281
     0
  0
BLOCK_RECORD
  5
6F
330
1
100
AcDbSymbolTableRecord
100
AcDbBlockTableRecord
  2
SEANNOT_GROUP
340
0
102
{BLKREFS
331
70
102
}
 70
     0
280
     1
281
     0
  0
BLOCK_RECORD
  5
75
330
1
100
AcDbSymbolTableRecord
100
AcDbBlockTableRecord
  2
SEANNOT_GROUP1
340
0
102
{BLKREFS
331
76
102
}
 70
     0
280
     1
281
     0
  0
BLOCK_RECORD
  5
7B
330
1
100
AcDbSymbolTableRecord
100
AcDbBlockTableRecord
  2
SEANNOT_GROUP2
340
0
102
{BLKREFS
331
7C
102
}
 70
     0
280
     1
281
     0
  0
BLOCK_RECORD
  5
81
330
1
100
AcDbSymbolTableRecord
100
AcDbBlockTableRecord
  2
SEANNOT_GROUP3
340
0
102
{BLKREFS
331
82
102
}
 70
     0
280
     1
281
     0
  0
BLOCK_RECORD
  5
87
330
1
100
AcDbSymbolTableRecord
100
AcDbBlockTableRecord
  2
SEANNOT_GROUP4
340
0
102
{BLKREFS
331
88
102
}
 70
     0
280
     1
281
     0
  0
BLOCK_RECORD
  5
8D
330
1
100
AcDbSymbolTableRecord
100
AcDbBlockTableRecord
  2
SEANNOT_GROUP5
340
0
102
{BLKREFS
331
8E
102
}
 70
     0
280
     1
281
     0
  0
BLOCK_RECORD
  5
93
330
1
100
AcDbSymbolTableRecord
100
AcDbBlockTableRecord
  2
SE
340
0
102
{BLKREFS
331
94
102
}
 70
     0
280
     1
281
     0
  0
BLOCK_RECORD
  5
13C
330
1
100
AcDbSymbolTableRecord
100
AcDbBlockTableRecord
  2
SE1
340
0
102
{BLKREFS
331
13D
102
}
 70
     0
280
     1
281
     0
  0
BLOCK_RECORD
  5
21E
330
1
100
AcDbSymbolTableRecord
100
AcDbBlockTableRecord
  2
SE2
340
0
102
{BLKREFS
331
21F
102
}
 70
     0
280
     1
281
     0
  0
ENDTAB
  0
ENDSEC
  0
SECTION
  2
BLOCKS
  0
BLOCK
  5
20
330
1F
100
AcDbEntity
  8
0
100
AcDbBlockBegin
  2
*Model_Space
 70
     0
 10
0.0
 20
0.0
 30
0.0
  3
*Model_Space
  1

  0
ENDBLK
  5
21
330
1F
100
AcDbEntity
  8
0
100
AcDbBlockEnd
  0
BLOCK
  5
1C
330
1B
100
AcDbEntity
 67
     1
  8
0
100
AcDbBlockBegin
  2
*Paper_Space
 70
     0
 10
0.0
 20
0.0
 30
0.0
  3
*Paper_Space
  1

  0
ENDBLK
  5
1D
330
1B
100
AcDbEntity
 67
     1
  8
0
100
AcDbBlockEnd
  0
BLOCK
  5
73
330
6F
100
AcDbEntity
  8
0
100
AcDbBlockBegin
  2
SEANNOT_GROUP
 70
     0
 10
0.0
 20
0.0
 30
0.0
  3
SEANNOT_GROUP
  1

  0
LINE
  5
71
330
6F
100
AcDbEntity
  8
Default
 62
   136
100
AcDbLine
 10
60.0624277046
 20
663.2345440302
 30
0.0
 11
20.0624285986
 21
663.2345440302
 31
0.0
  0
LINE
  5
72
330
6F
100
AcDbEntity
  8
Default
 62
   136
100
AcDbLine
 10
40.0624281516
 20
683.2345435831
 30
0.0
 11
40.0624281516
 21
643.2345444772
 31
0.0
  0
ENDBLK
  5
74
330
6F
100
AcDbEntity
  8
0
100
AcDbBlockEnd
  0
BLOCK
  5
79
330
75
100
AcDbEntity
  8
0
100
AcDbBlockBegin
  2
SEANNOT_GROUP1
 70
     0
 10
0.0
 20
0.0
 30
0.0
  3
SEANNOT_GROUP1
  1

  0
LINE
  5
77
330
75
100
AcDbEntity
  8
Default
 62
   136
100
AcDbLine
 10
322.7156895156
 20
663.2345440302
 30
0.0
 11
282.7156904097
 21
663.2345440302
 31
0.0
  0
LINE
  5
78
330
75
100
AcDbEntity
  8
Default
 62
   136
100
AcDbLine
 10
302.7156899627
 20
683.2345435831
 30
0.0
 11
302.7156899627
 21
643.2345444772
 31
0.0
  0
ENDBLK
  5
7A
330
75
100
AcDbEntity
  8
0
100
AcDbBlockEnd
  0
BLOCK
  5
7F
330
7B
100
AcDbEntity
  8
0
100
AcDbBlockBegin
  2
SEANNOT_GROUP2
 70
     0
 10
0.0
 20
0.0
 30
0.0
  3
SEANNOT_GROUP2
  1

  0
LINE
  5
7D
330
7B
100
AcDbEntity
  8
Default
 62
   136
100
AcDbLine
 10
60.1129634076
 20
140.1326126548
 30
0.0
 11
20.1129643016
 21
140.1326126548
 31
0.0
  0
LINE
  5
7E
330
7B
100
AcDbEntity
  8
Default
 62
   136
100
AcDbLine
 10
40.1129638546
 20
160.1326122078
 30
0.0
 11
40.1129638546
 21
120.1326131019
 31
0.0
  0
ENDBLK
  5
80
330
7B
100
AcDbEntity
  8
0
100
AcDbBlockEnd
  0
BLOCK
  5
85
330
81
100
AcDbEntity
  8
0
100
AcDbBlockBegin
  2
SEANNOT_GROUP3
 70
     0
 10
0.0
 20
0.0
 30
0.0
  3
SEANNOT_GROUP3
  1

  0
LINE
  5
83
330
81
100
AcDbEntity
  8
Default
 62
   136
100
AcDbLine
 10
60.1070218299
 20
372.4478376702
 30
0.0
 11
20.1070227239
 21
372.4478376702
 31
0.0
  0
LINE
  5
84
330
81
100
AcDbEntity
  8
Default
 62
   136
100
AcDbLine
 10
40.1070222769
 20
392.4478372232
 30
0.0
 11
40.1070222769
 21
352.4478381173
 31
0.0
  0
ENDBLK
  5
86
330
81
100
AcDbEntity
  8
0
100
AcDbBlockEnd
  0
BLOCK
  5
8B
330
87
100
AcDbEntity
  8
0
100
AcDbBlockBegin
  2
SEANNOT_GROUP4
 70
     0
 10
0.0
 20
0.0
 30
0.0
  3
SEANNOT_GROUP4
  1

  0
LINE
  5
89
330
87
100
AcDbEntity
  8
Default
 62
   136
100
AcDbLine
 10
60.0980629977
 20
876.7471481169
 30
0.0
 11
20.0980638917
 21
876.7471481169
 31
0.0
  0
LINE
  5
8A
330
87
100
AcDbEntity
  8
Default
 62
   136
100
AcDbLine
 10
40.0980634447
 20
896.7471476699
 30
0.0
 11
40.0980634447
 21
856.747148564
 31
0.0
  0
ENDBLK
  5
8C
330
87
100
AcDbEntity
  8
0
100
AcDbBlockEnd
  0
BLOCK
  5
91
330
8D
100
AcDbEntity
  8
0
100
AcDbBlockBegin
  2
SEANNOT_GROUP5
 70
     0
 10
0.0
 20
0.0
 30
0.0
  3
SEANNOT_GROUP5
  1

  0
LINE
  5
8F
330
8D
100
AcDbEntity
  8
Default
 62
   136
100
AcDbLine
 10
558.8410609487
 20
876.9673191816
 30
0.0
 11
518.8410618428
 21
876.9673191816
 31
0.0
  0
LINE
  5
90
330
8D
100
AcDbEntity
  8
Default
 62
   136
100
AcDbLine
 10
538.8410613958
 20
896.9673187346
 30
0.0
 11
538.8410613958
 21
856.9673196287
 31
0.0
  0
ENDBLK
  5
92
330
8D
100
AcDbEntity
  8
0
100
AcDbBlockEnd
  0
BLOCK
  5
13A
330
93
100
AcDbEntity
  8
0
100
AcDbBlockBegin
  2
SE
 70
     0
 10
0.0
 20
0.0
 30
0.0
  3
SE
  1

  0
LINE
  5
96
330
93
100
AcDbEntity
  8
DV1_Default
 62
     7
100
AcDbLine
 10
25.5622740355
 20
863.2346283647
 30
0.0
 11
54.5628553443
 21
863.2346283647
 31
0.0
  0
LINE
  5
97
330
93
100
AcDbEntity
  8
DV1_Default
 62
     7
100
AcDbLine
 10
84.5624281516
 20
754.2346231864
 30
0.0
 11
84.5624281516
 21
706.2344648739
 31
0.0
  0
LINE
  5
98
330
93
100
AcDbEntity
  8
DV1_Default
 62
     7
100
AcDbLine
 10
69.8457661347
 20
663.2346283647
 30
0.0
 11
10.279090261
 21
663.2346283647
 31
0.0
  0
SPLINE
  5
99
330
93
100
AcDbEntity
  8
DV1_Default
 62
     7
100
AcDbSpline
210
0.0
220
0.0
230
1.0
 70
     8
 71
     3
 72
    26
 73
    22
 74
     0
 42
0.000000001
 43
0.0000000001
 40
0.0
 40
0.0
 40
0.0
 40
0.0
 40
0.0256511939046994
 40
0.0559488400525181
 40
0.0883156835520618
 40
0.1226696967414964
 40
0.1589274815021168
 40
0.1970046325513926
 40
0.236815992693299
 40
0.2825091661587973
 40
0.3300823012457647
 40
0.3794202280100051
 40
0.4304074269187042
 40
0.4829281227912248
 40
0.5519604963483162
 40
0.6230581953724756
 40
0.6959801606042899
 40
0.7704853126107803
 40
0.8463326723799252
 40
0.9232814726540246
 40
1.0
 40
1.0
 40
1.0
 40
1.0
 10
25.05802952511289
 20
862.735515987882
 30
0.0
 10
25.04799058439151
 20
860.8555630483067
 30
0.0
 10
25.02701185457186
 20
857.3927736048381
 30
0.0
 10
24.87443970228234
 20
851.3871381067511
 30
0.0
 10
24.63889459743762
 20
844.9647266949758
 30
0.0
 10
24.31620395596383
 20
838.1000187424554
 30
0.0
 10
23.9158088958019
 20
830.8725627463874
 30
0.0
 10
23.44191703249593
 20
823.281095830731
 30
0.0
 10
22.88106835809123
 20
815.0665243355272
 30
0.0
 10
22.23212414929744
 20
806.2235648914243
 30
0.0
 10
21.49603581436986
 20
796.7507736630607
 30
0.0
 10
20.69897950263308
 20
786.92895833006
 30
0.0
 10
19.84821614617017
 20
776.7808461656654
 30
0.0
 10
18.86496792171277
 20
765.3269868484997
 30
0.0
 10
17.74684975876711
 20
752.5402972045074
 30
0.0
 10
16.49755019123551
 20
738.3988784777151
 30
0.0
 10
15.2153293240557
 20
723.9011042897754
 30
0.0
 10
13.9123190457163
 20
709.061289790108
 30
0.0
 10
12.61492023326867
 20
694.052102348136
 30
0.0
 10
11.30122213293164
 20
678.5145286978071
 30
0.0
 10
10.53400901868526
 20
669.0563965596212
 30
0.0
 10
10.08017838255781
 20
663.4520296305685
 30
0.0
  0
SPLINE
  5
9A
330
93
100
AcDbEntity
  8
DV1_Default
 62
     7
100
AcDbSpline
210
0.0
220
0.0
230
1.0
 70
     8
 71
     3
 72
    19
 73
    15
 74
     0
 42
0.000000001
 43
0.0000000001
 40
0.0
 40
0.0
 40
0.0
 40
0.0
 40
0.0832705691715095
 40
0.2067914803741261
 40
0.3257331939053707
 40
0.4173033109015281
 40
0.505452674064624
 40
0.5899645695059693
 40
0.6706232947283673
 40
0.7472145089475066
 40
0.8182732083931614
 40
0.8850044486138419
 40
0.9472125578133325
 40
1.0
 40
1.0
 40
1.0
 40
1.0
 10
61.99625913040674
 20
756.9367300760092
 30
0.0
 10
61.71339650028187
 20
760.1623701544329
 30
0.0
 10
61.11956188792571
 20
766.9460172609847
 30
0.0
 10
60.11327460853934
 20
778.6860696356828
 30
0.0
 10
59.14101352480166
 20
790.3796683868798
 30
0.0
 10
58.30042578905792
 20
800.9190438755014
 30
0.0
 10
57.59340177280414
 20
810.2295543224218
 30
0.0
 10
56.95739158148895
 20
819.1625401069427
 30
0.0
 10
56.39994903710105
 20
827.6916248072804
 30
0.0
 10
55.93114678384702
 20
835.7453403947547
 30
0.0
 10
55.55516809391935
 20
843.3267350272226
 30
0.0
 10
55.28177775483499
 20
850.3505688261235
 30
0.0
 10
55.10367993578903
 20
856.9067455482698
 30
0.0
 10
55.07902504946994
 20
860.6828870458171
 30
0.0
 10
55.06715861747792
 20
862.7355194596571
 30
0.0
  0
SPLINE
  5
9B
330
93
100
AcDbEntity
  8
DV1_Default
 62
     7
100
AcDbSpline
210
0.0
220
0.0
230
1.0
 70
     8
 71
     3
 72
    10
 73
     6
 74
     0
 42
0.000000001
 43
0.0000000001
 40
0.0
 40
0.0
 40
0.0
 40
0.0
 40
0.4792171617391977
 40
0.956707380893426
 40
1.0
 40
1.0
 40
1.0
 40
1.0
 10
70.04467964730577
 20
663.4510780876401
 30
0.0
 10
69.47610424258602
 20
670.4521572208772
 30
0.0
 10
68.53051319222766
 20
682.060606212363
 30
0.0
 10
67.33501418689706
 20
696.1196581412183
 30
0.0
 10
66.76454680758742
 20
702.6544975835105
 30
0.0
 10
66.70934112501298
 20
703.2866534961511
 30
0.0
  0
ARC
  5
9C
330
93
100
AcDbEntity
  8
DV1_Default
 62
     7
100
AcDbCircle
 10
64.7978089864
 20
757.036104496
 30
0.0
 40
2.80555331474547
100
AcDbArc
 50
182.0340401635
 51
272.9716169852
  0
SPLINE
  5
9D
330
93
100
AcDbEntity
  8
DV1_Default
 62
     7
100
AcDbSpline
210
0.0
220
0.0
230
1.0
 70
     8
 71
     3
 72
    13
 73
     9
 74
     0
 42
0.000000001
 43
0.0000000001
 40
0.0
 40
0.0
 40
0.0
 40
0.0
 40
0.2665682207771616
 40
0.3855877861194155
 40
0.5000000000015566
 40
0.614412213883304
 40
0.7334317792245828
 40
1.0
 40
1.0
 40
1.0
 40
1.0
 10
66.71066723345439
 20
703.2867641739471
 30
0.0
 10
66.7077138277946
 20
703.7312588382117
 30
0.0
 10
66.71970823956597
 20
704.2837749022879
 30
0.0
 10
67.02872548296389
 20
704.9940357645645
 30
0.0
 10
67.34025996972997
 20
705.4231442441674
 30
0.0
 10
67.74090376454939
 20
705.770523537423
 30
0.0
 10
68.4218696115887
 20
706.1396409501248
 30
0.0
 10
68.97129294574952
 20
706.1992384907971
 30
0.0
 10
69.41438637380938
 20
706.2346283646648
 30
0.0
  0
SPLINE
  5
9E
330
93
100
AcDbEntity
  8
DV1_Default
 62
     7
100
AcDbSpline
210
0.0
220
0.0
230
1.0
 70
     8
 71
     3
 72
    11
 73
     7
 74
     0
 42
0.000000001
 43
0.0000000001
 40
0.0
 40
0.0
 40
0.0
 40
0.0
 40
0.2543925345796708
 40
0.4999999999998744
 40
0.7456074654201619
 40
1.0
 40
1.0
 40
1.0
 40
1.0
 10
55.06285462095758
 20
862.7354788429138
 30
0.0
 10
55.0555547955874
 20
862.8078326060681
 30
0.0
 10
55.0392795567977
 20
862.9305127449147
 30
0.0
 10
54.92470595046463
 20
863.0970949873522
 30
0.0
 10
54.75792906428967
 20
863.2113850787921
 30
0.0
 10
54.6352214194421
 20
863.2274516204583
 30
0.0
 10
54.56285534427128
 20
863.2346283646648
 30
0.0
  0
SPLINE
  5
9F
330
93
100
AcDbEntity
  8
DV1_Default
 62
     7
100
AcDbSpline
210
0.0
220
0.0
230
1.0
 70
     8
 71
     3
 72
    11
 73
     7
 74
     0
 42
0.000000001
 43
0.0000000001
 40
0.0
 40
0.0
 40
0.0
 40
0.0
 40
0.2543903265354275
 40
0.4999969235188129
 40
0.7456052551669103
 40
1.0
 40
1.0
 40
1.0
 40
1.0
 10
25.56227403546894
 20
863.2346283646648
 30
0.0
 10
25.48990929017182
 20
863.2274515611455
 30
0.0
 10
25.36720349456546
 20
863.2113849483318
 30
0.0
 10
25.20042971397085
 20
863.0970944506568
 30
0.0
 10
25.08585867392489
 20
862.9305122444797
 30
0.0
 10
25.06958381452451
 20
862.8078325712021
 30
0.0
 10
25.06228418662444
 20
862.7354788429197
 30
0.0
  0
LINE
  5
A0
330
93
100
AcDbEntity
  8
DV1_Default
 62
     7
100
AcDbLine
 10
69.4143782044
 20
706.2344648739
 30
0.0
 11
84.5624281516
 21
706.2344648739
 31
0.0
  0
LINE
  5
A1
330
93
100
AcDbEntity
  8
DV1_Default
 62
     7
100
AcDbLine
 10
84.5624281516
 20
754.2346231864
 30
0.0
 11
64.9423274693
 21
754.2346231864
 31
0.0
  0
ARC
  5
A2
330
93
100
AcDbEntity
  8
DV1_Default
 62
     7
100
AcDbCircle
 10
10.279090261
 20
663.4346283647
 30
0.0
 40
0.2000000000000006
100
AcDbArc
 50
175.4186019066
 51
270.0
  0
ARC
  5
A3
330
93
100
AcDbEntity
  8
DV1_Default
 62
     7
100
AcDbCircle
 10
69.8457661347
 20
663.4346283647
 30
0.0
 40
0.2
100
AcDbArc
 50
270.0
 51
4.5813980934
  0
LINE
  5
A4
330
93
100
AcDbEntity
  8
DV1_Default
 62
     7
100
AcDbLine
 10
25.0608473518
 20
863.7346283647
 30
0.0
 11
55.0625074621
 21
863.7346283647
 31
0.0
  0
ARC
  5
A5
330
93
100
AcDbEntity
  8
DV1_Default
 62
     7
100
AcDbCircle
 10
-174400.0050609761
 20
959.2680863949
 30
0.0
 40
174455.0937260072
100
AcDbArc
 50
359.9686242224
 51
359.9729198271
  0
ARC
  5
A6
330
93
100
AcDbEntity
  8
DV1_Default
 62
     7
100
AcDbCircle
 10
2260.9371808074
 20
1056.1317857717
 30
0.0
 40
2205.882330349892
100
AcDbArc
 50
180.1779804111
 51
181.7564281179
  0
ARC
  5
A7
330
93
100
AcDbEntity
  8
DV1_Default
 62
     7
100
AcDbCircle
 10
40.062059575
 20
1049.4314171752
 30
0.0
 40
15.00419874158821
100
AcDbArc
 50
359.4201412088
 51
180.5857668155
  0
SPLINE
  5
A8
330
93
100
AcDbEntity
  8
DV1_Default
 62
     7
100
AcDbSpline
210
0.0
220
0.0
230
1.0
 70
     8
 71
     3
 72
     9
 73
     5
 74
     0
 42
0.000000001
 43
0.0000000001
 40
0.0
 40
0.0
 40
0.0
 40
0.0
 40
0.165602461305154
 40
0.9999999999999999
 40
0.9999999999999999
 40
0.9999999999999999
 40
0.9999999999999999
 10
25.06085089471763
 20
876.8176292977286
 30
0.0
 10
25.06085069616158
 20
876.1004179102674
 30
0.0
 10
25.06084951138302
 20
871.7998925030224
 30
0.0
 10
25.06084842297432
 20
867.748998549229
 30
0.0
 10
25.06084735178284
 20
863.7346283646649
 30
0.0
  0
ARC
  5
A9
330
93
100
AcDbEntity
  8
DV1_Default
 62
     7
100
AcDbCircle
 10
-2022.9010222746
 20
1051.7100068035
 30
0.0
 40
2047.960599931939
100
AcDbArc
 50
358.2318536424
 51
359.9319604288
  0
LINE
  5
AA
330
93
100
AcDbEntity
  8
DV1_Default
 62
     7
100
AcDbLine
 10
84.7624281516
 20
706.4362149373
 30
0.0
 11
84.7624281516
 21
754.0328672713
 31
0.0
  0
LINE
  5
AB
330
93
100
AcDbEntity
  8
DV1_Default
 62
     7
100
AcDbLine
 10
84.9641734587
 20
706.2362225527
 30
0.0
 11
94.7517250425
 21
706.3216372214
 31
0.0
  0
ARC
  5
AC
330
93
100
AcDbEntity
  8
DV1_Default
 62
     7
100
AcDbCircle
 10
84.9624281516
 20
706.4362149373
 30
0.0
 40
0.1999999999999988
100
AcDbArc
 50
180.0
 51
270.5000000001
  0
ARC
  5
AD
330
93
100
AcDbEntity
  8
DV1_Default
 62
     7
100
AcDbCircle
 10
84.9624281516
 20
754.0328672713
 30
0.0
 40
0.2000000000000077
100
AcDbArc
 50
89.4999999999
 51
180.0
  0
ELLIPSE
  5
AE
330
93
100
AcDbEntity
  8
DV1_Default
 62
     7
100
AcDbEllipse
 10
134.2812445229
 20
710.3030092364
 30
0.0
 11
-0.9999999960065148
 21
8.933503880398375E-5
 31
0.0
210
0.0
220
0.0
230
1.0
 40
0.8660453962
 41
3.013101021648952
 42
3.257285863031386
  0
LINE
  5
AF
330
93
100
AcDbEntity
  8
DV1_Default
 62
     7
100
AcDbLine
 10
133.7339082449
 20
706.2399796465
 30
0.0
 11
100.2460592164
 21
706.3892636152
 31
0.0
  0
SPLINE
  5
B0
330
93
100
AcDbEntity
  8
DV1_Default
 62
     7
100
AcDbSpline
210
0.0
220
0.0
230
1.0
 70
     8
 71
     3
 72
     8
 73
     4
 74
     0
 42
0.000000001
 43
0.0000000001
 40
0.0
 40
0.0
 40
0.0
 40
0.0
 40
1.0
 40
1.0
 40
1.0
 40
1.0
 10
113.2141169692138
 20
824.3758218404789
 30
0.0
 10
113.21466969138
 20
824.3008564070882
 30
0.0
 10
113.2182886513121
 20
824.2257750774733
 30
0.0
 10
113.2249667189181
 20
824.1506443084097
 30
0.0
  0
ARC
  5
B1
330
93
100
AcDbEntity
  8
DV1_Default
 62
     7
100
AcDbCircle
 10
133.7462367182
 20
707.2104604675
 30
0.0
 40
0.9705667607842126
100
AcDbArc
 50
269.272187607
 51
291.3348581526
  0
ARC
  5
B2
330
93
100
AcDbEntity
  8
DV1_Default
 62
     7
100
AcDbCircle
 10
62.7181620794
 20
709.1832136804
 30
0.0
 40
72.56665709972441
100
AcDbArc
 50
0.9630559507
 51
7.1427400457
  0
ARC
  5
B3
330
93
100
AcDbEntity
  8
DV1_Default
 62
     7
100
AcDbCircle
 10
116.0591792144
 20
824.4851069518
 30
0.0
 40
4.296511421946764
100
AcDbArc
 50
5.2029882378
 51
22.5064148441
  0
SPLINE
  5
B4
330
93
100
AcDbEntity
  8
DV1_Default
 62
     7
100
AcDbSpline
210
0.0
220
0.0
230
1.0
 70
     8
 71
     3
 72
    11
 73
     7
 74
     0
 42
0.000000001
 43
0.0000000001
 40
0.0
 40
0.0
 40
0.0
 40
0.0
 40
0.1410831789090544
 40
0.3449201736380967
 40
0.8110891368916062
 40
1.0
 40
1.0
 40
1.0
 40
1.0
 10
120.3379875930038
 20
824.8747340278535
 30
0.0
 10
121.0511027504735
 20
819.5929701268502
 30
0.0
 10
122.7012422281296
 20
807.3701732885348
 30
0.0
 10
126.582453746979
 20
778.605548014417
 30
0.0
 10
130.689696514228
 20
748.1322960710759
 30
0.0
 10
133.819186279998
 20
724.904632005099
 30
0.0
 10
134.721662786539
 20
718.2062735022055
 30
0.0
  0
LINE
  5
B5
330
93
100
AcDbEntity
  8
DV1_Default
 62
     7
100
AcDbLine
 10
134.7216637108
 20
718.206274075
 30
0.0
 11
134.7217604173
 21
718.2063776141
 31
0.0
  0
SPLINE
  5
B6
330
93
100
AcDbEntity
  8
DV1_Default
 62
     7
100
AcDbSpline
210
0.0
220
0.0
230
1.0
 70
     8
 71
     3
 72
    12
 73
     8
 74
     0
 42
0.000000001
 43
0.0000000001
 40
0.0
 40
0.0
 40
0.0
 40
0.0
 40
0.1378510429691629
 40
0.3590257215151041
 40
0.6335201466594262
 40
0.9607334464063478
 40
1.0
 40
1.0
 40
1.0
 40
1.0
 10
134.0964116306104
 20
706.3129446537534
 30
0.0
 10
134.1900904700427
 20
706.3539402930037
 30
0.0
 10
134.3957521563843
 20
706.4466096031686
 30
0.0
 10
134.6534502050138
 20
706.7196927968957
 30
0.0
 10
134.8992879825117
 20
707.1623095090254
 30
0.0
 10
135.027540937589
 20
707.6052339242797
 30
0.0
 10
135.0862415308818
 20
707.894422064201
 30
0.0
 10
135.0923622604637
 20
707.9258050998609
 30
0.0
  0
ARC
  5
B7
330
93
100
AcDbEntity
  8
DV1_Default
 62
     7
100
AcDbCircle
 10
30471.3552813318
 20
3485.9455245296
 30
0.0
 40
30474.59917062852
100
AcDbArc
 50
185.0108742017
 51
185.1434078516
  0
SPLINE
  5
B8
330
93
100
AcDbEntity
  8
DV1_Default
 62
     7
100
AcDbSpline
210
0.0
220
0.0
230
1.0
 70
     8
 71
     3
 72
    20
 73
    16
 74
     0
 42
0.000000001
 43
0.0000000001
 40
0.0
 40
0.0
 40
0.0
 40
0.0
 40
0.1140440423576184
 40
0.1811395111578034
 40
0.2345450839095557
 40
0.2949534839949275
 40
0.3638928259862252
 40
0.4237035354228303
 40
0.4793085671686886
 40
0.5601748651268897
 40
0.6471959931663795
 40
0.711494517461613
 40
0.8019516115209223
 40
0.8726651775217793
 40
1.0
 40
1.0
 40
1.0
 40
1.0
 10
115.5970835254877
 20
827.6123797159742
 30
0.0
 10
115.4183252500869
 20
827.5127192019922
 30
0.0
 10
115.1742676293032
 20
827.373577538467
 30
0.0
 10
114.8636757613398
 20
827.1597810946894
 30
0.0
 10
114.6408280784408
 20
826.9909739858064
 30
0.0
 10
114.4288526390159
 20
826.8136545786516
 30
0.0
 10
114.2261183849027
 20
826.623058307873
 30
0.0
 10
114.0455296663473
 20
826.4309298725117
 30
0.0
 10
113.8690579748682
 20
826.2193846232851
 30
0.0
 10
113.6911893219909
 20
825.970306829011
 30
0.0
 10
113.5369957401691
 20
825.7020525848642
 30
0.0
 10
113.4058720438861
 20
825.414506974732
 30
0.0
 10
113.3130860241482
 20
825.1403297122077
 30
0.0
 10
113.231711430989
 20
824.7792430088479
 30
0.0
 10
113.2207908738877
 20
824.5510269409162
 30
0.0
 10
113.2141132020786
 20
824.3758170785433
 30
0.0
  0
ARC
  5
B9
330
93
100
AcDbEntity
  8
DV1_Default
 62
     7
100
AcDbCircle
 10
117.2002943067
 20
825.0408956275
 30
0.0
 40
3.030315261714585
100
AcDbArc
 50
21.0570225639
 51
121.9487503344
  0
LINE
  5
BA
330
93
100
AcDbEntity
  8
DV1_Default
 62
     7
100
AcDbLine
 10
84.5624281516
 20
707.2345440302
 30
0.0
 11
84.7624281516
 21
707.2345440302
 31
0.0
  0
LINE
  5
BB
330
93
100
AcDbEntity
  8
DV1_Default
 62
     7
100
AcDbLine
 10
84.7624281516
 20
753.2345440302
 30
0.0
 11
84.5624281516
 21
753.2345440302
 31
0.0
  0
LINE
  5
BC
330
93
100
AcDbEntity
  8
DV1_Default
 62
     7
100
AcDbLine
 10
54.5279042931
 20
863.2346283647
 30
0.0
 11
25.5624281516
 21
863.2346283647
 31
0.0
  0
LINE
  5
BD
330
93
100
AcDbEntity
  8
DV1_Default
 62
     7
100
AcDbLine
 10
54.5279042931
 20
863.7346283647
 30
0.0
 11
25.5624281516
 21
863.7346283647
 31
0.0
  0
LINE
  5
BE
330
93
100
AcDbEntity
  8
DV1_Default
 62
     7
100
AcDbLine
 10
54.5279042931
 20
863.2346283647
 30
0.0
 11
54.5279042931
 21
863.7346283647
 31
0.0
  0
LINE
  5
BF
330
93
100
AcDbEntity
  8
DV1_Default
 62
     7
100
AcDbLine
 10
25.5624281516
 20
863.7346283647
 30
0.0
 11
25.5624281516
 21
863.2346283647
 31
0.0
  0
LINE
  5
C0
330
93
100
AcDbEntity
  8
DV1_Default
 62
     7
100
AcDbLine
 10
66.8624281516
 20
663.2345440302
 30
0.0
 11
13.2624281516
 21
663.2345440302
 31
0.0
  0
ARC
  5
C1
330
93
100
AcDbEntity
  8
DV1_Default
 62
     7
100
AcDbCircle
 10
13.2624281516
 20
663.4345440302
 30
0.0
 40
0.1999999999999988
100
AcDbArc
 50
268.3360488674
 51
270.0
  0
ARC
  5
C2
330
93
100
AcDbEntity
  8
DV1_Default
 62
     7
100
AcDbCircle
 10
66.8624281516
 20
663.4345440302
 30
0.0
 40
0.2
100
AcDbArc
 50
270.0
 51
271.6639511327
  0
ARC
  5
C3
330
93
100
AcDbEntity
  8
DV1_Default
 62
     7
100
AcDbCircle
 10
69.0766436449
 20
929.864038868
 30
0.0
 40
51.62317735953621
100
AcDbArc
 50
270.0834554345
 51
270.7033245541
  0
ARC
  5
C4
330
93
100
AcDbEntity
  8
DV1_Default
 62
     7
100
AcDbCircle
 10
40.4289197504
 20
871.2743017959
 30
0.0
 40
6.769553094172928
100
AcDbArc
 50
82.1973066848
 51
92.8674675376
  0
SPLINE
  5
C5
330
93
100
AcDbEntity
  8
DV1_Default
 62
     7
100
AcDbSpline
210
0.0
220
0.0
230
1.0
 70
     8
 71
     3
 72
    12
 73
     8
 74
     0
 42
0.000000001
 43
0.0000000001
 40
0.0
 40
0.0
 40
0.0
 40
0.0
 40
0.0004252413248102
 40
0.3294925809308366
 40
0.6592362339261528
 40
0.8025135366953156
 40
1.0
 40
1.0
 40
1.0
 40
1.0
 10
58.49228354243787
 20
878.0226426086712
 30
0.0
 10
58.49228559340763
 20
878.0226557574407
 30
0.0
 10
58.4936992914236
 20
878.0328383226615
 30
0.0
 10
58.22437547813597
 20
878.0445422727398
 30
0.0
 10
57.43334797966449
 20
878.0302438554378
 30
0.0
 10
56.77798519568614
 20
878.0061803608417
 30
0.0
 10
56.51231571975302
 20
877.9918262843032
 30
0.0
 10
56.35837060111964
 20
877.9835075130844
 30
0.0
  0
SPLINE
  5
C6
330
93
100
AcDbEntity
  8
DV1_Default
 62
     7
100
AcDbSpline
210
0.0
220
0.0
230
1.0
 70
     8
 71
     3
 72
    11
 73
     7
 74
     0
 42
0.000000001
 43
0.0000000001
 40
0.0
 40
0.0
 40
0.0
 40
0.0
 40
0.3125006568722499
 40
0.5851499038818465
 40
0.8178815999756415
 40
1.0
 40
1.0
 40
1.0
 40
1.0
 10
52.82283359393121
 20
877.7858882016661
 30
0.0
 10
52.75555095505873
 20
877.7823416255968
 30
0.0
 10
52.62959981160311
 20
877.7757007478884
 30
0.0
 10
52.51919702463668
 20
877.7669845672925
 30
0.0
 10
52.46646742193105
 20
877.760136447756
 30
0.0
 10
52.45650267807174
 20
877.7564766209017
 30
0.0
 10
52.45671741774571
 20
877.754982898953
 30
0.0
  0
LINE
  5
C7
330
93
100
AcDbEntity
  8
DV1_Default
 62
     7
100
AcDbLine
 10
56.3583494517
 20
877.9835075131
 30
0.0
 11
52.8228154533
 21
877.7858882017
 31
0.0
  0
SPLINE
  5
C8
330
93
100
AcDbEntity
  8
DV1_Default
 62
     7
100
AcDbSpline
210
0.0
220
0.0
230
1.0
 70
     8
 71
     3
 72
    11
 73
     7
 74
     0
 42
0.000000001
 43
0.0000000001
 40
0.0
 40
0.0
 40
0.0
 40
0.0
 40
0.1956265987788471
 40
0.5911590665575539
 40
0.7632296391575315
 40
1.0
 40
1.0
 40
1.0
 40
1.0
 10
63.74306847357148
 20
878.0347505291816
 30
0.0
 10
63.74324470863403
 20
878.0374653232983
 30
0.0
 10
63.65340864111791
 20
878.0419677205135
 30
0.0
 10
63.1698886956511
 20
878.030608850854
 30
0.0
 10
62.52743689189234
 20
878.0065784701337
 30
0.0
 10
62.2043732998627
 20
877.992218007861
 30
0.0
 10
62.01729120821703
 20
877.9839014926688
 30
0.0
  0
LINE
  5
C9
330
93
100
AcDbEntity
  8
DV1_Default
 62
     7
100
AcDbLine
 10
62.0172788171
 20
877.9839014927
 30
0.0
 11
58.4954028919
 21
877.8331886038
 31
0.0
  0
SPLINE
  5
CA
330
93
100
AcDbEntity
  8
DV1_Default
 62
     7
100
AcDbSpline
210
0.0
220
0.0
230
1.0
 70
     8
 71
     3
 72
    10
 73
     6
 74
     0
 42
0.000000001
 43
0.0000000001
 40
0.0
 40
0.0
 40
0.0
 40
0.0
 40
0.016417881560629
 40
0.444691950146326
 40
1.0
 40
1.0
 40
1.0
 40
1.0
 10
65.58728493880679
 20
878.0384203639094
 30
0.0
 10
65.58758940978457
 20
878.0384425567439
 30
0.0
 10
65.59200863870979
 20
878.038823248239
 30
0.0
 10
65.36655810199174
 20
878.0258977101095
 30
0.0
 10
64.70921715038874
 20
877.9988142486696
 30
0.0
 10
64.33806200120485
 20
877.9835223749249
 30
0.0
  0
LINE
  5
CB
330
93
100
AcDbEntity
  8
DV1_Default
 62
     7
100
AcDbLine
 10
64.3377778515
 20
877.9835106677
 30
0.0
 11
63.7549873616
 21
877.9604812695
 31
0.0
  0
SPLINE
  5
CC
330
93
100
AcDbEntity
  8
DV1_Default
 62
     7
100
AcDbSpline
210
0.0
220
0.0
230
1.0
 70
     8
 71
     3
 72
    12
 73
     8
 74
     0
 42
0.000000001
 43
0.0000000001
 40
0.0
 40
0.0
 40
0.0
 40
0.0
 40
0.1416246561744411
 40
0.4242507839697833
 40
0.7074280165940569
 40
0.8303377426109647
 40
0.9999999999999999
 40
0.9999999999999999
 40
0.9999999999999999
 40
0.9999999999999999
 10
50.62437932415572
 20
878.0037903839939
 30
0.0
 10
50.6241753353488
 20
878.0104325555349
 30
0.0
 10
50.53218935721411
 20
878.0289006451287
 30
0.0
 10
49.91057882604515
 20
878.0434433818048
 30
0.0
 10
49.05584483747828
 20
878.029098702167
 30
0.0
 10
48.48766680999994
 20
878.0050337225074
 30
0.0
 10
48.31974202557578
 20
877.990695459487
 30
0.0
 10
48.22239941466133
 20
877.9823807123171
 30
0.0
  0
SPLINE
  5
CD
330
93
100
AcDbEntity
  8
DV1_Default
 62
     7
100
AcDbSpline
210
0.0
220
0.0
230
1.0
 70
     8
 71
     3
 72
     9
 73
     5
 74
     0
 42
0.000000001
 43
0.0000000001
 40
0.0
 40
0.0
 40
0.0
 40
0.0
 40
0.6248240278666332
 40
1.0
 40
1.0
 40
1.0
 40
1.0
 10
46.30898354988886
 20
877.7849753838522
 30
0.0
 10
46.27645428744064
 20
877.7814337864096
 30
0.0
 10
46.22445855715074
 20
877.7757656346025
 30
0.0
 10
46.21297010826295
 20
877.7703957233076
 30
0.0
 10
46.2133370258593
 20
877.7684277450088
 30
0.0
  0
LINE
  5
CE
330
93
100
AcDbEntity
  8
DV1_Default
 62
     7
100
AcDbLine
 10
48.2223625785
 20
877.9823807123
 30
0.0
 11
46.3089424691
 21
877.7849753839
 31
0.0
  0
LINE
  5
CF
330
93
100
AcDbEntity
  8
DV1_Default
 62
     7
100
AcDbLine
 10
38.8479190134
 20
877.9791010956
 30
0.0
 11
38.8479190133
 21
877.7824651935
 31
0.0
  0
ARC
  5
D0
330
93
100
AcDbEntity
  8
DV1_Default
 62
     7
100
AcDbCircle
 10
39.8018518911
 20
870.6614854942
 30
0.0
 40
7.379531628852638
100
AcDbArc
 50
87.76013154
 51
97.427264562
  0
SPLINE
  5
D1
330
93
100
AcDbEntity
  8
DV1_Default
 62
     7
100
AcDbSpline
210
0.0
220
0.0
230
1.0
 70
     8
 71
     3
 72
    12
 73
     8
 74
     0
 42
0.000000001
 43
0.0000000001
 40
0.0
 40
0.0
 40
0.0
 40
0.0
 40
0.1701877937607604
 40
0.3185364447474764
 40
0.4450104610211337
 40
0.5495803070661858
 40
0.9999999999999999
 40
0.9999999999999999
 40
0.9999999999999999
 40
0.9999999999999999
 10
15.83778297665692
 20
877.979642421238
 30
0.0
 10
15.73624584457134
 20
877.984054238787
 30
0.0
 10
15.54620115856525
 20
877.9923117327346
 30
0.0
 10
15.2955446756384
 20
878.0031628289989
 30
0.0
 10
15.10153896069763
 20
878.0118260506506
 30
0.0
 10
14.79331046660438
 20
878.0256043217375
 30
0.0
 10
14.63417028266557
 20
878.0324635400318
 30
0.0
 10
14.59806345689615
 20
878.0340118526103
 30
0.0
  0
LINE
  5
D2
330
93
100
AcDbEntity
  8
DV1_Default
 62
     7
100
AcDbLine
 10
16.4439847846
 20
877.95578365
 30
0.0
 11
15.8377829767
 21
877.9796424212
 31
0.0
  0
SPLINE
  5
D3
330
93
100
AcDbEntity
  8
DV1_Default
 62
     7
100
AcDbSpline
210
0.0
220
0.0
230
1.0
 70
     8
 71
     3
 72
    13
 73
     9
 74
     0
 42
0.000000001
 43
0.0000000001
 40
0.0
 40
0.0
 40
0.0
 40
0.0
 40
0.1258980936374462
 40
0.2356207505837087
 40
0.3291416359102307
 40
0.4064388372089649
 40
0.8000404866554447
 40
0.9999999999999999
 40
0.9999999999999999
 40
0.9999999999999999
 40
0.9999999999999999
 10
18.16592734493763
 20
877.9795819267184
 30
0.0
 10
18.06937837844519
 20
877.9839949330226
 30
0.0
 10
17.8886660630465
 20
877.992253960842
 30
0.0
 10
17.62075176149061
 20
878.0031073667844
 30
0.0
 10
17.39656989576614
 20
878.0117714312165
 30
0.0
 10
16.96425881462141
 20
878.02720787749
 30
0.0
 10
16.53124937253483
 20
878.0373792254438
 30
0.0
 10
16.44013010592867
 20
878.0329571621688
 30
0.0
 10
16.44068834607083
 20
878.0301803662217
 30
0.0
  0
LINE
  5
D4
330
93
100
AcDbEntity
  8
DV1_Default
 62
     7
100
AcDbLine
 10
21.7007240044
 20
877.829005982
 30
0.0
 11
18.1659374886
 21
877.9795819267
 31
0.0
  0
SPLINE
  5
D5
330
93
100
AcDbEntity
  8
DV1_Default
 62
     7
100
AcDbSpline
210
0.0
220
0.0
230
1.0
 70
     8
 71
     3
 72
    14
 73
    10
 74
     0
 42
0.000000001
 43
0.0000000001
 40
0.0
 40
0.0
 40
0.0
 40
0.0
 40
0.1051058550576463
 40
0.1966960024187999
 40
0.2747484097126986
 40
0.3392447468605834
 40
0.6677714904461592
 40
0.9969715272831825
 40
1.0
 40
1.0
 40
1.0
 40
1.0
 10
23.83147551477012
 20
877.9794822885085
 30
0.0
 10
23.75462535991482
 20
877.983895947606
 30
0.0
 10
23.61077220497182
 20
877.9921557072555
 30
0.0
 10
23.36637894284439
 20
878.003009798556
 30
0.0
 10
23.14613038806379
 20
878.0116732405337
 30
0.0
 10
22.69253670393786
 20
878.027108872802
 30
0.0
 10
21.96751018659797
 20
878.0402236061645
 30
0.0
 10
21.70318751773324
 20
878.0284486554359
 30
0.0
 10
21.69753079425409
 20
878.0183406029892
 30
0.0
 10
21.69748983653923
 20
878.0182481175176
 30
0.0
  0
LINE
  5
D6
330
93
100
AcDbEntity
  8
DV1_Default
 62
     7
100
AcDbLine
 10
27.366862549
 20
877.7827309822
 30
0.0
 11
23.8314942582
 21
877.9794822885
 31
0.0
  0
SPLINE
  5
D7
330
93
100
AcDbEntity
  8
DV1_Default
 62
     7
100
AcDbSpline
210
0.0
220
0.0
230
1.0
 70
     8
 71
     3
 72
     9
 73
     5
 74
     0
 42
0.000000001
 43
0.0000000001
 40
0.0
 40
0.0
 40
0.0
 40
0.0
 40
0.9997551247199036
 40
0.9999999999999999
 40
0.9999999999999999
 40
0.9999999999999999
 40
0.9999999999999999
 10
27.73643614577476
 20
877.7502482772846
 30
0.0
 10
27.73426404568562
 20
877.758411216972
 30
0.0
 10
27.59444639000952
 20
877.7706058989596
 30
0.0
 10
27.3669177520425
 20
877.7827282626276
 30
0.0
 10
27.36686338510166
 20
877.7827309822242
 30
0.0
  0
SPLINE
  5
D8
330
93
100
AcDbEntity
  8
DV1_Default
 62
     7
100
AcDbSpline
210
0.0
220
0.0
230
1.0
 70
     8
 71
     3
 72
    15
 73
    11
 74
     0
 42
0.000000001
 43
0.0000000001
 40
0.0
 40
0.0
 40
0.0
 40
0.0
 40
0.0898774597515965
 40
0.1681986193777906
 40
0.2349446433129774
 40
0.2900998605973343
 40
0.5710384694395125
 40
0.8525501719811339
 40
0.9749994148366482
 40
1.0
 40
1.0
 40
1.0
 40
1.0
 10
31.97189913795462
 20
877.9793324152796
 30
0.0
 10
31.92647062915256
 20
877.9837453094428
 30
0.0
 10
31.84140888956923
 20
877.9920036948906
 30
0.0
 10
31.65777325126498
 20
878.0028561449111
 30
0.0
 10
31.47496843083733
 20
878.0115185475432
 30
0.0
 10
31.06911453515221
 20
878.0269528229205
 30
0.0
 10
30.2879346894742
 20
878.0400706085627
 30
0.0
 10
29.68858330986769
 20
878.02580913754
 30
0.0
 10
29.56768070520423
 20
878.0078838987725
 30
0.0
 10
29.56914931922427
 20
878.0011732274469
 30
0.0
 10
29.57045177832289
 20
878.0000219688937
 30
0.0
  0
LINE
  5
D9
330
93
100
AcDbEntity
  8
DV1_Default
 62
     7
100
AcDbLine
 10
33.8852516135
 20
877.7826116593
 30
0.0
 11
31.9719236259
 21
877.9793324153
 31
0.0
  0
SPLINE
  5
DA
330
93
100
AcDbEntity
  8
DV1_Default
 62
     7
100
AcDbSpline
210
0.0
220
0.0
230
1.0
 70
     8
 71
     3
 72
     9
 73
     5
 74
     0
 42
0.000000001
 43
0.0000000001
 40
0.0
 40
0.0
 40
0.0
 40
0.0
 40
0.9995164431473178
 40
1.0
 40
1.0
 40
1.0
 40
1.0
 10
33.97736184498533
 20
877.7659745368602
 30
0.0
 10
33.97765909416282
 20
877.771302340709
 30
0.0
 10
33.94677833800358
 20
877.7770144066375
 30
0.0
 10
33.88528133074159
 20
877.7826089540595
 30
0.0
 10
33.88525269886712
 20
877.7826116593412
 30
0.0
  0
LINE
  5
DB
330
93
100
AcDbEntity
  8
DV1_Default
 62
     7
100
AcDbLine
 10
65.5816342345
 20
878.0596159185
 30
0.0
 11
69.8300222167
 21
878.251200699
 31
0.0
  0
LINE
  5
DC
330
93
100
AcDbEntity
  8
DV1_Default
 62
     7
100
AcDbLine
 10
50.5942668101
 20
877.5510658239
 30
0.0
 11
52.4598689859
 21
877.602043901
 31
0.0
  0
LINE
  5
DD
330
93
100
AcDbEntity
  8
DV1_Default
 62
     7
100
AcDbLine
 10
27.7362579102
 20
877.5996432588
 30
0.0
 11
29.5679902134
 21
877.5499431947
 31
0.0
  0
LINE
  5
DE
330
93
100
AcDbEntity
  8
DV1_Default
 62
     7
100
AcDbLine
 10
10.36395078
 20
878.2455274884
 30
0.0
 11
14.5980634477
 21
878.0586837375
 31
0.0
  0
SPLINE
  5
DF
330
93
100
AcDbEntity
  8
DV1_Default
 62
     7
100
AcDbSpline
210
0.0
220
0.0
230
1.0
 70
     8
 71
     3
 72
    14
 73
    10
 74
     0
 42
0.000000001
 43
0.0000000001
 40
0.0
 40
0.0
 40
0.0
 40
0.0
 40
0.2362139061975238
 40
0.2362139061975238
 40
0.4908092707983491
 40
0.4908092707983491
 40
0.7454046353991746
 40
0.7454046353991746
 40
0.9999999999999999
 40
0.9999999999999999
 40
0.9999999999999999
 40
0.9999999999999999
 10
24.08418353422855
 20
988.5200326252747
 30
0.0
 10
24.13985911914866
 20
989.6624928704946
 30
0.0
 10
24.55228824623753
 20
990.7987830060047
 30
0.0
 10
26.09839221445301
 20
992.9929497996128
 30
0.0
 10
27.28506361552184
 20
994.0369480483474
 30
0.0
 10
30.24887150525721
 20
995.7792351901771
 30
0.0
 10
32.02484176397031
 20
996.4768385100072
 30
0.0
 10
35.89721824104644
 20
997.4198130643467
 30
0.0
 10
37.99210071643876
 20
997.664813247421
 30
0.0
 10
40.08779385721247
 20
997.6648872839102
 30
0.0
  0
SPLINE
  5
E0
330
93
100
AcDbEntity
  8
DV1_Default
 62
     7
100
AcDbSpline
210
0.0
220
0.0
230
1.0
 70
     8
 71
     3
 72
    14
 73
    10
 74
     0
 42
0.000000001
 43
0.0000000001
 40
0.0
 40
0.0
 40
0.0
 40
0.0
 40
0.2545958240706365
 40
0.2545958240706365
 40
0.5091916481412729
 40
0.5091916481412729
 40
0.7637874722119093
 40
0.7637874722119093
 40
0.9999999999999999
 40
0.9999999999999999
 40
0.9999999999999999
 40
0.9999999999999999
 10
40.08779385721247
 20
997.6648872839102
 30
0.0
 10
42.18348515895584
 20
997.6648136462558
 30
0.0
 10
44.27836527391495
 20
997.4198119731076
 30
0.0
 10
48.15073678512415
 20
996.4768353728768
 30
0.0
 10
49.92670444537314
 20
995.7792314965445
 30
0.0
 10
52.89050773005393
 20
994.0369440402288
 30
0.0
 10
54.07717713016371
 20
992.9929460311114
 30
0.0
 10
55.62327270377354
 20
990.7987882064066
 30
0.0
 10
56.03570042503863
 20
989.6625079923109
 30
0.0
 10
56.0913808497274
 20
988.5200572092675
 30
0.0
  0
ARC
  5
E1
330
93
100
AcDbEntity
  8
DV1_Default
 62
     7
100
AcDbCircle
 10
57.1178123228
 20
-221.8846857943
 30
0.0
 40
1100.563542000266
100
AcDbArc
 50
89.1546531746
 51
90.8866245478
  0
SPLINE
  5
E2
330
93
100
AcDbEntity
  8
DV1_Default
 62
     7
100
AcDbSpline
210
0.0
220
0.0
230
1.0
 70
     8
 71
     3
 72
    36
 73
    32
 74
     0
 42
0.000000001
 43
0.0000000001
 40
0.0
 40
0.0
 40
0.0
 40
0.0
 40
0.0320068033780661
 40
0.0666738108064885
 40
0.1012238385464865
 40
0.1356780150604288
 40
0.1701139616966484
 40
0.2046679794118086
 40
0.239341446193043
 40
0.2739990282703522
 40
0.3085469765946386
 40
0.3429462914243095
 40
0.3773421792605449
 40
0.4119035703476711
 40
0.4465770341290556
 40
0.4812505989252314
 40
0.5158139510849084
 40
0.5502374688842534
 40
0.5846167283629469
 40
0.6190578952610706
 40
0.6536538907338246
 40
0.688352653293337
 40
0.7230243191213972
 40
0.757653013372039
 40
0.7922687877103701
 40
0.8268866782349599
 40
0.8615156080654778
 40
0.8961625786862932
 40
0.9308168917935081
 40
0.9654415705271788
 40
1.0
 40
1.0
 40
1.0
 40
1.0
 10
6.820788843267908
 20
878.5590146695944
 30
0.0
 10
6.823221688575659
 20
878.558881024254
 30
0.0
 10
6.857233752344635
 20
878.5586006251978
 30
0.0
 10
6.999965398871017
 20
878.558147014119
 30
0.0
 10
7.243997248358308
 20
878.5576349990465
 30
0.0
 10
7.583410539172733
 20
878.5571065440733
 30
0.0
 10
8.017596122545697
 20
878.5565815967026
 30
0.0
 10
8.546624353568316
 20
878.5560793728117
 30
0.0
 10
9.168482377344272
 20
878.5555994038463
 30
0.0
 10
9.881446542939765
 20
878.5551185525591
 30
0.0
 10
10.68120917418307
 20
878.5546290273144
 30
0.0
 10
11.56444501343787
 20
878.5541216751087
 30
0.0
 10
12.53206516517374
 20
878.5536150057916
 30
0.0
 10
13.58347493350026
 20
878.5531334908248
 30
0.0
 10
14.71448561856289
 20
878.5526700905666
 30
0.0
 10
15.91877414910249
 20
878.5522198283155
 30
0.0
 10
17.19044566749528
 20
878.5517764170002
 30
0.0
 10
18.52607279909664
 20
878.5513374278088
 30
0.0
 10
19.92377239741799
 20
878.5509101611289
 30
0.0
 10
21.38321219786769
 20
878.5504990250264
 30
0.0
 10
22.90180240871029
 20
878.5501117730139
 30
0.0
 10
24.47360624175421
 20
878.5497421810991
 30
0.0
 10
26.09178206129489
 20
878.5493735252401
 30
0.0
 10
27.75019260651219
 20
878.5490225570454
 30
0.0
 10
29.44452444422038
 20
878.5487115051482
 30
0.0
 10
31.17026012636774
 20
878.5484295686725
 30
0.0
 10
32.92265490032234
 20
878.5481658293065
 30
0.0
 10
34.69660338858646
 20
878.5479103087474
 30
0.0
 10
36.48627801015748
 20
878.5476496075128
 30
0.0
 10
38.28512705722427
 20
878.5473722532536
 30
0.0
 10
39.48729415825382
 20
878.5471536592013
 30
0.0
 10
40.08780212311337
 20
878.5470879803514
 30
0.0
  0
ARC
  5
E3
330
93
100
AcDbEntity
  8
DV1_Default
 62
     7
100
AcDbCircle
 10
-547.6753842329
 20
1025.0875148852
 30
0.0
 40
572.9264791018073
100
AcDbArc
 50
345.2456751681
 51
356.3406976076
  0
ARC
  5
E4
330
93
100
AcDbEntity
  8
DV1_Default
 62
     7
100
AcDbCircle
 10
629.3176984491
 20
1025.3335664587
 30
0.0
 40
574.407233304567
100
AcDbArc
 50
183.6745801458
 51
194.7407988299
  0
ARC
  5
E5
330
93
100
AcDbEntity
  8
DV1_Default
 62
     7
100
AcDbCircle
 10
73.3251685363
 20
879.0585382456
 30
0.0
 40
0.5003984234299246
100
AcDbArc
 50
272.8462470641
 51
14.2310826337
  0
ARC
  5
E6
330
93
100
AcDbEntity
  8
DV1_Default
 62
     7
100
AcDbCircle
 10
6.8504018152
 20
879.0585415527
 30
0.0
 40
0.5004018151995323
100
AcDbArc
 50
165.7691794599
 51
267.1929420097
  0
LINE
  5
E7
330
93
100
AcDbEntity
  8
DV1_Default
 62
     7
100
AcDbLine
 10
6.8296399282
 20
878.5589189871
 30
0.0
 11
10.36395078
 21
878.2455274884
 31
0.0
  0
LINE
  5
E8
330
93
100
AcDbEntity
  8
DV1_Default
 62
     7
100
AcDbLine
 10
46.2850233516
 20
876.9673191818
 30
0.0
 11
41.2440001496
 21
876.9675860633
 31
0.0
  0
LINE
  5
E9
330
93
100
AcDbEntity
  8
DV1_Default
 62
     7
100
AcDbLine
 10
38.9784032462
 20
876.9698842657
 30
0.0
 11
33.9569156263
 21
876.9673807775
 31
0.0
  0
ARC
  5
EA
330
93
100
AcDbEntity
  8
DV1_Default
 62
     7
100
AcDbCircle
 10
40.2802284495
 20
882.4318675796
 30
0.0
 40
5.687637423254405
100
AcDbArc
 50
268.1646032542
 51
275.7356090975
  0
SPLINE
  5
EB
330
93
100
AcDbEntity
  8
DV1_Default
 62
     7
100
AcDbSpline
210
0.0
220
0.0
230
1.0
 70
    12
 71
     3
 72
     8
 73
     4
 74
     0
 42
0.000000001
 43
0.0000000001
 40
0.0
 40
0.0
 40
0.0
 40
0.0
 40
1.0
 40
1.0
 40
1.0
 40
1.0
 10
38.84823371999838
 20
877.2723477985443
 30
0.0
 41
1.171371357642207
 10
38.88632558665397
 20
877.0647908184079
 30
0.0
 41
1.021216102873127
 10
39.01233577408416
 20
876.8735062428028
 30
0.0
 41
0.9697351577070151
 10
39.21413520610222
 20
876.747830944764
 30
0.0
 41
1.016928522143871
  0
ELLIPSE
  5
EC
330
93
100
AcDbEntity
  8
DV1_Default
 62
     7
100
AcDbEllipse
 10
40.8480634156
 20
877.2727571978
 30
0.0
 11
0.5000000001128617
 21
-3.128802772423001E-8
 31
0.0
210
0.0
220
0.0
230
1.0
 40
0.9994384515
 41
4.713694661982293
 42
6.283185307179586
  0
LINE
  5
ED
330
93
100
AcDbEntity
  8
DV1_Default
 62
     7
100
AcDbLine
 10
41.3480634158
 20
877.2727570174
 30
0.0
 11
41.3480634798
 21
877.4621920059
 31
0.0
  0
LINE
  5
EE
330
93
100
AcDbEntity
  8
DV1_Default
 62
     7
100
AcDbLine
 10
38.8480634325
 20
877.46219218
 30
0.0
 11
38.8480634645
 21
877.2727572014
 31
0.0
  0
LINE
  5
EF
330
93
100
AcDbEntity
  8
DV1_Default
 62
     7
100
AcDbLine
 10
41.3480602818
 20
878.0012840992
 30
0.0
 11
41.3480576881
 21
877.462192006
 31
0.0
  0
LINE
  5
F0
330
93
100
AcDbEntity
  8
DV1_Default
 62
     7
100
AcDbLine
 10
38.8480708082
 20
877.4622229189
 30
0.0
 11
38.8480676304
 21
877.9791525174
 31
0.0
  0
ARC
  5
F1
330
93
100
AcDbEntity
  8
DV1_Default
 62
     7
100
AcDbCircle
 10
39.5152565718
 20
1163.0540363685
 30
0.0
 40
286.6025156758892
100
AcDbArc
 50
266.5774554826
 51
267.2858286806
  0
LINE
  5
F2
330
93
100
AcDbEntity
  8
DV1_Default
 62
     7
100
AcDbLine
 10
25.9520404815
 20
876.772632802
 30
0.0
 11
25.9436239864
 21
876.7730290144
 31
0.0
  0
ARC
  5
F3
330
93
100
AcDbEntity
  8
DV1_Default
 62
     7
100
AcDbCircle
 10
39.7189923168
 20
1364.8370002835
 30
0.0
 40
488.3851158425837
100
AcDbArc
 50
267.3792432572
 51
267.9220579686
  0
LINE
  5
F4
330
93
100
AcDbEntity
  8
DV1_Default
 62
     7
100
AcDbLine
 10
22.021598394
 20
876.7726328019
 30
0.0
 11
22.0106473862
 21
876.7730290147
 31
0.0
  0
SPLINE
  5
F5
330
93
100
AcDbEntity
  8
DV1_Default
 62
     7
100
AcDbSpline
210
0.0
220
0.0
230
1.0
 70
     8
 71
     3
 72
    10
 73
     6
 74
     0
 42
0.000000001
 43
0.0000000001
 40
0.0
 40
0.0
 40
0.0
 40
0.0
 40
0.3487822765395526
 40
0.3487822765395526
 40
1.0
 40
1.0
 40
1.0
 40
1.0
 10
22.84417942853571
 20
876.7488585383405
 30
0.0
 10
22.77286445616933
 20
876.7501435966485
 30
0.0
 10
22.68613193283854
 20
876.7521183226768
 30
0.0
 10
22.41120924375646
 20
876.7594205461581
 30
0.0
 10
22.20237439715578
 20
876.7661142671262
 30
0.0
 10
22.02160196046141
 20
876.772641830279
 30
0.0
  0
LINE
  5
F6
330
93
100
AcDbEntity
  8
DV1_Default
 62
     7
100
AcDbLine
 10
19.8465153564
 20
876.8064001908
 30
0.0
 11
20.8289983793
 21
876.7726373477
 31
0.0
  0
LINE
  5
F7
330
93
100
AcDbEntity
  8
DV1_Default
 62
     7
100
AcDbLine
 10
20.8313166001
 20
876.7730289921
 30
0.0
 11
20.8431347197
 21
876.7726327963
 31
0.0
  0
ARC
  5
F8
330
93
100
AcDbEntity
  8
DV1_Default
 62
     7
100
AcDbCircle
 10
39.9914786702
 20
1448.3589809889
 30
0.0
 40
571.9069919843276
100
AcDbArc
 50
267.5784316318
 51
268.0801041192
  0
LINE
  5
F9
330
93
100
AcDbEntity
  8
DV1_Default
 62
     7
100
AcDbLine
 10
15.8462954374
 20
876.9613198121
 30
0.0
 11
16.8477303757
 21
876.9199190201
 31
0.0
  0
SPLINE
  5
FA
330
93
100
AcDbEntity
  8
DV1_Default
 62
     7
100
AcDbSpline
210
0.0
220
0.0
230
1.0
 70
     8
 71
     3
 72
    10
 73
     6
 74
     0
 42
0.000000001
 43
0.0000000001
 40
0.0
 40
0.0
 40
0.0
 40
0.0
 40
0.5
 40
0.5
 40
1.0
 40
1.0
 40
1.0
 40
1.0
 10
20.84313703942903
 20
876.7727020304712
 30
0.0
 10
21.03752190716553
 20
876.7661048219647
 30
0.0
 10
21.22948026334381
 20
876.7594121407503
 30
0.0
 10
21.5021924213462
 20
876.7499049699827
 30
0.0
 10
21.58133355022854
 20
876.7471467007209
 30
0.0
 10
21.58133357489056
 20
876.747147929717
 30
0.0
  0
LINE
  5
FB
330
93
100
AcDbEntity
  8
DV1_Default
 62
     7
100
AcDbLine
 10
20.8480723846
 20
876.7719859738
 30
0.0
 11
20.8289975983
 21
876.7726373713
 31
0.0
  0
LINE
  5
FC
330
93
100
AcDbEntity
  8
DV1_Default
 62
     7
100
AcDbLine
 10
15.8274044506
 20
876.9627008746
 30
0.0
 11
15.3651157194
 21
876.9817230021
 31
0.0
  0
ARC
  5
FD
330
93
100
AcDbEntity
  8
DV1_Default
 62
     7
100
AcDbCircle
 10
39.7169444043
 20
1364.7781823405
 30
0.0
 40
488.3262623330982
100
AcDbArc
 50
267.8949696525
 51
267.922048123
  0
SPLINE
  5
FE
330
93
100
AcDbEntity
  8
DV1_Default
 62
     7
100
AcDbSpline
210
0.0
220
0.0
230
1.0
 70
     8
 71
     3
 72
    10
 73
     6
 74
     0
 42
0.000000001
 43
0.0000000001
 40
0.0
 40
0.0
 40
0.0
 40
0.0
 40
0.6512447507188807
 40
0.6512447507188807
 40
0.9999999999999999
 40
0.9999999999999999
 40
0.9999999999999999
 40
0.9999999999999999
 10
22.02159813607059
 20
876.7727020305108
 30
0.0
 10
22.2023751681633
 20
876.766104821999
 30
0.0
 10
22.411210047777
 20
876.7594121407718
 30
0.0
 10
22.68612139217009
 20
876.7521129105118
 30
0.0
 10
22.77284470977006
 20
876.7501394879021
 30
0.0
 10
22.84415489044542
 20
876.7488556492627
 30
0.0
  0
ARC
  5
FF
330
93
100
AcDbEntity
  8
DV1_Default
 62
     7
100
AcDbCircle
 10
39.5132112766
 20
1163.0103070578
 30
0.0
 40
286.5587384934142
100
AcDbArc
 50
266.7811758861
 51
267.2858238306
  0
SPLINE
  5
100
330
93
100
AcDbEntity
  8
DV1_Default
 62
     7
100
AcDbSpline
210
0.0
220
0.0
230
1.0
 70
     8
 71
     3
 72
    10
 73
     6
 74
     0
 42
0.000000001
 43
0.0000000001
 40
0.0
 40
0.0
 40
0.0
 40
0.0
 40
0.6622721568716535
 40
0.6622721568716535
 40
1.0
 40
1.0
 40
1.0
 40
1.0
 10
25.95203721283657
 20
876.7727020306343
 30
0.0
 10
26.09168474489715
 20
876.7661048221245
 30
0.0
 10
26.28560293062171
 20
876.7594121409112
 30
0.0
 10
26.57922341362205
 20
876.7522344491849
 30
0.0
 10
26.67792918565262
 20
876.7503292294346
 30
0.0
 10
26.76909709230224
 20
876.7490442379328
 30
0.0
  0
ARC
  5
101
330
93
100
AcDbEntity
  8
DV1_Default
 62
     7
100
AcDbCircle
 10
39.3264657341
 20
961.2616569015
 30
0.0
 40
84.80297316134896
100
AcDbArc
 50
263.7400842117
 51
265.0651640739
  0
ARC
  5
102
330
93
100
AcDbEntity
  8
DV1_Default
 62
     7
100
AcDbCircle
 10
40.0973951444
 20
1451.4606263967
 30
0.0
 40
575.0104846024626
100
AcDbArc
 50
271.9202236192
 51
272.4191871034
  0
LINE
  5
103
330
93
100
AcDbEntity
  8
DV1_Default
 62
     7
100
AcDbLine
 10
59.3529925589
 20
876.7726328006
 30
0.0
 11
59.3648185934
 21
876.7730292717
 31
0.0
  0
LINE
  5
104
330
93
100
AcDbEntity
  8
DV1_Default
 62
     7
100
AcDbLine
 10
63.3483965198
 20
876.9199190217
 30
0.0
 11
64.3498314581
 21
876.9613198137
 31
0.0
  0
SPLINE
  5
105
330
93
100
AcDbEntity
  8
DV1_Default
 62
     7
100
AcDbSpline
210
0.0
220
0.0
230
1.0
 70
     8
 71
     3
 72
    10
 73
     6
 74
     0
 42
0.000000001
 43
0.0000000001
 40
0.0
 40
0.0
 40
0.0
 40
0.0
 40
0.5
 40
0.5
 40
1.0
 40
1.0
 40
1.0
 40
1.0
 10
58.61479351761513
 20
876.7471479204835
 30
0.0
 10
58.61479349198449
 20
876.7471491718969
 30
0.0
 10
58.69393454989962
 20
876.749909905537
 30
0.0
 10
58.96664656453891
 20
876.7594206075015
 30
0.0
 10
59.15860484921626
 20
876.7661143346545
 30
0.0
 10
59.35299238941903
 20
876.772641959531
 30
0.0
  0
SPLINE
  5
106
330
93
100
AcDbEntity
  8
DV1_Default
 62
     7
100
AcDbSpline
210
0.0
220
0.0
230
1.0
 70
     8
 71
     3
 72
    10
 73
     6
 74
     0
 42
0.000000001
 43
0.0000000001
 40
0.0
 40
0.0
 40
0.0
 40
0.0
 40
0.9669745098952521
 40
0.9669745098952521
 40
1.0
 40
1.0
 40
1.0
 40
1.0
 10
64.36872326318274
 20
876.9626194078952
 30
0.0
 10
64.56514132507935
 20
876.9708506569153
 30
0.0
 10
64.76040308793819
 20
876.9788605351779
 30
0.0
 10
64.90408309164056
 20
876.9847548584369
 30
0.0
 10
64.90876049250447
 20
876.9849467445822
 30
0.0
 10
64.91336928124316
 20
876.9851358166021
 30
0.0
  0
LINE
  5
107
330
93
100
AcDbEntity
  8
DV1_Default
 62
     7
100
AcDbLine
 10
58.1854865529
 20
876.7730292714
 30
0.0
 11
58.1745309239
 21
876.7726327975
 31
0.0
  0
ARC
  5
108
330
93
100
AcDbEntity
  8
DV1_Default
 62
     7
100
AcDbCircle
 10
40.3802440174
 20
1367.4223845357
 30
0.0
 40
490.9723082338925
100
AcDbArc
 50
272.0783025065
 51
272.6182566028
  0
SPLINE
  5
109
330
93
100
AcDbEntity
  8
DV1_Default
 62
     7
100
AcDbSpline
210
0.0
220
0.0
230
1.0
 70
     8
 71
     3
 72
     8
 73
     4
 74
     0
 42
0.000000001
 43
0.0000000001
 40
0.0
 40
0.0
 40
0.0
 40
0.0
 40
1.0
 40
1.0
 40
1.0
 40
1.0
 10
63.060060807896
 20
876.9750118209715
 30
0.0
 10
62.98887823993073
 20
876.9711393366774
 30
0.0
 10
62.90303360717336
 20
876.9669105500284
 30
0.0
 10
62.80849517831125
 20
876.9626196187357
 30
0.0
  0
LINE
  5
10A
330
93
100
AcDbEntity
  8
DV1_Default
 62
     7
100
AcDbLine
 10
54.252508312
 20
876.7730292713
 30
0.0
 11
54.2440913613
 21
876.7726327974
 31
0.0
  0
ARC
  5
10B
330
93
100
AcDbEntity
  8
DV1_Default
 62
     7
100
AcDbCircle
 10
40.606739066
 20
1164.5682222829
 30
0.0
 40
288.1185083230944
100
AcDbArc
 50
272.7146383769
 51
273.4192845582
  0
ARC
  5
10C
330
93
100
AcDbEntity
  8
DV1_Default
 62
     7
100
AcDbCircle
 10
41.9124298477
 20
961.8370925984
 30
0.0
 40
85.26651236174784
100
AcDbArc
 50
273.7184264949
 51
275.4964182011
  0
LINE
  5
10D
330
93
100
AcDbEntity
  8
DV1_Default
 62
     7
100
AcDbLine
 10
33.9814073752
 20
877.2262933542
 30
0.0
 11
33.9814073751
 21
877.7742232936
 31
0.0
  0
ARC
  5
10E
330
93
100
AcDbEntity
  8
DV1_Default
 62
     7
100
AcDbCircle
 10
30.0700420067
 20
877.4680739197
 30
0.0
 40
0.5037727818978277
100
AcDbArc
 50
184.1173344463
 51
271.0927958617
  0
LINE
  5
10F
330
93
100
AcDbEntity
  8
DV1_Default
 62
     7
100
AcDbLine
 10
29.5679902134
 20
878.0002714971
 30
0.0
 11
29.5679902134
 21
877.4319337236
 31
0.0
  0
SPLINE
  5
110
330
93
100
AcDbEntity
  8
DV1_Default
 62
     7
100
AcDbSpline
210
0.0
220
0.0
230
1.0
 70
     8
 71
     3
 72
    16
 73
    12
 74
     0
 42
0.000000001
 43
0.0000000001
 40
0.0
 40
0.0
 40
0.0
 40
0.0
 40
0.0951317765015558
 40
0.2880445075902232
 40
0.5008423971668452
 40
0.5513130721062235
 40
0.6070213542107618
 40
0.6816178290051331
 40
0.7966795881274152
 40
0.9092687018083886
 40
1.0
 40
1.0
 40
1.0
 40
1.0
 10
26.76895791062903
 20
876.7492507504215
 30
0.0
 10
26.81986139740694
 20
876.7472958671539
 30
0.0
 10
26.95110913095643
 20
876.7421245619345
 30
0.0
 10
27.14794632729454
 20
876.7397085302939
 30
0.0
 10
27.22383966504491
 20
876.7361772996471
 30
0.0
 10
27.33832348681271
 20
876.749066042495
 30
0.0
 10
27.42607038281451
 20
876.77162195322
 30
0.0
 10
27.53824917965735
 20
876.8263415414783
 30
0.0
 10
27.65195612084374
 20
876.9315826861045
 30
0.0
 10
27.73070943593175
 20
877.0803078264299
 30
0.0
 10
27.73517421918288
 20
877.1765658942771
 30
0.0
 10
27.73637465081745
 20
877.2265592298658
 30
0.0
  0
LINE
  5
111
330
93
100
AcDbEntity
  8
DV1_Default
 62
     7
100
AcDbLine
 10
27.7362579102
 20
877.226293354
 30
0.0
 11
27.7362579102
 21
877.7506021145
 31
0.0
  0
SPLINE
  5
112
330
93
100
AcDbEntity
  8
DV1_Default
 62
     7
100
AcDbSpline
210
0.0
220
0.0
230
1.0
 70
     8
 71
     3
 72
    17
 73
    13
 74
     0
 42
0.000000001
 43
0.0000000001
 40
0.0
 40
0.0
 40
0.0
 40
0.0
 40
0.0411709340638318
 40
0.1813748587906298
 40
0.2939707987953311
 40
0.3892133394035377
 40
0.4696290307396296
 40
0.533974682683147
 40
0.5814067595986248
 40
0.630288090037119
 40
0.719378507918238
 40
1.0
 40
1.0
 40
1.0
 40
1.0
 10
21.7000997572491
 20
877.4291790670137
 30
0.0
 10
21.69797862986239
 20
877.4118052079584
 30
0.0
 10
21.69042582253153
 20
877.3458707903409
 30
0.0
 10
21.73401500866118
 20
877.2308815258303
 30
0.0
 10
21.81190110659417
 20
877.1196259765826
 30
0.0
 10
21.90163218570701
 20
877.0467314164707
 30
0.0
 10
21.98700490712516
 20
877.003830889191
 30
0.0
 10
22.05818351933129
 20
876.9826506190224
 30
0.0
 10
22.10824528994045
 20
876.9737254493471
 30
0.0
 10
22.15137588123218
 20
876.9688357840554
 30
0.0
 10
22.22776508930899
 20
876.963957731506
 30
0.0
 10
22.32057585970644
 20
876.9628427171625
 30
0.0
 10
22.40197745123145
 20
876.9626004405945
 30
0.0
  0
LINE
  5
113
330
93
100
AcDbEntity
  8
DV1_Default
 62
     7
100
AcDbLine
 10
21.7007240044
 20
878.019297751
 30
0.0
 11
21.7007240044
 21
877.4289097088
 31
0.0
  0
SPLINE
  5
114
330
93
100
AcDbEntity
  8
DV1_Default
 62
     7
100
AcDbSpline
210
0.0
220
0.0
230
1.0
 70
     8
 71
     3
 72
    15
 73
    11
 74
     0
 42
0.000000001
 43
0.0000000001
 40
0.0
 40
0.0
 40
0.0
 40
0.0
 40
0.1297844102579385
 40
0.4739908934563494
 40
0.5606641014393634
 40
0.6092275537338491
 40
0.684518268666905
 40
0.8007943429179527
 40
0.9838047492321788
 40
1.0
 40
1.0
 40
1.0
 40
1.0
 10
22.84193719408951
 20
876.7490672300622
 30
0.0
 10
22.87350663762551
 20
876.7484124439893
 30
0.0
 10
22.97365141521367
 20
876.7464653851428
 30
0.0
 10
23.03168193505231
 20
876.7464163555621
 30
0.0
 10
23.08826422195239
 20
876.7483760654768
 30
0.0
 10
23.13335930462782
 20
876.7527033195558
 30
0.0
 10
23.20087482577064
 20
876.7654313322327
 30
0.0
 10
23.30365897912859
 20
876.8036234005749
 30
0.0
 10
23.38116267766951
 20
876.858426462372
 30
0.0
 10
23.42171324604779
 20
876.9001111401994
 30
0.0
 10
23.42495576771977
 20
876.9035461422247
 30
0.0
  0
SPLINE
  5
115
330
93
100
AcDbEntity
  8
DV1_Default
 62
     7
100
AcDbSpline
210
0.0
220
0.0
230
1.0
 70
     8
 71
     3
 72
    20
 73
    16
 74
     0
 42
0.000000001
 43
0.0000000001
 40
0.0
 40
0.0
 40
0.0
 40
0.0
 40
0.002971082324581
 40
0.1200298639140422
 40
0.2124192022194232
 40
0.2898485830716034
 40
0.3551789439027796
 40
0.4083141115917459
 40
0.4461888037099993
 40
0.4715540799782995
 40
0.5001789319845333
 40
0.5555102896170808
 40
0.7656057989374406
 40
0.947431724579981
 40
1.0
 40
1.0
 40
1.0
 40
1.0
 10
16.44480856651962
 20
877.4933667223062
 30
0.0
 10
16.44450209173222
 20
877.4916999897099
 30
0.0
 10
16.43384003579337
 20
877.4335688509917
 30
0.0
 10
16.46857225864989
 20
877.3170517782156
 30
0.0
 10
16.53843485150986
 20
877.1876561033469
 30
0.0
 10
16.62574818632843
 20
877.099731997578
 30
0.0
 10
16.71142003188481
 20
877.0447973720499
 30
0.0
 10
16.7860533049181
 20
877.0143921493469
 30
0.0
 10
16.84077565802831
 20
877.0005270621933
 30
0.0
 10
16.87384413336179
 20
876.9947346935563
 30
0.0
 10
16.90186130368315
 20
876.9909736715564
 30
0.0
 10
16.95864159165336
 20
876.9853465247254
 30
0.0
 10
17.07203644913904
 20
876.9779837239305
 30
0.0
 10
17.26537664358944
 20
876.9681982870701
 30
0.0
 10
17.37028448931982
 20
876.9635091707383
 30
0.0
 10
17.39793657892963
 20
876.9622776982286
 30
0.0
  0
LINE
  5
116
330
93
100
AcDbEntity
  8
DV1_Default
 62
     7
100
AcDbLine
 10
16.4439847846
 20
878.0307631836
 30
0.0
 11
16.4439847846
 21
877.431937996
 31
0.0
  0
ARC
  5
117
330
93
100
AcDbEntity
  8
DV1_Default
 62
     7
100
AcDbCircle
 10
40.0980634288
 20
1451.4497213947
 30
0.0
 40
575.0000624379999
100
AcDbArc
 50
267.6825874724
 51
267.9816065013
  0
ARC
  5
118
330
93
100
AcDbEntity
  8
DV1_Default
 62
     7
100
AcDbCircle
 10
40.0980634288
 20
1451.4497213947
 30
0.0
 40
575.000062438
100
AcDbArc
 50
267.5808358336
 51
267.5827244458
  0
LINE
  5
119
330
93
100
AcDbEntity
  8
DV1_Default
 62
     7
100
AcDbLine
 10
20.8480724116
 20
876.7719866688
 30
0.0
 11
21.3892753748
 21
876.7538420929
 31
0.0
  0
ARC
  5
11A
330
93
100
AcDbEntity
  8
DV1_Default
 62
     7
100
AcDbCircle
 10
21.5980301954
 20
877.2468669487
 30
0.0
 40
0.4999978750545916
100
AcDbArc
 50
268.003020542
 51
291.389634599
  0
ARC
  5
11B
330
93
100
AcDbEntity
  8
DV1_Default
 62
     7
100
AcDbCircle
 10
15.0945678275
 20
877.4932577912
 30
0.0
 40
0.4999926262114959
100
AcDbArc
 50
187.0406053865
 51
268.0570022305
  0
LINE
  5
11C
330
93
100
AcDbEntity
  8
DV1_Default
 62
     7
100
AcDbLine
 10
14.5980634477
 20
878.0586837375
 30
0.0
 11
14.5980634477
 21
877.4319375114
 31
0.0
  0
LINE
  5
11D
330
93
100
AcDbEntity
  8
DV1_Default
 62
     7
100
AcDbLine
 10
15.0776154729
 20
876.9935526342
 30
0.0
 11
15.8369247346
 21
876.961729827
 31
0.0
  0
LINE
  5
11E
330
93
100
AcDbEntity
  8
DV1_Default
 62
     7
100
AcDbLine
 10
15.8476824525
 20
876.9612755117
 30
0.0
 11
15.9027161174
 21
876.9589513538
 31
0.0
  0
LINE
  5
11F
330
93
100
AcDbEntity
  8
DV1_Default
 62
     7
100
AcDbLine
 10
48.1950330454
 20
876.7741291513
 30
0.0
 11
48.2013053909
 21
876.7746684841
 31
0.0
  0
ARC
  5
120
330
93
100
AcDbEntity
  8
DV1_Default
 62
     7
100
AcDbCircle
 10
40.0980634288
 20
1451.4497213947
 30
0.0
 40
575.000062438
100
AcDbArc
 50
272.4172839919
 51
272.4191718924
  0
ARC
  5
121
330
93
100
AcDbEntity
  8
DV1_Default
 62
     7
100
AcDbCircle
 10
58.5980967072
 20
877.24686695
 30
0.0
 40
0.4999978919897017
100
AcDbArc
 50
249.6200917893
 51
271.996979001
  0
ARC
  5
122
330
93
100
AcDbEntity
  8
DV1_Default
 62
     7
100
AcDbCircle
 10
65.0980192415
 20
877.4931251029
 30
0.0
 40
0.4999926365262737
100
AcDbArc
 50
272.3489161847
 51
0.0486472834
  0
LINE
  5
123
330
93
100
AcDbEntity
  8
DV1_Default
 62
     7
100
AcDbLine
 10
65.5980634477
 20
877.4319379917
 30
0.0
 11
65.5980634477
 21
878.0603568082
 31
0.0
  0
LINE
  5
124
330
93
100
AcDbEntity
  8
DV1_Default
 62
     7
100
AcDbLine
 10
64.2934107782
 20
876.9589513554
 30
0.0
 11
64.3498243208
 21
876.9613337856
 31
0.0
  0
LINE
  5
125
330
93
100
AcDbEntity
  8
DV1_Default
 62
     7
100
AcDbLine
 10
64.3594108479
 20
876.9617386393
 30
0.0
 11
65.1191569938
 21
876.9938238812
 31
0.0
  0
SPLINE
  5
126
330
93
100
AcDbEntity
  8
DV1_Default
 62
     7
100
AcDbSpline
210
0.0
220
0.0
230
1.0
 70
     8
 71
     3
 72
    19
 73
    15
 74
     0
 42
0.000000001
 43
0.0000000001
 40
0.0
 40
0.0
 40
0.0
 40
0.0
 40
0.0469620903554367
 40
0.1053333095930496
 40
0.1532624430957343
 40
0.188857584677285
 40
0.210842573877199
 40
0.2312414135575936
 40
0.2645147766434719
 40
0.36576086434137
 40
0.5302248475702905
 40
0.6842685414028317
 40
0.8457821447179262
 40
1.0
 40
1.0
 40
1.0
 40
1.0
 10
56.77115061329047
 20
876.9035100960772
 30
0.0
 10
56.79059624534943
 20
876.8831326737487
 30
0.0
 10
56.83776885128228
 20
876.8413401221353
 30
0.0
 10
56.91720597503141
 20
876.7942387157073
 30
0.0
 10
56.99668284719914
 20
876.7655781821895
 30
0.0
 10
57.05700839817796
 20
876.7536125952151
 30
0.0
 10
57.09313361256753
 20
876.7496881147567
 30
0.0
 10
57.11780954647698
 20
876.7480537103992
 30
0.0
 10
57.15383363957675
 20
876.7468244412129
 30
0.0
 10
57.22044519802912
 20
876.7466657850332
 30
0.0
 10
57.38051979537146
 20
876.7489551838883
 30
0.0
 10
57.63070712161178
 20
876.7550340860716
 30
0.0
 10
57.921661684743
 20
876.763724189245
 30
0.0
 10
58.09363438850189
 20
876.7699155914411
 30
0.0
 10
58.19046383239848
 20
876.7734401487994
 30
0.0
  0
SPLINE
  5
127
330
93
100
AcDbEntity
  8
DV1_Default
 62
     7
100
AcDbSpline
210
0.0
220
0.0
230
1.0
 70
     8
 71
     3
 72
    16
 73
    12
 74
     0
 42
0.000000001
 43
0.0000000001
 40
0.0
 40
0.0
 40
0.0
 40
0.0
 40
0.1065055052457507
 40
0.3569332987622003
 40
0.4083566774676136
 40
0.4469422233387941
 40
0.5064628719737675
 40
0.5904074131564158
 40
0.7267477079873893
 40
0.8690280112309635
 40
1.0
 40
1.0
 40
1.0
 40
1.0
 10
63.05889994900865
 20
876.9751514118569
 30
0.0
 10
63.09491416287567
 20
876.9770005684452
 30
0.0
 10
63.20030530836829
 20
876.982681583097
 30
0.0
 10
63.25742649272232
 20
876.9865473342745
 30
0.0
 10
63.32027256671244
 20
876.9942850475487
 30
0.0
 10
63.3652082736762
 20
877.0023985759001
 30
0.0
 10
63.43517382961968
 20
877.0224289821381
 30
0.0
 10
63.53795278299963
 20
877.0728984374666
 30
0.0
 10
63.65027087155318
 20
877.1724672045693
 30
0.0
 10
63.73659307812431
 20
877.3254365696721
 30
0.0
 10
63.74550567315948
 20
877.4308075866694
 30
0.0
 10
63.74902465037863
 20
877.4896629258271
 30
0.0
  0
LINE
  5
128
330
93
100
AcDbEntity
  8
DV1_Default
 62
     7
100
AcDbLine
 10
63.7521421114
 20
877.4319379913
 30
0.0
 11
63.7521421114
 21
878.029261492
 31
0.0
  0
SPLINE
  5
129
330
93
100
AcDbEntity
  8
DV1_Default
 62
     7
100
AcDbSpline
210
0.0
220
0.0
230
1.0
 70
     8
 71
     3
 72
    22
 73
    18
 74
     0
 42
0.000000001
 43
0.0000000001
 40
0.0
 40
0.0
 40
0.0
 40
0.0
 40
0.0373999195171871
 40
0.1064814074375557
 40
0.1622292440264897
 40
0.2094106047979057
 40
0.2490913063993102
 40
0.2805585001395384
 40
0.3028719278495217
 40
0.3245464025181035
 40
0.361527426968357
 40
0.4856887305228652
 40
0.6041445110472553
 40
0.7276740224946111
 40
0.847756577083274
 40
0.9675597588269476
 40
1.0
 40
1.0
 40
1.0
 40
1.0
 10
52.45987004289604
 20
877.2261079051893
 30
0.0
 10
52.45798084748122
 20
877.1931136214432
 30
0.0
 10
52.45448118737475
 20
877.112293618608
 30
0.0
 10
52.50857245617421
 20
876.9846496443303
 30
0.0
 10
52.59411213022795
 20
876.8752745219678
 30
0.0
 10
52.68723865195074
 20
876.8049743961178
 30
0.0
 10
52.773875985738
 20
876.7645398096814
 30
0.0
 10
52.84468209591236
 20
876.7453292901135
 30
0.0
 10
52.89284081955869
 20
876.7378261088957
 30
0.0
 10
52.93081482345661
 20
876.7342151775082
 30
0.0
 10
52.99614976951793
 20
876.7310005347607
 30
0.0
 10
53.11392796313465
 20
876.730683152777
 30
0.0
 10
53.35650137374282
 20
876.735025246181
 30
0.0
 10
53.64865288722572
 20
876.7441108522322
 30
0.0
 10
53.94940063093189
 20
876.7563384665456
 30
0.0
 10
54.15760148498141
 20
876.7670354998675
 30
0.0
 10
54.24477524048569
 20
876.7723680412173
 30
0.0
 10
54.26628512065772
 20
876.7736942338652
 30
0.0
  0
LINE
  5
12A
330
93
100
AcDbEntity
  8
DV1_Default
 62
     7
100
AcDbLine
 10
52.4598689859
 20
877.7552805906
 30
0.0
 11
52.4598689859
 21
877.2262931877
 31
0.0
  0
LINE
  5
12B
330
93
100
AcDbEntity
  8
DV1_Default
 62
     7
100
AcDbLine
 10
54.2550401809
 20
876.7729024627
 30
0.0
 11
54.2639333547
 21
876.7733208513
 31
0.0
  0
SPLINE
  5
12C
330
93
100
AcDbEntity
  8
DV1_Default
 62
     7
100
AcDbSpline
210
0.0
220
0.0
230
1.0
 70
     8
 71
     3
 72
    15
 73
    11
 74
     0
 42
0.000000001
 43
0.0000000001
 40
0.0
 40
0.0
 40
0.0
 40
0.0
 40
0.1383082309751663
 40
0.4173731930081442
 40
0.4731197021282263
 40
0.5540829963528408
 40
0.6532418904964464
 40
0.7904589166543957
 40
0.9334420250216947
 40
1.0
 40
1.0
 40
1.0
 40
1.0
 10
57.79414775506826
 20
876.9626079727645
 30
0.0
 10
57.83742489764516
 20
876.9626936368189
 30
0.0
 10
57.95475990874708
 20
876.964850791898
 30
0.0
 10
58.017688356619
 20
876.9616188545693
 30
0.0
 10
58.1468938975765
 20
876.9841865412488
 30
0.0
 10
58.23630518051093
 20
877.013944307559
 30
0.0
 10
58.3450031626247
 20
877.0799832195472
 30
0.0
 10
58.44413926868445
 20
877.1928602707817
 30
0.0
 10
58.50164663495322
 20
877.3246866494505
 30
0.0
 10
58.49719856906172
 20
877.4012263096005
 30
0.0
 10
58.49517479408171
 20
877.4294622030769
 30
0.0
  0
LINE
  5
12D
330
93
100
AcDbEntity
  8
DV1_Default
 62
     7
100
AcDbLine
 10
58.4954028919
 20
877.428917486
 30
0.0
 11
58.4954028919
 21
878.0200781471
 31
0.0
  0
SPLINE
  5
12E
330
93
100
AcDbEntity
  8
DV1_Default
 62
     7
100
AcDbSpline
210
0.0
220
0.0
230
1.0
 70
     8
 71
     3
 72
    19
 73
    15
 74
     0
 42
0.000000001
 43
0.0000000001
 40
0.0
 40
0.0
 40
0.0
 40
0.0
 40
0.0526998625030186
 40
0.1456585893961864
 40
0.2209848055640895
 40
0.2849254115087453
 40
0.338838149867876
 40
0.381536166634286
 40
0.4146305428884166
 40
0.453681296533627
 40
0.5379140327584359
 40
0.7195114434823662
 40
0.8793979843955718
 40
1.0
 40
1.0
 40
1.0
 40
1.0
 10
46.21489589958775
 20
877.22690065461
 30
0.0
 10
46.21318375552458
 20
877.1930503502628
 30
0.0
 10
46.21028607006608
 20
877.112572799127
 30
0.0
 10
46.26505508190781
 20
876.9865355362424
 30
0.0
 10
46.35043284198699
 20
876.8796162747918
 30
0.0
 10
46.44309353398585
 20
876.8109718526731
 30
0.0
 10
46.52907183656831
 20
876.7717597124076
 30
0.0
 10
46.59845729635851
 20
876.7531968914545
 30
0.0
 10
46.64799165897423
 20
876.7452696575527
 30
0.0
 10
46.69859585184074
 20
876.7403268998663
 30
0.0
 10
46.78279637821258
 20
876.7366474090335
 30
0.0
 10
46.94983007869221
 20
876.7359520833495
 30
0.0
 10
47.1999235730556
 20
876.7406773589474
 30
0.0
 10
47.36927316564464
 20
876.7459293304439
 30
0.0
 10
47.44234001578641
 20
876.7485314238656
 30
0.0
  0
LINE
  5
12F
330
93
100
AcDbEntity
  8
DV1_Default
 62
     7
100
AcDbLine
 10
46.2147195212
 20
877.7757187101
 30
0.0
 11
46.2147195212
 21
877.2262933546
 31
0.0
  0
LINE
  5
130
330
93
100
AcDbEntity
  8
DV1_Default
 62
     7
100
AcDbLine
 10
48.1950330655
 20
876.7741291529
 30
0.0
 11
48.2013054078
 21
876.7746684856
 31
0.0
  0
SPLINE
  5
131
330
93
100
AcDbEntity
  8
DV1_Default
 62
     7
100
AcDbSpline
210
0.0
220
0.0
230
1.0
 70
     8
 71
     3
 72
    14
 73
    10
 74
     0
 42
0.000000001
 43
0.0000000001
 40
0.0
 40
0.0
 40
0.0
 40
0.0
 40
0.2058945080291041
 40
0.2987364134262349
 40
0.4140084336808669
 40
0.5550307612380518
 40
0.7292203135961713
 40
0.9238248603632975
 40
1.0
 40
1.0
 40
1.0
 40
1.0
 10
50.07930576467555
 20
876.9631189969637
 30
0.0
 10
50.11240695032708
 20
876.963934644607
 30
0.0
 10
50.15614390018221
 20
876.9668219321367
 30
0.0
 10
50.2566792677592
 20
876.9850463788244
 30
0.0
 10
50.35749221121984
 20
877.0203433439008
 30
0.0
 10
50.47042674345522
 20
877.0912571343921
 30
0.0
 10
50.57174037223935
 20
877.2070063580754
 30
0.0
 10
50.63126169679347
 20
877.3343534480846
 30
0.0
 10
50.62899986078272
 20
877.4078403670678
 30
0.0
 10
50.62799605765847
 20
877.4318453583921
 30
0.0
  0
LINE
  5
132
330
93
100
AcDbEntity
  8
DV1_Default
 62
     7
100
AcDbLine
 10
50.6281366831
 20
877.4319337116
 30
0.0
 11
50.6281366831
 21
878.0029610639
 31
0.0
  0
LINE
  5
133
330
93
100
AcDbEntity
  8
DV1_Default
 62
     7
100
AcDbLine
 10
94.7517250425
 20
706.3216372214
 30
0.0
 11
100.2460592164
 21
706.3892636152
 31
0.0
  0
LINE
  5
134
330
93
100
AcDbEntity
  8
DV1_Default
 62
     7
100
AcDbLine
 10
135.0923622605
 20
707.9258050999
 30
0.0
 11
135.2745684521
 21
710.4028927009
 31
0.0
  0
LINE
  5
135
330
93
100
AcDbEntity
  8
DV1_Default
 62
     7
100
AcDbLine
 10
84.9641734587
 20
754.2328596559
 30
0.0
 11
119.4641454181
 21
753.9317829618
 31
0.0
  0
LINE
  5
136
330
93
100
AcDbEntity
  8
DV1_Default
 62
     7
100
AcDbLine
 10
69.8300222167
 20
878.251200699
 30
0.0
 11
69.9057937561
 21
878.6045588197
 31
0.0
  0
LINE
  5
137
330
93
100
AcDbEntity
  8
DV1_Default
 62
     7
100
AcDbLine
 10
40.0980634447
 20
876.7471481169
 30
0.0
 11
39.2139094734
 21
876.7471481169
 31
0.0
  0
LINE
  5
138
330
93
100
AcDbEntity
  8
DV1_Default
 62
     7
100
AcDbLine
 10
32.0314861296
 20
876.7730332319
 30
0.0
 11
33.9210464104
 21
876.8225021825
 31
0.0
  0
ARC
  5
139
330
93
100
AcDbEntity
  8
DV1_Default
 62
     7
100
AcDbCircle
 10
32.6006246383
 20
877.2262933542
 30
0.0
 40
1.38078273683972
100
AcDbArc
 50
342.9961221375
 51
0.0
  0
ENDBLK
  5
13B
330
93
100
AcDbEntity
  8
0
100
AcDbBlockEnd
  0
BLOCK
  5
21C
330
13C
100
AcDbEntity
  8
0
100
AcDbBlockBegin
  2
SE1
 70
     0
 10
0.0
 20
0.0
 30
0.0
  3
SE1
  1

  0
LINE
  5
13F
330
13C
100
AcDbEntity
  8
DV2_Default
 62
     7
100
AcDbLine
 10
317.2160145656
 20
863.2346283647
 30
0.0
 11
288.2153643328
 21
863.2346283647
 31
0.0
  0
LINE
  5
140
330
13C
100
AcDbEntity
  8
DV2_Default
 62
     7
100
AcDbLine
 10
272.9323521863
 20
663.2346283647
 30
0.0
 11
332.4990280599
 21
663.2346283647
 31
0.0
  0
SPLINE
  5
141
330
13C
100
AcDbEntity
  8
DV2_Default
 62
     7
100
AcDbSpline
210
0.0
220
0.0
230
1.0
 70
     8
 71
     3
 72
    21
 73
    17
 74
     0
 42
0.000000001
 43
0.0000000001
 40
0.0
 40
0.0
 40
0.0
 40
0.0
 40
0.037475983581224
 40
0.0815915338675793
 40
0.129629922385392
 40
0.1813626381565177
 40
0.2365574820435404
 40
0.2939096052463329
 40
0.3541510696772766
 40
0.4170569099259643
 40
0.4824014254936326
 40
0.5795325976780535
 40
0.6805186239432932
 40
0.7846987155510617
 40
0.8914123750524333
 40
1.0
 40
1.0
 40
1.0
 40
1.0
 10
287.7096711744933
 20
862.7356327615805
 30
0.0
 10
287.6888785847444
 20
859.9860955306679
 30
0.0
 10
287.6464420742647
 20
854.9307864570645
 30
0.0
 10
287.348059392582
 20
846.1087927620109
 30
0.0
 10
286.8994959261561
 20
836.577867723923
 30
0.0
 10
286.2932793483341
 20
826.2424256250979
 30
0.0
 10
285.5571990295711
 20
815.3145558572112
 30
0.0
 10
284.7056943530952
 20
803.8195847356874
 30
0.0
 10
283.7555358447929
 20
791.8181179796047
 30
0.0
 10
282.7159542759557
 20
779.2888730741391
 30
0.0
 10
281.4325423794018
 20
764.3096516015872
 30
0.0
 10
279.896083337914
 20
746.8106396418832
 30
0.0
 10
278.1142944178179
 20
726.698524474417
 30
0.0
 10
276.3032612067969
 20
706.0831854203547
 30
0.0
 10
274.4425082701826
 20
684.437429070925
 30
0.0
 10
273.3617270444498
 20
671.1754746791994
 30
0.0
 10
272.7156898612379
 20
663.2346283646649
 30
0.0
  0
SPLINE
  5
142
330
13C
100
AcDbEntity
  8
DV2_Default
 62
     7
100
AcDbSpline
210
0.0
220
0.0
230
1.0
 70
     8
 71
     3
 72
    21
 73
    17
 74
     0
 42
0.000000001
 43
0.0000000001
 40
0.0
 40
0.0
 40
0.0
 40
0.0
 40
0.098783571305824
 40
0.1960679267205618
 40
0.2913576153595128
 40
0.3841565023195985
 40
0.4739681368796445
 40
0.5602961556692498
 40
0.6426447642273019
 40
0.7042333398579854
 40
0.7628208139172482
 40
0.8181692792230948
 40
0.8700425119357527
 40
0.918206763949521
 40
0.9624319979424713
 40
1.0
 40
1.0
 40
1.0
 40
1.0
 10
332.7156903849927
 20
663.2346283646648
 30
0.0
 10
332.1288688902669
 20
670.4585912567779
 30
0.0
 10
331.1460364254251
 20
682.5363247335367
 30
0.0
 10
329.4574800264937
 20
702.2775139263243
 30
0.0
 10
327.8074354245862
 20
721.1411923756315
 30
0.0
 10
326.1713067359426
 20
739.6303357535038
 30
0.0
 10
324.5944949869611
 20
757.4926139122948
 30
0.0
 10
323.1042898871723
 20
774.6708898200533
 30
0.0
 10
321.8230419913164
 20
789.9758666049122
 30
0.0
 10
320.7543499374486
 20
803.4416086285722
 30
0.0
 10
319.8877963560457
 20
815.1184958910682
 30
0.0
 10
319.1440113316593
 20
826.1480621955086
 30
0.0
 10
318.5353454799762
 20
836.5114676043675
 30
0.0
 10
318.08492119562
 20
846.067267367727
 30
0.0
 10
317.7852439942919
 20
854.9115358138126
 30
0.0
 10
317.7426123175548
 20
859.9793451893804
 30
0.0
 10
317.7217211905279
 20
862.7356332207933
 30
0.0
  0
ARC
  5
143
330
13C
100
AcDbEntity
  8
DV2_Default
 62
     7
100
AcDbCircle
 10
317.2161256217
 20
862.7347540265
 30
0.0
 40
0.4998743974531072
100
AcDbArc
 50
0.0830787408
 51
90.0279100508
  0
ARC
  5
144
330
13C
100
AcDbEntity
  8
DV2_Default
 62
     7
100
AcDbCircle
 10
288.2152543037
 20
862.7347540265
 30
0.0
 40
0.4998743974531374
100
AcDbArc
 50
89.9720899492
 51
179.9169212592
  0
ARC
  5
145
330
13C
100
AcDbEntity
  8
DV2_Default
 62
     7
100
AcDbCircle
 10
272.9323521863
 20
663.4346283647
 30
0.0
 40
0.1999999999999903
100
AcDbArc
 50
175.4186019066
 51
270.0
  0
ARC
  5
146
330
13C
100
AcDbEntity
  8
DV2_Default
 62
     7
100
AcDbCircle
 10
332.4990280599
 20
663.4346283647
 30
0.0
 40
0.2
100
AcDbArc
 50
270.0
 51
4.5813980934
  0
LINE
  5
147
330
13C
100
AcDbEntity
  8
DV2_Default
 62
     7
100
AcDbLine
 10
489.1276243444
 20
988.5511841064
 30
0.0
 11
502.0739858467
 21
997.9572663207
 31
0.0
  0
LINE
  5
148
330
13C
100
AcDbEntity
  8
DV2_Default
 62
     7
100
AcDbLine
 10
302.7156899627
 20
863.7346283647
 30
0.0
 11
287.7167787568
 21
863.7346283647
 31
0.0
  0
LINE
  5
149
330
13C
100
AcDbEntity
  8
DV2_Default
 62
     7
100
AcDbLine
 10
302.7156899627
 20
863.7346283647
 30
0.0
 11
317.7146011686
 21
863.7346283648
 31
0.0
  0
LINE
  5
14A
330
13C
100
AcDbEntity
  8
DV2_Default
 62
     7
100
AcDbLine
 10
474.4700592074
 20
982.2280775986
 30
0.0
 11
474.2235242799
 21
982.0489594891
 31
0.0
  0
LINE
  5
14B
330
13C
100
AcDbEntity
  8
DV2_Default
 62
     7
100
AcDbLine
 10
476.1479802847
 20
979.7389546874
 30
0.0
 11
474.4700592074
 21
982.2280775987
 31
0.0
  0
LINE
  5
14C
330
13C
100
AcDbEntity
  8
DV2_Default
 62
     7
100
AcDbLine
 10
476.5122913043
 20
979.3856082042
 30
0.0
 11
489.1276243444
 21
988.5511841064
 31
0.0
  0
LINE
  5
14D
330
13C
100
AcDbEntity
  8
DV2_Default
 62
     7
100
AcDbLine
 10
476.1479802847
 20
979.7389546874
 30
0.0
 11
476.5123016934
 21
979.3856190569
 31
0.0
  0
SPLINE
  5
14E
330
13C
100
AcDbEntity
  8
DV2_Default
 62
     7
100
AcDbSpline
210
0.0
220
0.0
230
1.0
 70
     8
 71
     3
 72
    57
 73
    53
 74
     0
 42
0.000000001
 43
0.0000000001
 40
0.0
 40
0.0
 40
0.0
 40
0.0
 40
0.0457631915600306
 40
0.0887893766374632
 40
0.1290954080103515
 40
0.1667127611133681
 40
0.2016928782064918
 40
0.2341087308734089
 40
0.2640540077038999
 40
0.2916408157434048
 40
0.3169964669609827
 40
0.3402597311155895
 40
0.3615766962421148
 40
0.3810957139784766
 40
0.3989622107286486
 40
0.4153147581276823
 40
0.4359069400789475
 40
0.4541000965914094
 40
0.4701652093620592
 40
0.4843280556672877
 40
0.4967727338030646
 40
0.5076466524283948
 40
0.5173809194104937
 40
0.5278558858204097
 40
0.5393245413774237
 40
0.551744377453244
 40
0.568561551112549
 40
0.5867985642743665
 40
0.6059027836779268
 40
0.6238682456757663
 40
0.6351682833240627
 40
0.6459535337039759
 40
0.6562394546612906
 40
0.6660352733509255
 40
0.675603135488274
 40
0.6869754159153867
 40
0.7006109409241525
 40
0.7165415706288362
 40
0.734793146048136
 40
0.7500125912184217
 40
0.7665373076500271
 40
0.7843532287155154
 40
0.8034420025129788
 40
0.8237904104725914
 40
0.8454067977629987
 40
0.8683451702171545
 40
0.8927330053523092
 40
0.9134351671294496
 40
0.9353756397995892
 40
0.9587849925444714
 40
0.9839715039026752
 40
1.0
 40
1.0
 40
1.0
 40
1.0
 10
317.7146011685791
 20
863.7346283646649
 30
0.0
 10
317.7125600229399
 20
868.9146475207774
 30
0.0
 10
317.7182879720543
 20
877.3747863775284
 30
0.0
 10
317.8030376007035
 20
890.9143544364052
 30
0.0
 10
318.0441838012846
 20
903.2963529191586
 30
0.0
 10
318.477549090658
 20
914.9220125885794
 30
0.0
 10
319.1225917957266
 20
925.706257324865
 30
0.0
 10
319.9823564551191
 20
935.6880339058987
 30
0.0
 10
321.0490123544802
 20
944.8834539390821
 30
0.0
 10
322.3069381041092
 20
953.3211660936266
 30
0.0
 10
323.735464272548
 20
961.0333932897358
 30
0.0
 10
325.3109130435611
 20
968.0571758467009
 30
0.0
 10
327.0081262824797
 20
974.4328592712516
 30
0.0
 10
328.8015283348834
 20
980.2029121399381
 30
0.0
 10
330.6659715814031
 20
985.4107068046831
 30
0.0
 10
332.7956692133114
 20
990.6350820448032
 30
0.0
 10
335.2067646380121
 20
995.7751558870744
 30
0.0
 10
337.9122143519833
 20
1000.732565507289
 30
0.0
 10
340.5566180141919
 20
1004.958900407089
 30
0.0
 10
343.0955175536603
 20
1008.544341541852
 30
0.0
 10
345.491138343683
 20
1011.569232074955
 30
0.0
 10
347.7331818220041
 20
1014.128533443269
 30
0.0
 10
349.9491790227372
 20
1016.4363974962
 30
0.0
 10
352.314197105904
 20
1018.681562110428
 30
0.0
 10
355.0028631014441
 20
1020.981040943586
 30
0.0
 10
358.340902354625
 20
1023.515469851498
 30
0.0
 10
362.4419806632073
 20
1026.181058470704
 30
0.0
 10
367.375437281739
 20
1028.790829454413
 30
0.0
 10
372.6482855338404
 20
1030.957094638258
 30
0.0
 10
377.4187982027872
 20
1032.402487436672
 30
0.0
 10
381.4424850042891
 20
1033.303191910511
 30
0.0
 10
384.7296160190175
 20
1033.852137876125
 30
0.0
 10
387.8864029849067
 20
1034.214703352181
 30
0.0
 10
390.9316646256335
 20
1034.418398709536
 30
0.0
 10
394.0946556001668
 20
1034.488173982792
 30
0.0
 10
397.6529429228838
 20
1034.398882920502
 30
0.0
 10
401.8546293455773
 20
1034.063553598784
 30
0.0
 10
406.7292722485279
 20
1033.368083017804
 30
0.0
 10
411.7050556162879
 20
1032.304849086561
 30
0.0
 10
416.658819360776
 20
1030.906500321315
 30
0.0
 10
421.4787299643952
 20
1029.230309337431
 30
0.0
 10
426.5513910352492
 20
1027.10011128269
 30
0.0
 10
431.8244312735889
 20
1024.462371741371
 30
0.0
 10
437.2387988233447
 20
1021.265342973951
 30
0.0
 10
442.7339994670433
 20
1017.458994672626
 30
0.0
 10
448.2561925882173
 20
1012.995483247451
 30
0.0
 10
453.3695662065276
 20
1008.204470348824
 30
0.0
 10
458.1040734548438
 20
1003.188152916732
 30
0.0
 10
462.5243293980629
 20
998.0072716547835
 30
0.0
 10
466.9611392352838
 20
992.3172810542517
 30
0.0
 10
470.9651931326011
 20
986.8085857313039
 30
0.0
 10
473.1867190875704
 20
983.5380524770529
 30
0.0
 10
474.2032261149368
 20
982.0352620110211
 30
0.0
  0
SPLINE
  5
14F
330
13C
100
AcDbEntity
  8
DV2_Default
 62
     7
100
AcDbSpline
210
0.0
220
0.0
230
1.0
 70
     8
 71
     3
 72
    56
 73
    52
 74
     0
 42
0.000000001
 43
0.0000000001
 40
0.0
 40
0.0
 40
0.0
 40
0.0
 40
0.0257687801666906
 40
0.0506722370192957
 40
0.0747093433229953
 40
0.0978364665150268
 40
0.1199961079674327
 40
0.1407598895791334
 40
0.1604778356847909
 40
0.1791027249498475
 40
0.196595143357776
 40
0.2150551421083063
 40
0.2319664202699659
 40
0.2472906022335664
 40
0.2609932706069565
 40
0.2730437519683064
 40
0.2834151758280749
 40
0.2926045690840839
 40
0.3019689744558682
 40
0.3214427385553538
 40
0.3419247627612544
 40
0.3634268761397436
 40
0.3859528599725714
 40
0.4087655791394905
 40
0.4314125330641727
 40
0.4539256694716705
 40
0.4763542917270219
 40
0.4987520399277914
 40
0.5206490600059013
 40
0.5417480263871888
 40
0.5620358201761025
 40
0.5750957301844869
 40
0.5877654415291524
 40
0.6000275922440248
 40
0.6120104167682311
 40
0.6252485418915885
 40
0.6402204432602013
 40
0.654505685875356
 40
0.6702023951515131
 40
0.6873854341439289
 40
0.7061366641293255
 40
0.7265448197148922
 40
0.7487053895729924
 40
0.7727196989414588
 40
0.7986919849707157
 40
0.8267243543477567
 40
0.8569092944056605
 40
0.8893192304902566
 40
0.9239925792236653
 40
0.9609156894040263
 40
1.0
 40
1.0
 40
1.0
 40
1.0
 10
502.073985846665
 20
997.9572663207238
 30
0.0
 10
499.8302163390568
 20
1000.854893957828
 30
0.0
 10
496.1003777055679
 20
1005.642044046407
 30
0.0
 10
490.0218497499506
 20
1013.389364353605
 30
0.0
 10
484.0270540919536
 20
1020.464139823254
 30
0.0
 10
477.9033203453993
 20
1027.03075649983
 30
0.0
 10
471.7390113942324
 20
1032.943209552542
 30
0.0
 10
465.5758297849825
 20
1038.205539077432
 30
0.0
 10
459.4822620992367
 20
1042.823940099498
 30
0.0
 10
453.4839955514673
 20
1046.847792517769
 30
0.0
 10
447.4086551822164
 20
1050.443793585689
 30
0.0
 10
441.3313830267358
 20
1053.58044049414
 30
0.0
 10
435.3373880640914
 20
1056.240930754713
 30
0.0
 10
429.7823961827338
 20
1058.350505235529
 30
0.0
 10
424.7270287194294
 20
1059.984576075647
 30
0.0
 10
420.2209624379935
 20
1061.218503271143
 30
0.0
 10
416.2381402529944
 20
1062.139594025276
 30
0.0
 10
412.5664012371961
 20
1062.85323596686
 30
0.0
 10
407.7104304290851
 20
1063.627711821626
 30
0.0
 10
401.3630083131257
 20
1064.297094764839
 30
0.0
 10
393.4128039726252
 20
1064.534913044927
 30
0.0
 10
385.0733412355434
 20
1064.109081012032
 30
0.0
 10
376.5022665893687
 20
1062.916165409772
 30
0.0
 10
367.9329360454101
 20
1060.901443742329
 30
0.0
 10
359.5960523792361
 20
1058.078699195649
 30
0.0
 10
351.6169855710913
 20
1054.481650102858
 30
0.0
 10
344.0549595518044
 20
1050.139218339634
 30
0.0
 10
337.0155558906332
 20
1045.129465019093
 30
0.0
 10
330.6100210315682
 20
1039.59297722433
 30
0.0
 10
324.9079829634053
 20
1033.711816017867
 30
0.0
 10
320.4259088703696
 20
1028.274375585425
 30
0.0
 10
316.9275081142084
 20
1023.45966384236
 30
0.0
 10
314.2210286994062
 20
1019.358720737793
 30
0.0
 10
311.7596035515954
 20
1015.268252075372
 30
0.0
 10
309.4225598048041
 20
1011.021559756605
 30
0.0
 10
307.0925283187204
 20
1006.375222548706
 30
0.0
 10
304.8296927096077
 20
1001.366862172176
 30
0.0
 10
302.6461392951684
 20
995.9791634349881
 30
0.0
 10
300.5701362159549
 20
990.2438899878097
 30
0.0
 10
298.5407527020415
 20
983.8827539938561
 30
0.0
 10
296.596491963778
 20
976.8606406363505
 30
0.0
 10
294.7756063996399
 20
969.1425765625083
 30
0.0
 10
293.1146615668585
 20
960.6938528212537
 30
0.0
 10
291.6467682082468
 20
951.480195877385
 30
0.0
 10
290.3994666201524
 20
941.4689758954638
 30
0.0
 10
289.3923223240299
 20
930.6282856377187
 30
0.0
 10
288.6341505888506
 20
918.9382898340206
 30
0.0
 10
288.1201162848081
 20
906.3557588121477
 30
0.0
 10
287.8277558144241
 20
892.9786762118645
 30
0.0
 10
287.7159920902726
 20
878.3931905779532
 30
0.0
 10
287.7125360341446
 20
869.293140658576
 30
0.0
 10
287.7167787567741
 20
863.7346283646649
 30
0.0
  0
ARC
  5
150
330
13C
100
AcDbEntity
  8
DV2_Default
 62
     7
100
AcDbCircle
 10
251.2034507995
 20
640.9316538982
 30
0.0
 40
212.3173353347554
100
AcDbArc
 50
58.4730713064
 51
60.0109393742
  0
LINE
  5
151
330
13C
100
AcDbEntity
  8
DV2_Default
 62
     7
100
AcDbLine
 10
362.2245587926
 20
821.909626598
 30
0.0
 11
362.261452434
 21
821.886876075
 31
0.0
  0
ARC
  5
152
330
13C
100
AcDbEntity
  8
DV2_Default
 62
     7
100
AcDbCircle
 10
349.662255869
 20
824.113918273
 30
0.0
 40
14.88805652658377
100
AcDbArc
 50
330.6375027292
 51
334.5443259135
  0
ARC
  5
153
330
13C
100
AcDbEntity
  8
DV2_Default
 62
     7
100
AcDbCircle
 10
377.1475441452
 20
808.4415031956
 30
0.0
 40
16.75203099525621
100
AcDbArc
 50
150.0146579982
 51
153.0141715881
  0
ARC
  5
154
330
13C
100
AcDbEntity
  8
DV2_Default
 62
     7
100
AcDbCircle
 10
251.3706342373
 20
641.396231398
 30
0.0
 40
211.8314090357559
100
AcDbArc
 50
59.9872966391
 51
61.5286926802
  0
LINE
  5
155
330
13C
100
AcDbEntity
  8
DV2_Default
 62
     7
100
AcDbLine
 10
352.3540934814
 20
827.6080720946
 30
0.0
 11
352.3159666774
 21
827.6286887854
 31
0.0
  0
ARC
  5
156
330
13C
100
AcDbEntity
  8
DV2_Default
 62
     7
100
AcDbCircle
 10
360.753477328
 20
817.703044869
 30
0.0
 40
15.13329203801542
100
AcDbArc
 50
145.5051869322
 51
149.3487153248
  0
ARC
  5
157
330
13C
100
AcDbEntity
  8
DV2_Default
 62
     7
100
AcDbCircle
 10
336.1128203789
 20
832.0296800942
 30
0.0
 40
13.37070905447808
100
AcDbArc
 50
326.6064322371
 51
330.3647381766
  0
SPLINE
  5
158
330
13C
100
AcDbEntity
  8
DV2_Default
 62
     7
100
AcDbSpline
210
0.0
220
0.0
230
1.0
 70
     8
 71
     3
 72
    16
 73
    12
 74
     0
 42
0.000000001
 43
0.0000000001
 40
0.0
 40
0.0
 40
0.0
 40
0.0
 40
0.185866751223205
 40
0.2849634001327297
 40
0.3955731997383717
 40
0.5014041172806102
 40
0.5756942466671682
 40
0.6824563907222211
 40
0.7694830878120201
 40
0.8573082895127371
 40
1.0
 40
1.0
 40
1.0
 40
1.0
 10
363.1047631111484
 20
817.714932043988
 30
0.0
 10
363.2545197285536
 20
818.0754668489105
 30
0.0
 10
363.4426621418244
 20
818.5429733185468
 30
0.0
 10
363.6028653033519
 20
819.212175848844
 30
0.0
 10
363.6543324838115
 20
819.7225571365112
 30
0.0
 10
363.6176550991009
 20
820.1623145798703
 30
0.0
 10
363.500090647561
 20
820.5844739566998
 30
0.0
 10
363.319874342507
 20
820.9360341828774
 30
0.0
 10
363.0676489186845
 20
821.2552475296118
 30
0.0
 10
362.7264908401011
 20
821.5789408564207
 30
0.0
 10
362.4510462757795
 20
821.7627924586994
 30
0.0
 10
362.2459522861228
 20
821.8959371231141
 30
0.0
  0
ARC
  5
159
330
13C
100
AcDbEntity
  8
DV2_Default
 62
     7
100
AcDbCircle
 10
-73620.1952529214
 20
41347.7984356944
 30
0.0
 40
84357.69604912623
100
AcDbArc
 50
331.2315147912
 51
331.2835770945
  0
SPLINE
  5
15A
330
13C
100
AcDbEntity
  8
DV2_Default
 62
     7
100
AcDbSpline
210
0.0
220
0.0
230
1.0
 70
     8
 71
     3
 72
    12
 73
     8
 74
     0
 42
0.000000001
 43
0.0000000001
 40
0.0
 40
0.0
 40
0.0
 40
0.0
 40
0.2658350599548622
 40
0.4737598958580728
 40
0.6590237057441871
 40
0.7586947713089627
 40
1.0
 40
1.0
 40
1.0
 40
1.0
 10
352.3316537657312
 20
827.6199600426884
 30
0.0
 10
351.9338053492274
 20
827.8180282780476
 30
0.0
 10
351.3242644307385
 20
828.0929147465353
 30
0.0
 10
350.3211633217365
 20
828.0523283098489
 30
0.0
 10
349.6380633392171
 20
827.6981777010637
 30
0.0
 10
348.9670539914186
 20
827.1416555311895
 30
0.0
 10
348.590207789708
 20
826.6708740734645
 30
0.0
 10
348.2813917413436
 20
826.2732094946425
 30
0.0
  0
ARC
  5
15B
330
13C
100
AcDbEntity
  8
DV2_Default
 62
     7
100
AcDbCircle
 10
71471.0606164285
 20
-42391.4888802059
 30
0.0
 40
83223.97004131031
100
AcDbArc
 50
148.7163412904
 51
148.7493886018
  0
LINE
  5
15C
330
13C
100
AcDbEntity
  8
DV2_Default
 62
     7
100
AcDbLine
 10
478.0644833359
 20
980.5133416704
 30
0.0
 11
478.1734819184
 21
980.3633179902
 31
0.0
  0
LINE
  5
15D
330
13C
100
AcDbEntity
  8
DV2_Default
 62
     7
100
AcDbLine
 10
478.97744294
 20
981.1766456491
 30
0.0
 11
479.0864561988
 21
981.0266017687
 31
0.0
  0
LINE
  5
15E
330
13C
100
AcDbEntity
  8
DV2_Default
 62
     7
100
AcDbLine
 10
477.8013864231
 20
980.3221905743
 30
0.0
 11
477.9103775641
 21
980.1721771365
 31
0.0
  0
LINE
  5
15F
330
13C
100
AcDbEntity
  8
DV2_Default
 62
     7
100
AcDbLine
 10
317.2156899627
 20
863.2346283647
 30
0.0
 11
288.2156899627
 21
863.2346283647
 31
0.0
  0
LINE
  5
160
330
13C
100
AcDbEntity
  8
DV2_Default
 62
     7
100
AcDbLine
 10
317.2156899627
 20
863.7346283647
 30
0.0
 11
288.2156899627
 21
863.7346283647
 31
0.0
  0
LINE
  5
161
330
13C
100
AcDbEntity
  8
DV2_Default
 62
     7
100
AcDbLine
 10
317.2156899627
 20
863.2346283647
 30
0.0
 11
317.2156899627
 21
863.7346283647
 31
0.0
  0
LINE
  5
162
330
13C
100
AcDbEntity
  8
DV2_Default
 62
     7
100
AcDbLine
 10
288.2156899627
 20
863.7346283647
 30
0.0
 11
288.2156899627
 21
863.2346283647
 31
0.0
  0
LINE
  5
163
330
13C
100
AcDbEntity
  8
DV2_Default
 62
     7
100
AcDbLine
 10
275.9156899627
 20
663.2345440302
 30
0.0
 11
329.5156899627
 21
663.2345440302
 31
0.0
  0
ARC
  5
164
330
13C
100
AcDbEntity
  8
DV2_Default
 62
     7
100
AcDbCircle
 10
275.9156899627
 20
663.4345440302
 30
0.0
 40
0.2000000000000057
100
AcDbArc
 50
268.3360488673
 51
270.0
  0
ARC
  5
165
330
13C
100
AcDbEntity
  8
DV2_Default
 62
     7
100
AcDbCircle
 10
329.5156899627
 20
663.4345440302
 30
0.0
 40
0.2
100
AcDbArc
 50
270.0
 51
271.6639511327
  0
LINE
  5
166
330
13C
100
AcDbEntity
  8
DV2_Default
 62
     7
100
AcDbLine
 10
560.6614218234
 20
878.0339617327
 30
0.0
 11
564.777007001
 21
878.2391358486
 31
0.0
  0
LINE
  5
167
330
13C
100
AcDbEntity
  8
DV2_Default
 62
     7
100
AcDbLine
 10
545.658604518
 20
877.5475471833
 30
0.0
 11
547.5231004841
 21
877.5951069822
 31
0.0
  0
SPLINE
  5
168
330
13C
100
AcDbEntity
  8
DV2_Default
 62
     7
100
AcDbSpline
210
0.0
220
0.0
230
1.0
 70
     8
 71
     3
 72
    13
 73
     9
 74
     0
 42
0.000000001
 43
0.0000000001
 40
0.0
 40
0.0
 40
0.0
 40
0.0
 40
0.1258827605474857
 40
0.2356006292040851
 40
0.3291273091323297
 40
0.4064409188116644
 40
0.8000414960929612
 40
1.0
 40
1.0
 40
1.0
 40
1.0
 10
513.2395072645684
 20
877.9793811271861
 30
0.0
 10
513.1425714692319
 20
877.9835813793627
 30
0.0
 10
512.9611285936535
 20
877.991442478391
 30
0.0
 10
512.6921197700572
 20
878.0017059198976
 30
0.0
 10
512.4669963915555
 20
878.009876486411
 30
0.0
 10
512.0328808866954
 20
878.0243591828066
 30
0.0
 10
511.5980754832654
 20
878.0335679186493
 30
0.0
 10
511.5065810738003
 20
878.0289305755459
 30
0.0
 10
511.5071275988357
 20
878.0261426300121
 30
0.0
  0
LINE
  5
169
330
13C
100
AcDbEntity
  8
DV2_Default
 62
     7
100
AcDbLine
 10
516.7639555026
 20
877.8292818594
 30
0.0
 11
513.2395173658
 21
877.9793811272
 31
0.0
  0
SPLINE
  5
16A
330
13C
100
AcDbEntity
  8
DV2_Default
 62
     7
100
AcDbSpline
210
0.0
220
0.0
230
1.0
 70
     8
 71
     3
 72
    14
 73
    10
 74
     0
 42
0.000000001
 43
0.0000000001
 40
0.0
 40
0.0
 40
0.0
 40
0.0
 40
0.1050760135958323
 40
0.1966556076749471
 40
0.2747168185369074
 40
0.3392413706411483
 40
0.6677690475810489
 40
0.9969681875667712
 40
1.0
 40
1.0
 40
1.0
 40
1.0
 10
518.9050554484508
 20
877.9795103371371
 30
0.0
 10
518.8282285697929
 20
877.9839225937461
 30
0.0
 10
518.6844077801962
 20
877.9921803775637
 30
0.0
 10
518.4400527693992
 20
878.0030318139158
 30
0.0
 10
518.2197833917821
 20
878.0116943001159
 30
0.0
 10
517.7661533373703
 20
878.0271264096751
 30
0.0
 10
517.0410969306173
 20
878.0402354021008
 30
0.0
 10
516.7767688701167
 20
878.0284546448539
 30
0.0
 10
516.7711105796011
 20
878.0183427836865
 30
0.0
 10
516.7710695745369
 20
878.0182501617091
 30
0.0
  0
LINE
  5
16B
330
13C
100
AcDbEntity
  8
DV2_Default
 62
     7
100
AcDbLine
 10
522.4404422537
 20
877.7827620511
 30
0.0
 11
518.9050741355
 21
877.9795103371
 31
0.0
  0
SPLINE
  5
16C
330
13C
100
AcDbEntity
  8
DV2_Default
 62
     7
100
AcDbSpline
210
0.0
220
0.0
230
1.0
 70
     8
 71
     3
 72
     9
 73
     5
 74
     0
 42
0.000000001
 43
0.0000000001
 40
0.0
 40
0.0
 40
0.0
 40
0.0
 40
0.9997548699090597
 40
1.0
 40
1.0
 40
1.0
 40
1.0
 10
522.8066563144246
 20
877.7519509370846
 30
0.0
 10
522.8045575447039
 20
877.7600806656778
 30
0.0
 10
522.6659937030805
 20
877.7716534782653
 30
0.0
 10
522.4404975142702
 20
877.7827593286771
 30
0.0
 10
522.4404430999659
 20
877.7827620510552
 30
0.0
  0
SPLINE
  5
16D
330
13C
100
AcDbEntity
  8
DV2_Default
 62
     7
100
AcDbSpline
210
0.0
220
0.0
230
1.0
 70
     8
 71
     3
 72
    15
 73
    11
 74
     0
 42
0.000000001
 43
0.0000000001
 40
0.0
 40
0.0
 40
0.0
 40
0.0
 40
0.0898274723019712
 40
0.1681321898405289
 40
0.2348954368053133
 40
0.290101637996291
 40
0.5710386305335977
 40
0.852551234780922
 40
0.974976926431924
 40
1.0
 40
1.0
 40
1.0
 40
1.0
 10
527.0454791267673
 20
877.9796301582796
 30
0.0
 10
527.0000794455271
 20
877.9840414872991
 30
0.0
 10
526.9150581503495
 20
877.9922982754415
 30
0.0
 10
526.7314939700991
 20
878.0031481193113
 30
0.0
 10
526.5486619823224
 20
878.0118104221973
 30
0.0
 10
526.1427518794083
 20
878.027239323302
 30
0.0
 10
525.3615107443214
 20
878.0403344856944
 30
0.0
 10
524.7621806833765
 20
878.026050300612
 30
0.0
 10
524.6412659728873
 20
878.0081156171055
 30
0.0
 10
524.6427313102675
 20
878.001402385653
 30
0.0
 10
524.6440352235821
 20
878.0002496541581
 30
0.0
  0
LINE
  5
16E
330
13C
100
AcDbEntity
  8
DV2_Default
 62
     7
100
AcDbLine
 10
528.9588297966
 20
877.7828540115
 30
0.0
 11
527.0455035032
 21
877.9796301583
 31
0.0
  0
SPLINE
  5
16F
330
13C
100
AcDbEntity
  8
DV2_Default
 62
     7
100
AcDbSpline
210
0.0
220
0.0
230
1.0
 70
     8
 71
     3
 72
     9
 73
     5
 74
     0
 42
0.000000001
 43
0.0000000001
 40
0.0
 40
0.0
 40
0.0
 40
0.0
 40
0.9995072346695245
 40
1.0
 40
1.0
 40
1.0
 40
1.0
 10
529.0509362395725
 20
877.7659909466848
 30
0.0
 10
529.0512338042563
 20
877.7712813720926
 30
0.0
 10
529.0203545280418
 20
877.7770272574112
 30
0.0
 10
528.9588600781636
 20
877.7828511417248
 30
0.0
 10
528.9588309131565
 20
877.7828540115331
 30
0.0
  0
ARC
  5
170
330
13C
100
AcDbEntity
  8
DV2_Default
 62
     7
100
AcDbCircle
 10
535.1717416916
 20
865.1077631869
 30
0.0
 40
12.93240511498278
100
AcDbArc
 50
84.4998530448
 51
95.5476269696
  0
SPLINE
  5
171
330
13C
100
AcDbEntity
  8
DV2_Default
 62
     7
100
AcDbSpline
210
0.0
220
0.0
230
1.0
 70
     8
 71
     3
 72
    14
 73
    10
 74
     0
 42
0.000000001
 43
0.0000000001
 40
0.0
 40
0.0
 40
0.0
 40
0.0
 40
0.0232689628985401
 40
0.0901206929660045
 40
0.1453752130462156
 40
0.4267343033823996
 40
0.708668738239101
 40
0.8313246001615983
 40
1.0
 40
1.0
 40
1.0
 40
1.0
 10
545.7012352086756
 20
878.0003755850088
 30
0.0
 10
545.7010772655908
 20
878.0014335624134
 30
0.0
 10
545.6971746767994
 20
878.0054906733301
 30
0.0
 10
545.6722697557088
 20
878.0117714312165
 30
0.0
 10
545.5305920422879
 20
878.02720787749
 30
0.0
 10
544.9843266201044
 20
878.040327371028
 30
0.0
 10
544.1293507022897
 20
878.0260701626993
 30
0.0
 10
543.5610771783288
 20
878.0021501550658
 30
0.0
 10
543.3931676605987
 20
877.9878541108599
 30
0.0
 10
543.295975651667
 20
877.9795769662859
 30
0.0
  0
SPLINE
  5
172
330
13C
100
AcDbEntity
  8
DV2_Default
 62
     7
100
AcDbSpline
210
0.0
220
0.0
230
1.0
 70
     8
 71
     3
 72
     9
 73
     5
 74
     0
 42
0.000000001
 43
0.0000000001
 40
0.0
 40
0.0
 40
0.0
 40
0.0
 40
0.6259269170535174
 40
1.0
 40
1.0
 40
1.0
 40
1.0
 10
541.3826221823563
 20
877.7828042506379
 30
0.0
 10
541.3500544136405
 20
877.7792660525183
 30
0.0
 10
541.298021392215
 20
877.7736133189111
 30
0.0
 10
541.2865477118762
 20
877.7682516164733
 30
0.0
 10
541.2869131611582
 20
877.766291392898
 30
0.0
  0
LINE
  5
173
330
13C
100
AcDbEntity
  8
DV2_Default
 62
     7
100
AcDbLine
 10
543.2959511626
 20
877.9795769663
 30
0.0
 11
541.3826232623
 21
877.7828042506
 31
0.0
  0
SPLINE
  5
174
330
13C
100
AcDbEntity
  8
DV2_Default
 62
     7
100
AcDbSpline
210
0.0
220
0.0
230
1.0
 70
     8
 71
     3
 72
    12
 73
     8
 74
     0
 42
0.000000001
 43
0.0000000001
 40
0.0
 40
0.0
 40
0.0
 40
0.0
 40
0.0004273811629802
 40
0.3295063526464446
 40
0.6592597491349326
 40
0.8026850801346442
 40
1.0
 40
1.0
 40
1.0
 40
1.0
 10
553.5658744472391
 20
878.0182639390774
 30
0.0
 10
553.5658728235929
 20
878.0182769102065
 30
0.0
 10
553.5644510734959
 20
878.0282723036863
 30
0.0
 10
553.2993175969502
 20
878.0402236061645
 30
0.0
 10
552.5066456316779
 20
878.0259510104166
 30
0.0
 10
551.8514686523786
 20
878.0020261442015
 30
0.0
 10
551.5858182231245
 20
877.9877313377443
 30
0.0
 10
551.4320048644504
 20
877.9794535408494
 30
0.0
  0
SPLINE
  5
175
330
13C
100
AcDbEntity
  8
DV2_Default
 62
     7
100
AcDbSpline
210
0.0
220
0.0
230
1.0
 70
     8
 71
     3
 72
    11
 73
     7
 74
     0
 42
0.000000001
 43
0.0000000001
 40
0.0
 40
0.0
 40
0.0
 40
0.0
 40
0.3129659936710853
 40
0.5857857944159293
 40
0.8183921422007997
 40
1.0
 40
1.0
 40
1.0
 40
1.0
 10
547.8966153619656
 20
877.7827076087651
 30
0.0
 10
547.8292197309881
 20
877.7791715415613
 30
0.0
 10
547.703072176304
 20
877.7725530015985
 30
0.0
 10
547.5926363029909
 20
877.7638646707733
 30
0.0
 10
547.5400203265648
 20
877.7570435314627
 30
0.0
 10
547.5300687575727
 20
877.7533976887206
 30
0.0
 10
547.5302946051968
 20
877.7519115544404
 30
0.0
  0
LINE
  5
176
330
13C
100
AcDbEntity
  8
DV2_Default
 62
     7
100
AcDbLine
 10
551.431986109
 20
877.9794535408
 30
0.0
 11
547.8966161861
 21
877.7827076088
 31
0.0
  0
SPLINE
  5
177
330
13C
100
AcDbEntity
  8
DV2_Default
 62
     7
100
AcDbSpline
210
0.0
220
0.0
230
1.0
 70
     8
 71
     3
 72
    11
 73
     7
 74
     0
 42
0.000000001
 43
0.0000000001
 40
0.0
 40
0.0
 40
0.0
 40
0.0
 40
0.1957575867795399
 40
0.5912872959698606
 40
0.7633309907077581
 40
1.0
 40
1.0
 40
1.0
 40
1.0
 10
558.8166469884949
 20
878.0299355923964
 30
0.0
 10
558.8168212906882
 20
878.0326401775488
 30
0.0
 10
558.7269100837486
 20
878.0371218742209
 30
0.0
 10
558.2432508255017
 20
878.02580913754
 30
0.0
 10
557.6009157133407
 20
878.0018897024236
 30
0.0
 10
557.2779706166194
 20
877.9875967654646
 30
0.0
 10
557.0909763055679
 20
877.9793203033029
 30
0.0
  0
LINE
  5
178
330
13C
100
AcDbEntity
  8
DV2_Default
 62
     7
100
AcDbLine
 10
557.0909661625
 20
877.9793203033
 30
0.0
 11
553.5586343901
 21
877.8288876895
 31
0.0
  0
LINE
  5
179
330
13C
100
AcDbEntity
  8
DV2_Default
 62
     7
100
AcDbLine
 10
522.7994894084
 20
877.627841851
 30
0.0
 11
524.6312217116
 21
877.5606909324
 31
0.0
  0
LINE
  5
17A
330
13C
100
AcDbEntity
  8
DV2_Default
 62
     7
100
AcDbLine
 10
505.5507041771
 20
878.2389937409
 30
0.0
 11
511.5072162827
 21
878.0261638799
 31
0.0
  0
LINE
  5
17B
330
13C
100
AcDbEntity
  8
DV2_Default
 62
     7
100
AcDbLine
 10
558.7988866567
 20
878.0412502741
 30
0.0
 11
564.3892067484
 21
878.2198028569
 31
0.0
  0
ARC
  5
17C
330
13C
100
AcDbEntity
  8
DV2_Default
 62
     7
100
AcDbCircle
 10
505.5512249675
 20
878.3389923988
 30
0.0
 40
0.1000000140491853
100
AcDbArc
 50
179.5044013472
 51
269.7016077643
  0
ARC
  5
17D
330
13C
100
AcDbEntity
  8
DV2_Default
 62
     7
100
AcDbCircle
 10
470.8683102411
 20
905.4073229849
 30
0.0
 40
31.35296383629411
100
AcDbArc
 50
345.6922680442
 51
0.677201306
  0
SPLINE
  5
17E
330
13C
100
AcDbEntity
  8
DV2_Default
 62
     7
100
AcDbSpline
210
0.0
220
0.0
230
1.0
 70
     8
 71
     3
 72
     8
 73
     4
 74
     0
 42
0.000000001
 43
0.0000000001
 40
0.0
 40
0.0
 40
0.0
 40
0.0
 40
1.0
 40
1.0
 40
1.0
 40
1.0
 10
501.1945900751238
 20
892.1087494748605
 30
0.0
 10
501.1405549182813
 20
893.6606392484522
 30
0.0
 10
501.0715549263421
 20
895.1915714684413
 30
0.0
 10
500.9883866108063
 20
896.7016156154284
 30
0.0
  0
SPLINE
  5
17F
330
13C
100
AcDbEntity
  8
DV2_Default
 62
     7
100
AcDbSpline
210
0.0
220
0.0
230
1.0
 70
     8
 71
     3
 72
     8
 73
     4
 74
     0
 42
0.000000001
 43
0.0000000001
 40
0.0
 40
0.0
 40
0.0
 40
0.0
 40
1.0
 40
1.0
 40
1.0
 40
1.0
 10
501.1945900751238
 20
892.1087494748605
 30
0.0
 10
501.3405461134515
 20
887.9168918706412
 30
0.0
 10
501.3773095275976
 20
883.5721252589402
 30
0.0
 10
501.2890894545604
 20
879.0730791147754
 30
0.0
  0
SPLINE
  5
180
330
13C
100
AcDbEntity
  8
DV2_Default
 62
     7
100
AcDbSpline
210
0.0
220
0.0
230
1.0
 70
     8
 71
     3
 72
    14
 73
    10
 74
     0
 42
0.000000001
 43
0.0000000001
 40
0.0
 40
0.0
 40
0.0
 40
0.0
 40
0.2499999999999995
 40
0.2499999999999995
 40
0.4999999999999997
 40
0.4999999999999997
 40
0.7499999999999998
 40
0.7499999999999998
 40
1.0
 40
1.0
 40
1.0
 40
1.0
 10
568.7727408270338
 20
879.2438630487183
 30
0.0
 10
561.3149530761477
 20
896.4180237012174
 30
0.0
 10
554.1158237674748
 20
911.4535988851459
 30
0.0
 10
540.5261265213461
 20
937.8806276426591
 30
0.0
 10
534.1330637566525
 20
949.2783857206272
 30
0.0
 10
522.4933306903439
 20
968.7611092617733
 30
0.0
 10
517.247207720425
 20
976.8462540882884
 30
0.0
 10
508.3828955096891
 20
989.7480190961959
 30
0.0
 10
504.76576094076
 20
994.5570857800404
 30
0.0
 10
502.3097932658825
 20
997.6648872839102
 30
0.0
  0
ARC
  5
181
330
13C
100
AcDbEntity
  8
DV2_Default
 62
     7
100
AcDbCircle
 10
372.0120939767
 20
909.7044277117
 30
0.0
 40
125.2129357839339
100
AcDbArc
 50
23.528400599
 51
33.5157276494
  0
ARC
  5
182
330
13C
100
AcDbEntity
  8
DV2_Default
 62
     7
100
AcDbCircle
 10
476.9131252915
 20
946.9357469054
 30
0.0
 40
16.1467443622376
100
AcDbArc
 50
348.7929605814
 51
52.1751324358
  0
ARC
  5
183
330
13C
100
AcDbEntity
  8
DV2_Default
 62
     7
100
AcDbCircle
 10
332.6777711878
 20
893.6241942046
 30
0.0
 40
167.7531377863218
100
AcDbArc
 50
16.0040405756
 51
17.4029790696
  0
ARC
  5
184
330
13C
100
AcDbEntity
  8
DV2_Default
 62
     7
100
AcDbCircle
 10
482.7162212732
 20
928.0109511786
 30
0.0
 40
16.32410628757474
100
AcDbArc
 50
16.4002121818
 51
46.6151431924
  0
SPLINE
  5
185
330
13C
100
AcDbEntity
  8
DV2_Default
 62
     7
100
AcDbSpline
210
0.0
220
0.0
230
1.0
 70
     8
 71
     3
 72
    12
 73
     8
 74
     0
 42
0.000000001
 43
0.0000000001
 40
0.0
 40
0.0
 40
0.0
 40
0.0
 40
0.2216510999614371
 40
0.4578689308046502
 40
0.7071562325186499
 40
0.9671891161711337
 40
1.0
 40
1.0
 40
1.0
 40
1.0
 10
502.2190841290972
 20
905.7778873421239
 30
0.0
 10
502.2111141686904
 20
905.779357309456
 30
0.0
 10
502.1946511819042
 20
905.782393905532
 30
0.0
 10
502.1827697566209
 20
905.787861540634
 30
0.0
 10
502.1819154321312
 20
905.7939633703965
 30
0.0
 10
502.1909684385646
 20
905.7984398994308
 30
0.0
 10
502.1987292065191
 20
905.8008275955633
 30
0.0
 10
502.1996345324442
 20
905.8010943589635
 30
0.0
  0
ARC
  5
186
330
13C
100
AcDbEntity
  8
DV2_Default
 62
     7
100
AcDbCircle
 10
501.4883635343
 20
896.7292858954
 30
0.0
 40
0.500742017878013
100
AcDbArc
 50
145.2371535031
 51
183.1676954386
  0
ARC
  5
187
330
13C
100
AcDbEntity
  8
DV2_Default
 62
     7
100
AcDbCircle
 10
470.7727026374
 20
905.4195379452
 30
0.0
 40
31.44820706701121
100
AcDbArc
 50
344.4989210073
 51
345.719058288
  0
ARC
  5
188
330
13C
100
AcDbEntity
  8
DV2_Default
 62
     7
100
AcDbCircle
 10
482.5260916961
 20
927.8951330734
 30
0.0
 40
16.53898085640043
100
AcDbArc
 50
45.7470405334
 51
46.4120561124
  0
ARC
  5
189
330
13C
100
AcDbEntity
  8
DV2_Default
 62
     7
100
AcDbCircle
 10
476.8833836477
 20
946.9246363984
 30
0.0
 40
16.17376808999743
100
AcDbArc
 50
50.7837594001
 51
52.1160465817
  0
SPLINE
  5
18A
330
13C
100
AcDbEntity
  8
DV2_Default
 62
     7
100
AcDbSpline
210
0.0
220
0.0
230
1.0
 70
     8
 71
     3
 72
     8
 73
     4
 74
     0
 42
0.000000001
 43
0.0000000001
 40
0.0
 40
0.0
 40
0.0
 40
0.0
 40
1.0
 40
1.0
 40
1.0
 40
1.0
 10
501.2955430035746
 20
878.9824466013764
 30
0.0
 10
501.2905044794539
 20
879.0132843490978
 30
0.0
 10
501.2884620798551
 20
879.0437727796501
 30
0.0
 10
501.2890894545604
 20
879.0730791147754
 30
0.0
  0
ARC
  5
18B
330
13C
100
AcDbEntity
  8
DV2_Default
 62
     7
100
AcDbCircle
 10
568.3135034573
 20
879.0461316696
 30
0.0
 40
0.4999966599977374
100
AcDbArc
 50
273.5380410729
 51
23.2950030247
  0
ARC
  5
18C
330
13C
100
AcDbEntity
  8
DV2_Default
 62
     7
100
AcDbCircle
 10
501.7890606285
 20
879.0633716208
 30
0.0
 40
0.5001084931360307
100
AcDbArc
 50
189.3122568123
 51
266.6059975218
  0
ARC
  5
18D
330
13C
100
AcDbEntity
  8
DV2_Default
 62
     7
100
AcDbCircle
 10
532.4091016474
 20
1480.2684227007
 30
0.0
 40
602.7933771034708
100
AcDbArc
 50
273.1574626518
 51
273.2830937848
  0
LINE
  5
18E
330
13C
100
AcDbEntity
  8
DV2_Default
 62
     7
100
AcDbLine
 10
566.9307436905
 20
878.4643750052
 30
0.0
 11
568.3443563089
 21
878.5471307983
 31
0.0
  0
ARC
  5
18F
330
13C
100
AcDbEntity
  8
DV2_Default
 62
     7
100
AcDbCircle
 10
537.9840351777
 20
1480.2681016452
 30
0.0
 40
602.7933811982807
100
AcDbArc
 50
266.5547616512
 51
266.6992826191
  0
LINE
  5
190
330
13C
100
AcDbEntity
  8
DV2_Default
 62
     7
100
AcDbLine
 10
503.2772857973
 20
878.4746969103
 30
0.0
 11
504.2830333682
 21
878.4175363933
 31
0.0
  0
SPLINE
  5
191
330
13C
100
AcDbEntity
  8
DV2_Default
 62
     7
100
AcDbSpline
210
0.0
220
0.0
230
1.0
 70
     8
 71
     3
 72
    33
 73
    29
 74
     0
 42
0.000000001
 43
0.0000000001
 40
0.0
 40
0.0
 40
0.0
 40
0.0
 40
0.0069589799573813
 40
0.0380445528082745
 40
0.068185930500622
 40
0.1041636089301356
 40
0.1418998577342058
 40
0.1796509957867795
 40
0.2362388047275105
 40
0.2793373158043765
 40
0.322406611463929
 40
0.3547458478606615
 40
0.3870690783328913
 40
0.4434050225764024
 40
0.4998371163808873
 40
0.5657482792496277
 40
0.6316760634893355
 40
0.6975933050594799
 40
0.7140532776159734
 40
0.7305105377013229
 40
0.7634045319299234
 40
0.8291262698644396
 40
0.8620797560656924
 40
0.8950993173527152
 40
0.928145478401069
 40
0.9611685697221803
 40
0.9853699855992127
 40
1.0
 40
1.0
 40
1.0
 40
1.0
 10
565.5303587003438
 20
878.3906181224643
 30
0.0
 10
565.5130351871619
 20
878.3906566746483
 30
0.0
 10
565.4059039845654
 20
878.3908700004858
 30
0.0
 10
565.1019051602472
 20
878.3913151277078
 30
0.0
 10
564.4011950868947
 20
878.392119354067
 30
0.0
 10
563.353653245994
 20
878.3930945103549
 30
0.0
 10
561.8835523788251
 20
878.3942950150349
 30
0.0
 10
559.745059273834
 20
878.3957799577521
 30
0.0
 10
557.0353071653304
 20
878.3975689605472
 30
0.0
 10
553.764791488852
 20
878.399492399345
 30
0.0
 10
550.765125496443
 20
878.4011557537576
 30
0.0
 10
547.8529986328614
 20
878.40271690795
 30
0.0
 10
544.4338968867871
 20
878.4045094827649
 30
0.0
 10
540.1341936197123
 20
878.4065987049675
 30
0.0
 10
534.6884121149809
 20
878.4091778071569
 30
0.0
 10
528.9441498781047
 20
878.4116250437
 30
0.0
 10
523.1452308611937
 20
878.4138955421255
 30
0.0
 10
519.1333668328165
 20
878.4153214882726
 30
0.0
 10
516.672778192041
 20
878.4161186802706
 30
0.0
 10
515.092616400154
 20
878.4165901328284
 30
0.0
 10
512.4919442748848
 20
878.4174238973493
 30
0.0
 10
509.9305239249462
 20
878.4180403027027
 30
0.0
 10
507.8653009956636
 20
878.4183648805943
 30
0.0
 10
506.5735519276828
 20
878.4184711651486
 30
0.0
 10
505.5538482420735
 20
878.4184717276584
 30
0.0
 10
504.8902722857915
 20
878.4183066929452
 30
0.0
 10
504.5308527288884
 20
878.4181218500385
 30
0.0
 10
504.4271435824425
 20
878.4179798261657
 30
0.0
 10
504.3964208292601
 20
878.4179215148888
 30
0.0
  0
SPLINE
  5
192
330
13C
100
AcDbEntity
  8
DV2_Default
 62
     7
100
AcDbSpline
210
0.0
220
0.0
230
1.0
 70
     8
 71
     3
 72
     8
 73
     4
 74
     0
 42
0.000000001
 43
0.0000000001
 40
0.0
 40
0.0
 40
0.0
 40
0.0
 40
0.9999999999999999
 40
0.9999999999999999
 40
0.9999999999999999
 40
0.9999999999999999
 10
504.3965512728104
 20
878.4183116541873
 30
0.0
 10
504.3524751958954
 20
878.4181029402752
 30
0.0
 10
504.3156981214852
 20
878.4179208497002
 30
0.0
 10
504.2833511304638
 20
878.4177545236718
 30
0.0
  0
SPLINE
  5
193
330
13C
100
AcDbEntity
  8
DV2_Default
 62
     7
100
AcDbSpline
210
0.0
220
0.0
230
1.0
 70
     8
 71
     3
 72
     9
 73
     5
 74
     0
 42
0.000000001
 43
0.0000000001
 40
0.0
 40
0.0
 40
0.0
 40
0.0
 40
0.3268658386418304
 40
1.0
 40
1.0
 40
1.0
 40
1.0
 10
504.6655961939585
 20
878.4181837286244
 30
0.0
 10
504.7273526909875
 20
878.4182141533712
 30
0.0
 10
504.9387229478224
 20
878.4182970461484
 30
0.0
 10
505.220043478253
 20
878.4183641460885
 30
0.0
 10
505.4401971611319
 20
878.4183953576796
 30
0.0
  0
SPLINE
  5
194
330
13C
100
AcDbEntity
  8
DV2_Default
 62
     7
100
AcDbSpline
210
0.0
220
0.0
230
1.0
 70
     8
 71
     3
 72
     8
 73
     4
 74
     0
 42
0.000000001
 43
0.0000000001
 40
0.0
 40
0.0
 40
0.0
 40
0.0
 40
1.0
 40
1.0
 40
1.0
 40
1.0
 10
565.2264964916877
 20
878.3911174954943
 30
0.0
 10
565.2851344501286
 20
878.3910380125968
 30
0.0
 10
565.3373155738445
 20
878.3909622651827
 30
0.0
 10
565.3825238005614
 20
878.3908887890163
 30
0.0
  0
SPLINE
  5
195
330
13C
100
AcDbEntity
  8
DV2_Default
 62
     7
100
AcDbSpline
210
0.0
220
0.0
230
1.0
 70
     8
 71
     3
 72
     9
 73
     5
 74
     0
 42
0.000000001
 43
0.0000000001
 40
0.0
 40
0.0
 40
0.0
 40
0.0
 40
0.0830557806489372
 40
1.0
 40
1.0
 40
1.0
 40
1.0
 10
565.5304387763335
 20
878.3905882270019
 30
0.0
 10
565.5346591687321
 20
878.3905762094666
 30
0.0
 10
565.5827398959769
 20
878.3904315924844
 30
0.0
 10
565.5975335245421
 20
878.3902868080243
 30
0.0
 10
565.6110990550671
 20
878.3901406409243
 30
0.0
  0
SPLINE
  5
196
330
13C
100
AcDbEntity
  8
DV2_Default
 62
     7
100
AcDbSpline
210
0.0
220
0.0
230
1.0
 70
     8
 71
     3
 72
    22
 73
    18
 74
     0
 42
0.000000001
 43
0.0000000001
 40
0.0
 40
0.0
 40
0.0
 40
0.0
 40
0.125
 40
0.125
 40
0.25
 40
0.25
 40
0.375
 40
0.375
 40
0.5
 40
0.5
 40
0.625
 40
0.625
 40
0.75
 40
0.75
 40
0.875
 40
0.875
 40
1.0
 40
1.0
 40
1.0
 40
1.0
 10
502.0362212108734
 20
997.7025586174926
 30
0.0
 10
502.0358612871169
 20
997.7028143959338
 30
0.0
 10
501.7028892899763
 20
997.4607318414236
 30
0.0
 10
500.4212915585967
 20
996.5292349049663
 30
0.0
 10
499.4731701462513
 20
995.840187076648
 30
0.0
 10
497.105198605372
 20
994.1193572661267
 30
0.0
 10
495.6862802980035
 20
993.0882524481596
 30
0.0
 10
492.5924612000579
 20
990.8400879810155
 30
0.0
 10
490.9187778591278
 20
989.6239130076879
 30
0.0
 10
487.5701485395876
 20
987.1906993785739
 30
0.0
 10
485.8965202810682
 20
985.9746182173858
 30
0.0
 10
482.8029132098426
 20
983.7268148578995
 30
0.0
 10
481.3841517633489
 20
982.6959771933508
 30
0.0
 10
479.0165719946103
 20
980.9758146191095
 30
0.0
 10
478.0686853393644
 20
980.2871666110889
 30
0.0
 10
476.7875994778097
 20
979.3565414520821
 30
0.0
 10
476.4549043919686
 20
979.1149305116716
 30
0.0
 10
476.4549122485111
 20
979.1155324091475
 30
0.0
  0
ARC
  5
197
330
13C
100
AcDbEntity
  8
DV2_Default
 62
     7
100
AcDbCircle
 10
476.5725996778
 20
978.9536215888
 30
0.0
 40
0.1997905413391
100
AcDbArc
 50
126.0118906287
 51
213.7109488255
  0
ARC
  5
198
330
13C
100
AcDbEntity
  8
DV2_Default
 62
     7
100
AcDbCircle
 10
502.1529492302
 20
997.5410651768
 30
0.0
 40
0.1997905412041022
100
AcDbArc
 50
38.2896835811
 51
125.8595494748
  0
ARC
  5
199
330
13C
100
AcDbEntity
  8
DV2_Default
 62
     7
100
AcDbCircle
 10
414.2413636107
 20
916.2557796299
 30
0.0
 40
83.57764252123225
100
AcDbArc
 50
15.9277581777
 51
20.060057519
  0
ARC
  5
19A
330
13C
100
AcDbEntity
  8
DV2_Default
 62
     7
100
AcDbCircle
 10
297.5589632732
 20
890.3029639513
 30
0.0
 40
205.2273038390764
100
AcDbArc
 50
4.278594782
 51
11.8995087827
  0
LINE
  5
19B
330
13C
100
AcDbEntity
  8
DV2_Default
 62
     7
100
AcDbLine
 10
541.374778853
 20
876.9673191816
 30
0.0
 11
536.3073439386
 21
876.9673191816
 31
0.0
  0
LINE
  5
19C
330
13C
100
AcDbEntity
  8
DV2_Default
 62
     7
100
AcDbLine
 10
515.8945401316
 20
876.7730292599
 30
0.0
 11
515.9063662713
 21
876.7726327966
 31
0.0
  0
LINE
  5
19D
330
13C
100
AcDbEntity
  8
DV2_Default
 62
     7
100
AcDbLine
 10
510.9095269356
 20
876.9613198129
 30
0.0
 11
511.9109618739
 21
876.9199190209
 31
0.0
  0
SPLINE
  5
19E
330
13C
100
AcDbEntity
  8
DV2_Default
 62
     7
100
AcDbSpline
210
0.0
220
0.0
230
1.0
 70
     8
 71
     3
 72
    10
 73
     6
 74
     0
 42
0.000000001
 43
0.0000000001
 40
0.0
 40
0.0
 40
0.0
 40
0.0
 40
0.5
 40
0.5
 40
1.0
 40
1.0
 40
1.0
 40
1.0
 10
515.9063686719754
 20
876.7727044455524
 30
0.0
 10
516.1007545320631
 20
876.766114503869
 30
0.0
 10
516.2927135211046
 20
876.7594208006107
 30
0.0
 10
516.5654262853585
 20
876.7499100743147
 30
0.0
 10
516.6445673775906
 20
876.7471492928194
 30
0.0
 10
516.6445623912974
 20
876.7471481263796
 30
0.0
  0
LINE
  5
19F
330
13C
100
AcDbEntity
  8
DV2_Default
 62
     7
100
AcDbLine
 10
554.4303603208
 20
876.7726373566
 30
0.0
 11
554.4112860088
 21
876.7719859777
 31
0.0
  0
LINE
  5
1A0
330
13C
100
AcDbEntity
  8
DV2_Default
 62
     7
100
AcDbLine
 10
555.4128430373
 20
876.8064001915
 30
0.0
 11
554.4303603208
 21
876.7726373566
 31
0.0
  0
ARC
  5
1A1
330
13C
100
AcDbEntity
  8
DV2_Default
 62
     7
100
AcDbCircle
 10
535.1610409448
 20
1451.4496257868
 30
0.0
 40
574.9994762685495
100
AcDbArc
 50
271.9202190893
 51
272.4191928871
  0
LINE
  5
1A2
330
13C
100
AcDbEntity
  8
DV2_Default
 62
     7
100
AcDbLine
 10
554.4162239392
 20
876.7726328057
 30
0.0
 11
554.4280500923
 21
876.773029271
 31
0.0
  0
LINE
  5
1A3
330
13C
100
AcDbEntity
  8
DV2_Default
 62
     7
100
AcDbLine
 10
558.411628018
 20
876.9199190209
 30
0.0
 11
559.4130629563
 21
876.9613198129
 31
0.0
  0
SPLINE
  5
1A4
330
13C
100
AcDbEntity
  8
DV2_Default
 62
     7
100
AcDbSpline
210
0.0
220
0.0
230
1.0
 70
     8
 71
     3
 72
    10
 73
     6
 74
     0
 42
0.000000001
 43
0.0000000001
 40
0.0
 40
0.0
 40
0.0
 40
0.0
 40
0.5
 40
0.5
 40
1.0
 40
1.0
 40
1.0
 40
1.0
 10
553.6780274910075
 20
876.747148116918
 30
0.0
 10
553.6780278794469
 20
876.7471467842512
 30
0.0
 10
553.7571689196549
 20
876.7499048995322
 30
0.0
 10
554.0298801249533
 20
876.7594117498419
 30
0.0
 10
554.2218376290926
 20
876.7661042666955
 30
0.0
 10
554.4162238918556
 20
876.7726418308567
 30
0.0
  0
LINE
  5
1A5
330
13C
100
AcDbEntity
  8
DV2_Default
 62
     7
100
AcDbLine
 10
554.4112860088
 20
876.7719859777
 30
0.0
 11
554.4140398527
 21
876.7720800201
 31
0.0
  0
SPLINE
  5
1A6
330
13C
100
AcDbEntity
  8
DV2_Default
 62
     7
100
AcDbSpline
210
0.0
220
0.0
230
1.0
 70
     8
 71
     3
 72
    10
 73
     6
 74
     0
 42
0.000000001
 43
0.0000000001
 40
0.0
 40
0.0
 40
0.0
 40
0.0
 40
0.5
 40
0.5
 40
1.0
 40
1.0
 40
1.0
 40
1.0
 10
559.4319623898454
 20
876.962619770683
 30
0.0
 10
559.6283793335983
 20
876.97085830249
 30
0.0
 10
559.8236395034114
 20
876.9788673766258
 30
0.0
 10
560.10150656139
 20
876.9902638939535
 30
0.0
 10
560.1823998928126
 20
876.9935810568494
 30
0.0
 10
560.1823956927174
 20
876.9935798159473
 30
0.0
  0
ARC
  5
1A7
330
13C
100
AcDbEntity
  8
DV2_Default
 62
     7
100
AcDbCircle
 10
552.9393126439
 20
877.3458548901
 30
0.0
 40
0.5739074999153091
100
AcDbArc
 50
267.1902084341
 51
270.6644182355
  0
SPLINE
  5
1A8
330
13C
100
AcDbEntity
  8
DV2_Default
 62
     7
100
AcDbSpline
210
0.0
220
0.0
230
1.0
 70
     8
 71
     3
 72
    26
 73
    22
 74
     0
 42
0.000000001
 43
0.0000000001
 40
0.0
 40
0.0
 40
0.0
 40
0.0
 40
0.1428334985133586
 40
0.1428334985133586
 40
0.1428334985133586
 40
0.2856660679116119
 40
0.2856660679116119
 40
0.2856660679116119
 40
0.4285138318857796
 40
0.4285138318857796
 40
0.4285138318857796
 40
0.5713810907608461
 40
0.5713810907608461
 40
0.5713810907608461
 40
0.7142597986688376
 40
0.7142597986688376
 40
0.7142597986688376
 40
0.8571368886240341
 40
0.8571368886240341
 40
0.8571368886240341
 40
1.0
 40
1.0
 40
1.0
 40
1.0
 10
553.0160021266049
 20
876.772637377586
 30
0.0
 10
553.0507994628506
 20
876.7731616082372
 30
0.0
 10
553.0936591210387
 20
876.7740131475656
 30
0.0
 10
553.1410355110163
 20
876.7751232878527
 30
0.0
 10
553.1884118151124
 20
876.7762334261272
 30
0.0
 10
553.2416100701323
 20
876.777630589443
 30
0.0
 10
553.296225351696
 20
876.7791990723349
 30
0.0
 10
553.3508464181664
 20
876.7807677213622
 30
0.0
 10
553.4083910464649
 20
876.7825509821926
 30
0.0
 10
553.4640951575919
 20
876.7844012073193
 30
0.0
 10
553.5198067365462
 20
876.7862516804917
 30
0.0
 10
553.5752137453935
 20
876.7882201689794
 30
0.0
 10
553.6257286839178
 20
876.7901436852857
 30
0.0
 10
553.676247541458
 20
876.792067350821
 30
0.0
 10
553.7232669535485
 20
876.7939990955731
 30
0.0
 10
553.7628927754981
 20
876.7957789412152
 30
0.0
 10
553.8025180860635
 20
876.7975587638879
 30
0.0
 10
553.8358429917226
 20
876.7992357866302
 30
0.0
 10
553.8601063291917
 20
876.8006710841132
 30
0.0
 10
553.8843672949446
 20
876.8021062412973
 30
0.0
 10
553.9002376436877
 20
876.8033393090859
 30
0.0
 10
553.9064015497132
 20
876.8042681124624
 30
0.0
  0
SPLINE
  5
1A9
330
13C
100
AcDbEntity
  8
DV2_Default
 62
     7
100
AcDbSpline
210
0.0
220
0.0
230
1.0
 70
     8
 71
     3
 72
    38
 73
    34
 74
     0
 42
0.000000001
 43
0.0000000001
 40
0.0
 40
0.0
 40
0.0
 40
0.0
 40
0.070235626798201
 40
0.070235626798201
 40
0.070235626798201
 40
0.1208832900670449
 40
0.1208832900670449
 40
0.1208832900670449
 40
0.2244559839815356
 40
0.2244559839815356
 40
0.2244559839815356
 40
0.3280282587723996
 40
0.3280282587723996
 40
0.3280282587723996
 40
0.4316077951926114
 40
0.4316077951926114
 40
0.4316077951926114
 40
0.5352016641804935
 40
0.5352016641804935
 40
0.5352016641804935
 40
0.6388090335093993
 40
0.6388090335093993
 40
0.6388090335093993
 40
0.7424231542915007
 40
0.7424231542915007
 40
0.7424231542915007
 40
0.8460343161000208
 40
0.8460343161000208
 40
0.8460343161000208
 40
0.9496341043408331
 40
0.9496341043408331
 40
0.9496341043408331
 40
1.0
 40
1.0
 40
1.0
 40
1.0
 10
553.9093988388557
 20
876.8050766953124
 30
0.0
 10
553.9094346001501
 20
876.8055809547126
 30
0.0
 10
553.9051286390438
 20
876.805949176748
 30
0.0
 10
553.8965677318857
 20
876.8061645678396
 30
0.0
 10
553.8903270662402
 20
876.8063215820159
 30
0.0
 10
553.8818095471394
 20
876.8064006653821
 30
0.0
 10
553.8711902517003
 20
876.806400191205
 30
0.0
 10
553.8497082952196
 20
876.8063992319837
 30
0.0
 10
553.8189935594713
 20
876.8060657382732
 30
0.0
 10
553.7815899883153
 20
876.8054273427466
 30
0.0
 10
553.7441865014187
 20
876.8047889486579
 30
0.0
 10
553.699062752581
 20
876.8038280515367
 30
0.0
 10
553.649955602148
 20
876.8026242463635
 30
0.0
 10
553.6008449770649
 20
876.8014203560133
 30
0.0
 10
553.546396165564
 20
876.799940327944
 30
0.0
 10
553.4911172793063
 20
876.7983067209224
 30
0.0
 10
553.4358308261145
 20
876.796672890282
 30
0.0
 10
553.37818948094
 20
876.7948403848371
 30
0.0
 10
553.3229653301859
 20
876.7929609293298
 30
0.0
 10
553.2677341220173
 20
876.791081233636
 30
0.0
 10
553.2133975024193
 20
876.7891027357153
 30
0.0
 10
553.1644545167312
 20
876.7871892562468
 30
0.0
 10
553.1155084619656
 20
876.7852756567895
 30
0.0
 10
553.0706066917204
 20
876.7833743021141
 30
0.0
 10
553.0334682237291
 20
876.7816426605735
 30
0.0
 10
552.9963308650626
 20
876.7799110707572
 30
0.0
 10
552.9659319728471
 20
876.7783014186386
 30
0.0
 10
552.9447905060972
 20
876.7769470536119
 30
0.0
 10
552.923651351457
 20
876.7755928367037
 30
0.0
 10
552.9111845356211
 20
876.7744564952202
 30
0.0
 10
552.9084239337009
 20
876.7736321902529
 30
0.0
 10
552.907067158813
 20
876.7732270625627
 30
0.0
 10
552.9079921446454
 20
876.7728916650575
 30
0.0
 10
552.9111794341512
 20
876.7726373563482
 30
0.0
  0
LINE
  5
1AA
330
13C
100
AcDbEntity
  8
DV2_Default
 62
     7
100
AcDbLine
 10
553.2487103547
 20
876.773028992
 30
0.0
 11
553.2377624394
 21
876.7726327967
 31
0.0
  0
ARC
  5
1AB
330
13C
100
AcDbEntity
  8
DV2_Default
 62
     7
100
AcDbCircle
 10
535.542714908
 20
1364.7703803672
 30
0.0
 40
488.3184545760612
100
AcDbArc
 50
272.0779497834
 51
272.6208391215
  0
ARC
  5
1AC
330
13C
100
AcDbEntity
  8
DV2_Default
 62
     7
100
AcDbCircle
 10
534.965483963
 20
1364.8472624333
 30
0.0
 40
488.3953840889863
100
AcDbArc
 50
272.0779399094
 51
272.6207442134
  0
SPLINE
  5
1AD
330
13C
100
AcDbEntity
  8
DV2_Default
 62
     7
100
AcDbSpline
210
0.0
220
0.0
230
1.0
 70
     8
 71
     3
 72
    62
 73
    58
 74
     0
 42
0.000000001
 43
0.0000000001
 40
0.0
 40
0.0
 40
0.0
 40
0.0
 40
0.0572553151403223
 40
0.0572553151403223
 40
0.0572553151403223
 40
0.1145101689238923
 40
0.1145101689238923
 40
0.1145101689238923
 40
0.1717730429849561
 40
0.1717730429849561
 40
0.1717730429849561
 40
0.2290517082217774
 40
0.2290517082217774
 40
0.2290517082217774
 40
0.2863452587406071
 40
0.2863452587406071
 40
0.2863452587406071
 40
0.3436462651283415
 40
0.3436462651283415
 40
0.3436462651283415
 40
0.4009440239345823
 40
0.4009440239345823
 40
0.4009440239345823
 40
0.458229252101544
 40
0.458229252101544
 40
0.458229252101544
 40
0.5154981631819889
 40
0.5154981631819889
 40
0.5154981631819889
 40
0.5332603882747428
 40
0.5332603882747428
 40
0.5332603882747428
 40
0.5905157444237846
 40
0.5905157444237846
 40
0.5905157444237846
 40
0.6477706387521531
 40
0.6477706387521531
 40
0.6477706387521531
 40
0.7050335296943984
 40
0.7050335296943984
 40
0.7050335296943984
 40
0.7623122155516581
 40
0.7623122155516581
 40
0.7623122155516581
 40
0.8196057827551564
 40
0.8196057827551564
 40
0.8196057827551564
 40
0.8769067958386635
 40
0.8769067958386635
 40
0.8769067958386635
 40
0.9342045501763585
 40
0.9342045501763585
 40
0.9342045501763585
 40
0.9914897670668171
 40
0.9914897670668171
 40
0.9914897670668171
 40
0.9999999999999999
 40
0.9999999999999999
 40
0.9999999999999999
 40
0.9999999999999999
 10
556.6418385474585
 20
876.9199190206057
 30
0.0
 10
556.6633022216902
 20
876.9199194646249
 30
0.0
 10
556.6939965311195
 20
876.9203197464569
 30
0.0
 10
556.731378786977
 20
876.9210866822259
 30
0.0
 10
556.7687608751621
 20
876.9218536145547
 30
0.0
 10
556.8138615392381
 20
876.9230083383779
 30
0.0
 10
556.8629456907506
 20
876.9244551805488
 30
0.0
 10
556.9120367805593
 20
876.9259022272381
 30
0.0
 10
556.9664658580617
 20
876.9276813637
 30
0.0
 10
557.0217272561125
 20
876.9296452710255
 30
0.0
 10
557.0770037299424
 20
876.9316097141216
 30
0.0
 10
557.1346370162717
 20
876.9338131886844
 30
0.0
 10
557.1898569059817
 20
876.9360732894736
 30
0.0
 10
557.245090868257
 20
876.9383339662403
 30
0.0
 10
557.2994333824521
 20
876.9407136404536
 30
0.0
 10
557.3483855077927
 20
876.9430152978468
 30
0.0
 10
557.3973437636755
 20
876.9453172434892
 30
0.0
 10
557.442260675613
 20
876.9476046489284
 30
0.0
 10
557.4794152969754
 20
876.949688051324
 30
0.0
 10
557.5165677151733
 20
876.9517713301798
 30
0.0
 10
557.5469836281205
 20
876.9537081035771
 30
0.0
 10
557.5681410645742
 20
876.9553378536449
 30
0.0
 10
557.5892938911481
 20
876.9569672486151
 30
0.0
 10
557.6017757322618
 20
876.9583347061698
 30
0.0
 10
557.6045499837946
 20
876.9593268374599
 30
0.0
 10
557.6073234558905
 20
876.9603186900068
 30
0.0
 10
557.6004712099369
 20
876.9609627879577
 30
0.0
 10
557.5845595839714
 20
876.9612057146962
 30
0.0
 10
557.579560400009
 20
876.9612820384773
 30
0.0
 10
557.5736611595893
 20
876.9613201772005
 30
0.0
 10
557.5669110199248
 20
876.9613198126402
 30
0.0
 10
557.545431333068
 20
876.9613186525695
 30
0.0
 10
557.5147219250762
 20
876.960917634412
 30
0.0
 10
557.4773267390626
 20
876.9601500046507
 30
0.0
 10
557.4399317209628
 20
876.9593823783364
 30
0.0
 10
557.3948199379711
 20
876.958226983852
 30
0.0
 10
557.3457274019305
 20
876.9567795538723
 30
0.0
 10
557.2966279460766
 20
876.9553319198709
 30
0.0
 10
557.2421930100226
 20
876.9535522632295
 30
0.0
 10
557.1869287443108
 20
876.9515879504407
 30
0.0
 10
557.1316493986125
 20
876.949623101649
 30
0.0
 10
557.0740161534115
 20
876.947419325149
 30
0.0
 10
557.0187992144365
 20
876.9451590543972
 30
0.0
 10
556.9635682075251
 20
876.9428982077832
 30
0.0
 10
556.9092316405934
 20
876.9405184911662
 30
0.0
 10
556.8602879641261
 20
876.938216922869
 30
0.0
 10
556.8113381666471
 20
876.9359150667322
 30
0.0
 10
556.7664324465526
 20
876.9336278847076
 30
0.0
 10
556.7292908263524
 20
876.9315448187523
 30
0.0
 10
556.6921514156575
 20
876.9294618767158
 30
0.0
 10
556.6617506751429
 20
876.9275255621848
 30
0.0
 10
556.6406093205848
 20
876.9258963507176
 30
0.0
 10
556.6194725748365
 20
876.9242674944182
 30
0.0
 10
556.6070081651557
 20
876.922900669805
 30
0.0
 10
556.6042512508935
 20
876.9219092089376
 30
0.0
 10
556.6038416849522
 20
876.9217619179575
 30
0.0
 10
556.6036446859288
 20
876.9216223074466
 30
0.0
 10
556.6036583905841
 20
876.9214905524841
 30
0.0
  0
SPLINE
  5
1AE
330
13C
100
AcDbEntity
  8
DV2_Default
 62
     7
100
AcDbSpline
210
0.0
220
0.0
230
1.0
 70
     8
 71
     3
 72
     8
 73
     4
 74
     0
 42
0.000000001
 43
0.0000000001
 40
0.0
 40
0.0
 40
0.0
 40
0.0
 40
1.0
 40
1.0
 40
1.0
 40
1.0
 10
556.6242933313899
 20
876.9200324471129
 30
0.0
 10
556.6292684336927
 20
876.919956794936
 30
0.0
 10
556.635132938458
 20
876.9199188818866
 30
0.0
 10
556.6418385474585
 20
876.9199190206057
 30
0.0
  0
SPLINE
  5
1AF
330
13C
100
AcDbEntity
  8
DV2_Default
 62
     7
100
AcDbSpline
210
0.0
220
0.0
230
1.0
 70
     8
 71
     3
 72
    14
 73
    10
 74
     0
 42
0.000000001
 43
0.0000000001
 40
0.0
 40
0.0
 40
0.0
 40
0.0
 40
0.25
 40
0.25
 40
0.5
 40
0.5
 40
0.75
 40
0.75
 40
1.0
 40
1.0
 40
1.0
 40
1.0
 10
553.2377602639478
 20
876.7727019582102
 30
0.0
 10
553.056983221536
 20
876.766104560047
 30
0.0
 10
552.8481483487992
 20
876.7594119279249
 30
0.0
 10
552.4900792208964
 20
876.7499048692785
 30
0.0
 10
552.342962393702
 20
876.7471466623783
 30
0.0
 10
552.1940820319311
 20
876.747149223089
 30
0.0
 10
552.1931988956295
 20
876.749909975557
 30
0.0
 10
552.3390360603305
 20
876.7594206845483
 30
0.0
 10
552.484893958887
 20
876.766114399861
 30
0.0
 10
552.6633029648211
 20
876.7726418306144
 30
0.0
  0
ARC
  5
1B0
330
13C
100
AcDbEntity
  8
DV2_Default
 62
     7
100
AcDbCircle
 10
552.9349361416
 20
881.723185188
 30
0.0
 40
4.951211499902737
100
AcDbArc
 50
270.127657987
 51
270.9381433916
  0
SPLINE
  5
1B1
330
13C
100
AcDbEntity
  8
DV2_Default
 62
     7
100
AcDbSpline
210
0.0
220
0.0
230
1.0
 70
     8
 71
     3
 72
    10
 73
     6
 74
     0
 42
0.000000001
 43
0.0000000001
 40
0.0
 40
0.0
 40
0.0
 40
0.0
 40
0.7656625549745624
 40
0.7656625549745624
 40
1.0
 40
1.0
 40
1.0
 40
1.0
 10
557.2972003926384
 20
876.9627006354212
 30
0.0
 10
557.4786282456758
 20
876.9708503228115
 30
0.0
 10
557.6899647029661
 20
876.9788602017713
 30
0.0
 10
557.9270662889364
 20
876.9863043365435
 30
0.0
 10
557.9796272262616
 20
876.9878257921168
 30
0.0
 10
558.0279764479357
 20
876.9890973805589
 30
0.0
  0
SPLINE
  5
1B2
330
13C
100
AcDbEntity
  8
DV2_Default
 62
     7
100
AcDbSpline
210
0.0
220
0.0
230
1.0
 70
     8
 71
     3
 72
     8
 73
     4
 74
     0
 42
0.000000001
 43
0.0000000001
 40
0.0
 40
0.0
 40
0.0
 40
0.0
 40
1.0
 40
1.0
 40
1.0
 40
1.0
 10
558.1217045238078
 20
876.9749353383402
 30
0.0
 10
558.0508340951735
 20
876.9710966082033
 30
0.0
 10
557.9655613685641
 20
876.9669199155139
 30
0.0
 10
557.8717217947967
 20
876.9627046065444
 30
0.0
  0
ARC
  5
1B3
330
13C
100
AcDbEntity
  8
DV2_Default
 62
     7
100
AcDbCircle
 10
548.7667979228
 20
881.2999011877
 30
0.0
 40
4.527919588027213
100
AcDbArc
 50
269.0248648793
 51
270.0796719537
  0
SPLINE
  5
1B4
330
13C
100
AcDbEntity
  8
DV2_Default
 62
     7
100
AcDbSpline
210
0.0
220
0.0
230
1.0
 70
     8
 71
     3
 72
    59
 73
    55
 74
     0
 42
0.000000001
 43
0.0000000001
 40
0.0
 40
0.0
 40
0.0
 40
0.0
 40
0.0589016619162296
 40
0.0589016619162296
 40
0.0589016619162296
 40
0.1178029406842265
 40
0.1178029406842265
 40
0.1178029406842265
 40
0.1767104853876794
 40
0.1767104853876794
 40
0.1767104853876794
 40
0.235626069398437
 40
0.235626069398437
 40
0.235626069398437
 40
0.2945463747664861
 40
0.2945463747664861
 40
0.2945463747664861
 40
0.3534660129310401
 40
0.3534660129310401
 40
0.3534660129310401
 40
0.412379886616305
 40
0.412379886616305
 40
0.412379886616305
 40
0.4712854258599691
 40
0.4712854258599691
 40
0.4712854258599691
 40
0.5000865691147856
 40
0.5000865691147856
 40
0.5000865691147856
 40
0.5589836252579983
 40
0.5589836252579983
 40
0.5589836252579983
 40
0.6178804430645591
 40
0.6178804430645591
 40
0.6178804430645591
 40
0.6767813902309063
 40
0.6767813902309063
 40
0.6767813902309063
 40
0.7356904876745403
 40
0.7356904876745403
 40
0.7356904876745403
 40
0.7946072621428476
 40
0.7946072621428476
 40
0.7946072621428476
 40
0.853527875849405
 40
0.853527875849405
 40
0.853527875849405
 40
0.9124468069179611
 40
0.9124468069179611
 40
0.9124468069179611
 40
0.9713592703552514
 40
0.9713592703552514
 40
0.9713592703552514
 40
1.0
 40
1.0
 40
1.0
 40
1.0
 10
548.8834257642592
 20
876.7726373753062
 30
0.0
 10
548.9323990137444
 20
876.7731616050569
 30
0.0
 10
548.9867551915236
 20
876.7740131435298
 30
0.0
 10
549.0419949490711
 20
876.7751232830943
 30
0.0
 10
549.0972346064844
 20
876.7762334206465
 30
0.0
 10
549.1548806383695
 20
876.7776305833179
 30
0.0
 10
549.2101603776832
 20
876.7791990656964
 30
0.0
 10
549.2654459722819
 20
876.7807677142101
 30
0.0
 10
549.3198893714726
 20
876.782550974644
 30
0.0
 10
549.3689836379931
 20
876.784401199524
 30
0.0
 10
549.4180844862111
 20
876.7862516724498
 30
0.0
 10
549.463188899981
 20
876.7882201608339
 30
0.0
 10
549.5005625136994
 20
876.7901436771883
 30
0.0
 10
549.5379390269164
 20
876.792067342772
 30
0.0
 10
549.5686144139689
 20
876.7939990877254
 30
0.0
 10
549.5900478749962
 20
876.7957789337053
 30
0.0
 10
549.6114810594204
 20
876.797558756716
 30
0.0
 10
549.6242636940984
 20
876.7992357799419
 30
0.0
 10
549.6273358816601
 20
876.800671078014
 30
0.0
 10
549.6304077689189
 20
876.8021062357876
 30
0.0
 10
549.6238557406007
 20
876.8033393042874
 30
0.0
 10
549.6082212587006
 20
876.8042681084379
 30
0.0
 10
549.5925889617173
 20
876.8051967827881
 30
0.0
 10
549.5674454603552
 20
876.8058468940635
 30
0.0
 10
549.5348726677034
 20
876.806164566319
 30
0.0
 10
549.5187729689628
 20
876.8063215816436
 30
0.0
 10
549.5007336027186
 20
876.8064006654511
 30
0.0
 10
549.4811254041076
 20
876.8064001909838
 30
0.0
 10
549.4414598211555
 20
876.8063992311801
 30
0.0
 10
549.3944095069412
 20
876.8060657368791
 30
0.0
 10
549.3438710855891
 20
876.8054273408028
 30
0.0
 10
549.2933327780853
 20
876.8047889461646
 30
0.0
 10
549.2379126509727
 20
876.8038280485197
 30
0.0
 10
549.182199702355
 20
876.8026242428921
 30
0.0
 10
549.1264828116806
 20
876.8014203520875
 30
0.0
 10
549.0689366167343
 20
876.7999403236201
 30
0.0
 10
549.014325152045
 20
876.7983067162904
 30
0.0
 10
548.9597062117813
 20
876.7966728853418
 30
0.0
 10
548.9065165943667
 20
876.7948403796695
 30
0.0
 10
548.859159478944
 20
876.7929609240348
 30
0.0
 10
548.8117963114823
 20
876.7910812282137
 30
0.0
 10
548.7689609057045
 20
876.7891027302622
 30
0.0
 10
548.7341999566846
 20
876.787189250862
 30
0.0
 10
548.6994368279056
 20
876.785275651473
 30
0.0
 10
548.6717903662976
 20
876.7833742969666
 30
0.0
 10
548.653550754909
 20
876.7816426556823
 30
0.0
 10
548.6353116883387
 20
876.7799110661219
 30
0.0
 10
548.6259758810306
 20
876.7783014143536
 30
0.0
 10
548.6263178309716
 20
876.7769470497419
 30
0.0
 10
548.6266597435156
 20
876.7755928332488
 30
0.0
 10
548.6366868335787
 20
876.7744564922568
 30
0.0
 10
548.6555697295457
 20
876.7736321878166
 30
0.0
 10
548.6648502390046
 20
876.7732270611259
 30
0.0
 10
548.6763180321124
 20
876.772891664377
 30
0.0
 10
548.6897395373181
 20
876.7726373561416
 30
0.0
  0
LINE
  5
1B5
330
13C
100
AcDbEntity
  8
DV2_Default
 62
     7
100
AcDbLine
 10
549.3157338873
 20
876.7730289913
 30
0.0
 11
549.3073228928
 21
876.7726327965
 31
0.0
  0
ARC
  5
1B6
330
13C
100
AcDbEntity
  8
DV2_Default
 62
     7
100
AcDbCircle
 10
535.7460210221
 20
1163.0124873405
 30
0.0
 40
286.5609223033893
100
AcDbArc
 50
272.7141807201
 51
273.4226577499
  0
ARC
  5
1B7
330
13C
100
AcDbEntity
  8
DV2_Default
 62
     7
100
AcDbCircle
 10
534.6821964847
 20
1163.0613628678
 30
0.0
 40
286.6098489334032
100
AcDbArc
 50
272.7141651206
 51
273.4225233497
  0
SPLINE
  5
1B8
330
13C
100
AcDbEntity
  8
DV2_Default
 62
     7
100
AcDbSpline
210
0.0
220
0.0
230
1.0
 70
     8
 71
     3
 72
    23
 73
    19
 74
     0
 42
0.000000001
 43
0.0000000001
 40
0.0
 40
0.0
 40
0.0
 40
0.0
 40
0.1666111957275057
 40
0.1666111957275057
 40
0.1666111957275057
 40
0.3332210489211293
 40
0.3332210489211293
 40
0.3332210489211293
 40
0.4998542408741311
 40
0.4998542408741311
 40
0.4998542408741311
 40
0.6665333846600486
 40
0.6665333846600486
 40
0.6665333846600486
 40
0.8332558441560952
 40
0.8332558441560952
 40
0.8332558441560952
 40
1.0
 40
1.0
 40
1.0
 40
1.0
 10
551.6018310351977
 20
876.9199190203543
 30
0.0
 10
551.6414799934507
 20
876.919919464373
 30
0.0
 10
551.6885132296771
 20
876.9203197462043
 30
0.0
 10
551.7390351738077
 20
876.9210866819725
 30
0.0
 10
551.7895568913297
 20
876.9218536143009
 30
0.0
 10
551.8449603756526
 20
876.9230083381234
 30
0.0
 10
551.9006583734079
 20
876.9244551802935
 30
0.0
 10
551.9563642443605
 20
876.9259022269821
 30
0.0
 10
552.0139005520703
 20
876.9276813634432
 30
0.0
 10
552.0685054602166
 20
876.9296452707679
 30
0.0
 10
552.123125265046
 20
876.9316097138632
 30
0.0
 10
552.1763180599839
 20
876.9338131884252
 30
0.0
 10
552.2236818697991
 20
876.9360732892136
 30
0.0
 10
552.2710577500893
 20
876.9383339659796
 30
0.0
 10
552.3139081524984
 20
876.9407136401926
 30
0.0
 10
552.3486856636003
 20
876.9430152975851
 30
0.0
 10
552.3834675300802
 20
876.9453172432269
 30
0.0
 10
552.4111337944114
 20
876.9476046486656
 30
0.0
 10
552.429391873664
 20
876.949688051061
 30
0.0
  0
SPLINE
  5
1B9
330
13C
100
AcDbEntity
  8
DV2_Default
 62
     7
100
AcDbSpline
210
0.0
220
0.0
230
1.0
 70
     8
 71
     3
 72
    47
 73
    43
 74
     0
 42
0.000000001
 43
0.0000000001
 40
0.0
 40
0.0
 40
0.0
 40
0.0
 40
0.0020031471986576
 40
0.0020031471986576
 40
0.0020031471986576
 40
0.0879127414672374
 40
0.0879127414672374
 40
0.0879127414672374
 40
0.1737978653037894
 40
0.1737978653037894
 40
0.1737978653037894
 40
0.2004355448735613
 40
0.2004355448735613
 40
0.2004355448735613
 40
0.2863003406308778
 40
0.2863003406308778
 40
0.2863003406308778
 40
0.3721644438042963
 40
0.3721644438042963
 40
0.3721644438042963
 40
0.4580405393512358
 40
0.4580405393512358
 40
0.4580405393512358
 40
0.5439403222392867
 40
0.5439403222392867
 40
0.5439403222392867
 40
0.6298624224063041
 40
0.6298624224063041
 40
0.6298624224063041
 40
0.7157956890214782
 40
0.7157956890214782
 40
0.7157956890214782
 40
0.8017240685559978
 40
0.8017240685559978
 40
0.8017240685559978
 40
0.8876336459134114
 40
0.8876336459134114
 40
0.8876336459134114
 40
0.9735187538932965
 40
0.9735187538932965
 40
0.9735187538932965
 40
1.0
 40
1.0
 40
1.0
 40
1.0
 10
552.4566819319608
 20
876.9552233775395
 30
0.0
 10
552.4566848096796
 20
876.9552617016467
 30
0.0
 10
552.4566824362389
 20
876.9552998609385
 30
0.0
 10
552.4566748017912
 20
876.9553378533811
 30
0.0
 10
552.456347380598
 20
876.9569672483514
 30
0.0
 10
552.4463340177821
 20
876.958334705906
 30
0.0
 10
552.4274619765689
 20
876.9593268371963
 30
0.0
 10
552.4085952375302
 20
876.9603186897433
 30
0.0
 10
552.3803541789532
 20
876.9609627876945
 30
0.0
 10
552.3450772954817
 20
876.9612057144336
 30
0.0
 10
552.3339938505471
 20
876.9612820382149
 30
0.0
 10
552.3221709573236
 20
876.9613201769383
 30
0.0
 10
552.3097071437088
 20
876.9613198123782
 30
0.0
 10
552.2700459179244
 20
876.9613186523078
 30
0.0
 10
552.2230023530892
 20
876.9609176341505
 30
0.0
 10
552.1724728795685
 20
876.9601500043898
 30
0.0
 10
552.1219436329379
 20
876.9593823780759
 30
0.0
 10
552.066535209791
 20
876.9582269835921
 30
0.0
 10
552.0108352754636
 20
876.956779553613
 30
0.0
 10
551.9551274899804
 20
876.9553319196123
 30
0.0
 10
551.897592217942
 20
876.9535522629719
 30
0.0
 10
551.8429912084579
 20
876.9515879501837
 30
0.0
 10
551.7883752999704
 20
876.9496231013926
 30
0.0
 10
551.735189373529
 20
876.9474193248934
 30
0.0
 10
551.6878348363745
 20
876.9451590541422
 30
0.0
 10
551.6404682344327
 20
876.9428982075289
 30
0.0
 10
551.5976297705766
 20
876.9405184909125
 30
0.0
 10
551.5628658722197
 20
876.9382169226158
 30
0.0
 10
551.5280976262076
 20
876.9359150664795
 30
0.0
 10
551.500447029751
 20
876.9336278844555
 30
0.0
 10
551.4822053706276
 20
876.9315448185006
 30
0.0
 10
551.463964796676
 20
876.9294618764645
 30
0.0
 10
551.454628996891
 20
876.9275255619336
 30
0.0
 10
551.4549738561263
 20
876.9258963504667
 30
0.0
 10
551.4553186401823
 20
876.9242674941675
 30
0.0
 10
551.465349585135
 20
876.9229006695547
 30
0.0
 10
551.4842379702259
 20
876.9219092086871
 30
0.0
 10
551.5031210488225
 20
876.9209180263599
 30
0.0
 10
551.5313776602015
 20
876.9202746544184
 30
0.0
 10
551.5666680203633
 20
876.920032446862
 30
0.0
 10
551.5776907671958
 20
876.9199567946848
 30
0.0
 10
551.5894440408608
 20
876.9199188816355
 30
0.0
 10
551.6018310351977
 20
876.9199190203543
 30
0.0
  0
SPLINE
  5
1BA
330
13C
100
AcDbEntity
  8
DV2_Default
 62
     7
100
AcDbSpline
210
0.0
220
0.0
230
1.0
 70
     8
 71
     3
 72
    14
 73
    10
 74
     0
 42
0.000000001
 43
0.0000000001
 40
0.0
 40
0.0
 40
0.0
 40
0.0
 40
0.25
 40
0.25
 40
0.5
 40
0.5
 40
0.75
 40
0.75
 40
1.0
 40
1.0
 40
1.0
 40
1.0
 10
549.3073211903019
 20
876.7727019579972
 30
0.0
 10
549.1676736241857
 20
876.7661045598375
 30
0.0
 10
548.9737554434174
 20
876.7594119277176
 30
0.0
 10
548.5848421142036
 20
876.7499048690748
 30
0.0
 10
548.392146789724
 20
876.7471466621764
 30
0.0
 10
548.1170518047961
 20
876.7471492228892
 30
0.0
 10
548.0362789079265
 20
876.7499099753576
 30
0.0
 10
548.0330387789974
 20
876.7594206843481
 30
0.0
 10
548.1105907073153
 20
876.7661143996595
 30
0.0
 10
548.2458599730173
 20
876.7726418304113
 30
0.0
  0
ARC
  5
1BB
330
13C
100
AcDbEntity
  8
DV2_Default
 62
     7
100
AcDbCircle
 10
548.7658582883
 20
887.3416972132
 30
0.0
 40
10.56971371266204
100
AcDbArc
 50
270.0392238821
 51
270.6373170809
  0
ARC
  5
1BC
330
13C
100
AcDbEntity
  8
DV2_Default
 62
     7
100
AcDbCircle
 10
542.5240995671
 20
886.9801525887
 30
0.0
 40
10.2081673401405
100
AcDbArc
 50
269.3523760861
 51
270.0215980018
  0
SPLINE
  5
1BD
330
13C
100
AcDbEntity
  8
DV2_Default
 62
     7
100
AcDbSpline
210
0.0
220
0.0
230
1.0
 70
     8
 71
     3
 72
    50
 73
    46
 74
     0
 42
0.000000001
 43
0.0000000001
 40
0.0
 40
0.0
 40
0.0
 40
0.0
 40
0.0698322011560491
 40
0.0698322011560491
 40
0.0698322011560491
 40
0.1396639480620208
 40
0.1396639480620208
 40
0.1396639480620208
 40
0.2095031236898874
 40
0.2095031236898874
 40
0.2095031236898874
 40
0.2793518305008545
 40
0.2793518305008545
 40
0.2793518305008545
 40
0.3492061348240361
 40
0.3492061348240361
 40
0.3492061348240361
 40
0.4190596481289749
 40
0.4190596481289749
 40
0.4190596481289749
 40
0.4889063272247496
 40
0.4889063272247496
 40
0.4889063272247496
 40
0.558743125234259
 40
0.558743125234259
 40
0.558743125234259
 40
0.5928889653084791
 40
0.5928889653084791
 40
0.5928889653084791
 40
0.6627157059853126
 40
0.6627157059853126
 40
0.6627157059853126
 40
0.7325421640967558
 40
0.7325421640967558
 40
0.7325421640967558
 40
0.8023735178638448
 40
0.8023735178638448
 40
0.8023735178638448
 40
0.8722145343768094
 40
0.8722145343768094
 40
0.8722145343768094
 40
0.9420646525608257
 40
0.9420646525608257
 40
0.9420646525608257
 40
1.0
 40
1.0
 40
1.0
 40
1.0
 10
542.6617795189367
 20
876.7726373751659
 30
0.0
 10
542.7174729684739
 20
876.7731616049203
 30
0.0
 10
542.7750504482101
 20
876.774013143389
 30
0.0
 10
542.8297438347207
 20
876.7751232829534
 30
0.0
 10
542.8844371220882
 20
876.7762334205053
 30
0.0
 10
542.9377548552126
 20
876.7776305831763
 30
0.0
 10
542.9852832188403
 20
876.7791990655547
 30
0.0
 10
543.0328166167195
 20
876.7807677140681
 30
0.0
 10
543.0758702743254
 20
876.7825509745015
 30
0.0
 10
543.1108805363502
 20
876.7844011993813
 30
0.0
 10
543.1458954919364
 20
876.7862516723067
 30
0.0
 10
543.1738305651995
 20
876.7882201606905
 30
0.0
 10
543.1923730490638
 20
876.7901436770444
 30
0.0
 10
543.2109169714806
 20
876.7920673426277
 30
0.0
 10
543.2205782685766
 20
876.7939990875806
 30
0.0
 10
543.2205563003342
 20
876.7957789335602
 30
0.0
 10
543.2205343323753
 20
876.7975587565704
 30
0.0
 10
543.2108286342238
 20
876.7992357797958
 30
0.0
 10
543.1922419359769
 20
876.8006710778677
 30
0.0
 10
543.1736570545587
 20
876.8021062356408
 30
0.0
 10
543.1456801106633
 20
876.8033393041403
 30
0.0
 10
543.1106274234149
 20
876.8042681082906
 30
0.0
 10
543.0755796347753
 20
876.8051967826406
 30
0.0
 10
543.0324912114984
 20
876.805846893916
 30
0.0
 10
542.9849306403147
 20
876.8061645661714
 30
0.0
 10
542.9614229636288
 20
876.8063215814573
 30
0.0
 10
542.9366081241042
 20
876.8064006652642
 30
0.0
 10
542.9109962558638
 20
876.8064001908363
 30
0.0
 10
542.8591857884203
 20
876.8063992311119
 30
0.0
 10
542.8029628948527
 20
876.8060657368915
 30
0.0
 10
542.7469836525831
 20
876.8054273408902
 30
0.0
 10
542.6910045364185
 20
876.8047889463271
 30
0.0
 10
542.6337252535845
 20
876.8038280487536
 30
0.0
 10
542.5798883057053
 20
876.8026242431883
 30
0.0
 10
542.5260475485092
 20
876.8014203524459
 30
0.0
 10
542.474164861337
 20
876.7999403240333
 30
0.0
 10
542.428534920127
 20
876.798306716746
 30
0.0
 10
542.3828987327926
 20
876.7966728858397
 30
0.0
 10
542.3422584785012
 20
876.7948403801988
 30
0.0
 10
542.3099780851684
 20
876.7929609245822
 30
0.0
 10
542.2776935665378
 20
876.7910812287788
 30
0.0
 10
542.2528806688516
 20
876.7891027308319
 30
0.0
 10
542.2375937854026
 20
876.7871892514229
 30
0.0
 10
542.2249145122485
 20
876.7856021700414
 30
0.0
 10
542.2184985628369
 20
876.7840235113435
 30
0.0
 10
542.2186384192307
 20
876.7825431087145
 30
0.0
  0
SPLINE
  5
1BE
330
13C
100
AcDbEntity
  8
DV2_Default
 62
     7
100
AcDbSpline
210
0.0
220
0.0
230
1.0
 70
     8
 71
     3
 72
    14
 73
    10
 74
     0
 42
0.000000001
 43
0.0000000001
 40
0.0
 40
0.0
 40
0.0
 40
0.0
 40
0.4022525412769781
 40
0.4022525412769781
 40
0.4022525412769781
 40
0.8044609266114133
 40
0.8044609266114133
 40
0.8044609266114133
 40
1.0
 40
1.0
 40
1.0
 40
1.0
 10
542.2195597459596
 20
876.7816426561773
 30
0.0
 10
542.2229956890266
 20
876.7799110665826
 30
0.0
 10
542.2361442415292
 20
876.7783014147669
 30
0.0
 10
542.2579175315464
 20
876.7769470500991
 30
0.0
 10
542.2796884403544
 20
876.7755928335498
 30
0.0
 10
542.3106828837192
 20
876.774456492491
 30
0.0
 10
542.3483345091857
 20
876.7736321879792
 30
0.0
 10
542.3668396522581
 20
876.7732270561227
 30
0.0
 10
542.387104661839
 20
876.7728916559677
 30
0.0
 10
542.4087173771545
 20
876.772637347762
 30
0.0
  0
ARC
  5
1BF
330
13C
100
AcDbEntity
  8
DV2_Default
 62
     7
100
AcDbCircle
 10
535.8269725961
 20
961.2532735888
 30
0.0
 40
84.80379901643136
100
AcDbArc
 50
275.0066204466
 51
276.3067440153
  0
ARC
  5
1C0
330
13C
100
AcDbEntity
  8
DV2_Default
 62
     7
100
AcDbCircle
 10
534.4384628151
 20
961.2706389257
 30
0.0
 40
84.82122725003025
100
AcDbArc
 50
275.0065932998
 51
276.3064603459
  0
SPLINE
  5
1C1
330
13C
100
AcDbEntity
  8
DV2_Default
 62
     7
100
AcDbSpline
210
0.0
220
0.0
230
1.0
 70
     8
 71
     3
 72
    20
 73
    16
 74
     0
 42
0.000000001
 43
0.0000000001
 40
0.0
 40
0.0
 40
0.0
 40
0.0
 40
0.199952027814751
 40
0.199952027814751
 40
0.199952027814751
 40
0.3999024444390266
 40
0.3999024444390266
 40
0.3999024444390266
 40
0.5998808701790374
 40
0.5998808701790374
 40
0.5998808701790374
 40
0.7999144432465392
 40
0.7999144432465392
 40
0.7999144432465392
 40
1.0
 40
1.0
 40
1.0
 40
1.0
 10
544.0589009371861
 20
876.9199190201848
 30
0.0
 10
544.1106989849875
 20
876.919919464203
 30
0.0
 10
544.1669107641549
 20
876.9203197460337
 30
0.0
 10
544.2228808885488
 20
876.9210866818013
 30
0.0
 10
544.2788507618974
 20
876.9218536141288
 30
0.0
 10
544.3361223882142
 20
876.9230083379507
 30
0.0
 10
544.3899547169589
 20
876.9244551801199
 30
0.0
 10
544.4437946551791
 20
876.9259022268079
 30
0.0
 10
544.4956788118157
 20
876.9276813632682
 30
0.0
 10
544.5413141277871
 20
876.9296452705923
 30
0.0
 10
544.5869618934606
 20
876.931609713687
 30
0.0
 10
544.6276160761715
 20
876.9338131882483
 30
0.0
 10
544.6599130954007
 20
876.9360732890364
 30
0.0
 10
544.6922183453945
 20
876.9383339658018
 30
0.0
 10
544.7170530506893
 20
876.9407136400141
 30
0.0
 10
544.7323613867447
 20
876.9430152974065
 30
0.0
  0
SPLINE
  5
1C2
330
13C
100
AcDbEntity
  8
DV2_Default
 62
     7
100
AcDbSpline
210
0.0
220
0.0
230
1.0
 70
     8
 71
     3
 72
    38
 73
    34
 74
     0
 42
0.000000001
 43
0.0000000001
 40
0.0
 40
0.0
 40
0.0
 40
0.0
 40
0.0201254849307671
 40
0.0201254849307671
 40
0.0201254849307671
 40
0.1273553280487173
 40
0.1273553280487173
 40
0.1273553280487173
 40
0.2345617207121956
 40
0.2345617207121956
 40
0.2345617207121956
 40
0.3417375767776717
 40
0.3417375767776717
 40
0.3417375767776717
 40
0.3749786781946633
 40
0.3749786781946633
 40
0.3749786781946633
 40
0.4821291668950248
 40
0.4821291668950248
 40
0.4821291668950248
 40
0.5892787913214727
 40
0.5892787913214727
 40
0.5892787913214727
 40
0.6964433810043136
 40
0.6964433810043136
 40
0.6964433810043136
 40
0.8036375300677386
 40
0.8036375300677386
 40
0.8036375300677386
 40
0.910859528814217
 40
0.910859528814217
 40
0.910859528814217
 40
1.0
 40
1.0
 40
1.0
 40
1.0
 10
544.7513684134482
 20
876.9484947405152
 30
0.0
 10
544.7514013113297
 20
876.9488988610698
 30
0.0
 10
544.7510987183038
 20
876.9492970486577
 30
0.0
 10
544.7504572288049
 20
876.9496880508816
 30
0.0
 10
544.7470393415723
 20
876.951771329737
 30
0.0
 10
544.733906302748
 20
876.9537081031339
 30
0.0
 10
544.712143738966
 20
876.9553378532017
 30
0.0
 10
544.6903859169116
 20
876.9569672481721
 30
0.0
 10
544.659401793881
 20
876.9583347057271
 30
0.0
 10
544.6217565571183
 20
876.9593268370177
 30
0.0
 10
544.5841218969335
 20
876.9603186895652
 30
0.0
 10
544.538791470893
 20
876.9609627875168
 30
0.0
 10
544.4895199156357
 20
876.9612057142564
 30
0.0
 10
544.47403956375
 20
876.9612820380377
 30
0.0
 10
544.4580929460436
 20
876.9613201767613
 30
0.0
 10
544.4418129611206
 20
876.9613198122014
 30
0.0
 10
544.3900082585053
 20
876.9613186521316
 30
0.0
 10
544.3337924931226
 20
876.960917633975
 30
0.0
 10
544.2778213863886
 20
876.9601500042149
 30
0.0
 10
544.2218505309788
 20
876.9593823779016
 30
0.0
 10
544.1645808978232
 20
876.9582269834186
 30
0.0
 10
544.1107533752902
 20
876.9567795534404
 30
0.0
 10
544.0569182655262
 20
876.9553319194401
 30
0.0
 10
544.0050418811135
 20
876.9535522628004
 30
0.0
 10
543.9594166365922
 20
876.9515879500129
 30
0.0
 10
543.9137789422889
 20
876.9496231012224
 30
0.0
 10
543.873137409777
 20
876.9474193247238
 30
0.0
 10
543.840854573455
 20
876.945159053973
 30
0.0
 10
543.8085635122496
 20
876.9428982073603
 30
0.0
 10
543.78374491926
 20
876.9405184907445
 30
0.0
 10
543.7684532874027
 20
876.9382169224482
 30
0.0
 10
543.7557404429344
 20
876.9363034916215
 30
0.0
 10
543.7493208382067
 20
876.9344002003994
 30
0.0
 10
543.749489549759
 20
876.93261586157
 30
0.0
  0
SPLINE
  5
1C3
330
13C
100
AcDbEntity
  8
DV2_Default
 62
     7
100
AcDbSpline
210
0.0
220
0.0
230
1.0
 70
     8
 71
     3
 72
    17
 73
    13
 74
     0
 42
0.000000001
 43
0.0000000001
 40
0.0
 40
0.0
 40
0.0
 40
0.0
 40
0.302347206624537
 40
0.302347206624537
 40
0.302347206624537
 40
0.6046282559939635
 40
0.6046282559939635
 40
0.6046282559939635
 40
0.9068232075225583
 40
0.9068232075225583
 40
0.9068232075225583
 40
1.0
 40
1.0
 40
1.0
 40
1.0
 10
543.7504092521701
 20
876.9315448183337
 30
0.0
 10
543.7538444769947
 20
876.9294618762978
 30
0.0
 10
543.7669949088265
 20
876.9275255617667
 30
0.0
 10
543.7887734801624
 20
876.9258963502997
 30
0.0
 10
543.8105473037755
 20
876.9242674940003
 30
0.0
 10
543.8415464829224
 20
876.9229006693873
 30
0.0
 10
543.8792045819592
 20
876.9219092085194
 30
0.0
 10
543.9168521013469
 20
876.920918026192
 30
0.0
 10
543.9621935486251
 20
876.9202746542501
 30
0.0
 10
544.0114733738317
 20
876.9200324466931
 30
0.0
 10
544.0268656519123
 20
876.9199567945158
 30
0.0
 10
544.0427183651082
 20
876.9199188814662
 30
0.0
 10
544.0589009371861
 20
876.9199190201848
 30
0.0
  0
SPLINE
  5
1C4
330
13C
100
AcDbEntity
  8
DV2_Default
 62
     7
100
AcDbSpline
210
0.0
220
0.0
230
1.0
 70
     8
 71
     3
 72
    14
 73
    10
 74
     0
 42
0.000000001
 43
0.0000000001
 40
0.0
 40
0.0
 40
0.0
 40
0.0
 40
0.2499999999999992
 40
0.2499999999999992
 40
0.4999999999999994
 40
0.4999999999999994
 40
0.7499999999999997
 40
0.7499999999999997
 40
1.0
 40
1.0
 40
1.0
 40
1.0
 10
543.223277843854
 20
876.7727020305355
 30
0.0
 10
543.1460198826719
 20
876.7661048220255
 30
0.0
 10
542.996540676742
 20
876.759412140797
 30
0.0
 10
542.6359916650126
 20
876.7499049700087
 30
0.0
 10
542.4270539520381
 20
876.7471467007406
 30
0.0
 10
542.0676250495824
 20
876.7471491587311
 30
0.0
 10
541.9192593292026
 20
876.7499098714546
 30
0.0
 10
541.7674351870315
 20
876.7594205461581
 30
0.0
 10
541.7648745715123
 20
876.7661142671262
 30
0.0
 10
541.8364105677089
 20
876.772641830279
 30
0.0
  0
ARC
  5
1C5
330
13C
100
AcDbEntity
  8
DV2_Default
 62
     7
100
AcDbCircle
 10
542.524472111
 20
891.2343990433
 30
0.0
 40
14.46241348700195
100
AcDbArc
 50
270.0137688514
 51
270.5439792724
  0
ARC
  5
1C6
330
13C
100
AcDbEntity
  8
DV2_Default
 62
     7
100
AcDbCircle
 10
535.1609078299
 20
886.6266638987
 30
0.0
 40
9.882535591775632
100
AcDbArc
 50
265.6465520692
 51
274.3580434115
  0
SPLINE
  5
1C7
330
13C
100
AcDbEntity
  8
DV2_Default
 62
     7
100
AcDbSpline
210
0.0
220
0.0
230
1.0
 70
    12
 71
     3
 72
     8
 73
     4
 74
     0
 42
0.000000001
 43
0.0000000001
 40
0.0
 40
0.0
 40
0.0
 40
0.0
 40
1.0
 40
1.0
 40
1.0
 40
1.0
 10
535.9118706927025
 20
876.7727020304712
 30
0.0
 41
1.171368534351988
 10
536.2045401763351
 20
876.7728789225633
 30
0.0
 41
0.942871912754898
 10
536.4112943268939
 20
876.979821081173
 30
0.0
 41
0.9428771553362527
 10
536.4111297052814
 20
877.2723610764021
 30
0.0
 41
1.171384262096053
  0
ARC
  5
1C8
330
13C
100
AcDbEntity
  8
DV2_Default
 62
     7
100
AcDbCircle
 10
534.4114375209
 20
877.2726174069
 30
0.0
 40
0.4999760697431367
100
AcDbArc
 50
180.0217971852
 51
269.9195297146
  0
LINE
  5
1C9
330
13C
100
AcDbEntity
  8
DV2_Default
 62
     7
100
AcDbLine
 10
536.4112908087
 20
877.9806268949
 30
0.0
 11
536.4112876488
 21
877.462221304
 31
0.0
  0
LINE
  5
1CA
330
13C
100
AcDbEntity
  8
DV2_Default
 62
     7
100
AcDbLine
 10
536.4112949304
 20
877.2727571999
 30
0.0
 11
536.4112949622
 21
877.4621922322
 31
0.0
  0
ELLIPSE
  5
1CB
330
13C
100
AcDbEntity
  8
DV2_Default
 62
     7
100
AcDbEllipse
 10
535.9112949302
 20
877.272757251
 30
0.0
 11
-0.5000000002242377
 21
-2.065417281649218E-8
 31
0.0
210
0.0
220
0.0
230
1.0
 40
0.9994384547
 41
1.57210156289848
 42
3.141592653589793
  0
LINE
  5
1CC
330
13C
100
AcDbEntity
  8
DV2_Default
 62
     7
100
AcDbLine
 10
533.9113008446
 20
877.4621919598
 30
0.0
 11
533.911298162
 21
878.0067259281
 31
0.0
  0
LINE
  5
1CD
330
13C
100
AcDbEntity
  8
DV2_Default
 62
     7
100
AcDbLine
 10
533.9112949182
 20
877.4621920087
 30
0.0
 11
533.9112949757
 21
877.2727570214
 31
0.0
  0
ELLIPSE
  5
1CE
330
13C
100
AcDbEntity
  8
DV2_Default
 62
     7
100
AcDbEllipse
 10
534.4112949758
 20
877.2727571945
 30
0.0
 11
0.5000000001128546
 21
1.364316992713555E-8
 31
0.0
210
0.0
220
0.0
230
1.0
 40
0.9994384514
 41
3.141592653589659
 42
4.711075245896842
  0
ARC
  5
1CF
330
13C
100
AcDbEntity
  8
DV2_Default
 62
     7
100
AcDbCircle
 10
534.5782902698
 20
1163.0501178126
 30
0.0
 40
286.5985921497847
100
AcDbArc
 50
266.5774481833
 51
267.2858310805
  0
LINE
  5
1D0
330
13C
100
AcDbEntity
  8
DV2_Default
 62
     7
100
AcDbLine
 10
521.0152719651
 20
876.772632802
 30
0.0
 11
521.0068554751
 21
876.7730290149
 31
0.0
  0
SPLINE
  5
1D1
330
13C
100
AcDbEntity
  8
DV2_Default
 62
     7
100
AcDbSpline
210
0.0
220
0.0
230
1.0
 70
     8
 71
     3
 72
    10
 73
     6
 74
     0
 42
0.000000001
 43
0.0000000001
 40
0.0
 40
0.0
 40
0.0
 40
0.0
 40
0.0114776635802773
 40
0.0114776635802773
 40
1.0
 40
1.0
 40
1.0
 40
1.0
 10
521.5500620730669
 20
876.7545003752034
 30
0.0
 10
521.5478048092614
 20
876.7545550500895
 30
0.0
 10
521.5455472244363
 20
876.7546099950755
 30
0.0
 10
521.3488327744722
 20
876.7594205463107
 30
0.0
 10
521.1549146288874
 20
876.7661142672681
 30
0.0
 10
521.0152783151418
 20
876.7726418304364
 30
0.0
  0
ARC
  5
1D2
330
13C
100
AcDbEntity
  8
DV2_Default
 62
     7
100
AcDbCircle
 10
534.7825279773
 20
1364.8451265403
 30
0.0
 40
488.3932477840057
100
AcDbArc
 50
267.3792512043
 51
267.9220568802
  0
LINE
  5
1D3
330
13C
100
AcDbEntity
  8
DV2_Default
 62
     7
100
AcDbLine
 10
517.0848299093
 20
876.7726328022
 30
0.0
 11
517.0738789105
 21
876.7730290141
 31
0.0
  0
SPLINE
  5
1D4
330
13C
100
AcDbEntity
  8
DV2_Default
 62
     7
100
AcDbSpline
210
0.0
220
0.0
230
1.0
 70
     8
 71
     3
 72
    10
 73
     6
 74
     0
 42
0.000000001
 43
0.0000000001
 40
0.0
 40
0.0
 40
0.0
 40
0.0
 40
0.3508691053937003
 40
0.3508691053937003
 40
1.0
 40
1.0
 40
1.0
 40
1.0
 10
517.9093789708887
 20
876.7488233422481
 30
0.0
 10
517.837694046212
 20
876.7501074096267
 30
0.0
 10
517.7502472603073
 20
876.7520950107212
 30
0.0
 10
517.4744407605361
 20
876.7594206699582
 30
0.0
 10
517.2656059262358
 20
876.7661143321892
 30
0.0
 10
517.0848334586079
 20
876.7726418306471
 30
0.0
  0
SPLINE
  5
1D5
330
13C
100
AcDbEntity
  8
DV2_Default
 62
     7
100
AcDbSpline
210
0.0
220
0.0
230
1.0
 70
     8
 71
     3
 72
     8
 73
     4
 74
     0
 42
0.000000001
 43
0.0000000001
 40
0.0
 40
0.0
 40
0.0
 40
0.0
 40
1.0
 40
1.0
 40
1.0
 40
1.0
 10
512.4508702098694
 20
876.9627005990081
 30
0.0
 10
512.356473798708
 20
876.9669388962631
 30
0.0
 10
512.27074616578
 20
876.9711393923648
 30
0.0
 10
512.1996271911819
 20
876.9749968060509
 30
0.0
  0
ARC
  5
1D6
330
13C
100
AcDbEntity
  8
DV2_Default
 62
     7
100
AcDbCircle
 10
534.8791068051
 20
1367.4222130254
 30
0.0
 40
490.9721365572405
100
AcDbArc
 50
267.8947658535
 51
267.9216976507
  0
SPLINE
  5
1D7
330
13C
100
AcDbEntity
  8
DV2_Default
 62
     7
100
AcDbSpline
210
0.0
220
0.0
230
1.0
 70
     8
 71
     3
 72
    10
 73
     6
 74
     0
 42
0.000000001
 43
0.0000000001
 40
0.0
 40
0.0
 40
0.0
 40
0.0
 40
0.6491697626090511
 40
0.6491697626090511
 40
1.0
 40
1.0
 40
1.0
 40
1.0
 10
517.0848296242971
 20
876.7727019539423
 30
0.0
 10
517.2656066803677
 20
876.7661045892881
 30
0.0
 10
517.4744415493093
 20
876.7594119986417
 30
0.0
 10
517.7502316040448
 20
876.7520895609753
 30
0.0
 10
517.837665085482
 20
876.750103384407
 30
0.0
 10
517.9093431829057
 20
876.7488205790879
 30
0.0
  0
ARC
  5
1D8
330
13C
100
AcDbEntity
  8
DV2_Default
 62
     7
100
AcDbCircle
 10
534.6526180016
 20
1164.5681993662
 30
0.0
 40
288.1184853681514
100
AcDbArc
 50
266.7829617965
 51
267.2853616708
  0
SPLINE
  5
1D9
330
13C
100
AcDbEntity
  8
DV2_Default
 62
     7
100
AcDbSpline
210
0.0
220
0.0
230
1.0
 70
     8
 71
     3
 72
    10
 73
     6
 74
     0
 42
0.000000001
 43
0.0000000001
 40
0.0
 40
0.0
 40
0.0
 40
0.0
 40
0.9885819290096961
 40
0.9885819290096961
 40
1.0
 40
1.0
 40
1.0
 40
1.0
 10
521.0152686943629
 20
876.7727019554288
 30
0.0
 10
521.1549162918105
 20
876.7661045933146
 30
0.0
 10
521.3488344580527
 20
876.7594120011765
 30
0.0
 10
521.5455370803994
 20
876.7546035920055
 30
0.0
 10
521.547782809941
 20
876.7545489554248
 30
0.0
 10
521.5500282222619
 20
876.7544945861974
 30
0.0
  0
LINE
  5
1DA
330
13C
100
AcDbEntity
  8
DV2_Default
 62
     7
100
AcDbLine
 10
527.0947142429
 20
876.7730292714
 30
0.0
 11
527.0993111108
 21
876.7726327975
 31
0.0
  0
ARC
  5
1DB
330
13C
100
AcDbEntity
  8
DV2_Default
 62
     7
100
AcDbCircle
 10
534.441330105
 20
961.7224900966
 30
0.0
 40
85.26653560549727
100
AcDbArc
 50
263.7393628698
 51
265.0572329509
  0
ARC
  5
1DC
330
13C
100
AcDbEntity
  8
DV2_Default
 62
     7
100
AcDbCircle
 10
535.7851459054
 20
961.7160515849
 30
0.0
 40
85.26845674293159
100
AcDbArc
 50
275.0074830709
 51
276.3005177564
  0
ARC
  5
1DD
330
13C
100
AcDbEntity
  8
DV2_Default
 62
     7
100
AcDbCircle
 10
535.6696085016
 20
1164.5749411127
 30
0.0
 40
288.1252368411228
100
AcDbArc
 50
272.7146470392
 51
273.2168387765
  0
SPLINE
  5
1DE
330
13C
100
AcDbEntity
  8
DV2_Default
 62
     7
100
AcDbSpline
210
0.0
220
0.0
230
1.0
 70
     8
 71
     3
 72
    10
 73
     6
 74
     0
 42
0.000000001
 43
0.0000000001
 40
0.0
 40
0.0
 40
0.0
 40
0.0
 40
0.334858683111088
 40
0.334858683111088
 40
1.0
 40
1.0
 40
1.0
 40
1.0
 10
548.4937601509488
 20
876.7490973686718
 30
0.0
 10
548.5839525302777
 20
876.7503827286403
 30
0.0
 10
548.6814033164353
 20
876.7522712228626
 30
0.0
 10
548.9737570950335
 20
876.7594206073076
 30
0.0
 10
549.1676751910983
 20
876.7661143344656
 30
0.0
 10
549.307311573533
 20
876.7726419593318
 30
0.0
  0
ARC
  5
1DF
330
13C
100
AcDbEntity
  8
DV2_Default
 62
     7
100
AcDbCircle
 10
535.4430051682
 20
1367.4338034173
 30
0.0
 40
490.9837367349274
100
AcDbArc
 50
272.0783090409
 51
272.1063973863
  0
LINE
  5
1E0
330
13C
100
AcDbEntity
  8
DV2_Default
 62
     7
100
AcDbLine
 10
553.2377599226
 20
876.7726328002
 30
0.0
 11
553.2487180717
 21
876.7730292712
 31
0.0
  0
ARC
  5
1E1
330
13C
100
AcDbEntity
  8
DV2_Default
 62
     7
100
AcDbCircle
 10
535.1612949457
 20
1451.4497213947
 30
0.0
 40
575.0000624379999
100
AcDbArc
 50
267.6825595197
 51
268.0795292988
  0
ARC
  5
1E2
330
13C
100
AcDbEntity
  8
DV2_Default
 62
     7
100
AcDbCircle
 10
535.1612949457
 20
1451.4497213947
 30
0.0
 40
575.000062438
100
AcDbArc
 50
267.5796479337
 51
267.5826908852
  0
ARC
  5
1E3
330
13C
100
AcDbEntity
  8
DV2_Default
 62
     7
100
AcDbCircle
 10
516.6612614463
 20
877.2468669449
 30
0.0
 40
0.4999977559783813
100
AcDbArc
 50
268.0030456957
 51
291.3894938428
  0
LINE
  5
1E4
330
13C
100
AcDbEntity
  8
DV2_Default
 62
     7
100
AcDbLine
 10
515.804792865
 20
876.7755578513
 30
0.0
 11
516.4573016782
 21
876.7536816019
 31
0.0
  0
ARC
  5
1E5
330
13C
100
AcDbEntity
  8
DV2_Default
 62
     7
100
AcDbCircle
 10
510.1601948617
 20
877.4931708303
 30
0.0
 40
0.4999927080732858
100
AcDbArc
 50
184.1254903723
 51
267.7823192199
  0
LINE
  5
1E6
330
13C
100
AcDbEntity
  8
DV2_Default
 62
     7
100
AcDbLine
 10
510.14084706
 20
876.9935526054
 30
0.0
 11
510.879335613
 21
876.9626091949
 31
0.0
  0
LINE
  5
1E7
330
13C
100
AcDbEntity
  8
DV2_Default
 62
     7
100
AcDbLine
 10
510.9109139526
 20
876.9612755631
 30
0.0
 11
510.9659476155
 21
876.9589513546
 31
0.0
  0
LINE
  5
1E8
330
13C
100
AcDbEntity
  8
DV2_Default
 62
     7
100
AcDbLine
 10
509.6612949459
 20
878.0991916632
 30
0.0
 11
509.6612949459
 21
877.457191927
 31
0.0
  0
ARC
  5
1E9
330
13C
100
AcDbEntity
  8
DV2_Default
 62
     7
100
AcDbCircle
 10
535.1612949457
 20
1451.4497213947
 30
0.0
 40
575.0000624379999
100
AcDbArc
 50
272.4172739202
 51
272.4203168926
  0
ARC
  5
1EA
330
13C
100
AcDbEntity
  8
DV2_Default
 62
     7
100
AcDbCircle
 10
535.1612949457
 20
1451.4497213947
 30
0.0
 40
575.0000624379999
100
AcDbArc
 50
272.0184086992
 51
272.3174147734
  0
LINE
  5
1EB
330
13C
100
AcDbEntity
  8
DV2_Default
 62
     7
100
AcDbLine
 10
553.5910655569
 20
876.7444879128
 30
0.0
 11
553.6772352503
 21
876.7473768292
 31
0.0
  0
LINE
  5
1EC
330
13C
100
AcDbEntity
  8
DV2_Default
 62
     7
100
AcDbLine
 10
553.8703401617
 20
876.753850845
 30
0.0
 11
554.4112859865
 21
876.7719865402
 31
0.0
  0
ARC
  5
1ED
330
13C
100
AcDbEntity
  8
DV2_Default
 62
     7
100
AcDbCircle
 10
553.6613284403
 20
877.2468669449
 30
0.0
 40
0.4999977653044086
100
AcDbArc
 50
249.6201078469
 51
271.9969539885
  0
ARC
  5
1EE
330
13C
100
AcDbEntity
  8
DV2_Default
 62
     7
100
AcDbCircle
 10
560.1612505216
 20
877.493125198
 30
0.0
 40
0.4999927069237928
100
AcDbArc
 50
272.3489381367
 51
0.0435234843
  0
LINE
  5
1EF
330
13C
100
AcDbEntity
  8
DV2_Default
 62
     7
100
AcDbLine
 10
559.3566422763
 20
876.9589513546
 30
0.0
 11
559.4130558167
 21
876.9613338387
 31
0.0
  0
LINE
  5
1F0
330
13C
100
AcDbEntity
  8
DV2_Default
 62
     7
100
AcDbLine
 10
559.4432461467
 20
876.9626088515
 30
0.0
 11
559.9846136447
 21
876.9854721479
 31
0.0
  0
LINE
  5
1F1
330
13C
100
AcDbEntity
  8
DV2_Default
 62
     7
100
AcDbLine
 10
560.1829395337
 20
876.9938479437
 30
0.0
 11
560.2693056639
 21
876.9974954002
 31
0.0
  0
LINE
  5
1F2
330
13C
100
AcDbEntity
  8
DV2_Default
 62
     7
100
AcDbLine
 10
560.6612949459
 20
877.4590596955
 30
0.0
 11
560.6612949459
 21
878.1095303947
 31
0.0
  0
SPLINE
  5
1F3
330
13C
100
AcDbEntity
  8
DV2_Default
 62
     7
100
AcDbSpline
210
0.0
220
0.0
230
1.0
 70
     8
 71
     3
 72
    19
 73
    15
 74
     0
 42
0.000000001
 43
0.0000000001
 40
0.0
 40
0.0
 40
0.0
 40
0.0
 40
0.0456516541812693
 40
0.1041731052806554
 40
0.1522504536110664
 40
0.1880244608808774
 40
0.2101157075106306
 40
0.2304777361677656
 40
0.2635153873065837
 40
0.3629822534951677
 40
0.5307211034959782
 40
0.6848734810313643
 40
0.8464850930091515
 40
1.0
 40
1.0
 40
1.0
 40
1.0
 10
551.8352203810897
 20
876.9026384163627
 30
0.0
 10
551.8541507065974
 20
876.8828947702198
 30
0.0
 10
551.9007582067102
 20
876.8415960012834
 30
0.0
 10
551.9795204503146
 20
876.794661677125
 30
0.0
 10
552.0591622557429
 20
876.7657780564678
 30
0.0
 10
552.1197299332964
 20
876.753683337711
 30
0.0
 10
552.1560729396202
 20
876.7497122615963
 30
0.0
 10
552.1807699426695
 20
876.7480675498338
 30
0.0
 10
552.2164083325314
 20
876.7468394923162
 30
0.0
 10
552.2829310772689
 20
876.746654908816
 30
0.0
 10
552.4432463371667
 20
876.748938594651
 30
0.0
 10
552.6953802411581
 20
876.7550732210849
 30
0.0
 10
552.9859242564191
 20
876.7637592254423
 30
0.0
 10
553.1573894009488
 20
876.7699337863709
 30
0.0
 10
553.2536953439322
 20
876.7734399632483
 30
0.0
  0
SPLINE
  5
1F4
330
13C
100
AcDbEntity
  8
DV2_Default
 62
     7
100
AcDbSpline
210
0.0
220
0.0
230
1.0
 70
     8
 71
     3
 72
    15
 73
    11
 74
     0
 42
0.000000001
 43
0.0000000001
 40
0.0
 40
0.0
 40
0.0
 40
0.0
 40
0.143466505293629
 40
0.4012361803884502
 40
0.4396380475903552
 40
0.4910712720139504
 40
0.5837658123643552
 40
0.7168778825810247
 40
0.8623943629316492
 40
1.0
 40
1.0
 40
1.0
 40
1.0
 10
558.1208471683171
 20
876.9750761193582
 30
0.0
 10
558.1671824683492
 20
876.9774641066188
 30
0.0
 10
558.2849853081221
 20
876.9847511592501
 30
0.0
 10
558.3235996876161
 20
876.9846652723851
 30
0.0
 10
558.4169030820242
 20
877.000023862975
 30
0.0
 10
558.4858496982012
 20
877.0176979820604
 30
0.0
 10
558.589739990389
 20
877.0648844101736
 30
0.0
 10
558.7069075574763
 20
877.1642629323875
 30
0.0
 10
558.7978627627317
 20
877.3182792408487
 30
0.0
 10
558.8088899613149
 20
877.4274356472489
 30
0.0
 10
558.8135376332278
 20
877.4892866419891
 30
0.0
  0
LINE
  5
1F5
330
13C
100
AcDbEntity
  8
DV2_Default
 62
     7
100
AcDbLine
 10
558.8153736095
 20
877.4319337237
 30
0.0
 11
558.8153736095
 21
878.0302832263
 31
0.0
  0
SPLINE
  5
1F6
330
13C
100
AcDbEntity
  8
DV2_Default
 62
     7
100
AcDbSpline
210
0.0
220
0.0
230
1.0
 70
     8
 71
     3
 72
    19
 73
    15
 74
     0
 42
0.000000001
 43
0.0000000001
 40
0.0
 40
0.0
 40
0.0
 40
0.0
 40
0.0446877422445031
 40
0.1573328977048375
 40
0.2475033487032988
 40
0.3236218015367908
 40
0.3878176898358073
 40
0.4393171271250969
 40
0.4759169160795324
 40
0.5093683175372143
 40
0.5628768309607268
 40
0.7451704697095001
 40
0.9372900390570621
 40
1.0
 40
1.0
 40
1.0
 40
1.0
 10
547.5308274655804
 20
877.2545342179576
 30
0.0
 10
547.5284523524806
 20
877.2293591982898
 30
0.0
 10
547.5220295507264
 20
877.1530434190931
 30
0.0
 10
547.5705148779786
 20
877.0258076171862
 30
0.0
 10
547.6534555843717
 20
876.9091523330901
 30
0.0
 10
547.7462147562566
 20
876.8331985962215
 30
0.0
 10
547.8336614686511
 20
876.7884521239271
 30
0.0
 10
547.906483287335
 20
876.7662318781253
 30
0.0
 10
547.956834542489
 20
876.7571670735382
 30
0.0
 10
547.9946121119401
 20
876.7528270597935
 30
0.0
 10
548.0565045894447
 20
876.7485928535135
 30
0.0
 10
548.163993276705
 20
876.746684782611
 30
0.0
 10
548.3401112273483
 20
876.7465781012995
 30
0.0
 10
548.4595042073472
 20
876.7486671286559
 30
0.0
 10
548.4936971240486
 20
876.749271024476
 30
0.0
  0
LINE
  5
1F7
330
13C
100
AcDbEntity
  8
DV2_Default
 62
     7
100
AcDbLine
 10
547.5231004841
 20
877.7918310895
 30
0.0
 11
547.5231004841
 21
877.226293354
 31
0.0
  0
SPLINE
  5
1F8
330
13C
100
AcDbEntity
  8
DV2_Default
 62
     7
100
AcDbSpline
210
0.0
220
0.0
230
1.0
 70
     8
 71
     3
 72
    16
 73
    12
 74
     0
 42
0.000000001
 43
0.0000000001
 40
0.0
 40
0.0
 40
0.0
 40
0.0
 40
0.1730379777512277
 40
0.3605505944500538
 40
0.4309287742397744
 40
0.4898564405168624
 40
0.5817319462395962
 40
0.703819909535275
 40
0.8396189657153348
 40
0.9854415149855229
 40
1.0
 40
1.0
 40
1.0
 40
1.0
 10
552.8573801202652
 20
876.9626083307988
 30
0.0
 10
552.9106218816879
 20
876.9657639987785
 30
0.0
 10
553.0069180437666
 20
876.9721136576813
 30
0.0
 10
553.0827959090308
 20
876.9789980225112
 30
0.0
 10
553.1541353583177
 20
876.9905714071602
 30
0.0
 10
553.2294289120571
 20
877.0106315860448
 30
0.0
 10
553.3304627283542
 20
877.0570059058333
 30
0.0
 10
553.4427881740787
 20
877.1499817306043
 30
0.0
 10
553.527457776263
 20
877.2906443496757
 30
0.0
 10
553.5677714659098
 20
877.4173302870106
 30
0.0
 10
553.5567043002645
 20
877.4786873568808
 30
0.0
 10
553.5555265133352
 20
877.4851412787236
 30
0.0
  0
LINE
  5
1F9
330
13C
100
AcDbEntity
  8
DV2_Default
 62
     7
100
AcDbLine
 10
553.5586343901
 20
877.4289097089
 30
0.0
 11
553.5586343901
 21
878.0202482323
 31
0.0
  0
SPLINE
  5
1FA
330
13C
100
AcDbEntity
  8
DV2_Default
 62
     7
100
AcDbSpline
210
0.0
220
0.0
230
1.0
 70
     8
 71
     3
 72
    19
 73
    15
 74
     0
 42
0.000000001
 43
0.0000000001
 40
0.0
 40
0.0
 40
0.0
 40
0.0
 40
0.0401684658538586
 40
0.1347039162878748
 40
0.2107082122679526
 40
0.2750723469699042
 40
0.3294970687618771
 40
0.37309292231299
 40
0.4063111126174034
 40
0.4431156788741412
 40
0.5164580306785658
 40
0.7032038582584734
 40
0.8619710947846027
 40
1.0
 40
1.0
 40
1.0
 40
1.0
 10
541.2781485339619
 20
877.2257407699899
 30
0.0
 10
541.2759262841922
 20
877.1997146393362
 30
0.0
 10
541.270342855449
 20
877.1245794894065
 30
0.0
 10
541.3200347481854
 20
877.0007214895933
 30
0.0
 10
541.4033987339933
 20
876.8887098189191
 30
0.0
 10
541.4961520718866
 20
876.8162060329773
 30
0.0
 10
541.5833203694173
 20
876.7741229652571
 30
0.0
 10
541.6550701892444
 20
876.7537329447173
 30
0.0
 10
541.7062544792492
 20
876.7450958723022
 30
0.0
 10
541.7546570684159
 20
876.7400836790929
 30
0.0
 10
541.8373874816922
 20
876.7359681369215
 30
0.0
 10
541.9976852598007
 20
876.7350954411472
 30
0.0
 10
542.2600908968785
 20
876.7399208512774
 30
0.0
 10
542.4420659664036
 20
876.7456715136128
 30
0.0
 10
542.5266337499637
 20
876.7487947133767
 30
0.0
  0
LINE
  5
1FB
330
13C
100
AcDbEntity
  8
DV2_Default
 62
     7
100
AcDbLine
 10
541.2779510194
 20
877.8243255616
 30
0.0
 11
541.2779510194
 21
877.2262931751
 31
0.0
  0
SPLINE
  5
1FC
330
13C
100
AcDbEntity
  8
DV2_Default
 62
     7
100
AcDbSpline
210
0.0
220
0.0
230
1.0
 70
     8
 71
     3
 72
    14
 73
    10
 74
     0
 42
0.000000001
 43
0.0000000001
 40
0.0
 40
0.0
 40
0.0
 40
0.0
 40
0.2202664675987911
 40
0.3104615199377879
 40
0.4330090453167182
 40
0.58073469301082
 40
0.756947148260328
 40
0.953187518301133
 40
1.0
 40
1.0
 40
1.0
 40
1.0
 10
545.1797057351444
 20
876.9644003633939
 30
0.0
 10
545.2129238827949
 20
876.96672682872
 30
0.0
 10
545.256019695888
 20
876.9718292971634
 30
0.0
 10
545.3595694805264
 20
876.9990269125688
 30
0.0
 10
545.4574489622553
 20
877.0440125186898
 30
0.0
 10
545.5641497017062
 20
877.1291676687727
 30
0.0
 10
545.6518173832213
 20
877.2597867008164
 30
0.0
 10
545.6963730479472
 20
877.3896385130669
 30
0.0
 10
545.6876122295887
 20
877.4589201627934
 30
0.0
 10
545.6855597641523
 20
877.4744039147387
 30
0.0
  0
LINE
  5
1FD
330
13C
100
AcDbEntity
  8
DV2_Default
 62
     7
100
AcDbLine
 10
545.6913681813
 20
877.431937996
 30
0.0
 11
545.6913681813
 21
878.0000094828
 31
0.0
  0
LINE
  5
1FE
330
13C
100
AcDbEntity
  8
DV2_Default
 62
     7
100
AcDbLine
 10
529.0468307581
 20
876.9673191816
 30
0.0
 11
529.0446388733
 21
877.7682016029
 31
0.0
  0
SPLINE
  5
1FF
330
13C
100
AcDbEntity
  8
DV2_Default
 62
     7
100
AcDbSpline
210
0.0
220
0.0
230
1.0
 70
     8
 71
     3
 72
    15
 73
    11
 74
     0
 42
0.000000001
 43
0.0000000001
 40
0.0
 40
0.0
 40
0.0
 40
0.0
 40
0.2001010065006641
 40
0.3619866871854319
 40
0.4984809809482894
 40
0.614677004165609
 40
0.7097475401816831
 40
0.7846391492108153
 40
0.8680859535440718
 40
1.0
 40
1.0
 40
1.0
 40
1.0
 10
524.6312225786501
 20
877.4499457551215
 30
0.0
 10
524.6265020115636
 20
877.3937273337762
 30
0.0
 10
524.662231287656
 20
877.2826745783518
 30
0.0
 10
524.7362589786969
 20
877.1570025076109
 30
0.0
 10
524.8262549739342
 20
877.0719873307116
 30
0.0
 10
524.9133930476528
 20
877.0198665683031
 30
0.0
 10
524.9877849941455
 20
876.9919701408023
 30
0.0
 10
525.0431438816113
 20
876.9784047416439
 30
0.0
 10
525.0918726858257
 20
876.9700809529037
 30
0.0
 10
525.1218429604554
 20
876.9665713048473
 30
0.0
 10
525.1428813579838
 20
876.9643932567874
 30
0.0
  0
LINE
  5
200
330
13C
100
AcDbEntity
  8
DV2_Default
 62
     7
100
AcDbLine
 10
524.6312217116
 20
877.9962918619
 30
0.0
 11
524.6312217116
 21
877.4319375108
 31
0.0
  0
SPLINE
  5
201
330
13C
100
AcDbEntity
  8
DV2_Default
 62
     7
100
AcDbSpline
210
0.0
220
0.0
230
1.0
 70
     8
 71
     3
 72
    17
 73
    13
 74
     0
 42
0.000000001
 43
0.0000000001
 40
0.0
 40
0.0
 40
0.0
 40
0.0
 40
0.102897619356333
 40
0.2627418226240871
 40
0.4255884268498722
 40
0.5761448504693261
 40
0.6128860231612127
 40
0.6535551874184328
 40
0.7185543362422949
 40
0.8154787086128211
 40
0.9085784211664284
 40
1.0
 40
1.0
 40
1.0
 40
1.0
 10
521.5500436374142
 20
876.7546895579549
 30
0.0
 10
521.6192508999718
 20
876.751688244954
 30
0.0
 10
521.7716742304641
 20
876.7452029830848
 30
0.0
 10
522.0151528826601
 20
876.7375298975717
 30
0.0
 10
522.2197602474137
 20
876.7354431836931
 30
0.0
 10
522.2953977590199
 20
876.7344935290783
 30
0.0
 10
522.3848493402056
 20
876.7438831485135
 30
0.0
 10
522.4639288808871
 20
876.760888003626
 30
0.0
 10
522.5772761934003
 20
876.8089269137215
 30
0.0
 10
522.6965205319991
 20
876.9092305346322
 30
0.0
 10
522.785667679006
 20
877.0618106458427
 30
0.0
 10
522.7957008918793
 20
877.1658274456706
 30
0.0
 10
522.7999364156497
 20
877.2259060514742
 30
0.0
  0
LINE
  5
202
330
13C
100
AcDbEntity
  8
DV2_Default
 62
     7
100
AcDbLine
 10
522.7994894084
 20
877.2262931753
 30
0.0
 11
522.7994894084
 21
877.7529961351
 31
0.0
  0
SPLINE
  5
203
330
13C
100
AcDbEntity
  8
DV2_Default
 62
     7
100
AcDbSpline
210
0.0
220
0.0
230
1.0
 70
     8
 71
     3
 72
    17
 73
    13
 74
     0
 42
0.000000001
 43
0.0000000001
 40
0.0
 40
0.0
 40
0.0
 40
0.0
 40
0.0169051782152339
 40
0.1628024128758912
 40
0.2786472813629666
 40
0.3761945123050111
 40
0.4588036670137037
 40
0.5258030844655931
 40
0.5750645993680997
 40
0.6220034683082242
 40
0.7002702324275628
 40
1.0
 40
1.0
 40
1.0
 40
1.0
 10
516.7672005862281
 20
877.4850083732745
 30
0.0
 10
516.7659807235145
 20
877.4774926689876
 30
0.0
 10
516.7560045433495
 20
877.4150701509457
 30
0.0
 10
516.7935675391017
 20
877.2962194820575
 30
0.0
 10
516.8667398004301
 20
877.1701295766896
 30
0.0
 10
516.9553664838577
 20
877.0851353906719
 30
0.0
 10
517.0412106562537
 20
877.0327078923408
 30
0.0
 10
517.1146477678002
 20
877.0044642852979
 30
0.0
 10
517.1671579806828
 20
876.9913200229616
 30
0.0
 10
517.209285740281
 20
876.9837876713574
 30
0.0
 10
517.2876145049585
 20
876.9737741427672
 30
0.0
 10
517.3803926355444
 20
876.9674717427454
 30
0.0
 10
517.4652087725244
 20
876.9626007686262
 30
0.0
  0
LINE
  5
204
330
13C
100
AcDbEntity
  8
DV2_Default
 62
     7
100
AcDbLine
 10
516.7639555026
 20
878.011992199
 30
0.0
 11
516.7639555026
 21
877.4319374966
 31
0.0
  0
SPLINE
  5
205
330
13C
100
AcDbEntity
  8
DV2_Default
 62
     7
100
AcDbSpline
210
0.0
220
0.0
230
1.0
 70
     8
 71
     3
 72
    14
 73
    10
 74
     0
 42
0.000000001
 43
0.0000000001
 40
0.0
 40
0.0
 40
0.0
 40
0.0
 40
0.1763442278355588
 40
0.5299314386694511
 40
0.5819096175194437
 40
0.6380520097315387
 40
0.7559481840299721
 40
0.9634556190371071
 40
0.9999999999999999
 40
0.9999999999999999
 40
0.9999999999999999
 40
0.9999999999999999
 10
517.9067789379062
 20
876.7490530012733
 30
0.0
 10
517.9475884155639
 20
876.7482265751864
 30
0.0
 10
518.0573641442932
 20
876.7466546306408
 30
0.0
 10
518.0974802505962
 20
876.7451380510824
 30
0.0
 10
518.1727441301744
 20
876.7501190797092
 30
0.0
 10
518.2302380850206
 20
876.7576572073259
 30
0.0
 10
518.3386384077847
 20
876.7879810398923
 30
0.0
 10
518.4303615062979
 20
876.8458203411637
 30
0.0
 10
518.4807964168659
 20
876.8958238943438
 30
0.0
 10
518.4880985974469
 20
876.9035491557394
 30
0.0
  0
SPLINE
  5
206
330
13C
100
AcDbEntity
  8
DV2_Default
 62
     7
100
AcDbSpline
210
0.0
220
0.0
230
1.0
 70
     8
 71
     3
 72
    18
 73
    14
 74
     0
 42
0.000000001
 43
0.0000000001
 40
0.0
 40
0.0
 40
0.0
 40
0.0
 40
0.1238570973656216
 40
0.2455364653455143
 40
0.3465424355014926
 40
0.4319989583868074
 40
0.5022373696242243
 40
0.5542211991115579
 40
0.587792144831541
 40
0.6216596058505115
 40
0.6810098329974461
 40
0.9038684022304478
 40
1.0
 40
1.0
 40
1.0
 40
1.0
 10
511.507684247155
 20
877.4318924583051
 30
0.0
 10
511.5095677505784
 20
877.3793812566828
 30
0.0
 10
511.5148674616702
 20
877.2899117893267
 30
0.0
 10
511.5838653868956
 20
877.1671534755803
 30
0.0
 10
511.6690203544565
 20
877.08040247637
 30
0.0
 10
511.7566446199514
 20
877.0261474629953
 30
0.0
 10
511.834480542169
 20
876.9967690892788
 30
0.0
 10
511.8939433278664
 20
876.9841041781091
 30
0.0
 10
511.9303255264333
 20
876.9795744934745
 30
0.0
 10
511.9578054780555
 20
876.9773509703156
 30
0.0
 10
512.008465942839
 20
876.9750712291861
 30
0.0
 10
512.072166005831
 20
876.9741909242387
 30
0.0
 10
512.1674486360376
 20
876.9748572423525
 30
0.0
 10
512.200724629837
 20
876.9751266985553
 30
0.0
  0
LINE
  5
207
330
13C
100
AcDbEntity
  8
DV2_Default
 62
     7
100
AcDbLine
 10
511.5072162827
 20
878.0261638799
 30
0.0
 11
511.5072162827
 21
877.4319338638
 31
0.0
  0
SPLINE
  5
208
330
13C
100
AcDbEntity
  8
DV2_Default
 62
     7
100
AcDbSpline
210
0.0
220
0.0
230
1.0
 70
     8
 71
     3
 72
    15
 73
    11
 74
     0
 42
0.000000001
 43
0.0000000001
 40
0.0
 40
0.0
 40
0.0
 40
0.0
 40
0.2000424130499467
 40
0.3619385086636167
 40
0.4984413425167216
 40
0.6146444090307304
 40
0.7097204588426975
 40
0.7846139536103565
 40
0.8680567971774371
 40
1.0
 40
1.0
 40
1.0
 40
1.0
 10
524.631222592496
 20
877.4498994944711
 30
0.0
 10
524.6265229892005
 20
877.3936968633784
 30
0.0
 10
524.662243378179
 20
877.2826699086971
 30
0.0
 10
524.7362601355346
 20
877.1570143306654
 30
0.0
 10
524.8262549229307
 20
877.0719978895553
 30
0.0
 10
524.9133925282323
 20
877.0198759374077
 30
0.0
 10
524.9877843942905
 20
876.9919786234234
 30
0.0
 10
525.0431421701159
 20
876.9784130261538
 30
0.0
 10
525.0918731202353
 20
876.9700884413647
 30
0.0
 10
525.1218440397467
 20
876.9665786608879
 30
0.0
 10
525.1428849472962
 20
876.9644003663933
 30
0.0
  0
SPLINE
  5
209
330
13C
100
AcDbEntity
  8
DV2_Default
 62
     7
100
AcDbSpline
210
0.0
220
0.0
230
1.0
 70
     8
 71
     3
 72
    14
 73
    10
 74
     0
 42
0.000000001
 43
0.0000000001
 40
0.0
 40
0.0
 40
0.0
 40
0.0
 40
0.2202863736875838
 40
0.3104926356462785
 40
0.4330539786568335
 40
0.580797217799608
 40
0.7570254947751885
 40
0.9532780815881085
 40
1.0
 40
1.0
 40
1.0
 40
1.0
 10
545.1797078796536
 20
876.9643931257505
 30
0.0
 10
545.2129284902898
 20
876.9667196058252
 30
0.0
 10
545.256027898313
 20
876.9718224282979
 30
0.0
 10
545.3595867062444
 20
876.9990241164558
 30
0.0
 10
545.4574717755893
 20
877.044016165496
 30
0.0
 10
545.5641753806613
 20
877.1291816184626
 30
0.0
 10
545.6518351289897
 20
877.2598109454578
 30
0.0
 10
545.6963818370779
 20
877.3896418463685
 30
0.0
 10
545.6876219800471
 20
877.4588976802675
 30
0.0
 10
545.6855732953645
 20
877.4743506701633
 30
0.0
  0
LINE
  5
20A
330
13C
100
AcDbEntity
  8
DV2_Default
 62
     7
100
AcDbLine
 10
543.2582645431
 20
876.7741291516
 30
0.0
 11
543.264536889
 21
876.7746684844
 31
0.0
  0
ARC
  5
20B
330
13C
100
AcDbEntity
  8
DV2_Default
 62
     7
100
AcDbCircle
 10
296.1131709579
 20
891.7605985316
 30
0.0
 40
199.99245967541
100
AcDbArc
 50
2.7100963727
 51
12.529467073
  0
ARC
  5
20C
330
13C
100
AcDbEntity
  8
DV2_Default
 62
     7
100
AcDbCircle
 10
492.8057130274
 20
935.4784485821
 30
0.0
 40
1.499999549951
100
AcDbArc
 50
134.4351140153
 51
192.7539727643
  0
ELLIPSE
  5
20D
330
13C
100
AcDbEntity
  8
DV2_Default
 62
     7
100
AcDbEllipse
 10
501.8708862463
 20
904.1544645563
 30
0.0
 11
-3.388095606607169
 21
-4.931166000010217
 31
0.0
210
0.0
220
0.0
230
1.0
 40
0.9979813167
 41
0.2348456930165916
 42
0.5210418026656353
  0
ARC
  5
20E
330
13C
100
AcDbEntity
  8
DV2_Default
 62
     7
100
AcDbCircle
 10
497.3801026658
 20
901.29116956
 30
0.0
 40
1.499999810609037
100
AcDbArc
 50
182.8443261179
 51
239.6602621414
  0
ARC
  5
20F
330
13C
100
AcDbEntity
  8
DV2_Default
 62
     7
100
AcDbCircle
 10
498.0134011852
 20
933.9690149203
 30
0.0
 40
5.995551222884436
100
AcDbArc
 50
122.6990043468
 51
127.2549932196
  0
ARC
  5
210
330
13C
100
AcDbEntity
  8
DV2_Default
 62
     7
100
AcDbCircle
 10
507.4492019888
 20
920.3970100422
 30
0.0
 40
22.52062744643971
100
AcDbArc
 50
125.4596046039
 51
134.3633699745
  0
ARC
  5
211
330
13C
100
AcDbEntity
  8
DV2_Default
 62
     7
100
AcDbCircle
 10
507.8483113962
 20
920.3317399015
 30
0.0
 40
23.22797104820813
100
AcDbArc
 50
241.0993550407
 51
249.5174655645
  0
LINE
  5
212
330
13C
100
AcDbEntity
  8
DV2_Default
 62
     7
100
AcDbLine
 10
491.1697389335
 20
944.2204179465
 30
0.0
 11
492.7477653108
 21
944.9230005558
 31
0.0
  0
LINE
  5
213
330
13C
100
AcDbEntity
  8
DV2_Default
 62
     7
100
AcDbLine
 10
487.587963895
 20
959.0504146386
 30
0.0
 11
485.0667714141
 21
957.9279074249
 31
0.0
  0
ARC
  5
214
330
13C
100
AcDbEntity
  8
DV2_Default
 62
     7
100
AcDbCircle
 10
490.5596342872
 20
945.5907354181
 30
0.0
 40
1.499999999999972
100
AcDbArc
 50
212.9250952458
 51
294.0
  0
ARC
  5
215
330
13C
100
AcDbEntity
  8
DV2_Default
 62
     7
100
AcDbCircle
 10
485.6768763787
 20
956.5575892385
 30
0.0
 40
1.500000000000013
100
AcDbArc
 50
114.0
 51
195.0589666336
  0
ARC
  5
216
330
13C
100
AcDbEntity
  8
DV2_Default
 62
     7
100
AcDbCircle
 10
522.8223832899
 20
966.5258135127
 30
0.0
 40
39.95948969179999
100
AcDbArc
 50
195.0220423148
 51
212.9770236428
  0
LINE
  5
217
330
13C
100
AcDbEntity
  8
DV2_Default
 62
     7
100
AcDbLine
 10
505.4512286944
 20
878.339857371
 30
0.0
 11
505.4519082879
 21
878.4184226931
 31
0.0
  0
ARC
  5
218
330
13C
100
AcDbEntity
  8
DV2_Default
 62
     7
100
AcDbCircle
 10
528.1921343912
 20
888.3299682187
 30
0.0
 40
11.60891708398813
100
AcDbArc
 50
264.5755872827
 51
271.1293816496
  0
ARC
  5
219
330
13C
100
AcDbEntity
  8
DV2_Default
 62
     7
100
AcDbCircle
 10
528.4094386057
 20
877.307120627
 30
0.0
 40
0.5839277347358638
100
AcDbArc
 50
271.1293816496
 51
324.4140335605
  0
LINE
  5
21A
330
13C
100
AcDbEntity
  8
DV2_Default
 62
     7
100
AcDbLine
 10
564.7769274575
 20
878.240621479
 30
0.0
 11
565.1568470225
 21
878.3912157515
 31
0.0
  0
LINE
  5
21B
330
13C
100
AcDbEntity
  8
DV2_Default
 62
     7
100
AcDbLine
 10
534.015496788
 20
876.9673191816
 30
0.0
 11
528.8843139336
 21
876.9673191816
 31
0.0
  0
ENDBLK
  5
21D
330
13C
100
AcDbEntity
  8
0
100
AcDbBlockEnd
  0
BLOCK
  5
248
330
21E
100
AcDbEntity
  8
0
100
AcDbBlockBegin
  2
SE2
 70
     0
 10
0.0
 20
0.0
 30
0.0
  3
SE2
  1

  0
LINE
  5
221
330
21E
100
AcDbEntity
  8
DV3_Default
 62
     7
100
AcDbLine
 10
84.6070222306
 20
348.4479047461
 30
0.0
 11
84.6070222306
 21
396.4480630585
 31
0.0
  0
LINE
  5
222
330
21E
100
AcDbEntity
  8
DV3_Default
 62
     7
100
AcDbLine
 10
55.1071351539
 20
348.4479047461
 30
0.0
 11
84.6070222306
 21
348.4479047461
 31
0.0
  0
LINE
  5
223
330
21E
100
AcDbEntity
  8
DV3_Default
 62
     7
100
AcDbLine
 10
84.6070222306
 20
396.4480630585
 30
0.0
 11
58.0789374543
 21
396.4480630585
 31
0.0
  0
ARC
  5
224
330
21E
100
AcDbEntity
  8
DV3_Default
 62
     7
100
AcDbCircle
 10
40.1070222769
 20
372.4478376702
 30
0.0
 40
29.98333793682284
100
AcDbArc
 50
53.1732950716
 51
239.9143944541
  0
ARC
  5
225
330
21E
100
AcDbEntity
  8
DV3_Default
 62
     7
100
AcDbCircle
 10
40.1070222769
 20
372.4478376702
 30
0.0
 40
29.98333793682284
100
AcDbArc
 50
300.0980000505
 51
306.8276373155
  0
SPLINE
  5
226
330
21E
100
AcDbEntity
  8
DV3_Default
 62
     7
100
AcDbSpline
210
0.0
220
0.0
230
1.0
 70
     8
 71
     3
 72
   119
 73
   115
 74
     0
 42
0.000000001
 43
0.0000000001
 40
0.0
 40
0.0
 40
0.0
 40
0.0
 40
0.0130455618373791
 40
0.0257877476156905
 40
0.0376798784456691
 40
0.0487996692497782
 40
0.0593765851773114
 40
0.0705680360443337
 40
0.0808039382518852
 40
0.0900810097812276
 40
0.0971777578761995
 40
0.1034673996630951
 40
0.1093812746979563
 40
0.1153642865350767
 40
0.1218809650483924
 40
0.1318084272317511
 40
0.1420561532301048
 40
0.151522563951988
 40
0.1607618550750621
 40
0.1702499988696777
 40
0.1798666178496901
 40
0.1892922138606283
 40
0.1983880314632859
 40
0.2071432402691492
 40
0.2156080112746329
 40
0.223794060633106
 40
0.2317608169264476
 40
0.2418741350446853
 40
0.2518297790297173
 40
0.2631343558766117
 40
0.2754564189755531
 40
0.2881101173659467
 40
0.3011399209635031
 40
0.314779773463643
 40
0.3291976315421868
 40
0.3445665787658746
 40
0.3608509613563311
 40
0.3764255224511009
 40
0.3913592603687085
 40
0.4066846468237488
 40
0.4222707487397594
 40
0.4380569565047076
 40
0.4468777002511905
 40
0.4528688357160155
 40
0.45885830561375
 40
0.4636218806182564
 40
0.4667996651498346
 40
0.4693459650276965
 40
0.4709388916755118
 40
0.4723284727383985
 40
0.4736066348525204
 40
0.4748942320067496
 40
0.4767352627677726
 40
0.4802416291340196
 40
0.4844579878162199
 40
0.4892585959653356
 40
0.4940765064329193
 40
0.4987960863691007
 40
0.5034166837387662
 40
0.5080017512777245
 40
0.5127010863912346
 40
0.5169092927918241
 40
0.5201819323553809
 40
0.5233640870574593
 40
0.5253378683221666
 40
0.526911225618068
 40
0.5282435328589417
 40
0.5298199454258968
 40
0.5316535636631325
 40
0.5348439150571737
 40
0.5411719335981595
 40
0.5486312871187423
 40
0.5572778608675135
 40
0.5670647452916779
 40
0.5778350230426909
 40
0.5918837130822725
 40
0.6067830581168188
 40
0.6209445062635671
 40
0.6350462008343166
 40
0.6491537184657665
 40
0.6624899017892315
 40
0.6750224226570951
 40
0.6868908554975968
 40
0.6983378954134858
 40
0.7097771800742928
 40
0.7212999911695279
 40
0.7328841028530089
 40
0.7445355048443157
 40
0.7539636589965528
 40
0.7628389412778315
 40
0.7718021270396808
 40
0.7808093626290493
 40
0.7896240124286612
 40
0.7981251656730632
 40
0.8072586983987169
 40
0.8178356498326397
 40
0.828018946897239
 40
0.837802632386428
 40
0.847495310575596
 40
0.8581770325071091
 40
0.869912247538541
 40
0.8816874873093573
 40
0.8891101853996874
 40
0.8969035403661441
 40
0.9055043402763956
 40
0.9142588775275412
 40
0.9237227125348573
 40
0.9339127279542241
 40
0.9448333732334188
 40
0.9548409734172766
 40
0.9651715695354692
 40
0.9760941858226561
 40
0.9876720363892604
 40
1.0
 40
1.0
 40
1.0
 40
1.0
 10
56.07242327498047
 20
187.0105792636414
 30
0.0
 10
55.96469519387866
 20
188.9037113526647
 30
0.0
 10
55.79535852069368
 20
192.0749021706397
 30
0.0
 10
55.65500986711798
 20
197.5024659517408
 30
0.0
 10
55.55784041554111
 20
202.6198819621187
 30
0.0
 10
55.48516676893744
 20
207.8652876117697
 30
0.0
 10
55.41793984087368
 20
213.2282864006256
 30
0.0
 10
55.35692567841716
 20
218.811215174087
 30
0.0
 10
55.30273070917498
 20
224.4461397297334
 30
0.0
 10
55.26153177546169
 20
229.5766757881596
 30
0.0
 10
55.23072422278896
 20
234.0979075077997
 30
0.0
 10
55.20775858560759
 20
238.0577497862918
 30
0.0
 10
55.18879712589175
 20
241.872191742881
 30
0.0
 10
55.17225155826952
 20
245.8095963172577
 30
0.0
 10
55.15524294416663
 20
250.6939789750194
 30
0.0
 10
55.13955828788891
 20
256.6334022778748
 30
0.0
 10
55.12732815650453
 20
263.3694411805923
 30
0.0
 10
55.11926501159867
 20
270.049209424
 30
0.0
 10
55.11410970120721
 20
276.6142632352743
 30
0.0
 10
55.11087839379353
 20
283.2407355105639
 30
0.0
 10
55.10899116440633
 20
289.8969550237103
 30
0.0
 10
55.10799343661377
 20
296.4032452610261
 30
0.0
 10
55.10751738273931
 20
302.6101623526273
 30
0.0
 10
55.10731308892085
 20
308.4626491014182
 30
0.0
 10
55.10723457935396
 20
313.9472884251493
 30
0.0
 10
55.10720591068515
 20
319.0723789757373
 30
0.0
 10
55.10719143654696
 20
324.3125001012821
 30
0.0
 10
55.10717939380543
 20
329.6019749272144
 30
0.0
 10
55.10716637591076
 20
335.1017773762589
 30
0.0
 10
55.10715371605968
 20
340.4870422870454
 30
0.0
 10
55.1071416271651
 20
345.6863517798618
 30
0.0
 10
55.10713030671787
 20
350.4597562049852
 30
0.0
 10
55.10712105133734
 20
354.7185887418974
 30
0.0
 10
55.10711179963575
 20
358.4902592636876
 30
0.0
 10
55.10710643291235
 20
361.7979968420174
 30
0.0
 10
55.1070976086513
 20
364.640552497669
 30
0.0
 10
55.10709951203665
 20
366.9246386926886
 30
0.0
 10
55.10708624728243
 20
368.6718051611721
 30
0.0
 10
55.1071083125461
 20
369.9531125717519
 30
0.0
 10
55.1069676791891
 20
371.0445186305021
 30
0.0
 10
55.10274746885764
 20
372.0011147352972
 30
0.0
 10
55.08892478472136
 20
372.738888740555
 30
0.0
 10
55.0664955309545
 20
373.2736682344423
 30
0.0
 10
55.04470101924792
 20
373.6331748187808
 30
0.0
 10
55.0218472773501
 20
373.9212230151122
 30
0.0
 10
55.00037033546536
 20
374.153826236271
 30
0.0
 10
54.94141317917101
 20
374.6246677151172
 30
0.0
 10
54.85244492112562
 20
375.1702751715728
 30
0.0
 10
54.71871628432378
 20
375.8143259507574
 30
0.0
 10
54.54851345692323
 20
376.4859771866267
 30
0.0
 10
54.30401228142797
 20
377.2799073864365
 30
0.0
 10
53.93978424067787
 20
378.247776454713
 30
0.0
 10
53.2883001381031
 20
379.6535258841518
 30
0.0
 10
52.09960517098592
 20
381.5563592936347
 30
0.0
 10
50.11854881510529
 20
383.7306390455744
 30
0.0
 10
47.46978174752421
 20
385.6257060698718
 30
0.0
 10
44.35533198862197
 20
386.9257812486473
 30
0.0
 10
41.07300211037072
 20
387.4976682530689
 30
0.0
 10
37.80054722895128
 20
387.3486012729879
 30
0.0
 10
34.64014763186214
 20
386.5065930473612
 30
0.0
 10
31.82116981850713
 20
385.0460074382082
 30
0.0
 10
29.60779616234839
 20
383.2315246234538
 30
0.0
 10
27.98179173610515
 20
381.3345565398466
 30
0.0
 10
26.93392003018477
 20
379.6627089119881
 30
0.0
 10
26.26680040985403
 20
378.231971497879
 30
0.0
 10
25.89047057146493
 20
377.2248173010164
 30
0.0
 10
25.63804153274024
 20
376.3750669091476
 30
0.0
 10
25.54621344043537
 20
376.0040033031119
 30
0.0
 10
25.4507544526929
 20
375.5918040012483
 30
0.0
 10
25.33229954053541
 20
374.9832088485555
 30
0.0
 10
25.23363442641546
 20
374.3035749916955
 30
0.0
 10
25.16856849394086
 20
373.6296030527253
 30
0.0
 10
25.134678038992
 20
373.0458294108893
 30
0.0
 10
25.11852444275721
 20
372.5001667175418
 30
0.0
 10
25.11290953886186
 20
371.9757999297726
 30
0.0
 10
25.11074547296604
 20
371.3239465552414
 30
0.0
 10
25.10841794086355
 20
370.3489920711204
 30
0.0
 10
25.10705343063854
 20
369.0848454192688
 30
0.0
 10
25.1061440239569
 20
367.504813278148
 30
0.0
 10
25.1057205545087
 20
365.5720299749897
 30
0.0
 10
25.10553751537065
 20
363.2914690772815
 30
0.0
 10
25.10551029966587
 20
360.710433015828
 30
0.0
 10
25.1055171749841
 20
357.8265562701721
 30
0.0
 10
25.1055299278449
 20
354.5848225363803
 30
0.0
 10
25.10554154011585
 20
350.885070269089
 30
0.0
 10
25.10555578728248
 20
346.6417721390052
 30
0.0
 10
25.10557087495954
 20
341.8075214925144
 30
0.0
 10
25.10558676953432
 20
336.7169325241852
 30
0.0
 10
25.1056021667582
 20
331.6000335477582
 30
0.0
 10
25.10561709843728
 20
326.6029207148046
 30
0.0
 10
25.10563213093106
 20
321.3794847401958
 30
0.0
 10
25.10564044136471
 20
315.8943071722046
 30
0.0
 10
25.10561593522845
 20
310.2738807881944
 30
0.0
 10
25.10550441095509
 20
304.4417978820281
 30
0.0
 10
25.10518949625108
 20
298.06272424575
 30
0.0
 10
25.10442666639076
 20
291.1696291065398
 30
0.0
 10
25.10281290920682
 20
284.0488975253929
 30
0.0
 10
25.09998376904202
 20
277.1138173138644
 30
0.0
 10
25.09524362532463
 20
270.0881230013989
 30
0.0
 10
25.08725291124928
 20
262.6813757839809
 30
0.0
 10
25.0739862591835
 20
254.9331913382317
 30
0.0
 10
25.05602102094222
 20
248.1038252735275
 30
0.0
 10
25.03514761208024
 20
242.3040796400823
 30
0.0
 10
25.01273612551796
 20
237.3107290706706
 30
0.0
 10
24.98429365578302
 20
232.1969550842612
 30
0.0
 10
24.94837110443955
 20
226.9403688226682
 30
0.0
 10
24.90434373230086
 20
221.5932263822631
 30
0.0
 10
24.85061360262392
 20
216.1262121551094
 30
0.0
 10
24.79049584964702
 20
210.8422494001734
 30
0.0
 10
24.7237619660569
 20
205.8693863740997
 30
0.0
 10
24.64749256549931
 20
201.0848435798851
 30
0.0
 10
24.54535400031738
 20
196.4477062869927
 30
0.0
 10
24.39378821377956
 20
191.4587189477913
 30
0.0
 10
24.23039221587901
 20
188.5321028612919
 30
0.0
 10
24.1240024394659
 20
186.7134232990034
 30
0.0
  0
LINE
  5
227
330
21E
100
AcDbEntity
  8
DV3_Default
 62
     7
100
AcDbLine
 10
84.8070222306
 20
396.2463343559
 30
0.0
 11
84.8070222306
 21
348.6496820219
 31
0.0
  0
ELLIPSE
  5
228
330
21E
100
AcDbEntity
  8
DV3_Default
 62
     7
100
AcDbEllipse
 10
131.6857455917
 20
372.3749657937
 30
0.0
 11
1.40321169034334
 21
22.5990999121979
 31
0.0
210
0.0
220
0.0
230
1.0
 40
0.1059303317
 41
3.951092194738496
 42
4.58714807522059
  0
ARC
  5
229
330
21E
100
AcDbEntity
  8
DV3_Default
 62
     7
100
AcDbCircle
 10
133.4824020678
 20
392.7369786175
 30
0.0
 40
0.5178978890633072
100
AcDbArc
 50
350.7373672096
 51
8.0387791268
  0
ELLIPSE
  5
22A
330
21E
100
AcDbEntity
  8
DV3_Default
 62
     7
100
AcDbEllipse
 10
133.6955264917
 20
392.6695202938
 30
0.0
 11
-0.2919512774887806
 21
0.06902500685186663
 31
0.0
210
0.0
220
0.0
230
1.0
 40
0.84823913
 41
3.141309520644604
 42
3.330536521091651
  0
LINE
  5
22B
330
21E
100
AcDbEntity
  8
DV3_Default
 62
     7
100
AcDbLine
 10
85.0087675377
 20
348.4496896373
 30
0.0
 11
117.8815379627
 21
348.7365659588
 31
0.0
  0
LINE
  5
22C
330
21E
100
AcDbEntity
  8
DV3_Default
 62
     7
100
AcDbLine
 10
128.953030514
 20
348.8331854105
 30
0.0
 11
129.3179622064
 21
348.8363701211
 31
0.0
  0
LINE
  5
22D
330
21E
100
AcDbEntity
  8
DV3_Default
 62
     7
100
AcDbLine
 10
132.0910499985
 20
396.0354458862
 30
0.0
 11
85.0087675377
 21
396.4463267405
 31
0.0
  0
ARC
  5
22E
330
21E
100
AcDbEntity
  8
DV3_Default
 62
     7
100
AcDbCircle
 10
85.0070222306
 20
348.6496820219
 30
0.0
 40
0.1999999999999988
100
AcDbArc
 50
180.0
 51
270.5000000001
  0
ARC
  5
22F
330
21E
100
AcDbEntity
  8
DV3_Default
 62
     7
100
AcDbCircle
 10
85.0070222306
 20
396.2463343559
 30
0.0
 40
0.2000000000000077
100
AcDbArc
 50
89.4999999999
 51
180.0
  0
SPLINE
  5
230
330
21E
100
AcDbEntity
  8
DV3_Default
 62
     7
100
AcDbSpline
210
0.0
220
0.0
230
1.0
 70
     8
 71
     3
 72
    20
 73
    16
 74
     0
 42
0.000000001
 43
0.0000000001
 40
0.0
 40
0.0
 40
0.0
 40
0.0
 40
0.0364487130826047
 40
0.0840466736455447
 40
0.1345002457845208
 40
0.1941115648300539
 40
0.2723843056616628
 40
0.3803226795451044
 40
0.4789171437116918
 40
0.5831228682092153
 40
0.6836942439935026
 40
0.7824388653276192
 40
0.8801799031191584
 40
0.9773042574328948
 40
1.0
 40
1.0
 40
1.0
 40
1.0
 10
129.3197320844253
 20
348.8491853700785
 30
0.0
 10
129.4360345213086
 20
348.8533792096126
 30
0.0
 10
129.660707237367
 20
348.8626785979055
 30
0.0
 10
129.9883935112221
 20
349.0171759764766
 30
0.0
 10
130.2628949754797
 20
349.2285784336454
 30
0.0
 10
130.5067103530623
 20
349.5077728311716
 30
0.0
 10
130.7531420986831
 20
349.8988256542852
 30
0.0
 10
130.9977156822311
 20
350.4269470549951
 30
0.0
 10
131.2493422881253
 20
351.1222263598448
 30
0.0
 10
131.4888874259951
 20
351.9252555021603
 30
0.0
 10
131.7251657383835
 20
352.8560322780905
 30
0.0
 10
131.9544353830889
 20
353.8885562028741
 30
0.0
 10
132.1752817690894
 20
355.0158610126115
 30
0.0
 10
132.3432925824708
 20
355.9467733693705
 30
0.0
 10
132.4252944510144
 20
356.4633062569425
 30
0.0
 10
132.4434254180418
 20
356.5777205649374
 30
0.0
  0
SPLINE
  5
231
330
21E
100
AcDbEntity
  8
DV3_Default
 62
     7
100
AcDbSpline
210
0.0
220
0.0
230
1.0
 70
     8
 71
     3
 72
    16
 73
    12
 74
     0
 42
0.000000001
 43
0.0000000001
 40
0.0
 40
0.0
 40
0.0
 40
0.0
 40
0.041458066127632
 40
0.2122172873249074
 40
0.3864809372354135
 40
0.5698816272855072
 40
0.6954376550820324
 40
0.7914951201105497
 40
0.8766169314149089
 40
0.9565064858504662
 40
1.0
 40
1.0
 40
1.0
 40
1.0
 10
133.9948627625253
 20
392.8094429976723
 30
0.0
 10
133.9833879374402
 20
392.8867980632971
 30
0.0
 10
133.932889794888
 20
393.2246473531799
 30
0.0
 10
133.8195939519493
 20
393.8154661924883
 30
0.0
 10
133.6482952808453
 20
394.4821579791601
 30
0.0
 10
133.4564177095022
 20
394.9974965715247
 30
0.0
 10
133.2374987543842
 20
395.3861760652359
 30
0.0
 10
132.9948349399582
 20
395.6746736347816
 30
0.0
 10
132.6976596161515
 20
395.8927090274727
 30
0.0
 10
132.3645717250225
 20
396.0274704155243
 30
0.0
 10
132.1719337405558
 20
396.0205537457766
 30
0.0
 10
132.0912904673872
 20
396.0172106359834
 30
0.0
  0
ARC
  5
232
330
21E
100
AcDbEntity
  8
DV3_Default
 62
     7
100
AcDbCircle
 10
20.6095676853
 20
383.3065062172
 30
0.0
 40
114.6117177935968
100
AcDbArc
 50
354.8927600438
 51
3.4955814587
  0
ARC
  5
233
330
21E
100
AcDbEntity
  8
DV3_Default
 62
     7
100
AcDbCircle
 10
118.983618244
 20
313.32654464
 30
0.0
 40
1.417288688006394
100
AcDbArc
 50
320.2347705737
 51
350.7763545514
  0
ARC
  5
234
330
21E
100
AcDbEntity
  8
DV3_Default
 62
     7
100
AcDbCircle
 10
-51326.6783608942
 20
12677.221413819
 30
0.0
 40
52911.9229810765
100
AcDbArc
 50
346.4865482638
 51
346.5533648506
  0
SPLINE
  5
235
330
21E
100
AcDbEntity
  8
DV3_Default
 62
     7
100
AcDbSpline
210
0.0
220
0.0
230
1.0
 70
     8
 71
     3
 72
    11
 73
     7
 74
     0
 42
0.000000001
 43
0.0000000001
 40
0.0
 40
0.0
 40
0.0
 40
0.0
 40
0.9561441605484048
 40
0.9561441605484048
 40
0.9561441605484048
 40
0.9999999999999999
 40
0.9999999999999999
 40
0.9999999999999999
 40
0.9999999999999999
 10
134.7597637066888
 20
373.0497846417471
 30
0.0
 10
134.7554951688624
 20
373.035478099379
 30
0.0
 10
134.7491713719902
 20
373.0216382475462
 30
0.0
 10
134.7408530310936
 20
373.0085822470298
 30
0.0
 10
134.7404714904872
 20
373.0079834023302
 30
0.0
 10
134.7400857788286
 20
373.0073862023432
 30
0.0
 10
134.7396959016367
 20
373.0067906660192
 30
0.0
  0
SPLINE
  5
236
330
21E
100
AcDbEntity
  8
DV3_Default
 62
     7
100
AcDbSpline
210
0.0
220
0.0
230
1.0
 70
     8
 71
     5
 72
    16
 73
    10
 74
     0
 42
0.000000001
 43
0.0000000001
 40
0.0
 40
0.0
 40
0.0
 40
0.0
 40
0.0
 40
0.0
 40
0.2080302696773869
 40
0.4160605393547738
 40
0.6240908090321606
 40
0.8321210787095475
 40
1.0
 40
1.0
 40
1.0
 40
1.0
 40
1.0
 40
1.0
 10
120.0730481472152
 20
312.4199853693776
 30
0.0
 10
120.0722790820375
 20
312.4085582797653
 30
0.0
 10
120.0699912117748
 20
312.3860654950265
 30
0.0
 10
120.0644868552184
 20
312.3534042836785
 30
0.0
 10
120.0531923076364
 20
312.3121088693014
 30
0.0
 10
120.0337438777105
 20
312.2663079070309
 30
0.0
 10
120.0142599882846
 20
312.2330864920065
 30
0.0
 10
119.9978521873553
 20
312.2103344988714
 30
0.0
 10
119.9864907178426
 20
312.1964329092011
 30
0.0
 10
119.9812615932688
 20
312.1903751241679
 30
0.0
  0
ARC
  5
237
330
21E
100
AcDbEntity
  8
DV3_Default
 62
     7
100
AcDbCircle
 10
120.667763743
 20
318.0468716892
 30
0.0
 40
7.407514124275089
100
AcDbArc
 50
171.5261626144
 51
179.5471155509
  0
ARC
  5
238
330
21E
100
AcDbEntity
  8
DV3_Default
 62
     7
100
AcDbCircle
 10
22.1200048288
 20
383.9089210705
 30
0.0
 40
113.1558908461785
100
AcDbArc
 50
354.4819056552
 51
354.5208762021
  0
ARC
  5
239
330
21E
100
AcDbEntity
  8
DV3_Default
 62
     7
100
AcDbCircle
 10
120.5405840666
 20
318.1159446748
 30
0.0
 40
7.281863958455773
100
AcDbArc
 50
179.9865487099
 51
227.210332176
  0
SPLINE
  5
23A
330
21E
100
AcDbEntity
  8
DV3_Default
 62
     7
100
AcDbSpline
210
0.0
220
0.0
230
1.0
 70
     8
 71
     3
 72
    17
 73
    13
 74
     0
 42
0.000000001
 43
0.0000000001
 40
0.0
 40
0.0
 40
0.0
 40
0.0
 40
0.1512496062067928
 40
0.2648683568347483
 40
0.3593746920752273
 40
0.4640193804655914
 40
0.555668816771488
 40
0.6499346285269669
 40
0.7581076439584737
 40
0.8296842720632428
 40
0.8903607337324783
 40
1.0
 40
1.0
 40
1.0
 40
1.0
 10
115.5297567109388
 20
312.8330163404335
 30
0.0
 10
115.7682545010508
 20
312.6183145697282
 30
0.0
 10
116.1226594975357
 20
312.3063373263292
 30
0.0
 10
116.7143885684205
 20
311.9493774328302
 30
0.0
 10
117.2366790493445
 20
311.7194324963244
 30
0.0
 10
117.7340350752275
 20
311.5779897239998
 30
0.0
 10
118.2222788685059
 20
311.5160874177843
 30
0.0
 10
118.695757199108
 20
311.5297147380952
 30
0.0
 10
119.1052326672741
 20
311.6199114389886
 30
0.0
 10
119.4230332990781
 20
311.7524323004316
 30
0.0
 10
119.722097166711
 20
311.9295898723305
 30
0.0
 10
119.869695783631
 20
312.076290448933
 30
0.0
 10
119.9812239984005
 20
312.1903790785549
 30
0.0
  0
ARC
  5
23B
330
21E
100
AcDbEntity
  8
DV3_Default
 62
     7
100
AcDbCircle
 10
89.6660576083
 20
371.7172028932
 30
0.0
 40
48.99688294063936
100
AcDbArc
 50
22.2810171487
 51
25.2287311779
  0
ARC
  5
23C
330
21E
100
AcDbEntity
  8
DV3_Default
 62
     7
100
AcDbCircle
 10
11905.9422738163
 20
-1476.7182530882
 30
0.0
 40
11928.56501267168
100
AcDbArc
 50
171.197310582
 51
171.3411375651
  0
LINE
  5
23D
330
21E
100
AcDbEntity
  8
DV3_Default
 62
     7
100
AcDbLine
 10
84.6070222306
 20
349.4478378307
 30
0.0
 11
84.8070222306
 21
349.4478378307
 31
0.0
  0
LINE
  5
23E
330
21E
100
AcDbEntity
  8
DV3_Default
 62
     7
100
AcDbLine
 10
84.8070222306
 20
395.4478378307
 30
0.0
 11
84.6070222306
 21
395.4478378307
 31
0.0
  0
ARC
  5
23F
330
21E
100
AcDbEntity
  8
DV3_Default
 62
     7
100
AcDbCircle
 10
40.1517903161
 20
140.1326126503
 30
0.0
 40
33.74183127316742
100
AcDbArc
 50
124.9659883207
 51
269.9670216683
  0
SPLINE
  5
240
330
21E
100
AcDbEntity
  8
DV3_Default
 62
     7
100
AcDbSpline
210
0.0
220
0.0
230
1.0
 70
     8
 71
     3
 72
    16
 73
    12
 74
     0
 42
0.000000001
 43
0.0000000001
 40
0.0
 40
0.0
 40
0.0
 40
0.0
 40
0.0601226675450808
 40
0.0601226675450808
 40
0.2950920006588106
 40
0.2950920006588106
 40
0.5300613337725404
 40
0.5300613337725404
 40
0.7650306668862701
 40
0.7650306668862701
 40
1.0
 40
1.0
 40
1.0
 40
1.0
 10
24.12427879664089
 20
186.714873548023
 30
0.0
 10
24.07166243718918
 20
186.2902689541465
 30
0.0
 10
24.04580124582148
 20
185.8634765166789
 30
0.0
 10
24.05276355263031
 20
183.7684343468871
 30
0.0
 10
24.47517444221069
 20
182.1017192662622
 30
0.0
 10
26.09068859087105
 20
179.0255614562479
 30
0.0
 10
27.28345228242594
 20
177.6187815722736
 30
0.0
 10
30.25972379301417
 20
175.2824145275865
 30
0.0
 10
32.0422944154687
 20
174.3548941135469
 30
0.0
 10
35.92802325013046
 20
173.1229951700555
 30
0.0
 10
38.02984296011672
 20
172.8200357125241
 30
0.0
 10
40.13238793623418
 20
172.8537345274551
 30
0.0
  0
SPLINE
  5
241
330
21E
100
AcDbEntity
  8
DV3_Default
 62
     7
100
AcDbSpline
210
0.0
220
0.0
230
1.0
 70
     8
 71
     3
 72
    16
 73
    12
 74
     0
 42
0.000000001
 43
0.0000000001
 40
0.0
 40
0.0
 40
0.0
 40
0.0
 40
0.235991532565771
 40
0.235991532565771
 40
0.471983065131542
 40
0.471983065131542
 40
0.7079745976973129
 40
0.7079745976973129
 40
0.9439661302630837
 40
0.9439661302630837
 40
1.0
 40
1.0
 40
1.0
 40
1.0
 10
40.13238793623418
 20
172.8537345274551
 30
0.0
 10
42.22807923797755
 20
172.8536471554605
 30
0.0
 10
44.32295935293667
 20
173.1906336272032
 30
0.0
 10
48.19533086414586
 20
174.4880244174941
 30
0.0
 10
49.97129852439486
 20
175.4479182267689
 30
0.0
 10
52.93510180907565
 20
177.8454155593833
 30
0.0
 10
54.12177120918543
 20
179.2820756935072
 30
0.0
 10
55.72577601132237
 20
182.4146676565579
 30
0.0
 10
56.14248025489925
 20
184.1093668445318
 30
0.0
 10
56.14248108580242
 20
186.2072973592852
 30
0.0
 10
56.11898840014533
 20
186.6098116471725
 30
0.0
 10
56.07242327225357
 20
187.0105792871268
 30
0.0
  0
ARC
  5
242
330
21E
100
AcDbEntity
  8
DV3_Default
 62
     7
100
AcDbCircle
 10
40.1129638546
 20
140.1326126548
 30
0.0
 40
33.7418312686342
100
AcDbArc
 50
270.0329514777
 51
55.0340124407
  0
SPLINE
  5
243
330
21E
100
AcDbEntity
  8
DV3_Default
 62
     7
100
AcDbSpline
210
0.0
220
0.0
230
1.0
 70
     8
 71
     3
 72
    28
 73
    24
 74
     0
 42
0.000000001
 43
0.0000000001
 40
0.0
 40
0.0
 40
0.0
 40
0.0
 40
0.0352154612139058
 40
0.0797499327155853
 40
0.1186017566618494
 40
0.149684492429299
 40
0.1715284662931829
 40
0.1898561869631914
 40
0.2445417310637972
 40
0.3058720722385023
 40
0.3663230057310474
 40
0.4312673330854481
 40
0.5007012998647472
 40
0.571690765131709
 40
0.6178476248639295
 40
0.6595099594217876
 40
0.7002700884681674
 40
0.747807669990881
 40
0.8055085286660156
 40
0.8689654297244764
 40
0.9235508445370799
 40
0.9703925656429085
 40
1.0
 40
1.0
 40
1.0
 40
1.0
 10
24.05208565834815
 20
185.1558262230729
 30
0.0
 10
24.03083126320378
 20
184.8634438320806
 30
0.0
 10
23.97984073994031
 20
184.1889143735737
 30
0.0
 10
23.89908851319263
 20
183.223679141357
 30
0.0
 10
23.81380346815379
 20
182.3045799398198
 30
0.0
 10
23.74097779821949
 20
181.5836026261242
 30
0.0
 10
23.68284640239837
 20
181.041986743501
 30
0.0
 10
23.60461937903874
 20
180.344321776984
 30
0.0
 10
23.48791577946889
 20
179.3808261178165
 30
0.0
 10
23.32352844260896
 20
178.1699169241644
 30
0.0
 10
23.13675641002269
 20
176.940803465144
 30
0.0
 10
22.92941296869534
 20
175.7188273244833
 30
0.0
 10
22.69731623345658
 20
174.495247956447
 30
0.0
 10
22.47412617587652
 20
173.4419624511704
 30
0.0
 10
22.2767845028011
 20
172.5884364809925
 30
0.0
 10
22.11405567002692
 20
171.9277683666388
 30
0.0
 10
21.94953613054978
 20
171.2969159084681
 30
0.0
 10
21.76441581203334
 20
170.6275954344168
 30
0.0
 10
21.54872283998736
 20
169.8990262790716
 30
0.0
 10
21.321424783348
 20
169.1878878142158
 30
0.0
 10
21.10740642114686
 20
168.5660235158541
 30
0.0
 10
20.94305693225736
 20
168.1172884972833
 30
0.0
 10
20.85016716282563
 20
167.8748385379916
 30
0.0
 10
20.81468174381554
 20
167.7837863998404
 30
0.0
  0
SPLINE
  5
244
330
21E
100
AcDbEntity
  8
DV3_Default
 62
     7
100
AcDbSpline
210
0.0
220
0.0
230
1.0
 70
     8
 71
     3
 72
    31
 73
    27
 74
     0
 42
0.000000001
 43
0.0000000001
 40
0.0
 40
0.0
 40
0.0
 40
0.0
 40
0.0271306989691228
 40
0.061587000235001
 40
0.1027981276432506
 40
0.1517570308862738
 40
0.2146946433704331
 40
0.2686373310705719
 40
0.3140869798184567
 40
0.3575555831613996
 40
0.4064329069481199
 40
0.4750332598462426
 40
0.5419997590407578
 40
0.6045527653011233
 40
0.6626547885886802
 40
0.7154439327585373
 40
0.7334749540774234
 40
0.7508202225368553
 40
0.7674957614102541
 40
0.7835175779697622
 40
0.8011219311648854
 40
0.8260181823456564
 40
0.8637854262076226
 40
0.9084531644952812
 40
0.9569561101636136
 40
1.0
 40
1.0
 40
1.0
 40
1.0
 10
59.4500720575511
 20
167.7837866571725
 30
0.0
 10
59.41579752243258
 20
167.8717339305333
 30
0.0
 10
59.33693326301187
 20
168.0774619245422
 30
0.0
 10
59.20206674660106
 20
168.4430725495344
 30
0.0
 10
59.03274478538169
 20
168.9248655549034
 30
0.0
 10
58.82340357089181
 20
169.5568763642782
 30
0.0
 10
58.59864093288823
 20
170.2873361489856
 30
0.0
 10
58.38107384709261
 20
171.0523805128932
 30
0.0
 10
58.19066668211248
 20
171.7695885121214
 30
0.0
 10
58.00655179638201
 20
172.5091802109602
 30
0.0
 10
57.79540506081656
 20
173.4187439309779
 30
0.0
 10
57.56301013447013
 20
174.5165410852752
 30
0.0
 10
57.32742273623212
 20
175.7622483931194
 30
0.0
 10
57.11757642837363
 20
177.0051684028702
 30
0.0
 10
56.93550948559212
 20
178.211534685425
 30
0.0
 10
56.80912127859065
 20
179.1450789353637
 30
0.0
 10
56.72650959164893
 20
179.8013309827671
 30
0.0
 10
56.67888352345765
 20
180.19417602524
 30
0.0
 10
56.63412042074496
 20
180.5773762643649
 30
0.0
 10
56.59023885155948
 20
180.9670216153948
 30
0.0
 10
56.53994008301186
 20
181.4311256988391
 30
0.0
 10
56.4719220105101
 20
182.0912438887614
 30
0.0
 10
56.38597897715226
 20
182.9940833094557
 30
0.0
 10
56.29028448780139
 20
184.1129450120847
 30
0.0
 10
56.19837836372478
 20
185.331648388458
 30
0.0
 10
56.14749324021576
 20
186.0888413280721
 30
0.0
 10
56.11939388169216
 20
186.5113399253495
 30
0.0
  0
LINE
  5
245
330
21E
100
AcDbEntity
  8
DV3_Default
 62
     7
100
AcDbLine
 10
84.6070222306
 20
348.7939916768
 30
0.0
 11
84.8070222306
 21
348.763222446
 31
0.0
  0
ARC
  5
246
330
21E
100
AcDbEntity
  8
DV3_Default
 62
     7
100
AcDbCircle
 10
86.9717320591
 20
349.9478378307
 30
0.0
 40
1.500000000000001
100
AcDbArc
 50
261.2538377374
 51
261.3615733493
  0
LINE
  5
247
330
21E
100
AcDbEntity
  8
DV3_Default
 62
     7
100
AcDbLine
 10
84.8070222306
 20
396.1324532153
 30
0.0
 11
84.6070222306
 21
396.1016839845
 31
0.0
  0
ENDBLK
  5
249
330
21E
100
AcDbEntity
  8
0
100
AcDbBlockEnd
  0
ENDSEC
  0
SECTION
  2
ENTITIES
  0
INSERT
  5
70
330
1F
100
AcDbEntity
  8
Default
100
AcDbBlockReference
  2
SEANNOT_GROUP
 10
0.0
 20
0.0
 30
0.0
  0
INSERT
  5
76
330
1F
100
AcDbEntity
  8
Default
100
AcDbBlockReference
  2
SEANNOT_GROUP1
 10
0.0
 20
0.0
 30
0.0
  0
INSERT
  5
7C
330
1F
100
AcDbEntity
  8
Default
100
AcDbBlockReference
  2
SEANNOT_GROUP2
 10
0.0
 20
0.0
 30
0.0
  0
INSERT
  5
82
330
1F
100
AcDbEntity
  8
Default
100
AcDbBlockReference
  2
SEANNOT_GROUP3
 10
0.0
 20
0.0
 30
0.0
  0
INSERT
  5
88
330
1F
100
AcDbEntity
  8
Default
100
AcDbBlockReference
  2
SEANNOT_GROUP4
 10
0.0
 20
0.0
 30
0.0
  0
INSERT
  5
8E
330
1F
100
AcDbEntity
  8
Default
100
AcDbBlockReference
  2
SEANNOT_GROUP5
 10
0.0
 20
0.0
 30
0.0
  0
INSERT
  5
94
330
1F
100
AcDbEntity
  8
Default
100
AcDbBlockReference
  2
SE
 10
0.0
 20
0.0
 30
0.0
  0
INSERT
  5
13D
330
1F
100
AcDbEntity
  8
Default
100
AcDbBlockReference
  2
SE1
 10
0.0
 20
0.0
 30
0.0
  0
INSERT
  5
21F
330
1F
100
AcDbEntity
  8
Default
100
AcDbBlockReference
  2
SE2
 10
0.0
 20
0.0
 30
0.0
  0
MTEXT
  5
24A
330
1F
100
AcDbEntity
  8
Default
100
AcDbMText
 10
5.9362635081
 20
63.4225120485
 30
0.0
 40
10.0
 41
113.8626497168
 46
65.4545454545
 71
     1
 72
     1
  1
{\fArial Narrow|b0||i0||c0|p34;\C7;\H10.;\W1.;Grohe AG\P}{\fArial Narrow|b0||i0||c0|p34;\C7;\H10.;\W1.;\P}{\fArial Narrow|b0||i0||c0|p34;\C7;\H10.;\W1.;ecn:\P}{\fArial Narrow|b0||i0||c0|p34;\C7;\H10.;\W1.;unit: mm}
 73
     1
 44
1.0
1001
ACAD
1000
ACAD_MTEXT_DEFINED_HEIGHT_BEGIN
1070
    46
1040
65.4545454545
1000
ACAD_MTEXT_DEFINED_HEIGHT_END
  0
LINE
  5
24B
330
1F
100
AcDbEntity
  8
Default
 62
     7
100
AcDbLine
 10
0.0
 20
0.0
 30
0.0
 11
100.0
 21
0.0
 31
0.0
  0
LINE
  5
24C
330
1F
100
AcDbEntity
  8
Default
 62
     7
100
AcDbLine
 10
0.0
 20
0.0
 30
0.0
 11
0.0
 21
100.0
 31
0.0
  0
MTEXT
  5
24D
330
1F
100
AcDbEntity
  8
Default
100
AcDbMText
 10
24.3923665681
 20
-8.2375342018
 30
0.0
 40
10.0
 41
35.00001
 46
16.3636363636
 71
     1
 72
     1
  1
{\fArial Narrow|b0||i0||c0|p34;\C7;\H10.;\W0.82;100 mm}
 73
     1
 44
1.0
1001
ACAD
1000
ACAD_MTEXT_DEFINED_HEIGHT_BEGIN
1070
    46
1040
16.3636363636
1000
ACAD_MTEXT_DEFINED_HEIGHT_END
  0
MTEXT
  5
24E
330
1F
100
AcDbEntity
  8
Default
100
AcDbMText
 10
-17.6150308803
 20
24.6231930421
 30
0.0
 40
10.0
 41
35.00001
 46
16.3636363636
 71
     1
 72
     1
  1
{\fArial Narrow|b0||i0||c0|p34;\C7;\H10.;\W0.82;100 mm}
 11
6.123233995736766E-17
 21
1.0
 31
0.0
 73
     1
 44
1.0
1001
ACAD
1000
ACAD_MTEXT_DEFINED_HEIGHT_BEGIN
1070
    46
1040
16.3636363636
1000
ACAD_MTEXT_DEFINED_HEIGHT_END
  0
MTEXT
  5
24F
330
1F
100
AcDbEntity
  8
Default
100
AcDbMText
 10
28.4878128572
 20
24.8634936442
 30
0.0
 40
10.0
 41
86.691737001
 46
16.3636363636
 71
     4
 72
     1
  1
{\fArial Narrow|b0||i0||c0|p34;\C7;\H10.;\W1.;244328}
 73
     1
 44
1.0
1001
ACAD
1000
ACAD_MTEXT_DEFINED_HEIGHT_BEGIN
1070
    46
1040
16.3636363636
1000
ACAD_MTEXT_DEFINED_HEIGHT_END
  0
MTEXT
  5
250
330
1F
100
AcDbEntity
  8
Default
100
AcDbMText
 10
5.9012241913
 20
41.4970052916
 30
0.0
 40
10.0
 41
109.9146987306
 46
16.3636363636
 71
     4
 72
     1
  1
{\fArial Narrow|b0||i0||c0|p34;\C7;\H10.;\W1.;32298003}
 73
     1
 44
1.0
1001
ACAD
1000
ACAD_MTEXT_DEFINED_HEIGHT_BEGIN
1070
    46
1040
16.3636363636
1000
ACAD_MTEXT_DEFINED_HEIGHT_END
  0
ENDSEC
  0
SECTION
  2
OBJECTS
  0
DICTIONARY
  5
C
330
0
100
AcDbDictionary
281
     1
  3
ACAD_DETAILVIEWSTYLE
350
28C
  3
ACAD_GROUP
350
D
  3
ACAD_LAYOUT
350
1A
  3
ACAD_MATERIAL
350
43
  3
ACAD_MLEADERSTYLE
350
6B
  3
ACAD_MLINESTYLE
350
17
  3
ACAD_PLOTSETTINGS
350
19
  3
ACAD_PLOTSTYLENAME
350
E
  3
ACAD_SCALELIST
350
47
  3
ACAD_SECTIONVIEWSTYLE
350
28D
  3
ACAD_TABLESTYLE
350
69
  3
ACAD_VISUALSTYLE
350
2A
  3
ACDB_RECOMPOSE_DATA
350
289
  3
AcDbVariableDictionary
350
251
  0
SUN
  5
6D
330
29
100
AcDbSun
 90
        1
290
     0
 63
     7
421
 16777215
 40
1.0
291
     1
 91
  2455826
 92
 54000000
292
     0
 70
     2
 71
   256
280
     1
  0
DICTIONARY
  5
28C
102
{ACAD_REACTORS
330
C
102
}
330
C
100
AcDbDictionary
281
     1
  0
DICTIONARY
  5
D
102
{ACAD_REACTORS
330
C
102
}
330
C
100
AcDbDictionary
281
     1
  0
DICTIONARY
  5
1A
102
{ACAD_REACTORS
330
C
102
}
330
C
100
AcDbDictionary
281
     1
  3
Layout1
350
1E
  3
Model
350
22
  0
DICTIONARY
  5
43
102
{ACAD_REACTORS
330
C
102
}
330
C
100
AcDbDictionary
281
     1
  3
ByBlock
350
45
  3
ByLayer
350
44
  3
Global
350
46
  0
DICTIONARY
  5
6B
102
{ACAD_REACTORS
330
C
102
}
330
C
100
AcDbDictionary
281
     1
  3
Standard
350
6C
  0
DICTIONARY
  5
17
102
{ACAD_REACTORS
330
C
102
}
330
C
100
AcDbDictionary
281
     1
  3
Standard
350
18
  0
DICTIONARY
  5
19
102
{ACAD_REACTORS
330
C
102
}
330
C
100
AcDbDictionary
281
     1
  0
ACDBDICTIONARYWDFLT
  5
E
102
{ACAD_REACTORS
330
C
102
}
330
C
100
AcDbDictionary
281
     1
  3
Normal
350
F
100
AcDbDictionaryWithDefault
340
F
  0
DICTIONARY
  5
47
102
{ACAD_REACTORS
330
C
102
}
330
C
100
AcDbDictionary
281
     1
  3
A0
350
48
  3
A1
350
49
  3
A2
350
4A
  3
A3
350
4B
  3
A4
350
4C
  3
A5
350
4D
  3
A6
350
4E
  3
A7
350
4F
  3
A8
350
50
  3
A9
350
51
  3
B0
350
52
  3
B1
350
53
  3
B2
350
54
  3
B3
350
55
  3
B4
350
56
  3
B5
350
57
  3
B6
350
58
  3
B7
350
59
  3
B8
350
5A
  3
B9
350
5B
  3
C0
350
5C
  3
C1
350
5D
  3
C2
350
5E
  3
C3
350
5F
  3
C4
350
60
  3
C5
350
61
  3
C6
350
62
  3
C7
350
63
  3
C8
350
64
  3
C9
350
65
  3
D0
350
66
  3
D1
350
67
  3
D2
350
68
  0
DICTIONARY
  5
28D
102
{ACAD_REACTORS
330
C
102
}
330
C
100
AcDbDictionary
281
     1
  0
DICTIONARY
  5
69
102
{ACAD_REACTORS
330
C
102
}
330
C
100
AcDbDictionary
281
     1
  3
Standard
350
6A
  0
DICTIONARY
  5
2A
102
{ACAD_REACTORS
330
C
102
}
330
C
100
AcDbDictionary
281
     1
  3
2dWireframe
350
2F
  3
Basic
350
32
  3
Brighten
350
36
  3
ColorChange
350
3A
  3
Conceptual
350
34
  3
Dim
350
35
  3
EdgeColorOff
350
3D
  3
Facepattern
350
39
  3
Flat
350
2B
  3
FlatWithEdges
350
2C
  3
Gouraud
350
2D
  3
GouraudWithEdges
350
2E
  3
Hidden
350
31
  3
JitterOff
350
3B
  3
Linepattern
350
38
  3
OverhangOff
350
3C
  3
Realistic
350
33
  3
Shaded
350
42
  3
Shaded with edges
350
41
  3
Shades of Gray
350
3E
  3
Sketchy
350
3F
  3
Thicken
350
37
  3
Wireframe
350
30
  3
X-Ray
350
40
  0
XRECORD
  5
289
102
{ACAD_REACTORS
330
C
102
}
330
C
100
AcDbXrecord
280
     1
 90
        1
330
6A
  0
DICTIONARY
  5
251
102
{ACAD_REACTORS
330
C
102
}
330
C
100
AcDbDictionary
281
     1
  3
CANNOSCALE
350
252
  3
CENTEREXE
350
28E
  3
CENTERLTYPEFILE
350
28F
  3
CMLEADERSTYLE
350
28B
  3
CTABLESTYLE
350
28A
  3
XCLIPFRAME
350
253
  0
LAYOUT
  5
1E
102
{ACAD_REACTORS
330
1A
102
}
330
1A
100
AcDbPlotSettings
  1

  2
none_device
  4

  6

 40
0.0
 41
0.0
 42
0.0
 43
0.0
 44
0.0
 45
0.0
 46
0.0
 47
0.0
 48
0.0
 49
0.0
140
0.0
141
0.0
142
1.0
143
1.0
 70
   688
 72
     1
 73
     0
 74
     5
  7

 75
    16
 76
     0
 77
     2
 78
   300
147
1.0
148
0.0
149
0.0
100
AcDbLayout
  1
Layout1
 70
     1
 71
     1
 10
0.0
 20
0.0
 11
3000.0
 21
4500.0
 12
0.0
 22
0.0
 32
0.0
 14
0.0
 24
0.0
 34
0.0
 15
3000.0
 25
4500.0
 35
0.0
146
0.0
 13
0.0
 23
0.0
 33
0.0
 16
1.0
 26
0.0
 36
0.0
 17
0.0
 27
1.0
 37
0.0
 76
     0
330
1B
  0
LAYOUT
  5
22
102
{ACAD_REACTORS
330
1A
102
}
330
1A
100
AcDbPlotSettings
  1

  2
none_device
  4
Letter_(8.50_x_11.00_Inches)
  6

 40
6.35
 41
6.35
 42
6.35000508
 43
6.35000508
 44
215.9
 45
279.4
 46
0.0
 47
0.0
 48
0.0
 49
0.0
140
0.0
141
0.0
142
1.0
143
1.0
 70
  1712
 72
     1
 73
     0
 74
     0
  7

 75
     0
 76
     0
 77
     2
 78
   300
147
1.0
148
0.0
149
0.0
100
AcDbLayout
  1
Model
 70
     1
 71
     0
 10
0.0
 20
0.0
 11
3000.0
 21
4500.0
 12
0.0
 22
0.0
 32
0.0
 14
0.0
 24
0.0
 34
0.0
 15
3000.0
 25
4500.0
 35
0.0
146
0.0
 13
0.0
 23
0.0
 33
0.0
 16
1.0
 26
0.0
 36
0.0
 17
0.0
 27
1.0
 37
0.0
 76
     0
330
1F
331
29
  0
MATERIAL
  5
45
102
{ACAD_REACTORS
330
43
102
}
330
43
100
AcDbMaterial
  1
ByBlock
 72
     1
 94
      127
  0
MATERIAL
  5
44
102
{ACAD_REACTORS
330
43
102
}
330
43
100
AcDbMaterial
  1
ByLayer
 72
     1
 94
      127
  0
MATERIAL
  5
46
102
{ACAD_REACTORS
330
43
102
}
330
43
100
AcDbMaterial
  1
Global
 72
     1
 94
      127
  0
MLEADERSTYLE
  5
6C
102
{ACAD_REACTORS
330
6B
102
}
102
{ACAD_XDICTIONARY
360
287
102
}
330
6B
100
AcDbMLeaderStyle
170
     2
171
     1
172
     0
 90
        2
 40
0.0
 41
0.0
173
     1
 91
-1056964608
340
14
 92
       -2
290
     1
 42
2.0
291
     1
 43
8.0
  3
Standard
341
0
 44
4.0
300

342
11
174
     1
178
     6
175
     1
176
     0
 93
-1056964608
 45
4.0
292
     0
297
     0
 46
4.0
343
0
 94
-1056964608
 47
1.0
 49
1.0
140
1.0
293
     1
141
0.0
294
     1
177
     0
142
1.0
295
     0
296
     0
143
3.75
1001
ACAD_MLEADERVER
1070
     2
  0
MLINESTYLE
  5
18
102
{ACAD_REACTORS
330
17
102
}
330
17
100
AcDbMlineStyle
  2
Standard
 70
     0
  3

 62
   256
 51
90.0
 52
90.0
 71
     2
 49
0.5
 62
   256
  6
BYLAYER
 49
-0.5
 62
   256
  6
BYLAYER
  0
ACDBPLACEHOLDER
  5
F
102
{ACAD_REACTORS
330
E
102
}
330
E
  0
SCALE
  5
48
102
{ACAD_REACTORS
330
47
102
}
330
47
100
AcDbScale
 70
     0
300
1:1
140
1.0
141
1.0
290
     1
  0
SCALE
  5
49
102
{ACAD_REACTORS
330
47
102
}
330
47
100
AcDbScale
 70
     0
300
1:2
140
1.0
141
2.0
290
     0
  0
SCALE
  5
4A
102
{ACAD_REACTORS
330
47
102
}
330
47
100
AcDbScale
 70
     0
300
1:4
140
1.0
141
4.0
290
     0
  0
SCALE
  5
4B
102
{ACAD_REACTORS
330
47
102
}
330
47
100
AcDbScale
 70
     0
300
1:5
140
1.0
141
5.0
290
     0
  0
SCALE
  5
4C
102
{ACAD_REACTORS
330
47
102
}
330
47
100
AcDbScale
 70
     0
300
1:8
140
1.0
141
8.0
290
     0
  0
SCALE
  5
4D
102
{ACAD_REACTORS
330
47
102
}
330
47
100
AcDbScale
 70
     0
300
1:10
140
1.0
141
10.0
290
     0
  0
SCALE
  5
4E
102
{ACAD_REACTORS
330
47
102
}
330
47
100
AcDbScale
 70
     0
300
1:16
140
1.0
141
16.0
290
     0
  0
SCALE
  5
4F
102
{ACAD_REACTORS
330
47
102
}
330
47
100
AcDbScale
 70
     0
300
1:20
140
1.0
141
20.0
290
     0
  0
SCALE
  5
50
102
{ACAD_REACTORS
330
47
102
}
330
47
100
AcDbScale
 70
     0
300
1:30
140
1.0
141
30.0
290
     0
  0
SCALE
  5
51
102
{ACAD_REACTORS
330
47
102
}
330
47
100
AcDbScale
 70
     0
300
1:40
140
1.0
141
40.0
290
     0
  0
SCALE
  5
52
102
{ACAD_REACTORS
330
47
102
}
330
47
100
AcDbScale
 70
     0
300
1:50
140
1.0
141
50.0
290
     0
  0
SCALE
  5
53
102
{ACAD_REACTORS
330
47
102
}
330
47
100
AcDbScale
 70
     0
300
1:100
140
1.0
141
100.0
290
     0
  0
SCALE
  5
54
102
{ACAD_REACTORS
330
47
102
}
330
47
100
AcDbScale
 70
     0
300
2:1
140
2.0
141
1.0
290
     0
  0
SCALE
  5
55
102
{ACAD_REACTORS
330
47
102
}
330
47
100
AcDbScale
 70
     0
300
4:1
140
4.0
141
1.0
290
     0
  0
SCALE
  5
56
102
{ACAD_REACTORS
330
47
102
}
330
47
100
AcDbScale
 70
     0
300
8:1
140
8.0
141
1.0
290
     0
  0
SCALE
  5
57
102
{ACAD_REACTORS
330
47
102
}
330
47
100
AcDbScale
 70
     0
300
10:1
140
10.0
141
1.0
290
     0
  0
SCALE
  5
58
102
{ACAD_REACTORS
330
47
102
}
330
47
100
AcDbScale
 70
     0
300
100:1
140
100.0
141
1.0
290
     0
  0
SCALE
  5
59
102
{ACAD_REACTORS
330
47
102
}
330
47
100
AcDbScale
 70
     0
300
1/128" = 1'-0"
140
0.0078125
141
12.0
290
     0
  0
SCALE
  5
5A
102
{ACAD_REACTORS
330
47
102
}
330
47
100
AcDbScale
 70
     0
300
1/64" = 1'-0"
140
0.015625
141
12.0
290
     0
  0
SCALE
  5
5B
102
{ACAD_REACTORS
330
47
102
}
330
47
100
AcDbScale
 70
     0
300
1/32" = 1'-0"
140
0.03125
141
12.0
290
     0
  0
SCALE
  5
5C
102
{ACAD_REACTORS
330
47
102
}
330
47
100
AcDbScale
 70
     0
300
1/16" = 1'-0"
140
0.0625
141
12.0
290
     0
  0
SCALE
  5
5D
102
{ACAD_REACTORS
330
47
102
}
330
47
100
AcDbScale
 70
     0
300
3/32" = 1'-0"
140
0.09375
141
12.0
290
     0
  0
SCALE
  5
5E
102
{ACAD_REACTORS
330
47
102
}
330
47
100
AcDbScale
 70
     0
300
1/8" = 1'-0"
140
0.125
141
12.0
290
     0
  0
SCALE
  5
5F
102
{ACAD_REACTORS
330
47
102
}
330
47
100
AcDbScale
 70
     0
300
3/16" = 1'-0"
140
0.1875
141
12.0
290
     0
  0
SCALE
  5
60
102
{ACAD_REACTORS
330
47
102
}
330
47
100
AcDbScale
 70
     0
300
1/4" = 1'-0"
140
0.25
141
12.0
290
     0
  0
SCALE
  5
61
102
{ACAD_REACTORS
330
47
102
}
330
47
100
AcDbScale
 70
     0
300
3/8" = 1'-0"
140
0.375
141
12.0
290
     0
  0
SCALE
  5
62
102
{ACAD_REACTORS
330
47
102
}
330
47
100
AcDbScale
 70
     0
300
1/2" = 1'-0"
140
0.5
141
12.0
290
     0
  0
SCALE
  5
63
102
{ACAD_REACTORS
330
47
102
}
330
47
100
AcDbScale
 70
     0
300
3/4" = 1'-0"
140
0.75
141
12.0
290
     0
  0
SCALE
  5
64
102
{ACAD_REACTORS
330
47
102
}
330
47
100
AcDbScale
 70
     0
300
1" = 1'-0"
140
1.0
141
12.0
290
     0
  0
SCALE
  5
65
102
{ACAD_REACTORS
330
47
102
}
330
47
100
AcDbScale
 70
     0
300
1-1/2" = 1'-0"
140
1.5
141
12.0
290
     0
  0
SCALE
  5
66
102
{ACAD_REACTORS
330
47
102
}
330
47
100
AcDbScale
 70
     0
300
3" = 1'-0"
140
3.0
141
12.0
290
     0
  0
SCALE
  5
67
102
{ACAD_REACTORS
330
47
102
}
330
47
100
AcDbScale
 70
     0
300
6" = 1'-0"
140
6.0
141
12.0
290
     0
  0
SCALE
  5
68
102
{ACAD_REACTORS
330
47
102
}
330
47
100
AcDbScale
 70
     0
300
1'-0" = 1'-0"
140
12.0
141
12.0
290
     0
  0
TABLESTYLE
  5
6A
102
{ACAD_REACTORS
330
69
102
}
102
{ACAD_XDICTIONARY
360
284
102
}
330
69
100
AcDbTableStyle
  3
Standard
 70
     0
 71
     0
 40
0.06
 41
0.06
280
     0
281
     0
  7
Standard
140
4.5
170
     2
 62
     0
 63
   257
283
     0
 90
        4
 91
        0
  1

274
    -2
284
     1
 64
     0
275
    -2
285
     1
 65
     0
276
    -2
286
     1
 66
     0
277
    -2
287
     1
 67
     0
278
    -2
288
     1
 68
     0
279
    -2
289
     1
 69
     0
  7
Standard
140
6.0
170
     5
 62
     0
 63
   257
283
     0
 90
        4
 91
        0
  1

274
    -2
284
     1
 64
     0
275
    -2
285
     1
 65
     0
276
    -2
286
     1
 66
     0
277
    -2
287
     1
 67
     0
278
    -2
288
     1
 68
     0
279
    -2
289
     1
 69
     0
  7
Standard
140
4.5
170
     5
 62
     0
 63
   257
283
     0
 90
        4
 91
        0
  1

274
    -2
284
     1
 64
     0
275
    -2
285
     1
 65
     0
276
    -2
286
     1
 66
     0
277
    -2
287
     1
 67
     0
278
    -2
288
     1
 68
     0
279
    -2
289
     1
 69
     0
  0
VISUALSTYLE
  5
2F
102
{ACAD_REACTORS
330
2A
102
}
102
{ACAD_XDICTIONARY
360
25C
102
}
330
2A
100
AcDbVisualStyle
  2
2dWireframe
 70
     4
 71
     0
 72
     2
 73
     0
 90
        0
 40
0.6
 41
30.0
 62
     5
 63
     7
421
 16777215
 74
     1
 91
        4
 64
     7
 65
   257
 75
     1
175
     1
 42
1.0
 92
        0
 66
   257
 43
1.0
 76
     1
 77
     6
 78
     2
 67
     7
 79
     5
170
     0
171
     0
290
     0
174
     0
 93
        1
 44
0.0
173
     0
291
     0
 45
0.0
  0
VISUALSTYLE
  5
32
102
{ACAD_REACTORS
330
2A
102
}
102
{ACAD_XDICTIONARY
360
262
102
}
330
2A
100
AcDbVisualStyle
  2
Basic
 70
     7
 71
     1
 72
     0
 73
     1
 90
        0
 40
0.6
 41
30.0
 62
     5
 63
     7
421
 16777215
 74
     0
 91
        4
 64
     7
 65
   257
 75
     1
175
     1
 42
1.0
 92
        8
 66
     7
 43
1.0
 76
     1
 77
     6
 78
     2
 67
     7
 79
     5
170
     0
171
     0
290
     0
174
     0
 93
        1
 44
0.0
173
     0
291
     1
 45
0.0
  0
VISUALSTYLE
  5
36
102
{ACAD_REACTORS
330
2A
102
}
102
{ACAD_XDICTIONARY
360
26A
102
}
330
2A
100
AcDbVisualStyle
  2
Brighten
 70
    12
 71
     2
 72
     2
 73
     0
 90
        0
 40
0.6
 41
30.0
 62
     5
 63
     7
421
 16777215
 74
     1
 91
        4
 64
     7
 65
   257
 75
     1
175
     1
 42
1.0
 92
        8
 66
     7
 43
1.0
 76
     1
 77
     6
 78
     2
 67
     7
 79
     5
170
     0
171
     0
290
     0
174
     0
 93
        1
 44
50.0
173
     0
291
     1
 45
0.0
  0
VISUALSTYLE
  5
3A
102
{ACAD_REACTORS
330
2A
102
}
102
{ACAD_XDICTIONARY
360
272
102
}
330
2A
100
AcDbVisualStyle
  2
ColorChange
 70
    16
 71
     2
 72
     2
 73
     3
 90
        0
 40
0.6
 41
30.0
 62
     5
 63
     8
421
  8421504
 74
     1
 91
        4
 64
     7
 65
   257
 75
     1
175
     1
 42
1.0
 92
        8
 66
     8
424
  8421504
 43
1.0
 76
     1
 77
     6
 78
     2
 67
     7
 79
     5
170
     0
171
     0
290
     0
174
     0
 93
        1
 44
0.0
173
     0
291
     1
 45
0.0
  0
VISUALSTYLE
  5
34
102
{ACAD_REACTORS
330
2A
102
}
102
{ACAD_XDICTIONARY
360
266
102
}
330
2A
100
AcDbVisualStyle
  2
Conceptual
 70
     9
 71
     3
 72
     2
 73
     0
 90
        0
 40
0.6
 41
30.0
 62
     5
 63
     7
421
 16777215
 74
     2
 91
        2
 64
     7
 65
   257
 75
     1
175
     1
 42
179.0
 92
        8
 66
     7
 43
1.0
 76
     1
 77
     6
 78
     2
 67
     7
 79
     3
170
     0
171
     0
290
     0
174
     0
 93
        1
 44
0.0
173
     0
291
     0
 45
0.0
  0
VISUALSTYLE
  5
35
102
{ACAD_REACTORS
330
2A
102
}
102
{ACAD_XDICTIONARY
360
268
102
}
330
2A
100
AcDbVisualStyle
  2
Dim
 70
    11
 71
     2
 72
     2
 73
     0
 90
        0
 40
0.6
 41
30.0
 62
     5
 63
     7
421
 16777215
 74
     1
 91
        4
 64
     7
 65
   257
 75
     1
175
     1
 42
1.0
 92
        8
 66
     7
 43
1.0
 76
     1
 77
     6
 78
     2
 67
     7
 79
     5
170
     0
171
     0
290
     0
174
     0
 93
        1
 44
-50.0
173
     0
291
     1
 45
0.0
  0
VISUALSTYLE
  5
3D
102
{ACAD_REACTORS
330
2A
102
}
102
{ACAD_XDICTIONARY
360
278
102
}
330
2A
100
AcDbVisualStyle
  2
EdgeColorOff
 70
    22
 71
     2
 72
     2
 73
     0
 90
        0
 40
0.6
 41
30.0
 62
     5
 63
     7
421
 16777215
 74
     1
 91
        4
 64
     7
 65
   257
 75
     1
175
     1
 42
1.0
 92
        8
 66
     7
 43
1.0
 76
     1
 77
     6
 78
     2
 67
     7
 79
     5
170
     0
171
     0
290
     0
174
     0
 93
        1
 44
0.0
173
     0
291
     1
 45
0.0
  0
VISUALSTYLE
  5
39
102
{ACAD_REACTORS
330
2A
102
}
102
{ACAD_XDICTIONARY
360
270
102
}
330
2A
100
AcDbVisualStyle
  2
Facepattern
 70
    15
 71
     2
 72
     2
 73
     0
 90
        0
 40
0.6
 41
30.0
 62
     5
 63
     7
421
 16777215
 74
     1
 91
        4
 64
     7
 65
   257
 75
     1
175
     1
 42
1.0
 92
        8
 66
     7
 43
1.0
 76
     1
 77
     6
 78
     2
 67
     7
 79
     5
170
     0
171
     0
290
     0
174
     0
 93
        1
 44
0.0
173
     0
291
     1
 45
0.0
  0
VISUALSTYLE
  5
2B
102
{ACAD_REACTORS
330
2A
102
}
102
{ACAD_XDICTIONARY
360
254
102
}
330
2A
100
AcDbVisualStyle
  2
Flat
 70
     0
 71
     2
 72
     1
 73
     1
 90
        2
 40
0.6
 41
30.0
 62
     5
 63
     7
421
 16777215
 74
     0
 91
        0
 64
     7
 65
   257
 75
     1
175
     1
 42
1.0
 92
        8
 66
     7
 43
1.0
 76
     1
 77
     6
 78
     2
 67
     7
 79
     5
170
     0
171
     0
290
     0
174
     0
 93
       13
 44
0.0
173
     0
291
     1
 45
0.0
  0
VISUALSTYLE
  5
2C
102
{ACAD_REACTORS
330
2A
102
}
102
{ACAD_XDICTIONARY
360
256
102
}
330
2A
100
AcDbVisualStyle
  2
FlatWithEdges
 70
     1
 71
     2
 72
     1
 73
     1
 90
        2
 40
0.6
 41
30.0
 62
     5
 63
     7
421
 16777215
 74
     1
 91
        0
 64
     7
 65
   257
 75
     1
175
     1
 42
1.0
 92
        0
 66
   257
 43
1.0
 76
     1
 77
     6
 78
     2
 67
     7
 79
     5
170
     0
171
     0
290
     0
174
     0
 93
       13
 44
0.0
173
     0
291
     1
 45
0.0
  0
VISUALSTYLE
  5
2D
102
{ACAD_REACTORS
330
2A
102
}
102
{ACAD_XDICTIONARY
360
258
102
}
330
2A
100
AcDbVisualStyle
  2
Gouraud
 70
     2
 71
     2
 72
     2
 73
     1
 90
        2
 40
0.6
 41
30.0
 62
     5
 63
     7
421
 16777215
 74
     0
 91
        0
 64
     7
 65
   257
 75
     1
175
     1
 42
1.0
 92
        0
 66
     7
 43
1.0
 76
     1
 77
     6
 78
     2
 67
     7
 79
     5
170
     0
171
     0
290
     0
174
     0
 93
       13
 44
0.0
173
     0
291
     1
 45
0.0
  0
VISUALSTYLE
  5
2E
102
{ACAD_REACTORS
330
2A
102
}
102
{ACAD_XDICTIONARY
360
25A
102
}
330
2A
100
AcDbVisualStyle
  2
GouraudWithEdges
 70
     3
 71
     2
 72
     2
 73
     1
 90
        2
 40
0.6
 41
30.0
 62
     5
 63
     7
421
 16777215
 74
     1
 91
        0
 64
     7
 65
   257
 75
     1
175
     1
 42
1.0
 92
        0
 66
   257
 43
1.0
 76
     1
 77
     6
 78
     2
 67
     7
 79
     5
170
     0
171
     0
290
     0
174
     0
 93
       13
 44
0.0
173
     0
291
     1
 45
0.0
  0
VISUALSTYLE
  5
31
102
{ACAD_REACTORS
330
2A
102
}
102
{ACAD_XDICTIONARY
360
260
102
}
330
2A
100
AcDbVisualStyle
  2
Hidden
 70
     6
 71
     1
 72
     2
 73
     2
 90
        0
 40
0.6
 41
30.0
 62
     5
 63
     7
421
 16777215
 74
     2
 91
        2
 64
     7
 65
   257
 75
     2
175
     1
 42
40.0
 92
        0
 66
   257
 43
1.0
 76
     1
 77
     6
 78
     2
 67
     7
 79
     3
170
     0
171
     0
290
     0
174
     0
 93
        1
 44
0.0
173
     0
291
     0
 45
0.0
  0
VISUALSTYLE
  5
3B
102
{ACAD_REACTORS
330
2A
102
}
102
{ACAD_XDICTIONARY
360
274
102
}
330
2A
100
AcDbVisualStyle
  2
JitterOff
 70
    20
 71
     2
 72
     2
 73
     0
 90
        0
 40
0.6
 41
30.0
 62
     5
 63
     7
421
 16777215
 74
     1
 91
        4
 64
     7
 65
   257
 75
     1
175
     1
 42
1.0
 92
       10
 66
     7
 43
1.0
 76
     1
 77
     6
 78
     2
 67
     7
 79
     5
170
     0
171
     0
290
     0
174
     0
 93
        1
 44
0.0
173
     0
291
     1
 45
0.0
  0
VISUALSTYLE
  5
38
102
{ACAD_REACTORS
330
2A
102
}
102
{ACAD_XDICTIONARY
360
26E
102
}
330
2A
100
AcDbVisualStyle
  2
Linepattern
 70
    14
 71
     2
 72
     2
 73
     0
 90
        0
 40
0.6
 41
30.0
 62
     5
 63
     7
421
 16777215
 74
     1
 91
        4
 64
     7
 65
   257
 75
     7
175
     7
 42
1.0
 92
        8
 66
     7
 43
1.0
 76
     1
 77
     6
 78
     2
 67
     7
 79
     5
170
     0
171
     0
290
     0
174
     0
 93
        1
 44
0.0
173
     0
291
     1
 45
0.0
  0
VISUALSTYLE
  5
3C
102
{ACAD_REACTORS
330
2A
102
}
102
{ACAD_XDICTIONARY
360
276
102
}
330
2A
100
AcDbVisualStyle
  2
OverhangOff
 70
    21
 71
     2
 72
     2
 73
     0
 90
        0
 40
0.6
 41
30.0
 62
     5
 63
     7
421
 16777215
 74
     1
 91
        4
 64
     7
 65
   257
 75
     1
175
     1
 42
1.0
 92
        9
 66
     7
 43
1.0
 76
     1
 77
     6
 78
     2
 67
     7
 79
     5
170
     0
171
     0
290
     0
174
     0
 93
        1
 44
0.0
173
     0
291
     1
 45
0.0
  0
VISUALSTYLE
  5
33
102
{ACAD_REACTORS
330
2A
102
}
102
{ACAD_XDICTIONARY
360
264
102
}
330
2A
100
AcDbVisualStyle
  2
Realistic
 70
     8
 71
     2
 72
     3
 73
     0
 90
        2
 40
0.6
 41
30.0
 62
     5
 63
     7
421
 16777215
 74
     0
 91
        0
 64
     7
 65
   257
 75
     1
175
     1
 42
1.0
 92
        8
 66
   257
 43
1.0
 76
     1
 77
     6
 78
     2
 67
     7
 79
     3
170
     0
171
     0
290
     0
174
     0
 93
       13
 44
0.0
173
     0
291
     0
 45
0.0
  0
VISUALSTYLE
  5
42
102
{ACAD_REACTORS
330
2A
102
}
102
{ACAD_XDICTIONARY
360
282
102
}
330
2A
100
AcDbVisualStyle
  2
Shaded
 70
    27
 71
     2
 72
     2
 73
     1
 90
        2
 40
0.6
 41
30.0
 62
     5
 63
     7
421
 16777215
 74
     0
 91
        4
 64
     7
 65
   257
 75
     1
175
     1
 42
1.0
 92
        8
 66
   257
 43
1.0
 76
     1
 77
     6
 78
     2
 67
     8
425
  7895160
 79
     3
170
     0
171
     0
290
     0
174
     0
 93
        5
 44
0.0
173
     0
291
     0
 45
0.0
  0
VISUALSTYLE
  5
41
102
{ACAD_REACTORS
330
2A
102
}
102
{ACAD_XDICTIONARY
360
280
102
}
330
2A
100
AcDbVisualStyle
  2
Shaded with edges
 70
    26
 71
     2
 72
     2
 73
     1
 90
        2
 40
0.6
 41
30.0
 62
     5
 63
     7
421
 16777215
 74
     1
 91
       10
 64
     7
 65
   257
 75
     2
175
     1
 42
1.0
 92
        8
 66
   257
 43
1.0
 76
     1
 77
     6
 78
     2
 67
     7
 79
     3
170
     0
171
     0
290
     0
174
     0
 93
        5
 44
0.0
173
     0
291
     0
 45
0.0
  0
VISUALSTYLE
  5
3E
102
{ACAD_REACTORS
330
2A
102
}
102
{ACAD_XDICTIONARY
360
27A
102
}
330
2A
100
AcDbVisualStyle
  2
Shades of Gray
 70
    23
 71
     2
 72
     2
 73
     3
 90
        0
 40
0.6
 41
30.0
 62
     5
 63
     7
421
 16777215
 74
     2
 91
        2
 64
     7
 65
     7
 75
     1
175
     1
 42
40.0
 92
        8
 66
     7
 43
1.0
 76
     1
 77
     6
 78
     2
 67
     7
 79
     3
170
     0
171
     0
290
     0
174
     0
 93
        1
 44
0.0
173
     0
291
     0
 45
0.0
  0
VISUALSTYLE
  5
3F
102
{ACAD_REACTORS
330
2A
102
}
102
{ACAD_XDICTIONARY
360
27C
102
}
330
2A
100
AcDbVisualStyle
  2
Sketchy
 70
    24
 71
     1
 72
     2
 73
     2
 90
        0
 40
0.6
 41
30.0
 62
     5
 63
     7
421
 16777215
 74
     2
 91
        2
 64
     7
 65
     7
 75
     1
175
     1
 42
40.0
 92
       11
 66
     7
 43
1.0
 76
     1
 77
     6
 78
     2
 67
     7
 79
     6
170
     0
171
     0
290
     0
174
     0
 93
        1
 44
0.0
173
     0
291
     0
 45
0.0
  0
VISUALSTYLE
  5
37
102
{ACAD_REACTORS
330
2A
102
}
102
{ACAD_XDICTIONARY
360
26C
102
}
330
2A
100
AcDbVisualStyle
  2
Thicken
 70
    13
 71
     2
 72
     2
 73
     0
 90
        0
 40
0.6
 41
30.0
 62
     5
 63
     7
421
 16777215
 74
     1
 91
        4
 64
     7
 65
   257
 75
     1
175
     1
 42
1.0
 92
       12
 66
     7
 43
1.0
 76
     1
 77
     6
 78
     2
 67
     7
 79
     5
170
     0
171
     0
290
     0
174
     0
 93
        1
 44
0.0
173
     0
291
     1
 45
0.0
  0
VISUALSTYLE
  5
30
102
{ACAD_REACTORS
330
2A
102
}
102
{ACAD_XDICTIONARY
360
25E
102
}
330
2A
100
AcDbVisualStyle
  2
Wireframe
 70
     5
 71
     0
 72
     2
 73
     0
 90
        0
 40
0.6
 41
30.0
 62
     5
 63
     7
421
 16777215
 74
     1
 91
        4
 64
     7
 65
   257
 75
     1
175
     1
 42
1.0
 92
        0
 66
   257
 43
1.0
 76
     1
 77
     6
 78
     2
 67
     7
 79
     3
170
     0
171
     0
290
     0
174
     0
 93
        1
 44
0.0
173
     0
291
     0
 45
0.0
  0
VISUALSTYLE
  5
40
102
{ACAD_REACTORS
330
2A
102
}
102
{ACAD_XDICTIONARY
360
27E
102
}
330
2A
100
AcDbVisualStyle
  2
X-Ray
 70
    25
 71
     2
 72
     2
 73
     1
 90
        1
 40
0.5
 41
30.0
 62
     5
 63
     7
421
 16777215
 74
     1
 91
        0
 64
     7
 65
   257
 75
     1
175
     1
 42
1.0
 92
        8
 66
     7
 43
1.0
 76
     1
 77
     6
 78
     2
 67
     7
 79
     3
170
     0
171
     0
290
     0
174
     0
 93
       13
 44
0.0
173
     0
291
     0
 45
0.0
  0
DICTIONARYVAR
  5
252
102
{ACAD_REACTORS
330
251
102
}
330
251
100
DictionaryVariables
280
     0
  1
1:1
  0
DICTIONARYVAR
  5
28E
102
{ACAD_REACTORS
330
251
102
}
330
251
100
DictionaryVariables
280
     0
  1
3.500000
  0
DICTIONARYVAR
  5
28F
102
{ACAD_REACTORS
330
251
102
}
330
251
100
DictionaryVariables
280
     0
  1
acadiso.lin
  0
DICTIONARYVAR
  5
28B
102
{ACAD_REACTORS
330
251
102
}
330
251
100
DictionaryVariables
280
     0
  1
Standard
  0
DICTIONARYVAR
  5
28A
102
{ACAD_REACTORS
330
251
102
}
330
251
100
DictionaryVariables
280
     0
  1
Standard
  0
DICTIONARYVAR
  5
253
102
{ACAD_REACTORS
330
251
102
}
330
251
100
DictionaryVariables
280
     0
  1
2
  0
DICTIONARY
  5
287
330
6C
100
AcDbDictionary
280
     1
281
     1
  3
ACAD_XREC_ROUNDTRIP
360
288
  0
DICTIONARY
  5
284
330
6A
100
AcDbDictionary
280
     1
281
     1
  3
ACAD_ROUNDTRIP_2008_TABLESTYLE_CELLSTYLEMAP
360
285
  0
DICTIONARY
  5
25C
330
2F
100
AcDbDictionary
280
     1
281
     1
  3
ACAD_XREC_ROUNDTRIP
360
25D
  0
DICTIONARY
  5
262
330
32
100
AcDbDictionary
280
     1
281
     1
  3
ACAD_XREC_ROUNDTRIP
360
263
  0
DICTIONARY
  5
26A
330
36
100
AcDbDictionary
280
     1
281
     1
  3
ACAD_XREC_ROUNDTRIP
360
26B
  0
DICTIONARY
  5
272
330
3A
100
AcDbDictionary
280
     1
281
     1
  3
ACAD_XREC_ROUNDTRIP
360
273
  0
DICTIONARY
  5
266
330
34
100
AcDbDictionary
280
     1
281
     1
  3
ACAD_XREC_ROUNDTRIP
360
267
  0
DICTIONARY
  5
268
330
35
100
AcDbDictionary
280
     1
281
     1
  3
ACAD_XREC_ROUNDTRIP
360
269
  0
DICTIONARY
  5
278
330
3D
100
AcDbDictionary
280
     1
281
     1
  3
ACAD_XREC_ROUNDTRIP
360
279
  0
DICTIONARY
  5
270
330
39
100
AcDbDictionary
280
     1
281
     1
  3
ACAD_XREC_ROUNDTRIP
360
271
  0
DICTIONARY
  5
254
330
2B
100
AcDbDictionary
280
     1
281
     1
  3
ACAD_XREC_ROUNDTRIP
360
255
  0
DICTIONARY
  5
256
330
2C
100
AcDbDictionary
280
     1
281
     1
  3
ACAD_XREC_ROUNDTRIP
360
257
  0
DICTIONARY
  5
258
330
2D
100
AcDbDictionary
280
     1
281
     1
  3
ACAD_XREC_ROUNDTRIP
360
259
  0
DICTIONARY
  5
25A
330
2E
100
AcDbDictionary
280
     1
281
     1
  3
ACAD_XREC_ROUNDTRIP
360
25B
  0
DICTIONARY
  5
260
330
31
100
AcDbDictionary
280
     1
281
     1
  3
ACAD_XREC_ROUNDTRIP
360
261
  0
DICTIONARY
  5
274
330
3B
100
AcDbDictionary
280
     1
281
     1
  3
ACAD_XREC_ROUNDTRIP
360
275
  0
DICTIONARY
  5
26E
330
38
100
AcDbDictionary
280
     1
281
     1
  3
ACAD_XREC_ROUNDTRIP
360
26F
  0
DICTIONARY
  5
276
330
3C
100
AcDbDictionary
280
     1
281
     1
  3
ACAD_XREC_ROUNDTRIP
360
277
  0
DICTIONARY
  5
264
330
33
100
AcDbDictionary
280
     1
281
     1
  3
ACAD_XREC_ROUNDTRIP
360
265
  0
DICTIONARY
  5
282
330
42
100
AcDbDictionary
280
     1
281
     1
  3
ACAD_XREC_ROUNDTRIP
360
283
  0
DICTIONARY
  5
280
330
41
100
AcDbDictionary
280
     1
281
     1
  3
ACAD_XREC_ROUNDTRIP
360
281
  0
DICTIONARY
  5
27A
330
3E
100
AcDbDictionary
280
     1
281
     1
  3
ACAD_XREC_ROUNDTRIP
360
27B
  0
DICTIONARY
  5
27C
330
3F
100
AcDbDictionary
280
     1
281
     1
  3
ACAD_XREC_ROUNDTRIP
360
27D
  0
DICTIONARY
  5
26C
330
37
100
AcDbDictionary
280
     1
281
     1
  3
ACAD_XREC_ROUNDTRIP
360
26D
  0
DICTIONARY
  5
25E
330
30
100
AcDbDictionary
280
     1
281
     1
  3
ACAD_XREC_ROUNDTRIP
360
25F
  0
DICTIONARY
  5
27E
330
40
100
AcDbDictionary
280
     1
281
     1
  3
ACAD_XREC_ROUNDTRIP
360
27F
  0
XRECORD
  5
288
102
{ACAD_REACTORS
330
287
102
}
330
287
100
AcDbXrecord
280
     1
102
ACAD_ROUNDTRIP_2010_MLEADER_STYLE
  0
CELLSTYLEMAP
  5
285
102
{ACAD_REACTORS
330
284
102
}
330
284
100
AcDbCellStyleMap
 90
        3
300
CELLSTYLE
  1
TABLEFORMAT_BEGIN
 90
        5
170
     1
 91
        0
 92
    32768
 62
   257
 93
        1
300
CONTENTFORMAT
  1
CONTENTFORMAT_BEGIN
 90
        0
 91
        0
 92
        4
 93
        0
300

 40
0.0
140
1.0
 94
        5
 62
     0
340
11
144
6.0
309
CONTENTFORMAT_END
171
     1
301
MARGIN
  1
CELLMARGIN_BEGIN
 40
1.5
 40
1.5
 40
1.5
 40
1.5
 40
1.5
 40
1.5
309
CELLMARGIN_END
 94
        6
 95
        1
302
GRIDFORMAT
  1
GRIDFORMAT_BEGIN
 90
        0
 91
        1
 62
     0
 92
       -2
340
14
 93
        0
 40
0.045
309
GRIDFORMAT_END
 95
        2
302
GRIDFORMAT
  1
GRIDFORMAT_BEGIN
 90
        0
 91
        1
 62
     0
 92
       -2
340
14
 93
        0
 40
0.045
309
GRIDFORMAT_END
 95
        4
302
GRIDFORMAT
  1
GRIDFORMAT_BEGIN
 90
        0
 91
        1
 62
     0
 92
       -2
340
14
 93
        0
 40
0.045
309
GRIDFORMAT_END
 95
        8
302
GRIDFORMAT
  1
GRIDFORMAT_BEGIN
 90
        0
 91
        1
 62
     0
 92
       -2
340
14
 93
        0
 40
0.045
309
GRIDFORMAT_END
 95
       16
302
GRIDFORMAT
  1
GRIDFORMAT_BEGIN
 90
        0
 91
        1
 62
     0
 92
       -2
340
14
 93
        0
 40
0.045
309
GRIDFORMAT_END
 95
       32
302
GRIDFORMAT
  1
GRIDFORMAT_BEGIN
 90
        0
 91
        1
 62
     0
 92
       -2
340
14
 93
        0
 40
0.045
309
GRIDFORMAT_END
309
TABLEFORMAT_END
  1
CELLSTYLE_BEGIN
 90
        1
 91
        1
300
_TITLE
309
CELLSTYLE_END
300
CELLSTYLE
  1
TABLEFORMAT_BEGIN
 90
        5
170
     1
 91
        0
 92
        0
 62
   257
 93
        1
300
CONTENTFORMAT
  1
CONTENTFORMAT_BEGIN
 90
        0
 91
        0
 92
        4
 93
        0
300

 40
0.0
140
1.0
 94
        5
 62
     0
340
11
144
4.5
309
CONTENTFORMAT_END
171
     1
301
MARGIN
  1
CELLMARGIN_BEGIN
 40
1.5
 40
1.5
 40
1.5
 40
1.5
 40
1.5
 40
1.5
309
CELLMARGIN_END
 94
        6
 95
        1
302
GRIDFORMAT
  1
GRIDFORMAT_BEGIN
 90
        0
 91
        1
 62
     0
 92
       -2
340
14
 93
        0
 40
0.045
309
GRIDFORMAT_END
 95
        2
302
GRIDFORMAT
  1
GRIDFORMAT_BEGIN
 90
        0
 91
        1
 62
     0
 92
       -2
340
14
 93
        0
 40
0.045
309
GRIDFORMAT_END
 95
        4
302
GRIDFORMAT
  1
GRIDFORMAT_BEGIN
 90
        0
 91
        1
 62
     0
 92
       -2
340
14
 93
        0
 40
0.045
309
GRIDFORMAT_END
 95
        8
302
GRIDFORMAT
  1
GRIDFORMAT_BEGIN
 90
        0
 91
        1
 62
     0
 92
       -2
340
14
 93
        0
 40
0.045
309
GRIDFORMAT_END
 95
       16
302
GRIDFORMAT
  1
GRIDFORMAT_BEGIN
 90
        0
 91
        1
 62
     0
 92
       -2
340
14
 93
        0
 40
0.045
309
GRIDFORMAT_END
 95
       32
302
GRIDFORMAT
  1
GRIDFORMAT_BEGIN
 90
        0
 91
        1
 62
     0
 92
       -2
340
14
 93
        0
 40
0.045
309
GRIDFORMAT_END
309
TABLEFORMAT_END
  1
CELLSTYLE_BEGIN
 90
        2
 91
        1
300
_HEADER
309
CELLSTYLE_END
300
CELLSTYLE
  1
TABLEFORMAT_BEGIN
 90
        5
170
     1
 91
        0
 92
        0
 62
   257
 93
        1
300
CONTENTFORMAT
  1
CONTENTFORMAT_BEGIN
 90
        0
 91
        0
 92
        4
 93
        0
300

 40
0.0
140
1.0
 94
        2
 62
     0
340
11
144
4.5
309
CONTENTFORMAT_END
171
     1
301
MARGIN
  1
CELLMARGIN_BEGIN
 40
1.5
 40
1.5
 40
1.5
 40
1.5
 40
1.5
 40
1.5
309
CELLMARGIN_END
 94
        6
 95
        1
302
GRIDFORMAT
  1
GRIDFORMAT_BEGIN
 90
        0
 91
        1
 62
     0
 92
       -2
340
14
 93
        0
 40
0.045
309
GRIDFORMAT_END
 95
        2
302
GRIDFORMAT
  1
GRIDFORMAT_BEGIN
 90
        0
 91
        1
 62
     0
 92
       -2
340
14
 93
        0
 40
0.045
309
GRIDFORMAT_END
 95
        4
302
GRIDFORMAT
  1
GRIDFORMAT_BEGIN
 90
        0
 91
        1
 62
     0
 92
       -2
340
14
 93
        0
 40
0.045
309
GRIDFORMAT_END
 95
        8
302
GRIDFORMAT
  1
GRIDFORMAT_BEGIN
 90
        0
 91
        1
 62
     0
 92
       -2
340
14
 93
        0
 40
0.045
309
GRIDFORMAT_END
 95
       16
302
GRIDFORMAT
  1
GRIDFORMAT_BEGIN
 90
        0
 91
        1
 62
     0
 92
       -2
340
14
 93
        0
 40
0.045
309
GRIDFORMAT_END
 95
       32
302
GRIDFORMAT
  1
GRIDFORMAT_BEGIN
 90
        0
 91
        1
 62
     0
 92
       -2
340
14
 93
        0
 40
0.045
309
GRIDFORMAT_END
309
TABLEFORMAT_END
  1
CELLSTYLE_BEGIN
 90
        3
 91
        2
300
_DATA
309
CELLSTYLE_END
  0
XRECORD
  5
25D
102
{ACAD_REACTORS
330
25C
102
}
330
25C
100
AcDbXrecord
280
     1
102
RTVSPropertyOp0
 70
     1
102
RTVSPropertyOp1
 70
     1
102
RTVSPropertyOp2
 70
     1
102
RTVSPropertyOp3
 70
     1
102
RTVSPropertyOp4
 70
     1
102
RTVSPropertyOp5
 70
     1
102
RTVSPropertyOp6
 70
     1
102
RTVSPropertyOp7
 70
     1
102
RTVSPropertyOp8
 70
     1
102
RTVSPropertyOp9
 70
     1
102
RTVSPropertyOp10
 70
     1
102
RTVSPropertyOp11
 70
     1
102
RTVSPropertyOp12
 70
     1
102
RTVSPropertyOp13
 70
     1
102
RTVSPropertyOp14
 70
     1
102
RTVSPropertyOp15
 70
     1
102
RTVSPropertyOp16
 70
     1
102
RTVSPropertyOp17
 70
     1
102
RTVSPropertyOp18
 70
     1
102
RTVSPropertyOp19
 70
     1
102
RTVSPropertyOp20
 70
     1
102
RTVSPropertyOp21
 70
     1
102
RTVSPropertyOp22
 70
     1
102
RTVSPropertyOp23
 70
     1
102
RTVSPropertyOp24
 70
     1
102
RTVSPropertyOp25
 70
     1
102
RTVSPropertyOp26
 70
     1
102
RTVSPropertyOp27
 70
     1
102
RTVSPropertyOp28
 70
     1
102
RTVSPropertyOp29
 70
     1
102
RTVSPropertyOp30
 70
     1
102
RTVSPropertyOp31
 70
     1
102
RTVSPropertyOp32
 70
     1
102
RTVSPropertyOp33
 70
     1
102
RTVSPropertyOp34
 70
     1
102
RTVSPropertyOp35
 70
     1
102
RTVSPropertyOp36
 70
     1
102
RTVSPropertyOp37
 70
     1
102
RTVSPropertyOp38
 70
     1
102
RTVSPropertyOp39
 70
     1
102
RTVSPropertyOp40
 70
     1
102
RTVSPropertyOp41
 70
     1
102
RTVSPropertyOp42
 70
     1
102
RTVSPropertyOp43
 70
     1
102
RTVSPropertyOp44
 70
     1
102
RTVSPropertyOp45
 70
     1
102
RTVSPropertyOp46
 70
     1
102
RTVSPropertyOp47
 70
     1
102
RTVSPropertyOp48
 70
     1
102
RTVSPropertyOp49
 70
     1
102
RTVSPropertyOp50
 70
     1
102
RTVSPropertyOp51
 70
     0
102
RTVSPropertyOp52
 70
     0
102
RTVSPropertyOp53
 70
     1
102
RTVSPropertyOp54
 70
     1
102
RTVSPropertyOp55
 70
     1
102
RTVSPropertyOp56
 70
     1
102
RTVSPropertyOp57
 70
     1
102
RTVSPost2010Prop28
280
     1
102
RTVSPost2010PropOp28
 70
     1
102
RTVSPost2010Prop29
280
     1
102
RTVSPost2010PropOp29
 70
     1
102
RTVSPost2010Prop30
280
     0
102
RTVSPost2010PropOp30
 70
     1
102
RTVSPost2010Prop31
280
     0
102
RTVSPost2010PropOp31
 70
     1
102
RTVSPost2010Prop32
280
     0
102
RTVSPost2010PropOp32
 70
     1
102
RTVSPost2010Prop33
280
     0
102
RTVSPost2010PropOp33
 70
     1
102
RTVSPost2010Prop34
280
     0
102
RTVSPost2010PropOp34
 70
     1
102
RTVSPost2010Prop35
280
     0
102
RTVSPost2010PropOp35
 70
     1
102
RTVSPost2010Prop36
280
     0
102
RTVSPost2010PropOp36
 70
     1
102
RTVSPost2010Prop37
 90
       50
102
RTVSPost2010PropOp37
 70
     1
102
RTVSPost2010Prop38
140
0.0
102
RTVSPost2010PropOp38
 70
     1
102
RTVSPost2010Prop39
140
1.0
102
RTVSPost2010PropOp39
 70
     1
102
RTVSPost2010Prop40
 90
        0
102
RTVSPost2010PropOp40
 70
     1
102
RTVSPost2010Prop41ColorIndex
 90
       18
102
RTVSPost2010Prop41ColorRGB
 90
        0
102
RTVSPost2010PropOp41
 70
     1
102
RTVSPost2010Prop42
 90
       50
102
RTVSPost2010PropOp42
 70
     1
102
RTVSPost2010Prop43
 90
        3
102
RTVSPost2010PropOp43
 70
     1
102
RTVSPost2010Prop44ColorIndex
 90
        5
102
RTVSPost2010Prop44ColorRGB
 90
      255
102
RTVSPost2010PropOp44
 70
     1
102
RTVSPost2010Prop45
280
     0
102
RTVSPost2010PropOp45
 70
     1
102
RTVSPost2010Prop46
 90
       50
102
RTVSPost2010PropOp46
 70
     1
102
RTVSPost2010Prop47
 90
       50
102
RTVSPost2010PropOp47
 70
     1
102
RTVSPost2010Prop48
 90
       50
102
RTVSPost2010PropOp48
 70
     1
102
RTVSPost2010Prop49
280
     0
102
RTVSPost2010PropOp49
 70
     1
102
RTVSPost2010Prop50
 90
       50
102
RTVSPost2010PropOp50
 70
     1
102
RTVSPost2010Prop51ColorIndex
 90
      256
102
RTVSPost2010Prop51ColorRGB
 90
-16777216
102
RTVSPost2010PropOp51
 70
     0
102
RTVSPost2010Prop52
140
1.0
102
RTVSPost2010PropOp52
 70
     0
102
RTVSPost2010Prop53
 90
        2
102
RTVSPost2010PropOp53
 70
     1
102
RTVSPost2010Prop54
  1
strokes_ogs.tif
102
RTVSPost2010PropOp54
 70
     1
102
RTVSPost2010Prop55
280
     0
102
RTVSPost2010PropOp55
 70
     1
102
RTVSPost2010Prop56
140
1.0
102
RTVSPost2010PropOp56
 70
     1
102
RTVSPost2010Prop57
140
1.0
102
RTVSPost2010PropOp57
 70
     1
  0
XRECORD
  5
263
102
{ACAD_REACTORS
330
262
102
}
330
262
100
AcDbXrecord
280
     1
102
RTVSPropertyOp0
 70
     1
102
RTVSPropertyOp1
 70
     1
102
RTVSPropertyOp2
 70
     1
102
RTVSPropertyOp3
 70
     1
102
RTVSPropertyOp4
 70
     1
102
RTVSPropertyOp5
 70
     1
102
RTVSPropertyOp6
 70
     1
102
RTVSPropertyOp7
 70
     1
102
RTVSPropertyOp8
 70
     1
102
RTVSPropertyOp9
 70
     1
102
RTVSPropertyOp10
 70
     1
102
RTVSPropertyOp11
 70
     1
102
RTVSPropertyOp12
 70
     1
102
RTVSPropertyOp13
 70
     1
102
RTVSPropertyOp14
 70
     1
102
RTVSPropertyOp15
 70
     1
102
RTVSPropertyOp16
 70
     1
102
RTVSPropertyOp17
 70
     1
102
RTVSPropertyOp18
 70
     1
102
RTVSPropertyOp19
 70
     1
102
RTVSPropertyOp20
 70
     1
102
RTVSPropertyOp21
 70
     1
102
RTVSPropertyOp22
 70
     1
102
RTVSPropertyOp23
 70
     1
102
RTVSPropertyOp24
 70
     1
102
RTVSPropertyOp25
 70
     1
102
RTVSPropertyOp26
 70
     1
102
RTVSPropertyOp27
 70
     1
102
RTVSPropertyOp28
 70
     1
102
RTVSPropertyOp29
 70
     1
102
RTVSPropertyOp30
 70
     1
102
RTVSPropertyOp31
 70
     1
102
RTVSPropertyOp32
 70
     1
102
RTVSPropertyOp33
 70
     1
102
RTVSPropertyOp34
 70
     1
102
RTVSPropertyOp35
 70
     1
102
RTVSPropertyOp36
 70
     1
102
RTVSPropertyOp37
 70
     1
102
RTVSPropertyOp38
 70
     1
102
RTVSPropertyOp39
 70
     1
102
RTVSPropertyOp40
 70
     1
102
RTVSPropertyOp41
 70
     1
102
RTVSPropertyOp42
 70
     1
102
RTVSPropertyOp43
 70
     1
102
RTVSPropertyOp44
 70
     1
102
RTVSPropertyOp45
 70
     1
102
RTVSPropertyOp46
 70
     1
102
RTVSPropertyOp47
 70
     1
102
RTVSPropertyOp48
 70
     1
102
RTVSPropertyOp49
 70
     1
102
RTVSPropertyOp50
 70
     1
102
RTVSPropertyOp51
 70
     0
102
RTVSPropertyOp52
 70
     0
102
RTVSPropertyOp53
 70
     1
102
RTVSPropertyOp54
 70
     1
102
RTVSPropertyOp55
 70
     1
102
RTVSPropertyOp56
 70
     1
102
RTVSPropertyOp57
 70
     1
102
RTVSPost2010Prop28
280
     0
102
RTVSPost2010PropOp28
 70
     1
102
RTVSPost2010Prop29
280
     1
102
RTVSPost2010PropOp29
 70
     1
102
RTVSPost2010Prop30
280
     1
102
RTVSPost2010PropOp30
 70
     1
102
RTVSPost2010Prop31
280
     0
102
RTVSPost2010PropOp31
 70
     1
102
RTVSPost2010Prop32
280
     0
102
RTVSPost2010PropOp32
 70
     1
102
RTVSPost2010Prop33
280
     0
102
RTVSPost2010PropOp33
 70
     1
102
RTVSPost2010Prop34
280
     0
102
RTVSPost2010PropOp34
 70
     1
102
RTVSPost2010Prop35
280
     0
102
RTVSPost2010PropOp35
 70
     1
102
RTVSPost2010Prop36
280
     0
102
RTVSPost2010PropOp36
 70
     1
102
RTVSPost2010Prop37
 90
       50
102
RTVSPost2010PropOp37
 70
     1
102
RTVSPost2010Prop38
140
0.0
102
RTVSPost2010PropOp38
 70
     1
102
RTVSPost2010Prop39
140
1.0
102
RTVSPost2010PropOp39
 70
     1
102
RTVSPost2010Prop40
 90
        0
102
RTVSPost2010PropOp40
 70
     1
102
RTVSPost2010Prop41ColorIndex
 90
       18
102
RTVSPost2010Prop41ColorRGB
 90
        0
102
RTVSPost2010PropOp41
 70
     1
102
RTVSPost2010Prop42
 90
       50
102
RTVSPost2010PropOp42
 70
     1
102
RTVSPost2010Prop43
 90
        3
102
RTVSPost2010PropOp43
 70
     1
102
RTVSPost2010Prop44ColorIndex
 90
        5
102
RTVSPost2010Prop44ColorRGB
 90
      255
102
RTVSPost2010PropOp44
 70
     1
102
RTVSPost2010Prop45
280
     0
102
RTVSPost2010PropOp45
 70
     1
102
RTVSPost2010Prop46
 90
       50
102
RTVSPost2010PropOp46
 70
     1
102
RTVSPost2010Prop47
 90
       50
102
RTVSPost2010PropOp47
 70
     1
102
RTVSPost2010Prop48
 90
       50
102
RTVSPost2010PropOp48
 70
     1
102
RTVSPost2010Prop49
280
     0
102
RTVSPost2010PropOp49
 70
     1
102
RTVSPost2010Prop50
 90
       50
102
RTVSPost2010PropOp50
 70
     1
102
RTVSPost2010Prop51ColorIndex
 90
      256
102
RTVSPost2010Prop51ColorRGB
 90
-16777216
102
RTVSPost2010PropOp51
 70
     0
102
RTVSPost2010Prop52
140
1.0
102
RTVSPost2010PropOp52
 70
     0
102
RTVSPost2010Prop53
 90
        2
102
RTVSPost2010PropOp53
 70
     1
102
RTVSPost2010Prop54
  1
strokes_ogs.tif
102
RTVSPost2010PropOp54
 70
     1
102
RTVSPost2010Prop55
280
     0
102
RTVSPost2010PropOp55
 70
     1
102
RTVSPost2010Prop56
140
1.0
102
RTVSPost2010PropOp56
 70
     1
102
RTVSPost2010Prop57
140
1.0
102
RTVSPost2010PropOp57
 70
     1
  0
XRECORD
  5
26B
102
{ACAD_REACTORS
330
26A
102
}
330
26A
100
AcDbXrecord
280
     1
102
RTVSPropertyOp0
 70
     1
102
RTVSPropertyOp1
 70
     1
102
RTVSPropertyOp2
 70
     1
102
RTVSPropertyOp3
 70
     1
102
RTVSPropertyOp4
 70
     1
102
RTVSPropertyOp5
 70
     1
102
RTVSPropertyOp6
 70
     1
102
RTVSPropertyOp7
 70
     1
102
RTVSPropertyOp8
 70
     1
102
RTVSPropertyOp9
 70
     1
102
RTVSPropertyOp10
 70
     1
102
RTVSPropertyOp11
 70
     1
102
RTVSPropertyOp12
 70
     1
102
RTVSPropertyOp13
 70
     1
102
RTVSPropertyOp14
 70
     1
102
RTVSPropertyOp15
 70
     1
102
RTVSPropertyOp16
 70
     1
102
RTVSPropertyOp17
 70
     1
102
RTVSPropertyOp18
 70
     1
102
RTVSPropertyOp19
 70
     1
102
RTVSPropertyOp20
 70
     1
102
RTVSPropertyOp21
 70
     1
102
RTVSPropertyOp22
 70
     1
102
RTVSPropertyOp23
 70
     1
102
RTVSPropertyOp24
 70
     1
102
RTVSPropertyOp25
 70
     1
102
RTVSPropertyOp26
 70
     1
102
RTVSPropertyOp27
 70
     1
102
RTVSPropertyOp28
 70
     1
102
RTVSPropertyOp29
 70
     1
102
RTVSPropertyOp30
 70
     1
102
RTVSPropertyOp31
 70
     1
102
RTVSPropertyOp32
 70
     1
102
RTVSPropertyOp33
 70
     1
102
RTVSPropertyOp34
 70
     1
102
RTVSPropertyOp35
 70
     1
102
RTVSPropertyOp36
 70
     1
102
RTVSPropertyOp37
 70
     1
102
RTVSPropertyOp38
 70
     1
102
RTVSPropertyOp39
 70
     1
102
RTVSPropertyOp40
 70
     1
102
RTVSPropertyOp41
 70
     1
102
RTVSPropertyOp42
 70
     1
102
RTVSPropertyOp43
 70
     1
102
RTVSPropertyOp44
 70
     1
102
RTVSPropertyOp45
 70
     1
102
RTVSPropertyOp46
 70
     1
102
RTVSPropertyOp47
 70
     1
102
RTVSPropertyOp48
 70
     1
102
RTVSPropertyOp49
 70
     1
102
RTVSPropertyOp50
 70
     1
102
RTVSPropertyOp51
 70
     0
102
RTVSPropertyOp52
 70
     0
102
RTVSPropertyOp53
 70
     1
102
RTVSPropertyOp54
 70
     1
102
RTVSPropertyOp55
 70
     1
102
RTVSPropertyOp56
 70
     1
102
RTVSPropertyOp57
 70
     1
102
RTVSPost2010Prop28
280
     0
102
RTVSPost2010PropOp28
 70
     1
102
RTVSPost2010Prop29
280
     1
102
RTVSPost2010PropOp29
 70
     1
102
RTVSPost2010Prop30
280
     1
102
RTVSPost2010PropOp30
 70
     1
102
RTVSPost2010Prop31
280
     0
102
RTVSPost2010PropOp31
 70
     1
102
RTVSPost2010Prop32
280
     0
102
RTVSPost2010PropOp32
 70
     1
102
RTVSPost2010Prop33
280
     0
102
RTVSPost2010PropOp33
 70
     1
102
RTVSPost2010Prop34
280
     0
102
RTVSPost2010PropOp34
 70
     1
102
RTVSPost2010Prop35
280
     0
102
RTVSPost2010PropOp35
 70
     1
102
RTVSPost2010Prop36
280
     0
102
RTVSPost2010PropOp36
 70
     1
102
RTVSPost2010Prop37
 90
       50
102
RTVSPost2010PropOp37
 70
     1
102
RTVSPost2010Prop38
140
0.0
102
RTVSPost2010PropOp38
 70
     1
102
RTVSPost2010Prop39
140
1.0
102
RTVSPost2010PropOp39
 70
     1
102
RTVSPost2010Prop40
 90
        0
102
RTVSPost2010PropOp40
 70
     1
102
RTVSPost2010Prop41ColorIndex
 90
       18
102
RTVSPost2010Prop41ColorRGB
 90
        0
102
RTVSPost2010PropOp41
 70
     1
102
RTVSPost2010Prop42
 90
       50
102
RTVSPost2010PropOp42
 70
     1
102
RTVSPost2010Prop43
 90
        3
102
RTVSPost2010PropOp43
 70
     1
102
RTVSPost2010Prop44ColorIndex
 90
        5
102
RTVSPost2010Prop44ColorRGB
 90
      255
102
RTVSPost2010PropOp44
 70
     1
102
RTVSPost2010Prop45
280
     0
102
RTVSPost2010PropOp45
 70
     1
102
RTVSPost2010Prop46
 90
       50
102
RTVSPost2010PropOp46
 70
     1
102
RTVSPost2010Prop47
 90
       50
102
RTVSPost2010PropOp47
 70
     1
102
RTVSPost2010Prop48
 90
       50
102
RTVSPost2010PropOp48
 70
     1
102
RTVSPost2010Prop49
280
     0
102
RTVSPost2010PropOp49
 70
     1
102
RTVSPost2010Prop50
 90
       50
102
RTVSPost2010PropOp50
 70
     1
102
RTVSPost2010Prop51ColorIndex
 90
      256
102
RTVSPost2010Prop51ColorRGB
 90
-16777216
102
RTVSPost2010PropOp51
 70
     0
102
RTVSPost2010Prop52
140
1.0
102
RTVSPost2010PropOp52
 70
     0
102
RTVSPost2010Prop53
 90
        2
102
RTVSPost2010PropOp53
 70
     1
102
RTVSPost2010Prop54
  1
strokes_ogs.tif
102
RTVSPost2010PropOp54
 70
     1
102
RTVSPost2010Prop55
280
     0
102
RTVSPost2010PropOp55
 70
     1
102
RTVSPost2010Prop56
140
1.0
102
RTVSPost2010PropOp56
 70
     1
102
RTVSPost2010Prop57
140
1.0
102
RTVSPost2010PropOp57
 70
     1
  0
XRECORD
  5
273
102
{ACAD_REACTORS
330
272
102
}
330
272
100
AcDbXrecord
280
     1
102
RTVSPropertyOp0
 70
     1
102
RTVSPropertyOp1
 70
     1
102
RTVSPropertyOp2
 70
     1
102
RTVSPropertyOp3
 70
     1
102
RTVSPropertyOp4
 70
     1
102
RTVSPropertyOp5
 70
     1
102
RTVSPropertyOp6
 70
     1
102
RTVSPropertyOp7
 70
     1
102
RTVSPropertyOp8
 70
     1
102
RTVSPropertyOp9
 70
     1
102
RTVSPropertyOp10
 70
     1
102
RTVSPropertyOp11
 70
     1
102
RTVSPropertyOp12
 70
     1
102
RTVSPropertyOp13
 70
     1
102
RTVSPropertyOp14
 70
     1
102
RTVSPropertyOp15
 70
     1
102
RTVSPropertyOp16
 70
     1
102
RTVSPropertyOp17
 70
     1
102
RTVSPropertyOp18
 70
     1
102
RTVSPropertyOp19
 70
     1
102
RTVSPropertyOp20
 70
     1
102
RTVSPropertyOp21
 70
     1
102
RTVSPropertyOp22
 70
     1
102
RTVSPropertyOp23
 70
     1
102
RTVSPropertyOp24
 70
     1
102
RTVSPropertyOp25
 70
     1
102
RTVSPropertyOp26
 70
     1
102
RTVSPropertyOp27
 70
     1
102
RTVSPropertyOp28
 70
     1
102
RTVSPropertyOp29
 70
     1
102
RTVSPropertyOp30
 70
     1
102
RTVSPropertyOp31
 70
     1
102
RTVSPropertyOp32
 70
     1
102
RTVSPropertyOp33
 70
     1
102
RTVSPropertyOp34
 70
     1
102
RTVSPropertyOp35
 70
     1
102
RTVSPropertyOp36
 70
     1
102
RTVSPropertyOp37
 70
     1
102
RTVSPropertyOp38
 70
     1
102
RTVSPropertyOp39
 70
     1
102
RTVSPropertyOp40
 70
     1
102
RTVSPropertyOp41
 70
     1
102
RTVSPropertyOp42
 70
     1
102
RTVSPropertyOp43
 70
     1
102
RTVSPropertyOp44
 70
     1
102
RTVSPropertyOp45
 70
     1
102
RTVSPropertyOp46
 70
     1
102
RTVSPropertyOp47
 70
     1
102
RTVSPropertyOp48
 70
     1
102
RTVSPropertyOp49
 70
     1
102
RTVSPropertyOp50
 70
     1
102
RTVSPropertyOp51
 70
     0
102
RTVSPropertyOp52
 70
     0
102
RTVSPropertyOp53
 70
     1
102
RTVSPropertyOp54
 70
     1
102
RTVSPropertyOp55
 70
     1
102
RTVSPropertyOp56
 70
     1
102
RTVSPropertyOp57
 70
     1
102
RTVSPost2010Prop28
280
     0
102
RTVSPost2010PropOp28
 70
     1
102
RTVSPost2010Prop29
280
     1
102
RTVSPost2010PropOp29
 70
     1
102
RTVSPost2010Prop30
280
     1
102
RTVSPost2010PropOp30
 70
     1
102
RTVSPost2010Prop31
280
     0
102
RTVSPost2010PropOp31
 70
     1
102
RTVSPost2010Prop32
280
     0
102
RTVSPost2010PropOp32
 70
     1
102
RTVSPost2010Prop33
280
     0
102
RTVSPost2010PropOp33
 70
     1
102
RTVSPost2010Prop34
280
     0
102
RTVSPost2010PropOp34
 70
     1
102
RTVSPost2010Prop35
280
     0
102
RTVSPost2010PropOp35
 70
     1
102
RTVSPost2010Prop36
280
     0
102
RTVSPost2010PropOp36
 70
     1
102
RTVSPost2010Prop37
 90
       50
102
RTVSPost2010PropOp37
 70
     1
102
RTVSPost2010Prop38
140
0.0
102
RTVSPost2010PropOp38
 70
     1
102
RTVSPost2010Prop39
140
1.0
102
RTVSPost2010PropOp39
 70
     1
102
RTVSPost2010Prop40
 90
        0
102
RTVSPost2010PropOp40
 70
     1
102
RTVSPost2010Prop41ColorIndex
 90
       18
102
RTVSPost2010Prop41ColorRGB
 90
        0
102
RTVSPost2010PropOp41
 70
     1
102
RTVSPost2010Prop42
 90
       50
102
RTVSPost2010PropOp42
 70
     1
102
RTVSPost2010Prop43
 90
        3
102
RTVSPost2010PropOp43
 70
     1
102
RTVSPost2010Prop44ColorIndex
 90
        5
102
RTVSPost2010Prop44ColorRGB
 90
      255
102
RTVSPost2010PropOp44
 70
     1
102
RTVSPost2010Prop45
280
     0
102
RTVSPost2010PropOp45
 70
     1
102
RTVSPost2010Prop46
 90
       50
102
RTVSPost2010PropOp46
 70
     1
102
RTVSPost2010Prop47
 90
       50
102
RTVSPost2010PropOp47
 70
     1
102
RTVSPost2010Prop48
 90
       50
102
RTVSPost2010PropOp48
 70
     1
102
RTVSPost2010Prop49
280
     0
102
RTVSPost2010PropOp49
 70
     1
102
RTVSPost2010Prop50
 90
       50
102
RTVSPost2010PropOp50
 70
     1
102
RTVSPost2010Prop51ColorIndex
 90
      256
102
RTVSPost2010Prop51ColorRGB
 90
-16777216
102
RTVSPost2010PropOp51
 70
     0
102
RTVSPost2010Prop52
140
1.0
102
RTVSPost2010PropOp52
 70
     0
102
RTVSPost2010Prop53
 90
        2
102
RTVSPost2010PropOp53
 70
     1
102
RTVSPost2010Prop54
  1
strokes_ogs.tif
102
RTVSPost2010PropOp54
 70
     1
102
RTVSPost2010Prop55
280
     0
102
RTVSPost2010PropOp55
 70
     1
102
RTVSPost2010Prop56
140
1.0
102
RTVSPost2010PropOp56
 70
     1
102
RTVSPost2010Prop57
140
1.0
102
RTVSPost2010PropOp57
 70
     1
  0
XRECORD
  5
267
102
{ACAD_REACTORS
330
266
102
}
330
266
100
AcDbXrecord
280
     1
102
RTVSPropertyOp0
 70
     1
102
RTVSPropertyOp1
 70
     1
102
RTVSPropertyOp2
 70
     1
102
RTVSPropertyOp3
 70
     1
102
RTVSPropertyOp4
 70
     1
102
RTVSPropertyOp5
 70
     1
102
RTVSPropertyOp6
 70
     1
102
RTVSPropertyOp7
 70
     1
102
RTVSPropertyOp8
 70
     1
102
RTVSPropertyOp9
 70
     1
102
RTVSPropertyOp10
 70
     1
102
RTVSPropertyOp11
 70
     1
102
RTVSPropertyOp12
 70
     1
102
RTVSPropertyOp13
 70
     1
102
RTVSPropertyOp14
 70
     1
102
RTVSPropertyOp15
 70
     1
102
RTVSPropertyOp16
 70
     1
102
RTVSPropertyOp17
 70
     1
102
RTVSPropertyOp18
 70
     1
102
RTVSPropertyOp19
 70
     1
102
RTVSPropertyOp20
 70
     1
102
RTVSPropertyOp21
 70
     1
102
RTVSPropertyOp22
 70
     1
102
RTVSPropertyOp23
 70
     1
102
RTVSPropertyOp24
 70
     1
102
RTVSPropertyOp25
 70
     1
102
RTVSPropertyOp26
 70
     1
102
RTVSPropertyOp27
 70
     1
102
RTVSPropertyOp28
 70
     1
102
RTVSPropertyOp29
 70
     1
102
RTVSPropertyOp30
 70
     1
102
RTVSPropertyOp31
 70
     1
102
RTVSPropertyOp32
 70
     1
102
RTVSPropertyOp33
 70
     1
102
RTVSPropertyOp34
 70
     1
102
RTVSPropertyOp35
 70
     1
102
RTVSPropertyOp36
 70
     1
102
RTVSPropertyOp37
 70
     1
102
RTVSPropertyOp38
 70
     1
102
RTVSPropertyOp39
 70
     1
102
RTVSPropertyOp40
 70
     1
102
RTVSPropertyOp41
 70
     1
102
RTVSPropertyOp42
 70
     1
102
RTVSPropertyOp43
 70
     1
102
RTVSPropertyOp44
 70
     1
102
RTVSPropertyOp45
 70
     1
102
RTVSPropertyOp46
 70
     1
102
RTVSPropertyOp47
 70
     1
102
RTVSPropertyOp48
 70
     1
102
RTVSPropertyOp49
 70
     1
102
RTVSPropertyOp50
 70
     1
102
RTVSPropertyOp51
 70
     0
102
RTVSPropertyOp52
 70
     0
102
RTVSPropertyOp53
 70
     1
102
RTVSPropertyOp54
 70
     1
102
RTVSPropertyOp55
 70
     1
102
RTVSPropertyOp56
 70
     1
102
RTVSPropertyOp57
 70
     1
102
RTVSPost2010Prop28
280
     0
102
RTVSPost2010PropOp28
 70
     1
102
RTVSPost2010Prop29
280
     1
102
RTVSPost2010PropOp29
 70
     1
102
RTVSPost2010Prop30
280
     1
102
RTVSPost2010PropOp30
 70
     1
102
RTVSPost2010Prop31
280
     0
102
RTVSPost2010PropOp31
 70
     1
102
RTVSPost2010Prop32
280
     0
102
RTVSPost2010PropOp32
 70
     1
102
RTVSPost2010Prop33
280
     0
102
RTVSPost2010PropOp33
 70
     1
102
RTVSPost2010Prop34
280
     0
102
RTVSPost2010PropOp34
 70
     1
102
RTVSPost2010Prop35
280
     0
102
RTVSPost2010PropOp35
 70
     1
102
RTVSPost2010Prop36
280
     0
102
RTVSPost2010PropOp36
 70
     1
102
RTVSPost2010Prop37
 90
       50
102
RTVSPost2010PropOp37
 70
     1
102
RTVSPost2010Prop38
140
0.0
102
RTVSPost2010PropOp38
 70
     1
102
RTVSPost2010Prop39
140
1.0
102
RTVSPost2010PropOp39
 70
     1
102
RTVSPost2010Prop40
 90
        0
102
RTVSPost2010PropOp40
 70
     1
102
RTVSPost2010Prop41ColorIndex
 90
       18
102
RTVSPost2010Prop41ColorRGB
 90
        0
102
RTVSPost2010PropOp41
 70
     1
102
RTVSPost2010Prop42
 90
       50
102
RTVSPost2010PropOp42
 70
     1
102
RTVSPost2010Prop43
 90
        3
102
RTVSPost2010PropOp43
 70
     1
102
RTVSPost2010Prop44ColorIndex
 90
        5
102
RTVSPost2010Prop44ColorRGB
 90
      255
102
RTVSPost2010PropOp44
 70
     1
102
RTVSPost2010Prop45
280
     0
102
RTVSPost2010PropOp45
 70
     1
102
RTVSPost2010Prop46
 90
       50
102
RTVSPost2010PropOp46
 70
     1
102
RTVSPost2010Prop47
 90
       50
102
RTVSPost2010PropOp47
 70
     1
102
RTVSPost2010Prop48
 90
       50
102
RTVSPost2010PropOp48
 70
     1
102
RTVSPost2010Prop49
280
     0
102
RTVSPost2010PropOp49
 70
     1
102
RTVSPost2010Prop50
 90
       50
102
RTVSPost2010PropOp50
 70
     1
102
RTVSPost2010Prop51ColorIndex
 90
      256
102
RTVSPost2010Prop51ColorRGB
 90
-16777216
102
RTVSPost2010PropOp51
 70
     0
102
RTVSPost2010Prop52
140
1.0
102
RTVSPost2010PropOp52
 70
     0
102
RTVSPost2010Prop53
 90
        2
102
RTVSPost2010PropOp53
 70
     1
102
RTVSPost2010Prop54
  1
strokes_ogs.tif
102
RTVSPost2010PropOp54
 70
     1
102
RTVSPost2010Prop55
280
     0
102
RTVSPost2010PropOp55
 70
     1
102
RTVSPost2010Prop56
140
1.0
102
RTVSPost2010PropOp56
 70
     1
102
RTVSPost2010Prop57
140
1.0
102
RTVSPost2010PropOp57
 70
     1
  0
XRECORD
  5
269
102
{ACAD_REACTORS
330
268
102
}
330
268
100
AcDbXrecord
280
     1
102
RTVSPropertyOp0
 70
     1
102
RTVSPropertyOp1
 70
     1
102
RTVSPropertyOp2
 70
     1
102
RTVSPropertyOp3
 70
     1
102
RTVSPropertyOp4
 70
     1
102
RTVSPropertyOp5
 70
     1
102
RTVSPropertyOp6
 70
     1
102
RTVSPropertyOp7
 70
     1
102
RTVSPropertyOp8
 70
     1
102
RTVSPropertyOp9
 70
     1
102
RTVSPropertyOp10
 70
     1
102
RTVSPropertyOp11
 70
     1
102
RTVSPropertyOp12
 70
     1
102
RTVSPropertyOp13
 70
     1
102
RTVSPropertyOp14
 70
     1
102
RTVSPropertyOp15
 70
     1
102
RTVSPropertyOp16
 70
     1
102
RTVSPropertyOp17
 70
     1
102
RTVSPropertyOp18
 70
     1
102
RTVSPropertyOp19
 70
     1
102
RTVSPropertyOp20
 70
     1
102
RTVSPropertyOp21
 70
     1
102
RTVSPropertyOp22
 70
     1
102
RTVSPropertyOp23
 70
     1
102
RTVSPropertyOp24
 70
     1
102
RTVSPropertyOp25
 70
     1
102
RTVSPropertyOp26
 70
     1
102
RTVSPropertyOp27
 70
     1
102
RTVSPropertyOp28
 70
     1
102
RTVSPropertyOp29
 70
     1
102
RTVSPropertyOp30
 70
     1
102
RTVSPropertyOp31
 70
     1
102
RTVSPropertyOp32
 70
     1
102
RTVSPropertyOp33
 70
     1
102
RTVSPropertyOp34
 70
     1
102
RTVSPropertyOp35
 70
     1
102
RTVSPropertyOp36
 70
     1
102
RTVSPropertyOp37
 70
     1
102
RTVSPropertyOp38
 70
     1
102
RTVSPropertyOp39
 70
     1
102
RTVSPropertyOp40
 70
     1
102
RTVSPropertyOp41
 70
     1
102
RTVSPropertyOp42
 70
     1
102
RTVSPropertyOp43
 70
     1
102
RTVSPropertyOp44
 70
     1
102
RTVSPropertyOp45
 70
     1
102
RTVSPropertyOp46
 70
     1
102
RTVSPropertyOp47
 70
     1
102
RTVSPropertyOp48
 70
     1
102
RTVSPropertyOp49
 70
     1
102
RTVSPropertyOp50
 70
     1
102
RTVSPropertyOp51
 70
     0
102
RTVSPropertyOp52
 70
     0
102
RTVSPropertyOp53
 70
     1
102
RTVSPropertyOp54
 70
     1
102
RTVSPropertyOp55
 70
     1
102
RTVSPropertyOp56
 70
     1
102
RTVSPropertyOp57
 70
     1
102
RTVSPost2010Prop28
280
     0
102
RTVSPost2010PropOp28
 70
     1
102
RTVSPost2010Prop29
280
     1
102
RTVSPost2010PropOp29
 70
     1
102
RTVSPost2010Prop30
280
     1
102
RTVSPost2010PropOp30
 70
     1
102
RTVSPost2010Prop31
280
     0
102
RTVSPost2010PropOp31
 70
     1
102
RTVSPost2010Prop32
280
     0
102
RTVSPost2010PropOp32
 70
     1
102
RTVSPost2010Prop33
280
     0
102
RTVSPost2010PropOp33
 70
     1
102
RTVSPost2010Prop34
280
     0
102
RTVSPost2010PropOp34
 70
     1
102
RTVSPost2010Prop35
280
     0
102
RTVSPost2010PropOp35
 70
     1
102
RTVSPost2010Prop36
280
     0
102
RTVSPost2010PropOp36
 70
     1
102
RTVSPost2010Prop37
 90
       50
102
RTVSPost2010PropOp37
 70
     1
102
RTVSPost2010Prop38
140
0.0
102
RTVSPost2010PropOp38
 70
     1
102
RTVSPost2010Prop39
140
1.0
102
RTVSPost2010PropOp39
 70
     1
102
RTVSPost2010Prop40
 90
        0
102
RTVSPost2010PropOp40
 70
     1
102
RTVSPost2010Prop41ColorIndex
 90
       18
102
RTVSPost2010Prop41ColorRGB
 90
        0
102
RTVSPost2010PropOp41
 70
     1
102
RTVSPost2010Prop42
 90
       50
102
RTVSPost2010PropOp42
 70
     1
102
RTVSPost2010Prop43
 90
        3
102
RTVSPost2010PropOp43
 70
     1
102
RTVSPost2010Prop44ColorIndex
 90
        5
102
RTVSPost2010Prop44ColorRGB
 90
      255
102
RTVSPost2010PropOp44
 70
     1
102
RTVSPost2010Prop45
280
     0
102
RTVSPost2010PropOp45
 70
     1
102
RTVSPost2010Prop46
 90
       50
102
RTVSPost2010PropOp46
 70
     1
102
RTVSPost2010Prop47
 90
       50
102
RTVSPost2010PropOp47
 70
     1
102
RTVSPost2010Prop48
 90
       50
102
RTVSPost2010PropOp48
 70
     1
102
RTVSPost2010Prop49
280
     0
102
RTVSPost2010PropOp49
 70
     1
102
RTVSPost2010Prop50
 90
       50
102
RTVSPost2010PropOp50
 70
     1
102
RTVSPost2010Prop51ColorIndex
 90
      256
102
RTVSPost2010Prop51ColorRGB
 90
-16777216
102
RTVSPost2010PropOp51
 70
     0
102
RTVSPost2010Prop52
140
1.0
102
RTVSPost2010PropOp52
 70
     0
102
RTVSPost2010Prop53
 90
        2
102
RTVSPost2010PropOp53
 70
     1
102
RTVSPost2010Prop54
  1
strokes_ogs.tif
102
RTVSPost2010PropOp54
 70
     1
102
RTVSPost2010Prop55
280
     0
102
RTVSPost2010PropOp55
 70
     1
102
RTVSPost2010Prop56
140
1.0
102
RTVSPost2010PropOp56
 70
     1
102
RTVSPost2010Prop57
140
1.0
102
RTVSPost2010PropOp57
 70
     1
  0
XRECORD
  5
279
102
{ACAD_REACTORS
330
278
102
}
330
278
100
AcDbXrecord
280
     1
102
RTVSPropertyOp0
 70
     0
102
RTVSPropertyOp1
 70
     0
102
RTVSPropertyOp2
 70
     0
102
RTVSPropertyOp3
 70
     0
102
RTVSPropertyOp4
 70
     0
102
RTVSPropertyOp5
 70
     0
102
RTVSPropertyOp6
 70
     0
102
RTVSPropertyOp7
 70
     0
102
RTVSPropertyOp8
 70
     0
102
RTVSPropertyOp9
 70
     0
102
RTVSPropertyOp10
 70
     0
102
RTVSPropertyOp11
 70
     0
102
RTVSPropertyOp12
 70
     0
102
RTVSPropertyOp13
 70
     0
102
RTVSPropertyOp14
 70
     2
102
RTVSPropertyOp15
 70
     0
102
RTVSPropertyOp16
 70
     0
102
RTVSPropertyOp17
 70
     0
102
RTVSPropertyOp18
 70
     0
102
RTVSPropertyOp19
 70
     0
102
RTVSPropertyOp20
 70
     0
102
RTVSPropertyOp21
 70
     0
102
RTVSPropertyOp22
 70
     0
102
RTVSPropertyOp23
 70
     0
102
RTVSPropertyOp24
 70
     0
102
RTVSPropertyOp25
 70
     0
102
RTVSPropertyOp26
 70
     0
102
RTVSPropertyOp27
 70
     0
102
RTVSPropertyOp28
 70
     0
102
RTVSPropertyOp29
 70
     0
102
RTVSPropertyOp30
 70
     0
102
RTVSPropertyOp31
 70
     0
102
RTVSPropertyOp32
 70
     0
102
RTVSPropertyOp33
 70
     0
102
RTVSPropertyOp34
 70
     0
102
RTVSPropertyOp35
 70
     0
102
RTVSPropertyOp36
 70
     0
102
RTVSPropertyOp37
 70
     0
102
RTVSPropertyOp38
 70
     0
102
RTVSPropertyOp39
 70
     0
102
RTVSPropertyOp40
 70
     0
102
RTVSPropertyOp41
 70
     0
102
RTVSPropertyOp42
 70
     0
102
RTVSPropertyOp43
 70
     0
102
RTVSPropertyOp44
 70
     0
102
RTVSPropertyOp45
 70
     0
102
RTVSPropertyOp46
 70
     0
102
RTVSPropertyOp47
 70
     0
102
RTVSPropertyOp48
 70
     0
102
RTVSPropertyOp49
 70
     0
102
RTVSPropertyOp50
 70
     0
102
RTVSPropertyOp51
 70
     0
102
RTVSPropertyOp52
 70
     0
102
RTVSPropertyOp53
 70
     0
102
RTVSPropertyOp54
 70
     0
102
RTVSPropertyOp55
 70
     0
102
RTVSPropertyOp56
 70
     0
102
RTVSPropertyOp57
 70
     0
102
RTVSPost2010Prop28
280
     0
102
RTVSPost2010PropOp28
 70
     0
102
RTVSPost2010Prop29
280
     1
102
RTVSPost2010PropOp29
 70
     0
102
RTVSPost2010Prop30
280
     1
102
RTVSPost2010PropOp30
 70
     0
102
RTVSPost2010Prop31
280
     0
102
RTVSPost2010PropOp31
 70
     0
102
RTVSPost2010Prop32
280
     0
102
RTVSPost2010PropOp32
 70
     0
102
RTVSPost2010Prop33
280
     0
102
RTVSPost2010PropOp33
 70
     0
102
RTVSPost2010Prop34
280
     0
102
RTVSPost2010PropOp34
 70
     0
102
RTVSPost2010Prop35
280
     0
102
RTVSPost2010PropOp35
 70
     0
102
RTVSPost2010Prop36
280
     0
102
RTVSPost2010PropOp36
 70
     0
102
RTVSPost2010Prop37
 90
       50
102
RTVSPost2010PropOp37
 70
     0
102
RTVSPost2010Prop38
140
0.0
102
RTVSPost2010PropOp38
 70
     0
102
RTVSPost2010Prop39
140
1.0
102
RTVSPost2010PropOp39
 70
     0
102
RTVSPost2010Prop40
 90
        0
102
RTVSPost2010PropOp40
 70
     0
102
RTVSPost2010Prop41ColorIndex
 90
       18
102
RTVSPost2010Prop41ColorRGB
 90
        0
102
RTVSPost2010PropOp41
 70
     0
102
RTVSPost2010Prop42
 90
       50
102
RTVSPost2010PropOp42
 70
     0
102
RTVSPost2010Prop43
 90
        3
102
RTVSPost2010PropOp43
 70
     0
102
RTVSPost2010Prop44ColorIndex
 90
        5
102
RTVSPost2010Prop44ColorRGB
 90
      255
102
RTVSPost2010PropOp44
 70
     0
102
RTVSPost2010Prop45
280
     0
102
RTVSPost2010PropOp45
 70
     0
102
RTVSPost2010Prop46
 90
       50
102
RTVSPost2010PropOp46
 70
     0
102
RTVSPost2010Prop47
 90
       50
102
RTVSPost2010PropOp47
 70
     0
102
RTVSPost2010Prop48
 90
       50
102
RTVSPost2010PropOp48
 70
     0
102
RTVSPost2010Prop49
280
     0
102
RTVSPost2010PropOp49
 70
     0
102
RTVSPost2010Prop50
 90
       50
102
RTVSPost2010PropOp50
 70
     0
102
RTVSPost2010Prop51ColorIndex
 90
      256
102
RTVSPost2010Prop51ColorRGB
 90
-16777216
102
RTVSPost2010PropOp51
 70
     0
102
RTVSPost2010Prop52
140
1.0
102
RTVSPost2010PropOp52
 70
     0
102
RTVSPost2010Prop53
 90
        2
102
RTVSPost2010PropOp53
 70
     0
102
RTVSPost2010Prop54
  1
strokes_ogs.tif
102
RTVSPost2010PropOp54
 70
     0
102
RTVSPost2010Prop55
280
     0
102
RTVSPost2010PropOp55
 70
     0
102
RTVSPost2010Prop56
140
1.0
102
RTVSPost2010PropOp56
 70
     0
102
RTVSPost2010Prop57
140
1.0
102
RTVSPost2010PropOp57
 70
     0
  0
XRECORD
  5
271
102
{ACAD_REACTORS
330
270
102
}
330
270
100
AcDbXrecord
280
     1
102
RTVSPropertyOp0
 70
     1
102
RTVSPropertyOp1
 70
     1
102
RTVSPropertyOp2
 70
     1
102
RTVSPropertyOp3
 70
     1
102
RTVSPropertyOp4
 70
     1
102
RTVSPropertyOp5
 70
     1
102
RTVSPropertyOp6
 70
     1
102
RTVSPropertyOp7
 70
     1
102
RTVSPropertyOp8
 70
     1
102
RTVSPropertyOp9
 70
     1
102
RTVSPropertyOp10
 70
     1
102
RTVSPropertyOp11
 70
     1
102
RTVSPropertyOp12
 70
     1
102
RTVSPropertyOp13
 70
     1
102
RTVSPropertyOp14
 70
     1
102
RTVSPropertyOp15
 70
     1
102
RTVSPropertyOp16
 70
     1
102
RTVSPropertyOp17
 70
     1
102
RTVSPropertyOp18
 70
     1
102
RTVSPropertyOp19
 70
     1
102
RTVSPropertyOp20
 70
     1
102
RTVSPropertyOp21
 70
     1
102
RTVSPropertyOp22
 70
     1
102
RTVSPropertyOp23
 70
     1
102
RTVSPropertyOp24
 70
     1
102
RTVSPropertyOp25
 70
     1
102
RTVSPropertyOp26
 70
     1
102
RTVSPropertyOp27
 70
     1
102
RTVSPropertyOp28
 70
     1
102
RTVSPropertyOp29
 70
     1
102
RTVSPropertyOp30
 70
     1
102
RTVSPropertyOp31
 70
     1
102
RTVSPropertyOp32
 70
     1
102
RTVSPropertyOp33
 70
     1
102
RTVSPropertyOp34
 70
     1
102
RTVSPropertyOp35
 70
     1
102
RTVSPropertyOp36
 70
     1
102
RTVSPropertyOp37
 70
     1
102
RTVSPropertyOp38
 70
     1
102
RTVSPropertyOp39
 70
     1
102
RTVSPropertyOp40
 70
     1
102
RTVSPropertyOp41
 70
     1
102
RTVSPropertyOp42
 70
     1
102
RTVSPropertyOp43
 70
     1
102
RTVSPropertyOp44
 70
     1
102
RTVSPropertyOp45
 70
     1
102
RTVSPropertyOp46
 70
     1
102
RTVSPropertyOp47
 70
     1
102
RTVSPropertyOp48
 70
     1
102
RTVSPropertyOp49
 70
     1
102
RTVSPropertyOp50
 70
     1
102
RTVSPropertyOp51
 70
     0
102
RTVSPropertyOp52
 70
     0
102
RTVSPropertyOp53
 70
     1
102
RTVSPropertyOp54
 70
     1
102
RTVSPropertyOp55
 70
     1
102
RTVSPropertyOp56
 70
     1
102
RTVSPropertyOp57
 70
     1
102
RTVSPost2010Prop28
280
     0
102
RTVSPost2010PropOp28
 70
     1
102
RTVSPost2010Prop29
280
     1
102
RTVSPost2010PropOp29
 70
     1
102
RTVSPost2010Prop30
280
     1
102
RTVSPost2010PropOp30
 70
     1
102
RTVSPost2010Prop31
280
     0
102
RTVSPost2010PropOp31
 70
     1
102
RTVSPost2010Prop32
280
     0
102
RTVSPost2010PropOp32
 70
     1
102
RTVSPost2010Prop33
280
     0
102
RTVSPost2010PropOp33
 70
     1
102
RTVSPost2010Prop34
280
     0
102
RTVSPost2010PropOp34
 70
     1
102
RTVSPost2010Prop35
280
     0
102
RTVSPost2010PropOp35
 70
     1
102
RTVSPost2010Prop36
280
     0
102
RTVSPost2010PropOp36
 70
     1
102
RTVSPost2010Prop37
 90
       50
102
RTVSPost2010PropOp37
 70
     1
102
RTVSPost2010Prop38
140
0.0
102
RTVSPost2010PropOp38
 70
     1
102
RTVSPost2010Prop39
140
1.0
102
RTVSPost2010PropOp39
 70
     1
102
RTVSPost2010Prop40
 90
        0
102
RTVSPost2010PropOp40
 70
     1
102
RTVSPost2010Prop41ColorIndex
 90
       18
102
RTVSPost2010Prop41ColorRGB
 90
        0
102
RTVSPost2010PropOp41
 70
     1
102
RTVSPost2010Prop42
 90
       50
102
RTVSPost2010PropOp42
 70
     1
102
RTVSPost2010Prop43
 90
        3
102
RTVSPost2010PropOp43
 70
     1
102
RTVSPost2010Prop44ColorIndex
 90
        5
102
RTVSPost2010Prop44ColorRGB
 90
      255
102
RTVSPost2010PropOp44
 70
     1
102
RTVSPost2010Prop45
280
     0
102
RTVSPost2010PropOp45
 70
     1
102
RTVSPost2010Prop46
 90
       50
102
RTVSPost2010PropOp46
 70
     1
102
RTVSPost2010Prop47
 90
       50
102
RTVSPost2010PropOp47
 70
     1
102
RTVSPost2010Prop48
 90
       50
102
RTVSPost2010PropOp48
 70
     1
102
RTVSPost2010Prop49
280
     0
102
RTVSPost2010PropOp49
 70
     1
102
RTVSPost2010Prop50
 90
       50
102
RTVSPost2010PropOp50
 70
     1
102
RTVSPost2010Prop51ColorIndex
 90
      256
102
RTVSPost2010Prop51ColorRGB
 90
-16777216
102
RTVSPost2010PropOp51
 70
     0
102
RTVSPost2010Prop52
140
1.0
102
RTVSPost2010PropOp52
 70
     0
102
RTVSPost2010Prop53
 90
        2
102
RTVSPost2010PropOp53
 70
     1
102
RTVSPost2010Prop54
  1
strokes_ogs.tif
102
RTVSPost2010PropOp54
 70
     1
102
RTVSPost2010Prop55
280
     0
102
RTVSPost2010PropOp55
 70
     1
102
RTVSPost2010Prop56
140
1.0
102
RTVSPost2010PropOp56
 70
     1
102
RTVSPost2010Prop57
140
1.0
102
RTVSPost2010PropOp57
 70
     1
  0
XRECORD
  5
255
102
{ACAD_REACTORS
330
254
102
}
330
254
100
AcDbXrecord
280
     1
102
RTVSPropertyOp0
 70
     1
102
RTVSPropertyOp1
 70
     1
102
RTVSPropertyOp2
 70
     1
102
RTVSPropertyOp3
 70
     1
102
RTVSPropertyOp4
 70
     1
102
RTVSPropertyOp5
 70
     1
102
RTVSPropertyOp6
 70
     1
102
RTVSPropertyOp7
 70
     1
102
RTVSPropertyOp8
 70
     1
102
RTVSPropertyOp9
 70
     1
102
RTVSPropertyOp10
 70
     1
102
RTVSPropertyOp11
 70
     1
102
RTVSPropertyOp12
 70
     1
102
RTVSPropertyOp13
 70
     1
102
RTVSPropertyOp14
 70
     1
102
RTVSPropertyOp15
 70
     1
102
RTVSPropertyOp16
 70
     1
102
RTVSPropertyOp17
 70
     1
102
RTVSPropertyOp18
 70
     1
102
RTVSPropertyOp19
 70
     1
102
RTVSPropertyOp20
 70
     1
102
RTVSPropertyOp21
 70
     1
102
RTVSPropertyOp22
 70
     1
102
RTVSPropertyOp23
 70
     1
102
RTVSPropertyOp24
 70
     1
102
RTVSPropertyOp25
 70
     1
102
RTVSPropertyOp26
 70
     1
102
RTVSPropertyOp27
 70
     1
102
RTVSPropertyOp28
 70
     1
102
RTVSPropertyOp29
 70
     1
102
RTVSPropertyOp30
 70
     1
102
RTVSPropertyOp31
 70
     1
102
RTVSPropertyOp32
 70
     1
102
RTVSPropertyOp33
 70
     1
102
RTVSPropertyOp34
 70
     1
102
RTVSPropertyOp35
 70
     1
102
RTVSPropertyOp36
 70
     1
102
RTVSPropertyOp37
 70
     1
102
RTVSPropertyOp38
 70
     1
102
RTVSPropertyOp39
 70
     1
102
RTVSPropertyOp40
 70
     1
102
RTVSPropertyOp41
 70
     1
102
RTVSPropertyOp42
 70
     1
102
RTVSPropertyOp43
 70
     1
102
RTVSPropertyOp44
 70
     1
102
RTVSPropertyOp45
 70
     1
102
RTVSPropertyOp46
 70
     1
102
RTVSPropertyOp47
 70
     1
102
RTVSPropertyOp48
 70
     1
102
RTVSPropertyOp49
 70
     1
102
RTVSPropertyOp50
 70
     1
102
RTVSPropertyOp51
 70
     0
102
RTVSPropertyOp52
 70
     0
102
RTVSPropertyOp53
 70
     1
102
RTVSPropertyOp54
 70
     1
102
RTVSPropertyOp55
 70
     1
102
RTVSPropertyOp56
 70
     1
102
RTVSPropertyOp57
 70
     1
102
RTVSPost2010Prop28
280
     0
102
RTVSPost2010PropOp28
 70
     1
102
RTVSPost2010Prop29
280
     1
102
RTVSPost2010PropOp29
 70
     1
102
RTVSPost2010Prop30
280
     1
102
RTVSPost2010PropOp30
 70
     1
102
RTVSPost2010Prop31
280
     0
102
RTVSPost2010PropOp31
 70
     1
102
RTVSPost2010Prop32
280
     0
102
RTVSPost2010PropOp32
 70
     1
102
RTVSPost2010Prop33
280
     0
102
RTVSPost2010PropOp33
 70
     1
102
RTVSPost2010Prop34
280
     0
102
RTVSPost2010PropOp34
 70
     1
102
RTVSPost2010Prop35
280
     0
102
RTVSPost2010PropOp35
 70
     1
102
RTVSPost2010Prop36
280
     0
102
RTVSPost2010PropOp36
 70
     1
102
RTVSPost2010Prop37
 90
       50
102
RTVSPost2010PropOp37
 70
     1
102
RTVSPost2010Prop38
140
0.0
102
RTVSPost2010PropOp38
 70
     1
102
RTVSPost2010Prop39
140
1.0
102
RTVSPost2010PropOp39
 70
     1
102
RTVSPost2010Prop40
 90
        0
102
RTVSPost2010PropOp40
 70
     1
102
RTVSPost2010Prop41ColorIndex
 90
       18
102
RTVSPost2010Prop41ColorRGB
 90
        0
102
RTVSPost2010PropOp41
 70
     1
102
RTVSPost2010Prop42
 90
       50
102
RTVSPost2010PropOp42
 70
     1
102
RTVSPost2010Prop43
 90
        3
102
RTVSPost2010PropOp43
 70
     1
102
RTVSPost2010Prop44ColorIndex
 90
        5
102
RTVSPost2010Prop44ColorRGB
 90
      255
102
RTVSPost2010PropOp44
 70
     1
102
RTVSPost2010Prop45
280
     0
102
RTVSPost2010PropOp45
 70
     1
102
RTVSPost2010Prop46
 90
       50
102
RTVSPost2010PropOp46
 70
     1
102
RTVSPost2010Prop47
 90
       50
102
RTVSPost2010PropOp47
 70
     1
102
RTVSPost2010Prop48
 90
       50
102
RTVSPost2010PropOp48
 70
     1
102
RTVSPost2010Prop49
280
     0
102
RTVSPost2010PropOp49
 70
     1
102
RTVSPost2010Prop50
 90
       50
102
RTVSPost2010PropOp50
 70
     1
102
RTVSPost2010Prop51ColorIndex
 90
      256
102
RTVSPost2010Prop51ColorRGB
 90
-16777216
102
RTVSPost2010PropOp51
 70
     0
102
RTVSPost2010Prop52
140
1.0
102
RTVSPost2010PropOp52
 70
     0
102
RTVSPost2010Prop53
 90
        2
102
RTVSPost2010PropOp53
 70
     1
102
RTVSPost2010Prop54
  1
strokes_ogs.tif
102
RTVSPost2010PropOp54
 70
     1
102
RTVSPost2010Prop55
280
     0
102
RTVSPost2010PropOp55
 70
     1
102
RTVSPost2010Prop56
140
1.0
102
RTVSPost2010PropOp56
 70
     1
102
RTVSPost2010Prop57
140
1.0
102
RTVSPost2010PropOp57
 70
     1
  0
XRECORD
  5
257
102
{ACAD_REACTORS
330
256
102
}
330
256
100
AcDbXrecord
280
     1
102
RTVSPropertyOp0
 70
     1
102
RTVSPropertyOp1
 70
     1
102
RTVSPropertyOp2
 70
     1
102
RTVSPropertyOp3
 70
     1
102
RTVSPropertyOp4
 70
     1
102
RTVSPropertyOp5
 70
     1
102
RTVSPropertyOp6
 70
     1
102
RTVSPropertyOp7
 70
     1
102
RTVSPropertyOp8
 70
     1
102
RTVSPropertyOp9
 70
     1
102
RTVSPropertyOp10
 70
     1
102
RTVSPropertyOp11
 70
     1
102
RTVSPropertyOp12
 70
     1
102
RTVSPropertyOp13
 70
     1
102
RTVSPropertyOp14
 70
     1
102
RTVSPropertyOp15
 70
     1
102
RTVSPropertyOp16
 70
     1
102
RTVSPropertyOp17
 70
     1
102
RTVSPropertyOp18
 70
     1
102
RTVSPropertyOp19
 70
     1
102
RTVSPropertyOp20
 70
     1
102
RTVSPropertyOp21
 70
     1
102
RTVSPropertyOp22
 70
     1
102
RTVSPropertyOp23
 70
     1
102
RTVSPropertyOp24
 70
     1
102
RTVSPropertyOp25
 70
     1
102
RTVSPropertyOp26
 70
     1
102
RTVSPropertyOp27
 70
     1
102
RTVSPropertyOp28
 70
     1
102
RTVSPropertyOp29
 70
     1
102
RTVSPropertyOp30
 70
     1
102
RTVSPropertyOp31
 70
     1
102
RTVSPropertyOp32
 70
     1
102
RTVSPropertyOp33
 70
     1
102
RTVSPropertyOp34
 70
     1
102
RTVSPropertyOp35
 70
     1
102
RTVSPropertyOp36
 70
     1
102
RTVSPropertyOp37
 70
     1
102
RTVSPropertyOp38
 70
     1
102
RTVSPropertyOp39
 70
     1
102
RTVSPropertyOp40
 70
     1
102
RTVSPropertyOp41
 70
     1
102
RTVSPropertyOp42
 70
     1
102
RTVSPropertyOp43
 70
     1
102
RTVSPropertyOp44
 70
     1
102
RTVSPropertyOp45
 70
     1
102
RTVSPropertyOp46
 70
     1
102
RTVSPropertyOp47
 70
     1
102
RTVSPropertyOp48
 70
     1
102
RTVSPropertyOp49
 70
     1
102
RTVSPropertyOp50
 70
     1
102
RTVSPropertyOp51
 70
     0
102
RTVSPropertyOp52
 70
     0
102
RTVSPropertyOp53
 70
     1
102
RTVSPropertyOp54
 70
     1
102
RTVSPropertyOp55
 70
     1
102
RTVSPropertyOp56
 70
     1
102
RTVSPropertyOp57
 70
     1
102
RTVSPost2010Prop28
280
     0
102
RTVSPost2010PropOp28
 70
     1
102
RTVSPost2010Prop29
280
     1
102
RTVSPost2010PropOp29
 70
     1
102
RTVSPost2010Prop30
280
     1
102
RTVSPost2010PropOp30
 70
     1
102
RTVSPost2010Prop31
280
     0
102
RTVSPost2010PropOp31
 70
     1
102
RTVSPost2010Prop32
280
     0
102
RTVSPost2010PropOp32
 70
     1
102
RTVSPost2010Prop33
280
     0
102
RTVSPost2010PropOp33
 70
     1
102
RTVSPost2010Prop34
280
     0
102
RTVSPost2010PropOp34
 70
     1
102
RTVSPost2010Prop35
280
     0
102
RTVSPost2010PropOp35
 70
     1
102
RTVSPost2010Prop36
280
     0
102
RTVSPost2010PropOp36
 70
     1
102
RTVSPost2010Prop37
 90
       50
102
RTVSPost2010PropOp37
 70
     1
102
RTVSPost2010Prop38
140
0.0
102
RTVSPost2010PropOp38
 70
     1
102
RTVSPost2010Prop39
140
1.0
102
RTVSPost2010PropOp39
 70
     1
102
RTVSPost2010Prop40
 90
        0
102
RTVSPost2010PropOp40
 70
     1
102
RTVSPost2010Prop41ColorIndex
 90
       18
102
RTVSPost2010Prop41ColorRGB
 90
        0
102
RTVSPost2010PropOp41
 70
     1
102
RTVSPost2010Prop42
 90
       50
102
RTVSPost2010PropOp42
 70
     1
102
RTVSPost2010Prop43
 90
        3
102
RTVSPost2010PropOp43
 70
     1
102
RTVSPost2010Prop44ColorIndex
 90
        5
102
RTVSPost2010Prop44ColorRGB
 90
      255
102
RTVSPost2010PropOp44
 70
     1
102
RTVSPost2010Prop45
280
     0
102
RTVSPost2010PropOp45
 70
     1
102
RTVSPost2010Prop46
 90
       50
102
RTVSPost2010PropOp46
 70
     1
102
RTVSPost2010Prop47
 90
       50
102
RTVSPost2010PropOp47
 70
     1
102
RTVSPost2010Prop48
 90
       50
102
RTVSPost2010PropOp48
 70
     1
102
RTVSPost2010Prop49
280
     0
102
RTVSPost2010PropOp49
 70
     1
102
RTVSPost2010Prop50
 90
       50
102
RTVSPost2010PropOp50
 70
     1
102
RTVSPost2010Prop51ColorIndex
 90
      256
102
RTVSPost2010Prop51ColorRGB
 90
-16777216
102
RTVSPost2010PropOp51
 70
     0
102
RTVSPost2010Prop52
140
1.0
102
RTVSPost2010PropOp52
 70
     0
102
RTVSPost2010Prop53
 90
        2
102
RTVSPost2010PropOp53
 70
     1
102
RTVSPost2010Prop54
  1
strokes_ogs.tif
102
RTVSPost2010PropOp54
 70
     1
102
RTVSPost2010Prop55
280
     0
102
RTVSPost2010PropOp55
 70
     1
102
RTVSPost2010Prop56
140
1.0
102
RTVSPost2010PropOp56
 70
     1
102
RTVSPost2010Prop57
140
1.0
102
RTVSPost2010PropOp57
 70
     1
  0
XRECORD
  5
259
102
{ACAD_REACTORS
330
258
102
}
330
258
100
AcDbXrecord
280
     1
102
RTVSPropertyOp0
 70
     1
102
RTVSPropertyOp1
 70
     1
102
RTVSPropertyOp2
 70
     1
102
RTVSPropertyOp3
 70
     1
102
RTVSPropertyOp4
 70
     1
102
RTVSPropertyOp5
 70
     1
102
RTVSPropertyOp6
 70
     1
102
RTVSPropertyOp7
 70
     1
102
RTVSPropertyOp8
 70
     1
102
RTVSPropertyOp9
 70
     1
102
RTVSPropertyOp10
 70
     1
102
RTVSPropertyOp11
 70
     1
102
RTVSPropertyOp12
 70
     1
102
RTVSPropertyOp13
 70
     1
102
RTVSPropertyOp14
 70
     1
102
RTVSPropertyOp15
 70
     1
102
RTVSPropertyOp16
 70
     1
102
RTVSPropertyOp17
 70
     1
102
RTVSPropertyOp18
 70
     1
102
RTVSPropertyOp19
 70
     1
102
RTVSPropertyOp20
 70
     1
102
RTVSPropertyOp21
 70
     1
102
RTVSPropertyOp22
 70
     1
102
RTVSPropertyOp23
 70
     1
102
RTVSPropertyOp24
 70
     1
102
RTVSPropertyOp25
 70
     1
102
RTVSPropertyOp26
 70
     1
102
RTVSPropertyOp27
 70
     1
102
RTVSPropertyOp28
 70
     1
102
RTVSPropertyOp29
 70
     1
102
RTVSPropertyOp30
 70
     1
102
RTVSPropertyOp31
 70
     1
102
RTVSPropertyOp32
 70
     1
102
RTVSPropertyOp33
 70
     1
102
RTVSPropertyOp34
 70
     1
102
RTVSPropertyOp35
 70
     1
102
RTVSPropertyOp36
 70
     1
102
RTVSPropertyOp37
 70
     1
102
RTVSPropertyOp38
 70
     1
102
RTVSPropertyOp39
 70
     1
102
RTVSPropertyOp40
 70
     1
102
RTVSPropertyOp41
 70
     1
102
RTVSPropertyOp42
 70
     1
102
RTVSPropertyOp43
 70
     1
102
RTVSPropertyOp44
 70
     1
102
RTVSPropertyOp45
 70
     1
102
RTVSPropertyOp46
 70
     1
102
RTVSPropertyOp47
 70
     1
102
RTVSPropertyOp48
 70
     1
102
RTVSPropertyOp49
 70
     1
102
RTVSPropertyOp50
 70
     1
102
RTVSPropertyOp51
 70
     0
102
RTVSPropertyOp52
 70
     0
102
RTVSPropertyOp53
 70
     1
102
RTVSPropertyOp54
 70
     1
102
RTVSPropertyOp55
 70
     1
102
RTVSPropertyOp56
 70
     1
102
RTVSPropertyOp57
 70
     1
102
RTVSPost2010Prop28
280
     0
102
RTVSPost2010PropOp28
 70
     1
102
RTVSPost2010Prop29
280
     1
102
RTVSPost2010PropOp29
 70
     1
102
RTVSPost2010Prop30
280
     1
102
RTVSPost2010PropOp30
 70
     1
102
RTVSPost2010Prop31
280
     0
102
RTVSPost2010PropOp31
 70
     1
102
RTVSPost2010Prop32
280
     0
102
RTVSPost2010PropOp32
 70
     1
102
RTVSPost2010Prop33
280
     0
102
RTVSPost2010PropOp33
 70
     1
102
RTVSPost2010Prop34
280
     0
102
RTVSPost2010PropOp34
 70
     1
102
RTVSPost2010Prop35
280
     0
102
RTVSPost2010PropOp35
 70
     1
102
RTVSPost2010Prop36
280
     0
102
RTVSPost2010PropOp36
 70
     1
102
RTVSPost2010Prop37
 90
       50
102
RTVSPost2010PropOp37
 70
     1
102
RTVSPost2010Prop38
140
0.0
102
RTVSPost2010PropOp38
 70
     1
102
RTVSPost2010Prop39
140
1.0
102
RTVSPost2010PropOp39
 70
     1
102
RTVSPost2010Prop40
 90
        0
102
RTVSPost2010PropOp40
 70
     1
102
RTVSPost2010Prop41ColorIndex
 90
       18
102
RTVSPost2010Prop41ColorRGB
 90
        0
102
RTVSPost2010PropOp41
 70
     1
102
RTVSPost2010Prop42
 90
       50
102
RTVSPost2010PropOp42
 70
     1
102
RTVSPost2010Prop43
 90
        3
102
RTVSPost2010PropOp43
 70
     1
102
RTVSPost2010Prop44ColorIndex
 90
        5
102
RTVSPost2010Prop44ColorRGB
 90
      255
102
RTVSPost2010PropOp44
 70
     1
102
RTVSPost2010Prop45
280
     0
102
RTVSPost2010PropOp45
 70
     1
102
RTVSPost2010Prop46
 90
       50
102
RTVSPost2010PropOp46
 70
     1
102
RTVSPost2010Prop47
 90
       50
102
RTVSPost2010PropOp47
 70
     1
102
RTVSPost2010Prop48
 90
       50
102
RTVSPost2010PropOp48
 70
     1
102
RTVSPost2010Prop49
280
     0
102
RTVSPost2010PropOp49
 70
     1
102
RTVSPost2010Prop50
 90
       50
102
RTVSPost2010PropOp50
 70
     1
102
RTVSPost2010Prop51ColorIndex
 90
      256
102
RTVSPost2010Prop51ColorRGB
 90
-16777216
102
RTVSPost2010PropOp51
 70
     0
102
RTVSPost2010Prop52
140
1.0
102
RTVSPost2010PropOp52
 70
     0
102
RTVSPost2010Prop53
 90
        2
102
RTVSPost2010PropOp53
 70
     1
102
RTVSPost2010Prop54
  1
strokes_ogs.tif
102
RTVSPost2010PropOp54
 70
     1
102
RTVSPost2010Prop55
280
     0
102
RTVSPost2010PropOp55
 70
     1
102
RTVSPost2010Prop56
140
1.0
102
RTVSPost2010PropOp56
 70
     1
102
RTVSPost2010Prop57
140
1.0
102
RTVSPost2010PropOp57
 70
     1
  0
XRECORD
  5
25B
102
{ACAD_REACTORS
330
25A
102
}
330
25A
100
AcDbXrecord
280
     1
102
RTVSPropertyOp0
 70
     1
102
RTVSPropertyOp1
 70
     1
102
RTVSPropertyOp2
 70
     1
102
RTVSPropertyOp3
 70
     1
102
RTVSPropertyOp4
 70
     1
102
RTVSPropertyOp5
 70
     1
102
RTVSPropertyOp6
 70
     1
102
RTVSPropertyOp7
 70
     1
102
RTVSPropertyOp8
 70
     1
102
RTVSPropertyOp9
 70
     1
102
RTVSPropertyOp10
 70
     1
102
RTVSPropertyOp11
 70
     1
102
RTVSPropertyOp12
 70
     1
102
RTVSPropertyOp13
 70
     1
102
RTVSPropertyOp14
 70
     1
102
RTVSPropertyOp15
 70
     1
102
RTVSPropertyOp16
 70
     1
102
RTVSPropertyOp17
 70
     1
102
RTVSPropertyOp18
 70
     1
102
RTVSPropertyOp19
 70
     1
102
RTVSPropertyOp20
 70
     1
102
RTVSPropertyOp21
 70
     1
102
RTVSPropertyOp22
 70
     1
102
RTVSPropertyOp23
 70
     1
102
RTVSPropertyOp24
 70
     1
102
RTVSPropertyOp25
 70
     1
102
RTVSPropertyOp26
 70
     1
102
RTVSPropertyOp27
 70
     1
102
RTVSPropertyOp28
 70
     1
102
RTVSPropertyOp29
 70
     1
102
RTVSPropertyOp30
 70
     1
102
RTVSPropertyOp31
 70
     1
102
RTVSPropertyOp32
 70
     1
102
RTVSPropertyOp33
 70
     1
102
RTVSPropertyOp34
 70
     1
102
RTVSPropertyOp35
 70
     1
102
RTVSPropertyOp36
 70
     1
102
RTVSPropertyOp37
 70
     1
102
RTVSPropertyOp38
 70
     1
102
RTVSPropertyOp39
 70
     1
102
RTVSPropertyOp40
 70
     1
102
RTVSPropertyOp41
 70
     1
102
RTVSPropertyOp42
 70
     1
102
RTVSPropertyOp43
 70
     1
102
RTVSPropertyOp44
 70
     1
102
RTVSPropertyOp45
 70
     1
102
RTVSPropertyOp46
 70
     1
102
RTVSPropertyOp47
 70
     1
102
RTVSPropertyOp48
 70
     1
102
RTVSPropertyOp49
 70
     1
102
RTVSPropertyOp50
 70
     1
102
RTVSPropertyOp51
 70
     0
102
RTVSPropertyOp52
 70
     0
102
RTVSPropertyOp53
 70
     1
102
RTVSPropertyOp54
 70
     1
102
RTVSPropertyOp55
 70
     1
102
RTVSPropertyOp56
 70
     1
102
RTVSPropertyOp57
 70
     1
102
RTVSPost2010Prop28
280
     0
102
RTVSPost2010PropOp28
 70
     1
102
RTVSPost2010Prop29
280
     1
102
RTVSPost2010PropOp29
 70
     1
102
RTVSPost2010Prop30
280
     1
102
RTVSPost2010PropOp30
 70
     1
102
RTVSPost2010Prop31
280
     0
102
RTVSPost2010PropOp31
 70
     1
102
RTVSPost2010Prop32
280
     0
102
RTVSPost2010PropOp32
 70
     1
102
RTVSPost2010Prop33
280
     0
102
RTVSPost2010PropOp33
 70
     1
102
RTVSPost2010Prop34
280
     0
102
RTVSPost2010PropOp34
 70
     1
102
RTVSPost2010Prop35
280
     0
102
RTVSPost2010PropOp35
 70
     1
102
RTVSPost2010Prop36
280
     0
102
RTVSPost2010PropOp36
 70
     1
102
RTVSPost2010Prop37
 90
       50
102
RTVSPost2010PropOp37
 70
     1
102
RTVSPost2010Prop38
140
0.0
102
RTVSPost2010PropOp38
 70
     1
102
RTVSPost2010Prop39
140
1.0
102
RTVSPost2010PropOp39
 70
     1
102
RTVSPost2010Prop40
 90
        0
102
RTVSPost2010PropOp40
 70
     1
102
RTVSPost2010Prop41ColorIndex
 90
       18
102
RTVSPost2010Prop41ColorRGB
 90
        0
102
RTVSPost2010PropOp41
 70
     1
102
RTVSPost2010Prop42
 90
       50
102
RTVSPost2010PropOp42
 70
     1
102
RTVSPost2010Prop43
 90
        3
102
RTVSPost2010PropOp43
 70
     1
102
RTVSPost2010Prop44ColorIndex
 90
        5
102
RTVSPost2010Prop44ColorRGB
 90
      255
102
RTVSPost2010PropOp44
 70
     1
102
RTVSPost2010Prop45
280
     0
102
RTVSPost2010PropOp45
 70
     1
102
RTVSPost2010Prop46
 90
       50
102
RTVSPost2010PropOp46
 70
     1
102
RTVSPost2010Prop47
 90
       50
102
RTVSPost2010PropOp47
 70
     1
102
RTVSPost2010Prop48
 90
       50
102
RTVSPost2010PropOp48
 70
     1
102
RTVSPost2010Prop49
280
     0
102
RTVSPost2010PropOp49
 70
     1
102
RTVSPost2010Prop50
 90
       50
102
RTVSPost2010PropOp50
 70
     1
102
RTVSPost2010Prop51ColorIndex
 90
      256
102
RTVSPost2010Prop51ColorRGB
 90
-16777216
102
RTVSPost2010PropOp51
 70
     0
102
RTVSPost2010Prop52
140
1.0
102
RTVSPost2010PropOp52
 70
     0
102
RTVSPost2010Prop53
 90
        2
102
RTVSPost2010PropOp53
 70
     1
102
RTVSPost2010Prop54
  1
strokes_ogs.tif
102
RTVSPost2010PropOp54
 70
     1
102
RTVSPost2010Prop55
280
     0
102
RTVSPost2010PropOp55
 70
     1
102
RTVSPost2010Prop56
140
1.0
102
RTVSPost2010PropOp56
 70
     1
102
RTVSPost2010Prop57
140
1.0
102
RTVSPost2010PropOp57
 70
     1
  0
XRECORD
  5
261
102
{ACAD_REACTORS
330
260
102
}
330
260
100
AcDbXrecord
280
     1
102
RTVSPropertyOp0
 70
     1
102
RTVSPropertyOp1
 70
     1
102
RTVSPropertyOp2
 70
     1
102
RTVSPropertyOp3
 70
     1
102
RTVSPropertyOp4
 70
     1
102
RTVSPropertyOp5
 70
     1
102
RTVSPropertyOp6
 70
     1
102
RTVSPropertyOp7
 70
     1
102
RTVSPropertyOp8
 70
     1
102
RTVSPropertyOp9
 70
     1
102
RTVSPropertyOp10
 70
     1
102
RTVSPropertyOp11
 70
     1
102
RTVSPropertyOp12
 70
     1
102
RTVSPropertyOp13
 70
     1
102
RTVSPropertyOp14
 70
     1
102
RTVSPropertyOp15
 70
     1
102
RTVSPropertyOp16
 70
     1
102
RTVSPropertyOp17
 70
     1
102
RTVSPropertyOp18
 70
     1
102
RTVSPropertyOp19
 70
     1
102
RTVSPropertyOp20
 70
     1
102
RTVSPropertyOp21
 70
     1
102
RTVSPropertyOp22
 70
     1
102
RTVSPropertyOp23
 70
     1
102
RTVSPropertyOp24
 70
     1
102
RTVSPropertyOp25
 70
     1
102
RTVSPropertyOp26
 70
     1
102
RTVSPropertyOp27
 70
     1
102
RTVSPropertyOp28
 70
     1
102
RTVSPropertyOp29
 70
     1
102
RTVSPropertyOp30
 70
     1
102
RTVSPropertyOp31
 70
     1
102
RTVSPropertyOp32
 70
     1
102
RTVSPropertyOp33
 70
     1
102
RTVSPropertyOp34
 70
     1
102
RTVSPropertyOp35
 70
     1
102
RTVSPropertyOp36
 70
     1
102
RTVSPropertyOp37
 70
     1
102
RTVSPropertyOp38
 70
     1
102
RTVSPropertyOp39
 70
     1
102
RTVSPropertyOp40
 70
     1
102
RTVSPropertyOp41
 70
     1
102
RTVSPropertyOp42
 70
     1
102
RTVSPropertyOp43
 70
     1
102
RTVSPropertyOp44
 70
     1
102
RTVSPropertyOp45
 70
     1
102
RTVSPropertyOp46
 70
     1
102
RTVSPropertyOp47
 70
     1
102
RTVSPropertyOp48
 70
     1
102
RTVSPropertyOp49
 70
     1
102
RTVSPropertyOp50
 70
     1
102
RTVSPropertyOp51
 70
     0
102
RTVSPropertyOp52
 70
     0
102
RTVSPropertyOp53
 70
     1
102
RTVSPropertyOp54
 70
     1
102
RTVSPropertyOp55
 70
     1
102
RTVSPropertyOp56
 70
     1
102
RTVSPropertyOp57
 70
     1
102
RTVSPost2010Prop28
280
     0
102
RTVSPost2010PropOp28
 70
     1
102
RTVSPost2010Prop29
280
     1
102
RTVSPost2010PropOp29
 70
     1
102
RTVSPost2010Prop30
280
     1
102
RTVSPost2010PropOp30
 70
     1
102
RTVSPost2010Prop31
280
     0
102
RTVSPost2010PropOp31
 70
     1
102
RTVSPost2010Prop32
280
     0
102
RTVSPost2010PropOp32
 70
     1
102
RTVSPost2010Prop33
280
     0
102
RTVSPost2010PropOp33
 70
     1
102
RTVSPost2010Prop34
280
     0
102
RTVSPost2010PropOp34
 70
     1
102
RTVSPost2010Prop35
280
     0
102
RTVSPost2010PropOp35
 70
     1
102
RTVSPost2010Prop36
280
     0
102
RTVSPost2010PropOp36
 70
     1
102
RTVSPost2010Prop37
 90
       50
102
RTVSPost2010PropOp37
 70
     1
102
RTVSPost2010Prop38
140
0.0
102
RTVSPost2010PropOp38
 70
     1
102
RTVSPost2010Prop39
140
1.0
102
RTVSPost2010PropOp39
 70
     1
102
RTVSPost2010Prop40
 90
        0
102
RTVSPost2010PropOp40
 70
     1
102
RTVSPost2010Prop41ColorIndex
 90
       18
102
RTVSPost2010Prop41ColorRGB
 90
        0
102
RTVSPost2010PropOp41
 70
     1
102
RTVSPost2010Prop42
 90
       50
102
RTVSPost2010PropOp42
 70
     1
102
RTVSPost2010Prop43
 90
        3
102
RTVSPost2010PropOp43
 70
     1
102
RTVSPost2010Prop44ColorIndex
 90
        5
102
RTVSPost2010Prop44ColorRGB
 90
      255
102
RTVSPost2010PropOp44
 70
     1
102
RTVSPost2010Prop45
280
     0
102
RTVSPost2010PropOp45
 70
     1
102
RTVSPost2010Prop46
 90
       50
102
RTVSPost2010PropOp46
 70
     1
102
RTVSPost2010Prop47
 90
       50
102
RTVSPost2010PropOp47
 70
     1
102
RTVSPost2010Prop48
 90
       50
102
RTVSPost2010PropOp48
 70
     1
102
RTVSPost2010Prop49
280
     0
102
RTVSPost2010PropOp49
 70
     1
102
RTVSPost2010Prop50
 90
       50
102
RTVSPost2010PropOp50
 70
     1
102
RTVSPost2010Prop51ColorIndex
 90
      256
102
RTVSPost2010Prop51ColorRGB
 90
-16777216
102
RTVSPost2010PropOp51
 70
     0
102
RTVSPost2010Prop52
140
1.0
102
RTVSPost2010PropOp52
 70
     0
102
RTVSPost2010Prop53
 90
        2
102
RTVSPost2010PropOp53
 70
     1
102
RTVSPost2010Prop54
  1
strokes_ogs.tif
102
RTVSPost2010PropOp54
 70
     1
102
RTVSPost2010Prop55
280
     0
102
RTVSPost2010PropOp55
 70
     1
102
RTVSPost2010Prop56
140
1.0
102
RTVSPost2010PropOp56
 70
     1
102
RTVSPost2010Prop57
140
1.0
102
RTVSPost2010PropOp57
 70
     1
  0
XRECORD
  5
275
102
{ACAD_REACTORS
330
274
102
}
330
274
100
AcDbXrecord
280
     1
102
RTVSPropertyOp0
 70
     0
102
RTVSPropertyOp1
 70
     0
102
RTVSPropertyOp2
 70
     0
102
RTVSPropertyOp3
 70
     0
102
RTVSPropertyOp4
 70
     0
102
RTVSPropertyOp5
 70
     0
102
RTVSPropertyOp6
 70
     0
102
RTVSPropertyOp7
 70
     0
102
RTVSPropertyOp8
 70
     0
102
RTVSPropertyOp9
 70
     0
102
RTVSPropertyOp10
 70
     0
102
RTVSPropertyOp11
 70
     0
102
RTVSPropertyOp12
 70
     0
102
RTVSPropertyOp13
 70
     0
102
RTVSPropertyOp14
 70
     2
102
RTVSPropertyOp15
 70
     0
102
RTVSPropertyOp16
 70
     0
102
RTVSPropertyOp17
 70
     0
102
RTVSPropertyOp18
 70
     0
102
RTVSPropertyOp19
 70
     0
102
RTVSPropertyOp20
 70
     0
102
RTVSPropertyOp21
 70
     0
102
RTVSPropertyOp22
 70
     0
102
RTVSPropertyOp23
 70
     0
102
RTVSPropertyOp24
 70
     0
102
RTVSPropertyOp25
 70
     0
102
RTVSPropertyOp26
 70
     0
102
RTVSPropertyOp27
 70
     0
102
RTVSPropertyOp28
 70
     0
102
RTVSPropertyOp29
 70
     0
102
RTVSPropertyOp30
 70
     0
102
RTVSPropertyOp31
 70
     0
102
RTVSPropertyOp32
 70
     0
102
RTVSPropertyOp33
 70
     0
102
RTVSPropertyOp34
 70
     0
102
RTVSPropertyOp35
 70
     0
102
RTVSPropertyOp36
 70
     0
102
RTVSPropertyOp37
 70
     0
102
RTVSPropertyOp38
 70
     0
102
RTVSPropertyOp39
 70
     0
102
RTVSPropertyOp40
 70
     0
102
RTVSPropertyOp41
 70
     0
102
RTVSPropertyOp42
 70
     0
102
RTVSPropertyOp43
 70
     0
102
RTVSPropertyOp44
 70
     0
102
RTVSPropertyOp45
 70
     0
102
RTVSPropertyOp46
 70
     0
102
RTVSPropertyOp47
 70
     0
102
RTVSPropertyOp48
 70
     0
102
RTVSPropertyOp49
 70
     0
102
RTVSPropertyOp50
 70
     0
102
RTVSPropertyOp51
 70
     0
102
RTVSPropertyOp52
 70
     0
102
RTVSPropertyOp53
 70
     0
102
RTVSPropertyOp54
 70
     0
102
RTVSPropertyOp55
 70
     0
102
RTVSPropertyOp56
 70
     0
102
RTVSPropertyOp57
 70
     0
102
RTVSPost2010Prop28
280
     0
102
RTVSPost2010PropOp28
 70
     0
102
RTVSPost2010Prop29
280
     1
102
RTVSPost2010PropOp29
 70
     0
102
RTVSPost2010Prop30
280
     1
102
RTVSPost2010PropOp30
 70
     0
102
RTVSPost2010Prop31
280
     0
102
RTVSPost2010PropOp31
 70
     0
102
RTVSPost2010Prop32
280
     0
102
RTVSPost2010PropOp32
 70
     0
102
RTVSPost2010Prop33
280
     0
102
RTVSPost2010PropOp33
 70
     0
102
RTVSPost2010Prop34
280
     0
102
RTVSPost2010PropOp34
 70
     0
102
RTVSPost2010Prop35
280
     0
102
RTVSPost2010PropOp35
 70
     0
102
RTVSPost2010Prop36
280
     0
102
RTVSPost2010PropOp36
 70
     0
102
RTVSPost2010Prop37
 90
       50
102
RTVSPost2010PropOp37
 70
     0
102
RTVSPost2010Prop38
140
0.0
102
RTVSPost2010PropOp38
 70
     0
102
RTVSPost2010Prop39
140
1.0
102
RTVSPost2010PropOp39
 70
     0
102
RTVSPost2010Prop40
 90
        0
102
RTVSPost2010PropOp40
 70
     0
102
RTVSPost2010Prop41ColorIndex
 90
       18
102
RTVSPost2010Prop41ColorRGB
 90
        0
102
RTVSPost2010PropOp41
 70
     0
102
RTVSPost2010Prop42
 90
       50
102
RTVSPost2010PropOp42
 70
     0
102
RTVSPost2010Prop43
 90
        3
102
RTVSPost2010PropOp43
 70
     0
102
RTVSPost2010Prop44ColorIndex
 90
        5
102
RTVSPost2010Prop44ColorRGB
 90
      255
102
RTVSPost2010PropOp44
 70
     0
102
RTVSPost2010Prop45
280
     0
102
RTVSPost2010PropOp45
 70
     0
102
RTVSPost2010Prop46
 90
       50
102
RTVSPost2010PropOp46
 70
     0
102
RTVSPost2010Prop47
 90
       50
102
RTVSPost2010PropOp47
 70
     0
102
RTVSPost2010Prop48
 90
       50
102
RTVSPost2010PropOp48
 70
     0
102
RTVSPost2010Prop49
280
     0
102
RTVSPost2010PropOp49
 70
     0
102
RTVSPost2010Prop50
 90
       50
102
RTVSPost2010PropOp50
 70
     0
102
RTVSPost2010Prop51ColorIndex
 90
      256
102
RTVSPost2010Prop51ColorRGB
 90
-16777216
102
RTVSPost2010PropOp51
 70
     0
102
RTVSPost2010Prop52
140
1.0
102
RTVSPost2010PropOp52
 70
     0
102
RTVSPost2010Prop53
 90
        2
102
RTVSPost2010PropOp53
 70
     0
102
RTVSPost2010Prop54
  1
strokes_ogs.tif
102
RTVSPost2010PropOp54
 70
     0
102
RTVSPost2010Prop55
280
     0
102
RTVSPost2010PropOp55
 70
     0
102
RTVSPost2010Prop56
140
1.0
102
RTVSPost2010PropOp56
 70
     0
102
RTVSPost2010Prop57
140
1.0
102
RTVSPost2010PropOp57
 70
     0
  0
XRECORD
  5
26F
102
{ACAD_REACTORS
330
26E
102
}
330
26E
100
AcDbXrecord
280
     1
102
RTVSPropertyOp0
 70
     1
102
RTVSPropertyOp1
 70
     1
102
RTVSPropertyOp2
 70
     1
102
RTVSPropertyOp3
 70
     1
102
RTVSPropertyOp4
 70
     1
102
RTVSPropertyOp5
 70
     1
102
RTVSPropertyOp6
 70
     1
102
RTVSPropertyOp7
 70
     1
102
RTVSPropertyOp8
 70
     1
102
RTVSPropertyOp9
 70
     1
102
RTVSPropertyOp10
 70
     1
102
RTVSPropertyOp11
 70
     1
102
RTVSPropertyOp12
 70
     1
102
RTVSPropertyOp13
 70
     1
102
RTVSPropertyOp14
 70
     1
102
RTVSPropertyOp15
 70
     1
102
RTVSPropertyOp16
 70
     1
102
RTVSPropertyOp17
 70
     1
102
RTVSPropertyOp18
 70
     1
102
RTVSPropertyOp19
 70
     1
102
RTVSPropertyOp20
 70
     1
102
RTVSPropertyOp21
 70
     1
102
RTVSPropertyOp22
 70
     1
102
RTVSPropertyOp23
 70
     1
102
RTVSPropertyOp24
 70
     1
102
RTVSPropertyOp25
 70
     1
102
RTVSPropertyOp26
 70
     1
102
RTVSPropertyOp27
 70
     1
102
RTVSPropertyOp28
 70
     1
102
RTVSPropertyOp29
 70
     1
102
RTVSPropertyOp30
 70
     1
102
RTVSPropertyOp31
 70
     1
102
RTVSPropertyOp32
 70
     1
102
RTVSPropertyOp33
 70
     1
102
RTVSPropertyOp34
 70
     1
102
RTVSPropertyOp35
 70
     1
102
RTVSPropertyOp36
 70
     1
102
RTVSPropertyOp37
 70
     1
102
RTVSPropertyOp38
 70
     1
102
RTVSPropertyOp39
 70
     1
102
RTVSPropertyOp40
 70
     1
102
RTVSPropertyOp41
 70
     1
102
RTVSPropertyOp42
 70
     1
102
RTVSPropertyOp43
 70
     1
102
RTVSPropertyOp44
 70
     1
102
RTVSPropertyOp45
 70
     1
102
RTVSPropertyOp46
 70
     1
102
RTVSPropertyOp47
 70
     1
102
RTVSPropertyOp48
 70
     1
102
RTVSPropertyOp49
 70
     1
102
RTVSPropertyOp50
 70
     1
102
RTVSPropertyOp51
 70
     0
102
RTVSPropertyOp52
 70
     0
102
RTVSPropertyOp53
 70
     1
102
RTVSPropertyOp54
 70
     1
102
RTVSPropertyOp55
 70
     1
102
RTVSPropertyOp56
 70
     1
102
RTVSPropertyOp57
 70
     1
102
RTVSPost2010Prop28
280
     0
102
RTVSPost2010PropOp28
 70
     1
102
RTVSPost2010Prop29
280
     1
102
RTVSPost2010PropOp29
 70
     1
102
RTVSPost2010Prop30
280
     1
102
RTVSPost2010PropOp30
 70
     1
102
RTVSPost2010Prop31
280
     0
102
RTVSPost2010PropOp31
 70
     1
102
RTVSPost2010Prop32
280
     0
102
RTVSPost2010PropOp32
 70
     1
102
RTVSPost2010Prop33
280
     0
102
RTVSPost2010PropOp33
 70
     1
102
RTVSPost2010Prop34
280
     0
102
RTVSPost2010PropOp34
 70
     1
102
RTVSPost2010Prop35
280
     0
102
RTVSPost2010PropOp35
 70
     1
102
RTVSPost2010Prop36
280
     0
102
RTVSPost2010PropOp36
 70
     1
102
RTVSPost2010Prop37
 90
       50
102
RTVSPost2010PropOp37
 70
     1
102
RTVSPost2010Prop38
140
0.0
102
RTVSPost2010PropOp38
 70
     1
102
RTVSPost2010Prop39
140
1.0
102
RTVSPost2010PropOp39
 70
     1
102
RTVSPost2010Prop40
 90
        0
102
RTVSPost2010PropOp40
 70
     1
102
RTVSPost2010Prop41ColorIndex
 90
       18
102
RTVSPost2010Prop41ColorRGB
 90
        0
102
RTVSPost2010PropOp41
 70
     1
102
RTVSPost2010Prop42
 90
       50
102
RTVSPost2010PropOp42
 70
     1
102
RTVSPost2010Prop43
 90
        3
102
RTVSPost2010PropOp43
 70
     1
102
RTVSPost2010Prop44ColorIndex
 90
        5
102
RTVSPost2010Prop44ColorRGB
 90
      255
102
RTVSPost2010PropOp44
 70
     1
102
RTVSPost2010Prop45
280
     0
102
RTVSPost2010PropOp45
 70
     1
102
RTVSPost2010Prop46
 90
       50
102
RTVSPost2010PropOp46
 70
     1
102
RTVSPost2010Prop47
 90
       50
102
RTVSPost2010PropOp47
 70
     1
102
RTVSPost2010Prop48
 90
       50
102
RTVSPost2010PropOp48
 70
     1
102
RTVSPost2010Prop49
280
     0
102
RTVSPost2010PropOp49
 70
     1
102
RTVSPost2010Prop50
 90
       50
102
RTVSPost2010PropOp50
 70
     1
102
RTVSPost2010Prop51ColorIndex
 90
      256
102
RTVSPost2010Prop51ColorRGB
 90
-16777216
102
RTVSPost2010PropOp51
 70
     0
102
RTVSPost2010Prop52
140
1.0
102
RTVSPost2010PropOp52
 70
     0
102
RTVSPost2010Prop53
 90
        2
102
RTVSPost2010PropOp53
 70
     1
102
RTVSPost2010Prop54
  1
strokes_ogs.tif
102
RTVSPost2010PropOp54
 70
     1
102
RTVSPost2010Prop55
280
     0
102
RTVSPost2010PropOp55
 70
     1
102
RTVSPost2010Prop56
140
1.0
102
RTVSPost2010PropOp56
 70
     1
102
RTVSPost2010Prop57
140
1.0
102
RTVSPost2010PropOp57
 70
     1
  0
XRECORD
  5
277
102
{ACAD_REACTORS
330
276
102
}
330
276
100
AcDbXrecord
280
     1
102
RTVSPropertyOp0
 70
     0
102
RTVSPropertyOp1
 70
     0
102
RTVSPropertyOp2
 70
     0
102
RTVSPropertyOp3
 70
     0
102
RTVSPropertyOp4
 70
     0
102
RTVSPropertyOp5
 70
     0
102
RTVSPropertyOp6
 70
     0
102
RTVSPropertyOp7
 70
     0
102
RTVSPropertyOp8
 70
     0
102
RTVSPropertyOp9
 70
     0
102
RTVSPropertyOp10
 70
     0
102
RTVSPropertyOp11
 70
     0
102
RTVSPropertyOp12
 70
     0
102
RTVSPropertyOp13
 70
     0
102
RTVSPropertyOp14
 70
     2
102
RTVSPropertyOp15
 70
     0
102
RTVSPropertyOp16
 70
     0
102
RTVSPropertyOp17
 70
     0
102
RTVSPropertyOp18
 70
     0
102
RTVSPropertyOp19
 70
     0
102
RTVSPropertyOp20
 70
     0
102
RTVSPropertyOp21
 70
     0
102
RTVSPropertyOp22
 70
     0
102
RTVSPropertyOp23
 70
     0
102
RTVSPropertyOp24
 70
     0
102
RTVSPropertyOp25
 70
     0
102
RTVSPropertyOp26
 70
     0
102
RTVSPropertyOp27
 70
     0
102
RTVSPropertyOp28
 70
     0
102
RTVSPropertyOp29
 70
     0
102
RTVSPropertyOp30
 70
     0
102
RTVSPropertyOp31
 70
     0
102
RTVSPropertyOp32
 70
     0
102
RTVSPropertyOp33
 70
     0
102
RTVSPropertyOp34
 70
     0
102
RTVSPropertyOp35
 70
     0
102
RTVSPropertyOp36
 70
     0
102
RTVSPropertyOp37
 70
     0
102
RTVSPropertyOp38
 70
     0
102
RTVSPropertyOp39
 70
     0
102
RTVSPropertyOp40
 70
     0
102
RTVSPropertyOp41
 70
     0
102
RTVSPropertyOp42
 70
     0
102
RTVSPropertyOp43
 70
     0
102
RTVSPropertyOp44
 70
     0
102
RTVSPropertyOp45
 70
     0
102
RTVSPropertyOp46
 70
     0
102
RTVSPropertyOp47
 70
     0
102
RTVSPropertyOp48
 70
     0
102
RTVSPropertyOp49
 70
     0
102
RTVSPropertyOp50
 70
     0
102
RTVSPropertyOp51
 70
     0
102
RTVSPropertyOp52
 70
     0
102
RTVSPropertyOp53
 70
     0
102
RTVSPropertyOp54
 70
     0
102
RTVSPropertyOp55
 70
     0
102
RTVSPropertyOp56
 70
     0
102
RTVSPropertyOp57
 70
     0
102
RTVSPost2010Prop28
280
     0
102
RTVSPost2010PropOp28
 70
     0
102
RTVSPost2010Prop29
280
     1
102
RTVSPost2010PropOp29
 70
     0
102
RTVSPost2010Prop30
280
     1
102
RTVSPost2010PropOp30
 70
     0
102
RTVSPost2010Prop31
280
     0
102
RTVSPost2010PropOp31
 70
     0
102
RTVSPost2010Prop32
280
     0
102
RTVSPost2010PropOp32
 70
     0
102
RTVSPost2010Prop33
280
     0
102
RTVSPost2010PropOp33
 70
     0
102
RTVSPost2010Prop34
280
     0
102
RTVSPost2010PropOp34
 70
     0
102
RTVSPost2010Prop35
280
     0
102
RTVSPost2010PropOp35
 70
     0
102
RTVSPost2010Prop36
280
     0
102
RTVSPost2010PropOp36
 70
     0
102
RTVSPost2010Prop37
 90
       50
102
RTVSPost2010PropOp37
 70
     0
102
RTVSPost2010Prop38
140
0.0
102
RTVSPost2010PropOp38
 70
     0
102
RTVSPost2010Prop39
140
1.0
102
RTVSPost2010PropOp39
 70
     0
102
RTVSPost2010Prop40
 90
        0
102
RTVSPost2010PropOp40
 70
     0
102
RTVSPost2010Prop41ColorIndex
 90
       18
102
RTVSPost2010Prop41ColorRGB
 90
        0
102
RTVSPost2010PropOp41
 70
     0
102
RTVSPost2010Prop42
 90
       50
102
RTVSPost2010PropOp42
 70
     0
102
RTVSPost2010Prop43
 90
        3
102
RTVSPost2010PropOp43
 70
     0
102
RTVSPost2010Prop44ColorIndex
 90
        5
102
RTVSPost2010Prop44ColorRGB
 90
      255
102
RTVSPost2010PropOp44
 70
     0
102
RTVSPost2010Prop45
280
     0
102
RTVSPost2010PropOp45
 70
     0
102
RTVSPost2010Prop46
 90
       50
102
RTVSPost2010PropOp46
 70
     0
102
RTVSPost2010Prop47
 90
       50
102
RTVSPost2010PropOp47
 70
     0
102
RTVSPost2010Prop48
 90
       50
102
RTVSPost2010PropOp48
 70
     0
102
RTVSPost2010Prop49
280
     0
102
RTVSPost2010PropOp49
 70
     0
102
RTVSPost2010Prop50
 90
       50
102
RTVSPost2010PropOp50
 70
     0
102
RTVSPost2010Prop51ColorIndex
 90
      256
102
RTVSPost2010Prop51ColorRGB
 90
-16777216
102
RTVSPost2010PropOp51
 70
     0
102
RTVSPost2010Prop52
140
1.0
102
RTVSPost2010PropOp52
 70
     0
102
RTVSPost2010Prop53
 90
        2
102
RTVSPost2010PropOp53
 70
     0
102
RTVSPost2010Prop54
  1
strokes_ogs.tif
102
RTVSPost2010PropOp54
 70
     0
102
RTVSPost2010Prop55
280
     0
102
RTVSPost2010PropOp55
 70
     0
102
RTVSPost2010Prop56
140
1.0
102
RTVSPost2010PropOp56
 70
     0
102
RTVSPost2010Prop57
140
1.0
102
RTVSPost2010PropOp57
 70
     0
  0
XRECORD
  5
265
102
{ACAD_REACTORS
330
264
102
}
330
264
100
AcDbXrecord
280
     1
102
RTVSPropertyOp0
 70
     1
102
RTVSPropertyOp1
 70
     1
102
RTVSPropertyOp2
 70
     1
102
RTVSPropertyOp3
 70
     1
102
RTVSPropertyOp4
 70
     1
102
RTVSPropertyOp5
 70
     1
102
RTVSPropertyOp6
 70
     1
102
RTVSPropertyOp7
 70
     1
102
RTVSPropertyOp8
 70
     1
102
RTVSPropertyOp9
 70
     1
102
RTVSPropertyOp10
 70
     1
102
RTVSPropertyOp11
 70
     1
102
RTVSPropertyOp12
 70
     1
102
RTVSPropertyOp13
 70
     1
102
RTVSPropertyOp14
 70
     1
102
RTVSPropertyOp15
 70
     1
102
RTVSPropertyOp16
 70
     1
102
RTVSPropertyOp17
 70
     1
102
RTVSPropertyOp18
 70
     1
102
RTVSPropertyOp19
 70
     1
102
RTVSPropertyOp20
 70
     1
102
RTVSPropertyOp21
 70
     1
102
RTVSPropertyOp22
 70
     1
102
RTVSPropertyOp23
 70
     1
102
RTVSPropertyOp24
 70
     1
102
RTVSPropertyOp25
 70
     1
102
RTVSPropertyOp26
 70
     1
102
RTVSPropertyOp27
 70
     1
102
RTVSPropertyOp28
 70
     1
102
RTVSPropertyOp29
 70
     1
102
RTVSPropertyOp30
 70
     1
102
RTVSPropertyOp31
 70
     1
102
RTVSPropertyOp32
 70
     1
102
RTVSPropertyOp33
 70
     1
102
RTVSPropertyOp34
 70
     1
102
RTVSPropertyOp35
 70
     1
102
RTVSPropertyOp36
 70
     1
102
RTVSPropertyOp37
 70
     1
102
RTVSPropertyOp38
 70
     1
102
RTVSPropertyOp39
 70
     1
102
RTVSPropertyOp40
 70
     1
102
RTVSPropertyOp41
 70
     1
102
RTVSPropertyOp42
 70
     1
102
RTVSPropertyOp43
 70
     1
102
RTVSPropertyOp44
 70
     1
102
RTVSPropertyOp45
 70
     1
102
RTVSPropertyOp46
 70
     1
102
RTVSPropertyOp47
 70
     1
102
RTVSPropertyOp48
 70
     1
102
RTVSPropertyOp49
 70
     1
102
RTVSPropertyOp50
 70
     1
102
RTVSPropertyOp51
 70
     0
102
RTVSPropertyOp52
 70
     0
102
RTVSPropertyOp53
 70
     1
102
RTVSPropertyOp54
 70
     1
102
RTVSPropertyOp55
 70
     1
102
RTVSPropertyOp56
 70
     1
102
RTVSPropertyOp57
 70
     1
102
RTVSPost2010Prop28
280
     0
102
RTVSPost2010PropOp28
 70
     1
102
RTVSPost2010Prop29
280
     1
102
RTVSPost2010PropOp29
 70
     1
102
RTVSPost2010Prop30
280
     1
102
RTVSPost2010PropOp30
 70
     1
102
RTVSPost2010Prop31
280
     0
102
RTVSPost2010PropOp31
 70
     1
102
RTVSPost2010Prop32
280
     0
102
RTVSPost2010PropOp32
 70
     1
102
RTVSPost2010Prop33
280
     0
102
RTVSPost2010PropOp33
 70
     1
102
RTVSPost2010Prop34
280
     0
102
RTVSPost2010PropOp34
 70
     1
102
RTVSPost2010Prop35
280
     0
102
RTVSPost2010PropOp35
 70
     1
102
RTVSPost2010Prop36
280
     0
102
RTVSPost2010PropOp36
 70
     1
102
RTVSPost2010Prop37
 90
       50
102
RTVSPost2010PropOp37
 70
     1
102
RTVSPost2010Prop38
140
0.0
102
RTVSPost2010PropOp38
 70
     1
102
RTVSPost2010Prop39
140
1.0
102
RTVSPost2010PropOp39
 70
     1
102
RTVSPost2010Prop40
 90
        0
102
RTVSPost2010PropOp40
 70
     1
102
RTVSPost2010Prop41ColorIndex
 90
       18
102
RTVSPost2010Prop41ColorRGB
 90
        0
102
RTVSPost2010PropOp41
 70
     1
102
RTVSPost2010Prop42
 90
       50
102
RTVSPost2010PropOp42
 70
     1
102
RTVSPost2010Prop43
 90
        3
102
RTVSPost2010PropOp43
 70
     1
102
RTVSPost2010Prop44ColorIndex
 90
        5
102
RTVSPost2010Prop44ColorRGB
 90
      255
102
RTVSPost2010PropOp44
 70
     1
102
RTVSPost2010Prop45
280
     0
102
RTVSPost2010PropOp45
 70
     1
102
RTVSPost2010Prop46
 90
       50
102
RTVSPost2010PropOp46
 70
     1
102
RTVSPost2010Prop47
 90
       50
102
RTVSPost2010PropOp47
 70
     1
102
RTVSPost2010Prop48
 90
       50
102
RTVSPost2010PropOp48
 70
     1
102
RTVSPost2010Prop49
280
     0
102
RTVSPost2010PropOp49
 70
     1
102
RTVSPost2010Prop50
 90
       50
102
RTVSPost2010PropOp50
 70
     1
102
RTVSPost2010Prop51ColorIndex
 90
      256
102
RTVSPost2010Prop51ColorRGB
 90
-16777216
102
RTVSPost2010PropOp51
 70
     0
102
RTVSPost2010Prop52
140
1.0
102
RTVSPost2010PropOp52
 70
     0
102
RTVSPost2010Prop53
 90
        2
102
RTVSPost2010PropOp53
 70
     1
102
RTVSPost2010Prop54
  1
strokes_ogs.tif
102
RTVSPost2010PropOp54
 70
     1
102
RTVSPost2010Prop55
280
     0
102
RTVSPost2010PropOp55
 70
     1
102
RTVSPost2010Prop56
140
1.0
102
RTVSPost2010PropOp56
 70
     1
102
RTVSPost2010Prop57
140
1.0
102
RTVSPost2010PropOp57
 70
     1
  0
XRECORD
  5
283
102
{ACAD_REACTORS
330
282
102
}
330
282
100
AcDbXrecord
280
     1
102
RTVSPropertyOp0
 70
     1
102
RTVSPropertyOp1
 70
     1
102
RTVSPropertyOp2
 70
     1
102
RTVSPropertyOp3
 70
     1
102
RTVSPropertyOp4
 70
     1
102
RTVSPropertyOp5
 70
     1
102
RTVSPropertyOp6
 70
     1
102
RTVSPropertyOp7
 70
     1
102
RTVSPropertyOp8
 70
     1
102
RTVSPropertyOp9
 70
     1
102
RTVSPropertyOp10
 70
     1
102
RTVSPropertyOp11
 70
     1
102
RTVSPropertyOp12
 70
     1
102
RTVSPropertyOp13
 70
     1
102
RTVSPropertyOp14
 70
     1
102
RTVSPropertyOp15
 70
     1
102
RTVSPropertyOp16
 70
     1
102
RTVSPropertyOp17
 70
     1
102
RTVSPropertyOp18
 70
     1
102
RTVSPropertyOp19
 70
     1
102
RTVSPropertyOp20
 70
     1
102
RTVSPropertyOp21
 70
     1
102
RTVSPropertyOp22
 70
     1
102
RTVSPropertyOp23
 70
     1
102
RTVSPropertyOp24
 70
     1
102
RTVSPropertyOp25
 70
     1
102
RTVSPropertyOp26
 70
     1
102
RTVSPropertyOp27
 70
     1
102
RTVSPropertyOp28
 70
     1
102
RTVSPropertyOp29
 70
     1
102
RTVSPropertyOp30
 70
     1
102
RTVSPropertyOp31
 70
     1
102
RTVSPropertyOp32
 70
     1
102
RTVSPropertyOp33
 70
     1
102
RTVSPropertyOp34
 70
     1
102
RTVSPropertyOp35
 70
     1
102
RTVSPropertyOp36
 70
     1
102
RTVSPropertyOp37
 70
     1
102
RTVSPropertyOp38
 70
     1
102
RTVSPropertyOp39
 70
     1
102
RTVSPropertyOp40
 70
     1
102
RTVSPropertyOp41
 70
     1
102
RTVSPropertyOp42
 70
     1
102
RTVSPropertyOp43
 70
     1
102
RTVSPropertyOp44
 70
     1
102
RTVSPropertyOp45
 70
     1
102
RTVSPropertyOp46
 70
     1
102
RTVSPropertyOp47
 70
     1
102
RTVSPropertyOp48
 70
     1
102
RTVSPropertyOp49
 70
     1
102
RTVSPropertyOp50
 70
     1
102
RTVSPropertyOp51
 70
     0
102
RTVSPropertyOp52
 70
     0
102
RTVSPropertyOp53
 70
     1
102
RTVSPropertyOp54
 70
     1
102
RTVSPropertyOp55
 70
     1
102
RTVSPropertyOp56
 70
     1
102
RTVSPropertyOp57
 70
     1
102
RTVSPost2010Prop28
280
     0
102
RTVSPost2010PropOp28
 70
     1
102
RTVSPost2010Prop29
280
     1
102
RTVSPost2010PropOp29
 70
     1
102
RTVSPost2010Prop30
280
     1
102
RTVSPost2010PropOp30
 70
     1
102
RTVSPost2010Prop31
280
     0
102
RTVSPost2010PropOp31
 70
     1
102
RTVSPost2010Prop32
280
     0
102
RTVSPost2010PropOp32
 70
     1
102
RTVSPost2010Prop33
280
     0
102
RTVSPost2010PropOp33
 70
     1
102
RTVSPost2010Prop34
280
     0
102
RTVSPost2010PropOp34
 70
     1
102
RTVSPost2010Prop35
280
     0
102
RTVSPost2010PropOp35
 70
     1
102
RTVSPost2010Prop36
280
     0
102
RTVSPost2010PropOp36
 70
     1
102
RTVSPost2010Prop37
 90
       50
102
RTVSPost2010PropOp37
 70
     1
102
RTVSPost2010Prop38
140
0.0
102
RTVSPost2010PropOp38
 70
     1
102
RTVSPost2010Prop39
140
1.0
102
RTVSPost2010PropOp39
 70
     1
102
RTVSPost2010Prop40
 90
        0
102
RTVSPost2010PropOp40
 70
     1
102
RTVSPost2010Prop41ColorIndex
 90
       18
102
RTVSPost2010Prop41ColorRGB
 90
        0
102
RTVSPost2010PropOp41
 70
     1
102
RTVSPost2010Prop42
 90
       50
102
RTVSPost2010PropOp42
 70
     1
102
RTVSPost2010Prop43
 90
        3
102
RTVSPost2010PropOp43
 70
     1
102
RTVSPost2010Prop44ColorIndex
 90
        5
102
RTVSPost2010Prop44ColorRGB
 90
      255
102
RTVSPost2010PropOp44
 70
     1
102
RTVSPost2010Prop45
280
     0
102
RTVSPost2010PropOp45
 70
     1
102
RTVSPost2010Prop46
 90
       50
102
RTVSPost2010PropOp46
 70
     1
102
RTVSPost2010Prop47
 90
       50
102
RTVSPost2010PropOp47
 70
     1
102
RTVSPost2010Prop48
 90
       50
102
RTVSPost2010PropOp48
 70
     1
102
RTVSPost2010Prop49
280
     0
102
RTVSPost2010PropOp49
 70
     1
102
RTVSPost2010Prop50
 90
       50
102
RTVSPost2010PropOp50
 70
     1
102
RTVSPost2010Prop51ColorIndex
 90
      256
102
RTVSPost2010Prop51ColorRGB
 90
-16777216
102
RTVSPost2010PropOp51
 70
     0
102
RTVSPost2010Prop52
140
1.0
102
RTVSPost2010PropOp52
 70
     0
102
RTVSPost2010Prop53
 90
        2
102
RTVSPost2010PropOp53
 70
     1
102
RTVSPost2010Prop54
  1
strokes_ogs.tif
102
RTVSPost2010PropOp54
 70
     1
102
RTVSPost2010Prop55
280
     0
102
RTVSPost2010PropOp55
 70
     1
102
RTVSPost2010Prop56
140
1.0
102
RTVSPost2010PropOp56
 70
     1
102
RTVSPost2010Prop57
140
1.0
102
RTVSPost2010PropOp57
 70
     1
  0
XRECORD
  5
281
102
{ACAD_REACTORS
330
280
102
}
330
280
100
AcDbXrecord
280
     1
102
RTVSPropertyOp0
 70
     1
102
RTVSPropertyOp1
 70
     1
102
RTVSPropertyOp2
 70
     1
102
RTVSPropertyOp3
 70
     1
102
RTVSPropertyOp4
 70
     1
102
RTVSPropertyOp5
 70
     1
102
RTVSPropertyOp6
 70
     1
102
RTVSPropertyOp7
 70
     1
102
RTVSPropertyOp8
 70
     1
102
RTVSPropertyOp9
 70
     1
102
RTVSPropertyOp10
 70
     1
102
RTVSPropertyOp11
 70
     1
102
RTVSPropertyOp12
 70
     1
102
RTVSPropertyOp13
 70
     1
102
RTVSPropertyOp14
 70
     1
102
RTVSPropertyOp15
 70
     1
102
RTVSPropertyOp16
 70
     1
102
RTVSPropertyOp17
 70
     1
102
RTVSPropertyOp18
 70
     1
102
RTVSPropertyOp19
 70
     1
102
RTVSPropertyOp20
 70
     1
102
RTVSPropertyOp21
 70
     1
102
RTVSPropertyOp22
 70
     1
102
RTVSPropertyOp23
 70
     1
102
RTVSPropertyOp24
 70
     1
102
RTVSPropertyOp25
 70
     1
102
RTVSPropertyOp26
 70
     1
102
RTVSPropertyOp27
 70
     1
102
RTVSPropertyOp28
 70
     1
102
RTVSPropertyOp29
 70
     1
102
RTVSPropertyOp30
 70
     1
102
RTVSPropertyOp31
 70
     1
102
RTVSPropertyOp32
 70
     1
102
RTVSPropertyOp33
 70
     1
102
RTVSPropertyOp34
 70
     1
102
RTVSPropertyOp35
 70
     1
102
RTVSPropertyOp36
 70
     1
102
RTVSPropertyOp37
 70
     1
102
RTVSPropertyOp38
 70
     1
102
RTVSPropertyOp39
 70
     1
102
RTVSPropertyOp40
 70
     1
102
RTVSPropertyOp41
 70
     1
102
RTVSPropertyOp42
 70
     1
102
RTVSPropertyOp43
 70
     1
102
RTVSPropertyOp44
 70
     1
102
RTVSPropertyOp45
 70
     1
102
RTVSPropertyOp46
 70
     1
102
RTVSPropertyOp47
 70
     1
102
RTVSPropertyOp48
 70
     1
102
RTVSPropertyOp49
 70
     1
102
RTVSPropertyOp50
 70
     1
102
RTVSPropertyOp51
 70
     0
102
RTVSPropertyOp52
 70
     0
102
RTVSPropertyOp53
 70
     1
102
RTVSPropertyOp54
 70
     1
102
RTVSPropertyOp55
 70
     1
102
RTVSPropertyOp56
 70
     1
102
RTVSPropertyOp57
 70
     1
102
RTVSPost2010Prop28
280
     0
102
RTVSPost2010PropOp28
 70
     1
102
RTVSPost2010Prop29
280
     1
102
RTVSPost2010PropOp29
 70
     1
102
RTVSPost2010Prop30
280
     1
102
RTVSPost2010PropOp30
 70
     1
102
RTVSPost2010Prop31
280
     0
102
RTVSPost2010PropOp31
 70
     1
102
RTVSPost2010Prop32
280
     0
102
RTVSPost2010PropOp32
 70
     1
102
RTVSPost2010Prop33
280
     0
102
RTVSPost2010PropOp33
 70
     1
102
RTVSPost2010Prop34
280
     0
102
RTVSPost2010PropOp34
 70
     1
102
RTVSPost2010Prop35
280
     0
102
RTVSPost2010PropOp35
 70
     1
102
RTVSPost2010Prop36
280
     0
102
RTVSPost2010PropOp36
 70
     1
102
RTVSPost2010Prop37
 90
       50
102
RTVSPost2010PropOp37
 70
     1
102
RTVSPost2010Prop38
140
0.0
102
RTVSPost2010PropOp38
 70
     1
102
RTVSPost2010Prop39
140
1.0
102
RTVSPost2010PropOp39
 70
     1
102
RTVSPost2010Prop40
 90
        0
102
RTVSPost2010PropOp40
 70
     1
102
RTVSPost2010Prop41ColorIndex
 90
       18
102
RTVSPost2010Prop41ColorRGB
 90
        0
102
RTVSPost2010PropOp41
 70
     1
102
RTVSPost2010Prop42
 90
       50
102
RTVSPost2010PropOp42
 70
     1
102
RTVSPost2010Prop43
 90
        3
102
RTVSPost2010PropOp43
 70
     1
102
RTVSPost2010Prop44ColorIndex
 90
        5
102
RTVSPost2010Prop44ColorRGB
 90
      255
102
RTVSPost2010PropOp44
 70
     1
102
RTVSPost2010Prop45
280
     0
102
RTVSPost2010PropOp45
 70
     1
102
RTVSPost2010Prop46
 90
       50
102
RTVSPost2010PropOp46
 70
     1
102
RTVSPost2010Prop47
 90
       50
102
RTVSPost2010PropOp47
 70
     1
102
RTVSPost2010Prop48
 90
       50
102
RTVSPost2010PropOp48
 70
     1
102
RTVSPost2010Prop49
280
     0
102
RTVSPost2010PropOp49
 70
     1
102
RTVSPost2010Prop50
 90
       50
102
RTVSPost2010PropOp50
 70
     1
102
RTVSPost2010Prop51ColorIndex
 90
      256
102
RTVSPost2010Prop51ColorRGB
 90
-16777216
102
RTVSPost2010PropOp51
 70
     0
102
RTVSPost2010Prop52
140
1.0
102
RTVSPost2010PropOp52
 70
     0
102
RTVSPost2010Prop53
 90
        2
102
RTVSPost2010PropOp53
 70
     1
102
RTVSPost2010Prop54
  1
strokes_ogs.tif
102
RTVSPost2010PropOp54
 70
     1
102
RTVSPost2010Prop55
280
     0
102
RTVSPost2010PropOp55
 70
     1
102
RTVSPost2010Prop56
140
1.0
102
RTVSPost2010PropOp56
 70
     1
102
RTVSPost2010Prop57
140
1.0
102
RTVSPost2010PropOp57
 70
     1
  0
XRECORD
  5
27B
102
{ACAD_REACTORS
330
27A
102
}
330
27A
100
AcDbXrecord
280
     1
102
RTVSPropertyOp0
 70
     1
102
RTVSPropertyOp1
 70
     1
102
RTVSPropertyOp2
 70
     1
102
RTVSPropertyOp3
 70
     1
102
RTVSPropertyOp4
 70
     1
102
RTVSPropertyOp5
 70
     1
102
RTVSPropertyOp6
 70
     1
102
RTVSPropertyOp7
 70
     1
102
RTVSPropertyOp8
 70
     1
102
RTVSPropertyOp9
 70
     1
102
RTVSPropertyOp10
 70
     1
102
RTVSPropertyOp11
 70
     1
102
RTVSPropertyOp12
 70
     1
102
RTVSPropertyOp13
 70
     1
102
RTVSPropertyOp14
 70
     1
102
RTVSPropertyOp15
 70
     1
102
RTVSPropertyOp16
 70
     1
102
RTVSPropertyOp17
 70
     1
102
RTVSPropertyOp18
 70
     1
102
RTVSPropertyOp19
 70
     1
102
RTVSPropertyOp20
 70
     1
102
RTVSPropertyOp21
 70
     1
102
RTVSPropertyOp22
 70
     1
102
RTVSPropertyOp23
 70
     1
102
RTVSPropertyOp24
 70
     1
102
RTVSPropertyOp25
 70
     1
102
RTVSPropertyOp26
 70
     1
102
RTVSPropertyOp27
 70
     1
102
RTVSPropertyOp28
 70
     1
102
RTVSPropertyOp29
 70
     1
102
RTVSPropertyOp30
 70
     1
102
RTVSPropertyOp31
 70
     1
102
RTVSPropertyOp32
 70
     1
102
RTVSPropertyOp33
 70
     1
102
RTVSPropertyOp34
 70
     1
102
RTVSPropertyOp35
 70
     1
102
RTVSPropertyOp36
 70
     1
102
RTVSPropertyOp37
 70
     1
102
RTVSPropertyOp38
 70
     1
102
RTVSPropertyOp39
 70
     1
102
RTVSPropertyOp40
 70
     1
102
RTVSPropertyOp41
 70
     1
102
RTVSPropertyOp42
 70
     1
102
RTVSPropertyOp43
 70
     1
102
RTVSPropertyOp44
 70
     1
102
RTVSPropertyOp45
 70
     1
102
RTVSPropertyOp46
 70
     1
102
RTVSPropertyOp47
 70
     1
102
RTVSPropertyOp48
 70
     1
102
RTVSPropertyOp49
 70
     1
102
RTVSPropertyOp50
 70
     1
102
RTVSPropertyOp51
 70
     0
102
RTVSPropertyOp52
 70
     0
102
RTVSPropertyOp53
 70
     1
102
RTVSPropertyOp54
 70
     1
102
RTVSPropertyOp55
 70
     1
102
RTVSPropertyOp56
 70
     1
102
RTVSPropertyOp57
 70
     1
102
RTVSPost2010Prop28
280
     0
102
RTVSPost2010PropOp28
 70
     1
102
RTVSPost2010Prop29
280
     1
102
RTVSPost2010PropOp29
 70
     1
102
RTVSPost2010Prop30
280
     1
102
RTVSPost2010PropOp30
 70
     1
102
RTVSPost2010Prop31
280
     0
102
RTVSPost2010PropOp31
 70
     1
102
RTVSPost2010Prop32
280
     0
102
RTVSPost2010PropOp32
 70
     1
102
RTVSPost2010Prop33
280
     0
102
RTVSPost2010PropOp33
 70
     1
102
RTVSPost2010Prop34
280
     0
102
RTVSPost2010PropOp34
 70
     1
102
RTVSPost2010Prop35
280
     0
102
RTVSPost2010PropOp35
 70
     1
102
RTVSPost2010Prop36
280
     0
102
RTVSPost2010PropOp36
 70
     1
102
RTVSPost2010Prop37
 90
       50
102
RTVSPost2010PropOp37
 70
     1
102
RTVSPost2010Prop38
140
0.0
102
RTVSPost2010PropOp38
 70
     1
102
RTVSPost2010Prop39
140
1.0
102
RTVSPost2010PropOp39
 70
     1
102
RTVSPost2010Prop40
 90
        0
102
RTVSPost2010PropOp40
 70
     1
102
RTVSPost2010Prop41ColorIndex
 90
       18
102
RTVSPost2010Prop41ColorRGB
 90
        0
102
RTVSPost2010PropOp41
 70
     1
102
RTVSPost2010Prop42
 90
       50
102
RTVSPost2010PropOp42
 70
     1
102
RTVSPost2010Prop43
 90
        3
102
RTVSPost2010PropOp43
 70
     1
102
RTVSPost2010Prop44ColorIndex
 90
        5
102
RTVSPost2010Prop44ColorRGB
 90
      255
102
RTVSPost2010PropOp44
 70
     1
102
RTVSPost2010Prop45
280
     0
102
RTVSPost2010PropOp45
 70
     1
102
RTVSPost2010Prop46
 90
       50
102
RTVSPost2010PropOp46
 70
     1
102
RTVSPost2010Prop47
 90
       50
102
RTVSPost2010PropOp47
 70
     1
102
RTVSPost2010Prop48
 90
       50
102
RTVSPost2010PropOp48
 70
     1
102
RTVSPost2010Prop49
280
     0
102
RTVSPost2010PropOp49
 70
     1
102
RTVSPost2010Prop50
 90
       50
102
RTVSPost2010PropOp50
 70
     1
102
RTVSPost2010Prop51ColorIndex
 90
      256
102
RTVSPost2010Prop51ColorRGB
 90
-16777216
102
RTVSPost2010PropOp51
 70
     0
102
RTVSPost2010Prop52
140
1.0
102
RTVSPost2010PropOp52
 70
     0
102
RTVSPost2010Prop53
 90
        2
102
RTVSPost2010PropOp53
 70
     1
102
RTVSPost2010Prop54
  1
strokes_ogs.tif
102
RTVSPost2010PropOp54
 70
     1
102
RTVSPost2010Prop55
280
     0
102
RTVSPost2010PropOp55
 70
     1
102
RTVSPost2010Prop56
140
1.0
102
RTVSPost2010PropOp56
 70
     1
102
RTVSPost2010Prop57
140
1.0
102
RTVSPost2010PropOp57
 70
     1
  0
XRECORD
  5
27D
102
{ACAD_REACTORS
330
27C
102
}
330
27C
100
AcDbXrecord
280
     1
102
RTVSPropertyOp0
 70
     1
102
RTVSPropertyOp1
 70
     1
102
RTVSPropertyOp2
 70
     1
102
RTVSPropertyOp3
 70
     1
102
RTVSPropertyOp4
 70
     1
102
RTVSPropertyOp5
 70
     1
102
RTVSPropertyOp6
 70
     1
102
RTVSPropertyOp7
 70
     1
102
RTVSPropertyOp8
 70
     1
102
RTVSPropertyOp9
 70
     1
102
RTVSPropertyOp10
 70
     1
102
RTVSPropertyOp11
 70
     1
102
RTVSPropertyOp12
 70
     1
102
RTVSPropertyOp13
 70
     1
102
RTVSPropertyOp14
 70
     1
102
RTVSPropertyOp15
 70
     1
102
RTVSPropertyOp16
 70
     1
102
RTVSPropertyOp17
 70
     1
102
RTVSPropertyOp18
 70
     1
102
RTVSPropertyOp19
 70
     1
102
RTVSPropertyOp20
 70
     1
102
RTVSPropertyOp21
 70
     1
102
RTVSPropertyOp22
 70
     1
102
RTVSPropertyOp23
 70
     1
102
RTVSPropertyOp24
 70
     1
102
RTVSPropertyOp25
 70
     1
102
RTVSPropertyOp26
 70
     1
102
RTVSPropertyOp27
 70
     1
102
RTVSPropertyOp28
 70
     1
102
RTVSPropertyOp29
 70
     1
102
RTVSPropertyOp30
 70
     1
102
RTVSPropertyOp31
 70
     1
102
RTVSPropertyOp32
 70
     1
102
RTVSPropertyOp33
 70
     1
102
RTVSPropertyOp34
 70
     1
102
RTVSPropertyOp35
 70
     1
102
RTVSPropertyOp36
 70
     1
102
RTVSPropertyOp37
 70
     1
102
RTVSPropertyOp38
 70
     1
102
RTVSPropertyOp39
 70
     1
102
RTVSPropertyOp40
 70
     1
102
RTVSPropertyOp41
 70
     1
102
RTVSPropertyOp42
 70
     1
102
RTVSPropertyOp43
 70
     1
102
RTVSPropertyOp44
 70
     1
102
RTVSPropertyOp45
 70
     1
102
RTVSPropertyOp46
 70
     1
102
RTVSPropertyOp47
 70
     1
102
RTVSPropertyOp48
 70
     1
102
RTVSPropertyOp49
 70
     1
102
RTVSPropertyOp50
 70
     1
102
RTVSPropertyOp51
 70
     0
102
RTVSPropertyOp52
 70
     0
102
RTVSPropertyOp53
 70
     1
102
RTVSPropertyOp54
 70
     1
102
RTVSPropertyOp55
 70
     1
102
RTVSPropertyOp56
 70
     1
102
RTVSPropertyOp57
 70
     1
102
RTVSPost2010Prop28
280
     0
102
RTVSPost2010PropOp28
 70
     1
102
RTVSPost2010Prop29
280
     1
102
RTVSPost2010PropOp29
 70
     1
102
RTVSPost2010Prop30
280
     1
102
RTVSPost2010PropOp30
 70
     1
102
RTVSPost2010Prop31
280
     0
102
RTVSPost2010PropOp31
 70
     1
102
RTVSPost2010Prop32
280
     0
102
RTVSPost2010PropOp32
 70
     1
102
RTVSPost2010Prop33
280
     0
102
RTVSPost2010PropOp33
 70
     1
102
RTVSPost2010Prop34
280
     0
102
RTVSPost2010PropOp34
 70
     1
102
RTVSPost2010Prop35
280
     0
102
RTVSPost2010PropOp35
 70
     1
102
RTVSPost2010Prop36
280
     0
102
RTVSPost2010PropOp36
 70
     1
102
RTVSPost2010Prop37
 90
       50
102
RTVSPost2010PropOp37
 70
     1
102
RTVSPost2010Prop38
140
0.0
102
RTVSPost2010PropOp38
 70
     1
102
RTVSPost2010Prop39
140
1.0
102
RTVSPost2010PropOp39
 70
     1
102
RTVSPost2010Prop40
 90
        0
102
RTVSPost2010PropOp40
 70
     1
102
RTVSPost2010Prop41ColorIndex
 90
       18
102
RTVSPost2010Prop41ColorRGB
 90
        0
102
RTVSPost2010PropOp41
 70
     1
102
RTVSPost2010Prop42
 90
       50
102
RTVSPost2010PropOp42
 70
     1
102
RTVSPost2010Prop43
 90
        3
102
RTVSPost2010PropOp43
 70
     1
102
RTVSPost2010Prop44ColorIndex
 90
        5
102
RTVSPost2010Prop44ColorRGB
 90
      255
102
RTVSPost2010PropOp44
 70
     1
102
RTVSPost2010Prop45
280
     0
102
RTVSPost2010PropOp45
 70
     1
102
RTVSPost2010Prop46
 90
       50
102
RTVSPost2010PropOp46
 70
     1
102
RTVSPost2010Prop47
 90
       50
102
RTVSPost2010PropOp47
 70
     1
102
RTVSPost2010Prop48
 90
       50
102
RTVSPost2010PropOp48
 70
     1
102
RTVSPost2010Prop49
280
     0
102
RTVSPost2010PropOp49
 70
     1
102
RTVSPost2010Prop50
 90
       50
102
RTVSPost2010PropOp50
 70
     1
102
RTVSPost2010Prop51ColorIndex
 90
      256
102
RTVSPost2010Prop51ColorRGB
 90
-16777216
102
RTVSPost2010PropOp51
 70
     0
102
RTVSPost2010Prop52
140
1.0
102
RTVSPost2010PropOp52
 70
     0
102
RTVSPost2010Prop53
 90
        2
102
RTVSPost2010PropOp53
 70
     1
102
RTVSPost2010Prop54
  1
strokes_ogs.tif
102
RTVSPost2010PropOp54
 70
     1
102
RTVSPost2010Prop55
280
     0
102
RTVSPost2010PropOp55
 70
     1
102
RTVSPost2010Prop56
140
1.0
102
RTVSPost2010PropOp56
 70
     1
102
RTVSPost2010Prop57
140
1.0
102
RTVSPost2010PropOp57
 70
     1
  0
XRECORD
  5
26D
102
{ACAD_REACTORS
330
26C
102
}
330
26C
100
AcDbXrecord
280
     1
102
RTVSPropertyOp0
 70
     1
102
RTVSPropertyOp1
 70
     1
102
RTVSPropertyOp2
 70
     1
102
RTVSPropertyOp3
 70
     1
102
RTVSPropertyOp4
 70
     1
102
RTVSPropertyOp5
 70
     1
102
RTVSPropertyOp6
 70
     1
102
RTVSPropertyOp7
 70
     1
102
RTVSPropertyOp8
 70
     1
102
RTVSPropertyOp9
 70
     1
102
RTVSPropertyOp10
 70
     1
102
RTVSPropertyOp11
 70
     1
102
RTVSPropertyOp12
 70
     1
102
RTVSPropertyOp13
 70
     1
102
RTVSPropertyOp14
 70
     1
102
RTVSPropertyOp15
 70
     1
102
RTVSPropertyOp16
 70
     1
102
RTVSPropertyOp17
 70
     1
102
RTVSPropertyOp18
 70
     1
102
RTVSPropertyOp19
 70
     1
102
RTVSPropertyOp20
 70
     1
102
RTVSPropertyOp21
 70
     1
102
RTVSPropertyOp22
 70
     1
102
RTVSPropertyOp23
 70
     1
102
RTVSPropertyOp24
 70
     1
102
RTVSPropertyOp25
 70
     1
102
RTVSPropertyOp26
 70
     1
102
RTVSPropertyOp27
 70
     1
102
RTVSPropertyOp28
 70
     1
102
RTVSPropertyOp29
 70
     1
102
RTVSPropertyOp30
 70
     1
102
RTVSPropertyOp31
 70
     1
102
RTVSPropertyOp32
 70
     1
102
RTVSPropertyOp33
 70
     1
102
RTVSPropertyOp34
 70
     1
102
RTVSPropertyOp35
 70
     1
102
RTVSPropertyOp36
 70
     1
102
RTVSPropertyOp37
 70
     1
102
RTVSPropertyOp38
 70
     1
102
RTVSPropertyOp39
 70
     1
102
RTVSPropertyOp40
 70
     1
102
RTVSPropertyOp41
 70
     1
102
RTVSPropertyOp42
 70
     1
102
RTVSPropertyOp43
 70
     1
102
RTVSPropertyOp44
 70
     1
102
RTVSPropertyOp45
 70
     1
102
RTVSPropertyOp46
 70
     1
102
RTVSPropertyOp47
 70
     1
102
RTVSPropertyOp48
 70
     1
102
RTVSPropertyOp49
 70
     1
102
RTVSPropertyOp50
 70
     1
102
RTVSPropertyOp51
 70
     0
102
RTVSPropertyOp52
 70
     0
102
RTVSPropertyOp53
 70
     1
102
RTVSPropertyOp54
 70
     1
102
RTVSPropertyOp55
 70
     1
102
RTVSPropertyOp56
 70
     1
102
RTVSPropertyOp57
 70
     1
102
RTVSPost2010Prop28
280
     0
102
RTVSPost2010PropOp28
 70
     1
102
RTVSPost2010Prop29
280
     1
102
RTVSPost2010PropOp29
 70
     1
102
RTVSPost2010Prop30
280
     1
102
RTVSPost2010PropOp30
 70
     1
102
RTVSPost2010Prop31
280
     0
102
RTVSPost2010PropOp31
 70
     1
102
RTVSPost2010Prop32
280
     0
102
RTVSPost2010PropOp32
 70
     1
102
RTVSPost2010Prop33
280
     0
102
RTVSPost2010PropOp33
 70
     1
102
RTVSPost2010Prop34
280
     0
102
RTVSPost2010PropOp34
 70
     1
102
RTVSPost2010Prop35
280
     0
102
RTVSPost2010PropOp35
 70
     1
102
RTVSPost2010Prop36
280
     0
102
RTVSPost2010PropOp36
 70
     1
102
RTVSPost2010Prop37
 90
       50
102
RTVSPost2010PropOp37
 70
     1
102
RTVSPost2010Prop38
140
0.0
102
RTVSPost2010PropOp38
 70
     1
102
RTVSPost2010Prop39
140
1.0
102
RTVSPost2010PropOp39
 70
     1
102
RTVSPost2010Prop40
 90
        0
102
RTVSPost2010PropOp40
 70
     1
102
RTVSPost2010Prop41ColorIndex
 90
       18
102
RTVSPost2010Prop41ColorRGB
 90
        0
102
RTVSPost2010PropOp41
 70
     1
102
RTVSPost2010Prop42
 90
       50
102
RTVSPost2010PropOp42
 70
     1
102
RTVSPost2010Prop43
 90
        3
102
RTVSPost2010PropOp43
 70
     1
102
RTVSPost2010Prop44ColorIndex
 90
        5
102
RTVSPost2010Prop44ColorRGB
 90
      255
102
RTVSPost2010PropOp44
 70
     1
102
RTVSPost2010Prop45
280
     0
102
RTVSPost2010PropOp45
 70
     1
102
RTVSPost2010Prop46
 90
       50
102
RTVSPost2010PropOp46
 70
     1
102
RTVSPost2010Prop47
 90
       50
102
RTVSPost2010PropOp47
 70
     1
102
RTVSPost2010Prop48
 90
       50
102
RTVSPost2010PropOp48
 70
     1
102
RTVSPost2010Prop49
280
     0
102
RTVSPost2010PropOp49
 70
     1
102
RTVSPost2010Prop50
 90
       50
102
RTVSPost2010PropOp50
 70
     1
102
RTVSPost2010Prop51ColorIndex
 90
      256
102
RTVSPost2010Prop51ColorRGB
 90
-16777216
102
RTVSPost2010PropOp51
 70
     0
102
RTVSPost2010Prop52
140
1.0
102
RTVSPost2010PropOp52
 70
     0
102
RTVSPost2010Prop53
 90
        2
102
RTVSPost2010PropOp53
 70
     1
102
RTVSPost2010Prop54
  1
strokes_ogs.tif
102
RTVSPost2010PropOp54
 70
     1
102
RTVSPost2010Prop55
280
     0
102
RTVSPost2010PropOp55
 70
     1
102
RTVSPost2010Prop56
140
1.0
102
RTVSPost2010PropOp56
 70
     1
102
RTVSPost2010Prop57
140
1.0
102
RTVSPost2010PropOp57
 70
     1
  0
XRECORD
  5
25F
102
{ACAD_REACTORS
330
25E
102
}
330
25E
100
AcDbXrecord
280
     1
102
RTVSPropertyOp0
 70
     1
102
RTVSPropertyOp1
 70
     1
102
RTVSPropertyOp2
 70
     1
102
RTVSPropertyOp3
 70
     1
102
RTVSPropertyOp4
 70
     1
102
RTVSPropertyOp5
 70
     1
102
RTVSPropertyOp6
 70
     1
102
RTVSPropertyOp7
 70
     1
102
RTVSPropertyOp8
 70
     1
102
RTVSPropertyOp9
 70
     1
102
RTVSPropertyOp10
 70
     1
102
RTVSPropertyOp11
 70
     1
102
RTVSPropertyOp12
 70
     1
102
RTVSPropertyOp13
 70
     1
102
RTVSPropertyOp14
 70
     1
102
RTVSPropertyOp15
 70
     1
102
RTVSPropertyOp16
 70
     1
102
RTVSPropertyOp17
 70
     1
102
RTVSPropertyOp18
 70
     1
102
RTVSPropertyOp19
 70
     1
102
RTVSPropertyOp20
 70
     1
102
RTVSPropertyOp21
 70
     1
102
RTVSPropertyOp22
 70
     1
102
RTVSPropertyOp23
 70
     1
102
RTVSPropertyOp24
 70
     1
102
RTVSPropertyOp25
 70
     1
102
RTVSPropertyOp26
 70
     1
102
RTVSPropertyOp27
 70
     1
102
RTVSPropertyOp28
 70
     1
102
RTVSPropertyOp29
 70
     1
102
RTVSPropertyOp30
 70
     1
102
RTVSPropertyOp31
 70
     1
102
RTVSPropertyOp32
 70
     1
102
RTVSPropertyOp33
 70
     1
102
RTVSPropertyOp34
 70
     1
102
RTVSPropertyOp35
 70
     1
102
RTVSPropertyOp36
 70
     1
102
RTVSPropertyOp37
 70
     1
102
RTVSPropertyOp38
 70
     1
102
RTVSPropertyOp39
 70
     1
102
RTVSPropertyOp40
 70
     1
102
RTVSPropertyOp41
 70
     1
102
RTVSPropertyOp42
 70
     1
102
RTVSPropertyOp43
 70
     1
102
RTVSPropertyOp44
 70
     1
102
RTVSPropertyOp45
 70
     1
102
RTVSPropertyOp46
 70
     1
102
RTVSPropertyOp47
 70
     1
102
RTVSPropertyOp48
 70
     1
102
RTVSPropertyOp49
 70
     1
102
RTVSPropertyOp50
 70
     1
102
RTVSPropertyOp51
 70
     0
102
RTVSPropertyOp52
 70
     0
102
RTVSPropertyOp53
 70
     1
102
RTVSPropertyOp54
 70
     1
102
RTVSPropertyOp55
 70
     1
102
RTVSPropertyOp56
 70
     1
102
RTVSPropertyOp57
 70
     1
102
RTVSPost2010Prop28
280
     0
102
RTVSPost2010PropOp28
 70
     1
102
RTVSPost2010Prop29
280
     1
102
RTVSPost2010PropOp29
 70
     1
102
RTVSPost2010Prop30
280
     1
102
RTVSPost2010PropOp30
 70
     1
102
RTVSPost2010Prop31
280
     0
102
RTVSPost2010PropOp31
 70
     1
102
RTVSPost2010Prop32
280
     0
102
RTVSPost2010PropOp32
 70
     1
102
RTVSPost2010Prop33
280
     0
102
RTVSPost2010PropOp33
 70
     1
102
RTVSPost2010Prop34
280
     0
102
RTVSPost2010PropOp34
 70
     1
102
RTVSPost2010Prop35
280
     0
102
RTVSPost2010PropOp35
 70
     1
102
RTVSPost2010Prop36
280
     0
102
RTVSPost2010PropOp36
 70
     1
102
RTVSPost2010Prop37
 90
       50
102
RTVSPost2010PropOp37
 70
     1
102
RTVSPost2010Prop38
140
0.0
102
RTVSPost2010PropOp38
 70
     1
102
RTVSPost2010Prop39
140
1.0
102
RTVSPost2010PropOp39
 70
     1
102
RTVSPost2010Prop40
 90
        0
102
RTVSPost2010PropOp40
 70
     1
102
RTVSPost2010Prop41ColorIndex
 90
       18
102
RTVSPost2010Prop41ColorRGB
 90
        0
102
RTVSPost2010PropOp41
 70
     1
102
RTVSPost2010Prop42
 90
       50
102
RTVSPost2010PropOp42
 70
     1
102
RTVSPost2010Prop43
 90
        3
102
RTVSPost2010PropOp43
 70
     1
102
RTVSPost2010Prop44ColorIndex
 90
        5
102
RTVSPost2010Prop44ColorRGB
 90
      255
102
RTVSPost2010PropOp44
 70
     1
102
RTVSPost2010Prop45
280
     0
102
RTVSPost2010PropOp45
 70
     1
102
RTVSPost2010Prop46
 90
       50
102
RTVSPost2010PropOp46
 70
     1
102
RTVSPost2010Prop47
 90
       50
102
RTVSPost2010PropOp47
 70
     1
102
RTVSPost2010Prop48
 90
       50
102
RTVSPost2010PropOp48
 70
     1
102
RTVSPost2010Prop49
280
     0
102
RTVSPost2010PropOp49
 70
     1
102
RTVSPost2010Prop50
 90
       50
102
RTVSPost2010PropOp50
 70
     1
102
RTVSPost2010Prop51ColorIndex
 90
      256
102
RTVSPost2010Prop51ColorRGB
 90
-16777216
102
RTVSPost2010PropOp51
 70
     0
102
RTVSPost2010Prop52
140
1.0
102
RTVSPost2010PropOp52
 70
     0
102
RTVSPost2010Prop53
 90
        2
102
RTVSPost2010PropOp53
 70
     1
102
RTVSPost2010Prop54
  1
strokes_ogs.tif
102
RTVSPost2010PropOp54
 70
     1
102
RTVSPost2010Prop55
280
     0
102
RTVSPost2010PropOp55
 70
     1
102
RTVSPost2010Prop56
140
1.0
102
RTVSPost2010PropOp56
 70
     1
102
RTVSPost2010Prop57
140
1.0
102
RTVSPost2010PropOp57
 70
     1
  0
XRECORD
  5
27F
102
{ACAD_REACTORS
330
27E
102
}
330
27E
100
AcDbXrecord
280
     1
102
RTVSPropertyOp0
 70
     1
102
RTVSPropertyOp1
 70
     1
102
RTVSPropertyOp2
 70
     1
102
RTVSPropertyOp3
 70
     1
102
RTVSPropertyOp4
 70
     1
102
RTVSPropertyOp5
 70
     1
102
RTVSPropertyOp6
 70
     1
102
RTVSPropertyOp7
 70
     1
102
RTVSPropertyOp8
 70
     1
102
RTVSPropertyOp9
 70
     1
102
RTVSPropertyOp10
 70
     1
102
RTVSPropertyOp11
 70
     1
102
RTVSPropertyOp12
 70
     1
102
RTVSPropertyOp13
 70
     1
102
RTVSPropertyOp14
 70
     1
102
RTVSPropertyOp15
 70
     1
102
RTVSPropertyOp16
 70
     1
102
RTVSPropertyOp17
 70
     1
102
RTVSPropertyOp18
 70
     1
102
RTVSPropertyOp19
 70
     1
102
RTVSPropertyOp20
 70
     1
102
RTVSPropertyOp21
 70
     1
102
RTVSPropertyOp22
 70
     1
102
RTVSPropertyOp23
 70
     1
102
RTVSPropertyOp24
 70
     1
102
RTVSPropertyOp25
 70
     1
102
RTVSPropertyOp26
 70
     1
102
RTVSPropertyOp27
 70
     1
102
RTVSPropertyOp28
 70
     1
102
RTVSPropertyOp29
 70
     1
102
RTVSPropertyOp30
 70
     1
102
RTVSPropertyOp31
 70
     1
102
RTVSPropertyOp32
 70
     1
102
RTVSPropertyOp33
 70
     1
102
RTVSPropertyOp34
 70
     1
102
RTVSPropertyOp35
 70
     1
102
RTVSPropertyOp36
 70
     1
102
RTVSPropertyOp37
 70
     1
102
RTVSPropertyOp38
 70
     1
102
RTVSPropertyOp39
 70
     1
102
RTVSPropertyOp40
 70
     1
102
RTVSPropertyOp41
 70
     1
102
RTVSPropertyOp42
 70
     1
102
RTVSPropertyOp43
 70
     1
102
RTVSPropertyOp44
 70
     1
102
RTVSPropertyOp45
 70
     1
102
RTVSPropertyOp46
 70
     1
102
RTVSPropertyOp47
 70
     1
102
RTVSPropertyOp48
 70
     1
102
RTVSPropertyOp49
 70
     1
102
RTVSPropertyOp50
 70
     1
102
RTVSPropertyOp51
 70
     0
102
RTVSPropertyOp52
 70
     0
102
RTVSPropertyOp53
 70
     1
102
RTVSPropertyOp54
 70
     1
102
RTVSPropertyOp55
 70
     1
102
RTVSPropertyOp56
 70
     1
102
RTVSPropertyOp57
 70
     1
102
RTVSPost2010Prop28
280
     0
102
RTVSPost2010PropOp28
 70
     1
102
RTVSPost2010Prop29
280
     1
102
RTVSPost2010PropOp29
 70
     1
102
RTVSPost2010Prop30
280
     1
102
RTVSPost2010PropOp30
 70
     1
102
RTVSPost2010Prop31
280
     0
102
RTVSPost2010PropOp31
 70
     1
102
RTVSPost2010Prop32
280
     0
102
RTVSPost2010PropOp32
 70
     1
102
RTVSPost2010Prop33
280
     0
102
RTVSPost2010PropOp33
 70
     1
102
RTVSPost2010Prop34
280
     0
102
RTVSPost2010PropOp34
 70
     1
102
RTVSPost2010Prop35
280
     0
102
RTVSPost2010PropOp35
 70
     1
102
RTVSPost2010Prop36
280
     0
102
RTVSPost2010PropOp36
 70
     1
102
RTVSPost2010Prop37
 90
       50
102
RTVSPost2010PropOp37
 70
     1
102
RTVSPost2010Prop38
140
0.0
102
RTVSPost2010PropOp38
 70
     1
102
RTVSPost2010Prop39
140
1.0
102
RTVSPost2010PropOp39
 70
     1
102
RTVSPost2010Prop40
 90
        0
102
RTVSPost2010PropOp40
 70
     1
102
RTVSPost2010Prop41ColorIndex
 90
       18
102
RTVSPost2010Prop41ColorRGB
 90
        0
102
RTVSPost2010PropOp41
 70
     1
102
RTVSPost2010Prop42
 90
       50
102
RTVSPost2010PropOp42
 70
     1
102
RTVSPost2010Prop43
 90
        3
102
RTVSPost2010PropOp43
 70
     1
102
RTVSPost2010Prop44ColorIndex
 90
        5
102
RTVSPost2010Prop44ColorRGB
 90
      255
102
RTVSPost2010PropOp44
 70
     1
102
RTVSPost2010Prop45
280
     0
102
RTVSPost2010PropOp45
 70
     1
102
RTVSPost2010Prop46
 90
       50
102
RTVSPost2010PropOp46
 70
     1
102
RTVSPost2010Prop47
 90
       50
102
RTVSPost2010PropOp47
 70
     1
102
RTVSPost2010Prop48
 90
       50
102
RTVSPost2010PropOp48
 70
     1
102
RTVSPost2010Prop49
280
     0
102
RTVSPost2010PropOp49
 70
     1
102
RTVSPost2010Prop50
 90
       50
102
RTVSPost2010PropOp50
 70
     1
102
RTVSPost2010Prop51ColorIndex
 90
      256
102
RTVSPost2010Prop51ColorRGB
 90
-16777216
102
RTVSPost2010PropOp51
 70
     0
102
RTVSPost2010Prop52
140
1.0
102
RTVSPost2010PropOp52
 70
     0
102
RTVSPost2010Prop53
 90
        2
102
RTVSPost2010PropOp53
 70
     1
102
RTVSPost2010Prop54
  1
strokes_ogs.tif
102
RTVSPost2010PropOp54
 70
     1
102
RTVSPost2010Prop55
280
     0
102
RTVSPost2010PropOp55
 70
     1
102
RTVSPost2010Prop56
140
1.0
102
RTVSPost2010PropOp56
 70
     1
102
RTVSPost2010Prop57
140
1.0
102
RTVSPost2010PropOp57
 70
     1
  0
ENDSEC
  0
EOF
