  0
SECTION
  2
HEADER
  9
$ACADVER
  1
AC1015
  9
$ACADMAINTVER
 70
     6
  9
$DWGCODEPAGE
  3
ANSI_1252
  9
$INSBASE
 10
0.0
 20
0.0
 30
0.0
  9
$EXTMIN
 10
0.0
 20
0.0
 30
0.0
  9
$EXTMAX
 10
1682.0
 20
2378.0
 30
0.0
  9
$LIMMIN
 10
0.0
 20
0.0
  9
$LIMMAX
 10
1682.0
 20
2378.0
  9
$ORTHOMODE
 70
     0
  9
$REGENMODE
 70
     1
  9
$FILLMODE
 70
     1
  9
$QTEXTMODE
 70
     0
  9
$MIRRTEXT
 70
     1
  9
$LTSCALE
 40
1.0
  9
$ATTMODE
 70
     1
  9
$TEXTSIZE
 40
2.5
  9
$TRACEWID
 40
1.0
  9
$TEXTSTYLE
  7
Standard
  9
$CLAYER
  8
0
  9
$CELTYPE
  6
ByLayer
  9
$CECOLOR
 62
   256
  9
$CELTSCALE
 40
1.0
  9
$DISPSILH
 70
     0
  9
$DIMSCALE
 40
1.0
  9
$DIMASZ
 40
2.5
  9
$DIMEXO
 40
0.625
  9
$DIMDLI
 40
3.75
  9
$DIMRND
 40
0.0
  9
$DIMDLE
 40
0.0
  9
$DIMEXE
 40
1.25
  9
$DIMTP
 40
0.0
  9
$DIMTM
 40
0.0
  9
$DIMTXT
 40
2.5
  9
$DIMCEN
 40
2.5
  9
$DIMTSZ
 40
0.0
  9
$DIMTOL
 70
     0
  9
$DIMLIM
 70
     0
  9
$DIMTIH
 70
     0
  9
$DIMTOH
 70
     0
  9
$DIMSE1
 70
     0
  9
$DIMSE2
 70
     0
  9
$DIMTAD
 70
     1
  9
$DIMZIN
 70
     8
  9
$DIMBLK
  1

  9
$DIMASO
 70
     1
  9
$DIMSHO
 70
     1
  9
$DIMPOST
  1

  9
$DIMAPOST
  1

  9
$DIMALT
 70
     0
  9
$DIMALTD
 70
     3
  9
$DIMALTF
 40
0.0393700787
  9
$DIMLFAC
 40
1.0
  9
$DIMTOFL
 70
     1
  9
$DIMTVP
 40
0.0
  9
$DIMTIX
 70
     0
  9
$DIMSOXD
 70
     0
  9
$DIMSAH
 70
     0
  9
$DIMBLK1
  1

  9
$DIMBLK2
  1

  9
$DIMSTYLE
  2
ISO-25
  9
$DIMCLRD
 70
     0
  9
$DIMCLRE
 70
     0
  9
$DIMCLRT
 70
     0
  9
$DIMTFAC
 40
1.0
  9
$DIMGAP
 40
0.625
  9
$DIMJUST
 70
     0
  9
$DIMSD1
 70
     0
  9
$DIMSD2
 70
     0
  9
$DIMTOLJ
 70
     0
  9
$DIMTZIN
 70
     8
  9
$DIMALTZ
 70
     0
  9
$DIMALTTZ
 70
     0
  9
$DIMUPT
 70
     0
  9
$DIMDEC
 70
     2
  9
$DIMTDEC
 70
     2
  9
$DIMALTU
 70
     2
  9
$DIMALTTD
 70
     3
  9
$DIMTXSTY
  7
Standard
  9
$DIMAUNIT
 70
     0
  9
$DIMADEC
 70
     0
  9
$DIMALTRND
 40
0.0
  9
$DIMAZIN
 70
     0
  9
$DIMDSEP
 70
    44
  9
$DIMATFIT
 70
     3
  9
$DIMFRAC
 70
     0
  9
$DIMLDRBLK
  1

  9
$DIMLUNIT
 70
     2
  9
$DIMLWD
 70
    -2
  9
$DIMLWE
 70
    -2
  9
$DIMTMOVE
 70
     0
  9
$LUNITS
 70
     2
  9
$LUPREC
 70
     4
  9
$SKETCHINC
 40
1.0
  9
$FILLETRAD
 40
10.0
  9
$AUNITS
 70
     0
  9
$AUPREC
 70
     0
  9
$MENU
  1
.
  9
$ELEVATION
 40
0.0
  9
$PELEVATION
 40
0.0
  9
$THICKNESS
 40
0.0
  9
$LIMCHECK
 70
     0
  9
$CHAMFERA
 40
10.0
  9
$CHAMFERB
 40
10.0
  9
$CHAMFERC
 40
20.0
  9
$CHAMFERD
 40
0.0
  9
$SKPOLY
 70
     0
  9
$TDCREATE
 40
2455545.500157026
  9
$TDUCREATE
 40
2455545.458490359
  9
$TDUPDATE
 40
2455545.500157037
  9
$TDUUPDATE
 40
2455545.45849037
  9
$TDINDWG
 40
0.0000000116
  9
$TDUSRTIMER
 40
0.0000000116
  9
$USRTIMER
 70
     1
  9
$ANGBASE
 50
0.0
  9
$ANGDIR
 70
     0
  9
$PDMODE
 70
     0
  9
$PDSIZE
 40
0.0
  9
$PLINEWID
 40
0.0
  9
$SPLFRAME
 70
     0
  9
$SPLINETYPE
 70
     6
  9
$SPLINESEGS
 70
     8
  9
$HANDSEED
  5
181
  9
$SURFTAB1
 70
     6
  9
$SURFTAB2
 70
     6
  9
$SURFTYPE
 70
     6
  9
$SURFU
 70
     6
  9
$SURFV
 70
     6
  9
$UCSBASE
  2

  9
$UCSNAME
  2

  9
$UCSORG
 10
0.0
 20
0.0
 30
0.0
  9
$UCSXDIR
 10
1.0
 20
0.0
 30
0.0
  9
$UCSYDIR
 10
0.0
 20
1.0
 30
0.0
  9
$UCSORTHOREF
  2

  9
$UCSORTHOVIEW
 70
     0
  9
$UCSORGTOP
 10
0.0
 20
0.0
 30
0.0
  9
$UCSORGBOTTOM
 10
0.0
 20
0.0
 30
0.0
  9
$UCSORGLEFT
 10
0.0
 20
0.0
 30
0.0
  9
$UCSORGRIGHT
 10
0.0
 20
0.0
 30
0.0
  9
$UCSORGFRONT
 10
0.0
 20
0.0
 30
0.0
  9
$UCSORGBACK
 10
0.0
 20
0.0
 30
0.0
  9
$PUCSBASE
  2

  9
$PUCSNAME
  2

  9
$PUCSORG
 10
0.0
 20
0.0
 30
0.0
  9
$PUCSXDIR
 10
1.0
 20
0.0
 30
0.0
  9
$PUCSYDIR
 10
0.0
 20
1.0
 30
0.0
  9
$PUCSORTHOREF
  2

  9
$PUCSORTHOVIEW
 70
     0
  9
$PUCSORGTOP
 10
0.0
 20
0.0
 30
0.0
  9
$PUCSORGBOTTOM
 10
0.0
 20
0.0
 30
0.0
  9
$PUCSORGLEFT
 10
0.0
 20
0.0
 30
0.0
  9
$PUCSORGRIGHT
 10
0.0
 20
0.0
 30
0.0
  9
$PUCSORGFRONT
 10
0.0
 20
0.0
 30
0.0
  9
$PUCSORGBACK
 10
0.0
 20
0.0
 30
0.0
  9
$USERI1
 70
     0
  9
$USERI2
 70
     0
  9
$USERI3
 70
     0
  9
$USERI4
 70
     0
  9
$USERI5
 70
     0
  9
$USERR1
 40
0.0
  9
$USERR2
 40
0.0
  9
$USERR3
 40
0.0
  9
$USERR4
 40
0.0
  9
$USERR5
 40
0.0
  9
$WORLDVIEW
 70
     1
  9
$SHADEDGE
 70
     3
  9
$SHADEDIF
 70
    70
  9
$TILEMODE
 70
     1
  9
$MAXACTVP
 70
    64
  9
$PINSBASE
 10
0.0
 20
0.0
 30
0.0
  9
$PLIMCHECK
 70
     0
  9
$PEXTMIN
 10
0.0
 20
0.0
 30
0.0
  9
$PEXTMAX
 10
1682.0
 20
2378.0
 30
0.0
  9
$PLIMMIN
 10
0.0
 20
0.0
  9
$PLIMMAX
 10
1682.0
 20
2378.0
  9
$UNITMODE
 70
     0
  9
$VISRETAIN
 70
     1
  9
$PLINEGEN
 70
     0
  9
$PSLTSCALE
 70
     1
  9
$TREEDEPTH
 70
  3020
  9
$CMLSTYLE
  2
Standard
  9
$CMLJUST
 70
     0
  9
$CMLSCALE
 40
20.0
  9
$PROXYGRAPHICS
 70
     1
  9
$MEASUREMENT
 70
     1
  9
$CELWEIGHT
370
    -1
  9
$ENDCAPS
280
     0
  9
$JOINSTYLE
280
     0
  9
$LWDISPLAY
290
     0
  9
$INSUNITS
 70
     4
  9
$HYPERLINKBASE
  1

  9
$STYLESHEET
  1

  9
$XEDIT
290
     1
  9
$CEPSNTYPE
380
     0
  9
$PSTYLEMODE
290
     1
  9
$FINGERPRINTGUID
  2
{F5EA617A-A562-4CC6-AAF8-5BA68BBA54D9}
  9
$VERSIONGUID
  2
{FAEB1C32-E019-11D5-929B-00C0DF256EC4}
  9
$EXTNAMES
290
     1
  9
$PSVPSCALE
 40
0.0
  9
$OLESTARTUP
290
     0
  0
ENDSEC
  0
SECTION
  2
CLASSES
  0
CLASS
  1
ACDBDICTIONARYWDFLT
  2
AcDbDictionaryWithDefault
  3
ObjectDBX Classes
 90
        0
280
     0
281
     0
  0
CLASS
  1
VISUALSTYLE
  2
AcDbVisualStyle
  3
ObjectDBX Classes
 90
     4095
280
     0
281
     0
  0
CLASS
  1
SCALE
  2
AcDbScale
  3
ObjectDBX Classes
 90
     1153
280
     0
281
     0
  0
CLASS
  1
DICTIONARYVAR
  2
AcDbDictionaryVar
  3
ObjectDBX Classes
 90
        0
280
     0
281
     0
  0
CLASS
  1
ACDBPLACEHOLDER
  2
AcDbPlaceHolder
  3
ObjectDBX Classes
 90
        0
280
     0
281
     0
  0
CLASS
  1
LAYOUT
  2
AcDbLayout
  3
ObjectDBX Classes
 90
        0
280
     0
281
     0
  0
ENDSEC
  0
SECTION
  2
TABLES
  0
TABLE
  2
VPORT
  5
8
330
0
100
AcDbSymbolTable
 70
     1
  0
VPORT
  5
29
330
8
100
AcDbSymbolTableRecord
100
AcDbViewportTableRecord
  2
*Active
 70
     0
 10
0.0
 20
0.0
 11
1.0
 21
1.0
 12
344.1869158879
 22
148.5
 13
0.0
 23
0.0
 14
10.0
 24
10.0
 15
10.0
 25
10.0
 16
0.0
 26
0.0
 36
1.0
 17
0.0
 27
0.0
 37
0.0
 40
297.0
 41
1.9729729729
 42
50.0
 43
0.0
 44
0.0
 50
0.0
 51
0.0
 71
     0
 72
   100
 73
     1
 74
     3
 75
     0
 76
     0
 77
     0
 78
     0
281
     0
 65
     1
110
0.0
120
0.0
130
0.0
111
1.0
121
0.0
131
0.0
112
0.0
122
1.0
132
0.0
 79
     0
146
0.0
  0
ENDTAB
  0
TABLE
  2
LTYPE
  5
5
330
0
100
AcDbSymbolTable
 70
     2
  0
LTYPE
  5
14
330
5
100
AcDbSymbolTableRecord
100
AcDbLinetypeTableRecord
  2
ByBlock
 70
     0
  3

 72
    65
 73
     0
 40
0.0
  0
LTYPE
  5
15
330
5
100
AcDbSymbolTableRecord
100
AcDbLinetypeTableRecord
  2
ByLayer
 70
     0
  3

 72
    65
 73
     0
 40
0.0
  0
LTYPE
  5
16
330
5
100
AcDbSymbolTableRecord
100
AcDbLinetypeTableRecord
  2
Continuous
 70
     0
  3
Solid line
 72
    65
 73
     0
 40
0.0
  0
LTYPE
  5
60
330
5
100
AcDbSymbolTableRecord
100
AcDbLinetypeTableRecord
  2
CENTER2
 70
     0
  3
Center (.5x) ___ _ ___ _ ___ _ ___ _ ___ _ ___
 72
    65
 73
     4
 40
28.575
 49
19.05
 74
     4
 75
     0
340
0
 46
0.0
 50
0.0
 44
0.0
 45
0.0
 49
-3.175
 74
     4
 75
     0
340
0
 46
0.0
 50
0.0
 44
0.0
 45
0.0
 49
3.175
 74
     4
 75
     0
340
0
 46
0.0
 50
0.0
 44
0.0
 45
0.0
 49
-3.175
 74
     4
 75
     0
340
0
 46
0.0
 50
0.0
 44
0.0
 45
0.0
  0
ENDTAB
  0
TABLE
  2
LAYER
  5
2
330
0
100
AcDbSymbolTable
 70
     9
  0
LAYER
  5
10
330
2
100
AcDbSymbolTableRecord
100
AcDbLayerTableRecord
  2
0
 70
     0
 62
     7
  6
Continuous
370
    -3
390
F
  0
LAYER
  5
5D
330
2
100
AcDbSymbolTableRecord
100
AcDbLayerTableRecord
  2
Default
 70
     0
 62
     7
  6
Continuous
370
    -3
390
F
  0
LAYER
  5
77
330
2
100
AcDbSymbolTableRecord
100
AcDbLayerTableRecord
  2
14086500_ESC_-_A
 70
     0
 62
     7
  6
Continuous
370
    -3
390
F
  0
LAYER
  5
95
330
2
100
AcDbSymbolTableRecord
100
AcDbLayerTableRecord
  2
T14085010__SLEEV
 70
     0
 62
     7
  6
Continuous
370
    -3
390
F
  0
LAYER
  5
9A
330
2
100
AcDbSymbolTableRecord
100
AcDbLayerTableRecord
  2
14086800_TOWEL_R
 70
     0
 62
     7
  6
Continuous
370
    -3
390
F
  0
LAYER
  5
9D
330
2
100
AcDbSymbolTableRecord
100
AcDbLayerTableRecord
  2
12086000_CAP_-_P
 70
     0
 62
     7
  6
Continuous
370
    -3
390
F
  0
LAYER
  5
B1
330
2
100
AcDbSymbolTableRecord
100
AcDbLayerTableRecord
  2
T02083010_49437_
 70
     0
 62
     7
  6
Continuous
370
    -3
390
F
  0
LAYER
  5
C9
330
2
100
AcDbSymbolTableRecord
100
AcDbLayerTableRecord
  2
T14085080_201846
 70
     0
 62
     7
  6
Continuous
370
    -3
390
F
  0
LAYER
  5
168
330
2
100
AcDbSymbolTableRecord
100
AcDbLayerTableRecord
  2
T02083013__PLAST
 70
     0
 62
     7
  6
Continuous
370
    -3
390
F
  0
ENDTAB
  0
TABLE
  2
STYLE
  5
3
330
0
100
AcDbSymbolTable
 70
     2
  0
STYLE
  5
11
330
3
100
AcDbSymbolTableRecord
100
AcDbTextStyleTableRecord
  2
Standard
 70
     0
 40
0.0
 41
1.0
 50
0.0
 71
     0
 42
2.5
  3
txt
  4

  0
STYLE
  5
170
330
3
100
AcDbSymbolTableRecord
100
AcDbTextStyleTableRecord
  2
SEACAD_seiso_ttf
 70
     0
 40
0.0
 41
1.0
 50
0.0
 71
     0
 42
0.2
  3
seiso.ttf
  4

  0
ENDTAB
  0
TABLE
  2
VIEW
  5
6
330
0
100
AcDbSymbolTable
 70
     0
  0
ENDTAB
  0
TABLE
  2
UCS
  5
7
330
0
100
AcDbSymbolTable
 70
     0
  0
ENDTAB
  0
TABLE
  2
APPID
  5
9
330
0
100
AcDbSymbolTable
 70
     1
  0
APPID
  5
12
330
9
100
AcDbSymbolTableRecord
100
AcDbRegAppTableRecord
  2
ACAD
 70
     0
  0
ENDTAB
  0
TABLE
  2
DIMSTYLE
  5
A
330
0
100
AcDbSymbolTable
 70
     1
100
AcDbDimStyleTable
  0
DIMSTYLE
105
27
330
A
100
AcDbSymbolTableRecord
100
AcDbDimStyleTableRecord
  2
ISO-25
 70
     0
 41
2.5
 42
0.625
 43
3.75
 44
1.25
 73
     0
 74
     0
 77
     1
 78
     8
140
2.5
141
2.5
143
0.0393700787
147
0.625
171
     3
172
     1
271
     2
272
     2
274
     3
278
    44
283
     0
284
     8
340
11
  0
ENDTAB
  0
TABLE
  2
BLOCK_RECORD
  5
1
330
0
100
AcDbSymbolTable
 70
     7
  0
BLOCK_RECORD
  5
1F
330
1
100
AcDbSymbolTableRecord
100
AcDbBlockTableRecord
  2
*Model_Space
340
22
  0
BLOCK_RECORD
  5
1B
330
1
100
AcDbSymbolTableRecord
100
AcDbBlockTableRecord
  2
*Paper_Space
340
1E
  0
BLOCK_RECORD
  5
5E
330
1
100
AcDbSymbolTableRecord
100
AcDbBlockTableRecord
  2
SEANNOT_GROUP
340
0
102
{BLKREFS
331
5F
102
}
  0
BLOCK_RECORD
  5
65
330
1
100
AcDbSymbolTableRecord
100
AcDbBlockTableRecord
  2
SEANNOT_GROUP1
340
0
102
{BLKREFS
331
66
102
}
  0
BLOCK_RECORD
  5
6F
330
1
100
AcDbSymbolTableRecord
100
AcDbBlockTableRecord
  2
SEANNOT_GROUP2
340
0
102
{BLKREFS
331
70
102
}
  0
BLOCK_RECORD
  5
75
330
1
100
AcDbSymbolTableRecord
100
AcDbBlockTableRecord
  2
SE
340
0
102
{BLKREFS
331
76
102
}
  0
BLOCK_RECORD
  5
CF
330
1
100
AcDbSymbolTableRecord
100
AcDbBlockTableRecord
  2
SE1
340
0
102
{BLKREFS
331
D0
102
}
  0
BLOCK_RECORD
  5
122
330
1
100
AcDbSymbolTableRecord
100
AcDbBlockTableRecord
  2
SE2
340
0
102
{BLKREFS
331
123
102
}
  0
ENDTAB
  0
ENDSEC
  0
SECTION
  2
BLOCKS
  0
BLOCK
  5
20
330
1F
100
AcDbEntity
  8
0
100
AcDbBlockBegin
  2
*Model_Space
 70
     0
 10
0.0
 20
0.0
 30
0.0
  3
*Model_Space
  1

  0
ENDBLK
  5
21
330
1F
100
AcDbEntity
  8
0
100
AcDbBlockEnd
  0
BLOCK
  5
1C
330
1B
100
AcDbEntity
 67
     1
  8
0
100
AcDbBlockBegin
  2
*Paper_Space
 70
     0
 10
0.0
 20
0.0
 30
0.0
  3
*Paper_Space
  1

  0
ENDBLK
  5
1D
330
1B
100
AcDbEntity
 67
     1
  8
0
100
AcDbBlockEnd
  0
BLOCK
  5
63
330
5E
100
AcDbEntity
  8
0
100
AcDbBlockBegin
  2
SEANNOT_GROUP
 70
     0
 10
0.0
 20
0.0
 30
0.0
  3
SEANNOT_GROUP
  1

  0
LINE
  5
61
330
5E
100
AcDbEntity
  8
Default
  6
CENTER2
 62
     7
100
AcDbLine
 10
226.0658022643
 20
103.5629531753
 30
0.0
 11
186.0658031584
 21
103.5629531753
 31
0.0
  0
LINE
  5
62
330
5E
100
AcDbEntity
  8
Default
  6
CENTER2
 62
     7
100
AcDbLine
 10
206.0658027113
 20
123.5629527283
 30
0.0
 11
206.0658027113
 21
83.5629536224
 31
0.0
  0
ENDBLK
  5
64
330
5E
100
AcDbEntity
  8
0
100
AcDbBlockEnd
  0
BLOCK
  5
6D
330
65
100
AcDbEntity
  8
0
100
AcDbBlockBegin
  2
SEANNOT_GROUP1
 70
     0
 10
0.0
 20
0.0
 30
0.0
  3
SEANNOT_GROUP1
  1

  0
LINE
  5
67
330
65
100
AcDbEntity
  8
Default
  6
CENTER2
 62
     7
100
AcDbLine
 10
226.0658022643
 20
354.5305278498
 30
0.0
 11
186.0658031584
 21
354.5305278498
 31
0.0
  0
LINE
  5
68
330
65
100
AcDbEntity
  8
Default
  6
CENTER2
 62
     7
100
AcDbLine
 10
206.0658027113
 20
374.5305274028
 30
0.0
 11
206.0658027113
 21
334.5305282969
 31
0.0
  0
LINE
  5
69
330
65
100
AcDbEntity
  8
Default
  6
CENTER2
 62
     7
100
AcDbLine
 10
231.0658021525
 20
354.5305278498
 30
0.0
 11
218.2569990148
 21
354.5305278498
 31
0.0
  0
LINE
  5
6A
330
65
100
AcDbEntity
  8
Default
  6
CENTER2
 62
     7
100
AcDbLine
 10
206.0658027113
 20
379.530527291
 30
0.0
 11
206.0658027113
 21
366.7217241533
 31
0.0
  0
LINE
  5
6B
330
65
100
AcDbEntity
  8
Default
  6
CENTER2
 62
     7
100
AcDbLine
 10
181.0658032701
 20
354.5305278498
 30
0.0
 11
193.8746064078
 21
354.5305278498
 31
0.0
  0
LINE
  5
6C
330
65
100
AcDbEntity
  8
Default
  6
CENTER2
 62
     7
100
AcDbLine
 10
206.0658027113
 20
329.5305284086
 30
0.0
 11
206.0658027113
 21
342.3393315463
 31
0.0
  0
ENDBLK
  5
6E
330
65
100
AcDbEntity
  8
0
100
AcDbBlockEnd
  0
BLOCK
  5
73
330
6F
100
AcDbEntity
  8
0
100
AcDbBlockBegin
  2
SEANNOT_GROUP2
 70
     0
 10
0.0
 20
0.0
 30
0.0
  3
SEANNOT_GROUP2
  1

  0
LINE
  5
71
330
6F
100
AcDbEntity
  8
Default
  6
CENTER2
 62
     7
100
AcDbLine
 10
357.7805331231
 20
354.5305278498
 30
0.0
 11
317.7805340172
 21
354.5305278498
 31
0.0
  0
LINE
  5
72
330
6F
100
AcDbEntity
  8
Default
  6
CENTER2
 62
     7
100
AcDbLine
 10
337.7805335702
 20
374.5305274028
 30
0.0
 11
337.7805335702
 21
334.5305282969
 31
0.0
  0
ENDBLK
  5
74
330
6F
100
AcDbEntity
  8
0
100
AcDbBlockEnd
  0
BLOCK
  5
CD
330
75
100
AcDbEntity
  8
0
100
AcDbBlockBegin
  2
SE
 70
     0
 10
0.0
 20
0.0
 30
0.0
  3
SE
  1

  0
ELLIPSE
  5
78
330
75
100
AcDbEntity
  8
14086500_ESC_-_A
  6
Continuous
 62
     7
100
AcDbEllipse
 10
187.7216103694
 20
359.4458393737
 30
0.0
 11
0.1294095225195212
 21
0.4829629131531069
 31
0.0
210
0.0
220
0.0
230
1.0
 40
0.7775023777
 41
1.365403045188129
 42
1.776189608299312
  0
ARC
  5
79
330
75
100
AcDbEntity
  8
14086500_ESC_-_A
  6
Continuous
 62
     7
100
AcDbCircle
 10
206.0658027113
 20
347.5582833834
 30
0.0
 40
31.28504995552584
100
AcDbArc
 50
78.3067071412
 51
101.6932928588
  0
LINE
  5
7A
330
75
100
AcDbEntity
  8
14086500_ESC_-_A
  6
Continuous
 62
     7
100
AcDbLine
 10
212.4755091418
 20
378.0578725331
 30
0.0
 11
211.1781169235
 21
373.2159388573
 31
0.0
  0
ARC
  5
7B
330
75
100
AcDbEntity
  8
14086500_ESC_-_A
  6
Continuous
 62
     7
100
AcDbCircle
 10
202.6124987783
 20
348.5492299839
 30
0.0
 40
31.22077837549203
100
AcDbArc
 50
48.282294196
 51
71.717705804
  0
LINE
  5
7C
330
75
100
AcDbEntity
  8
14086500_ESC_-_A
  6
Continuous
 62
     7
100
AcDbLine
 10
199.8530989693
 20
378.1106592443
 30
0.0
 11
201.1504911875
 21
373.2687255685
 31
0.0
  0
ARC
  5
7D
330
75
100
AcDbEntity
  8
14086500_ESC_-_A
  6
Continuous
 62
     7
100
AcDbCircle
 10
209.5189167497
 20
348.549558891
 30
0.0
 40
31.2204065011485
100
AcDbArc
 50
108.2821526443
 51
131.7178473557
  0
LINE
  5
7E
330
75
100
AcDbEntity
  8
14086500_ESC_-_A
  6
Continuous
 62
     7
100
AcDbLine
 10
223.3804436525
 20
371.7009528139
 30
0.0
 11
219.8359021948
 21
368.1564113562
 31
0.0
  0
ARC
  5
7F
330
75
100
AcDbEntity
  8
14086500_ESC_-_A
  6
Continuous
 62
     7
100
AcDbCircle
 10
200.0848268032
 20
351.0774097992
 30
0.0
 40
31.22041435834428
100
AcDbArc
 50
18.2821556352
 51
41.7178443648
  0
LINE
  5
80
330
75
100
AcDbEntity
  8
14086500_ESC_-_A
  6
Continuous
 62
     7
100
AcDbLine
 10
188.8953777473
 20
371.845168791
 30
0.0
 11
192.4399192049
 21
368.3006273334
 31
0.0
  0
ARC
  5
81
330
75
100
AcDbEntity
  8
14086500_ESC_-_A
  6
Continuous
 62
     7
100
AcDbCircle
 10
212.0471005772
 20
351.0772239168
 30
0.0
 40
31.22077837549184
100
AcDbArc
 50
138.282294196
 51
161.717705804
  0
LINE
  5
82
330
75
100
AcDbEntity
  8
14086500_ESC_-_A
  6
Continuous
 62
     7
100
AcDbLine
 10
229.6459341058
 20
360.7432315919
 30
0.0
 11
224.80400043
 21
359.4458393736
 31
0.0
  0
ARC
  5
83
330
75
100
AcDbEntity
  8
14086500_ESC_-_A
  6
Continuous
 62
     7
100
AcDbCircle
 10
199.1542356608
 20
354.5305278498
 30
0.0
 40
31.22563422740753
100
AcDbArc
 50
4.1954432567
 51
11.7158577701
  0
ARC
  5
84
330
75
100
AcDbEntity
  8
14086500_ESC_-_A
  6
Continuous
 62
     7
100
AcDbCircle
 10
212.9773697618
 20
354.5305278498
 30
0.0
 40
31.22563422736004
100
AcDbArc
 50
168.2841422299
 51
176.2957726796
  0
ARC
  5
85
330
75
100
AcDbEntity
  8
14086500_ESC_-_A
  6
Continuous
 62
     7
100
AcDbCircle
 10
200.0848121899
 20
357.9836543374
 30
0.0
 40
31.22043088060379
100
AcDbArc
 50
318.2821619243
 51
339.0663856607
  0
ARC
  5
86
330
75
100
AcDbEntity
  8
14086500_ESC_-_A
  6
Continuous
 62
     7
100
AcDbCircle
 10
212.047446618
 20
357.9840315696
 30
0.0
 40
31.22116962201114
100
AcDbArc
 50
201.5334804236
 51
221.7175568821
  0
LINE
  5
87
330
75
100
AcDbEntity
  8
14086500_ESC_-_A
  6
Continuous
 62
     7
100
AcDbLine
 10
223.2362276754
 20
337.2158869086
 30
0.0
 11
219.6916862177
 21
340.7604283664
 31
0.0
  0
ARC
  5
88
330
75
100
AcDbEntity
  8
14086500_ESC_-_A
  6
Continuous
 62
     7
100
AcDbCircle
 10
202.6124987783
 20
360.5118257158
 30
0.0
 40
31.22077837554716
100
AcDbArc
 50
288.282294196
 51
311.717705804
  0
ARC
  5
89
330
75
100
AcDbEntity
  8
14086500_ESC_-_A
  6
Continuous
 62
     7
100
AcDbCircle
 10
209.5189291989
 20
360.5115183713
 30
0.0
 40
31.22043088063817
100
AcDbArc
 50
228.2821619243
 51
251.7178380757
  0
LINE
  5
8A
330
75
100
AcDbEntity
  8
14086500_ESC_-_A
  6
Continuous
 62
     7
100
AcDbLine
 10
192.4399192048
 20
340.7604283662
 30
0.0
 11
188.8953777477
 21
337.2158869082
 31
0.0
  0
ARC
  5
8B
330
75
100
AcDbEntity
  8
14086500_ESC_-_A
  6
Continuous
 62
     7
100
AcDbCircle
 10
206.0658027113
 20
361.4420949003
 30
0.0
 40
31.22563422735761
100
AcDbArc
 50
258.2841422299
 51
281.7158577701
  0
ARC
  5
8C
330
75
100
AcDbEntity
  8
14086500_ESC_-_A
  6
Continuous
 62
     7
100
AcDbCircle
 10
212.2785064534
 20
331.3444018321
 30
0.0
 40
0.4999999999999793
100
AcDbArc
 50
282.5592224063
 51
287.4407776096
  0
ARC
  5
8D
330
75
100
AcDbEntity
  8
14086500_ESC_-_A
  6
Continuous
 62
     7
100
AcDbCircle
 10
189.0923804356
 20
337.5571055742
 30
0.0
 40
0.4999999999988411
100
AcDbArc
 50
222.5592224094
 51
227.4407776132
  0
ARC
  5
8E
330
75
100
AcDbEntity
  8
14086500_ESC_-_A
  6
Continuous
 62
     7
100
AcDbCircle
 10
223.039224987
 20
337.5571055742
 30
0.0
 40
0.5000000000000024
100
AcDbArc
 50
312.5592224063
 51
317.4407776096
  0
ARC
  5
8F
330
75
100
AcDbEntity
  8
14086500_ESC_-_A
  6
Continuous
 62
     7
100
AcDbCircle
 10
182.8796766936
 20
360.7432315919
 30
0.0
 40
0.4999999999999991
100
AcDbArc
 50
162.5592224065
 51
167.4407776098
  0
ARC
  5
90
330
75
100
AcDbEntity
  8
14086500_ESC_-_A
  6
Continuous
 62
     7
100
AcDbCircle
 10
229.251928729
 20
360.7432315919
 30
0.0
 40
0.499999999999977
100
AcDbArc
 50
12.5592224063
 51
17.4407776096
  0
ARC
  5
91
330
75
100
AcDbEntity
  8
14086500_ESC_-_A
  6
Continuous
 62
     7
100
AcDbCircle
 10
189.0923804357
 20
371.5039501255
 30
0.0
 40
0.500000000000002
100
AcDbArc
 50
132.5592224065
 51
137.4407776098
  0
ARC
  5
92
330
75
100
AcDbEntity
  8
14086500_ESC_-_A
  6
Continuous
 62
     7
100
AcDbCircle
 10
223.039224987
 20
371.5039501255
 30
0.0
 40
0.5000000000000071
100
AcDbArc
 50
42.5592224063
 51
47.4407776096
  0
ARC
  5
93
330
75
100
AcDbEntity
  8
14086500_ESC_-_A
  6
Continuous
 62
     7
100
AcDbCircle
 10
199.8530989693
 20
377.7166538675
 30
0.0
 40
0.4999999999999967
100
AcDbArc
 50
102.5592224065
 51
107.4407776098
  0
ARC
  5
94
330
75
100
AcDbEntity
  8
14086500_ESC_-_A
  6
Continuous
 62
     7
100
AcDbCircle
 10
212.2785064534
 20
377.7166538675
 30
0.0
 40
0.5000000000000073
100
AcDbArc
 50
72.5592224063
 51
77.4407776096
  0
ARC
  5
96
330
75
100
AcDbEntity
  8
T14085010__SLEEV
  6
Continuous
 62
     7
100
AcDbCircle
 10
206.0658027113
 20
354.5305278498
 30
0.0
 40
17.94999999999999
100
AcDbArc
 50
12.0262315997
 51
168.5754001103
  0
ARC
  5
97
330
75
100
AcDbEntity
  8
T14085010__SLEEV
  6
Continuous
 62
     7
100
AcDbCircle
 10
206.0658027113
 20
354.5305278498
 30
0.0
 40
17.94999999999999
100
AcDbArc
 50
201.0993341075
 51
339.5022976025
  0
ARC
  5
98
330
75
100
AcDbEntity
  8
T14085010__SLEEV
  6
Continuous
 62
     7
100
AcDbCircle
 10
206.0658027113
 20
354.5305278498
 30
0.0
 40
18.01446922828351
100
AcDbArc
 50
11.9439604105
 51
168.6576712995
  0
ARC
  5
99
330
75
100
AcDbEntity
  8
T14085010__SLEEV
  6
Continuous
 62
     7
100
AcDbCircle
 10
206.0658027113
 20
354.5305278498
 30
0.0
 40
18.01446922828351
100
AcDbArc
 50
201.0630622055
 51
339.5385695046
  0
CIRCLE
  5
9B
330
75
100
AcDbEntity
  8
14086800_TOWEL_R
  6
Continuous
 62
     7
100
AcDbCircle
 10
206.0658027113
 20
354.5305278498
 30
0.0
 40
8.75
  0
CIRCLE
  5
9C
330
75
100
AcDbEntity
  8
14086800_TOWEL_R
  6
Continuous
 62
     7
100
AcDbCircle
 10
206.0658027113
 20
354.5305278498
 30
0.0
 40
13.83514646558062
  0
LINE
  5
9E
330
75
100
AcDbEntity
  8
12086000_CAP_-_P
  6
Continuous
 62
     7
100
AcDbLine
 10
206.0658027113
 20
349.4670454585
 30
0.0
 11
206.0658027113
 21
346.2438823339
 31
0.0
  0
LINE
  5
9F
330
75
100
AcDbEntity
  8
12086000_CAP_-_P
  6
Continuous
 62
     7
100
AcDbLine
 10
206.0658027113
 20
359.4333343321
 30
0.0
 11
206.0658027113
 21
359.5940102411
 31
0.0
  0
LINE
  5
A0
330
75
100
AcDbEntity
  8
12086000_CAP_-_P
  6
Continuous
 62
     7
100
AcDbLine
 10
210.3117576748
 20
356.981931091
 30
0.0
 11
210.4509070938
 21
357.0622690455
 31
0.0
  0
LINE
  5
A1
330
75
100
AcDbEntity
  8
12086000_CAP_-_P
  6
Continuous
 62
     7
100
AcDbLine
 10
210.3117576748
 20
352.0791246087
 30
0.0
 11
210.4509070938
 21
351.9987866542
 31
0.0
  0
LINE
  5
A2
330
75
100
AcDbEntity
  8
12086000_CAP_-_P
  6
Continuous
 62
     7
100
AcDbLine
 10
206.0658027113
 20
349.6277213676
 30
0.0
 11
206.0658027113
 21
349.4670454585
 31
0.0
  0
LINE
  5
A3
330
75
100
AcDbEntity
  8
12086000_CAP_-_P
  6
Continuous
 62
     7
100
AcDbLine
 10
201.8198477479
 20
352.0791246087
 30
0.0
 11
201.6806983288
 21
351.9987866542
 31
0.0
  0
LINE
  5
A4
330
75
100
AcDbEntity
  8
12086000_CAP_-_P
  6
Continuous
 62
     7
100
AcDbLine
 10
201.8198477479
 20
356.981931091
 30
0.0
 11
201.6806983288
 21
357.0622690455
 31
0.0
  0
LINE
  5
A5
330
75
100
AcDbEntity
  8
12086000_CAP_-_P
  6
Continuous
 62
     7
100
AcDbLine
 10
213.2422482402
 20
350.3872050919
 30
0.0
 11
210.4509070938
 21
351.9987866542
 31
0.0
  0
LINE
  5
A6
330
75
100
AcDbEntity
  8
12086000_CAP_-_P
  6
Continuous
 62
     7
100
AcDbLine
 10
213.2422482402
 20
358.6738506078
 30
0.0
 11
210.4509070938
 21
357.0622690455
 31
0.0
  0
LINE
  5
A7
330
75
100
AcDbEntity
  8
12086000_CAP_-_P
  6
Continuous
 62
     7
100
AcDbLine
 10
206.0658027113
 20
362.8171733657
 30
0.0
 11
206.0658027113
 21
359.5940102411
 31
0.0
  0
LINE
  5
A8
330
75
100
AcDbEntity
  8
12086000_CAP_-_P
  6
Continuous
 62
     7
100
AcDbLine
 10
198.8893571824
 20
350.3872050919
 30
0.0
 11
201.6806983288
 21
351.9987866542
 31
0.0
  0
LINE
  5
A9
330
75
100
AcDbEntity
  8
12086000_CAP_-_P
  6
Continuous
 62
     7
100
AcDbLine
 10
198.8893571824
 20
358.6738506078
 30
0.0
 11
201.6806983288
 21
357.0622690455
 31
0.0
  0
LINE
  5
AA
330
75
100
AcDbEntity
  8
12086000_CAP_-_P
  6
Continuous
 62
     7
100
AcDbLine
 10
198.8893571824
 20
350.3872050919
 30
0.0
 11
198.5603616564
 21
350.1972594364
 31
0.0
  0
LINE
  5
AB
330
75
100
AcDbEntity
  8
12086000_CAP_-_P
  6
Continuous
 62
     7
100
AcDbLine
 10
198.5603616564
 20
358.8637962633
 30
0.0
 11
198.8893571824
 21
358.6738506078
 31
0.0
  0
LINE
  5
AC
330
75
100
AcDbEntity
  8
12086000_CAP_-_P
  6
Continuous
 62
     7
100
AcDbLine
 10
206.0658027113
 20
346.2438823339
 30
0.0
 11
206.0658027113
 21
345.8639910229
 31
0.0
  0
LINE
  5
AD
330
75
100
AcDbEntity
  8
12086000_CAP_-_P
  6
Continuous
 62
     7
100
AcDbLine
 10
206.0658027113
 20
363.1970646767
 30
0.0
 11
206.0658027113
 21
362.8171733657
 31
0.0
  0
LINE
  5
AE
330
75
100
AcDbEntity
  8
12086000_CAP_-_P
  6
Continuous
 62
     7
100
AcDbLine
 10
213.2422482402
 20
350.3872050919
 30
0.0
 11
213.5712437662
 21
350.1972594364
 31
0.0
  0
LINE
  5
AF
330
75
100
AcDbEntity
  8
12086000_CAP_-_P
  6
Continuous
 62
     7
100
AcDbLine
 10
213.5712437662
 20
358.8637962633
 30
0.0
 11
213.2422482402
 21
358.6738506078
 31
0.0
  0
CIRCLE
  5
B0
330
75
100
AcDbEntity
  8
12086000_CAP_-_P
  6
Continuous
 62
     7
100
AcDbCircle
 10
206.0658027113
 20
354.5305278498
 30
0.0
 40
8.691196303513935
  0
LINE
  5
B2
330
75
100
AcDbEntity
  8
T02083010_49437_
  6
Continuous
 62
     7
100
AcDbLine
 10
191.8675111941
 20
385.242896405
 30
0.0
 11
197.6459192794
 21
385.242896405
 31
0.0
  0
ARC
  5
B3
330
75
100
AcDbEntity
  8
T02083010_49437_
  6
Continuous
 62
     7
100
AcDbCircle
 10
194.7567152368
 20
385.242896405
 30
0.0
 40
2.889204042638727
100
AcDbArc
 50
0.0
 51
180.0
  0
LINE
  5
B4
330
75
100
AcDbEntity
  8
T02083010_49437_
  6
Continuous
 62
     7
100
AcDbLine
 10
197.6459192794
 20
384.342896405
 30
0.0
 11
198.3567152368
 21
384.342896405
 31
0.0
  0
LINE
  5
B5
330
75
100
AcDbEntity
  8
T02083010_49437_
  6
Continuous
 62
     7
100
AcDbLine
 10
191.1567152368
 20
384.342896405
 30
0.0
 11
191.8675111941
 21
384.342896405
 31
0.0
  0
LINE
  5
B6
330
75
100
AcDbEntity
  8
T02083010_49437_
  6
Continuous
 62
     7
100
AcDbLine
 10
191.8675111941
 20
385.242896405
 30
0.0
 11
191.8675111941
 21
384.342896405
 31
0.0
  0
LINE
  5
B7
330
75
100
AcDbEntity
  8
T02083010_49437_
  6
Continuous
 62
     7
100
AcDbLine
 10
197.6459192794
 20
384.342896405
 30
0.0
 11
197.6459192794
 21
385.242896405
 31
0.0
  0
LINE
  5
B8
330
75
100
AcDbEntity
  8
T02083010_49437_
  6
Continuous
 62
     7
100
AcDbLine
 10
191.1567152368
 20
373.7845229371
 30
0.0
 11
191.1567152368
 21
384.342896405
 31
0.0
  0
LINE
  5
B9
330
75
100
AcDbEntity
  8
T02083010_49437_
  6
Continuous
 62
     7
100
AcDbLine
 10
198.3567152368
 20
377.6975987902
 30
0.0
 11
198.3567152368
 21
384.342896405
 31
0.0
  0
LINE
  5
BA
330
75
100
AcDbEntity
  8
T02083010_49437_
  6
Continuous
 62
     7
100
AcDbLine
 10
214.5573767733
 20
385.242896405
 30
0.0
 11
220.3357848586
 21
385.242896405
 31
0.0
  0
ARC
  5
BB
330
75
100
AcDbEntity
  8
T02083010_49437_
  6
Continuous
 62
     7
100
AcDbCircle
 10
217.4465808159
 20
385.242896405
 30
0.0
 40
2.889204042638727
100
AcDbArc
 50
0.0
 51
180.0
  0
LINE
  5
BC
330
75
100
AcDbEntity
  8
T02083010_49437_
  6
Continuous
 62
     7
100
AcDbLine
 10
220.3357848586
 20
384.342896405
 30
0.0
 11
221.0465808159
 21
384.342896405
 31
0.0
  0
LINE
  5
BD
330
75
100
AcDbEntity
  8
T02083010_49437_
  6
Continuous
 62
     7
100
AcDbLine
 10
213.8465808159
 20
384.342896405
 30
0.0
 11
214.5573767733
 21
384.342896405
 31
0.0
  0
LINE
  5
BE
330
75
100
AcDbEntity
  8
T02083010_49437_
  6
Continuous
 62
     7
100
AcDbLine
 10
214.5573767733
 20
385.242896405
 30
0.0
 11
214.5573767733
 21
384.342896405
 31
0.0
  0
LINE
  5
BF
330
75
100
AcDbEntity
  8
T02083010_49437_
  6
Continuous
 62
     7
100
AcDbLine
 10
220.3357848586
 20
384.342896405
 30
0.0
 11
220.3357848586
 21
385.242896405
 31
0.0
  0
LINE
  5
C0
330
75
100
AcDbEntity
  8
T02083010_49437_
  6
Continuous
 62
     7
100
AcDbLine
 10
213.8465808159
 20
377.6715780449
 30
0.0
 11
213.8465808159
 21
384.342896405
 31
0.0
  0
LINE
  5
C1
330
75
100
AcDbEntity
  8
T02083010_49437_
  6
Continuous
 62
     7
100
AcDbLine
 10
221.0465808159
 20
373.7329109718
 30
0.0
 11
221.0465808159
 21
384.342896405
 31
0.0
  0
LINE
  5
C2
330
75
100
AcDbEntity
  8
T02083010_49437_
  6
Continuous
 62
     7
100
AcDbLine
 10
209.7016480264
 20
318.292896405
 30
0.0
 11
209.7016480264
 21
330.4369109441
 31
0.0
  0
LINE
  5
C3
330
75
100
AcDbEntity
  8
T02083010_49437_
  6
Continuous
 62
     7
100
AcDbLine
 10
202.5016480264
 20
318.292896405
 30
0.0
 11
202.5016480264
 21
330.4297223103
 31
0.0
  0
ARC
  5
C4
330
75
100
AcDbEntity
  8
T02083010_49437_
  6
Continuous
 62
     7
100
AcDbCircle
 10
206.1016480264
 20
317.392896405
 30
0.0
 40
2.889204042638731
100
AcDbArc
 50
180.0
 51
0.0
  0
LINE
  5
C5
330
75
100
AcDbEntity
  8
T02083010_49437_
  6
Continuous
 62
     7
100
AcDbLine
 10
208.990852069
 20
318.292896405
 30
0.0
 11
209.7016480264
 21
318.292896405
 31
0.0
  0
LINE
  5
C6
330
75
100
AcDbEntity
  8
T02083010_49437_
  6
Continuous
 62
     7
100
AcDbLine
 10
202.5016480264
 20
318.292896405
 30
0.0
 11
203.2124439837
 21
318.292896405
 31
0.0
  0
LINE
  5
C7
330
75
100
AcDbEntity
  8
T02083010_49437_
  6
Continuous
 62
     7
100
AcDbLine
 10
203.2124439837
 20
317.392896405
 30
0.0
 11
203.2124439837
 21
318.292896405
 31
0.0
  0
LINE
  5
C8
330
75
100
AcDbEntity
  8
T02083010_49437_
  6
Continuous
 62
     7
100
AcDbLine
 10
208.990852069
 20
318.292896405
 30
0.0
 11
208.990852069
 21
317.392896405
 31
0.0
  0
ARC
  5
CA
330
75
100
AcDbEntity
  8
T14085080_201846
  6
Continuous
 62
     7
100
AcDbCircle
 10
206.5634987347
 20
259.736257091
 30
0.0
 40
90.00000000000001
100
AcDbArc
 50
98.357455234
 51
82.244176476
  0
ARC
  5
CB
330
75
100
AcDbEntity
  8
T14085080_201846
  6
Continuous
 62
     7
100
AcDbCircle
 10
206.5634987347
 20
259.736257091
 30
0.0
 40
100.0
100
AcDbArc
 50
97.8499117546
 51
270.0
  0
ARC
  5
CC
330
75
100
AcDbEntity
  8
T14085080_201846
  6
Continuous
 62
     7
100
AcDbCircle
 10
206.5634987347
 20
259.736257091
 30
0.0
 40
100.0
100
AcDbArc
 50
270.0
 51
82.7969429522
  0
ENDBLK
  5
CE
330
75
100
AcDbEntity
  8
0
100
AcDbBlockEnd
  0
BLOCK
  5
120
330
CF
100
AcDbEntity
  8
0
100
AcDbBlockBegin
  2
SE1
 70
     0
 10
0.0
 20
0.0
 30
0.0
  3
SE1
  1

  0
LINE
  5
D1
330
CF
100
AcDbEntity
  8
14086500_ESC_-_A
  6
Continuous
 62
     7
100
AcDbLine
 10
212.4755091418
 20
101.094472412
 30
0.0
 11
211.1781169235
 21
94.89707992
 31
0.0
  0
LINE
  5
D2
330
CF
100
AcDbEntity
  8
14086500_ESC_-_A
  6
Continuous
 62
     7
100
AcDbLine
 10
210.9811142351
 20
94.89707992
 30
0.0
 11
212.2785064528
 21
101.0944724122
 31
0.0
  0
LINE
  5
D3
330
CF
100
AcDbEntity
  8
14086500_ESC_-_A
  6
Continuous
 62
     7
100
AcDbLine
 10
199.8530989693
 20
101.094472412
 30
0.0
 11
201.1504911875
 21
94.89707992
 31
0.0
  0
LINE
  5
D4
330
CF
100
AcDbEntity
  8
14086500_ESC_-_A
  6
Continuous
 62
     7
100
AcDbLine
 10
200.9534884991
 20
94.89707992
 30
0.0
 11
199.6560962808
 21
101.0944724122
 31
0.0
  0
LINE
  5
D5
330
CF
100
AcDbEntity
  8
14086500_ESC_-_A
  6
Continuous
 62
     7
100
AcDbLine
 10
223.3804436525
 20
101.094472412
 30
0.0
 11
219.8359021948
 21
94.8970799197
 31
0.0
  0
LINE
  5
D6
330
CF
100
AcDbEntity
  8
14086500_ESC_-_A
  6
Continuous
 62
     7
100
AcDbLine
 10
219.6916862178
 20
94.89707992
 30
0.0
 11
223.2362276749
 21
101.0944724122
 31
0.0
  0
LINE
  5
D7
330
CF
100
AcDbEntity
  8
14086500_ESC_-_A
  6
Continuous
 62
     7
100
AcDbLine
 10
188.8953777473
 20
101.094472412
 30
0.0
 11
192.4399192049
 21
94.8970799199
 31
0.0
  0
LINE
  5
D8
330
CF
100
AcDbEntity
  8
14086500_ESC_-_A
  6
Continuous
 62
     7
100
AcDbLine
 10
192.2957032277
 20
94.89707992
 30
0.0
 11
188.7511617697
 21
101.0944724123
 31
0.0
  0
LINE
  5
D9
330
CF
100
AcDbEntity
  8
14086500_ESC_-_A
  6
Continuous
 62
     7
100
AcDbLine
 10
229.6459341058
 20
101.094472412
 30
0.0
 11
224.80400043
 21
94.89707992
 31
0.0
  0
LINE
  5
DA
330
CF
100
AcDbEntity
  8
14086500_ESC_-_A
  6
Continuous
 62
     7
100
AcDbLine
 10
224.7512137188
 20
94.89707992
 30
0.0
 11
229.5931473946
 21
101.0944724121
 31
0.0
  0
LINE
  5
DB
330
CF
100
AcDbEntity
  8
14086500_ESC_-_A
  6
Continuous
 62
     7
100
AcDbLine
 10
230.2895986152
 20
101.9183254147
 30
0.0
 11
229.6459341058
 21
101.094472412
 31
0.0
  0
LINE
  5
DC
330
CF
100
AcDbEntity
  8
14086500_ESC_-_A
  6
Continuous
 62
     7
100
AcDbLine
 10
182.5384580281
 20
101.094472412
 30
0.0
 11
187.3803917039
 21
94.89707992
 31
0.0
  0
LINE
  5
DD
330
CF
100
AcDbEntity
  8
14086500_ESC_-_A
  6
Continuous
 62
     7
100
AcDbLine
 10
187.3276049926
 20
94.89707992
 30
0.0
 11
182.4856713166
 21
101.0944724123
 31
0.0
  0
LINE
  5
DE
330
CF
100
AcDbEntity
  8
14086500_ESC_-_A
  6
Continuous
 62
     7
100
AcDbLine
 10
181.8431370443
 20
101.9168787775
 30
0.0
 11
182.4856713168
 21
101.094472412
 31
0.0
  0
LINE
  5
DF
330
CF
100
AcDbEntity
  8
14086500_ESC_-_A
  6
Continuous
 62
     7
100
AcDbLine
 10
224.7234168632
 20
94.793937658
 30
0.0
 11
224.80400043
 21
94.89707992
 31
0.0
  0
LINE
  5
E0
330
CF
100
AcDbEntity
  8
14086500_ESC_-_A
  6
Continuous
 62
     7
100
AcDbLine
 10
187.3276049926
 20
94.89707992
 30
0.0
 11
187.4081885594
 21
94.793937658
 31
0.0
  0
LINE
  5
E1
330
CF
100
AcDbEntity
  8
14086500_ESC_-_A
  6
Continuous
 62
     7
100
AcDbLine
 10
223.8546316401
 20
94.5629531753
 30
0.0
 11
188.2769737825
 21
94.5629531753
 31
0.0
  0
LINE
  5
E2
330
CF
100
AcDbEntity
  8
14086500_ESC_-_A
  6
Continuous
 62
     7
100
AcDbLine
 10
229.9507685736
 20
103.5629531753
 30
0.0
 11
182.180836849
 21
103.5629531753
 31
0.0
  0
ARC
  5
E3
330
CF
100
AcDbEntity
  8
14086500_ESC_-_A
  6
Continuous
 62
     7
100
AcDbCircle
 10
229.8803556942
 20
102.2298356971
 30
0.0
 40
0.5149057954080049
100
AcDbArc
 50
330.1301653766
 51
14.2990613838
  0
ARC
  5
E4
330
CF
100
AcDbEntity
  8
14086500_ESC_-_A
  6
Continuous
 62
     7
100
AcDbCircle
 10
182.2484641137
 20
102.2303121617
 30
0.0
 40
0.5120888508925887
100
AcDbArc
 50
165.6756191362
 51
211.4753202681
  0
SPLINE
  5
E5
330
CF
100
AcDbEntity
  8
14086500_ESC_-_A
  6
Continuous
 62
     7
100
AcDbSpline
210
0.0
220
0.0
230
1.0
 70
     8
 71
     3
 72
    11
 73
     7
 74
     0
 42
0.0000000247801638
 43
0.0000000001
 40
0.0
 40
0.0
 40
0.0
 40
0.0
 40
0.2499999999897652
 40
0.4999999999953116
 40
0.749999999996553
 40
1.0
 40
1.0
 40
1.0
 40
1.0
 10
224.3812726141968
 20
94.60446524520145
 30
0.0
 10
224.4176092356807
 20
94.61011088175887
 30
0.0
 10
224.4792031248097
 20
94.62064092431707
 30
0.0
 10
224.5732218931197
 20
94.66150204079311
 30
0.0
 10
224.6577434938563
 20
94.71951289015347
 30
0.0
 10
224.6993510699468
 20
94.76613368579578
 30
0.0
 10
224.7234168631982
 20
94.79393765796411
 30
0.0
  0
SPLINE
  5
E6
330
CF
100
AcDbEntity
  8
14086500_ESC_-_A
  6
Continuous
 62
     7
100
AcDbSpline
210
0.0
220
0.0
230
1.0
 70
     8
 71
     3
 72
    11
 73
     7
 74
     0
 42
0.0000000247801638
 43
0.0000000001
 40
0.0
 40
0.0
 40
0.0
 40
0.0
 40
0.2500000000033347
 40
0.5000000000045868
 40
0.7500000000101577
 40
1.0
 40
1.0
 40
1.0
 40
1.0
 10
187.4081885594367
 20
94.79393765796412
 30
0.0
 10
187.4322543527294
 20
94.76613368575256
 30
0.0
 10
187.4738619288935
 20
94.71951289003792
 30
0.0
 10
187.5583835297985
 20
94.66150204062387
 30
0.0
 10
187.6524022982971
 20
94.62064092415679
 30
0.0
 10
187.7139961875402
 20
94.6101108816554
 30
0.0
 10
187.7503328090902
 20
94.60446524513348
 30
0.0
  0
ARC
  5
E7
330
CF
100
AcDbEntity
  8
14086500_ESC_-_A
  6
Continuous
 62
     7
100
AcDbCircle
 10
188.8356087405
 20
105.0114093349
 30
0.0
 40
10.46337943180476
100
AcDbArc
 50
263.9854637468
 51
266.9395498828
  0
ARC
  5
E8
330
CF
100
AcDbEntity
  8
14086500_ESC_-_A
  6
Continuous
 62
     7
100
AcDbCircle
 10
223.2959966821
 20
105.0114093349
 30
0.0
 40
10.46337943180474
100
AcDbArc
 50
273.0604501172
 51
276.0147178378
  0
ARC
  5
E9
330
CF
100
AcDbEntity
  8
14086500_ESC_-_A
  6
Continuous
 62
     7
100
AcDbCircle
 10
189.5927287496
 20
100.2499693395
 30
0.0
 40
8.118620784498187
100
AcDbArc
 50
155.9162061553
 51
164.9537227288
  0
ARC
  5
EA
330
CF
100
AcDbEntity
  8
14086500_ESC_-_A
  6
Continuous
 62
     7
100
AcDbCircle
 10
222.538876673
 20
100.2499693395
 30
0.0
 40
8.118620784498182
100
AcDbArc
 50
15.0451366547
 51
24.0837938447
  0
LINE
  5
EB
330
CF
100
AcDbEntity
  8
T14085010__SLEEV
  6
Continuous
 62
     7
100
AcDbLine
 10
196.3155995614
 20
56.1629531753
 30
0.0
 11
215.8160058612
 21
56.1629531753
 31
0.0
  0
LINE
  5
EC
330
CF
100
AcDbEntity
  8
T14085010__SLEEV
  6
Continuous
 62
     7
100
AcDbLine
 10
188.1158027113
 20
93.5695240728
 30
0.0
 11
224.0158027113
 21
93.5695240728
 31
0.0
  0
LINE
  5
ED
330
CF
100
AcDbEntity
  8
T14085010__SLEEV
  6
Continuous
 62
     7
100
AcDbLine
 10
195.4942302986
 20
57.0751761579
 30
0.0
 11
196.3155995614
 21
56.1629531753
 31
0.0
  0
LINE
  5
EE
330
CF
100
AcDbEntity
  8
T14085010__SLEEV
  6
Continuous
 62
     7
100
AcDbLine
 10
215.8160058612
 20
56.1629531753
 30
0.0
 11
216.6373751241
 21
57.0751761579
 31
0.0
  0
ARC
  5
EF
330
CF
100
AcDbEntity
  8
T14085010__SLEEV
  6
Continuous
 62
     7
100
AcDbCircle
 10
216.2658027113
 20
57.4097414611
 30
0.0
 40
0.5000000000000012
100
AcDbArc
 50
318.0
 51
10.2120265005
  0
ARC
  5
F0
330
CF
100
AcDbEntity
  8
T14085010__SLEEV
  6
Continuous
 62
     7
100
AcDbCircle
 10
195.8658027113
 20
57.4097414611
 30
0.0
 40
0.5000000000000006
100
AcDbArc
 50
169.7879734995
 51
222.0
  0
ARC
  5
F1
330
CF
100
AcDbEntity
  8
T14085010__SLEEV
  6
Continuous
 62
     7
100
AcDbCircle
 10
265.9658027113
 20
66.3629531753
 30
0.0
 40
50.0
100
AcDbArc
 50
147.0346722594
 51
190.2120265005
  0
ARC
  5
F2
330
CF
100
AcDbEntity
  8
T14085010__SLEEV
  6
Continuous
 62
     7
100
AcDbCircle
 10
146.1658027113
 20
66.3629531753
 30
0.0
 40
50.0
100
AcDbArc
 50
349.7879734995
 51
32.9653277406
  0
ARC
  5
F3
330
CF
100
AcDbEntity
  8
T14085010__SLEEV
  6
Continuous
 62
     7
100
AcDbCircle
 10
223.3802719396
 20
93.8629531753
 30
0.0
 40
0.7000000000000017
100
AcDbArc
 50
335.2168920114
 51
90.0
  0
ARC
  5
F4
330
CF
100
AcDbEntity
  8
T14085010__SLEEV
  6
Continuous
 62
     7
100
AcDbCircle
 10
188.751333483
 20
93.8629531753
 30
0.0
 40
0.6999999999999993
100
AcDbArc
 50
90.0
 51
204.7831079886
  0
LINE
  5
F5
330
CF
100
AcDbEntity
  8
14086800_TOWEL_R
  6
Continuous
 62
     7
100
AcDbLine
 10
215.9079109923
 20
55.7080653421
 30
0.0
 11
196.2236944303
 21
55.7080653421
 31
0.0
  0
ARC
  5
F6
330
CF
100
AcDbEntity
  8
14086800_TOWEL_R
  6
Continuous
 62
     7
100
AcDbCircle
 10
218.9009491769
 20
38.3045643277
 30
0.0
 40
0.9999999999999957
100
AcDbArc
 50
302.4251674377
 51
20.7724246819
  0
ARC
  5
F7
330
CF
100
AcDbEntity
  8
14086800_TOWEL_R
  6
Continuous
 62
     7
100
AcDbCircle
 10
193.2306562457
 20
38.3045643277
 30
0.0
 40
1.000000000000001
100
AcDbArc
 50
159.2275753181
 51
237.5748325623
  0
ARC
  5
F8
330
CF
100
AcDbEntity
  8
14086800_TOWEL_R
  6
Continuous
 62
     7
100
AcDbCircle
 10
215.4099502585
 20
55.6629531753
 30
0.0
 40
0.4999999999999966
100
AcDbArc
 50
5.1765129594
 51
90.0
  0
ARC
  5
F9
330
CF
100
AcDbEntity
  8
14086800_TOWEL_R
  6
Continuous
 62
     7
100
AcDbCircle
 10
196.7216551641
 20
55.6629531753
 30
0.0
 40
0.5000000000000004
100
AcDbArc
 50
90.0
 51
174.8234870406
  0
ARC
  5
FA
330
CF
100
AcDbEntity
  8
14086800_TOWEL_R
  6
Continuous
 62
     7
100
AcDbCircle
 10
206.298334714
 20
58.8759520888
 30
0.0
 40
25.37101177561874
100
AcDbArc
 50
237.5748325623
 51
248.2689886123
  0
ARC
  5
FB
330
CF
100
AcDbEntity
  8
14086800_TOWEL_R
  6
Continuous
 62
     7
100
AcDbCircle
 10
205.8332707086
 20
58.8759520888
 30
0.0
 40
25.37101177561876
100
AcDbArc
 50
291.7310113877
 51
302.4251674377
  0
ARC
  5
FC
330
CF
100
AcDbEntity
  8
14086800_TOWEL_R
  6
Continuous
 62
     7
100
AcDbCircle
 10
215.1158027113
 20
35.5866792132
 30
0.0
 40
0.2999999999999947
100
AcDbArc
 50
270.0
 51
291.7310113877
  0
ARC
  5
FD
330
CF
100
AcDbEntity
  8
14086800_TOWEL_R
  6
Continuous
 62
     7
100
AcDbCircle
 10
197.0158027113
 20
35.5866792132
 30
0.0
 40
0.3000000000000084
100
AcDbArc
 50
248.2689886123
 51
270.0
  0
LINE
  5
FE
330
CF
100
AcDbEntity
  8
14086800_TOWEL_R
  6
Continuous
 62
     7
100
AcDbLine
 10
197.0158027113
 20
35.2866792132
 30
0.0
 11
215.1158027113
 21
35.2866792132
 31
0.0
  0
ARC
  5
FF
330
CF
100
AcDbEntity
  8
14086800_TOWEL_R
  6
Continuous
 62
     7
100
AcDbCircle
 10
188.8071409437
 20
49.3074777395
 30
0.0
 40
7.827682112126741
100
AcDbArc
 50
23.8096276686
 51
25.4138739268
  0
ARC
  5
100
330
CF
100
AcDbEntity
  8
14086800_TOWEL_R
  6
Continuous
 62
     7
100
AcDbCircle
 10
193.6734838501
 20
41.7566157158
 30
0.0
 40
0.2738131231617617
100
AcDbArc
 50
140.7032253661
 51
144.2623239531
  0
SPLINE
  5
101
330
CF
100
AcDbEntity
  8
14086800_TOWEL_R
  6
Continuous
 62
     7
100
AcDbSpline
210
0.0
220
0.0
230
1.0
 70
     8
 71
     3
 72
    43
 73
    39
 74
     0
 42
0.0000000008408777
 43
0.0000000001
 40
0.0255523967300685
 40
0.0255523967300685
 40
0.0255523967300685
 40
0.0255523967300685
 40
0.0372081930360194
 40
0.0643405297662792
 40
0.099663116394085
 40
0.1360232227979184
 40
0.1733522196039753
 40
0.2107943580168815
 40
0.2485572672165276
 40
0.2862648267492571
 40
0.3231521589455436
 40
0.3589406054773843
 40
0.3932763928659656
 40
0.4266128903297598
 40
0.4598815077645639
 40
0.4928782014266972
 40
0.5265332341068425
 40
0.5616414394526529
 40
0.5981561081958241
 40
0.6365518319426963
 40
0.6765173960113247
 40
0.7176197992461544
 40
0.7590908893206828
 40
0.7997461775352407
 40
0.8391924328544826
 40
0.8771877144886482
 40
0.9135719126343227
 40
0.9487863608360732
 40
0.9829425935530112
 40
0.9913783172073406
 40
0.9936467060292348
 40
0.9947267001858697
 40
0.9951731363079487
 40
0.9954211043755912
 40
0.9956841956036321
 40
0.9963195033033926
 40
0.9976596599179571
 40
1.0
 40
1.0
 40
1.0
 40
1.0
 10
195.8977332076857
 20
52.51608112982746
 30
0.0
 10
195.8977682303979
 20
52.51600809513815
 30
0.0
 10
195.9014100563369
 20
52.5071678764313
 30
0.0
 10
195.9195843357786
 20
52.46225844787138
 30
0.0
 10
195.96822948579
 20
52.34164910957746
 30
0.0
 10
196.046313971927
 20
52.13987982274683
 30
0.0
 10
196.1451770197509
 20
51.86370786072836
 30
0.0
 10
196.2584261974814
 20
51.51410026467454
 30
0.0
 10
196.3739756926112
 20
51.0986088315457
 30
0.0
 10
196.4797417327912
 20
50.62437053605985
 30
0.0
 10
196.5615962756243
 20
50.10251437715967
 30
0.0
 10
196.6094291781153
 20
49.55126418319951
 30
0.0
 10
196.6133191383773
 20
48.98229233273686
 30
0.0
 10
196.5724631045827
 20
48.40424118676643
 30
0.0
 10
196.4860989928349
 20
47.8231180286684
 30
0.0
 10
196.3532058545223
 20
47.24117690038752
 30
0.0
 10
196.1774718116825
 20
46.65981024893559
 30
0.0
 10
195.9615023272776
 20
46.07747044141598
 30
0.0
 10
195.7065452683803
 20
45.49641751319457
 30
0.0
 10
195.420139316524
 20
44.92273715555807
 30
0.0
 10
195.110717910198
 20
44.36491654412957
 30
0.0
 10
194.7921011649169
 20
43.83718739844694
 30
0.0
 10
194.4811118979311
 20
43.35563240052713
 30
0.0
 10
194.1941607670094
 20
42.93406148558221
 30
0.0
 10
193.9451880387911
 20
42.58246205031218
 30
0.0
 10
193.7418806664773
 20
42.30387266712549
 30
0.0
 10
193.5906393407322
 20
42.10071649786448
 30
0.0
 10
193.4916079596375
 20
41.96975842674628
 30
0.0
 10
193.4566373730193
 20
41.92371819239513
 30
0.0
 10
193.4509649721909
 20
41.91621137604516
 30
0.0
 10
193.449778488191
 20
41.91463416174164
 30
0.0
 10
193.4489828085218
 20
41.91357281494953
 30
0.0
 10
193.4476393926869
 20
41.91175872150362
 30
0.0
 10
193.445946898939
 20
41.90943090442831
 30
0.0
 10
193.4426657066028
 20
41.90482647056958
 30
0.0
 10
193.4351708877338
 20
41.89364655049563
 30
0.0
 10
193.4214908282292
 20
41.87149680121008
 30
0.0
 10
193.4153303708424
 20
41.85197158708247
 30
0.0
 10
193.4108029124939
 20
41.83730224022737
 30
0.0
  0
ARC
  5
102
330
CF
100
AcDbEntity
  8
14086800_TOWEL_R
  6
Continuous
 62
     7
100
AcDbCircle
 10
280.1182426219
 20
61.5251247823
 30
0.0
 40
64.4732880231175
100
AcDbArc
 50
185.1765129594
 51
187.8929999376
  0
ARC
  5
103
330
CF
100
AcDbEntity
  8
14086800_TOWEL_R
  6
Continuous
 62
     7
100
AcDbCircle
 10
280.1182426219
 20
61.5251247823
 30
0.0
 40
64.47328802311749
100
AcDbArc
 50
197.7900296143
 51
200.7724246819
  0
ARC
  5
104
330
CF
100
AcDbEntity
  8
14086800_TOWEL_R
  6
Continuous
 62
     7
100
AcDbCircle
 10
132.0133628007
 20
61.5251247823
 30
0.0
 40
64.4732880231175
100
AcDbArc
 50
339.2275753181
 51
342.2209213066
  0
ARC
  5
105
330
CF
100
AcDbEntity
  8
14086800_TOWEL_R
  6
Continuous
 62
     7
100
AcDbCircle
 10
132.0133628007
 20
61.5251247823
 30
0.0
 40
64.47328802311748
100
AcDbArc
 50
352.1032915203
 51
354.8234870406
  0
SPLINE
  5
106
330
CF
100
AcDbEntity
  8
14086800_TOWEL_R
  6
Continuous
 62
     7
100
AcDbSpline
210
0.0
220
0.0
230
1.0
 70
     8
 71
     3
 72
    43
 73
    39
 74
     0
 42
0.0000000008394655
 43
0.0000000001
 40
0.0
 40
0.0
 40
0.0
 40
0.0
 40
0.0019704052868199
 40
0.0038054622223849
 40
0.0046434873356899
 40
0.0050778543971157
 40
0.0054255186594025
 40
0.0059158364542133
 40
0.0068725006135289
 40
0.0096536653722529
 40
0.0219426243057752
 40
0.0542320152399652
 40
0.0884223388760111
 40
0.1227527328519759
 40
0.1577677846445376
 40
0.1941566486707478
 40
0.2318414070902728
 40
0.270935322638096
 40
0.3111252498426218
 40
0.3521603323795539
 40
0.393192061149478
 40
0.4330836683791531
 40
0.4714417279361824
 40
0.5079855871576012
 40
0.5428283090315233
 40
0.5759660531922461
 40
0.6091821879327844
 40
0.6422554677967119
 40
0.6757039599351478
 40
0.7106046025226708
 40
0.7465726531958736
 40
0.7838080608607498
 40
0.821781617330493
 40
0.8598418461178032
 40
0.8977683414505194
 40
0.9352699911921444
 40
0.9663912622617523
 40
0.9735752232907704
 40
0.9735752232907704
 40
0.9735752232907704
 40
0.9735752232907704
 10
218.7269284268408
 20
41.8269374236585
 30
0.0
 10
218.7228180916893
 20
41.83918028986401
 30
0.0
 10
218.7159634014453
 20
41.85910390085267
 30
0.0
 10
218.7025527537597
 20
41.883906988569
 30
0.0
 10
218.6927160392717
 20
41.89935317975268
 30
0.0
 10
218.688485977349
 20
41.90550711519532
 30
0.0
 10
218.6863451814692
 20
41.90853396645187
 30
0.0
 10
218.6845681144156
 20
41.91099433402601
 30
0.0
 10
218.6826748792759
 20
41.91356306870279
 30
0.0
 10
218.6802943992407
 20
41.91673370734131
 30
0.0
 10
218.6718934668814
 20
41.92785532629492
 30
0.0
 10
218.6314281837897
 20
41.98093377007825
 30
0.0
 10
218.5343671402926
 20
42.10960160403741
 30
0.0
 10
218.3899700573049
 20
42.30361490548204
 30
0.0
 10
218.2031243074327
 20
42.55951545807169
 30
0.0
 10
217.9772645181194
 20
42.877350485673
 30
0.0
 10
217.7150323502595
 20
43.25952342611885
 30
0.0
 10
217.4241442974973
 20
43.70369256609021
 30
0.0
 10
217.1131746562865
 20
44.20798360201434
 30
0.0
 10
216.7952276618662
 20
44.76570606825891
 30
0.0
 10
216.4871314097296
 20
45.36428510706622
 30
0.0
 10
216.2061048893294
 20
45.98782135801098
 30
0.0
 10
215.9665292599723
 20
46.6194856335305
 30
0.0
 10
215.7758211622254
 20
47.24578153567344
 30
0.0
 10
215.6392651938081
 20
47.85466610153976
 30
0.0
 10
215.5553610326996
 20
48.44414025065834
 30
0.0
 10
215.5170338502795
 20
49.01218130944478
 30
0.0
 10
215.5237320746307
 20
49.55834332625307
 30
0.0
 10
215.5680265873166
 20
50.08099803752034
 30
0.0
 10
215.6433867617023
 20
50.57679133612414
 30
0.0
 10
215.7430911240056
 20
51.03922187404549
 30
0.0
 10
215.8562434074069
 20
51.45745050064536
 30
0.0
 10
215.9709031997327
 20
51.81870663735609
 30
0.0
 10
216.0745796539308
 20
52.11126873601604
 30
0.0
 10
216.1588923795505
 20
52.33000724998498
 30
0.0
 10
216.2118931021095
 20
52.46262979306398
 30
0.0
 10
216.2299949323665
 20
52.50674560906972
 30
0.0
 10
216.2328127440751
 20
52.51339589705307
 30
0.0
 10
216.2327814315251
 20
52.51332437349537
 30
0.0
  0
SPLINE
  5
107
330
CF
100
AcDbEntity
  8
14086800_TOWEL_R
  6
Continuous
 62
     7
100
AcDbSpline
210
0.0
220
0.0
230
1.0
 70
     8
 71
     3
 72
     9
 73
     5
 74
     0
 42
0.0000001384166593
 43
0.0000000001
 40
0.4025909809827852
 40
0.4025909809827852
 40
0.4025909809827852
 40
0.4025909809827852
 40
0.5749770721364236
 40
1.0
 40
1.0
 40
1.0
 40
1.0
 10
218.6792287693418
 20
41.91806115948193
 30
0.0
 10
218.6793065828841
 20
41.91795809633303
 30
0.0
 10
218.6753851646382
 20
41.92306848177586
 30
0.0
 10
218.6638987444748
 20
41.93821658619363
 30
0.0
 10
218.6532710443271
 20
41.95221908507947
 30
0.0
  0
ARC
  5
108
330
CF
100
AcDbEntity
  8
14086800_TOWEL_R
  6
Continuous
 62
     7
100
AcDbCircle
 10
223.2892006066
 20
49.3204293349
 30
0.0
 40
7.79370682191259
100
AcDbArc
 50
154.529079102
 51
156.194126644
  0
LINE
  5
109
330
CF
100
AcDbEntity
  8
12086000_CAP_-_P
  6
Continuous
 62
     7
100
AcDbLine
 10
206.0658027113
 20
33.920927013
 30
0.0
 11
206.0658027113
 21
33.9406797442
 31
0.0
  0
LINE
  5
10A
330
CF
100
AcDbEntity
  8
12086000_CAP_-_P
  6
Continuous
 62
     7
100
AcDbLine
 10
206.0658027113
 20
33.920927013
 30
0.0
 11
210.3117576748
 21
33.920927013
 31
0.0
  0
ARC
  5
10B
330
CF
100
AcDbEntity
  8
12086000_CAP_-_P
  6
Continuous
 62
     7
100
AcDbCircle
 10
210.3117576748
 20
34.420927013
 30
0.0
 40
0.4999999999999866
100
AcDbArc
 50
270.0
 51
286.1587002531
  0
ARC
  5
10C
330
CF
100
AcDbEntity
  8
12086000_CAP_-_P
  6
Continuous
 62
     7
100
AcDbCircle
 10
201.8198477479
 20
34.420927013
 30
0.0
 40
0.4999999999999588
100
AcDbArc
 50
253.8412997469
 51
270.0
  0
LINE
  5
10D
330
CF
100
AcDbEntity
  8
12086000_CAP_-_P
  6
Continuous
 62
     7
100
AcDbLine
 10
201.8198477479
 20
33.920927013
 30
0.0
 11
206.0658027113
 21
33.920927013
 31
0.0
  0
LINE
  5
10E
330
CF
100
AcDbEntity
  8
12086000_CAP_-_P
  6
Continuous
 62
     7
100
AcDbLine
 10
213.2422482402
 20
34.7494578967
 30
0.0
 11
210.4509070938
 21
33.9406797442
 31
0.0
  0
LINE
  5
10F
330
CF
100
AcDbEntity
  8
12086000_CAP_-_P
  6
Continuous
 62
     7
100
AcDbLine
 10
213.2422482402
 20
34.7494578967
 30
0.0
 11
214.3771267695
 21
35.0782836876
 31
0.0
  0
ARC
  5
110
330
CF
100
AcDbEntity
  8
12086000_CAP_-_P
  6
Continuous
 62
     7
100
AcDbCircle
 10
209.8185232388
 20
14.1893317084
 30
0.0
 40
21.37386686221774
100
AcDbArc
 50
98.8964283294
 51
100.112131774
  0
ARC
  5
111
330
CF
100
AcDbEntity
  8
12086000_CAP_-_P
  6
Continuous
 62
     7
100
AcDbCircle
 10
209.8185232388
 20
14.1893317084
 30
0.0
 40
21.37386686221774
100
AcDbArc
 50
79.887868226
 51
80.5498311069
  0
LINE
  5
112
330
CF
100
AcDbEntity
  8
12086000_CAP_-_P
  6
Continuous
 62
     7
100
AcDbLine
 10
206.0658027113
 20
34.7494578967
 30
0.0
 11
206.0658027113
 21
33.9406797442
 31
0.0
  0
LINE
  5
113
330
CF
100
AcDbEntity
  8
12086000_CAP_-_P
  6
Continuous
 62
     7
100
AcDbLine
 10
198.8893571824
 20
34.7494578967
 30
0.0
 11
201.6806983288
 21
33.9406797442
 31
0.0
  0
LINE
  5
114
330
CF
100
AcDbEntity
  8
12086000_CAP_-_P
  6
Continuous
 62
     7
100
AcDbLine
 10
197.7544786532
 20
35.0782836876
 30
0.0
 11
198.8893571824
 21
34.7494578967
 31
0.0
  0
ARC
  5
115
330
CF
100
AcDbEntity
  8
12086000_CAP_-_P
  6
Continuous
 62
     7
100
AcDbCircle
 10
199.0561126369
 20
35.2165506053
 30
0.0
 40
0.495966712623133
100
AcDbArc
 50
178.3100086345
 51
250.353070169
  0
LINE
  5
116
330
CF
100
AcDbEntity
  8
12086000_CAP_-_P
  6
Continuous
 62
     7
100
AcDbLine
 10
206.0658027113
 20
35.2311774755
 30
0.0
 11
206.0658027113
 21
34.7494578967
 31
0.0
  0
ARC
  5
117
330
CF
100
AcDbEntity
  8
12086000_CAP_-_P
  6
Continuous
 62
     7
100
AcDbCircle
 10
213.0754927857
 20
35.2165506053
 30
0.0
 40
0.4959667126236305
100
AcDbArc
 50
289.6469298311
 51
1.6899913655
  0
ARC
  5
118
330
CF
100
AcDbEntity
  8
12086000_CAP_-_P
  6
Continuous
 62
     7
100
AcDbCircle
 10
197.8936280722
 20
35.5585309564
 30
0.0
 40
0.4999999999999956
100
AcDbArc
 50
212.9361088788
 51
253.8412997469
  0
ARC
  5
119
330
CF
100
AcDbEntity
  8
12086000_CAP_-_P
  6
Continuous
 62
     7
100
AcDbCircle
 10
214.2379773505
 20
35.5585309564
 30
0.0
 40
0.4999999999999996
100
AcDbArc
 50
286.1587002531
 51
327.0638911212
  0
ARC
  5
11A
330
CF
100
AcDbEntity
  8
T14085080_201846
  6
Continuous
 62
     7
100
AcDbCircle
 10
301.5634987347
 20
47.1836433391
 30
0.0
 40
4.999999999999997
100
AcDbArc
 50
270.0
 51
90.0
  0
ARC
  5
11B
330
CF
100
AcDbEntity
  8
T14085080_201846
  6
Continuous
 62
     7
100
AcDbCircle
 10
111.5634987347
 20
47.1836433391
 30
0.0
 40
5.000000000000004
100
AcDbArc
 50
90.0
 51
270.0
  0
LINE
  5
11C
330
CF
100
AcDbEntity
  8
T14085080_201846
  6
Continuous
 62
     7
100
AcDbLine
 10
196.0247953921
 20
52.1836433391
 30
0.0
 11
111.5634987347
 21
52.1836433391
 31
0.0
  0
LINE
  5
11D
330
CF
100
AcDbEntity
  8
T14085080_201846
  6
Continuous
 62
     7
100
AcDbLine
 10
301.5634987347
 20
52.1836433391
 30
0.0
 11
216.1072491633
 21
52.1836433391
 31
0.0
  0
LINE
  5
11E
330
CF
100
AcDbEntity
  8
T14085080_201846
  6
Continuous
 62
     7
100
AcDbLine
 10
218.4852002691
 20
42.1836433391
 30
0.0
 11
301.5634987347
 21
42.1836433391
 31
0.0
  0
LINE
  5
11F
330
CF
100
AcDbEntity
  8
T14085080_201846
  6
Continuous
 62
     7
100
AcDbLine
 10
111.5634987347
 20
42.1836433391
 30
0.0
 11
193.6484689476
 21
42.1836433391
 31
0.0
  0
ENDBLK
  5
121
330
CF
100
AcDbEntity
  8
0
100
AcDbBlockEnd
  0
BLOCK
  5
16E
330
122
100
AcDbEntity
  8
0
100
AcDbBlockBegin
  2
SE2
 70
     0
 10
0.0
 20
0.0
 30
0.0
  3
SE2
  1

  0
LINE
  5
124
330
122
100
AcDbEntity
  8
14086500_ESC_-_A
  6
Continuous
 62
     7
100
AcDbLine
 10
339.4251613325
 20
378.7543237524
 30
0.0
 11
340.2490143335
 21
378.1106592443
 31
0.0
  0
LINE
  5
125
330
122
100
AcDbEntity
  8
14086500_ESC_-_A
  6
Continuous
 62
     7
100
AcDbLine
 10
340.2490143335
 20
378.1106592443
 30
0.0
 11
346.4464068255
 21
373.2687255685
 31
0.0
  0
LINE
  5
126
330
122
100
AcDbEntity
  8
14086500_ESC_-_A
  6
Continuous
 62
     7
100
AcDbLine
 10
346.4464068255
 20
373.2159388573
 30
0.0
 11
340.2490143333
 21
378.0578725332
 31
0.0
  0
LINE
  5
127
330
122
100
AcDbEntity
  8
14086500_ESC_-_A
  6
Continuous
 62
     7
100
AcDbLine
 10
346.5495490875
 20
373.1881420017
 30
0.0
 11
346.4464068255
 21
373.2687255686
 31
0.0
  0
LINE
  5
128
330
122
100
AcDbEntity
  8
14086500_ESC_-_A
  6
Continuous
 62
     7
100
AcDbLine
 10
340.2490143335
 20
371.845168791
 30
0.0
 11
346.4464068256
 21
368.3006273334
 31
0.0
  0
LINE
  5
129
330
122
100
AcDbEntity
  8
14086500_ESC_-_A
  6
Continuous
 62
     7
100
AcDbLine
 10
346.4464068255
 20
368.1564113563
 30
0.0
 11
340.2490143333
 21
371.7009528135
 31
0.0
  0
LINE
  5
12A
330
122
100
AcDbEntity
  8
14086500_ESC_-_A
  6
Continuous
 62
     7
100
AcDbLine
 10
340.2490143335
 20
360.9402342803
 30
0.0
 11
346.4464068255
 21
359.6428420621
 31
0.0
  0
LINE
  5
12B
330
122
100
AcDbEntity
  8
14086500_ESC_-_A
  6
Continuous
 62
     7
100
AcDbLine
 10
346.4464068255
 20
359.4458393737
 30
0.0
 11
340.2490143333
 21
360.7432315913
 31
0.0
  0
LINE
  5
12C
330
122
100
AcDbEntity
  8
14086500_ESC_-_A
  6
Continuous
 62
     7
100
AcDbLine
 10
340.2490143335
 20
348.3178241078
 30
0.0
 11
346.4464068255
 21
349.6152163261
 31
0.0
  0
LINE
  5
12D
330
122
100
AcDbEntity
  8
14086500_ESC_-_A
  6
Continuous
 62
     7
100
AcDbLine
 10
346.4464068255
 20
349.4182136376
 30
0.0
 11
340.2490143333
 21
348.1208214193
 31
0.0
  0
LINE
  5
12E
330
122
100
AcDbEntity
  8
14086500_ESC_-_A
  6
Continuous
 62
     7
100
AcDbLine
 10
346.4464068255
 20
340.7604283662
 30
0.0
 11
340.2490143333
 21
337.2158869082
 31
0.0
  0
LINE
  5
12F
330
122
100
AcDbEntity
  8
14086500_ESC_-_A
  6
Continuous
 62
     7
100
AcDbLine
 10
340.2490143335
 20
337.3601028858
 30
0.0
 11
346.4464068255
 21
340.9046443441
 31
0.0
  0
LINE
  5
130
330
122
100
AcDbEntity
  8
14086500_ESC_-_A
  6
Continuous
 62
     7
100
AcDbLine
 10
346.4464068255
 20
335.7923301311
 30
0.0
 11
340.2490143333
 21
330.9503964551
 31
0.0
  0
LINE
  5
131
330
122
100
AcDbEntity
  8
14086500_ESC_-_A
  6
Continuous
 62
     7
100
AcDbLine
 10
340.2490143335
 20
331.0031831666
 30
0.0
 11
346.4464068255
 21
335.8451168424
 31
0.0
  0
LINE
  5
132
330
122
100
AcDbEntity
  8
14086500_ESC_-_A
  6
Continuous
 62
     7
100
AcDbLine
 10
346.5495490875
 20
335.872913698
 30
0.0
 11
346.4464068255
 21
335.7923301311
 31
0.0
  0
LINE
  5
133
330
122
100
AcDbEntity
  8
14086500_ESC_-_A
  6
Continuous
 62
     7
100
AcDbLine
 10
346.7805335702
 20
372.3193567786
 30
0.0
 11
346.7805335702
 21
336.741698921
 31
0.0
  0
LINE
  5
134
330
122
100
AcDbEntity
  8
14086500_ESC_-_A
  6
Continuous
 62
     7
100
AcDbLine
 10
337.7805335702
 20
378.4154937122
 30
0.0
 11
337.7805335702
 21
330.6455619875
 31
0.0
  0
ARC
  5
135
330
122
100
AcDbEntity
  8
14086500_ESC_-_A
  6
Continuous
 62
     7
100
AcDbCircle
 10
339.1136510479
 20
378.3450808353
 30
0.0
 40
0.5149057927153687
100
AcDbArc
 50
60.1301643107
 51
104.299061402
  0
SPLINE
  5
136
330
122
100
AcDbEntity
  8
14086500_ESC_-_A
  6
Continuous
 62
     7
100
AcDbSpline
210
0.0
220
0.0
230
1.0
 70
     8
 71
     3
 72
    11
 73
     7
 74
     0
 42
0.0000000247801638
 43
0.0000000001
 40
0.0
 40
0.0
 40
0.0
 40
0.0
 40
0.2499999999897193
 40
0.4999999999953089
 40
0.749999999996537
 40
1.0
 40
1.0
 40
1.0
 40
1.0
 10
346.7390215003208
 20
372.8459977525184
 30
0.0
 10
346.733375863774
 20
372.8823343740219
 30
0.0
 10
346.7228458212326
 20
372.9439282631847
 30
0.0
 10
346.6819847047593
 20
373.0379470315507
 30
0.0
 10
346.6239738553829
 20
373.1224686323373
 30
0.0
 10
346.5773530597191
 20
373.1640762084497
 30
0.0
 10
346.549549087538
 20
373.1881420017133
 30
0.0
  0
SPLINE
  5
137
330
122
100
AcDbEntity
  8
14086500_ESC_-_A
  6
Continuous
 62
     7
100
AcDbSpline
210
0.0
220
0.0
230
1.0
 70
     8
 71
     3
 72
    11
 73
     7
 74
     0
 42
0.0000000066180653
 43
0.0000000001
 40
0.0
 40
0.0
 40
0.0
 40
0.0
 40
0.2514197363534191
 40
0.5019894425215021
 40
0.7513377214349514
 40
1.0
 40
1.0
 40
1.0
 40
1.0
 10
338.986477999096
 20
330.2170209676412
 30
0.0
 10
339.0381139378262
 20
330.2155825222437
 30
0.0
 10
339.1299792180322
 20
330.2183776705364
 30
0.0
 10
339.4128029361894
 20
330.3557019838995
 30
0.0
 10
339.7886368245416
 20
330.5992986771617
 30
0.0
 10
340.089496671864
 20
330.8283598003451
 30
0.0
 10
340.2696604347785
 20
330.9665269574882
 30
0.0
  0
SPLINE
  5
138
330
122
100
AcDbEntity
  8
14086500_ESC_-_A
  6
Continuous
 62
     7
100
AcDbSpline
210
0.0
220
0.0
230
1.0
 70
     8
 71
     3
 72
    11
 73
     7
 74
     0
 42
0.0000000247801638
 43
0.0000000001
 40
0.0
 40
0.0
 40
0.0
 40
0.0
 40
0.2500000000034289
 40
0.5000000000046386
 40
0.7500000000102102
 40
1.0
 40
1.0
 40
1.0
 40
1.0
 10
346.5495490875378
 20
335.8729136979517
 30
0.0
 10
346.5773530597062
 20
335.8969794912031
 30
0.0
 10
346.6239738553485
 20
335.9385870672936
 30
0.0
 10
346.6819847047088
 20
336.0231086680302
 30
0.0
 10
346.7228458211849
 20
336.1171274363402
 30
0.0
 10
346.7333758637431
 20
336.1787213254692
 30
0.0
 10
346.7390215003005
 20
336.2150579469531
 30
0.0
  0
ARC
  5
139
330
122
100
AcDbEntity
  8
14086500_ESC_-_A
  6
Continuous
 62
     7
100
AcDbCircle
 10
336.3320774107
 20
337.3003338791
 30
0.0
 40
10.46337943180476
100
AcDbArc
 50
353.9854637468
 51
356.9395498828
  0
ARC
  5
13A
330
122
100
AcDbEntity
  8
14086500_ESC_-_A
  6
Continuous
 62
     7
100
AcDbCircle
 10
336.3320774107
 20
371.7607218206
 30
0.0
 40
10.46337943180474
100
AcDbArc
 50
3.0604501172
 51
6.0136648004
  0
ARC
  5
13B
330
122
100
AcDbEntity
  8
14086500_ESC_-_A
  6
Continuous
 62
     7
100
AcDbCircle
 10
341.093517406
 20
338.0574538881
 30
0.0
 40
8.118620784498185
100
AcDbArc
 50
245.9162061553
 51
254.9537227288
  0
ARC
  5
13C
330
122
100
AcDbEntity
  8
14086500_ESC_-_A
  6
Continuous
 62
     7
100
AcDbCircle
 10
341.093517406
 20
371.0036018116
 30
0.0
 40
8.11862078449818
100
AcDbArc
 50
105.0459181433
 51
114.0837938447
  0
LINE
  5
13D
330
122
100
AcDbEntity
  8
T14085010__SLEEV
  6
Continuous
 62
     7
100
AcDbLine
 10
385.1805335702
 20
344.7803246999
 30
0.0
 11
385.1805335702
 21
364.2807309998
 31
0.0
  0
LINE
  5
13E
330
122
100
AcDbEntity
  8
T14085010__SLEEV
  6
Continuous
 62
     7
100
AcDbLine
 10
347.7739626727
 20
336.5805278498
 30
0.0
 11
347.7739626727
 21
372.4805278498
 31
0.0
  0
ARC
  5
13F
330
122
100
AcDbEntity
  8
T14085010__SLEEV
  6
Continuous
 62
     7
100
AcDbCircle
 10
367.2335417745
 20
335.0087533314
 30
0.0
 40
9.393886280463715
100
AcDbArc
 50
79.9030100076
 51
121.8196153061
  0
LINE
  5
140
330
122
100
AcDbEntity
  8
T14085010__SLEEV
  6
Continuous
 62
     7
100
AcDbLine
 10
384.2683105876
 20
343.9589554371
 30
0.0
 11
385.1805335702
 21
344.7803246999
 31
0.0
  0
LINE
  5
141
330
122
100
AcDbEntity
  8
T14085010__SLEEV
  6
Continuous
 62
     7
100
AcDbLine
 10
385.1805335702
 20
364.2807309998
 30
0.0
 11
384.2683105876
 21
365.1021002626
 31
0.0
  0
ARC
  5
142
330
122
100
AcDbEntity
  8
T14085010__SLEEV
  6
Continuous
 62
     7
100
AcDbCircle
 10
383.9337452844
 20
364.7305278498
 30
0.0
 40
0.5000000000000044
100
AcDbArc
 50
48.0
 51
100.2120265005
  0
ARC
  5
143
330
122
100
AcDbEntity
  8
T14085010__SLEEV
  6
Continuous
 62
     7
100
AcDbCircle
 10
383.9337452844
 20
344.3305278498
 30
0.0
 40
0.5000000000000019
100
AcDbArc
 50
259.7879734995
 51
312.0
  0
ARC
  5
144
330
122
100
AcDbEntity
  8
T14085010__SLEEV
  6
Continuous
 62
     7
100
AcDbCircle
 10
374.9805335702
 20
414.4305278498
 30
0.0
 40
49.99999999999999
100
AcDbArc
 50
237.0346722594
 51
280.2120265005
  0
ARC
  5
145
330
122
100
AcDbEntity
  8
T14085010__SLEEV
  6
Continuous
 62
     7
100
AcDbCircle
 10
374.9805335702
 20
294.6305278498
 30
0.0
 40
50.00000000000001
100
AcDbArc
 50
79.7879734995
 51
97.0157318982
  0
ARC
  5
146
330
122
100
AcDbEntity
  8
T14085010__SLEEV
  6
Continuous
 62
     7
100
AcDbCircle
 10
374.9805335702
 20
294.6305278498
 30
0.0
 40
50.0
100
AcDbArc
 50
104.7015116327
 51
122.9653277406
  0
ARC
  5
147
330
122
100
AcDbEntity
  8
T14085010__SLEEV
  6
Continuous
 62
     7
100
AcDbCircle
 10
347.4805335702
 20
371.8449970781
 30
0.0
 40
0.7000000000000001
100
AcDbArc
 50
65.2168920114
 51
180.0
  0
ARC
  5
148
330
122
100
AcDbEntity
  8
T14085010__SLEEV
  6
Continuous
 62
     7
100
AcDbCircle
 10
347.4805335702
 20
337.2160586215
 30
0.0
 40
0.6999999999999993
100
AcDbArc
 50
180.0
 51
294.7831079886
  0
ARC
  5
149
330
122
100
AcDbEntity
  8
14086800_TOWEL_R
  6
Continuous
 62
     7
100
AcDbCircle
 10
394.1598434065
 20
354.5305278498
 30
0.0
 40
5.150000000000004
100
AcDbArc
 50
0.0
 51
193.508632622
  0
ARC
  5
14A
330
122
100
AcDbEntity
  8
14086800_TOWEL_R
  6
Continuous
 62
     7
100
AcDbCircle
 10
394.1598434065
 20
354.5305278498
 30
0.0
 40
5.150000000000004
100
AcDbArc
 50
346.8762477694
 51
0.0
  0
ARC
  5
14B
330
122
100
AcDbEntity
  8
14086800_TOWEL_R
  6
Continuous
 62
     7
100
AcDbCircle
 10
403.0389224178
 20
367.3656743154
 30
0.0
 40
0.9999999999999957
100
AcDbArc
 50
32.4251674377
 51
110.7724246819
  0
ARC
  5
14C
330
122
100
AcDbEntity
  8
14086800_TOWEL_R
  6
Continuous
 62
     7
100
AcDbCircle
 10
403.0389224178
 20
341.6953813843
 30
0.0
 40
1.000000000000002
100
AcDbArc
 50
249.2275753181
 51
327.5748325623
  0
ARC
  5
14D
330
122
100
AcDbEntity
  8
14086800_TOWEL_R
  6
Continuous
 62
     7
100
AcDbCircle
 10
385.6805335702
 20
363.8746753971
 30
0.0
 40
0.4999999999999966
100
AcDbArc
 50
95.1765129594
 51
180.0
  0
ARC
  5
14E
330
122
100
AcDbEntity
  8
14086800_TOWEL_R
  6
Continuous
 62
     7
100
AcDbCircle
 10
385.6805335702
 20
345.1863803026
 30
0.0
 40
0.5000000000000004
100
AcDbArc
 50
180.0
 51
264.8234870406
  0
ARC
  5
14F
330
122
100
AcDbEntity
  8
14086800_TOWEL_R
  6
Continuous
 62
     7
100
AcDbCircle
 10
382.4675346567
 20
354.7630598525
 30
0.0
 40
25.37101177561874
100
AcDbArc
 50
327.5748325623
 51
338.2689886123
  0
ARC
  5
150
330
122
100
AcDbEntity
  8
14086800_TOWEL_R
  6
Continuous
 62
     7
100
AcDbCircle
 10
382.4675346567
 20
354.2979958471
 30
0.0
 40
25.37101177561876
100
AcDbArc
 50
21.7310113877
 51
32.4251674377
  0
ARC
  5
151
330
122
100
AcDbEntity
  8
14086800_TOWEL_R
  6
Continuous
 62
     7
100
AcDbCircle
 10
405.7568075323
 20
363.5805278498
 30
0.0
 40
0.2999999999999947
100
AcDbArc
 50
0.0
 51
21.7310113877
  0
ARC
  5
152
330
122
100
AcDbEntity
  8
14086800_TOWEL_R
  6
Continuous
 62
     7
100
AcDbCircle
 10
405.7568075323
 20
345.4805278498
 30
0.0
 40
0.300000000000009
100
AcDbArc
 50
338.2689886123
 51
0.0
  0
LINE
  5
153
330
122
100
AcDbEntity
  8
14086800_TOWEL_R
  6
Continuous
 62
     7
100
AcDbLine
 10
406.0568075323
 20
345.4805278498
 30
0.0
 11
406.0568075323
 21
363.5805278498
 31
0.0
  0
ARC
  5
154
330
122
100
AcDbEntity
  8
14086800_TOWEL_R
  6
Continuous
 62
     7
100
AcDbCircle
 10
379.8183619632
 20
428.5829677604
 30
0.0
 40
64.4732880231175
100
AcDbArc
 50
275.1765129594
 51
290.7724246819
  0
ARC
  5
155
330
122
100
AcDbEntity
  8
14086800_TOWEL_R
  6
Continuous
 62
     7
100
AcDbCircle
 10
379.8183619632
 20
280.4780879392
 30
0.0
 40
64.47328802311746
100
AcDbArc
 50
81.669138448
 51
84.8234870406
  0
ARC
  5
156
330
122
100
AcDbEntity
  8
14086800_TOWEL_R
  6
Continuous
 62
     7
100
AcDbCircle
 10
379.8183619632
 20
280.4780879392
 30
0.0
 40
64.47328802311746
100
AcDbArc
 50
69.2275753181
 51
72.5428672919
  0
LINE
  5
157
330
122
100
AcDbEntity
  8
12086000_CAP_-_P
  6
Continuous
 62
     7
100
AcDbLine
 10
407.4028070013
 20
349.4670454585
 30
0.0
 11
406.5940288488
 21
346.2438823339
 31
0.0
  0
ELLIPSE
  5
158
330
122
100
AcDbEntity
  8
12086000_CAP_-_P
  6
Continuous
 62
     7
100
AcDbEllipse
 10
406.9225597325
 20
359.4333343321
 30
0.0
 11
0.0
 21
0.5
 31
0.0
210
0.0
220
0.0
230
1.0
 40
1.0
 41
-1.570796326794897
 42
-1.247933971523788
  0
ELLIPSE
  5
159
330
122
100
AcDbEntity
  8
12086000_CAP_-_P
  6
Continuous
 62
     7
100
AcDbEllipse
 10
406.9225597325
 20
349.6277213676
 30
0.0
 11
-4.187455329873268E-15
 21
-0.5773502691896191
 31
0.0
210
0.0
220
0.0
230
1.0
 40
0.8660254038
 41
1.28877380453552
 42
1.570796326794903
  0
LINE
  5
15A
330
122
100
AcDbEntity
  8
12086000_CAP_-_P
  6
Continuous
 62
     7
100
AcDbLine
 10
407.4225597325
 20
349.6277213676
 30
0.0
 11
407.4225597325
 21
352.0791246087
 31
0.0
  0
ELLIPSE
  5
15B
330
122
100
AcDbEntity
  8
12086000_CAP_-_P
  6
Continuous
 62
     7
100
AcDbEllipse
 10
406.9225597325
 20
352.0791246087
 30
0.0
 11
0.5000000000007221
 21
-8.196568423990414E-14
 31
0.0
210
0.0
220
0.0
230
1.0
 40
0.5773502692
 41
6.00116278492032
 42
6.283185307179586
  0
LINE
  5
15C
330
122
100
AcDbEntity
  8
12086000_CAP_-_P
  6
Continuous
 62
     7
100
AcDbLine
 10
407.4225597325
 20
352.0791246087
 30
0.0
 11
407.4225597325
 21
356.981931091
 31
0.0
  0
ELLIPSE
  5
15D
330
122
100
AcDbEntity
  8
12086000_CAP_-_P
  6
Continuous
 62
     7
100
AcDbEllipse
 10
406.9225597325
 20
356.981931091
 30
0.0
 11
0.5000000000012911
 21
1.513546232789764E-13
 31
0.0
210
0.0
220
0.0
230
1.0
 40
0.5773502692
 41
0.0
 42
0.28202252225862
  0
LINE
  5
15E
330
122
100
AcDbEntity
  8
12086000_CAP_-_P
  6
Continuous
 62
     7
100
AcDbLine
 10
407.4225597325
 20
356.981931091
 30
0.0
 11
407.4225597325
 21
359.4333343321
 31
0.0
  0
LINE
  5
15F
330
122
100
AcDbEntity
  8
12086000_CAP_-_P
  6
Continuous
 62
     7
100
AcDbLine
 10
406.5940288488
 20
362.8171733657
 30
0.0
 11
407.4028070013
 21
359.5940102411
 31
0.0
  0
LINE
  5
160
330
122
100
AcDbEntity
  8
12086000_CAP_-_P
  6
Continuous
 62
     7
100
AcDbLine
 10
406.5940288488
 20
350.3872050919
 30
0.0
 11
407.4028070013
 21
351.9987866542
 31
0.0
  0
LINE
  5
161
330
122
100
AcDbEntity
  8
12086000_CAP_-_P
  6
Continuous
 62
     7
100
AcDbLine
 10
406.5940288488
 20
358.6738506078
 30
0.0
 11
407.4028070013
 21
357.0622690455
 31
0.0
  0
SPLINE
  5
162
330
122
100
AcDbEntity
  8
12086000_CAP_-_P
  6
Continuous
 62
     7
100
AcDbSpline
210
0.0
220
0.0
230
1.0
 70
     8
 71
     3
 72
    10
 73
     6
 74
     0
 42
0.0000000183253848
 43
0.0000000001
 40
0.0
 40
0.0
 40
0.0
 40
0.0
 40
0.5
 40
0.5
 40
1.0
 40
1.0
 40
1.0
 40
1.0
 10
406.5940288488132
 20
350.3872050918899
 30
0.0
 10
406.567036666794
 20
350.3334201290608
 30
0.0
 10
406.5047214069693
 20
350.2857324081331
 30
0.0
 10
406.3308279727742
 20
350.2173397147551
 30
0.0
 10
406.221614615368
 20
350.1982134023594
 30
0.0
 10
406.1123092700216
 20
350.1972594363825
 30
0.0
  0
SPLINE
  5
163
330
122
100
AcDbEntity
  8
12086000_CAP_-_P
  6
Continuous
 62
     7
100
AcDbSpline
210
0.0
220
0.0
230
1.0
 70
     8
 71
     3
 72
    10
 73
     6
 74
     0
 42
0.0000000183253848
 43
0.0000000001
 40
0.0
 40
0.0
 40
0.0
 40
0.0
 40
0.5
 40
0.5
 40
1.0
 40
1.0
 40
1.0
 40
1.0
 10
406.1123092700215
 20
358.8637962632814
 30
0.0
 10
406.2216146153679
 20
358.8628422973244
 30
0.0
 10
406.3308279727742
 20
358.8437159849088
 30
0.0
 10
406.5047214069693
 20
358.7753232915308
 30
0.0
 10
406.567036666794
 20
358.7276355706035
 30
0.0
 10
406.5940288488132
 20
358.6738506077743
 30
0.0
  0
SPLINE
  5
164
330
122
100
AcDbEntity
  8
12086000_CAP_-_P
  6
Continuous
 62
     7
100
AcDbSpline
210
0.0
220
0.0
230
1.0
 70
     8
 71
     3
 72
    10
 73
     6
 74
     0
 42
0.0000000149005003
 43
0.0000000001
 40
0.0
 40
0.0
 40
0.0
 40
0.0
 40
0.5
 40
0.5
 40
1.0
 40
1.0
 40
1.0
 40
1.0
 10
406.5940288488131
 20
346.2438823339476
 30
0.0
 10
406.5670366667939
 20
346.1363124082894
 30
0.0
 10
406.5047214069692
 20
346.0409369664338
 30
0.0
 10
406.3308279727742
 20
345.9041515796776
 30
0.0
 10
406.2216146153679
 20
345.8658989548327
 30
0.0
 10
406.1123092700215
 20
345.8639910229326
 30
0.0
  0
SPLINE
  5
165
330
122
100
AcDbEntity
  8
12086000_CAP_-_P
  6
Continuous
 62
     7
100
AcDbSpline
210
0.0
220
0.0
230
1.0
 70
     8
 71
     3
 72
    10
 73
     6
 74
     0
 42
0.0000000149005003
 43
0.0000000001
 40
0.0
 40
0.0
 40
0.0
 40
0.0
 40
0.5
 40
0.5
 40
1.0
 40
1.0
 40
1.0
 40
1.0
 10
406.1123092700214
 20
363.1970646767317
 30
0.0
 10
406.2216146153678
 20
363.1951567448317
 30
0.0
 10
406.330827972774
 20
363.1569041199868
 30
0.0
 10
406.5047214069692
 20
363.0201187332306
 30
0.0
 10
406.567036666794
 20
362.924743291375
 30
0.0
 10
406.5940288488131
 20
362.8171733657167
 30
0.0
  0
LINE
  5
166
330
122
100
AcDbEntity
  8
12086000_CAP_-_P
  6
Continuous
 62
     7
100
AcDbLine
 10
406.0568075323
 20
345.8630222365
 30
0.0
 11
406.11230927
 21
345.8639910229
 31
0.0
  0
LINE
  5
167
330
122
100
AcDbEntity
  8
12086000_CAP_-_P
  6
Continuous
 62
     7
100
AcDbLine
 10
406.11230927
 20
363.1970646767
 30
0.0
 11
406.0568075323
 21
363.1980334632
 31
0.0
  0
ARC
  5
169
330
122
100
AcDbEntity
  8
T02083013__PLAST
  6
Continuous
 62
     7
100
AcDbCircle
 10
394.1598434065
 20
354.5305278498
 30
0.0
 40
5.125
100
AcDbArc
 50
0.0
 51
192.6803834918
  0
ARC
  5
16A
330
122
100
AcDbEntity
  8
T02083013__PLAST
  6
Continuous
 62
     7
100
AcDbCircle
 10
394.1598434065
 20
354.5305278498
 30
0.0
 40
5.125
100
AcDbArc
 50
347.3196165082
 51
0.0
  0
ARC
  5
16B
330
122
100
AcDbEntity
  8
T14085080_201846
  6
Continuous
 62
     7
100
AcDbCircle
 10
394.1598434064
 20
164.736257091
 30
0.0
 40
5.000000000000004
100
AcDbArc
 50
180.0
 51
360.0
  0
LINE
  5
16C
330
122
100
AcDbEntity
  8
T14085080_201846
  6
Continuous
 62
     7
100
AcDbLine
 10
389.1598434064
 20
354.5310383531
 30
0.0
 11
389.1598434064
 21
164.736257091
 31
0.0
  0
LINE
  5
16D
330
122
100
AcDbEntity
  8
T14085080_201846
  6
Continuous
 62
     7
100
AcDbLine
 10
399.1598434064
 20
164.736257091
 30
0.0
 11
399.1598434065
 21
354.5309222057
 31
0.0
  0
ENDBLK
  5
16F
330
122
100
AcDbEntity
  8
0
100
AcDbBlockEnd
  0
ENDSEC
  0
SECTION
  2
ENTITIES
  0
INSERT
  5
5F
330
1F
100
AcDbEntity
  8
Default
100
AcDbBlockReference
  2
SEANNOT_GROUP
 10
0.0
 20
0.0
 30
0.0
  0
INSERT
  5
66
330
1F
100
AcDbEntity
  8
Default
100
AcDbBlockReference
  2
SEANNOT_GROUP1
 10
0.0
 20
0.0
 30
0.0
  0
INSERT
  5
70
330
1F
100
AcDbEntity
  8
Default
100
AcDbBlockReference
  2
SEANNOT_GROUP2
 10
0.0
 20
0.0
 30
0.0
  0
INSERT
  5
76
330
1F
100
AcDbEntity
  8
Default
100
AcDbBlockReference
  2
SE
 10
0.0
 20
0.0
 30
0.0
  0
INSERT
  5
D0
330
1F
100
AcDbEntity
  8
Default
100
AcDbBlockReference
  2
SE1
 10
0.0
 20
0.0
 30
0.0
  0
INSERT
  5
123
330
1F
100
AcDbEntity
  8
Default
100
AcDbBlockReference
  2
SE2
 10
0.0
 20
0.0
 30
0.0
  0
TEXT
  5
171
330
1F
100
AcDbEntity
  8
Default
  6
Continuous
 62
     7
100
AcDbText
 10
5.9362635081
 20
53.4225120485
 30
0.0
 40
10.0
  1
Grohe AG^J
  7
SEACAD_seiso_ttf
 11
5.9362635081
 21
63.4225120485
 31
0.0
100
AcDbText
 73
     3
  0
TEXT
  5
172
330
1F
100
AcDbEntity
  8
Default
  6
Continuous
 62
     7
100
AcDbText
 10
5.9362635081
 20
37.0588756849
 30
0.0
 40
10.0
  1
 
  7
SEACAD_seiso_ttf
 11
5.9362635081
 21
47.0588756849
 31
0.0
100
AcDbText
 73
     3
  0
TEXT
  5
173
330
1F
100
AcDbEntity
  8
Default
  6
Continuous
 62
     7
100
AcDbText
 10
5.9362635081
 20
20.6952393213
 30
0.0
 40
10.0
  1
ecn: 
  7
SEACAD_seiso_ttf
 11
5.9362635081
 21
30.6952393213
 31
0.0
100
AcDbText
 73
     3
  0
TEXT
  5
174
330
1F
100
AcDbEntity
  8
Default
  6
Continuous
 62
     7
100
AcDbText
 10
5.9362635081
 20
4.3316029576
 30
0.0
 40
10.0
  1
unit: mm
  7
SEACAD_seiso_ttf
 11
5.9362635081
 21
14.3316029576
 31
0.0
100
AcDbText
 73
     3
  0
LINE
  5
175
330
1F
100
AcDbEntity
  8
Default
  6
Continuous
 62
     7
100
AcDbLine
 10
0.0
 20
0.0
 30
0.0
 11
100.0
 21
0.0
 31
0.0
  0
LINE
  5
176
330
1F
100
AcDbEntity
  8
Default
  6
Continuous
 62
     7
100
AcDbLine
 10
0.0
 20
0.0
 30
0.0
 11
0.0
 21
100.0
 31
0.0
  0
TEXT
  5
177
330
1F
100
AcDbEntity
  8
Default
  6
Continuous
 62
     7
100
AcDbText
 10
24.3923665681
 20
-18.2375342018
 30
0.0
 40
10.0
  1
100 mm
  7
SEACAD_seiso_ttf
 11
24.3923665681
 21
-8.2375342018
 31
0.0
100
AcDbText
 73
     3
  0
TEXT
  5
178
330
1F
100
AcDbEntity
  8
Default
  6
Continuous
 62
     7
100
AcDbText
 10
-7.6150308803
 20
24.6231930421
 30
0.0
 40
10.0
  1
100 mm
 50
90.0
  7
SEACAD_seiso_ttf
 11
-17.6150308803
 21
24.6231930421
 31
0.0
100
AcDbText
 73
     3
  0
TEXT
  5
179
330
1F
100
AcDbEntity
  8
Default
  6
Continuous
 62
     7
100
AcDbText
 10
28.4878128572
 20
20.0907663715
 30
0.0
 40
10.0
  1
201846
  7
SEACAD_seiso_ttf
 11
28.4878128572
 21
30.0907663715
 31
0.0
100
AcDbText
 73
     3
  0
TEXT
  5
17A
330
1F
100
AcDbEntity
  8
Default
  6
Continuous
 62
     7
100
AcDbText
 10
5.9012241913
 20
36.7242780188
 30
0.0
 40
10.0
  1
40222000
  7
SEACAD_seiso_ttf
 11
5.9012241913
 21
46.7242780188
 31
0.0
100
AcDbText
 73
     3
  0
ENDSEC
  0
SECTION
  2
OBJECTS
  0
DICTIONARY
  5
C
330
0
100
AcDbDictionary
281
     1
  3
ACAD_GROUP
350
D
  3
ACAD_LAYOUT
350
1A
  3
ACAD_MLEADERSTYLE
350
17E
  3
ACAD_MLINESTYLE
350
17
  3
ACAD_PLOTSETTINGS
350
19
  3
ACAD_PLOTSTYLENAME
350
E
  3
ACAD_SCALELIST
350
3B
  3
ACAD_TABLESTYLE
350
17D
  3
ACAD_VISUALSTYLE
350
2A
  3
AcDbVariableDictionary
350
17B
  0
DICTIONARY
  5
D
102
{ACAD_REACTORS
330
C
102
}
330
C
100
AcDbDictionary
281
     1
  0
DICTIONARY
  5
1A
102
{ACAD_REACTORS
330
C
102
}
330
C
100
AcDbDictionary
281
     1
  3
Layout1
350
1E
  3
Model
350
22
  0
DICTIONARY
  5
17E
102
{ACAD_REACTORS
330
C
102
}
330
C
100
AcDbDictionary
281
     1
  0
DICTIONARY
  5
17
102
{ACAD_REACTORS
330
C
102
}
330
C
100
AcDbDictionary
281
     1
  3
Standard
350
18
  0
DICTIONARY
  5
19
102
{ACAD_REACTORS
330
C
102
}
330
C
100
AcDbDictionary
281
     1
  0
ACDBDICTIONARYWDFLT
  5
E
102
{ACAD_REACTORS
330
C
102
}
330
C
100
AcDbDictionary
281
     1
  3
Normal
350
F
100
AcDbDictionaryWithDefault
340
F
  0
DICTIONARY
  5
3B
102
{ACAD_REACTORS
330
C
102
}
330
C
100
AcDbDictionary
281
     1
  3
A0
350
3C
  3
A1
350
3D
  3
A2
350
3E
  3
A3
350
3F
  3
A4
350
40
  3
A5
350
41
  3
A6
350
42
  3
A7
350
43
  3
A8
350
44
  3
A9
350
45
  3
B0
350
46
  3
B1
350
47
  3
B2
350
48
  3
B3
350
49
  3
B4
350
4A
  3
B5
350
4B
  3
B6
350
4C
  3
B7
350
4D
  3
B8
350
4E
  3
B9
350
4F
  3
C0
350
50
  3
C1
350
51
  3
C2
350
52
  3
C3
350
53
  3
C4
350
54
  3
C5
350
55
  3
C6
350
56
  3
C7
350
57
  3
C8
350
58
  3
C9
350
59
  3
D0
350
5A
  3
D1
350
5B
  3
D2
350
5C
  0
DICTIONARY
  5
17D
102
{ACAD_REACTORS
330
C
102
}
330
C
100
AcDbDictionary
281
     1
  0
DICTIONARY
  5
2A
102
{ACAD_REACTORS
330
C
102
}
330
C
100
AcDbDictionary
281
     1
  3
2dWireframe
350
2F
  3
3D Hidden
350
31
  3
3dWireframe
350
30
  3
Basic
350
32
  3
Brighten
350
36
  3
ColorChange
350
3A
  3
Conceptual
350
34
  3
Dim
350
35
  3
Facepattern
350
39
  3
Flat
350
2B
  3
FlatWithEdges
350
2C
  3
Gouraud
350
2D
  3
GouraudWithEdges
350
2E
  3
Linepattern
350
38
  3
Realistic
350
33
  3
Thicken
350
37
  0
DICTIONARY
  5
17B
102
{ACAD_REACTORS
330
C
102
}
330
C
100
AcDbDictionary
281
     1
  3
CANNOSCALE
350
17C
  3
PSOLHEIGHT
350
180
  3
PSOLWIDTH
350
17F
  0
LAYOUT
  5
1E
102
{ACAD_REACTORS
330
1A
102
}
330
1A
100
AcDbPlotSettings
  1

  2
none_device
  4

  6

 40
0.0
 41
0.0
 42
0.0
 43
0.0
 44
0.0
 45
0.0
 46
0.0
 47
0.0
 48
0.0
 49
0.0
140
0.0
141
0.0
142
1.0
143
1.0
 70
   688
 72
     0
 73
     0
 74
     5
  7

 75
    16
147
1.0
148
0.0
149
0.0
100
AcDbLayout
  1
Layout1
 70
     1
 71
     1
 10
0.0
 20
0.0
 11
1682.0
 21
2378.0
 12
0.0
 22
0.0
 32
0.0
 14
0.0
 24
0.0
 34
0.0
 15
1682.0
 25
2378.0
 35
0.0
146
0.0
 13
0.0
 23
0.0
 33
0.0
 16
1.0
 26
0.0
 36
0.0
 17
0.0
 27
1.0
 37
0.0
 76
     0
330
1B
  0
LAYOUT
  5
22
102
{ACAD_REACTORS
330
1A
102
}
330
1A
100
AcDbPlotSettings
  1

  2
none_device
  4

  6

 40
0.0
 41
0.0
 42
0.0
 43
0.0
 44
0.0
 45
0.0
 46
0.0
 47
0.0
 48
0.0
 49
0.0
140
0.0
141
0.0
142
1.0
143
1.0
 70
  1712
 72
     0
 73
     0
 74
     0
  7

 75
     0
147
1.0
148
0.0
149
0.0
100
AcDbLayout
  1
Model
 70
     1
 71
     0
 10
0.0
 20
0.0
 11
1682.0
 21
2378.0
 12
0.0
 22
0.0
 32
0.0
 14
0.0
 24
0.0
 34
0.0
 15
1682.0
 25
2378.0
 35
0.0
146
0.0
 13
0.0
 23
0.0
 33
0.0
 16
1.0
 26
0.0
 36
0.0
 17
0.0
 27
1.0
 37
0.0
 76
     0
330
1F
331
29
  0
MLINESTYLE
  5
18
102
{ACAD_REACTORS
330
17
102
}
330
17
100
AcDbMlineStyle
  2
Standard
 70
     0
  3

 62
   256
 51
90.0
 52
90.0
 71
     2
 49
0.5
 62
   256
  6
BYLAYER
 49
-0.5
 62
   256
  6
BYLAYER
  0
ACDBPLACEHOLDER
  5
F
102
{ACAD_REACTORS
330
E
102
}
330
E
  0
SCALE
  5
3C
102
{ACAD_REACTORS
330
3B
102
}
330
3B
100
AcDbScale
 70
     0
300
1:1
140
1.0
141
1.0
290
     1
  0
SCALE
  5
3D
102
{ACAD_REACTORS
330
3B
102
}
330
3B
100
AcDbScale
 70
     0
300
1:2
140
1.0
141
2.0
290
     0
  0
SCALE
  5
3E
102
{ACAD_REACTORS
330
3B
102
}
330
3B
100
AcDbScale
 70
     0
300
1:4
140
1.0
141
4.0
290
     0
  0
SCALE
  5
3F
102
{ACAD_REACTORS
330
3B
102
}
330
3B
100
AcDbScale
 70
     0
300
1:5
140
1.0
141
5.0
290
     0
  0
SCALE
  5
40
102
{ACAD_REACTORS
330
3B
102
}
330
3B
100
AcDbScale
 70
     0
300
1:8
140
1.0
141
8.0
290
     0
  0
SCALE
  5
41
102
{ACAD_REACTORS
330
3B
102
}
330
3B
100
AcDbScale
 70
     0
300
1:10
140
1.0
141
10.0
290
     0
  0
SCALE
  5
42
102
{ACAD_REACTORS
330
3B
102
}
330
3B
100
AcDbScale
 70
     0
300
1:16
140
1.0
141
16.0
290
     0
  0
SCALE
  5
43
102
{ACAD_REACTORS
330
3B
102
}
330
3B
100
AcDbScale
 70
     0
300
1:20
140
1.0
141
20.0
290
     0
  0
SCALE
  5
44
102
{ACAD_REACTORS
330
3B
102
}
330
3B
100
AcDbScale
 70
     0
300
1:30
140
1.0
141
30.0
290
     0
  0
SCALE
  5
45
102
{ACAD_REACTORS
330
3B
102
}
330
3B
100
AcDbScale
 70
     0
300
1:40
140
1.0
141
40.0
290
     0
  0
SCALE
  5
46
102
{ACAD_REACTORS
330
3B
102
}
330
3B
100
AcDbScale
 70
     0
300
1:50
140
1.0
141
50.0
290
     0
  0
SCALE
  5
47
102
{ACAD_REACTORS
330
3B
102
}
330
3B
100
AcDbScale
 70
     0
300
1:100
140
1.0
141
100.0
290
     0
  0
SCALE
  5
48
102
{ACAD_REACTORS
330
3B
102
}
330
3B
100
AcDbScale
 70
     0
300
2:1
140
2.0
141
1.0
290
     0
  0
SCALE
  5
49
102
{ACAD_REACTORS
330
3B
102
}
330
3B
100
AcDbScale
 70
     0
300
4:1
140
4.0
141
1.0
290
     0
  0
SCALE
  5
4A
102
{ACAD_REACTORS
330
3B
102
}
330
3B
100
AcDbScale
 70
     0
300
8:1
140
8.0
141
1.0
290
     0
  0
SCALE
  5
4B
102
{ACAD_REACTORS
330
3B
102
}
330
3B
100
AcDbScale
 70
     0
300
10:1
140
10.0
141
1.0
290
     0
  0
SCALE
  5
4C
102
{ACAD_REACTORS
330
3B
102
}
330
3B
100
AcDbScale
 70
     0
300
100:1
140
100.0
141
1.0
290
     0
  0
SCALE
  5
4D
102
{ACAD_REACTORS
330
3B
102
}
330
3B
100
AcDbScale
 70
     0
300
1/128" = 1'-0"
140
0.0078125
141
12.0
290
     0
  0
SCALE
  5
4E
102
{ACAD_REACTORS
330
3B
102
}
330
3B
100
AcDbScale
 70
     0
300
1/64" = 1'-0"
140
0.015625
141
12.0
290
     0
  0
SCALE
  5
4F
102
{ACAD_REACTORS
330
3B
102
}
330
3B
100
AcDbScale
 70
     0
300
1/32" = 1'-0"
140
0.03125
141
12.0
290
     0
  0
SCALE
  5
50
102
{ACAD_REACTORS
330
3B
102
}
330
3B
100
AcDbScale
 70
     0
300
1/16" = 1'-0"
140
0.0625
141
12.0
290
     0
  0
SCALE
  5
51
102
{ACAD_REACTORS
330
3B
102
}
330
3B
100
AcDbScale
 70
     0
300
3/32" = 1'-0"
140
0.09375
141
12.0
290
     0
  0
SCALE
  5
52
102
{ACAD_REACTORS
330
3B
102
}
330
3B
100
AcDbScale
 70
     0
300
1/8" = 1'-0"
140
0.125
141
12.0
290
     0
  0
SCALE
  5
53
102
{ACAD_REACTORS
330
3B
102
}
330
3B
100
AcDbScale
 70
     0
300
3/16" = 1'-0"
140
0.1875
141
12.0
290
     0
  0
SCALE
  5
54
102
{ACAD_REACTORS
330
3B
102
}
330
3B
100
AcDbScale
 70
     0
300
1/4" = 1'-0"
140
0.25
141
12.0
290
     0
  0
SCALE
  5
55
102
{ACAD_REACTORS
330
3B
102
}
330
3B
100
AcDbScale
 70
     0
300
3/8" = 1'-0"
140
0.375
141
12.0
290
     0
  0
SCALE
  5
56
102
{ACAD_REACTORS
330
3B
102
}
330
3B
100
AcDbScale
 70
     0
300
1/2" = 1'-0"
140
0.5
141
12.0
290
     0
  0
SCALE
  5
57
102
{ACAD_REACTORS
330
3B
102
}
330
3B
100
AcDbScale
 70
     0
300
3/4" = 1'-0"
140
0.75
141
12.0
290
     0
  0
SCALE
  5
58
102
{ACAD_REACTORS
330
3B
102
}
330
3B
100
AcDbScale
 70
     0
300
1" = 1'-0"
140
1.0
141
12.0
290
     0
  0
SCALE
  5
59
102
{ACAD_REACTORS
330
3B
102
}
330
3B
100
AcDbScale
 70
     0
300
1-1/2" = 1'-0"
140
1.5
141
12.0
290
     0
  0
SCALE
  5
5A
102
{ACAD_REACTORS
330
3B
102
}
330
3B
100
AcDbScale
 70
     0
300
3" = 1'-0"
140
3.0
141
12.0
290
     0
  0
SCALE
  5
5B
102
{ACAD_REACTORS
330
3B
102
}
330
3B
100
AcDbScale
 70
     0
300
6" = 1'-0"
140
6.0
141
12.0
290
     0
  0
SCALE
  5
5C
102
{ACAD_REACTORS
330
3B
102
}
330
3B
100
AcDbScale
 70
     0
300
1'-0" = 1'-0"
140
12.0
141
12.0
290
     0
  0
VISUALSTYLE
  5
2F
102
{ACAD_REACTORS
330
2A
102
}
330
2A
100
AcDbVisualStyle
  2
2dWireframe
 70
     4
 71
     0
 72
     2
 73
     0
 90
        0
 40
-0.6
 41
-30.0
 62
     5
 63
     7
 74
     1
 91
        4
 64
     7
 65
   257
 75
     1
175
     1
 42
1.0
 92
        0
 66
   257
 43
1.0
 76
     1
 77
     6
 78
     2
 67
     7
 79
     5
170
     0
171
     0
290
     0
174
     0
 93
        1
 44
0.0
173
     0
291
     0
 45
0.0
1001
ACAD
1000
AcDbSavedByObjectVersion
1070
     0
  0
VISUALSTYLE
  5
31
102
{ACAD_REACTORS
330
2A
102
}
330
2A
100
AcDbVisualStyle
  2
3D Hidden
 70
     6
 71
     1
 72
     2
 73
     2
 90
        0
 40
-0.6
 41
-30.0
 62
     5
 63
     7
 74
     2
 91
        2
 64
     7
 65
   257
 75
     2
175
     1
 42
40.0
 92
        0
 66
   257
 43
1.0
 76
     1
 77
     6
 78
     2
 67
     7
 79
     3
170
     0
171
     0
290
     0
174
     0
 93
        1
 44
0.0
173
     0
291
     0
 45
0.0
1001
ACAD
1000
AcDbSavedByObjectVersion
1070
     0
  0
VISUALSTYLE
  5
30
102
{ACAD_REACTORS
330
2A
102
}
330
2A
100
AcDbVisualStyle
  2
3dWireframe
 70
     5
 71
     0
 72
     2
 73
     0
 90
        0
 40
-0.6
 41
-30.0
 62
     5
 63
     7
 74
     1
 91
        4
 64
     7
 65
   257
 75
     1
175
     1
 42
1.0
 92
        0
 66
   257
 43
1.0
 76
     1
 77
     6
 78
     2
 67
     7
 79
     5
170
     0
171
     0
290
     0
174
     0
 93
        1
 44
0.0
173
     0
291
     0
 45
0.0
1001
ACAD
1000
AcDbSavedByObjectVersion
1070
     0
  0
VISUALSTYLE
  5
32
102
{ACAD_REACTORS
330
2A
102
}
330
2A
100
AcDbVisualStyle
  2
Basic
 70
     7
 71
     1
 72
     0
 73
     1
 90
        0
 40
-0.6
 41
-30.0
 62
     5
 63
     7
 74
     0
 91
        4
 64
     7
 65
   257
 75
     1
175
     1
 42
1.0
 92
        8
 66
     7
 43
1.0
 76
     1
 77
     6
 78
     2
 67
     7
 79
     5
170
     0
171
     0
290
     0
174
     0
 93
        1
 44
0.0
173
     0
291
     1
 45
0.0
1001
ACAD
1000
AcDbSavedByObjectVersion
1070
     0
  0
VISUALSTYLE
  5
36
102
{ACAD_REACTORS
330
2A
102
}
330
2A
100
AcDbVisualStyle
  2
Brighten
 70
    12
 71
     2
 72
     2
 73
     0
 90
        0
 40
-0.6
 41
-30.0
 62
     5
 63
     7
 74
     1
 91
        4
 64
     7
 65
   257
 75
     1
175
     1
 42
1.0
 92
        8
 66
     7
 43
1.0
 76
     1
 77
     6
 78
     2
 67
     7
 79
     5
170
     0
171
     0
290
     0
174
     0
 93
        1
 44
50.0
173
     0
291
     1
 45
0.0
1001
ACAD
1000
AcDbSavedByObjectVersion
1070
     0
  0
VISUALSTYLE
  5
3A
102
{ACAD_REACTORS
330
2A
102
}
330
2A
100
AcDbVisualStyle
  2
ColorChange
 70
    16
 71
     2
 72
     2
 73
     3
 90
        0
 40
-0.6
 41
-30.0
 62
     5
 63
     8
 74
     1
 91
        4
 64
     7
 65
   257
 75
     1
175
     1
 42
1.0
 92
        8
 66
     8
 43
1.0
 76
     1
 77
     6
 78
     2
 67
     7
 79
     5
170
     0
171
     0
290
     0
174
     0
 93
        1
 44
0.0
173
     0
291
     1
 45
0.0
1001
ACAD
1000
AcDbSavedByObjectVersion
1070
     0
  0
VISUALSTYLE
  5
34
102
{ACAD_REACTORS
330
2A
102
}
330
2A
100
AcDbVisualStyle
  2
Conceptual
 70
     9
 71
     3
 72
     2
 73
     0
 90
        0
 40
-0.6
 41
-30.0
 62
     5
 63
     7
 74
     2
 91
        2
 64
     7
 65
   257
 75
     1
175
     1
 42
40.0
 92
        8
 66
     7
 43
1.0
 76
     1
 77
     6
 78
     2
 67
     7
 79
     3
170
     0
171
     0
290
     0
174
     0
 93
        1
 44
0.0
173
     0
291
     0
 45
0.0
1001
ACAD
1000
AcDbSavedByObjectVersion
1070
     0
  0
VISUALSTYLE
  5
35
102
{ACAD_REACTORS
330
2A
102
}
330
2A
100
AcDbVisualStyle
  2
Dim
 70
    11
 71
     2
 72
     2
 73
     0
 90
        0
 40
-0.6
 41
-30.0
 62
     5
 63
     7
 74
     1
 91
        4
 64
     7
 65
   257
 75
     1
175
     1
 42
1.0
 92
        8
 66
     7
 43
1.0
 76
     1
 77
     6
 78
     2
 67
     7
 79
     5
170
     0
171
     0
290
     0
174
     0
 93
        1
 44
-50.0
173
     0
291
     1
 45
0.0
1001
ACAD
1000
AcDbSavedByObjectVersion
1070
     0
  0
VISUALSTYLE
  5
39
102
{ACAD_REACTORS
330
2A
102
}
330
2A
100
AcDbVisualStyle
  2
Facepattern
 70
    15
 71
     2
 72
     2
 73
     0
 90
        0
 40
-0.6
 41
-30.0
 62
     5
 63
     7
 74
     1
 91
        4
 64
     7
 65
   257
 75
     1
175
     1
 42
1.0
 92
        8
 66
     7
 43
1.0
 76
     1
 77
     6
 78
     2
 67
     7
 79
     5
170
     0
171
     0
290
     0
174
     0
 93
        1
 44
0.0
173
     0
291
     1
 45
0.0
1001
ACAD
1000
AcDbSavedByObjectVersion
1070
     0
  0
VISUALSTYLE
  5
2B
102
{ACAD_REACTORS
330
2A
102
}
330
2A
100
AcDbVisualStyle
  2
Flat
 70
     0
 71
     2
 72
     1
 73
     1
 90
        2
 40
-0.6
 41
30.0
 62
     5
 63
     7
 74
     0
 91
        4
 64
     7
 65
   257
 75
     1
175
     1
 42
1.0
 92
        8
 66
     7
 43
1.0
 76
     1
 77
     6
 78
     2
 67
     7
 79
     5
170
     0
171
     0
290
     0
174
     0
 93
       13
 44
0.0
173
     0
291
     1
 45
0.0
1001
ACAD
1000
AcDbSavedByObjectVersion
1070
     0
  0
VISUALSTYLE
  5
2C
102
{ACAD_REACTORS
330
2A
102
}
330
2A
100
AcDbVisualStyle
  2
FlatWithEdges
 70
     1
 71
     2
 72
     1
 73
     1
 90
        2
 40
-0.6
 41
30.0
 62
     5
 63
     7
 74
     1
 91
        4
 64
     7
 65
   257
 75
     1
175
     1
 42
1.0
 92
        0
 66
   257
 43
1.0
 76
     1
 77
     6
 78
     2
 67
     7
 79
     5
170
     0
171
     0
290
     0
174
     0
 93
       13
 44
0.0
173
     0
291
     1
 45
0.0
1001
ACAD
1000
AcDbSavedByObjectVersion
1070
     0
  0
VISUALSTYLE
  5
2D
102
{ACAD_REACTORS
330
2A
102
}
330
2A
100
AcDbVisualStyle
  2
Gouraud
 70
     2
 71
     2
 72
     2
 73
     1
 90
        2
 40
-0.6
 41
30.0
 62
     5
 63
     7
 74
     0
 91
        4
 64
     7
 65
   257
 75
     1
175
     1
 42
1.0
 92
        0
 66
     7
 43
1.0
 76
     1
 77
     6
 78
     2
 67
     7
 79
     5
170
     0
171
     0
290
     0
174
     0
 93
       13
 44
0.0
173
     0
291
     1
 45
0.0
1001
ACAD
1000
AcDbSavedByObjectVersion
1070
     0
  0
VISUALSTYLE
  5
2E
102
{ACAD_REACTORS
330
2A
102
}
330
2A
100
AcDbVisualStyle
  2
GouraudWithEdges
 70
     3
 71
     2
 72
     2
 73
     1
 90
        2
 40
-0.6
 41
30.0
 62
     5
 63
     7
 74
     1
 91
        4
 64
     7
 65
   257
 75
     1
175
     1
 42
1.0
 92
        0
 66
   257
 43
1.0
 76
     1
 77
     6
 78
     2
 67
     7
 79
     5
170
     0
171
     0
290
     0
174
     0
 93
       13
 44
0.0
173
     0
291
     1
 45
0.0
1001
ACAD
1000
AcDbSavedByObjectVersion
1070
     0
  0
VISUALSTYLE
  5
38
102
{ACAD_REACTORS
330
2A
102
}
330
2A
100
AcDbVisualStyle
  2
Linepattern
 70
    14
 71
     2
 72
     2
 73
     0
 90
        0
 40
-0.6
 41
-30.0
 62
     5
 63
     7
 74
     1
 91
        4
 64
     7
 65
   257
 75
     7
175
     7
 42
1.0
 92
        8
 66
     7
 43
1.0
 76
     1
 77
     6
 78
     2
 67
     7
 79
     5
170
     0
171
     0
290
     0
174
     0
 93
        1
 44
0.0
173
     0
291
     1
 45
0.0
1001
ACAD
1000
AcDbSavedByObjectVersion
1070
     0
  0
VISUALSTYLE
  5
33
102
{ACAD_REACTORS
330
2A
102
}
330
2A
100
AcDbVisualStyle
  2
Realistic
 70
     8
 71
     2
 72
     2
 73
     0
 90
        0
 40
-0.6
 41
-30.0
 62
     5
 63
     7
 74
     1
 91
        0
 64
     7
 65
   257
 75
     1
175
     1
 42
1.0
 92
        8
 66
     8
 43
1.0
 76
     1
 77
     6
 78
     2
 67
     7
 79
     5
170
     0
171
     0
290
     0
174
     0
 93
       13
 44
0.0
173
     0
291
     0
 45
0.0
1001
ACAD
1000
AcDbSavedByObjectVersion
1070
     0
  0
VISUALSTYLE
  5
37
102
{ACAD_REACTORS
330
2A
102
}
330
2A
100
AcDbVisualStyle
  2
Thicken
 70
    13
 71
     2
 72
     2
 73
     0
 90
        0
 40
-0.6
 41
-30.0
 62
     5
 63
     7
 74
     1
 91
        4
 64
     7
 65
   257
 75
     1
175
     1
 42
1.0
 92
       12
 66
     7
 43
1.0
 76
     1
 77
     6
 78
     2
 67
     7
 79
     5
170
     0
171
     0
290
     0
174
     0
 93
        1
 44
0.0
173
     0
291
     1
 45
0.0
1001
ACAD
1000
AcDbSavedByObjectVersion
1070
     0
  0
DICTIONARYVAR
  5
17C
102
{ACAD_REACTORS
330
17B
102
}
330
17B
100
DictionaryVariables
280
     0
  1
1:1
  0
DICTIONARYVAR
  5
180
102
{ACAD_REACTORS
330
17B
102
}
330
17B
100
DictionaryVariables
280
     0
  1
80.000000
  0
DICTIONARYVAR
  5
17F
102
{ACAD_REACTORS
330
17B
102
}
330
17B
100
DictionaryVariables
280
     0
  1
5.000000
  0
ENDSEC
  0
EOF
