  0
SECTION
  2
HEADER
  9
$ACADVER
  1
AC1015
  9
$ACADMAINTVER
 70
     6
  9
$DWGCODEPAGE
  3
ANSI_1252
  9
$INSBASE
 10
0.0
 20
0.0
 30
0.0
  9
$EXTMIN
 10
0.0
 20
0.0
 30
0.0
  9
$EXTMAX
 10
1682.0
 20
2378.0
 30
0.0
  9
$LIMMIN
 10
0.0
 20
0.0
  9
$LIMMAX
 10
1682.0
 20
2378.0
  9
$ORTHOMODE
 70
     0
  9
$REGENMODE
 70
     1
  9
$FILLMODE
 70
     1
  9
$QTEXTMODE
 70
     0
  9
$MIRRTEXT
 70
     1
  9
$LTSCALE
 40
1.0
  9
$ATTMODE
 70
     1
  9
$TEXTSIZE
 40
2.5
  9
$TRACEWID
 40
1.0
  9
$TEXTSTYLE
  7
Standard
  9
$CLAYER
  8
0
  9
$CELTYPE
  6
ByLayer
  9
$CECOLOR
 62
   256
  9
$CELTSCALE
 40
1.0
  9
$DISPSILH
 70
     0
  9
$DIMSCALE
 40
1.0
  9
$DIMASZ
 40
2.5
  9
$DIMEXO
 40
0.625
  9
$DIMDLI
 40
3.75
  9
$DIMRND
 40
0.0
  9
$DIMDLE
 40
0.0
  9
$DIMEXE
 40
1.25
  9
$DIMTP
 40
0.0
  9
$DIMTM
 40
0.0
  9
$DIMTXT
 40
2.5
  9
$DIMCEN
 40
2.5
  9
$DIMTSZ
 40
0.0
  9
$DIMTOL
 70
     0
  9
$DIMLIM
 70
     0
  9
$DIMTIH
 70
     0
  9
$DIMTOH
 70
     0
  9
$DIMSE1
 70
     0
  9
$DIMSE2
 70
     0
  9
$DIMTAD
 70
     1
  9
$DIMZIN
 70
     8
  9
$DIMBLK
  1

  9
$DIMASO
 70
     1
  9
$DIMSHO
 70
     1
  9
$DIMPOST
  1

  9
$DIMAPOST
  1

  9
$DIMALT
 70
     0
  9
$DIMALTD
 70
     3
  9
$DIMALTF
 40
0.0393700787
  9
$DIMLFAC
 40
1.0
  9
$DIMTOFL
 70
     1
  9
$DIMTVP
 40
0.0
  9
$DIMTIX
 70
     0
  9
$DIMSOXD
 70
     0
  9
$DIMSAH
 70
     0
  9
$DIMBLK1
  1

  9
$DIMBLK2
  1

  9
$DIMSTYLE
  2
ISO-25
  9
$DIMCLRD
 70
     0
  9
$DIMCLRE
 70
     0
  9
$DIMCLRT
 70
     0
  9
$DIMTFAC
 40
1.0
  9
$DIMGAP
 40
0.625
  9
$DIMJUST
 70
     0
  9
$DIMSD1
 70
     0
  9
$DIMSD2
 70
     0
  9
$DIMTOLJ
 70
     0
  9
$DIMTZIN
 70
     8
  9
$DIMALTZ
 70
     0
  9
$DIMALTTZ
 70
     0
  9
$DIMUPT
 70
     0
  9
$DIMDEC
 70
     2
  9
$DIMTDEC
 70
     2
  9
$DIMALTU
 70
     2
  9
$DIMALTTD
 70
     3
  9
$DIMTXSTY
  7
Standard
  9
$DIMAUNIT
 70
     0
  9
$DIMADEC
 70
     0
  9
$DIMALTRND
 40
0.0
  9
$DIMAZIN
 70
     0
  9
$DIMDSEP
 70
    44
  9
$DIMATFIT
 70
     3
  9
$DIMFRAC
 70
     0
  9
$DIMLDRBLK
  1

  9
$DIMLUNIT
 70
     2
  9
$DIMLWD
 70
    -2
  9
$DIMLWE
 70
    -2
  9
$DIMTMOVE
 70
     0
  9
$LUNITS
 70
     2
  9
$LUPREC
 70
     4
  9
$SKETCHINC
 40
1.0
  9
$FILLETRAD
 40
10.0
  9
$AUNITS
 70
     0
  9
$AUPREC
 70
     0
  9
$MENU
  1
.
  9
$ELEVATION
 40
0.0
  9
$PELEVATION
 40
0.0
  9
$THICKNESS
 40
0.0
  9
$LIMCHECK
 70
     0
  9
$CHAMFERA
 40
10.0
  9
$CHAMFERB
 40
10.0
  9
$CHAMFERC
 40
20.0
  9
$CHAMFERD
 40
0.0
  9
$SKPOLY
 70
     0
  9
$TDCREATE
 40
2455442.357510035
  9
$TDUCREATE
 40
2455442.274176701
  9
$TDUPDATE
 40
2455442.357510046
  9
$TDUUPDATE
 40
2455442.274176713
  9
$TDINDWG
 40
0.0000000116
  9
$TDUSRTIMER
 40
0.0000000116
  9
$USRTIMER
 70
     1
  9
$ANGBASE
 50
0.0
  9
$ANGDIR
 70
     0
  9
$PDMODE
 70
     0
  9
$PDSIZE
 40
0.0
  9
$PLINEWID
 40
0.0
  9
$SPLFRAME
 70
     0
  9
$SPLINETYPE
 70
     6
  9
$SPLINESEGS
 70
     8
  9
$HANDSEED
  5
CE
  9
$SURFTAB1
 70
     6
  9
$SURFTAB2
 70
     6
  9
$SURFTYPE
 70
     6
  9
$SURFU
 70
     6
  9
$SURFV
 70
     6
  9
$UCSBASE
  2

  9
$UCSNAME
  2

  9
$UCSORG
 10
0.0
 20
0.0
 30
0.0
  9
$UCSXDIR
 10
1.0
 20
0.0
 30
0.0
  9
$UCSYDIR
 10
0.0
 20
1.0
 30
0.0
  9
$UCSORTHOREF
  2

  9
$UCSORTHOVIEW
 70
     0
  9
$UCSORGTOP
 10
0.0
 20
0.0
 30
0.0
  9
$UCSORGBOTTOM
 10
0.0
 20
0.0
 30
0.0
  9
$UCSORGLEFT
 10
0.0
 20
0.0
 30
0.0
  9
$UCSORGRIGHT
 10
0.0
 20
0.0
 30
0.0
  9
$UCSORGFRONT
 10
0.0
 20
0.0
 30
0.0
  9
$UCSORGBACK
 10
0.0
 20
0.0
 30
0.0
  9
$PUCSBASE
  2

  9
$PUCSNAME
  2

  9
$PUCSORG
 10
0.0
 20
0.0
 30
0.0
  9
$PUCSXDIR
 10
1.0
 20
0.0
 30
0.0
  9
$PUCSYDIR
 10
0.0
 20
1.0
 30
0.0
  9
$PUCSORTHOREF
  2

  9
$PUCSORTHOVIEW
 70
     0
  9
$PUCSORGTOP
 10
0.0
 20
0.0
 30
0.0
  9
$PUCSORGBOTTOM
 10
0.0
 20
0.0
 30
0.0
  9
$PUCSORGLEFT
 10
0.0
 20
0.0
 30
0.0
  9
$PUCSORGRIGHT
 10
0.0
 20
0.0
 30
0.0
  9
$PUCSORGFRONT
 10
0.0
 20
0.0
 30
0.0
  9
$PUCSORGBACK
 10
0.0
 20
0.0
 30
0.0
  9
$USERI1
 70
     0
  9
$USERI2
 70
     0
  9
$USERI3
 70
     0
  9
$USERI4
 70
     0
  9
$USERI5
 70
     0
  9
$USERR1
 40
0.0
  9
$USERR2
 40
0.0
  9
$USERR3
 40
0.0
  9
$USERR4
 40
0.0
  9
$USERR5
 40
0.0
  9
$WORLDVIEW
 70
     1
  9
$SHADEDGE
 70
     3
  9
$SHADEDIF
 70
    70
  9
$TILEMODE
 70
     1
  9
$MAXACTVP
 70
    64
  9
$PINSBASE
 10
0.0
 20
0.0
 30
0.0
  9
$PLIMCHECK
 70
     0
  9
$PEXTMIN
 10
0.0
 20
0.0
 30
0.0
  9
$PEXTMAX
 10
1682.0
 20
2378.0
 30
0.0
  9
$PLIMMIN
 10
0.0
 20
0.0
  9
$PLIMMAX
 10
1682.0
 20
2378.0
  9
$UNITMODE
 70
     0
  9
$VISRETAIN
 70
     1
  9
$PLINEGEN
 70
     0
  9
$PSLTSCALE
 70
     1
  9
$TREEDEPTH
 70
  3020
  9
$CMLSTYLE
  2
Standard
  9
$CMLJUST
 70
     0
  9
$CMLSCALE
 40
20.0
  9
$PROXYGRAPHICS
 70
     1
  9
$MEASUREMENT
 70
     1
  9
$CELWEIGHT
370
    -1
  9
$ENDCAPS
280
     0
  9
$JOINSTYLE
280
     0
  9
$LWDISPLAY
290
     0
  9
$INSUNITS
 70
     4
  9
$HYPERLINKBASE
  1

  9
$STYLESHEET
  1

  9
$XEDIT
290
     1
  9
$CEPSNTYPE
380
     0
  9
$PSTYLEMODE
290
     1
  9
$FINGERPRINTGUID
  2
{5AF39649-4AC1-4530-AC3E-536889F81E42}
  9
$VERSIONGUID
  2
{FAEB1C32-E019-11D5-929B-00C0DF256EC4}
  9
$EXTNAMES
290
     1
  9
$PSVPSCALE
 40
0.0
  9
$OLESTARTUP
290
     0
  0
ENDSEC
  0
SECTION
  2
CLASSES
  0
CLASS
  1
ACDBDICTIONARYWDFLT
  2
AcDbDictionaryWithDefault
  3
ObjectDBX Classes
 90
        0
280
     0
281
     0
  0
CLASS
  1
VISUALSTYLE
  2
AcDbVisualStyle
  3
ObjectDBX Classes
 90
     4095
280
     0
281
     0
  0
CLASS
  1
SCALE
  2
AcDbScale
  3
ObjectDBX Classes
 90
     1153
280
     0
281
     0
  0
CLASS
  1
DICTIONARYVAR
  2
AcDbDictionaryVar
  3
ObjectDBX Classes
 90
        0
280
     0
281
     0
  0
CLASS
  1
ACDBPLACEHOLDER
  2
AcDbPlaceHolder
  3
ObjectDBX Classes
 90
        0
280
     0
281
     0
  0
CLASS
  1
LAYOUT
  2
AcDbLayout
  3
ObjectDBX Classes
 90
        0
280
     0
281
     0
  0
ENDSEC
  0
SECTION
  2
TABLES
  0
TABLE
  2
VPORT
  5
8
330
0
100
AcDbSymbolTable
 70
     1
  0
VPORT
  5
29
330
8
100
AcDbSymbolTableRecord
100
AcDbViewportTableRecord
  2
*Active
 70
     0
 10
0.0
 20
0.0
 11
1.0
 21
1.0
 12
344.1869158879
 22
148.5
 13
0.0
 23
0.0
 14
10.0
 24
10.0
 15
10.0
 25
10.0
 16
0.0
 26
0.0
 36
1.0
 17
0.0
 27
0.0
 37
0.0
 40
297.0
 41
1.9729729729
 42
50.0
 43
0.0
 44
0.0
 50
0.0
 51
0.0
 71
     0
 72
   100
 73
     1
 74
     3
 75
     0
 76
     0
 77
     0
 78
     0
281
     0
 65
     1
110
0.0
120
0.0
130
0.0
111
1.0
121
0.0
131
0.0
112
0.0
122
1.0
132
0.0
 79
     0
146
0.0
  0
ENDTAB
  0
TABLE
  2
LTYPE
  5
5
330
0
100
AcDbSymbolTable
 70
     2
  0
LTYPE
  5
14
330
5
100
AcDbSymbolTableRecord
100
AcDbLinetypeTableRecord
  2
ByBlock
 70
     0
  3

 72
    65
 73
     0
 40
0.0
  0
LTYPE
  5
15
330
5
100
AcDbSymbolTableRecord
100
AcDbLinetypeTableRecord
  2
ByLayer
 70
     0
  3

 72
    65
 73
     0
 40
0.0
  0
LTYPE
  5
16
330
5
100
AcDbSymbolTableRecord
100
AcDbLinetypeTableRecord
  2
Continuous
 70
     0
  3
Solid line
 72
    65
 73
     0
 40
0.0
  0
LTYPE
  5
60
330
5
100
AcDbSymbolTableRecord
100
AcDbLinetypeTableRecord
  2
CENTER2
 70
     0
  3
Center (.5x) ___ _ ___ _ ___ _ ___ _ ___ _ ___
 72
    65
 73
     4
 40
28.575
 49
19.05
 74
     4
 75
     0
340
0
 46
0.0
 50
0.0
 44
0.0
 45
0.0
 49
-3.175
 74
     4
 75
     0
340
0
 46
0.0
 50
0.0
 44
0.0
 45
0.0
 49
3.175
 74
     4
 75
     0
340
0
 46
0.0
 50
0.0
 44
0.0
 45
0.0
 49
-3.175
 74
     4
 75
     0
340
0
 46
0.0
 50
0.0
 44
0.0
 45
0.0
  0
ENDTAB
  0
TABLE
  2
LAYER
  5
2
330
0
100
AcDbSymbolTable
 70
     4
  0
LAYER
  5
10
330
2
100
AcDbSymbolTableRecord
100
AcDbLayerTableRecord
  2
0
 70
     0
 62
     7
  6
Continuous
370
    -3
390
F
  0
LAYER
  5
5D
330
2
100
AcDbSymbolTableRecord
100
AcDbLayerTableRecord
  2
Default
 70
     0
 62
     7
  6
Continuous
370
    -3
390
F
  0
LAYER
  5
77
330
2
100
AcDbSymbolTableRecord
100
AcDbLayerTableRecord
  2
$DDT_AUDIT_GENERATED_(77)
 70
     0
 62
     7
  6
Continuous
370
    -3
390
F
  0
LAYER
  5
B4
330
2
100
AcDbSymbolTableRecord
100
AcDbLayerTableRecord
  2
$DDT_AUDIT_GENERATED_(B4)
 70
     0
 62
     7
  6
Continuous
370
    -3
390
F
  0
ENDTAB
  0
TABLE
  2
STYLE
  5
3
330
0
100
AcDbSymbolTable
 70
     2
  0
STYLE
  5
11
330
3
100
AcDbSymbolTableRecord
100
AcDbTextStyleTableRecord
  2
Standard
 70
     0
 40
0.0
 41
1.0
 50
0.0
 71
     0
 42
2.5
  3
txt
  4

  0
STYLE
  5
BD
330
3
100
AcDbSymbolTableRecord
100
AcDbTextStyleTableRecord
  2
SEACAD_seiso_ttf
 70
     0
 40
0.0
 41
1.0
 50
0.0
 71
     0
 42
0.2
  3
seiso.ttf
  4

  0
ENDTAB
  0
TABLE
  2
VIEW
  5
6
330
0
100
AcDbSymbolTable
 70
     0
  0
ENDTAB
  0
TABLE
  2
UCS
  5
7
330
0
100
AcDbSymbolTable
 70
     0
  0
ENDTAB
  0
TABLE
  2
APPID
  5
9
330
0
100
AcDbSymbolTable
 70
     1
  0
APPID
  5
12
330
9
100
AcDbSymbolTableRecord
100
AcDbRegAppTableRecord
  2
ACAD
 70
     0
  0
ENDTAB
  0
TABLE
  2
DIMSTYLE
  5
A
330
0
100
AcDbSymbolTable
 70
     1
100
AcDbDimStyleTable
  0
DIMSTYLE
105
27
330
A
100
AcDbSymbolTableRecord
100
AcDbDimStyleTableRecord
  2
ISO-25
 70
     0
 41
2.5
 42
0.625
 43
3.75
 44
1.25
 73
     0
 74
     0
 77
     1
 78
     8
140
2.5
141
2.5
143
0.0393700787
147
0.625
171
     3
172
     1
271
     2
272
     2
274
     3
278
    44
283
     0
284
     8
340
11
  0
ENDTAB
  0
TABLE
  2
BLOCK_RECORD
  5
1
330
0
100
AcDbSymbolTable
 70
     7
  0
BLOCK_RECORD
  5
1F
330
1
100
AcDbSymbolTableRecord
100
AcDbBlockTableRecord
  2
*Model_Space
340
22
  0
BLOCK_RECORD
  5
1B
330
1
100
AcDbSymbolTableRecord
100
AcDbBlockTableRecord
  2
*Paper_Space
340
1E
  0
BLOCK_RECORD
  5
5E
330
1
100
AcDbSymbolTableRecord
100
AcDbBlockTableRecord
  2
SEANNOT_GROUP
340
0
102
{BLKREFS
331
5F
102
}
  0
BLOCK_RECORD
  5
69
330
1
100
AcDbSymbolTableRecord
100
AcDbBlockTableRecord
  2
SEANNOT_GROUP1
340
0
102
{BLKREFS
331
6A
102
}
  0
BLOCK_RECORD
  5
6F
330
1
100
AcDbSymbolTableRecord
100
AcDbBlockTableRecord
  2
SEANNOT_GROUP2
340
0
102
{BLKREFS
331
70
102
}
  0
BLOCK_RECORD
  5
75
330
1
100
AcDbSymbolTableRecord
100
AcDbBlockTableRecord
  2
SE
340
0
102
{BLKREFS
331
76
102
}
  0
BLOCK_RECORD
  5
8E
330
1
100
AcDbSymbolTableRecord
100
AcDbBlockTableRecord
  2
SE1
340
0
102
{BLKREFS
331
8F
102
}
  0
BLOCK_RECORD
  5
A6
330
1
100
AcDbSymbolTableRecord
100
AcDbBlockTableRecord
  2
SE2
340
0
102
{BLKREFS
331
A7
102
}
  0
ENDTAB
  0
ENDSEC
  0
SECTION
  2
BLOCKS
  0
BLOCK
  5
20
330
1F
100
AcDbEntity
  8
0
100
AcDbBlockBegin
  2
*Model_Space
 70
     0
 10
0.0
 20
0.0
 30
0.0
  3
*Model_Space
  1

  0
ENDBLK
  5
21
330
1F
100
AcDbEntity
  8
0
100
AcDbBlockEnd
  0
BLOCK
  5
1C
330
1B
100
AcDbEntity
 67
     1
  8
0
100
AcDbBlockBegin
  2
*Paper_Space
 70
     0
 10
0.0
 20
0.0
 30
0.0
  3
*Paper_Space
  1

  0
ENDBLK
  5
1D
330
1B
100
AcDbEntity
 67
     1
  8
0
100
AcDbBlockEnd
  0
BLOCK
  5
67
330
5E
100
AcDbEntity
  8
0
100
AcDbBlockBegin
  2
SEANNOT_GROUP
 70
     0
 10
0.0
 20
0.0
 30
0.0
  3
SEANNOT_GROUP
  1

  0
LINE
  5
61
330
5E
100
AcDbEntity
  8
Default
  6
CENTER2
 62
     7
100
AcDbLine
 10
56.349999553
 20
392.3658260932
 30
0.0
 11
16.350000447
 21
392.3658260932
 31
0.0
  0
LINE
  5
62
330
5E
100
AcDbEntity
  8
Default
  6
CENTER2
 62
     7
100
AcDbLine
 10
36.35
 20
412.3658256462
 30
0.0
 11
36.35
 21
372.3658265402
 31
0.0
  0
LINE
  5
63
330
5E
100
AcDbEntity
  8
Default
  6
CENTER2
 62
     7
100
AcDbLine
 10
61.3499994412
 20
392.3658260932
 30
0.0
 11
69.85
 21
392.3658260932
 31
0.0
  0
LINE
  5
64
330
5E
100
AcDbEntity
  8
Default
  6
CENTER2
 62
     7
100
AcDbLine
 10
36.35
 20
417.3658255344
 30
0.0
 11
36.35
 21
425.8658260932
 31
0.0
  0
LINE
  5
65
330
5E
100
AcDbEntity
  8
Default
  6
CENTER2
 62
     7
100
AcDbLine
 10
11.3500005588
 20
392.3658260932
 30
0.0
 11
2.85
 21
392.3658260932
 31
0.0
  0
LINE
  5
66
330
5E
100
AcDbEntity
  8
Default
  6
CENTER2
 62
     7
100
AcDbLine
 10
36.35
 20
367.365826652
 30
0.0
 11
36.35
 21
358.8658260932
 31
0.0
  0
ENDBLK
  5
68
330
5E
100
AcDbEntity
  8
0
100
AcDbBlockEnd
  0
BLOCK
  5
6D
330
69
100
AcDbEntity
  8
0
100
AcDbBlockBegin
  2
SEANNOT_GROUP1
 70
     0
 10
0.0
 20
0.0
 30
0.0
  3
SEANNOT_GROUP1
  1

  0
LINE
  5
6B
330
69
100
AcDbEntity
  8
Default
  6
CENTER2
 62
     7
100
AcDbLine
 10
148.7101141507
 20
392.3658260932
 30
0.0
 11
108.7101150448
 21
392.3658260932
 31
0.0
  0
LINE
  5
6C
330
69
100
AcDbEntity
  8
Default
  6
CENTER2
 62
     7
100
AcDbLine
 10
128.7101145977
 20
412.3658256462
 30
0.0
 11
128.7101145977
 21
372.3658265402
 31
0.0
  0
ENDBLK
  5
6E
330
69
100
AcDbEntity
  8
0
100
AcDbBlockEnd
  0
BLOCK
  5
73
330
6F
100
AcDbEntity
  8
0
100
AcDbBlockBegin
  2
SEANNOT_GROUP2
 70
     0
 10
0.0
 20
0.0
 30
0.0
  3
SEANNOT_GROUP2
  1

  0
LINE
  5
71
330
6F
100
AcDbEntity
  8
Default
  6
CENTER2
 62
     7
100
AcDbLine
 10
56.349999553
 20
269.8408855067
 30
0.0
 11
16.350000447
 21
269.8408855067
 31
0.0
  0
LINE
  5
72
330
6F
100
AcDbEntity
  8
Default
  6
CENTER2
 62
     7
100
AcDbLine
 10
36.35
 20
289.8408850597
 30
0.0
 11
36.35
 21
249.8408859538
 31
0.0
  0
ENDBLK
  5
74
330
6F
100
AcDbEntity
  8
0
100
AcDbBlockEnd
  0
BLOCK
  5
8C
330
75
100
AcDbEntity
  8
0
100
AcDbBlockBegin
  2
SE
 70
     0
 10
0.0
 20
0.0
 30
0.0
  3
SE
  1

  0
ARC
  5
78
330
75
100
AcDbEntity
  8
$DDT_AUDIT_GENERATED_(77)
  6
Continuous
 62
     7
100
AcDbCircle
 10
36.35
 20
392.3658260932
 30
0.0
 40
30.0
100
AcDbArc
 50
324.9140571134
 51
0.0
  0
ARC
  5
79
330
75
100
AcDbEntity
  8
$DDT_AUDIT_GENERATED_(77)
  6
Continuous
 62
     7
100
AcDbCircle
 10
36.35
 20
392.3658260932
 30
0.0
 40
30.0
100
AcDbArc
 50
0.0
 51
215.0745050157
  0
ELLIPSE
  5
7A
330
75
100
AcDbEntity
  8
$DDT_AUDIT_GENERATED_(77)
  6
Continuous
 62
     7
100
AcDbEllipse
 10
36.35
 20
342.3658260932
 30
0.0
 11
-10.4775
 21
0.0
 31
0.0
210
0.0
220
0.0
230
1.0
 40
0.2588190451
 41
3.141592653589793
 42
6.283185307179586
  0
ELLIPSE
  5
7B
330
75
100
AcDbEntity
  8
$DDT_AUDIT_GENERATED_(77)
  6
Continuous
 62
     7
100
AcDbEllipse
 10
36.35
 20
336.1839008049
 30
0.0
 11
-5.650000000000003
 21
0.0
 31
0.0
210
0.0
220
0.0
230
1.0
 40
0.2588190451
 41
0.4063242050886414
 42
2.735268448501155
  0
ELLIPSE
  5
7C
330
75
100
AcDbEntity
  8
$DDT_AUDIT_GENERATED_(77)
  6
Continuous
 62
     7
100
AcDbEllipse
 10
36.35
 20
334.6384194829
 30
0.0
 11
6.396092253047993
 21
0.0
 31
0.0
210
0.0
220
0.0
230
1.0
 40
0.2588190451
 41
0.0
 42
6.283185307179586
  0
ELLIPSE
  5
7D
330
75
100
AcDbEntity
  8
$DDT_AUDIT_GENERATED_(77)
  6
Continuous
 62
     7
100
AcDbEllipse
 10
36.35
 20
335.6043453092
 30
0.0
 11
-10.47750000000001
 21
0.0
 31
0.0
210
0.0
220
0.0
230
1.0
 40
0.2588190451
 41
2.870328899863764
 42
6.283185307179586
  0
ELLIPSE
  5
7E
330
75
100
AcDbEntity
  8
$DDT_AUDIT_GENERATED_(77)
  6
Continuous
 62
     7
100
AcDbEllipse
 10
36.35
 20
335.6043453092
 30
0.0
 11
-10.47750000000001
 21
0.0
 31
0.0
210
0.0
220
0.0
230
1.0
 40
0.2588190451
 41
0.0
 42
0.2712637537260263
  0
ELLIPSE
  5
7F
330
75
100
AcDbEntity
  8
$DDT_AUDIT_GENERATED_(77)
  6
Continuous
 62
     7
100
AcDbEllipse
 10
36.35
 20
334.6384194829
 30
0.0
 11
-9.477500000000008
 21
0.0
 31
0.0
210
0.0
220
0.0
230
1.0
 40
0.2588190451
 41
0.0
 42
6.283185307179586
  0
SPLINE
  5
80
330
75
100
AcDbEntity
  8
$DDT_AUDIT_GENERATED_(77)
  6
Continuous
 62
     7
100
AcDbSpline
210
0.0
220
0.0
230
1.0
 70
     8
 71
     2
 72
    68
 73
    65
 74
     0
 42
0.000000000153235
 43
0.0000000001
 40
0.1063192757780376
 40
0.1063192757780376
 40
0.1063192757780376
 40
0.125
 40
0.125
 40
0.15625
 40
0.15625
 40
0.1875
 40
0.1875
 40
0.21875
 40
0.21875
 40
0.25
 40
0.25
 40
0.28125
 40
0.28125
 40
0.3125
 40
0.3125
 40
0.3375
 40
0.3375
 40
0.375
 40
0.375
 40
0.40625
 40
0.40625
 40
0.4375
 40
0.4375
 40
0.46875
 40
0.46875
 40
0.5
 40
0.5
 40
0.53125
 40
0.53125
 40
0.5625
 40
0.5625
 40
0.59375
 40
0.59375
 40
0.625
 40
0.625
 40
0.65625
 40
0.65625
 40
0.6875
 40
0.6875
 40
0.71875
 40
0.71875
 40
0.75
 40
0.75
 40
0.78125
 40
0.78125
 40
0.8125
 40
0.8125
 40
0.84375
 40
0.84375
 40
0.875
 40
0.875
 40
0.90625
 40
0.90625
 40
0.9375
 40
0.9375
 40
0.96875
 40
0.96875
 40
0.984375
 40
0.984375
 40
0.9921875
 40
0.9921875
 40
0.99609375
 40
0.99609375
 40
1.0
 40
1.0
 40
1.0
 10
46.83218125058561
 20
337.5114961916327
 30
0.0
 10
47.6687109948033
 20
337.6333615114854
 30
0.0
 10
48.45942176856949
 20
337.7743312855505
 30
0.0
 10
49.77911886952239
 20
338.0096099845742
 30
0.0
 10
50.95252858573874
 20
338.2949535966864
 30
0.0
 10
52.12223146281266
 20
338.5793957991239
 30
0.0
 10
53.11024233725495
 20
338.9049186113807
 30
0.0
 10
54.09614679662189
 20
339.2297474169451
 30
0.0
 10
54.88474162962312
 20
339.5896188414416
 30
0.0
 10
55.66927918007612
 20
339.9476387447399
 30
0.0
 10
56.2408126108874
 20
340.3324947397787
 30
0.0
 10
56.80872869981206
 20
340.7149149093065
 30
0.0
 10
57.15354777890338
 20
341.1161906892268
 30
0.0
 10
57.49714604765837
 20
341.5160457774003
 30
0.0
 10
57.60877568681693
 20
341.9229992320353
 30
0.0
 10
57.6980006980081
 20
342.2482750890371
 30
0.0
 10
57.63751534854309
 20
342.5731118454959
 30
0.0
 10
57.54773241523815
 20
343.0552913666212
 30
0.0
 10
57.13414913746849
 20
343.5349322298952
 30
0.0
 10
56.79456200388211
 20
343.9287582733186
 30
0.0
 10
56.24378604516434
 20
344.3072140123496
 30
0.0
 10
55.69420185908169
 20
344.6848508463679
 30
0.0
 10
54.94762125058329
 20
345.0377420702093
 30
0.0
 10
54.20125374516717
 20
345.3905325651989
 30
0.0
 10
53.26966294469912
 20
345.7127279556611
 30
0.0
 10
52.33659488412547
 20
346.035434264003
 30
0.0
 10
51.24134237517219
 20
346.3190792869307
 30
0.0
 10
50.14343830232141
 20
346.6034110034713
 30
0.0
 10
48.89849585804595
 20
346.844107707071
 30
0.0
 10
47.64961251087024
 20
347.0855663433541
 30
0.0
 10
46.28665191931213
 20
347.2764059581991
 30
0.0
 10
44.91949790898522
 20
347.4678327289954
 30
0.0
 10
43.45647490127077
 20
347.6054790917666
 30
0.0
 10
41.98922487098619
 20
347.7435231477245
 30
0.0
 10
40.46814879062424
 20
347.8233334798129
 30
0.0
 10
38.94448713139507
 20
347.9032794763238
 30
0.0
 10
37.3860682873897
 20
347.9235259029682
 30
0.0
 10
35.82692959749881
 20
347.9437816815957
 30
0.0
 10
34.28037562406067
 20
347.9035434537853
 30
0.0
 10
32.73644275815309
 20
347.8633734219278
 30
0.0
 10
31.22215349676262
 20
347.7634422441642
 30
0.0
 10
29.71365001872719
 20
347.6638928825831
 30
0.0
 10
28.27926445894178
 20
347.5078699322953
 30
0.0
 10
26.85097811147243
 20
347.3525104138815
 30
0.0
 10
25.51601355888726
 20
347.1432406527628
 30
0.0
 10
24.18716721236571
 20
346.9349299849166
 30
0.0
 10
22.98802107972734
 20
346.6789087331841
 30
0.0
 10
21.79389901654545
 20
346.4239601351642
 30
0.0
 10
20.74588138953731
 20
346.1253645711061
 30
0.0
 10
19.70172955739988
 20
345.8278704285987
 30
0.0
 10
18.83019056629594
 20
345.4947454076791
 30
0.0
 10
17.9605707017952
 20
345.1623539271936
 30
0.0
 10
17.27674929361992
 20
344.7997227574928
 30
0.0
 10
16.59337802604749
 20
344.4373302977993
 30
0.0
 10
16.1130582298249
 20
344.0537566367087
 30
0.0
 10
15.63143625269371
 20
343.6691430803182
 30
0.0
 10
15.36299033129387
 20
343.2706529490889
 30
0.0
 10
15.22863169283049
 20
343.0712064788506
 30
0.0
 10
15.14900872856067
 20
342.8696776193869
 30
0.0
 10
15.10257732141407
 20
342.7521578986461
 30
0.0
 10
15.0859098328906
 20
342.6676237412705
 30
0.0
 10
15.07989155669479
 20
342.6371002520027
 30
0.0
 10
15.06922133146634
 20
342.5663174066666
 30
0.0
 10
15.05939198148789
 20
342.5011126575275
 30
0.0
 10
15.05165514191114
 20
342.4649159395906
 30
0.0
  0
SPLINE
  5
81
330
75
100
AcDbEntity
  8
$DDT_AUDIT_GENERATED_(77)
  6
Continuous
 62
     7
100
AcDbSpline
210
0.0
220
0.0
230
1.0
 70
     8
 71
     2
 72
    16
 73
    13
 74
     0
 42
0.0000000005350756
 43
0.0000000001
 40
0.0
 40
0.0
 40
0.0
 40
0.125
 40
0.125
 40
0.25
 40
0.25
 40
0.375
 40
0.375
 40
0.5
 40
0.5
 40
0.625
 40
0.625
 40
0.6814119160752352
 40
0.6814119160752352
 40
0.6814119160752352
 10
15.05165514191114
 20
342.4649159395906
 30
0.0
 10
14.93607902198561
 20
341.9243205629846
 30
0.0
 10
15.27484750857828
 20
341.3799183658026
 30
0.0
 10
15.61079000770912
 20
340.8400575408094
 30
0.0
 10
16.37736067126282
 20
340.3237218728775
 30
0.0
 10
17.14088673002814
 20
339.8094369461514
 30
0.0
 10
18.29661734679649
 20
339.3428114388871
 30
0.0
 10
19.45116796436607
 20
338.8766623555546
 30
0.0
 10
20.94764348504239
 20
338.4784923891129
 30
0.0
 10
22.44406020150941
 20
338.0803380688142
 30
0.0
 10
24.22104611913517
 20
337.7667642015522
 30
0.0
 10
25.02281129811985
 20
337.6252815902853
 30
0.0
 10
25.86718194889517
 20
337.503624069424
 30
0.0
  0
SPLINE
  5
82
330
75
100
AcDbEntity
  8
$DDT_AUDIT_GENERATED_(77)
  6
Continuous
 62
     7
100
AcDbSpline
210
0.0
220
0.0
230
1.0
 70
     8
 71
     3
 72
    24
 73
    20
 74
     0
 42
0.0000000001351258
 43
0.0000000001
 40
0.0
 40
0.0
 40
0.0
 40
0.0
 40
0.0063136381637792
 40
0.0126108295720844
 40
0.0251838162811485
 40
0.0501898837699876
 40
0.0996779452326653
 40
0.1487244498543454
 40
0.1974914824484205
 40
0.2461076150355348
 40
0.2946573500753655
 40
0.3421519796795534
 40
0.3917245147269867
 40
0.4644459052482452
 40
0.5010600320630976
 40
0.5378222436752416
 40
0.6118094327113898
 40
0.6494423029508928
 40
0.6652167964034232
 40
0.6652167964034232
 40
0.6652167964034232
 40
0.6652167964034232
 10
13.52440479001402
 20
344.0363831100021
 30
0.0
 10
13.53897220697461
 20
344.0996908728983
 30
0.0
 10
13.56806909340205
 20
344.2261414846953
 30
0.0
 10
13.65808258496864
 20
344.4649200113342
 30
0.0
 10
13.88126548819275
 20
344.9001176998282
 30
0.0
 10
14.58744306715073
 20
345.7146499817101
 30
0.0
 10
16.30609857688285
 20
346.7809260116874
 30
0.0
 10
19.37283746916583
 20
347.8492978938834
 30
0.0
 10
23.28676932624707
 20
348.6891268172613
 30
0.0
 10
27.86459117397812
 20
349.277911496479
 30
0.0
 10
32.84855115134557
 20
349.5970497382709
 30
0.0
 10
38.050580649415
 20
349.6450195247932
 30
0.0
 10
44.00891496539075
 20
349.382738238603
 30
0.0
 10
49.11138542120816
 20
348.7578525709057
 30
0.0
 10
52.96510485726159
 20
347.9125934210218
 30
0.0
 10
56.21721350377179
 20
346.8912071211292
 30
0.0
 10
58.40016123093275
 20
345.6186671123235
 30
0.0
 10
59.13659309355188
 20
344.3765585730702
 30
0.0
 10
59.21045312018655
 20
343.8423544121936
 30
0.0
 10
59.21161685069644
 20
343.6837976399824
 30
0.0
  0
SPLINE
  5
83
330
75
100
AcDbEntity
  8
$DDT_AUDIT_GENERATED_(77)
  6
Continuous
 62
     7
100
AcDbSpline
210
0.0
220
0.0
230
1.0
 70
    11
 71
     3
 72
    22
 73
    18
 74
     0
 42
0.0000000005909935
 43
0.0000000001
 40
0.0
 40
0.0
 40
0.0
 40
0.0
 40
0.1249999999999998
 40
0.1249999999999998
 40
0.2499999999999996
 40
0.2499999999999996
 40
0.3749999999999993
 40
0.3749999999999993
 40
0.4999999999999991
 40
0.4999999999999991
 40
0.6249999999999993
 40
0.6249999999999993
 40
0.7499999999999996
 40
0.7499999999999996
 40
0.8749999999999998
 40
0.8749999999999998
 40
1.0
 40
1.0
 40
1.0
 40
1.0
 10
32.33109495848872
 20
420.485899699562
 30
0.0
 10
32.25501331006845
 20
420.6176769801494
 30
0.0
 10
32.59183015806398
 20
420.806555302966
 30
0.0
 10
33.92304756758791
 20
421.1480694309458
 30
0.0
 10
34.93842029378205
 20
421.2910636527951
 30
0.0
 10
37.07983016064944
 20
421.337660766482
 30
0.0
 10
38.18638327694048
 20
421.2377609222428
 30
0.0
 10
39.78508604780813
 20
420.9224802915349
 30
0.0
 10
40.27574970208185
 20
420.7235340202593
 30
0.0
 10
40.45334131284702
 20
420.4239084180791
 30
0.0
 10
40.13013040218816
 20
420.3243144585736
 30
0.0
 10
38.79452320280355
 20
420.233127805951
 30
0.0
 10
37.77538342814517
 20
420.2309815021947
 30
0.0
 10
35.61143563038135
 20
420.2289580218879
 30
0.0
 10
34.5045323690408
 20
420.2266511310117
 30
0.0
 10
32.90377350840089
 20
420.2840508185079
 30
0.0
 10
32.40717660690898
 20
420.3541224189744
 30
0.0
 10
32.33109495848872
 20
420.485899699562
 30
0.0
  0
SPLINE
  5
84
330
75
100
AcDbEntity
  8
$DDT_AUDIT_GENERATED_(77)
  6
Continuous
 62
     7
100
AcDbSpline
210
0.0
220
0.0
230
1.0
 70
     8
 71
     3
 72
    38
 73
    34
 74
     0
 42
0.0000000000921902
 43
0.0000000001
 40
0.0
 40
0.0
 40
0.0
 40
0.0
 40
0.0102710180447772
 40
0.0150894674528083
 40
0.0181261211077941
 40
0.025264910874774
 40
0.0369452951815282
 40
0.0502552579405039
 40
0.0701385404905442
 40
0.0851606911852604
 40
0.0942928065212474
 40
0.1016607916876826
 40
0.1145478500668185
 40
0.1323504727124171
 40
0.1513416180010714
 40
0.1637350261267944
 40
0.1783296180382476
 40
0.1949642103127198
 40
0.2093357297089229
 40
0.2192453065942594
 40
0.2287916238081974
 40
0.2372615811314897
 40
0.2463383686607906
 40
0.2550705085866585
 40
0.2612741996829535
 40
0.265835225060591
 40
0.2722882995368878
 40
0.2827977151787348
 40
0.2925699922954481
 40
0.3015043608501238
 40
0.3109149991813085
 40
0.3204576509357903
 40
0.32686907759767
 40
0.32686907759767
 40
0.32686907759767
 40
0.32686907759767
 10
59.21191459330248
 20
343.6830469960239
 30
0.0
 10
59.20658203842273
 20
344.3763688364087
 30
0.0
 10
59.20214352072988
 20
345.1915824135069
 30
0.0
 10
59.20035781498743
 20
346.3298113985722
 30
0.0
 10
59.20088905554815
 20
347.2038599046691
 30
0.0
 10
59.20487950562124
 20
348.4940198384174
 30
0.0
 10
59.21973742418225
 20
350.332734675355
 30
0.0
 10
59.25658660704744
 20
352.8439636795416
 30
0.0
 10
59.31849156476813
 20
355.4317888372036
 30
0.0
 10
59.39521802431916
 20
357.6920669344718
 30
0.0
 10
59.45980488935079
 20
359.2566988642404
 30
0.0
 10
59.52562830308644
 20
360.6742386314734
 30
0.0
 10
59.61989204825361
 20
362.4526887257252
 30
0.0
 10
59.76009787513597
 20
364.659877309719
 30
0.0
 10
59.91711654849018
 20
366.7046685813629
 30
0.0
 10
60.0760652365901
 20
368.49893378403
 30
0.0
 10
60.23542624312922
 20
370.102032492393
 30
0.0
 10
60.41102443557335
 20
371.6607340969959
 30
0.0
 10
60.57379649885138
 20
372.9441416027901
 30
0.0
 10
60.70998974255235
 20
373.9274117097857
 30
0.0
 10
60.82342220318311
 20
374.6901748182277
 30
0.0
 10
60.93201350080372
 20
375.375262458943
 30
0.0
 10
61.03700687476194
 20
375.9972267212734
 30
0.0
 10
61.12980703867291
 20
376.513418534358
 30
0.0
 10
61.20400804597977
 20
376.9049699150428
 30
0.0
 10
61.26731869525457
 20
377.226583697782
 30
0.0
 10
61.34393119263785
 20
377.600551202755
 30
0.0
 10
61.43286667804491
 20
378.0087104150491
 30
0.0
 10
61.5202703403958
 20
378.3807092201668
 30
0.0
 10
61.58859796058057
 20
378.6522585478809
 30
0.0
 10
61.64520093978396
 20
378.8621714635562
 30
0.0
 10
61.67483718391059
 20
378.9624656530295
 30
0.0
 10
61.68033405804908
 20
378.9802046388341
 30
0.0
 10
61.68017676019374
 20
378.9798473720521
 30
0.0
  0
SPLINE
  5
85
330
75
100
AcDbEntity
  8
$DDT_AUDIT_GENERATED_(77)
  6
Continuous
 62
     7
100
AcDbSpline
210
0.0
220
0.0
230
1.0
 70
     8
 71
     3
 72
    38
 73
    34
 74
     0
 42
0.000000000092455
 43
0.0000000001
 40
0.6719988633367888
 40
0.6719988633367888
 40
0.6719988633367888
 40
0.6719988633367888
 40
0.6746716034560367
 40
0.682928922331628
 40
0.6950149747912577
 40
0.7032540850722737
 40
0.7092542289149003
 40
0.7179491679168084
 40
0.7304869821535808
 40
0.7419615469211527
 40
0.7541595996170429
 40
0.7675132763901127
 40
0.7757511809060915
 40
0.7862112910284297
 40
0.8006171482244974
 40
0.8141471077455094
 40
0.828887021814034
 40
0.8433264951721708
 40
0.8568856764015089
 40
0.8703940559811214
 40
0.8812958317078443
 40
0.8926916605202169
 40
0.9029121625089722
 40
0.9077872873470044
 40
0.9117705418497033
 40
0.9199418111111842
 40
0.9352881732569522
 40
0.9585595970502507
 40
0.971447471506784
 40
0.9792569330356509
 40
0.9827599093139388
 40
0.9887759741093795
 40
1.0
 40
1.0
 40
1.0
 40
1.0
 10
11.0186129105045
 20
378.9833736026382
 30
0.0
 10
11.01842674870944
 20
378.9839910392364
 30
0.0
 10
11.01980316845319
 20
378.9799227413802
 30
0.0
 10
11.03583276282253
 20
378.9273228911715
 30
0.0
 10
11.08144312343062
 20
378.765823078082
 30
0.0
 10
11.1400765490327
 20
378.5392792199592
 30
0.0
 10
11.20288341954384
 20
378.283079332157
 30
0.0
 10
11.28445247281729
 20
377.9315881440769
 30
0.0
 10
11.39526527427241
 20
377.4173932997046
 30
0.0
 10
11.52939522723517
 20
376.7377894483241
 30
0.0
 10
11.67323166210986
 20
375.944970135475
 30
0.0
 10
11.80821958823621
 20
375.1299525699558
 30
0.0
 10
11.93745430485901
 20
374.2869932892644
 30
0.0
 10
12.07253877921903
 20
373.3441020603595
 30
0.0
 10
12.22515308192621
 20
372.1779780791185
 30
0.0
 10
12.39165287801951
 20
370.7660726246968
 30
0.0
 10
12.55207306194476
 20
369.2457421790616
 30
0.0
 10
12.70384643920015
 20
367.6237646433855
 30
0.0
 10
12.84231780751642
 20
365.9484112673636
 30
0.0
 10
12.95902921403656
 20
364.341192246829
 30
0.0
 10
13.06048564195921
 20
362.7539445326032
 30
0.0
 10
13.14475197661171
 20
361.2548658511134
 30
0.0
 10
13.20670821184647
 20
359.9923716347767
 30
0.0
 10
13.24772299677624
 20
359.0658500686518
 30
0.0
 10
13.28292846264132
 20
358.2181841772854
 30
0.0
 10
13.33557919973593
 20
356.8233616805318
 30
0.0
 10
13.41067217374971
 20
354.384890303073
 30
0.0
 10
13.46632106249036
 20
351.5743509939546
 30
0.0
 10
13.49147760309116
 20
349.0834009600439
 30
0.0
 10
13.49798446271003
 20
347.6607380799845
 30
0.0
 10
13.49977833073284
 20
346.6567350793392
 30
0.0
 10
13.49871401522182
 20
345.3582564229514
 30
0.0
 10
13.49373778916304
 20
344.4235766244495
 30
0.0
 10
13.48798189839796
 20
343.6664086726853
 30
0.0
  0
LINE
  5
86
330
75
100
AcDbEntity
  8
$DDT_AUDIT_GENERATED_(77)
  6
Continuous
 62
     7
100
AcDbLine
 10
25.8725
 20
342.3658260932
 30
0.0
 11
25.8725
 21
335.6043453092
 31
0.0
  0
LINE
  5
87
330
75
100
AcDbEntity
  8
$DDT_AUDIT_GENERATED_(77)
  6
Continuous
 62
     7
100
AcDbLine
 10
46.8275
 20
335.6043453092
 30
0.0
 11
46.8275
 21
342.3658260932
 31
0.0
  0
LINE
  5
88
330
75
100
AcDbEntity
  8
$DDT_AUDIT_GENERATED_(77)
  6
Continuous
 62
     7
100
AcDbLine
 10
26.2556302815
 20
334.8777269739
 30
0.0
 11
27.2190633255
 21
333.9811515017
 31
0.0
  0
LINE
  5
89
330
75
100
AcDbEntity
  8
$DDT_AUDIT_GENERATED_(77)
  6
Continuous
 62
     7
100
AcDbLine
 10
45.4809366745
 20
333.9811515017
 30
0.0
 11
46.4443697185
 21
334.8777269739
 31
0.0
  0
SPLINE
  5
8A
330
75
100
AcDbEntity
  8
$DDT_AUDIT_GENERATED_(77)
  6
Continuous
 62
     7
100
AcDbSpline
210
0.0
220
0.0
230
1.0
 70
     8
 71
     3
 72
    35
 73
    31
 74
     0
 42
0.0000000004620287
 43
0.0000000001
 40
0.3162530594924679
 40
0.3162530594924679
 40
0.3162530594924679
 40
0.3162530594924679
 40
0.3382190988843973
 40
0.3755643838879505
 40
0.410177356659257
 40
0.442018202689817
 40
0.4779475622825658
 40
0.509600758897593
 40
0.5369883937611003
 40
0.5601093640709127
 40
0.5789540413999648
 40
0.5949217450609409
 40
0.6120881961921637
 40
0.6307090210344497
 40
0.6578128037074505
 40
0.687544348467639
 40
0.718408464420048
 40
0.7479519596473317
 40
0.7761282490496632
 40
0.8030937350064788
 40
0.8187920380404966
 40
0.8365463998169407
 40
0.8577185998618879
 40
0.8788354399128913
 40
0.8975759621341063
 40
0.9139315763425068
 40
0.9310259970961703
 40
0.9511094518071612
 40
0.9741397157004282
 40
1.0
 40
1.0
 40
1.0
 40
1.0
 10
46.83242437231369
 20
337.4083077957852
 30
0.0
 10
47.055781424198
 20
337.4398471985679
 30
0.0
 10
47.65349632268979
 20
337.527774439247
 30
0.0
 10
48.57546479115481
 20
337.6787104508019
 30
0.0
 10
49.55784855156818
 20
337.860881032658
 30
0.0
 10
50.4916115572608
 20
338.0539222143964
 30
0.0
 10
51.36125937964056
 20
338.2542747962323
 30
0.0
 10
52.15424024250379
 20
338.4575156429785
 30
0.0
 10
52.81036342827975
 20
338.6421076218583
 30
0.0
 10
53.34197135502356
 20
338.8042012562645
 30
0.0
 10
53.77028319943653
 20
338.9440155721945
 30
0.0
 10
54.14386143320506
 20
339.0730715268805
 30
0.0
 10
54.50621094361097
 20
339.2052311814137
 30
0.0
 10
54.93252660099055
 20
339.370395128851
 30
0.0
 10
55.42157167772358
 20
339.5754963696043
 30
0.0
 10
55.95456417123961
 20
339.8234688412437
 30
0.0
 10
56.46401985324505
 20
340.0890751712954
 30
0.0
 10
56.93045026505724
 20
340.3639205072978
 30
0.0
 10
57.34243850709343
 20
340.6403821939689
 30
0.0
 10
57.6618894474013
 20
340.8855880522753
 30
0.0
 10
57.91680117386859
 20
341.1048850402576
 30
0.0
 10
58.13828083184347
 20
341.3149270126706
 30
0.0
 10
58.36535244741079
 20
341.559655180263
 30
0.0
 10
58.5703641660366
 20
341.817813580783
 30
0.0
 10
58.73595357366359
 20
342.0642323458186
 30
0.0
 10
58.868302341582
 20
342.296652337622
 30
0.0
 10
58.99105443968302
 20
342.5562195202534
 30
0.0
 10
59.1043773167667
 20
342.8710646578432
 30
0.0
 10
59.19437645413538
 20
343.2605487975387
 30
0.0
 10
59.20598342593475
 20
343.5187059895418
 30
0.0
 10
59.21179599288985
 20
343.6814925657574
 30
0.0
  0
SPLINE
  5
8B
330
75
100
AcDbEntity
  8
$DDT_AUDIT_GENERATED_(77)
  6
Continuous
 62
     7
100
AcDbSpline
210
0.0
220
0.0
230
1.0
 70
     8
 71
     3
 72
    32
 73
    28
 74
     0
 42
0.0000000004616899
 43
0.0000000001
 40
0.0
 40
0.0
 40
0.0
 40
0.0
 40
0.0285764571536482
 40
0.0541076768072783
 40
0.0765450102713541
 40
0.0959650107564135
 40
0.1124772075242811
 40
0.1260941425121951
 40
0.1554946525719102
 40
0.1887850162474236
 40
0.2236989109389166
 40
0.2607646560934871
 40
0.2922366912504223
 40
0.32579713767253
 40
0.3607674196355109
 40
0.3927078332964906
 40
0.4211073902021207
 40
0.4456450145305312
 40
0.4663659651020543
 40
0.4836035416611866
 40
0.505795680851308
 40
0.5329292448002306
 40
0.5650090443826823
 40
0.5942444449744595
 40
0.6266633598360848
 40
0.6622426061799126
 40
0.6842512070619471
 40
0.6842512070619471
 40
0.6842512070619471
 40
0.6842512070619471
 10
13.48817209891361
 20
343.673736045464
 30
0.0
 10
13.49532517661831
 20
343.4859541284498
 30
0.0
 10
13.50911344139442
 20
343.1884620012316
 30
0.0
 10
13.61908016169529
 20
342.7555863007328
 30
0.0
 10
13.75122680970651
 20
342.4181323770222
 30
0.0
 10
13.88401291197113
 20
342.1570850431865
 30
0.0
 10
14.01880513953878
 20
341.9364225900046
 30
0.0
 10
14.20202598083154
 20
341.6763331025932
 30
0.0
 10
14.4706573572364
 20
341.3580820401584
 30
0.0
 10
14.85400648798444
 20
340.9924364214409
 30
0.0
 10
15.32011620921254
 20
340.6257258299526
 30
0.0
 10
15.82757144288648
 20
340.2917857877628
 30
0.0
 10
16.37685783213652
 20
339.9812241902799
 30
0.0
 10
16.95888855161509
 20
339.6924379548533
 30
0.0
 10
17.58900537632943
 20
339.4168654567573
 30
0.0
 10
18.23360400141498
 20
339.1663197379674
 30
0.0
 10
18.84306660592046
 20
338.9526377426746
 30
0.0
 10
19.39720764205344
 20
338.774542311677
 30
0.0
 10
19.88447780114337
 20
338.6289592337245
 30
0.0
 10
20.36542829687674
 20
338.493647877204
 30
0.0
 10
20.91298549637654
 20
338.3489077128525
 30
0.0
 10
21.60659213966082
 20
338.1794380760333
 30
0.0
 10
22.39031867001689
 20
338.0051394360058
 30
0.0
 10
23.25212155368217
 20
337.8314628113804
 30
0.0
 10
24.17688407686803
 20
337.6630434678703
 30
0.0
 10
25.06255123312959
 20
337.5195990436839
 30
0.0
 10
25.64380512118928
 20
337.4347158076795
 30
0.0
 10
25.86794412911837
 20
337.4032956834346
 30
0.0
  0
ENDBLK
  5
8D
330
75
100
AcDbEntity
  8
0
100
AcDbBlockEnd
  0
BLOCK
  5
A4
330
8E
100
AcDbEntity
  8
0
100
AcDbBlockBegin
  2
SE1
 70
     0
 10
0.0
 20
0.0
 30
0.0
  3
SE1
  1

  0
LINE
  5
90
330
8E
100
AcDbEntity
  8
$DDT_AUDIT_GENERATED_(77)
  6
Continuous
 62
     7
100
AcDbLine
 10
128.7101145977
 20
422.3658260932
 30
0.0
 11
128.7101145977
 21
362.3658260932
 31
0.0
  0
LINE
  5
91
330
8E
100
AcDbEntity
  8
$DDT_AUDIT_GENERATED_(77)
  6
Continuous
 62
     7
100
AcDbLine
 10
282.6423357584
 20
338.3161218542
 30
0.0
 11
262.4013600685
 21
332.8925687641
 31
0.0
  0
LINE
  5
92
330
8E
100
AcDbEntity
  8
$DDT_AUDIT_GENERATED_(77)
  6
Continuous
 62
     7
100
AcDbLine
 10
263.6261049399
 20
332.1854619829
 30
0.0
 11
281.9352289772
 21
337.0913769828
 31
0.0
  0
LINE
  5
93
330
8E
100
AcDbEntity
  8
$DDT_AUDIT_GENERATED_(77)
  6
Continuous
 62
     7
100
AcDbLine
 10
271.079922939
 20
342.4649159396
 30
0.0
 11
291.3771571454
 21
347.9035434538
 31
0.0
  0
LINE
  5
94
330
8E
100
AcDbEntity
  8
$DDT_AUDIT_GENERATED_(77)
  6
Continuous
 62
     7
100
AcDbLine
 10
271.079922939
 20
342.4649159396
 30
0.0
 11
249.9426951806
 21
336.8012128315
 31
0.0
  0
ARC
  5
95
330
8E
100
AcDbEntity
  8
$DDT_AUDIT_GENERATED_(77)
  6
Continuous
 62
     7
100
AcDbCircle
 10
421.9211777623
 20
-184.5405869976
 30
0.0
 40
549.7481731299121
100
AcDbArc
 50
103.6791219693
 51
105.9607078561
  0
ARC
  5
96
330
8E
100
AcDbEntity
  8
$DDT_AUDIT_GENERATED_(77)
  6
Continuous
 62
     7
100
AcDbCircle
 10
249.2956475678
 20
339.2160273972
 30
0.0
 40
2.499999999997595
100
AcDbArc
 50
241.9059000583
 51
285.0
  0
ARC
  5
97
330
8E
100
AcDbEntity
  8
$DDT_AUDIT_GENERATED_(77)
  6
Continuous
 62
     7
100
AcDbCircle
 10
149.038810868
 20
456.483956423
 30
0.0
 40
36.25719750587682
100
AcDbArc
 50
255.9090521296
 51
269.2756864568
  0
ARC
  5
98
330
8E
100
AcDbEntity
  8
$DDT_AUDIT_GENERATED_(77)
  6
Continuous
 62
     7
100
AcDbCircle
 10
144.5066566967
 20
142.9459010166
 30
0.0
 40
219.9878048049898
100
AcDbArc
 50
61.9021115375
 51
94.1177500292
  0
ARC
  5
99
330
8E
100
AcDbEntity
  8
$DDT_AUDIT_GENERATED_(77)
  6
Continuous
 62
     7
100
AcDbCircle
 10
111.4934268696
 20
170.6953541563
 30
0.0
 40
252.2586783071628
100
AcDbArc
 50
83.4600830898
 51
86.086513326
  0
ARC
  5
9A
330
8E
100
AcDbEntity
  8
$DDT_AUDIT_GENERATED_(77)
  6
Continuous
 62
     7
100
AcDbCircle
 10
110.9125613083
 20
163.0141214842
 30
0.0
 40
259.9567921483415
100
AcDbArc
 50
45.8725024198
 51
81.671022967
  0
LINE
  5
9B
330
8E
100
AcDbEntity
  8
$DDT_AUDIT_GENERATED_(77)
  6
Continuous
 62
     7
100
AcDbLine
 10
260.5896267528
 20
339.6540495481
 30
0.0
 11
262.4013600685
 21
332.8925687641
 31
0.0
  0
LINE
  5
9C
330
8E
100
AcDbEntity
  8
$DDT_AUDIT_GENERATED_(77)
  6
Continuous
 62
     7
100
AcDbLine
 10
282.6423357584
 20
338.3161218542
 30
0.0
 11
280.8306024427
 21
345.0776026383
 31
0.0
  0
LINE
  5
9D
330
8E
100
AcDbEntity
  8
$DDT_AUDIT_GENERATED_(77)
  6
Continuous
 62
     7
100
AcDbLine
 10
262.4013600685
 20
332.8925687641
 30
0.0
 11
263.6261049399
 21
332.1854619829
 31
0.0
  0
LINE
  5
9E
330
8E
100
AcDbEntity
  8
$DDT_AUDIT_GENERATED_(77)
  6
Continuous
 62
     7
100
AcDbLine
 10
281.9352289772
 20
337.0913769828
 30
0.0
 11
282.6423357584
 21
338.3161218542
 31
0.0
  0
ARC
  5
9F
330
8E
100
AcDbEntity
  8
$DDT_AUDIT_GENERATED_(77)
  6
Continuous
 62
     7
100
AcDbCircle
 10
248.8302990142
 20
337.7806284263
 30
0.0
 40
0.991622257569067
100
AcDbArc
 50
253.9217613832
 51
254.5357053436
  0
SPLINE
  5
A0
330
8E
100
AcDbEntity
  8
$DDT_AUDIT_GENERATED_(77)
  6
Continuous
 62
     7
100
AcDbSpline
210
0.0
220
0.0
230
1.0
 70
     8
 71
     3
 72
    15
 73
    11
 74
     0
 42
0.0000000045013586
 43
0.0000000001
 40
0.0
 40
0.0
 40
0.0
 40
0.0
 40
0.1689761498043314
 40
0.3240534932650623
 40
0.4666397057100377
 40
0.5976129227998155
 40
0.7169512938106316
 40
0.8239047405127604
 40
0.9179197973153983
 40
1.0
 40
1.0
 40
1.0
 40
1.0
 10
291.3771571454325
 20
347.9035434537853
 30
0.0
 10
291.4612059734695
 20
347.9280748996466
 30
0.0
 10
291.5969348255563
 20
347.9722194825574
 30
0.0
 10
291.8274745070734
 20
348.1060187639759
 30
0.0
 10
292.0245136059574
 20
348.2997700698435
 30
0.0
 10
292.1678949939263
 20
348.5540526335819
 30
0.0
 10
292.2300763476234
 20
348.8476012469703
 30
0.0
 10
292.2017804086163
 20
349.141044798855
 30
0.0
 10
292.0923414134412
 20
349.4117853428203
 30
0.0
 10
291.9776906580425
 20
349.5436960479767
 30
0.0
 10
291.9143785270462
 20
349.6142448464263
 30
0.0
  0
LINE
  5
A1
330
8E
100
AcDbEntity
  8
$DDT_AUDIT_GENERATED_(77)
  6
Continuous
 62
     7
100
AcDbLine
 10
263.7825849238
 20
332.2273906682
 30
0.0
 11
262.3590801757
 21
337.5399827128
 31
0.0
  0
LINE
  5
A2
330
8E
100
AcDbEntity
  8
$DDT_AUDIT_GENERATED_(77)
  6
Continuous
 62
     7
100
AcDbLine
 10
281.7787489934
 20
337.0494482975
 30
0.0
 11
280.3552442453
 21
342.3620403421
 31
0.0
  0
LINE
  5
A3
330
8E
100
AcDbEntity
  8
$DDT_AUDIT_GENERATED_(77)
  6
Continuous
 62
     7
100
AcDbLine
 10
281.4776500555
 20
342.6627880725
 30
0.0
 11
261.2366743656
 21
337.2392349824
 31
0.0
  0
ENDBLK
  5
A5
330
8E
100
AcDbEntity
  8
0
100
AcDbBlockEnd
  0
BLOCK
  5
BB
330
A6
100
AcDbEntity
  8
0
100
AcDbBlockBegin
  2
SE2
 70
     0
 10
0.0
 20
0.0
 30
0.0
  3
SE2
  1

  0
LINE
  5
A8
330
A6
100
AcDbEntity
  8
$DDT_AUDIT_GENERATED_(77)
  6
Continuous
 62
     7
100
AcDbLine
 10
66.35
 20
269.8408855067
 30
0.0
 11
6.35
 21
269.8408855067
 31
0.0
  0
SPLINE
  5
A9
330
A6
100
AcDbEntity
  8
$DDT_AUDIT_GENERATED_(77)
  6
Continuous
 62
     7
100
AcDbSpline
210
0.0
220
0.0
230
1.0
 70
     8
 71
     3
 72
    24
 73
    20
 74
     0
 42
0.0000000000948511
 43
0.0000000001
 40
0.0
 40
0.0
 40
0.0
 40
0.0
 40
0.0063136381637792
 40
0.0126108295720844
 40
0.0251838162811485
 40
0.0501898837699876
 40
0.0996779452326653
 40
0.1487244498543454
 40
0.1974914824484205
 40
0.2461076150355348
 40
0.2946573500753655
 40
0.3421519796795534
 40
0.3917245147269867
 40
0.4644459052482452
 40
0.5010600320630976
 40
0.5378222436752416
 40
0.6118094327113898
 40
0.6494423029508928
 40
0.6669085025797725
 40
0.6669085025797725
 40
0.6669085025797725
 40
0.6669085025797725
 10
13.52440479001402
 20
127.804615863633
 30
0.0
 10
13.53897220697461
 20
127.5904671999688
 30
0.0
 10
13.56806909340205
 20
127.1627277206855
 30
0.0
 10
13.65808258496864
 20
126.3072262334228
 30
0.0
 10
13.88126548819275
 20
124.8301694228217
 30
0.0
 10
14.58744306715073
 20
121.9322802896445
 30
0.0
 10
16.30609857688285
 20
118.0041041768691
 30
0.0
 10
19.37283746916583
 20
113.8627745761765
 30
0.0
 10
23.28676932624707
 20
110.491449060519
 30
0.0
 10
27.86459117397812
 20
108.0599085152978
 30
0.0
 10
32.84855115134557
 20
106.7124486692863
 30
0.0
 10
38.050580649415
 20
106.5032157955913
 30
0.0
 10
44.00891496539075
 20
107.6244370532766
 30
0.0
 10
49.11138542120816
 20
110.218623446384
 30
0.0
 10
52.96510485726159
 20
113.6033030004035
 30
0.0
 10
56.21721350377179
 20
117.5862447615946
 30
0.0
 10
58.40016123093275
 20
122.3327917370306
 30
0.0
 10
59.1463723682836
 20
126.6865731493816
 30
0.0
 10
59.21489657311537
 20
128.5628625010013
 30
0.0
 10
59.21127850641632
 20
129.1573055601808
 30
0.0
  0
ARC
  5
AA
330
A6
100
AcDbEntity
  8
$DDT_AUDIT_GENERATED_(77)
  6
Continuous
 62
     7
100
AcDbCircle
 10
35.5917281013
 20
128.371089594
 30
0.0
 40
22.07459287529269
100
AcDbArc
 50
178.0283345903
 51
178.2859345612
  0
SPLINE
  5
AB
330
A6
100
AcDbEntity
  8
$DDT_AUDIT_GENERATED_(77)
  6
Continuous
 62
     7
100
AcDbSpline
210
0.0
220
0.0
230
1.0
 70
    11
 71
     3
 72
    22
 73
    18
 74
     0
 42
0.0000000003779102
 43
0.0000000001
 40
0.0
 40
0.0
 40
0.0
 40
0.0
 40
0.1249999999999998
 40
0.1249999999999998
 40
0.2499999999999996
 40
0.2499999999999996
 40
0.3749999999999993
 40
0.3749999999999993
 40
0.4999999999999991
 40
0.4999999999999991
 40
0.6249999999999993
 40
0.6249999999999993
 40
0.7499999999999996
 40
0.7499999999999996
 40
0.8749999999999998
 40
0.8749999999999998
 40
1.0
 40
1.0
 40
1.0
 40
1.0
 10
32.33109495848872
 20
253.8408855067395
 30
0.0
 10
32.25501331006845
 20
254.9204996950842
 30
0.0
 10
32.59183015806398
 20
256.0023995693771
 30
0.0
 10
33.92304756758791
 20
257.6622216257735
 30
0.0
 10
34.93842029378205
 20
258.2302859960366
 30
0.0
 10
37.07983016064944
 20
258.4200467707523
 30
0.0
 10
38.18638327694048
 20
258.0368975348804
 30
0.0
 10
39.78508604780813
 20
256.5960634387612
 30
0.0
 10
40.27574970208185
 20
255.5699530363983
 30
0.0
 10
40.45334131284702
 20
253.4461947038352
 30
0.0
 10
40.13013040218816
 20
252.3329761107481
 30
0.0
 10
38.79452320280355
 20
250.6507579470468
 30
0.0
 10
37.77538342814517
 20
250.080779187479
 30
0.0
 10
35.61143563038135
 20
249.8892282416999
 30
0.0
 10
34.5045323690408
 20
250.2735235393147
 30
0.0
 10
32.90377350840089
 20
251.7165282663136
 30
0.0
 10
32.40717660690898
 20
252.7612713183946
 30
0.0
 10
32.33109495848872
 20
253.8408855067395
 30
0.0
  0
CIRCLE
  5
AC
330
A6
100
AcDbEntity
  8
$DDT_AUDIT_GENERATED_(77)
  6
Continuous
 62
     7
100
AcDbCircle
 10
36.35
 20
253.8408855067
 30
0.0
 40
3.323499999999995
  0
SPLINE
  5
AD
330
A6
100
AcDbEntity
  8
$DDT_AUDIT_GENERATED_(77)
  6
Continuous
 62
     7
100
AcDbSpline
210
0.0
220
0.0
230
1.0
 70
     8
 71
     3
 72
    91
 73
    87
 74
     0
 42
0.0000000000709613
 43
0.0000000001
 40
0.0
 40
0.0
 40
0.0
 40
0.0
 40
0.0102353727977487
 40
0.0196012787086864
 40
0.0280945867005351
 40
0.0357125382082396
 40
0.0424527245020566
 40
0.0482161437915168
 40
0.0531291834280926
 40
0.0573901625780984
 40
0.0616433014073919
 40
0.0771701370131132
 40
0.0932249981273442
 40
0.108018329375434
 40
0.1234829396112583
 40
0.1397164616129453
 40
0.1567212096905603
 40
0.1748702828701679
 40
0.1938269116449437
 40
0.2135931700297217
 40
0.2341212961729353
 40
0.2544699330900976
 40
0.2742773220573522
 40
0.2935395599250585
 40
0.3195838717141773
 40
0.3445438586021366
 40
0.3684118775368819
 40
0.3912276106733211
 40
0.4135531719793477
 40
0.4422954036215046
 40
0.470470571914984
 40
0.4980712448333601
 40
0.5132826308589296
 40
0.5295182039936366
 40
0.5467820990166683
 40
0.5650715972144574
 40
0.5843833772875674
 40
0.6047134486098495
 40
0.6260570815140581
 40
0.6484087354688862
 40
0.6619884110888489
 40
0.6759113905355155
 40
0.6901761079018389
 40
0.7044190550075276
 40
0.7177543877028731
 40
0.7301434822277623
 40
0.7409596315403619
 40
0.7509378264726148
 40
0.7600796225873051
 40
0.7683865351873217
 40
0.7758600305684397
 40
0.7825786129696986
 40
0.7884457328602842
 40
0.7934625860648341
 40
0.797630232043186
 40
0.799850885033641
 40
0.8025128211769063
 40
0.8059123766124877
 40
0.8100487280492259
 40
0.8149208563824945
 40
0.8205275412997945
 40
0.8268673545499248
 40
0.8337371435284543
 40
0.8405088366226676
 40
0.8471376683291968
 40
0.8597435559816334
 40
0.8718009576577722
 40
0.8817533288028097
 40
0.8919416439360108
 40
0.9027356269767182
 40
0.914131989825402
 40
0.9261271570354632
 40
0.9385012552988338
 40
0.9468088183086552
 40
0.9539933925112587
 40
0.9600585550530081
 40
0.9650198753189954
 40
0.9667370452461328
 40
0.9683139299877742
 40
0.9698122994562354
 40
0.9721604031576929
 40
0.9756689043094867
 40
0.9803356681544564
 40
0.9861578286094261
 40
0.9931317684837581
 40
1.0
 40
1.0
 40
1.0
 40
1.0
 10
6.350000000000001
 20
269.8408855067394
 30
0.0
 10
6.389868540381323
 20
269.2716496030096
 30
0.0
 10
6.454116603818338
 20
268.3543659848069
 30
0.0
 10
6.555600321487137
 20
266.9068795777413
 30
0.0
 10
6.645508369051353
 20
265.6251704438224
 30
0.0
 10
6.726670082942199
 20
264.4686060363297
 30
0.0
 10
6.798036615681076
 20
263.4518874111504
 30
0.0
 10
6.859836466939412
 20
262.5715992776932
 30
0.0
 10
6.912832860797032
 20
261.8167737931559
 30
0.0
 10
6.960468528361449
 20
261.138326337757
 30
0.0
 10
7.045750871342668
 20
259.9237073665507
 30
0.0
 10
7.172834381383955
 20
258.1136498230878
 30
0.0
 10
7.337140414045262
 20
255.772331853935
 30
0.0
 10
7.500994498048024
 20
253.4354770388863
 30
0.0
 10
7.665176792443919
 20
251.0911773477114
 30
0.0
 10
7.83675167036995
 20
248.6373559554872
 30
0.0
 10
8.01722740279242
 20
246.0507696115411
 30
0.0
 10
8.20653712262119
 20
243.3302271642709
 30
0.0
 10
8.404568748253405
 20
240.4747004291538
 30
0.0
 10
8.609716165690209
 20
237.5043822412415
 30
0.0
 10
8.818277420614702
 20
234.4697484675546
 30
0.0
 10
9.025379851150769
 20
231.4392191542464
 30
0.0
 10
9.226455004797678
 20
228.4783896207654
 30
0.0
 10
9.444747061281719
 20
225.2411871081268
 30
0.0
 10
9.677458958140054
 20
221.7577336868549
 30
0.0
 10
9.921538914136613
 20
218.0589479618705
 30
0.0
 10
10.15113239405378
 20
214.5325120566277
 30
0.0
 10
10.3682858465647
 20
211.1483462456335
 30
0.0
 10
10.59625802827689
 20
207.5395232058353
 30
0.0
 10
10.83486797730465
 20
203.6873631291149
 30
0.0
 10
11.08169863220118
 20
199.602457277071
 30
0.0
 10
11.28219487030565
 20
196.1921634104585
 30
0.0
 10
11.44425964204706
 20
193.3699767588007
 30
0.0
 10
11.57496590651366
 20
191.0513861289377
 30
0.0
 10
11.7104405115534
 20
188.5969655910641
 30
0.0
 10
11.84988652446194
 20
186.0089758199108
 30
0.0
 10
11.99239585323174
 20
183.2902029679353
 30
0.0
 10
12.13695259071937
 20
180.4437669897678
 30
0.0
 10
12.28242476868029
 20
177.4731253297425
 30
0.0
 10
12.40639972843521
 20
174.832659294034
 30
0.0
 10
12.50970158725431
 20
172.5467995181765
 30
0.0
 10
12.5932113832636
 20
170.639858360361
 30
0.0
 10
12.6748003049968
 20
168.7112506845004
 30
0.0
 10
12.75193232945005
 20
166.8180704272461
 30
0.0
 10
12.82245154130077
 20
165.0178640883583
 30
0.0
 10
12.88416301036558
 20
163.3791115500738
 30
0.0
 10
12.9378888856604
 20
161.8968692428471
 30
0.0
 10
12.98444603694986
 20
160.5645989294906
 30
0.0
 10
13.02546020728918
 20
159.3482453972115
 30
0.0
 10
13.06134317337129
 20
158.2465911025542
 30
0.0
 10
13.09259123281309
 20
157.255099051875
 30
0.0
 10
13.11952475750906
 20
156.3736642000145
 30
0.0
 10
13.1424322489315
 20
155.6022645220451
 30
0.0
 10
13.16147591518566
 20
154.9443375313052
 30
0.0
 10
13.17555310223218
 20
154.4470157614581
 30
0.0
 10
13.18652273093487
 20
154.0532589296664
 30
0.0
 10
13.19641900548844
 20
153.6936028971256
 30
0.0
 10
13.208396297492
 20
153.2514491804347
 30
0.0
 10
13.22265702974804
 20
152.7144080130476
 30
0.0
 10
13.23901609928129
 20
152.0830595491909
 30
0.0
 10
13.25725404489814
 20
151.3581039359044
 30
0.0
 10
13.27690648552984
 20
150.5490134698126
 30
0.0
 10
13.29688879259424
 20
149.6921228282862
 30
0.0
 10
13.31622440707921
 20
148.8252904790313
 30
0.0
 10
13.33984497054071
 20
147.7162786238345
 30
0.0
 10
13.36620434540218
 20
146.3872881441289
 30
0.0
 10
13.39240332877105
 20
144.9250265039414
 30
0.0
 10
13.41428877866235
 20
143.5714744292101
 30
0.0
 10
13.43310647354056
 20
142.2772631745614
 30
0.0
 10
13.4503733249013
 20
140.9294802913604
 30
0.0
 10
13.46586768950835
 20
139.5140208188346
 30
0.0
 10
13.47903041212746
 20
138.041423214831
 30
0.0
 10
13.48812342610094
 20
136.7038752995162
 30
0.0
 10
13.49372987608603
 20
135.5689337728242
 30
0.0
 10
13.49681173240097
 20
134.6943965299564
 30
0.0
 10
13.49850189691017
 20
133.9582183010026
 30
0.0
 10
13.49914975375826
 20
133.4448075013824
 30
0.0
 10
13.49935892030712
 20
133.1128784862443
 30
0.0
 10
13.49941998485095
 20
132.9203727589089
 30
0.0
 10
13.49942524974047
 20
132.7027496851229
 30
0.0
 10
13.49932400890709
 20
132.4079369349738
 30
0.0
 10
13.49894252970472
 20
131.9868759085651
 30
0.0
 10
13.49799383419517
 20
131.4271150069327
 30
0.0
 10
13.49610160695339
 20
130.7348790493099
 30
0.0
 10
13.49298498391797
 20
129.9379340541149
 30
0.0
 10
13.4900502025991
 20
129.4307033408923
 30
0.0
 10
13.48829406607529
 20
129.1320661479199
 30
0.0
  0
SPLINE
  5
AE
330
A6
100
AcDbEntity
  8
$DDT_AUDIT_GENERATED_(77)
  6
Continuous
 62
     7
100
AcDbSpline
210
0.0
220
0.0
230
1.0
 70
     8
 71
     3
 72
    96
 73
    92
 74
     0
 42
0.0000000000709739
 43
0.0000000001
 40
0.0
 40
0.0
 40
0.0
 40
0.0
 40
0.0060769030051258
 40
0.0127009296148144
 40
0.0181333175679494
 40
0.0223705849163154
 40
0.0248892969621779
 40
0.0266466509757043
 40
0.0279623506383036
 40
0.0293865667665302
 40
0.0309288609663022
 40
0.0325884093698055
 40
0.0368606890523678
 40
0.0416080860309712
 40
0.047880013786984
 40
0.0542950089289068
 40
0.0603896413260696
 40
0.0665629634011984
 40
0.0723662276145732
 40
0.0777983732505245
 40
0.0832819078588376
 40
0.0895503304582485
 40
0.0966185611770771
 40
0.1044887609553824
 40
0.113163275914068
 40
0.122644624050507
 40
0.1329354807764425
 40
0.1415908870119199
 40
0.1505499005331595
 40
0.1587760756146474
 40
0.1661182504070436
 40
0.1725740147390649
 40
0.1784501039723148
 40
0.1833246590036741
 40
0.1871959767268982
 40
0.1900627285676929
 40
0.1924825066024552
 40
0.1952551858840601
 40
0.2003384477409595
 40
0.2063103748698384
 40
0.2131723643631423
 40
0.2215139638579475
 40
0.2308789237901286
 40
0.2408699644739229
 40
0.2511945485055597
 40
0.2618530870793149
 40
0.2798678985255951
 40
0.2987651461230236
 40
0.318545898300186
 40
0.3392108647993878
 40
0.3607603508398607
 40
0.3831942116686453
 40
0.4065030059799785
 40
0.432020693623225
 40
0.4566677324217567
 40
0.4804375810455712
 40
0.5033246338446337
 40
0.5253240954625599
 40
0.5451154204399621
 40
0.564122107473868
 40
0.5823418511942924
 40
0.5997731242316681
 40
0.6165949195812305
 40
0.637932379634395
 40
0.658486202689448
 40
0.6782566892877958
 40
0.6952474854370135
 40
0.7116149202401745
 40
0.7273597785799234
 40
0.7431507347539402
 40
0.7596499608684191
 40
0.7768541949201797
 40
0.7921591522332753
 40
0.8079770139301127
 40
0.8243050949026491
 40
0.8411404687669605
 40
0.8582721792016647
 40
0.8747542793260545
 40
0.8904729274616615
 40
0.9034174776712443
 40
0.915797650935222
 40
0.9205072426399395
 40
0.9251805289977565
 40
0.9304122125912107
 40
0.9363731079718531
 40
0.944418196669409
 40
0.9534918992135963
 40
0.9635909506961744
 40
0.9747115978841892
 40
0.9868495623893658
 40
1.0
 40
1.0
 40
1.0
 40
1.0
 10
59.21157806015189
 20
129.1570887409569
 30
0.0
 10
59.21000956045545
 20
129.4212572082924
 30
0.0
 10
59.20728354197809
 20
129.8869791886123
 30
0.0
 10
59.20430834951775
 20
130.6220509074572
 30
0.0
 10
59.20239882483065
 20
131.2673732715444
 30
0.0
 10
59.20142810554319
 20
131.7543281790192
 30
0.0
 10
59.20097203067407
 20
132.0944905717495
 30
0.0
 10
59.20076453781893
 20
132.3181809795397
 30
0.0
 10
59.20065072591618
 20
132.4981957845055
 30
0.0
 10
59.20058731162459
 20
132.6698122409035
 30
0.0
 10
59.20057140648898
 20
132.8553970414035
 30
0.0
 10
59.2006373595259
 20
133.1555601688439
 30
0.0
 10
59.20097396662644
 20
133.5852247980351
 30
0.0
 10
59.20198189365619
 20
134.2020483939935
 30
0.0
 10
59.20386064352597
 20
134.9074285916332
 30
0.0
 10
59.20678377517317
 20
135.669736312977
 30
0.0
 10
59.21056773424384
 20
136.4303493496175
 30
0.0
 10
59.21505412188078
 20
137.1682734559734
 30
0.0
 10
59.22014882635776
 20
137.8812510991175
 30
0.0
 10
59.22573412031325
 20
138.5678671615269
 30
0.0
 10
59.23216433839833
 20
139.2756333180288
 30
0.0
 10
59.24001758934497
 20
140.0533083068183
 30
0.0
 10
59.249895683369
 20
140.9325290794251
 30
0.0
 10
59.26216871365448
 20
141.9150279063557
 30
0.0
 10
59.27723894140107
 20
143.0020842586046
 30
0.0
 10
59.29554557938827
 20
144.1951011336431
 30
0.0
 10
59.31581802252316
 20
145.3924858272862
 30
0.0
 10
59.33755987767786
 20
146.5726375857755
 30
0.0
 10
59.35926553181919
 20
147.6695217431509
 30
0.0
 10
59.38131082886866
 20
148.7143251293409
 30
0.0
 10
59.40227126089481
 20
149.6554839706995
 30
0.0
 10
59.42191175827242
 20
150.4985902894952
 30
0.0
 10
59.4398019672003
 20
151.2378300580134
 30
0.0
 10
59.45553181321908
 20
151.8674686867411
 30
0.0
 10
59.4683651072948
 20
152.3685147972922
 30
0.0
 10
59.47869452495424
 20
152.7643408796579
 30
0.0
 10
59.48793511581406
 20
153.1133959780585
 30
0.0
 10
59.49989994966825
 20
153.5591382192138
 30
0.0
 10
59.5163686129417
 20
154.1602158187072
 30
0.0
 10
59.53836843323609
 20
154.9410407295051
 30
0.0
 10
59.56526665070049
 20
155.8663992604742
 30
0.0
 10
59.59769796224759
 20
156.9433537526422
 30
0.0
 10
59.63584929619525
 20
158.1616319313631
 30
0.0
 10
59.67858363944486
 20
159.4720323618663
 30
0.0
 10
59.72518268453035
 20
160.8448975599092
 30
0.0
 10
59.78640420179781
 20
162.5801808928373
 30
0.0
 10
59.86525440853877
 20
164.7080226249135
 30
0.0
 10
59.96540953069137
 20
167.2603450765172
 30
0.0
 10
60.07679060607514
 20
169.9494283725802
 30
0.0
 10
60.20003050168066
 20
172.7771260972609
 30
0.0
 10
60.33573418168847
 20
175.7452060115432
 30
0.0
 10
60.4844554419557
 20
178.8549862877149
 30
0.0
 10
60.64978962637026
 20
182.1695490386333
 30
0.0
 10
60.82850696775439
 20
185.6104549428348
 30
0.0
 10
61.01644261647945
 20
189.0966947540092
 30
0.0
 10
61.2048318808292
 20
192.4802297003502
 30
0.0
 10
61.39250872874156
 20
195.7573675590708
 30
0.0
 10
61.57470714665836
 20
198.8614617335004
 30
0.0
 10
61.75044991316471
 20
201.7935536538491
 30
0.0
 10
61.91897482934584
 20
204.5554103995721
 30
0.0
 10
62.08376051835739
 20
207.213620712535
 30
0.0
 10
62.24480936171969
 20
209.7754589555425
 30
0.0
 10
62.41809477372891
 20
212.4980273902053
 30
0.0
 10
62.60400607925968
 20
215.3820397796999
 30
0.0
 10
62.80235843339413
 20
218.4204423613785
 30
0.0
 10
62.98928519003848
 20
221.252653402173
 30
0.0
 10
63.16454344269909
 20
223.8843640913705
 30
0.0
 10
63.32806050958328
 20
226.3217394190554
 30
0.0
 10
63.48890848142366
 20
228.7040290412935
 30
0.0
 10
63.65140536716387
 20
231.0971728597849
 30
0.0
 10
63.82000035257653
 20
233.5674318543296
 30
0.0
 10
63.98803821770843
 20
236.0176471200128
 30
0.0
 10
64.15469549704517
 20
238.4374990761985
 30
0.0
 10
64.31915332546397
 20
240.816713574051
 30
0.0
 10
64.48970768416594
 20
243.275836519767
 30
0.0
 10
64.66558395473947
 20
245.8039861177626
 30
0.0
 10
64.84266830164258
 20
248.3427158654604
 30
0.0
 10
65.01638029597433
 20
250.8276455638047
 30
0.0
 10
65.1757469332181
 20
253.1035244276273
 30
0.0
 10
65.3208919690581
 20
255.1739235633841
 30
0.0
 10
65.42723823442248
 20
256.6897293676674
 30
0.0
 10
65.50434634997058
 20
257.7884066802353
 30
0.0
 10
65.55614253408842
 20
258.5263108574079
 30
0.0
 10
65.61239043909475
 20
259.3275314649941
 30
0.0
 10
65.68060877902244
 20
260.2991667299217
 30
0.0
 10
65.76247965029097
 20
261.4651856807274
 30
0.0
 10
65.85900636383334
 20
262.8399865044698
 30
0.0
 10
65.96660944086804
 20
264.3728178552159
 30
0.0
 10
66.08434081269668
 20
266.0505672039162
 30
0.0
 10
66.2158846881946
 20
267.9262223928073
 30
0.0
 10
66.29877989188826
 20
269.1096341961833
 30
0.0
 10
66.35
 20
269.8408855067394
 30
0.0
  0
ARC
  5
AF
330
A6
100
AcDbEntity
  8
$DDT_AUDIT_GENERATED_(77)
  6
Continuous
 62
     7
100
AcDbCircle
 10
36.3535457049
 20
129.2082126355
 30
0.0
 40
22.85821263551381
100
AcDbArc
 50
183.7299724721
 51
186.1082347185
  0
ARC
  5
B0
330
A6
100
AcDbEntity
  8
$DDT_AUDIT_GENERATED_(77)
  6
Continuous
 62
     7
100
AcDbCircle
 10
36.3535457049
 20
129.2082126355
 30
0.0
 40
22.85821263551381
100
AcDbArc
 50
187.5585878356
 51
353.4379417726
  0
ARC
  5
B1
330
A6
100
AcDbEntity
  8
$DDT_AUDIT_GENERATED_(77)
  6
Continuous
 62
     7
100
AcDbCircle
 10
36.3535457049
 20
129.2082126355
 30
0.0
 40
22.85821263551381
100
AcDbArc
 50
358.3762924542
 51
359.7941519697
  0
ARC
  5
B2
330
A6
100
AcDbEntity
  8
$DDT_AUDIT_GENERATED_(77)
  6
Continuous
 62
     7
100
AcDbCircle
 10
28.4447089766
 20
129.0113674542
 30
0.0
 40
14.95670803083751
100
AcDbArc
 50
179.6730416534
 51
184.9485268418
  0
ARC
  5
B3
330
A6
100
AcDbEntity
  8
$DDT_AUDIT_GENERATED_(77)
  6
Continuous
 62
     7
100
AcDbCircle
 10
36.35
 20
253.8408855067
 30
0.0
 40
3.999999999999994
100
AcDbArc
 50
255.0
 51
195.0
  0
LINE
  5
B5
330
A6
100
AcDbEntity
  8
$DDT_AUDIT_GENERATED_(B4)
  6
Continuous
 62
     7
100
AcDbLine
 10
38.35
 20
252.6861849684
 30
0.0
 11
36.35
 21
251.53148443
 31
0.0
  0
LINE
  5
B6
330
A6
100
AcDbEntity
  8
$DDT_AUDIT_GENERATED_(B4)
  6
Continuous
 62
     7
100
AcDbLine
 10
36.35
 20
251.53148443
 30
0.0
 11
34.35
 21
252.6861849684
 31
0.0
  0
LINE
  5
B7
330
A6
100
AcDbEntity
  8
$DDT_AUDIT_GENERATED_(B4)
  6
Continuous
 62
     7
100
AcDbLine
 10
34.35
 20
252.6861849684
 30
0.0
 11
34.35
 21
254.9955860451
 31
0.0
  0
LINE
  5
B8
330
A6
100
AcDbEntity
  8
$DDT_AUDIT_GENERATED_(B4)
  6
Continuous
 62
     7
100
AcDbLine
 10
34.35
 20
254.9955860451
 30
0.0
 11
36.35
 21
256.1502865835
 31
0.0
  0
LINE
  5
B9
330
A6
100
AcDbEntity
  8
$DDT_AUDIT_GENERATED_(B4)
  6
Continuous
 62
     7
100
AcDbLine
 10
36.35
 20
256.1502865835
 30
0.0
 11
38.35
 21
254.9955860451
 31
0.0
  0
LINE
  5
BA
330
A6
100
AcDbEntity
  8
$DDT_AUDIT_GENERATED_(B4)
  6
Continuous
 62
     7
100
AcDbLine
 10
38.35
 20
254.9955860451
 30
0.0
 11
38.35
 21
252.6861849684
 31
0.0
  0
ENDBLK
  5
BC
330
A6
100
AcDbEntity
  8
0
100
AcDbBlockEnd
  0
ENDSEC
  0
SECTION
  2
ENTITIES
  0
INSERT
  5
5F
330
1F
100
AcDbEntity
  8
Default
100
AcDbBlockReference
  2
SEANNOT_GROUP
 10
0.0
 20
0.0
 30
0.0
  0
INSERT
  5
6A
330
1F
100
AcDbEntity
  8
Default
100
AcDbBlockReference
  2
SEANNOT_GROUP1
 10
0.0
 20
0.0
 30
0.0
  0
INSERT
  5
70
330
1F
100
AcDbEntity
  8
Default
100
AcDbBlockReference
  2
SEANNOT_GROUP2
 10
0.0
 20
0.0
 30
0.0
  0
INSERT
  5
76
330
1F
100
AcDbEntity
  8
Default
100
AcDbBlockReference
  2
SE
 10
0.0
 20
0.0
 30
0.0
  0
INSERT
  5
8F
330
1F
100
AcDbEntity
  8
Default
100
AcDbBlockReference
  2
SE1
 10
0.0
 20
0.0
 30
0.0
  0
INSERT
  5
A7
330
1F
100
AcDbEntity
  8
Default
100
AcDbBlockReference
  2
SE2
 10
0.0
 20
0.0
 30
0.0
  0
TEXT
  5
BE
330
1F
100
AcDbEntity
  8
Default
  6
Continuous
 62
     7
100
AcDbText
 10
5.9362635081
 20
53.4225120485
 30
0.0
 40
10.0
  1
Grohe AG^J
  7
SEACAD_seiso_ttf
 11
5.9362635081
 21
63.4225120485
 31
0.0
100
AcDbText
 73
     3
  0
TEXT
  5
BF
330
1F
100
AcDbEntity
  8
Default
  6
Continuous
 62
     7
100
AcDbText
 10
5.9362635081
 20
37.0588756849
 30
0.0
 40
10.0
  1
 
  7
SEACAD_seiso_ttf
 11
5.9362635081
 21
47.0588756849
 31
0.0
100
AcDbText
 73
     3
  0
TEXT
  5
C0
330
1F
100
AcDbEntity
  8
Default
  6
Continuous
 62
     7
100
AcDbText
 10
5.9362635081
 20
20.6952393213
 30
0.0
 40
10.0
  1
ecn: 
  7
SEACAD_seiso_ttf
 11
5.9362635081
 21
30.6952393213
 31
0.0
100
AcDbText
 73
     3
  0
TEXT
  5
C1
330
1F
100
AcDbEntity
  8
Default
  6
Continuous
 62
     7
100
AcDbText
 10
5.9362635081
 20
4.3316029576
 30
0.0
 40
10.0
  1
unit: mm
  7
SEACAD_seiso_ttf
 11
5.9362635081
 21
14.3316029576
 31
0.0
100
AcDbText
 73
     3
  0
LINE
  5
C2
330
1F
100
AcDbEntity
  8
Default
  6
Continuous
 62
     7
100
AcDbLine
 10
0.0
 20
0.0
 30
0.0
 11
100.0
 21
0.0
 31
0.0
  0
LINE
  5
C3
330
1F
100
AcDbEntity
  8
Default
  6
Continuous
 62
     7
100
AcDbLine
 10
0.0
 20
0.0
 30
0.0
 11
0.0
 21
100.0
 31
0.0
  0
TEXT
  5
C4
330
1F
100
AcDbEntity
  8
Default
  6
Continuous
 62
     7
100
AcDbText
 10
24.3923665681
 20
-18.2375342018
 30
0.0
 40
10.0
  1
100 mm
  7
SEACAD_seiso_ttf
 11
24.3923665681
 21
-8.2375342018
 31
0.0
100
AcDbText
 73
     3
  0
TEXT
  5
C5
330
1F
100
AcDbEntity
  8
Default
  6
Continuous
 62
     7
100
AcDbText
 10
-7.6150308803
 20
24.6231930421
 30
0.0
 40
10.0
  1
100 mm
 50
90.0
  7
SEACAD_seiso_ttf
 11
-17.6150308803
 21
24.6231930421
 31
0.0
100
AcDbText
 73
     3
  0
TEXT
  5
C6
330
1F
100
AcDbEntity
  8
Default
  6
Continuous
 62
     7
100
AcDbText
 10
28.4878128572
 20
20.0907663715
 30
0.0
 40
10.0
  1
206445
  7
SEACAD_seiso_ttf
 11
28.4878128572
 21
30.0907663715
 31
0.0
100
AcDbText
 73
     3
  0
TEXT
  5
C7
330
1F
100
AcDbEntity
  8
Default
  6
Continuous
 62
     7
100
AcDbText
 10
5.9012241913
 20
36.7242780188
 30
0.0
 40
10.0
  1
28535000
  7
SEACAD_seiso_ttf
 11
5.9012241913
 21
46.7242780188
 31
0.0
100
AcDbText
 73
     3
  0
ENDSEC
  0
SECTION
  2
OBJECTS
  0
DICTIONARY
  5
C
330
0
100
AcDbDictionary
281
     1
  3
ACAD_GROUP
350
D
  3
ACAD_LAYOUT
350
1A
  3
ACAD_MLEADERSTYLE
350
CB
  3
ACAD_MLINESTYLE
350
17
  3
ACAD_PLOTSETTINGS
350
19
  3
ACAD_PLOTSTYLENAME
350
E
  3
ACAD_SCALELIST
350
3B
  3
ACAD_TABLESTYLE
350
CA
  3
ACAD_VISUALSTYLE
350
2A
  3
AcDbVariableDictionary
350
C8
  0
DICTIONARY
  5
D
102
{ACAD_REACTORS
330
C
102
}
330
C
100
AcDbDictionary
281
     1
  0
DICTIONARY
  5
1A
102
{ACAD_REACTORS
330
C
102
}
330
C
100
AcDbDictionary
281
     1
  3
Layout1
350
1E
  3
Model
350
22
  0
DICTIONARY
  5
CB
102
{ACAD_REACTORS
330
C
102
}
330
C
100
AcDbDictionary
281
     1
  0
DICTIONARY
  5
17
102
{ACAD_REACTORS
330
C
102
}
330
C
100
AcDbDictionary
281
     1
  3
Standard
350
18
  0
DICTIONARY
  5
19
102
{ACAD_REACTORS
330
C
102
}
330
C
100
AcDbDictionary
281
     1
  0
ACDBDICTIONARYWDFLT
  5
E
102
{ACAD_REACTORS
330
C
102
}
330
C
100
AcDbDictionary
281
     1
  3
Normal
350
F
100
AcDbDictionaryWithDefault
340
F
  0
DICTIONARY
  5
3B
102
{ACAD_REACTORS
330
C
102
}
330
C
100
AcDbDictionary
281
     1
  3
A0
350
3C
  3
A1
350
3D
  3
A2
350
3E
  3
A3
350
3F
  3
A4
350
40
  3
A5
350
41
  3
A6
350
42
  3
A7
350
43
  3
A8
350
44
  3
A9
350
45
  3
B0
350
46
  3
B1
350
47
  3
B2
350
48
  3
B3
350
49
  3
B4
350
4A
  3
B5
350
4B
  3
B6
350
4C
  3
B7
350
4D
  3
B8
350
4E
  3
B9
350
4F
  3
C0
350
50
  3
C1
350
51
  3
C2
350
52
  3
C3
350
53
  3
C4
350
54
  3
C5
350
55
  3
C6
350
56
  3
C7
350
57
  3
C8
350
58
  3
C9
350
59
  3
D0
350
5A
  3
D1
350
5B
  3
D2
350
5C
  0
DICTIONARY
  5
CA
102
{ACAD_REACTORS
330
C
102
}
330
C
100
AcDbDictionary
281
     1
  0
DICTIONARY
  5
2A
102
{ACAD_REACTORS
330
C
102
}
330
C
100
AcDbDictionary
281
     1
  3
2dWireframe
350
2F
  3
3D Hidden
350
31
  3
3dWireframe
350
30
  3
Basic
350
32
  3
Brighten
350
36
  3
ColorChange
350
3A
  3
Conceptual
350
34
  3
Dim
350
35
  3
Facepattern
350
39
  3
Flat
350
2B
  3
FlatWithEdges
350
2C
  3
Gouraud
350
2D
  3
GouraudWithEdges
350
2E
  3
Linepattern
350
38
  3
Realistic
350
33
  3
Thicken
350
37
  0
DICTIONARY
  5
C8
102
{ACAD_REACTORS
330
C
102
}
330
C
100
AcDbDictionary
281
     1
  3
CANNOSCALE
350
C9
  3
PSOLHEIGHT
350
CD
  3
PSOLWIDTH
350
CC
  0
LAYOUT
  5
1E
102
{ACAD_REACTORS
330
1A
102
}
330
1A
100
AcDbPlotSettings
  1

  2
none_device
  4

  6

 40
0.0
 41
0.0
 42
0.0
 43
0.0
 44
0.0
 45
0.0
 46
0.0
 47
0.0
 48
0.0
 49
0.0
140
0.0
141
0.0
142
1.0
143
1.0
 70
   688
 72
     0
 73
     0
 74
     5
  7

 75
    16
147
1.0
148
0.0
149
0.0
100
AcDbLayout
  1
Layout1
 70
     1
 71
     1
 10
0.0
 20
0.0
 11
1682.0
 21
2378.0
 12
0.0
 22
0.0
 32
0.0
 14
0.0
 24
0.0
 34
0.0
 15
1682.0
 25
2378.0
 35
0.0
146
0.0
 13
0.0
 23
0.0
 33
0.0
 16
1.0
 26
0.0
 36
0.0
 17
0.0
 27
1.0
 37
0.0
 76
     0
330
1B
  0
LAYOUT
  5
22
102
{ACAD_REACTORS
330
1A
102
}
330
1A
100
AcDbPlotSettings
  1

  2
none_device
  4

  6

 40
0.0
 41
0.0
 42
0.0
 43
0.0
 44
0.0
 45
0.0
 46
0.0
 47
0.0
 48
0.0
 49
0.0
140
0.0
141
0.0
142
1.0
143
1.0
 70
  1712
 72
     0
 73
     0
 74
     0
  7

 75
     0
147
1.0
148
0.0
149
0.0
100
AcDbLayout
  1
Model
 70
     1
 71
     0
 10
0.0
 20
0.0
 11
1682.0
 21
2378.0
 12
0.0
 22
0.0
 32
0.0
 14
0.0
 24
0.0
 34
0.0
 15
1682.0
 25
2378.0
 35
0.0
146
0.0
 13
0.0
 23
0.0
 33
0.0
 16
1.0
 26
0.0
 36
0.0
 17
0.0
 27
1.0
 37
0.0
 76
     0
330
1F
331
29
  0
MLINESTYLE
  5
18
102
{ACAD_REACTORS
330
17
102
}
330
17
100
AcDbMlineStyle
  2
Standard
 70
     0
  3

 62
   256
 51
90.0
 52
90.0
 71
     2
 49
0.5
 62
   256
  6
BYLAYER
 49
-0.5
 62
   256
  6
BYLAYER
  0
ACDBPLACEHOLDER
  5
F
102
{ACAD_REACTORS
330
E
102
}
330
E
  0
SCALE
  5
3C
102
{ACAD_REACTORS
330
3B
102
}
330
3B
100
AcDbScale
 70
     0
300
1:1
140
1.0
141
1.0
290
     1
  0
SCALE
  5
3D
102
{ACAD_REACTORS
330
3B
102
}
330
3B
100
AcDbScale
 70
     0
300
1:2
140
1.0
141
2.0
290
     0
  0
SCALE
  5
3E
102
{ACAD_REACTORS
330
3B
102
}
330
3B
100
AcDbScale
 70
     0
300
1:4
140
1.0
141
4.0
290
     0
  0
SCALE
  5
3F
102
{ACAD_REACTORS
330
3B
102
}
330
3B
100
AcDbScale
 70
     0
300
1:5
140
1.0
141
5.0
290
     0
  0
SCALE
  5
40
102
{ACAD_REACTORS
330
3B
102
}
330
3B
100
AcDbScale
 70
     0
300
1:8
140
1.0
141
8.0
290
     0
  0
SCALE
  5
41
102
{ACAD_REACTORS
330
3B
102
}
330
3B
100
AcDbScale
 70
     0
300
1:10
140
1.0
141
10.0
290
     0
  0
SCALE
  5
42
102
{ACAD_REACTORS
330
3B
102
}
330
3B
100
AcDbScale
 70
     0
300
1:16
140
1.0
141
16.0
290
     0
  0
SCALE
  5
43
102
{ACAD_REACTORS
330
3B
102
}
330
3B
100
AcDbScale
 70
     0
300
1:20
140
1.0
141
20.0
290
     0
  0
SCALE
  5
44
102
{ACAD_REACTORS
330
3B
102
}
330
3B
100
AcDbScale
 70
     0
300
1:30
140
1.0
141
30.0
290
     0
  0
SCALE
  5
45
102
{ACAD_REACTORS
330
3B
102
}
330
3B
100
AcDbScale
 70
     0
300
1:40
140
1.0
141
40.0
290
     0
  0
SCALE
  5
46
102
{ACAD_REACTORS
330
3B
102
}
330
3B
100
AcDbScale
 70
     0
300
1:50
140
1.0
141
50.0
290
     0
  0
SCALE
  5
47
102
{ACAD_REACTORS
330
3B
102
}
330
3B
100
AcDbScale
 70
     0
300
1:100
140
1.0
141
100.0
290
     0
  0
SCALE
  5
48
102
{ACAD_REACTORS
330
3B
102
}
330
3B
100
AcDbScale
 70
     0
300
2:1
140
2.0
141
1.0
290
     0
  0
SCALE
  5
49
102
{ACAD_REACTORS
330
3B
102
}
330
3B
100
AcDbScale
 70
     0
300
4:1
140
4.0
141
1.0
290
     0
  0
SCALE
  5
4A
102
{ACAD_REACTORS
330
3B
102
}
330
3B
100
AcDbScale
 70
     0
300
8:1
140
8.0
141
1.0
290
     0
  0
SCALE
  5
4B
102
{ACAD_REACTORS
330
3B
102
}
330
3B
100
AcDbScale
 70
     0
300
10:1
140
10.0
141
1.0
290
     0
  0
SCALE
  5
4C
102
{ACAD_REACTORS
330
3B
102
}
330
3B
100
AcDbScale
 70
     0
300
100:1
140
100.0
141
1.0
290
     0
  0
SCALE
  5
4D
102
{ACAD_REACTORS
330
3B
102
}
330
3B
100
AcDbScale
 70
     0
300
1/128" = 1'-0"
140
0.0078125
141
12.0
290
     0
  0
SCALE
  5
4E
102
{ACAD_REACTORS
330
3B
102
}
330
3B
100
AcDbScale
 70
     0
300
1/64" = 1'-0"
140
0.015625
141
12.0
290
     0
  0
SCALE
  5
4F
102
{ACAD_REACTORS
330
3B
102
}
330
3B
100
AcDbScale
 70
     0
300
1/32" = 1'-0"
140
0.03125
141
12.0
290
     0
  0
SCALE
  5
50
102
{ACAD_REACTORS
330
3B
102
}
330
3B
100
AcDbScale
 70
     0
300
1/16" = 1'-0"
140
0.0625
141
12.0
290
     0
  0
SCALE
  5
51
102
{ACAD_REACTORS
330
3B
102
}
330
3B
100
AcDbScale
 70
     0
300
3/32" = 1'-0"
140
0.09375
141
12.0
290
     0
  0
SCALE
  5
52
102
{ACAD_REACTORS
330
3B
102
}
330
3B
100
AcDbScale
 70
     0
300
1/8" = 1'-0"
140
0.125
141
12.0
290
     0
  0
SCALE
  5
53
102
{ACAD_REACTORS
330
3B
102
}
330
3B
100
AcDbScale
 70
     0
300
3/16" = 1'-0"
140
0.1875
141
12.0
290
     0
  0
SCALE
  5
54
102
{ACAD_REACTORS
330
3B
102
}
330
3B
100
AcDbScale
 70
     0
300
1/4" = 1'-0"
140
0.25
141
12.0
290
     0
  0
SCALE
  5
55
102
{ACAD_REACTORS
330
3B
102
}
330
3B
100
AcDbScale
 70
     0
300
3/8" = 1'-0"
140
0.375
141
12.0
290
     0
  0
SCALE
  5
56
102
{ACAD_REACTORS
330
3B
102
}
330
3B
100
AcDbScale
 70
     0
300
1/2" = 1'-0"
140
0.5
141
12.0
290
     0
  0
SCALE
  5
57
102
{ACAD_REACTORS
330
3B
102
}
330
3B
100
AcDbScale
 70
     0
300
3/4" = 1'-0"
140
0.75
141
12.0
290
     0
  0
SCALE
  5
58
102
{ACAD_REACTORS
330
3B
102
}
330
3B
100
AcDbScale
 70
     0
300
1" = 1'-0"
140
1.0
141
12.0
290
     0
  0
SCALE
  5
59
102
{ACAD_REACTORS
330
3B
102
}
330
3B
100
AcDbScale
 70
     0
300
1-1/2" = 1'-0"
140
1.5
141
12.0
290
     0
  0
SCALE
  5
5A
102
{ACAD_REACTORS
330
3B
102
}
330
3B
100
AcDbScale
 70
     0
300
3" = 1'-0"
140
3.0
141
12.0
290
     0
  0
SCALE
  5
5B
102
{ACAD_REACTORS
330
3B
102
}
330
3B
100
AcDbScale
 70
     0
300
6" = 1'-0"
140
6.0
141
12.0
290
     0
  0
SCALE
  5
5C
102
{ACAD_REACTORS
330
3B
102
}
330
3B
100
AcDbScale
 70
     0
300
1'-0" = 1'-0"
140
12.0
141
12.0
290
     0
  0
VISUALSTYLE
  5
2F
102
{ACAD_REACTORS
330
2A
102
}
330
2A
100
AcDbVisualStyle
  2
2dWireframe
 70
     4
 71
     0
 72
     2
 73
     0
 90
        0
 40
-0.6
 41
-30.0
 62
     5
 63
     7
 74
     1
 91
        4
 64
     7
 65
   257
 75
     1
175
     1
 42
1.0
 92
        0
 66
   257
 43
1.0
 76
     1
 77
     6
 78
     2
 67
     7
 79
     5
170
     0
171
     0
290
     0
174
     0
 93
        1
 44
0.0
173
     0
291
     0
 45
0.0
1001
ACAD
1000
AcDbSavedByObjectVersion
1070
     0
  0
VISUALSTYLE
  5
31
102
{ACAD_REACTORS
330
2A
102
}
330
2A
100
AcDbVisualStyle
  2
3D Hidden
 70
     6
 71
     1
 72
     2
 73
     2
 90
        0
 40
-0.6
 41
-30.0
 62
     5
 63
     7
 74
     2
 91
        2
 64
     7
 65
   257
 75
     2
175
     1
 42
40.0
 92
        0
 66
   257
 43
1.0
 76
     1
 77
     6
 78
     2
 67
     7
 79
     3
170
     0
171
     0
290
     0
174
     0
 93
        1
 44
0.0
173
     0
291
     0
 45
0.0
1001
ACAD
1000
AcDbSavedByObjectVersion
1070
     0
  0
VISUALSTYLE
  5
30
102
{ACAD_REACTORS
330
2A
102
}
330
2A
100
AcDbVisualStyle
  2
3dWireframe
 70
     5
 71
     0
 72
     2
 73
     0
 90
        0
 40
-0.6
 41
-30.0
 62
     5
 63
     7
 74
     1
 91
        4
 64
     7
 65
   257
 75
     1
175
     1
 42
1.0
 92
        0
 66
   257
 43
1.0
 76
     1
 77
     6
 78
     2
 67
     7
 79
     5
170
     0
171
     0
290
     0
174
     0
 93
        1
 44
0.0
173
     0
291
     0
 45
0.0
1001
ACAD
1000
AcDbSavedByObjectVersion
1070
     0
  0
VISUALSTYLE
  5
32
102
{ACAD_REACTORS
330
2A
102
}
330
2A
100
AcDbVisualStyle
  2
Basic
 70
     7
 71
     1
 72
     0
 73
     1
 90
        0
 40
-0.6
 41
-30.0
 62
     5
 63
     7
 74
     0
 91
        4
 64
     7
 65
   257
 75
     1
175
     1
 42
1.0
 92
        8
 66
     7
 43
1.0
 76
     1
 77
     6
 78
     2
 67
     7
 79
     5
170
     0
171
     0
290
     0
174
     0
 93
        1
 44
0.0
173
     0
291
     1
 45
0.0
1001
ACAD
1000
AcDbSavedByObjectVersion
1070
     0
  0
VISUALSTYLE
  5
36
102
{ACAD_REACTORS
330
2A
102
}
330
2A
100
AcDbVisualStyle
  2
Brighten
 70
    12
 71
     2
 72
     2
 73
     0
 90
        0
 40
-0.6
 41
-30.0
 62
     5
 63
     7
 74
     1
 91
        4
 64
     7
 65
   257
 75
     1
175
     1
 42
1.0
 92
        8
 66
     7
 43
1.0
 76
     1
 77
     6
 78
     2
 67
     7
 79
     5
170
     0
171
     0
290
     0
174
     0
 93
        1
 44
50.0
173
     0
291
     1
 45
0.0
1001
ACAD
1000
AcDbSavedByObjectVersion
1070
     0
  0
VISUALSTYLE
  5
3A
102
{ACAD_REACTORS
330
2A
102
}
330
2A
100
AcDbVisualStyle
  2
ColorChange
 70
    16
 71
     2
 72
     2
 73
     3
 90
        0
 40
-0.6
 41
-30.0
 62
     5
 63
     8
 74
     1
 91
        4
 64
     7
 65
   257
 75
     1
175
     1
 42
1.0
 92
        8
 66
     8
 43
1.0
 76
     1
 77
     6
 78
     2
 67
     7
 79
     5
170
     0
171
     0
290
     0
174
     0
 93
        1
 44
0.0
173
     0
291
     1
 45
0.0
1001
ACAD
1000
AcDbSavedByObjectVersion
1070
     0
  0
VISUALSTYLE
  5
34
102
{ACAD_REACTORS
330
2A
102
}
330
2A
100
AcDbVisualStyle
  2
Conceptual
 70
     9
 71
     3
 72
     2
 73
     0
 90
        0
 40
-0.6
 41
-30.0
 62
     5
 63
     7
 74
     2
 91
        2
 64
     7
 65
   257
 75
     1
175
     1
 42
40.0
 92
        8
 66
     7
 43
1.0
 76
     1
 77
     6
 78
     2
 67
     7
 79
     3
170
     0
171
     0
290
     0
174
     0
 93
        1
 44
0.0
173
     0
291
     0
 45
0.0
1001
ACAD
1000
AcDbSavedByObjectVersion
1070
     0
  0
VISUALSTYLE
  5
35
102
{ACAD_REACTORS
330
2A
102
}
330
2A
100
AcDbVisualStyle
  2
Dim
 70
    11
 71
     2
 72
     2
 73
     0
 90
        0
 40
-0.6
 41
-30.0
 62
     5
 63
     7
 74
     1
 91
        4
 64
     7
 65
   257
 75
     1
175
     1
 42
1.0
 92
        8
 66
     7
 43
1.0
 76
     1
 77
     6
 78
     2
 67
     7
 79
     5
170
     0
171
     0
290
     0
174
     0
 93
        1
 44
-50.0
173
     0
291
     1
 45
0.0
1001
ACAD
1000
AcDbSavedByObjectVersion
1070
     0
  0
VISUALSTYLE
  5
39
102
{ACAD_REACTORS
330
2A
102
}
330
2A
100
AcDbVisualStyle
  2
Facepattern
 70
    15
 71
     2
 72
     2
 73
     0
 90
        0
 40
-0.6
 41
-30.0
 62
     5
 63
     7
 74
     1
 91
        4
 64
     7
 65
   257
 75
     1
175
     1
 42
1.0
 92
        8
 66
     7
 43
1.0
 76
     1
 77
     6
 78
     2
 67
     7
 79
     5
170
     0
171
     0
290
     0
174
     0
 93
        1
 44
0.0
173
     0
291
     1
 45
0.0
1001
ACAD
1000
AcDbSavedByObjectVersion
1070
     0
  0
VISUALSTYLE
  5
2B
102
{ACAD_REACTORS
330
2A
102
}
330
2A
100
AcDbVisualStyle
  2
Flat
 70
     0
 71
     2
 72
     1
 73
     1
 90
        2
 40
-0.6
 41
30.0
 62
     5
 63
     7
 74
     0
 91
        4
 64
     7
 65
   257
 75
     1
175
     1
 42
1.0
 92
        8
 66
     7
 43
1.0
 76
     1
 77
     6
 78
     2
 67
     7
 79
     5
170
     0
171
     0
290
     0
174
     0
 93
       13
 44
0.0
173
     0
291
     1
 45
0.0
1001
ACAD
1000
AcDbSavedByObjectVersion
1070
     0
  0
VISUALSTYLE
  5
2C
102
{ACAD_REACTORS
330
2A
102
}
330
2A
100
AcDbVisualStyle
  2
FlatWithEdges
 70
     1
 71
     2
 72
     1
 73
     1
 90
        2
 40
-0.6
 41
30.0
 62
     5
 63
     7
 74
     1
 91
        4
 64
     7
 65
   257
 75
     1
175
     1
 42
1.0
 92
        0
 66
   257
 43
1.0
 76
     1
 77
     6
 78
     2
 67
     7
 79
     5
170
     0
171
     0
290
     0
174
     0
 93
       13
 44
0.0
173
     0
291
     1
 45
0.0
1001
ACAD
1000
AcDbSavedByObjectVersion
1070
     0
  0
VISUALSTYLE
  5
2D
102
{ACAD_REACTORS
330
2A
102
}
330
2A
100
AcDbVisualStyle
  2
Gouraud
 70
     2
 71
     2
 72
     2
 73
     1
 90
        2
 40
-0.6
 41
30.0
 62
     5
 63
     7
 74
     0
 91
        4
 64
     7
 65
   257
 75
     1
175
     1
 42
1.0
 92
        0
 66
     7
 43
1.0
 76
     1
 77
     6
 78
     2
 67
     7
 79
     5
170
     0
171
     0
290
     0
174
     0
 93
       13
 44
0.0
173
     0
291
     1
 45
0.0
1001
ACAD
1000
AcDbSavedByObjectVersion
1070
     0
  0
VISUALSTYLE
  5
2E
102
{ACAD_REACTORS
330
2A
102
}
330
2A
100
AcDbVisualStyle
  2
GouraudWithEdges
 70
     3
 71
     2
 72
     2
 73
     1
 90
        2
 40
-0.6
 41
30.0
 62
     5
 63
     7
 74
     1
 91
        4
 64
     7
 65
   257
 75
     1
175
     1
 42
1.0
 92
        0
 66
   257
 43
1.0
 76
     1
 77
     6
 78
     2
 67
     7
 79
     5
170
     0
171
     0
290
     0
174
     0
 93
       13
 44
0.0
173
     0
291
     1
 45
0.0
1001
ACAD
1000
AcDbSavedByObjectVersion
1070
     0
  0
VISUALSTYLE
  5
38
102
{ACAD_REACTORS
330
2A
102
}
330
2A
100
AcDbVisualStyle
  2
Linepattern
 70
    14
 71
     2
 72
     2
 73
     0
 90
        0
 40
-0.6
 41
-30.0
 62
     5
 63
     7
 74
     1
 91
        4
 64
     7
 65
   257
 75
     7
175
     7
 42
1.0
 92
        8
 66
     7
 43
1.0
 76
     1
 77
     6
 78
     2
 67
     7
 79
     5
170
     0
171
     0
290
     0
174
     0
 93
        1
 44
0.0
173
     0
291
     1
 45
0.0
1001
ACAD
1000
AcDbSavedByObjectVersion
1070
     0
  0
VISUALSTYLE
  5
33
102
{ACAD_REACTORS
330
2A
102
}
330
2A
100
AcDbVisualStyle
  2
Realistic
 70
     8
 71
     2
 72
     2
 73
     0
 90
        0
 40
-0.6
 41
-30.0
 62
     5
 63
     7
 74
     1
 91
        0
 64
     7
 65
   257
 75
     1
175
     1
 42
1.0
 92
        8
 66
     8
 43
1.0
 76
     1
 77
     6
 78
     2
 67
     7
 79
     5
170
     0
171
     0
290
     0
174
     0
 93
       13
 44
0.0
173
     0
291
     0
 45
0.0
1001
ACAD
1000
AcDbSavedByObjectVersion
1070
     0
  0
VISUALSTYLE
  5
37
102
{ACAD_REACTORS
330
2A
102
}
330
2A
100
AcDbVisualStyle
  2
Thicken
 70
    13
 71
     2
 72
     2
 73
     0
 90
        0
 40
-0.6
 41
-30.0
 62
     5
 63
     7
 74
     1
 91
        4
 64
     7
 65
   257
 75
     1
175
     1
 42
1.0
 92
       12
 66
     7
 43
1.0
 76
     1
 77
     6
 78
     2
 67
     7
 79
     5
170
     0
171
     0
290
     0
174
     0
 93
        1
 44
0.0
173
     0
291
     1
 45
0.0
1001
ACAD
1000
AcDbSavedByObjectVersion
1070
     0
  0
DICTIONARYVAR
  5
C9
102
{ACAD_REACTORS
330
C8
102
}
330
C8
100
DictionaryVariables
280
     0
  1
1:1
  0
DICTIONARYVAR
  5
CD
102
{ACAD_REACTORS
330
C8
102
}
330
C8
100
DictionaryVariables
280
     0
  1
80.000000
  0
DICTIONARYVAR
  5
CC
102
{ACAD_REACTORS
330
C8
102
}
330
C8
100
DictionaryVariables
280
     0
  1
5.000000
  0
ENDSEC
  0
EOF
