  0
SECTION
  2
HEADER
  9
$ACADVER
  1
AC1015
  9
$ACADMAINTVER
 70
     6
  9
$DWGCODEPAGE
  3
ANSI_1252
  9
$INSBASE
 10
0.0
 20
0.0
 30
0.0
  9
$EXTMIN
 10
0.0
 20
0.0
 30
0.0
  9
$EXTMAX
 10
3000.0
 20
4500.0
 30
0.0
  9
$LIMMIN
 10
0.0
 20
0.0
  9
$LIMMAX
 10
3000.0
 20
4500.0
  9
$ORTHOMODE
 70
     0
  9
$REGENMODE
 70
     1
  9
$FILLMODE
 70
     1
  9
$QTEXTMODE
 70
     0
  9
$MIRRTEXT
 70
     1
  9
$LTSCALE
 40
1.0
  9
$ATTMODE
 70
     1
  9
$TEXTSIZE
 40
2.5
  9
$TRACEWID
 40
1.0
  9
$TEXTSTYLE
  7
Standard
  9
$CLAYER
  8
0
  9
$CELTYPE
  6
ByLayer
  9
$CECOLOR
 62
   256
  9
$CELTSCALE
 40
1.0
  9
$DISPSILH
 70
     0
  9
$DIMSCALE
 40
1.0
  9
$DIMASZ
 40
2.5
  9
$DIMEXO
 40
0.625
  9
$DIMDLI
 40
3.75
  9
$DIMRND
 40
0.0
  9
$DIMDLE
 40
0.0
  9
$DIMEXE
 40
1.25
  9
$DIMTP
 40
0.0
  9
$DIMTM
 40
0.0
  9
$DIMTXT
 40
2.5
  9
$DIMCEN
 40
2.5
  9
$DIMTSZ
 40
0.0
  9
$DIMTOL
 70
     0
  9
$DIMLIM
 70
     0
  9
$DIMTIH
 70
     0
  9
$DIMTOH
 70
     0
  9
$DIMSE1
 70
     0
  9
$DIMSE2
 70
     0
  9
$DIMTAD
 70
     1
  9
$DIMZIN
 70
     8
  9
$DIMBLK
  1

  9
$DIMASO
 70
     1
  9
$DIMSHO
 70
     1
  9
$DIMPOST
  1

  9
$DIMAPOST
  1

  9
$DIMALT
 70
     0
  9
$DIMALTD
 70
     3
  9
$DIMALTF
 40
0.0393700787
  9
$DIMLFAC
 40
1.0
  9
$DIMTOFL
 70
     1
  9
$DIMTVP
 40
0.0
  9
$DIMTIX
 70
     0
  9
$DIMSOXD
 70
     0
  9
$DIMSAH
 70
     0
  9
$DIMBLK1
  1

  9
$DIMBLK2
  1

  9
$DIMSTYLE
  2
ISO-25
  9
$DIMCLRD
 70
     0
  9
$DIMCLRE
 70
     0
  9
$DIMCLRT
 70
     0
  9
$DIMTFAC
 40
1.0
  9
$DIMGAP
 40
0.625
  9
$DIMJUST
 70
     0
  9
$DIMSD1
 70
     0
  9
$DIMSD2
 70
     0
  9
$DIMTOLJ
 70
     0
  9
$DIMTZIN
 70
     8
  9
$DIMALTZ
 70
     0
  9
$DIMALTTZ
 70
     0
  9
$DIMUPT
 70
     0
  9
$DIMDEC
 70
     2
  9
$DIMTDEC
 70
     2
  9
$DIMALTU
 70
     2
  9
$DIMALTTD
 70
     3
  9
$DIMTXSTY
  7
Standard
  9
$DIMAUNIT
 70
     0
  9
$DIMADEC
 70
     0
  9
$DIMALTRND
 40
0.0
  9
$DIMAZIN
 70
     0
  9
$DIMDSEP
 70
    44
  9
$DIMATFIT
 70
     3
  9
$DIMFRAC
 70
     0
  9
$DIMLDRBLK
  1

  9
$DIMLUNIT
 70
     2
  9
$DIMLWD
 70
    -2
  9
$DIMLWE
 70
    -2
  9
$DIMTMOVE
 70
     0
  9
$LUNITS
 70
     2
  9
$LUPREC
 70
     4
  9
$SKETCHINC
 40
1.0
  9
$FILLETRAD
 40
10.0
  9
$AUNITS
 70
     0
  9
$AUPREC
 70
     0
  9
$MENU
  1
.
  9
$ELEVATION
 40
0.0
  9
$PELEVATION
 40
0.0
  9
$THICKNESS
 40
0.0
  9
$LIMCHECK
 70
     0
  9
$CHAMFERA
 40
10.0
  9
$CHAMFERB
 40
10.0
  9
$CHAMFERC
 40
20.0
  9
$CHAMFERD
 40
0.0
  9
$SKPOLY
 70
     0
  9
$TDCREATE
 40
2456135.536475174
  9
$TDUCREATE
 40
2456135.45314184
  9
$TDUPDATE
 40
2456135.536475185
  9
$TDUUPDATE
 40
2456135.453141852
  9
$TDINDWG
 40
0.0000000116
  9
$TDUSRTIMER
 40
0.0000000116
  9
$USRTIMER
 70
     1
  9
$ANGBASE
 50
0.0
  9
$ANGDIR
 70
     0
  9
$PDMODE
 70
     0
  9
$PDSIZE
 40
0.0
  9
$PLINEWID
 40
0.0
  9
$SPLFRAME
 70
     0
  9
$SPLINETYPE
 70
     6
  9
$SPLINESEGS
 70
     8
  9
$HANDSEED
  5
180
  9
$SURFTAB1
 70
     6
  9
$SURFTAB2
 70
     6
  9
$SURFTYPE
 70
     6
  9
$SURFU
 70
     6
  9
$SURFV
 70
     6
  9
$UCSBASE
  2

  9
$UCSNAME
  2

  9
$UCSORG
 10
0.0
 20
0.0
 30
0.0
  9
$UCSXDIR
 10
1.0
 20
0.0
 30
0.0
  9
$UCSYDIR
 10
0.0
 20
1.0
 30
0.0
  9
$UCSORTHOREF
  2

  9
$UCSORTHOVIEW
 70
     0
  9
$UCSORGTOP
 10
0.0
 20
0.0
 30
0.0
  9
$UCSORGBOTTOM
 10
0.0
 20
0.0
 30
0.0
  9
$UCSORGLEFT
 10
0.0
 20
0.0
 30
0.0
  9
$UCSORGRIGHT
 10
0.0
 20
0.0
 30
0.0
  9
$UCSORGFRONT
 10
0.0
 20
0.0
 30
0.0
  9
$UCSORGBACK
 10
0.0
 20
0.0
 30
0.0
  9
$PUCSBASE
  2

  9
$PUCSNAME
  2

  9
$PUCSORG
 10
0.0
 20
0.0
 30
0.0
  9
$PUCSXDIR
 10
1.0
 20
0.0
 30
0.0
  9
$PUCSYDIR
 10
0.0
 20
1.0
 30
0.0
  9
$PUCSORTHOREF
  2

  9
$PUCSORTHOVIEW
 70
     0
  9
$PUCSORGTOP
 10
0.0
 20
0.0
 30
0.0
  9
$PUCSORGBOTTOM
 10
0.0
 20
0.0
 30
0.0
  9
$PUCSORGLEFT
 10
0.0
 20
0.0
 30
0.0
  9
$PUCSORGRIGHT
 10
0.0
 20
0.0
 30
0.0
  9
$PUCSORGFRONT
 10
0.0
 20
0.0
 30
0.0
  9
$PUCSORGBACK
 10
0.0
 20
0.0
 30
0.0
  9
$USERI1
 70
     0
  9
$USERI2
 70
     0
  9
$USERI3
 70
     0
  9
$USERI4
 70
     0
  9
$USERI5
 70
     0
  9
$USERR1
 40
0.0
  9
$USERR2
 40
0.0
  9
$USERR3
 40
0.0
  9
$USERR4
 40
0.0
  9
$USERR5
 40
0.0
  9
$WORLDVIEW
 70
     1
  9
$SHADEDGE
 70
     3
  9
$SHADEDIF
 70
    70
  9
$TILEMODE
 70
     1
  9
$MAXACTVP
 70
    64
  9
$PINSBASE
 10
0.0
 20
0.0
 30
0.0
  9
$PLIMCHECK
 70
     0
  9
$PEXTMIN
 10
0.0
 20
0.0
 30
0.0
  9
$PEXTMAX
 10
3000.0
 20
4500.0
 30
0.0
  9
$PLIMMIN
 10
0.0
 20
0.0
  9
$PLIMMAX
 10
3000.0
 20
4500.0
  9
$UNITMODE
 70
     0
  9
$VISRETAIN
 70
     1
  9
$PLINEGEN
 70
     0
  9
$PSLTSCALE
 70
     1
  9
$TREEDEPTH
 70
  3020
  9
$CMLSTYLE
  2
Standard
  9
$CMLJUST
 70
     0
  9
$CMLSCALE
 40
20.0
  9
$PROXYGRAPHICS
 70
     1
  9
$MEASUREMENT
 70
     1
  9
$CELWEIGHT
370
    -1
  9
$ENDCAPS
280
     0
  9
$JOINSTYLE
280
     0
  9
$LWDISPLAY
290
     0
  9
$INSUNITS
 70
     4
  9
$HYPERLINKBASE
  1

  9
$STYLESHEET
  1

  9
$XEDIT
290
     1
  9
$CEPSNTYPE
380
     0
  9
$PSTYLEMODE
290
     1
  9
$FINGERPRINTGUID
  2
{6828C2C0-3509-43AF-B595-F94E8225C083}
  9
$VERSIONGUID
  2
{FAEB1C32-E019-11D5-929B-00C0DF256EC4}
  9
$EXTNAMES
290
     1
  9
$PSVPSCALE
 40
0.0
  9
$OLESTARTUP
290
     0
  0
ENDSEC
  0
SECTION
  2
CLASSES
  0
CLASS
  1
ACDBDICTIONARYWDFLT
  2
AcDbDictionaryWithDefault
  3
ObjectDBX Classes
 90
        0
280
     0
281
     0
  0
CLASS
  1
VISUALSTYLE
  2
AcDbVisualStyle
  3
ObjectDBX Classes
 90
     4095
280
     0
281
     0
  0
CLASS
  1
SCALE
  2
AcDbScale
  3
ObjectDBX Classes
 90
     1153
280
     0
281
     0
  0
CLASS
  1
DICTIONARYVAR
  2
AcDbDictionaryVar
  3
ObjectDBX Classes
 90
        0
280
     0
281
     0
  0
CLASS
  1
ACDBPLACEHOLDER
  2
AcDbPlaceHolder
  3
ObjectDBX Classes
 90
        0
280
     0
281
     0
  0
CLASS
  1
LAYOUT
  2
AcDbLayout
  3
ObjectDBX Classes
 90
        0
280
     0
281
     0
  0
ENDSEC
  0
SECTION
  2
TABLES
  0
TABLE
  2
VPORT
  5
8
330
0
100
AcDbSymbolTable
 70
     1
  0
VPORT
  5
29
330
8
100
AcDbSymbolTableRecord
100
AcDbViewportTableRecord
  2
*Active
 70
     0
 10
0.0
 20
0.0
 11
1.0
 21
1.0
 12
344.1869158879
 22
148.5
 13
0.0
 23
0.0
 14
10.0
 24
10.0
 15
10.0
 25
10.0
 16
0.0
 26
0.0
 36
1.0
 17
0.0
 27
0.0
 37
0.0
 40
297.0
 41
1.9729729729
 42
50.0
 43
0.0
 44
0.0
 50
0.0
 51
0.0
 71
     0
 72
   100
 73
     1
 74
     3
 75
     0
 76
     0
 77
     0
 78
     0
281
     0
 65
     1
110
0.0
120
0.0
130
0.0
111
1.0
121
0.0
131
0.0
112
0.0
122
1.0
132
0.0
 79
     0
146
0.0
  0
ENDTAB
  0
TABLE
  2
LTYPE
  5
5
330
0
100
AcDbSymbolTable
 70
     2
  0
LTYPE
  5
14
330
5
100
AcDbSymbolTableRecord
100
AcDbLinetypeTableRecord
  2
ByBlock
 70
     0
  3

 72
    65
 73
     0
 40
0.0
  0
LTYPE
  5
15
330
5
100
AcDbSymbolTableRecord
100
AcDbLinetypeTableRecord
  2
ByLayer
 70
     0
  3

 72
    65
 73
     0
 40
0.0
  0
LTYPE
  5
16
330
5
100
AcDbSymbolTableRecord
100
AcDbLinetypeTableRecord
  2
Continuous
 70
     0
  3
Solid line
 72
    65
 73
     0
 40
0.0
  0
LTYPE
  5
60
330
5
100
AcDbSymbolTableRecord
100
AcDbLinetypeTableRecord
  2
CENTER2
 70
     0
  3
Center (.5x) ___ _ ___ _ ___ _ ___ _ ___ _ ___
 72
    65
 73
     4
 40
28.575
 49
19.05
 74
     4
 75
     0
340
0
 46
0.0
 50
0.0
 44
0.0
 45
0.0
 49
-3.175
 74
     4
 75
     0
340
0
 46
0.0
 50
0.0
 44
0.0
 45
0.0
 49
3.175
 74
     4
 75
     0
340
0
 46
0.0
 50
0.0
 44
0.0
 45
0.0
 49
-3.175
 74
     4
 75
     0
340
0
 46
0.0
 50
0.0
 44
0.0
 45
0.0
  0
ENDTAB
  0
TABLE
  2
LAYER
  5
2
330
0
100
AcDbSymbolTable
 70
     5
  0
LAYER
  5
10
330
2
100
AcDbSymbolTableRecord
100
AcDbLayerTableRecord
  2
0
 70
     0
 62
     7
  6
Continuous
370
    -3
390
F
  0
LAYER
  5
5D
330
2
100
AcDbSymbolTableRecord
100
AcDbLayerTableRecord
  2
Default
 70
     0
 62
     7
  6
Continuous
370
    -3
390
F
  0
LAYER
  5
77
330
2
100
AcDbSymbolTableRecord
100
AcDbLayerTableRecord
  2
DV1_Default
 70
     0
 62
     7
  6
Continuous
370
    -3
390
F
  0
LAYER
  5
BB
330
2
100
AcDbSymbolTableRecord
100
AcDbLayerTableRecord
  2
DV2_Default
 70
     0
 62
     7
  6
Continuous
370
    -3
390
F
  0
LAYER
  5
107
330
2
100
AcDbSymbolTableRecord
100
AcDbLayerTableRecord
  2
DV3_Default
 70
     0
 62
     7
  6
Continuous
370
    -3
390
F
  0
ENDTAB
  0
TABLE
  2
STYLE
  5
3
330
0
100
AcDbSymbolTable
 70
     2
  0
STYLE
  5
11
330
3
100
AcDbSymbolTableRecord
100
AcDbTextStyleTableRecord
  2
Standard
 70
     0
 40
0.0
 41
1.0
 50
0.0
 71
     0
 42
2.5
  3
txt
  4

  0
STYLE
  5
16F
330
3
100
AcDbSymbolTableRecord
100
AcDbTextStyleTableRecord
  2
SEACAD_seiso_ttf
 70
     0
 40
0.0
 41
1.0
 50
0.0
 71
     0
 42
0.2
  3
seiso.ttf
  4

  0
ENDTAB
  0
TABLE
  2
VIEW
  5
6
330
0
100
AcDbSymbolTable
 70
     0
  0
ENDTAB
  0
TABLE
  2
UCS
  5
7
330
0
100
AcDbSymbolTable
 70
     0
  0
ENDTAB
  0
TABLE
  2
APPID
  5
9
330
0
100
AcDbSymbolTable
 70
     1
  0
APPID
  5
12
330
9
100
AcDbSymbolTableRecord
100
AcDbRegAppTableRecord
  2
ACAD
 70
     0
  0
ENDTAB
  0
TABLE
  2
DIMSTYLE
  5
A
330
0
100
AcDbSymbolTable
 70
     1
100
AcDbDimStyleTable
  0
DIMSTYLE
105
27
330
A
100
AcDbSymbolTableRecord
100
AcDbDimStyleTableRecord
  2
ISO-25
 70
     0
 41
2.5
 42
0.625
 43
3.75
 44
1.25
 73
     0
 74
     0
 77
     1
 78
     8
140
2.5
141
2.5
143
0.0393700787
147
0.625
171
     3
172
     1
271
     2
272
     2
274
     3
278
    44
283
     0
284
     8
340
11
  0
ENDTAB
  0
TABLE
  2
BLOCK_RECORD
  5
1
330
0
100
AcDbSymbolTable
 70
     7
  0
BLOCK_RECORD
  5
1F
330
1
100
AcDbSymbolTableRecord
100
AcDbBlockTableRecord
  2
*Model_Space
340
22
  0
BLOCK_RECORD
  5
1B
330
1
100
AcDbSymbolTableRecord
100
AcDbBlockTableRecord
  2
*Paper_Space
340
1E
  0
BLOCK_RECORD
  5
5E
330
1
100
AcDbSymbolTableRecord
100
AcDbBlockTableRecord
  2
SEANNOT_GROUP
340
0
102
{BLKREFS
331
5F
102
}
  0
BLOCK_RECORD
  5
69
330
1
100
AcDbSymbolTableRecord
100
AcDbBlockTableRecord
  2
SEANNOT_GROUP1
340
0
102
{BLKREFS
331
6A
102
}
  0
BLOCK_RECORD
  5
6F
330
1
100
AcDbSymbolTableRecord
100
AcDbBlockTableRecord
  2
SEANNOT_GROUP2
340
0
102
{BLKREFS
331
70
102
}
  0
BLOCK_RECORD
  5
75
330
1
100
AcDbSymbolTableRecord
100
AcDbBlockTableRecord
  2
SE
340
0
102
{BLKREFS
331
76
102
}
  0
BLOCK_RECORD
  5
B9
330
1
100
AcDbSymbolTableRecord
100
AcDbBlockTableRecord
  2
SE1
340
0
102
{BLKREFS
331
BA
102
}
  0
BLOCK_RECORD
  5
105
330
1
100
AcDbSymbolTableRecord
100
AcDbBlockTableRecord
  2
SE2
340
0
102
{BLKREFS
331
106
102
}
  0
ENDTAB
  0
ENDSEC
  0
SECTION
  2
BLOCKS
  0
BLOCK
  5
20
330
1F
100
AcDbEntity
  8
0
100
AcDbBlockBegin
  2
*Model_Space
 70
     0
 10
0.0
 20
0.0
 30
0.0
  3
*Model_Space
  1

  0
ENDBLK
  5
21
330
1F
100
AcDbEntity
  8
0
100
AcDbBlockEnd
  0
BLOCK
  5
1C
330
1B
100
AcDbEntity
 67
     1
  8
0
100
AcDbBlockBegin
  2
*Paper_Space
 70
     0
 10
0.0
 20
0.0
 30
0.0
  3
*Paper_Space
  1

  0
ENDBLK
  5
1D
330
1B
100
AcDbEntity
 67
     1
  8
0
100
AcDbBlockEnd
  0
BLOCK
  5
67
330
5E
100
AcDbEntity
  8
0
100
AcDbBlockBegin
  2
SEANNOT_GROUP
 70
     0
 10
0.0
 20
0.0
 30
0.0
  3
SEANNOT_GROUP
  1

  0
LINE
  5
61
330
5E
100
AcDbEntity
  8
Default
  6
CENTER2
 62
     7
100
AcDbLine
 10
121.3502035865
 20
358.7560685597
 30
0.0
 11
81.3502044805
 21
358.7560685597
 31
0.0
  0
LINE
  5
62
330
5E
100
AcDbEntity
  8
Default
  6
CENTER2
 62
     7
100
AcDbLine
 10
101.3502040335
 20
378.7560681126
 30
0.0
 11
101.3502040335
 21
338.7560690067
 31
0.0
  0
LINE
  5
63
330
5E
100
AcDbEntity
  8
Default
  6
CENTER2
 62
     7
100
AcDbLine
 10
126.3502034747
 20
358.7560685597
 30
0.0
 11
113.8502040335
 21
358.7560685597
 31
0.0
  0
LINE
  5
64
330
5E
100
AcDbEntity
  8
Default
  6
CENTER2
 62
     7
100
AcDbLine
 10
101.3502040335
 20
383.7560680009
 30
0.0
 11
101.3502040335
 21
371.2560685597
 31
0.0
  0
LINE
  5
65
330
5E
100
AcDbEntity
  8
Default
  6
CENTER2
 62
     7
100
AcDbLine
 10
76.3502045923
 20
358.7560685597
 30
0.0
 11
88.8502040335
 21
358.7560685597
 31
0.0
  0
LINE
  5
66
330
5E
100
AcDbEntity
  8
Default
  6
CENTER2
 62
     7
100
AcDbLine
 10
101.3502040335
 20
333.7560691185
 30
0.0
 11
101.3502040335
 21
346.2560685597
 31
0.0
  0
ENDBLK
  5
68
330
5E
100
AcDbEntity
  8
0
100
AcDbBlockEnd
  0
BLOCK
  5
6D
330
69
100
AcDbEntity
  8
0
100
AcDbBlockBegin
  2
SEANNOT_GROUP1
 70
     0
 10
0.0
 20
0.0
 30
0.0
  3
SEANNOT_GROUP1
  1

  0
LINE
  5
6B
330
69
100
AcDbEntity
  8
Default
  6
CENTER2
 62
     7
100
AcDbLine
 10
272.3435072856
 20
358.7560685597
 30
0.0
 11
232.3435081797
 21
358.7560685597
 31
0.0
  0
LINE
  5
6C
330
69
100
AcDbEntity
  8
Default
  6
CENTER2
 62
     7
100
AcDbLine
 10
252.3435077326
 20
378.7560681126
 30
0.0
 11
252.3435077326
 21
338.7560690067
 31
0.0
  0
ENDBLK
  5
6E
330
69
100
AcDbEntity
  8
0
100
AcDbBlockEnd
  0
BLOCK
  5
73
330
6F
100
AcDbEntity
  8
0
100
AcDbBlockBegin
  2
SEANNOT_GROUP2
 70
     0
 10
0.0
 20
0.0
 30
0.0
  3
SEANNOT_GROUP2
  1

  0
LINE
  5
71
330
6F
100
AcDbEntity
  8
Default
  6
CENTER2
 62
     7
100
AcDbLine
 10
121.3502035865
 20
196.8413666512
 30
0.0
 11
81.3502044805
 21
196.8413666512
 31
0.0
  0
LINE
  5
72
330
6F
100
AcDbEntity
  8
Default
  6
CENTER2
 62
     7
100
AcDbLine
 10
101.3502040335
 20
216.8413662042
 30
0.0
 11
101.3502040335
 21
176.8413670983
 31
0.0
  0
ENDBLK
  5
74
330
6F
100
AcDbEntity
  8
0
100
AcDbBlockEnd
  0
BLOCK
  5
B7
330
75
100
AcDbEntity
  8
0
100
AcDbBlockBegin
  2
SE
 70
     0
 10
0.0
 20
0.0
 30
0.0
  3
SE
  1

  0
ARC
  5
78
330
75
100
AcDbEntity
  8
DV1_Default
  6
Continuous
 62
     7
100
AcDbCircle
 10
101.3502040335
 20
358.7560685597
 30
0.0
 40
22.0
100
AcDbArc
 50
19.9322704722
 51
160.0677295278
  0
ARC
  5
79
330
75
100
AcDbEntity
  8
DV1_Default
  6
Continuous
 62
     7
100
AcDbCircle
 10
101.3502040335
 20
358.7560685597
 30
0.0
 40
20.76093704644
100
AcDbArc
 50
21.1773126387
 51
158.8226873613
  0
ARC
  5
7A
330
75
100
AcDbEntity
  8
DV1_Default
  6
Continuous
 62
     7
100
AcDbCircle
 10
101.3502040335
 20
358.7560685597
 30
0.0
 40
19.58041538147
100
AcDbArc
 50
22.5218541144
 51
157.4781458856
  0
ARC
  5
7B
330
75
100
AcDbEntity
  8
DV1_Default
  6
Continuous
 62
     7
100
AcDbCircle
 10
101.3502040335
 20
358.7560685597
 30
0.0
 40
17.79420549659
100
AcDbArc
 50
24.9284103061
 51
155.0715896939
  0
ARC
  5
7C
330
75
100
AcDbEntity
  8
DV1_Default
  6
Continuous
 62
     7
100
AcDbCircle
 10
101.3502040335
 20
358.7560685597
 30
0.0
 40
10.3156490566
100
AcDbArc
 50
29.2541216234
 51
150.7458783766
  0
ARC
  5
7D
330
75
100
AcDbEntity
  8
DV1_Default
  6
Continuous
 62
     7
100
AcDbCircle
 10
101.3502040335
 20
358.7560685597
 30
0.0
 40
10.3156490566
100
AcDbArc
 50
209.2541216234
 51
330.7458783766
  0
ARC
  5
7E
330
75
100
AcDbEntity
  8
DV1_Default
  6
Continuous
 62
     7
100
AcDbCircle
 10
101.3502040335
 20
358.7560685597
 30
0.0
 40
9.1
100
AcDbArc
 50
206.0758354498
 51
333.9241619617
  0
ARC
  5
7F
330
75
100
AcDbEntity
  8
DV1_Default
  6
Continuous
 62
     7
100
AcDbCircle
 10
101.3502040335
 20
358.7560685597
 30
0.0
 40
9.1
100
AcDbArc
 50
26.0758351754
 51
153.9241622362
  0
LINE
  5
80
330
75
100
AcDbEntity
  8
DV1_Default
  6
Continuous
 62
     7
100
AcDbLine
 10
110.3502040335
 20
352.8560685163
 30
0.0
 11
110.3502040335
 21
364.6560685163
 31
0.0
  0
LINE
  5
81
330
75
100
AcDbEntity
  8
DV1_Default
  6
Continuous
 62
     7
100
AcDbLine
 10
110.3502040335
 20
352.8560685163
 30
0.0
 11
111.3502040335
 21
352.8560685163
 31
0.0
  0
LINE
  5
82
330
75
100
AcDbEntity
  8
DV1_Default
  6
Continuous
 62
     7
100
AcDbLine
 10
111.3502040335
 20
364.6560685163
 30
0.0
 11
110.3502040335
 21
364.6560685163
 31
0.0
  0
LINE
  5
83
330
75
100
AcDbEntity
  8
DV1_Default
  6
Continuous
 62
     7
100
AcDbLine
 10
92.3502040335
 20
364.6560687089
 30
0.0
 11
92.3502040335
 21
352.8560687089
 31
0.0
  0
LINE
  5
84
330
75
100
AcDbEntity
  8
DV1_Default
  6
Continuous
 62
     7
100
AcDbLine
 10
92.3502040335
 20
364.6560687089
 30
0.0
 11
91.3502040335
 21
364.6560687089
 31
0.0
  0
LINE
  5
85
330
75
100
AcDbEntity
  8
DV1_Default
  6
Continuous
 62
     7
100
AcDbLine
 10
91.3502040335
 20
352.8560687089
 30
0.0
 11
92.3502040335
 21
352.8560687089
 31
0.0
  0
CIRCLE
  5
86
330
75
100
AcDbEntity
  8
DV1_Default
  6
Continuous
 62
     7
100
AcDbCircle
 10
101.3502040335
 20
358.7560685597
 30
0.0
 40
9.0
  0
SPLINE
  5
87
330
75
100
AcDbEntity
  8
DV1_Default
  6
Continuous
 62
     7
100
AcDbSpline
210
0.0
220
0.0
230
1.0
 70
     8
 71
     3
 72
    14
 73
    10
 74
     0
 42
0.0000000025006764
 43
0.0000000001
 40
0.0
 40
0.0
 40
0.0
 40
0.0
 40
0.1997335244666412
 40
0.1997335244666412
 40
0.4664890163110941
 40
0.4664890163110941
 40
0.7332445081555471
 40
0.7332445081555471
 40
1.0
 40
1.0
 40
1.0
 40
1.0
 10
182.0634258357747
 20
300.1653446246326
 30
0.0
 10
182.0638318704048
 20
300.164946351986
 30
0.0
 10
182.1252295753234
 20
300.1414794183351
 30
0.0
 10
182.4069837627278
 20
300.0343362205068
 30
0.0
 10
182.6736025605867
 20
299.9331607157753
 30
0.0
 10
183.3722369852676
 20
299.6682461450059
 30
0.0
 10
183.8038969100739
 20
299.5046416252925
 30
0.0
 10
184.7580762395553
 20
299.1430633126756
 30
0.0
 10
185.2801098711236
 20
298.9452732674609
 30
0.0
 10
185.8024469064124
 20
298.7473597639012
 30
0.0
  0
ARC
  5
88
330
75
100
AcDbEntity
  8
DV1_Default
  6
Continuous
 62
     7
100
AcDbCircle
 10
347.2474598174
 20
725.7807532665
 30
0.0
 40
456.0452826326192
100
AcDbArc
 50
249.7276873052
 51
249.7301735825
  0
ARC
  5
89
330
75
100
AcDbEntity
  8
DV1_Default
  6
Continuous
 62
     7
100
AcDbCircle
 10
-989.0706378848
 20
-2806.3923685791
 30
0.0
 40
3319.972815837652
100
AcDbArc
 50
69.2064958022
 51
69.2751618379
  0
SPLINE
  5
8A
330
75
100
AcDbEntity
  8
DV1_Default
  6
Continuous
 62
     7
100
AcDbSpline
210
0.0
220
0.0
230
1.0
 70
     8
 71
     3
 72
    14
 73
    10
 74
     0
 42
0.0000000014326054
 43
0.0000000001
 40
0.0
 40
0.0
 40
0.0
 40
0.0
 40
0.2586789469277518
 40
0.2586789469277518
 40
0.5173578938555037
 40
0.5173578938555037
 40
0.7760368407832555
 40
0.7760368407832555
 40
0.9999999999999999
 40
0.9999999999999999
 40
0.9999999999999999
 40
0.9999999999999999
 10
189.2356222201667
 20
297.98404092742
 30
0.0
 10
189.1454727153557
 20
298.0173963999632
 30
0.0
 10
188.7053621695968
 20
298.1838759675325
 30
0.0
 10
187.3730515883956
 20
298.687840193936
 30
0.0
 10
186.4890492048502
 20
299.022223984119
 30
0.0
 10
184.7843928179506
 20
299.6670265400267
 30
0.0
 10
183.9742347575568
 20
299.9734751150554
 30
0.0
 10
182.9681178987051
 20
300.3540437318114
 30
0.0
 10
182.7093045372205
 20
300.451939400856
 30
0.0
 10
182.7065528130161
 20
300.4529787188971
 30
0.0
  0
LINE
  5
8B
330
75
100
AcDbEntity
  8
DV1_Default
  6
Continuous
 62
     7
100
AcDbLine
 10
134.3502040334
 20
358.1253645905
 30
0.0
 11
134.3502040334
 21
362.2560425617
 31
0.0
  0
ARC
  5
8C
330
75
100
AcDbEntity
  8
DV1_Default
  6
Continuous
 62
     7
100
AcDbCircle
 10
54.3502407705
 20
314.7560557547
 30
0.0
 40
40.00019680219619
100
AcDbArc
 50
90.4914997368
 51
254.7815669954
  0
LINE
  5
8D
330
75
100
AcDbEntity
  8
DV1_Default
  6
Continuous
 62
     7
100
AcDbLine
 10
54.0069916887
 20
354.7545411158
 30
0.0
 11
54.350390927
 21
354.7560681404
 31
0.0
  0
ARC
  5
8E
330
75
100
AcDbEntity
  8
DV1_Default
  6
Continuous
 62
     7
100
AcDbCircle
 10
54.3502502317
 20
314.7561083398
 30
0.0
 40
48.0002502317467
100
AcDbArc
 50
90.0002199047
 51
257.407786359
  0
ARC
  5
8F
330
75
100
AcDbEntity
  8
DV1_Default
  6
Continuous
 62
     7
100
AcDbCircle
 10
144.8192302851
 20
314.7552424718
 30
0.0
 40
39.99872697412847
100
AcDbArc
 50
290.5353677943
 51
338.6070833837
  0
SPLINE
  5
90
330
75
100
AcDbEntity
  8
DV1_Default
  6
Continuous
 62
     7
100
AcDbSpline
210
0.0
220
0.0
230
1.0
 70
     8
 71
     3
 72
    14
 73
    10
 74
     0
 42
0.0000000139891923
 43
0.0000000001
 40
0.0
 40
0.0
 40
0.0
 40
0.0
 40
0.1305874905277978
 40
0.3657368799857835
 40
0.5559841576427658
 40
0.7166546048831469
 40
0.8508442782135024
 40
0.9579539410697948
 40
1.0
 40
1.0
 40
1.0
 40
1.0
 10
189.5366010797774
 20
297.33209783118
 30
0.0
 10
189.5505534576945
 20
297.3629106512753
 30
0.0
 10
189.5831145004324
 20
297.4375519062361
 30
0.0
 10
189.5797459830536
 20
297.5762637830902
 30
0.0
 10
189.5415064947336
 20
297.7087667311229
 30
0.0
 10
189.4822607649535
 20
297.8083746505943
 30
0.0
 10
189.4182059065656
 20
297.8775806448708
 30
0.0
 10
189.364120638008
 20
297.9202172363952
 30
0.0
 10
189.3353811574275
 20
297.9363524575813
 30
0.0
 10
189.3258565413613
 20
297.9416334012561
 30
0.0
  0
ARC
  5
91
330
75
100
AcDbEntity
  8
DV1_Default
  6
Continuous
 62
     7
100
AcDbCircle
 10
144.8192302851
 20
314.7552424718
 30
0.0
 40
47.99858227916965
100
AcDbArc
 50
286.9969373737
 51
338.712680551
  0
SPLINE
  5
92
330
75
100
AcDbEntity
  8
DV1_Default
  6
Continuous
 62
     7
100
AcDbSpline
210
0.0
220
0.0
230
1.0
 70
     8
 71
     3
 72
    12
 73
     8
 74
     0
 42
0.0000000134570623
 43
0.0000000001
 40
0.0
 40
0.0
 40
0.0
 40
0.0
 40
0.2313551436900677
 40
0.4920043690465141
 40
0.730660808682002
 40
0.9776859113769872
 40
1.0
 40
1.0
 40
1.0
 40
1.0
 10
182.6544152025759
 20
300.4679360265383
 30
0.0
 10
182.5937593800336
 20
300.4788827662801
 30
0.0
 10
182.4827191843631
 20
300.4960140377469
 30
0.0
 10
182.3023561884549
 20
300.4434381872358
 30
0.0
 10
182.161507692381
 20
300.3339820086167
 30
0.0
 10
182.0777486607925
 20
300.2280755765927
 30
0.0
 10
182.0661655993213
 20
300.1672725551136
 30
0.0
 10
182.0650638542463
 20
300.1614308067188
 30
0.0
  0
LINE
  5
93
330
75
100
AcDbEntity
  8
DV1_Default
  6
Continuous
 62
     7
100
AcDbLine
 10
110.3502040335
 20
362.7560680399
 30
0.0
 11
109.4124620397
 21
362.7560680399
 31
0.0
  0
LINE
  5
94
330
75
100
AcDbEntity
  8
DV1_Default
  6
Continuous
 62
     7
100
AcDbLine
 10
109.412461837
 20
354.756068671
 30
0.0
 11
110.3502040335
 21
354.756068671
 31
0.0
  0
LINE
  5
95
330
75
100
AcDbEntity
  8
DV1_Default
  6
Continuous
 62
     7
100
AcDbLine
 10
93.2879462105
 20
362.7560684092
 30
0.0
 11
92.3502040335
 21
362.7560684092
 31
0.0
  0
LINE
  5
96
330
75
100
AcDbEntity
  8
DV1_Default
  6
Continuous
 62
     7
100
AcDbLine
 10
68.4102040335
 20
362.7560684092
 30
0.0
 11
54.3303377225
 21
362.7560684092
 31
0.0
  0
LINE
  5
97
330
75
100
AcDbEntity
  8
DV1_Default
  6
Continuous
 62
     7
100
AcDbLine
 10
54.3303377225
 20
354.7560690403
 30
0.0
 11
67.1608104344
 21
354.7560690403
 31
0.0
  0
LINE
  5
98
330
75
100
AcDbEntity
  8
DV1_Default
  6
Continuous
 62
     7
100
AcDbLine
 10
92.3502040335
 20
354.7560690403
 30
0.0
 11
93.2879460467
 21
354.7560690403
 31
0.0
  0
ARC
  5
99
330
75
100
AcDbEntity
  8
DV1_Default
  6
Continuous
 62
     7
100
AcDbCircle
 10
133.8502062771
 20
362.2560349007
 30
0.0
 40
0.4999977563172579
100
AcDbArc
 50
0.0004389447
 51
28.3577015222
  0
LINE
  5
9A
330
75
100
AcDbEntity
  8
DV1_Default
  6
Continuous
 62
     7
100
AcDbLine
 10
91.3502040335
 20
363.3579766843
 30
0.0
 11
91.3502040335
 21
366.2560685597
 31
0.0
  0
LINE
  5
9B
330
75
100
AcDbEntity
  8
DV1_Default
  6
Continuous
 62
     7
100
AcDbLine
 10
68.4102040335
 20
366.2560685597
 30
0.0
 11
68.4102040335
 21
363.3579766843
 31
0.0
  0
LINE
  5
9C
330
75
100
AcDbEntity
  8
DV1_Default
  6
Continuous
 62
     7
100
AcDbLine
 10
91.3502040335
 20
363.3579766843
 30
0.0
 11
91.3502040335
 21
350.7436343714
 31
0.0
  0
LINE
  5
9D
330
75
100
AcDbEntity
  8
DV1_Default
  6
Continuous
 62
     7
100
AcDbLine
 10
68.4102040335
 20
358.8605930757
 30
0.0
 11
68.4102040335
 21
363.3579766844
 31
0.0
  0
ARC
  5
9E
330
75
100
AcDbEntity
  8
DV1_Default
  6
Continuous
 62
     7
100
AcDbCircle
 10
59.4915919647
 20
359.450289893
 30
0.0
 40
8.938086124591198
100
AcDbArc
 50
266.9126669799
 51
356.21712099
  0
LINE
  5
9F
330
75
100
AcDbEntity
  8
DV1_Default
  6
Continuous
 62
     7
100
AcDbLine
 10
59.0102040335
 20
350.5251764914
 30
0.0
 11
53.2502040335
 21
350.5251764914
 31
0.0
  0
ARC
  5
A0
330
75
100
AcDbEntity
  8
DV1_Default
  6
Continuous
 62
     7
100
AcDbCircle
 10
52.7857527366
 20
341.5893360058
 30
0.0
 40
8.94790255822343
100
AcDbArc
 50
87.0246588036
 51
176.9888787861
  0
LINE
  5
A1
330
75
100
AcDbEntity
  8
DV1_Default
  6
Continuous
 62
     7
100
AcDbLine
 10
134.2902040335
 20
363.3579766843
 30
0.0
 11
134.2902040335
 21
358.8605930757
 31
0.0
  0
ARC
  5
A2
330
75
100
AcDbEntity
  8
DV1_Default
  6
Continuous
 62
     7
100
AcDbCircle
 10
143.2087520274
 20
359.4502176345
 30
0.0
 40
8.938017422242794
100
AcDbArc
 50
183.7824439168
 51
273.0877681134
  0
LINE
  5
A3
330
75
100
AcDbEntity
  8
DV1_Default
  6
Continuous
 62
     7
100
AcDbLine
 10
149.4502040335
 20
350.5251764914
 30
0.0
 11
143.6902040335
 21
350.5251764914
 31
0.0
  0
ARC
  5
A4
330
75
100
AcDbEntity
  8
DV1_Default
  6
Continuous
 62
     7
100
AcDbCircle
 10
149.9146553304
 20
341.5893360058
 30
0.0
 40
8.947902558247344
100
AcDbArc
 50
3.0111212141
 51
92.9753411963
  0
LINE
  5
A5
330
75
100
AcDbEntity
  8
DV1_Default
  6
Continuous
 62
     7
100
AcDbLine
 10
158.8502040335
 20
342.0593674575
 30
0.0
 11
158.8502040335
 21
292.1597605014
 31
0.0
  0
LINE
  5
A6
330
75
100
AcDbEntity
  8
DV1_Default
  6
Continuous
 62
     7
100
AcDbLine
 10
43.8502040335
 20
292.1597605014
 30
0.0
 11
43.8502040335
 21
342.0593674575
 31
0.0
  0
SPLINE
  5
A7
330
75
100
AcDbEntity
  8
DV1_Default
  6
Continuous
 62
     7
100
AcDbSpline
210
0.0
220
0.0
230
1.0
 70
     8
 71
     3
 72
    20
 73
    16
 74
     0
 42
0.0000000003311277
 43
0.0000000001
 40
0.0
 40
0.0
 40
0.0
 40
0.0
 40
0.125
 40
0.125
 40
0.2500000000000001
 40
0.2500000000000001
 40
0.3750000000000001
 40
0.3750000000000001
 40
0.5000000000000001
 40
0.5000000000000001
 40
0.6250000000000002
 40
0.6250000000000002
 40
0.7500000000000004
 40
0.7500000000000004
 40
1.0
 40
1.0
 40
1.0
 40
1.0
 10
111.3502040334967
 20
350.7436343714375
 30
0.0
 10
111.3502040334968
 20
349.6052779280241
 30
0.0
 10
111.1109742014892
 20
348.482194192404
 30
0.0
 10
110.1522715327417
 20
346.3333823288402
 30
0.0
 10
109.4425039569986
 20
345.3395875971638
 30
0.0
 10
107.6161956976452
 20
343.6378454405097
 30
0.0
 10
106.5045445193352
 20
342.9410939808881
 30
0.0
 10
104.0558295310068
 20
341.9922272976004
 30
0.0
 10
102.7049705436902
 20
341.7385680483943
 30
0.0
 10
100.0260032512143
 20
341.7348513542617
 30
0.0
 10
98.67526795208252
 20
341.9839781869248
 30
0.0
 10
96.21566058381194
 20
342.9298538630086
 30
0.0
 10
95.10597806942516
 20
343.620488251401
 30
0.0
 10
92.3367648318427
 20
346.1921072756823
 30
0.0
 10
91.35020403349647
 20
348.466220403832
 30
0.0
 10
91.35020403349671
 20
350.7436343714367
 30
0.0
  0
LINE
  5
A8
330
75
100
AcDbEntity
  8
DV1_Default
  6
Continuous
 62
     7
100
AcDbLine
 10
111.3502040335
 20
350.7436343714
 30
0.0
 11
111.3502040335
 21
363.3579766843
 31
0.0
  0
LINE
  5
A9
330
75
100
AcDbEntity
  8
DV1_Default
  6
Continuous
 62
     7
100
AcDbLine
 10
134.2902040335
 20
363.3579766843
 30
0.0
 11
134.2902040335
 21
366.2560685597
 31
0.0
  0
LINE
  5
AA
330
75
100
AcDbEntity
  8
DV1_Default
  6
Continuous
 62
     7
100
AcDbLine
 10
111.3502040335
 20
366.2560685597
 30
0.0
 11
111.3502040335
 21
363.3579766843
 31
0.0
  0
LINE
  5
AB
330
75
100
AcDbEntity
  8
DV1_Default
  6
Continuous
 62
     7
100
AcDbLine
 10
158.8502040335
 20
269.1507500349
 30
0.0
 11
158.8502040335
 21
268.705972515
 31
0.0
  0
LINE
  5
AC
330
75
100
AcDbEntity
  8
DV1_Default
  6
Continuous
 62
     7
100
AcDbLine
 10
158.8502040335
 20
292.1597605014
 30
0.0
 11
158.8502040335
 21
269.1507500349
 31
0.0
  0
LINE
  5
AD
330
75
100
AcDbEntity
  8
DV1_Default
  6
Continuous
 62
     7
100
AcDbLine
 10
149.4502040335
 20
259.5413666512
 30
0.0
 11
53.2502040335
 21
259.5413666512
 31
0.0
  0
ELLIPSE
  5
AE
330
75
100
AcDbEntity
  8
DV1_Default
  6
Continuous
 62
     7
100
AcDbEllipse
 10
149.4502040335
 20
268.705972515
 30
0.0
 11
9.399999999999991
 21
1.804112415015879E-13
 31
0.0
210
0.0
220
0.0
230
1.0
 40
0.9749580706
 41
4.712388980384671
 42
6.283185307179567
  0
ELLIPSE
  5
AF
330
75
100
AcDbEntity
  8
DV1_Default
  6
Continuous
 62
     7
100
AcDbEllipse
 10
53.2502040335
 20
268.705972515
 30
0.0
 11
9.400000000002413
 21
-8.604228440844962E-13
 31
0.0
210
0.0
220
0.0
230
1.0
 40
0.9749580706
 41
3.141592653589881
 42
4.712388980384778
  0
LINE
  5
B0
330
75
100
AcDbEntity
  8
DV1_Default
  6
Continuous
 62
     7
100
AcDbLine
 10
53.2502040335
 20
259.9861441711
 30
0.0
 11
149.4502040335
 21
259.9861441711
 31
0.0
  0
ELLIPSE
  5
B1
330
75
100
AcDbEntity
  8
DV1_Default
  6
Continuous
 62
     7
100
AcDbEllipse
 10
149.4502040335
 20
269.1507500349
 30
0.0
 11
-9.400000000004662
 21
-9.436895709313831E-13
 31
0.0
210
0.0
220
0.0
230
1.0
 40
0.9749580706
 41
1.570796326794799
 42
3.14159265358979
  0
ELLIPSE
  5
B2
330
75
100
AcDbEntity
  8
DV1_Default
  6
Continuous
 62
     7
100
AcDbEllipse
 10
53.2502040335
 20
269.1507500349
 30
0.0
 11
-9.399999999999991
 21
1.804112415015879E-13
 31
0.0
210
0.0
220
0.0
230
1.0
 40
0.9749580706
 41
0.0000000000000197
 42
1.570796326794916
  0
LINE
  5
B3
330
75
100
AcDbEntity
  8
DV1_Default
  6
Continuous
 62
     7
100
AcDbLine
 10
43.8502040335
 20
269.1507500349
 30
0.0
 11
43.8502040335
 21
292.1597605014
 31
0.0
  0
LINE
  5
B4
330
75
100
AcDbEntity
  8
DV1_Default
  6
Continuous
 62
     7
100
AcDbLine
 10
43.8502040335
 20
268.705972515
 30
0.0
 11
43.8502040335
 21
269.1507500349
 31
0.0
  0
LINE
  5
B5
330
75
100
AcDbEntity
  8
DV1_Default
  6
Continuous
 62
     7
100
AcDbLine
 10
91.3502040335
 20
366.2560685597
 30
0.0
 11
68.4102040335
 21
366.2560685597
 31
0.0
  0
LINE
  5
B6
330
75
100
AcDbEntity
  8
DV1_Default
  6
Continuous
 62
     7
100
AcDbLine
 10
134.2902040335
 20
366.2560685597
 30
0.0
 11
111.3502040335
 21
366.2560685597
 31
0.0
  0
ENDBLK
  5
B8
330
75
100
AcDbEntity
  8
0
100
AcDbBlockEnd
  0
BLOCK
  5
103
330
B9
100
AcDbEntity
  8
0
100
AcDbBlockBegin
  2
SE1
 70
     0
 10
0.0
 20
0.0
 30
0.0
  3
SE1
  1

  0
LINE
  5
BC
330
B9
100
AcDbEntity
  8
DV2_Default
  6
Continuous
 62
     7
100
AcDbLine
 10
252.3435077326
 20
336.7560685597
 30
0.0
 11
252.3435077326
 21
380.7560685597
 31
0.0
  0
LINE
  5
BD
330
B9
100
AcDbEntity
  8
DV2_Default
  6
Continuous
 62
     7
100
AcDbLine
 10
254.8435077326
 20
336.7560685597
 30
0.0
 11
254.8435077326
 21
380.7560685597
 31
0.0
  0
LINE
  5
BE
330
B9
100
AcDbEntity
  8
DV2_Default
  6
Continuous
 62
     7
100
AcDbLine
 10
256.6930954735
 20
379.5170056061
 30
0.0
 11
256.6930954735
 21
337.9951315132
 31
0.0
  0
LINE
  5
BF
330
B9
100
AcDbEntity
  8
DV2_Default
  6
Continuous
 62
     7
100
AcDbLine
 10
258.0623311854
 20
339.1756531782
 30
0.0
 11
258.0623311854
 21
378.3364839412
 31
0.0
  0
LINE
  5
C0
330
B9
100
AcDbEntity
  8
DV2_Default
  6
Continuous
 62
     7
100
AcDbLine
 10
260.12248168
 20
376.5502740563
 30
0.0
 11
260.12248168
 21
340.9618630631
 31
0.0
  0
LINE
  5
C1
330
B9
100
AcDbEntity
  8
DV2_Default
  6
Continuous
 62
     7
100
AcDbLine
 10
268.3435077326
 20
368.7865375498
 30
0.0
 11
268.3435077326
 21
348.7255995695
 31
0.0
  0
LINE
  5
C2
330
B9
100
AcDbEntity
  8
DV2_Default
  6
Continuous
 62
     7
100
AcDbLine
 10
252.3435077326
 20
336.7560685597
 30
0.0
 11
254.8435077326
 21
336.7560685597
 31
0.0
  0
LINE
  5
C3
330
B9
100
AcDbEntity
  8
DV2_Default
  6
Continuous
 62
     7
100
AcDbLine
 10
254.8435077326
 20
380.7560685597
 30
0.0
 11
252.3435077326
 21
380.7560685597
 31
0.0
  0
ARC
  5
C4
330
B9
100
AcDbEntity
  8
DV2_Default
  6
Continuous
 62
     7
100
AcDbCircle
 10
254.8435077326
 20
338.7560685597
 30
0.0
 40
2.000000000000054
100
AcDbArc
 50
270.0
 51
337.6372929204
  0
ARC
  5
C5
330
B9
100
AcDbEntity
  8
DV2_Default
  6
Continuous
 62
     7
100
AcDbCircle
 10
254.8435077326
 20
378.7560685597
 30
0.0
 40
1.999999999999
100
AcDbArc
 50
22.3627070796
 51
90.0
  0
ARC
  5
C6
330
B9
100
AcDbEntity
  8
DV2_Default
  6
Continuous
 62
     7
100
AcDbCircle
 10
258.5426832145
 20
337.2341944668
 30
0.0
 40
2.000000000001362
100
AcDbArc
 50
103.8969291124
 51
157.6372929203
  0
ARC
  5
C7
330
B9
100
AcDbEntity
  8
DV2_Default
  6
Continuous
 62
     7
100
AcDbCircle
 10
258.5426832145
 20
380.2779426526
 30
0.0
 40
1.999999999999629
100
AcDbArc
 50
202.3627070797
 51
256.1030708876
  0
ARC
  5
C8
330
B9
100
AcDbEntity
  8
DV2_Default
  6
Continuous
 62
     7
100
AcDbCircle
 10
257.3418031417
 20
342.0878412453
 30
0.0
 40
2.999999999999343
100
AcDbArc
 50
283.8969291123
 51
337.9555331883
  0
ARC
  5
C9
330
B9
100
AcDbEntity
  8
DV2_Default
  6
Continuous
 62
     7
100
AcDbCircle
 10
257.3418031417
 20
375.424295874
 30
0.0
 40
2.999999999998502
100
AcDbArc
 50
22.0444668117
 51
76.1030708877
  0
ARC
  5
CA
330
B9
100
AcDbEntity
  8
DV2_Default
  6
Continuous
 62
     7
100
AcDbCircle
 10
272.1720886791
 20
336.0826242733
 30
0.0
 40
13.00000000000191
100
AcDbArc
 50
108.0845202754
 51
157.9555331883
  0
ARC
  5
CB
330
B9
100
AcDbEntity
  8
DV2_Default
  6
Continuous
 62
     7
100
AcDbCircle
 10
272.1720886791
 20
381.4295128461
 30
0.0
 40
13.00000000000262
100
AcDbArc
 50
202.0444668117
 51
251.9154797246
  0
ARC
  5
CC
330
B9
100
AcDbEntity
  8
DV2_Default
  6
Continuous
 62
     7
100
AcDbCircle
 10
268.0435077326
 20
348.7255993729
 30
0.0
 40
0.3000000000001181
100
AcDbArc
 50
288.0845326431
 51
0.0
  0
ARC
  5
CD
330
B9
100
AcDbEntity
  8
DV2_Default
  6
Continuous
 62
     7
100
AcDbCircle
 10
268.0435077326
 20
368.7865377465
 30
0.0
 40
0.3000000000000212
100
AcDbArc
 50
0.0
 51
71.9154673568
  0
ARC
  5
CE
330
B9
100
AcDbEntity
  8
DV2_Default
  6
Continuous
 62
     7
100
AcDbCircle
 10
295.8435077326
 20
358.7560687089
 30
0.0
 40
4.0
100
AcDbArc
 50
178.476641481
 51
180.5585647495
  0
ARC
  5
CF
330
B9
100
AcDbEntity
  8
DV2_Default
  6
Continuous
 62
     7
100
AcDbCircle
 10
295.8435077326
 20
358.7560687089
 30
0.0
 40
5.899999999999999
100
AcDbArc
 50
342.8493738245
 51
0.0
  0
ARC
  5
D0
330
B9
100
AcDbEntity
  8
DV2_Default
  6
Continuous
 62
     7
100
AcDbCircle
 10
295.8435077326
 20
358.7560687089
 30
0.0
 40
5.899999999999999
100
AcDbArc
 50
0.0
 51
16.2824466181
  0
ARC
  5
D1
330
B9
100
AcDbEntity
  8
DV2_Default
  6
Continuous
 62
     7
100
AcDbCircle
 10
295.8435077326
 20
358.7560687089
 30
0.0
 40
5.5
100
AcDbArc
 50
342.8493737238
 51
0.0
  0
ARC
  5
D2
330
B9
100
AcDbEntity
  8
DV2_Default
  6
Continuous
 62
     7
100
AcDbCircle
 10
295.8435077326
 20
358.7560687089
 30
0.0
 40
5.5
100
AcDbArc
 50
0.0
 51
37.8493739821
  0
ARC
  5
D3
330
B9
100
AcDbEntity
  8
DV2_Default
  6
Continuous
 62
     7
100
AcDbCircle
 10
295.8435077326
 20
358.7560687089
 30
0.0
 40
5.4
100
AcDbArc
 50
317.7945535544
 51
0.0
  0
ARC
  5
D4
330
B9
100
AcDbEntity
  8
DV2_Default
  6
Continuous
 62
     7
100
AcDbCircle
 10
295.8435077326
 20
358.7560687089
 30
0.0
 40
5.4
100
AcDbArc
 50
0.0
 51
222.2054408803
  0
LINE
  5
D5
330
B9
100
AcDbEntity
  8
DV2_Default
  6
Continuous
 62
     7
100
AcDbLine
 10
302.3435077301
 20
350.2560180409
 30
0.0
 11
302.3435077301
 21
355.0565624243
 31
0.0
  0
LINE
  5
D6
330
B9
100
AcDbEntity
  8
DV2_Default
  6
Continuous
 62
     7
100
AcDbLine
 10
302.3435077301
 20
356.7501189957
 30
0.0
 11
302.3435077301
 21
359.2974803326
 31
0.0
  0
LINE
  5
D7
330
B9
100
AcDbEntity
  8
DV2_Default
  6
Continuous
 62
     7
100
AcDbLine
 10
302.3435077301
 20
362.6104072085
 30
0.0
 11
302.3435077301
 21
367.2561190784
 31
0.0
  0
ARC
  5
D8
330
B9
100
AcDbEntity
  8
DV2_Default
  6
Continuous
 62
     7
100
AcDbCircle
 10
274.7894538976
 20
341.8130928354
 30
0.0
 40
8.374653749710626
100
AcDbArc
 50
71.5235053111
 51
89.6296917556
  0
ARC
  5
D9
330
B9
100
AcDbEntity
  8
DV2_Default
  6
Continuous
 62
     7
100
AcDbCircle
 10
274.8962993265
 20
341.8206803734
 30
0.0
 40
8.367057391643135
100
AcDbArc
 50
90.3610146612
 51
108.4847633098
  0
ARC
  5
DA
330
B9
100
AcDbEntity
  8
DV2_Default
  6
Continuous
 62
     7
100
AcDbCircle
 10
274.79072448
 20
341.8207318513
 30
0.0
 40
8.367005917379256
100
AcDbArc
 50
86.3240562835
 51
89.6390404434
  0
ARC
  5
DB
330
B9
100
AcDbEntity
  8
DV2_Default
  6
Continuous
 62
     7
100
AcDbCircle
 10
301.8435077326
 20
350.2560685597
 30
0.0
 40
0.5000000000000004
100
AcDbArc
 50
270.0
 51
359.9942121893
  0
ARC
  5
DC
330
B9
100
AcDbEntity
  8
DV2_Default
  6
Continuous
 62
     7
100
AcDbCircle
 10
301.8435077326
 20
367.2560685597
 30
0.0
 40
0.5000000000010745
100
AcDbArc
 50
0.0057878029
 51
90.0
  0
LINE
  5
DD
330
B9
100
AcDbEntity
  8
DV2_Default
  6
Continuous
 62
     7
100
AcDbLine
 10
301.8435077326
 20
367.7560685597
 30
0.0
 11
268.3435077326
 21
367.7560685597
 31
0.0
  0
LINE
  5
DE
330
B9
100
AcDbEntity
  8
DV2_Default
  6
Continuous
 62
     7
100
AcDbLine
 10
277.4435121866
 20
349.7560685597
 30
0.0
 11
291.8435077337
 21
349.7560685597
 31
0.0
  0
LINE
  5
DF
330
B9
100
AcDbEntity
  8
DV2_Default
  6
Continuous
 62
     7
100
AcDbLine
 10
299.8435077284
 20
349.7560685597
 30
0.0
 11
301.8435077326
 21
349.7560685597
 31
0.0
  0
LINE
  5
E0
330
B9
100
AcDbEntity
  8
DV2_Default
  6
Continuous
 62
     7
100
AcDbLine
 10
268.3435077326
 20
349.7560685597
 30
0.0
 11
272.2435032219
 21
349.7560685597
 31
0.0
  0
LINE
  5
E1
330
B9
100
AcDbEntity
  8
DV2_Default
  6
Continuous
 62
     7
100
AcDbLine
 10
291.8435077351
 20
270.7560145889
 30
0.0
 11
291.8435077352
 21
358.7544968739
 31
0.0
  0
LINE
  5
E2
330
B9
100
AcDbEntity
  8
DV2_Default
  6
Continuous
 62
     7
100
AcDbLine
 10
299.84350773
 20
358.7544235333
 30
0.0
 11
299.8435077298
 21
270.7560879325
 31
0.0
  0
LINE
  5
E3
330
B9
100
AcDbEntity
  8
DV2_Default
  6
Continuous
 62
     7
100
AcDbLine
 10
299.8435077553
 20
358.7560318048
 30
0.0
 11
299.8435077222
 21
358.7543276579
 31
0.0
  0
LINE
  5
E4
330
B9
100
AcDbEntity
  8
DV2_Default
  6
Continuous
 62
     7
100
AcDbLine
 10
291.8435077453
 20
358.7543272099
 30
0.0
 11
291.8435077105
 21
358.756031775
 31
0.0
  0
ARC
  5
E5
330
B9
100
AcDbEntity
  8
DV2_Default
  6
Continuous
 62
     7
100
AcDbCircle
 10
295.8435077337
 20
270.7558588426
 30
0.0
 40
4.000001395889635
100
AcDbArc
 50
179.9974170427
 51
0.0031715971
  0
ARC
  5
E6
330
B9
100
AcDbEntity
  8
DV2_Default
  6
Continuous
 62
     7
100
AcDbCircle
 10
295.8435077695
 20
358.7560684862
 30
0.0
 40
3.999999890555646
100
AcDbArc
 50
359.9997379726
 51
180.0003667956
  0
LINE
  5
E7
330
B9
100
AcDbEntity
  8
DV2_Default
  6
Continuous
 62
     7
100
AcDbLine
 10
299.8435077239
 20
298.7474100588
 30
0.0
 11
299.8435077251
 21
279.2163035351
 31
0.0
  0
LINE
  5
E8
330
B9
100
AcDbEntity
  8
DV2_Default
  6
Continuous
 62
     7
100
AcDbLine
 10
299.8435077252
 20
277.23101557
 30
0.0
 11
299.8435077256
 21
270.8691052652
 31
0.0
  0
LINE
  5
E9
330
B9
100
AcDbEntity
  8
DV2_Default
  6
Continuous
 62
     7
100
AcDbLine
 10
299.8435077256
 20
270.8429166341
 30
0.0
 11
299.8435077256
 21
270.7567858256
 31
0.0
  0
LINE
  5
EA
330
B9
100
AcDbEntity
  8
DV2_Default
  6
Continuous
 62
     7
100
AcDbLine
 10
291.8435077435
 20
270.7567842784
 30
0.0
 11
291.8435077418
 21
298.747419033
 31
0.0
  0
ARC
  5
EB
330
B9
100
AcDbEntity
  8
DV2_Default
  6
Continuous
 62
     7
100
AcDbCircle
 10
295.8435077326
 20
358.7560685597
 30
0.0
 40
7.499999999998695
100
AcDbArc
 50
37.8493752099
 51
208.0603213349
  0
ARC
  5
EC
330
B9
100
AcDbEntity
  8
DV2_Default
  6
Continuous
 62
     7
100
AcDbCircle
 10
295.8435077326
 20
358.7560685597
 30
0.0
 40
7.499999999994442
100
AcDbArc
 50
302.31164588
 51
342.8493752096
  0
ARC
  5
ED
330
B9
100
AcDbEntity
  8
DV2_Default
  6
Continuous
 62
     7
100
AcDbCircle
 10
295.8435077326
 20
358.7560685597
 30
0.0
 40
7.499999999994442
100
AcDbArc
 50
208.0603213349
 51
237.7571262349
  0
ARC
  5
EE
330
B9
100
AcDbEntity
  8
DV2_Default
  6
Continuous
 62
     7
100
AcDbCircle
 10
295.8435077382
 20
358.7560685637
 30
0.0
 40
5.50000000685637
100
AcDbArc
 50
213.8134244225
 51
217.8493752072
  0
ARC
  5
EF
330
B9
100
AcDbEntity
  8
DV2_Default
  6
Continuous
 62
     7
100
AcDbCircle
 10
295.8435077326
 20
358.7560685597
 30
0.0
 40
5.500000000007748
100
AcDbArc
 50
37.84937521
 51
213.8134244198
  0
ARC
  5
F0
330
B9
100
AcDbEntity
  8
DV2_Default
  6
Continuous
 62
     7
100
AcDbCircle
 10
295.8435077326
 20
358.7560685597
 30
0.0
 40
5.500000000006047
100
AcDbArc
 50
217.8493752097
 51
223.1385793168
  0
ARC
  5
F1
330
B9
100
AcDbEntity
  8
DV2_Default
  6
Continuous
 62
     7
100
AcDbCircle
 10
295.8435077326
 20
358.7560685597
 30
0.0
 40
5.500000000006047
100
AcDbArc
 50
316.8644786312
 51
342.8493752094
  0
LINE
  5
F2
330
B9
100
AcDbEntity
  8
DV2_Default
  6
Continuous
 62
     7
100
AcDbLine
 10
301.0989383347
 20
357.1342026014
 30
0.0
 11
303.0100040082
 21
356.544433162
 31
0.0
  0
ARC
  5
F3
330
B9
100
AcDbEntity
  8
DV2_Default
  6
Continuous
 62
     7
100
AcDbCircle
 10
158.0536764543
 20
251.6850061932
 30
0.0
 40
179.9999999999688
100
AcDbArc
 50
36.3508513378
 51
37.8493752096
  0
ARC
  5
F4
330
B9
100
AcDbEntity
  8
DV2_Default
  6
Continuous
 62
     7
100
AcDbCircle
 10
158.0536764543
 20
251.6850061932
 30
0.0
 40
181.9999999999969
100
AcDbArc
 50
36.0773465885
 51
37.8493752096
  0
ARC
  5
F5
330
B9
100
AcDbEntity
  8
DV2_Default
  6
Continuous
 62
     7
100
AcDbCircle
 10
158.0536764349
 20
251.6850061799
 30
0.0
 40
180.0000000235231
100
AcDbArc
 50
33.1258463816
 51
36.3508513375
  0
ARC
  5
F6
330
B9
100
AcDbEntity
  8
DV2_Default
  6
Continuous
 62
     7
100
AcDbCircle
 10
158.0536764542
 20
251.6850061935
 30
0.0
 40
181.9999999999187
100
AcDbArc
 50
32.89340885
 51
36.0773465885
  0
LINE
  5
F7
330
B9
100
AcDbEntity
  8
DV2_Default
  6
Continuous
 62
     7
100
AcDbLine
 10
308.79868728
 20
350.0513709281
 30
0.0
 11
310.8758631139
 21
350.5251764914
 31
0.0
  0
ARC
  5
F8
330
B9
100
AcDbEntity
  8
DV2_Default
  6
Continuous
 62
     7
100
AcDbCircle
 10
158.0536764598
 20
251.6850061963
 30
0.0
 40
181.9999999936901
100
AcDbArc
 50
29.7728312484
 51
32.8934088502
  0
ARC
  5
F9
330
B9
100
AcDbEntity
  8
DV2_Default
  6
Continuous
 62
     7
100
AcDbCircle
 10
158.0536764397
 20
251.6850061841
 30
0.0
 40
180.0000000172305
100
AcDbArc
 50
29.9666359416
 51
33.1258463813
  0
ARC
  5
FA
330
B9
100
AcDbEntity
  8
DV2_Default
  6
Continuous
 62
     7
100
AcDbCircle
 10
158.0536764543
 20
251.6850061932
 30
0.0
 40
181.9999999999893
100
AcDbArc
 50
12.8493752096
 51
29.7728312483
  0
ARC
  5
FB
330
B9
100
AcDbEntity
  8
DV2_Default
  6
Continuous
 62
     7
100
AcDbCircle
 10
158.0536766813
 20
251.6850058385
 30
0.0
 40
182.0000000025902
100
AcDbArc
 50
32.5976818653
 51
32.975350686
  0
ARC
  5
FC
330
B9
100
AcDbEntity
  8
DV2_Default
  6
Continuous
 62
     7
100
AcDbCircle
 10
158.0536766791
 20
251.6850058222
 30
0.0
 40
180.0000000151141
100
AcDbArc
 50
32.8584092042
 51
33.2088227305
  0
ARC
  5
FD
330
B9
100
AcDbEntity
  8
DV2_Default
  6
Continuous
 62
     7
100
AcDbCircle
 10
158.0536764543
 20
251.6850061932
 30
0.0
 40
179.9999999999808
100
AcDbArc
 50
12.8493752096
 51
29.9666359414
  0
LINE
  5
FE
330
B9
100
AcDbEntity
  8
DV2_Default
  6
Continuous
 62
     7
100
AcDbLine
 10
333.5461291648
 20
291.7149829815
 30
0.0
 11
338.7945038992
 21
268.705972515
 31
0.0
  0
LINE
  5
FF
330
B9
100
AcDbEntity
  8
DV2_Default
  6
Continuous
 62
     7
100
AcDbLine
 10
340.8849582426
 20
259.5413666512
 30
0.0
 11
338.7945038992
 21
268.705972515
 31
0.0
  0
LINE
  5
100
330
B9
100
AcDbEntity
  8
DV2_Default
  6
Continuous
 62
     7
100
AcDbLine
 10
342.8348743839
 20
259.9861441711
 30
0.0
 11
340.8849582426
 21
259.5413666512
 31
0.0
  0
LINE
  5
101
330
B9
100
AcDbEntity
  8
DV2_Default
  6
Continuous
 62
     7
100
AcDbLine
 10
340.7444200405
 20
269.1507500349
 30
0.0
 11
342.8348743838
 21
259.9861441711
 31
0.0
  0
LINE
  5
102
330
B9
100
AcDbEntity
  8
DV2_Default
  6
Continuous
 62
     7
100
AcDbLine
 10
340.7444200405
 20
269.1507500349
 30
0.0
 11
335.496045306
 21
292.1597605014
 31
0.0
  0
ENDBLK
  5
104
330
B9
100
AcDbEntity
  8
0
100
AcDbBlockEnd
  0
BLOCK
  5
16D
330
105
100
AcDbEntity
  8
0
100
AcDbBlockBegin
  2
SE2
 70
     0
 10
0.0
 20
0.0
 30
0.0
  3
SE2
  1

  0
LINE
  5
108
330
105
100
AcDbEntity
  8
DV3_Default
  6
Continuous
 62
     7
100
AcDbLine
 10
123.3502040335
 20
196.8413666512
 30
0.0
 11
79.3502040335
 21
196.8413666512
 31
0.0
  0
LINE
  5
109
330
105
100
AcDbEntity
  8
DV3_Default
  6
Continuous
 62
     7
100
AcDbLine
 10
123.3502040335
 20
194.3413666512
 30
0.0
 11
79.3502040335
 21
194.3413666512
 31
0.0
  0
LINE
  5
10A
330
105
100
AcDbEntity
  8
DV3_Default
  6
Continuous
 62
     7
100
AcDbLine
 10
80.5892669871
 20
192.4917789103
 30
0.0
 11
122.1111410799
 21
192.4917789103
 31
0.0
  0
LINE
  5
10B
330
105
100
AcDbEntity
  8
DV3_Default
  6
Continuous
 62
     7
100
AcDbLine
 10
120.930619415
 20
191.1225431985
 30
0.0
 11
81.769788652
 21
191.1225431985
 31
0.0
  0
LINE
  5
10C
330
105
100
AcDbEntity
  8
DV3_Default
  6
Continuous
 62
     7
100
AcDbLine
 10
83.5559985369
 20
189.0623927039
 30
0.0
 11
119.1444095301
 21
189.0623927039
 31
0.0
  0
LINE
  5
10D
330
105
100
AcDbEntity
  8
DV3_Default
  6
Continuous
 62
     7
100
AcDbLine
 10
91.3197350433
 20
180.8413666512
 30
0.0
 11
111.3806730237
 21
180.8413666512
 31
0.0
  0
LINE
  5
10E
330
105
100
AcDbEntity
  8
DV3_Default
  6
Continuous
 62
     7
100
AcDbLine
 10
79.3502040335
 20
196.8413666512
 30
0.0
 11
79.3502040335
 21
194.3413666512
 31
0.0
  0
LINE
  5
10F
330
105
100
AcDbEntity
  8
DV3_Default
  6
Continuous
 62
     7
100
AcDbLine
 10
123.3502040335
 20
194.3413666512
 30
0.0
 11
123.3502040335
 21
196.8413666512
 31
0.0
  0
ARC
  5
110
330
105
100
AcDbEntity
  8
DV3_Default
  6
Continuous
 62
     7
100
AcDbCircle
 10
81.3502040335
 20
194.3413666512
 30
0.0
 40
2.00000000000005
100
AcDbArc
 50
180.0
 51
247.6372929204
  0
ARC
  5
111
330
105
100
AcDbEntity
  8
DV3_Default
  6
Continuous
 62
     7
100
AcDbCircle
 10
121.3502040335
 20
194.3413666512
 30
0.0
 40
1.999999999999
100
AcDbArc
 50
292.3627070796
 51
0.0
  0
ARC
  5
112
330
105
100
AcDbEntity
  8
DV3_Default
  6
Continuous
 62
     7
100
AcDbCircle
 10
79.8283299406
 20
190.6421911694
 30
0.0
 40
2.000000000001361
100
AcDbArc
 50
13.8969291124
 51
67.6372929203
  0
ARC
  5
113
330
105
100
AcDbEntity
  8
DV3_Default
  6
Continuous
 62
     7
100
AcDbCircle
 10
122.8720781264
 20
190.6421911694
 30
0.0
 40
1.999999999999627
100
AcDbArc
 50
112.3627070797
 51
166.1030708876
  0
ARC
  5
114
330
105
100
AcDbEntity
  8
DV3_Default
  6
Continuous
 62
     7
100
AcDbCircle
 10
84.6819767192
 20
191.8430712421
 30
0.0
 40
2.999999999999331
100
AcDbArc
 50
193.8969291123
 51
247.9555331883
  0
ARC
  5
115
330
105
100
AcDbEntity
  8
DV3_Default
  6
Continuous
 62
     7
100
AcDbCircle
 10
118.0184313478
 20
191.8430712421
 30
0.0
 40
2.999999999998511
100
AcDbArc
 50
292.0444668117
 51
346.1030708877
  0
ARC
  5
116
330
105
100
AcDbEntity
  8
DV3_Default
  6
Continuous
 62
     7
100
AcDbCircle
 10
78.6767597471
 20
177.0127857048
 30
0.0
 40
13.00000000000188
100
AcDbArc
 50
18.0845202754
 51
67.9555331883
  0
ARC
  5
117
330
105
100
AcDbEntity
  8
DV3_Default
  6
Continuous
 62
     7
100
AcDbCircle
 10
124.0236483199
 20
177.0127857048
 30
0.0
 40
13.00000000000265
100
AcDbArc
 50
112.0444668117
 51
161.9154797246
  0
ARC
  5
118
330
105
100
AcDbEntity
  8
DV3_Default
  6
Continuous
 62
     7
100
AcDbCircle
 10
91.3197348467
 20
181.1413666512
 30
0.0
 40
0.3000000000001137
100
AcDbArc
 50
198.0845326431
 51
270.0000187762
  0
ARC
  5
119
330
105
100
AcDbEntity
  8
DV3_Default
  6
Continuous
 62
     7
100
AcDbCircle
 10
111.3806732203
 20
181.1413666512
 30
0.0
 40
0.3000000000000212
100
AcDbArc
 50
269.9999812238
 51
341.9154673569
  0
LINE
  5
11A
330
105
100
AcDbEntity
  8
DV3_Default
  6
Continuous
 62
     7
100
AcDbLine
 10
110.3502040335
 20
159.2413666512
 30
0.0
 11
110.3502040335
 21
147.4413666512
 31
0.0
  0
LINE
  5
11B
330
105
100
AcDbEntity
  8
DV3_Default
  6
Continuous
 62
     7
100
AcDbLine
 10
110.3502040335
 20
147.4413666512
 30
0.0
 11
111.3502040335
 21
147.4413666512
 31
0.0
  0
LINE
  5
11C
330
105
100
AcDbEntity
  8
DV3_Default
  6
Continuous
 62
     7
100
AcDbLine
 10
111.3502040335
 20
159.2413666512
 30
0.0
 11
110.3502040335
 21
159.2413666512
 31
0.0
  0
LINE
  5
11D
330
105
100
AcDbEntity
  8
DV3_Default
  6
Continuous
 62
     7
100
AcDbLine
 10
92.3502040335
 20
147.4413666512
 30
0.0
 11
92.3502040335
 21
159.2413666512
 31
0.0
  0
LINE
  5
11E
330
105
100
AcDbEntity
  8
DV3_Default
  6
Continuous
 62
     7
100
AcDbLine
 10
92.3502040335
 20
159.2413666512
 30
0.0
 11
91.3502040335
 21
159.2413666512
 31
0.0
  0
LINE
  5
11F
330
105
100
AcDbEntity
  8
DV3_Default
  6
Continuous
 62
     7
100
AcDbLine
 10
91.3502040335
 20
147.4413666512
 30
0.0
 11
92.3502040335
 21
147.4413666512
 31
0.0
  0
LINE
  5
120
330
105
100
AcDbEntity
  8
DV3_Default
  6
Continuous
 62
     7
100
AcDbLine
 10
92.8501535148
 20
146.8413666538
 30
0.0
 11
109.8502545522
 21
146.8413666538
 31
0.0
  0
ARC
  5
121
330
105
100
AcDbEntity
  8
DV3_Default
  6
Continuous
 62
     7
100
AcDbCircle
 10
117.9208025467
 20
153.3413669836
 30
0.0
 40
9.017980101187183
100
AcDbArc
 50
147.0874155075
 51
212.9125922151
  0
ARC
  5
122
330
105
100
AcDbEntity
  8
DV3_Default
  6
Continuous
 62
     7
100
AcDbCircle
 10
84.7796055203
 20
153.3413669836
 30
0.0
 40
9.017980101187163
100
AcDbArc
 50
327.0874077849
 51
32.9125844925
  0
ARC
  5
123
330
105
100
AcDbEntity
  8
DV3_Default
  6
Continuous
 62
     7
100
AcDbCircle
 10
92.8502040335
 20
147.3413666512
 30
0.0
 40
0.5000000000000004
100
AcDbArc
 50
180.0
 51
269.9942121893
  0
ARC
  5
124
330
105
100
AcDbEntity
  8
DV3_Default
  6
Continuous
 62
     7
100
AcDbCircle
 10
109.8502040335
 20
147.3413666512
 30
0.0
 40
0.5000000000010745
100
AcDbArc
 50
270.0057878029
 51
0.0
  0
LINE
  5
125
330
105
100
AcDbEntity
  8
DV3_Default
  6
Continuous
 62
     7
100
AcDbLine
 10
110.3502040335
 20
159.2413666512
 30
0.0
 11
110.3502040335
 21
180.8413666512
 31
0.0
  0
LINE
  5
126
330
105
100
AcDbEntity
  8
DV3_Default
  6
Continuous
 62
     7
100
AcDbLine
 10
110.3502040335
 20
147.3413666512
 30
0.0
 11
110.3502040335
 21
147.4413666512
 31
0.0
  0
LINE
  5
127
330
105
100
AcDbEntity
  8
DV3_Default
  6
Continuous
 62
     7
100
AcDbLine
 10
92.3502040335
 20
147.4413666512
 30
0.0
 11
92.3502040335
 21
147.3413666512
 31
0.0
  0
LINE
  5
128
330
105
100
AcDbEntity
  8
DV3_Default
  6
Continuous
 62
     7
100
AcDbLine
 10
92.3502040335
 20
180.8413666512
 30
0.0
 11
92.3502040335
 21
159.2413666512
 31
0.0
  0
LINE
  5
129
330
105
100
AcDbEntity
  8
DV3_Default
  6
Continuous
 62
     7
100
AcDbLine
 10
54.3502614846
 20
149.341366628
 30
0.0
 11
53.963427155
 21
149.3413666616
 31
0.0
  0
ARC
  5
12A
330
105
100
AcDbEntity
  8
DV3_Default
  6
Continuous
 62
     7
100
AcDbCircle
 10
185.9193708275
 20
153.4984745385
 30
0.0
 40
3.844697881978392
100
AcDbArc
 50
91.7433634435
 51
176.0760118716
  0
ARC
  5
12B
330
105
100
AcDbEntity
  8
DV3_Default
  6
Continuous
 62
     7
100
AcDbCircle
 10
185.9577974111
 20
153.2464589993
 30
0.0
 40
3.908207701512821
100
AcDbArc
 50
172.4261150803
 51
267.7219035948
  0
LINE
  5
12C
330
105
100
AcDbEntity
  8
DV3_Default
  6
Continuous
 62
     7
100
AcDbLine
 10
185.802318142
 20
149.34136666
 30
0.0
 11
144.8179689184
 21
149.3413666582
 31
0.0
  0
LINE
  5
12D
330
105
100
AcDbEntity
  8
DV3_Default
  6
Continuous
 62
     7
100
AcDbLine
 10
144.8179672374
 20
157.3413666403
 30
0.0
 11
185.8023233081
 21
157.3413666421
 31
0.0
  0
ARC
  5
12E
330
105
100
AcDbEntity
  8
DV3_Default
  6
Continuous
 62
     7
100
AcDbCircle
 10
185.6497534254
 20
153.4369457924
 30
0.0
 40
3.907429942111333
100
AcDbArc
 50
82.6797522541
 51
87.7610618363
  0
LINE
  5
12F
330
105
100
AcDbEntity
  8
DV3_Default
  6
Continuous
 62
     7
100
AcDbLine
 10
134.3502040334
 20
149.8413926492
 30
0.0
 11
134.3502040334
 21
156.8413406533
 31
0.0
  0
ARC
  5
130
330
105
100
AcDbEntity
  8
DV3_Default
  6
Continuous
 62
     7
100
AcDbCircle
 10
10.35
 20
153.3413666503
 30
0.0
 40
4.000000000034102
100
AcDbArc
 50
90.0
 51
270.0
  0
LINE
  5
131
330
105
100
AcDbEntity
  8
DV3_Default
  6
Continuous
 62
     7
100
AcDbLine
 10
54.3499386252
 20
157.3413666503
 30
0.0
 11
10.35
 21
157.3413666503
 31
0.0
  0
LINE
  5
132
330
105
100
AcDbEntity
  8
DV3_Default
  6
Continuous
 62
     7
100
AcDbLine
 10
10.35
 20
149.3413666502
 30
0.0
 11
53.9634242402
 21
149.3413666502
 31
0.0
  0
LINE
  5
133
330
105
100
AcDbEntity
  8
DV3_Default
  6
Continuous
 62
     7
100
AcDbLine
 10
144.8179672374
 20
157.3413707551
 30
0.0
 11
134.8991308611
 21
157.3413707551
 31
0.0
  0
LINE
  5
134
330
105
100
AcDbEntity
  8
DV3_Default
  6
Continuous
 62
     7
100
AcDbLine
 10
135.7948085625
 20
149.3413625474
 30
0.0
 11
144.8179689184
 21
149.3413625474
 31
0.0
  0
ARC
  5
135
330
105
100
AcDbEntity
  8
DV3_Default
  6
Continuous
 62
     7
100
AcDbCircle
 10
185.8607838723
 20
154.5747303346
 30
0.0
 40
2.76259441979227
100
AcDbArc
 50
83.8795594932
 51
92.3207926268
  0
ARC
  5
136
330
105
100
AcDbEntity
  8
DV3_Default
  6
Continuous
 62
     7
100
AcDbCircle
 10
185.6474876729
 20
153.41597426
 30
0.0
 40
3.938482176247741
100
AcDbArc
 50
352.8329328104
 51
82.5914688586
  0
ARC
  5
137
330
105
100
AcDbEntity
  8
DV3_Default
  6
Continuous
 62
     7
100
AcDbCircle
 10
185.7090409472
 20
153.2023640754
 30
0.0
 40
3.857485125245173
100
AcDbArc
 50
272.1988877714
 51
355.8684584787
  0
LINE
  5
138
330
105
100
AcDbEntity
  8
DV3_Default
  6
Continuous
 62
     7
100
AcDbLine
 10
110.3502040335
 20
157.3413663357
 30
0.0
 11
109.8941023502
 21
157.3413663357
 31
0.0
  0
LINE
  5
139
330
105
100
AcDbEntity
  8
DV3_Default
  6
Continuous
 62
     7
100
AcDbLine
 10
109.8936935361
 20
149.3413669668
 30
0.0
 11
110.3502040335
 21
149.3413669668
 31
0.0
  0
LINE
  5
13A
330
105
100
AcDbEntity
  8
DV3_Default
  6
Continuous
 62
     7
100
AcDbLine
 10
92.8067145309
 20
157.3413663357
 30
0.0
 11
92.3502040335
 21
157.3413663357
 31
0.0
  0
LINE
  5
13B
330
105
100
AcDbEntity
  8
DV3_Default
  6
Continuous
 62
     7
100
AcDbLine
 10
68.4102040335
 20
157.3413663357
 30
0.0
 11
54.3499386252
 21
157.3413663357
 31
0.0
  0
LINE
  5
13C
330
105
100
AcDbEntity
  8
DV3_Default
  6
Continuous
 62
     7
100
AcDbLine
 10
54.3303377225
 20
149.3413669668
 30
0.0
 11
68.4102040335
 21
149.3413669668
 31
0.0
  0
LINE
  5
13D
330
105
100
AcDbEntity
  8
DV3_Default
  6
Continuous
 62
     7
100
AcDbLine
 10
92.3502040335
 20
149.3413669668
 30
0.0
 11
92.8063057168
 21
149.3413669668
 31
0.0
  0
ARC
  5
13E
330
105
100
AcDbEntity
  8
DV3_Default
  6
Continuous
 62
     7
100
AcDbCircle
 10
133.8502062771
 20
149.8414003102
 30
0.0
 40
0.4999977563351829
100
AcDbArc
 50
331.6422984778
 51
359.9995610553
  0
ARC
  5
13F
330
105
100
AcDbEntity
  8
DV3_Default
  6
Continuous
 62
     7
100
AcDbCircle
 10
133.8502062771
 20
156.8413329923
 30
0.0
 40
0.4999977563171746
100
AcDbArc
 50
0.0004389447
 51
28.3577015222
  0
LINE
  5
140
330
105
100
AcDbEntity
  8
DV3_Default
  6
Continuous
 62
     7
100
AcDbLine
 10
91.3502040335
 20
147.4191675992
 30
0.0
 11
91.3502040335
 21
160.8413666512
 31
0.0
  0
LINE
  5
141
330
105
100
AcDbEntity
  8
DV3_Default
  6
Continuous
 62
     7
100
AcDbLine
 10
68.4102040335
 20
147.4191675992
 30
0.0
 11
68.4102040335
 21
160.8413666512
 31
0.0
  0
SPLINE
  5
142
330
105
100
AcDbEntity
  8
DV3_Default
  6
Continuous
 62
     7
100
AcDbSpline
210
0.0
220
0.0
230
1.0
 70
     8
 71
     3
 72
    10
 73
     6
 74
     0
 42
0.0000000029007248
 43
0.0000000001
 40
0.0
 40
0.0
 40
0.0
 40
0.0
 40
0.8222547936493166
 40
0.8222547936493166
 40
1.0
 40
1.0
 40
1.0
 40
1.0
 10
68.23970936079465
 20
146.17487037566
 30
0.0
 10
67.98951394022949
 20
146.6160580288553
 30
0.0
 10
67.51156676213705
 20
147.4479284675315
 30
0.0
 10
67.04995773095564
 20
148.8074240184982
 30
0.0
 10
66.9727914530077
 20
149.0638463153399
 30
0.0
 10
66.90437079636042
 20
149.3325899521016
 30
0.0
  0
SPLINE
  5
143
330
105
100
AcDbEntity
  8
DV3_Default
  6
Continuous
 62
     7
100
AcDbSpline
210
0.0
220
0.0
230
1.0
 70
     8
 71
     3
 72
     8
 73
     4
 74
     0
 42
0.0000000036923916
 43
0.0000000001
 40
0.0
 40
0.0
 40
0.0
 40
0.0
 40
0.9999999999999999
 40
0.9999999999999999
 40
0.9999999999999999
 40
0.9999999999999999
 10
67.8013506317875
 20
157.3425362458689
 30
0.0
 10
68.14025575508016
 20
158.416523224609
 30
0.0
 10
68.41020403349829
 20
159.335167507516
 30
0.0
 10
68.41020403349671
 20
159.9597629601366
 30
0.0
  0
LINE
  5
144
330
105
100
AcDbEntity
  8
DV3_Default
  6
Continuous
 62
     7
100
AcDbLine
 10
91.3502040335
 20
147.4191675992
 30
0.0
 11
91.3502040335
 21
138.4505240267
 31
0.0
  0
LINE
  5
145
330
105
100
AcDbEntity
  8
DV3_Default
  6
Continuous
 62
     7
100
AcDbLine
 10
68.4102040335
 20
148.0859360491
 30
0.0
 11
68.3776031144
 21
148.0859360491
 31
0.0
  0
SPLINE
  5
146
330
105
100
AcDbEntity
  8
DV3_Default
  6
Continuous
 62
     7
100
AcDbSpline
210
0.0
220
0.0
230
1.0
 70
     8
 71
     3
 72
     8
 73
     4
 74
     0
 42
0.000000030224131
 43
0.0000000001
 40
0.0
 40
0.0
 40
0.0
 40
0.0
 40
1.0
 40
1.0
 40
1.0
 40
1.0
 10
68.40343762008857
 20
157.68431262276
 30
0.0
 10
68.39758665842216
 20
157.5799696215597
 30
0.0
 10
68.38804489148772
 20
157.4699402445864
 30
0.0
 10
68.37546695303794
 20
157.3547124921194
 30
0.0
  0
SPLINE
  5
147
330
105
100
AcDbEntity
  8
DV3_Default
  6
Continuous
 62
     7
100
AcDbSpline
210
0.0
220
0.0
230
1.0
 70
     8
 71
     3
 72
     8
 73
     4
 74
     0
 42
0.0000000077749849
 43
0.0000000001
 40
0.0
 40
0.0
 40
0.0
 40
0.0
 40
1.0
 40
1.0
 40
1.0
 40
1.0
 10
68.04600863985438
 20
149.3276675152111
 30
0.0
 10
68.1791118882461
 20
148.7596654924928
 30
0.0
 10
68.31660040714318
 20
148.3346916129863
 30
0.0
 10
68.37760311444322
 20
148.0859360491498
 30
0.0
  0
LINE
  5
148
330
105
100
AcDbEntity
  8
DV3_Default
  6
Continuous
 62
     7
100
AcDbLine
 10
68.2397093608
 20
146.1748703757
 30
0.0
 11
68.4102040335
 21
146.1748703757
 31
0.0
  0
ELLIPSE
  5
149
330
105
100
AcDbEntity
  8
DV3_Default
  6
Continuous
 62
     7
100
AcDbEllipse
 10
59.010204033
 20
149.5807687096
 30
0.0
 11
9.937883849175932E-11
 21
-17.9640173312884
 31
0.0
210
0.0
220
0.0
230
1.0
 40
0.5232682549
 41
1.38004608464722
 42
1.48748739029691
  0
LINE
  5
14A
330
105
100
AcDbEntity
  8
DV3_Default
  6
Continuous
 62
     7
100
AcDbLine
 10
68.4102040335
 20
144.034652843
 30
0.0
 11
68.4102040335
 21
147.4191675992
 31
0.0
  0
SPLINE
  5
14B
330
105
100
AcDbEntity
  8
DV3_Default
  6
Continuous
 62
     7
100
AcDbSpline
210
0.0
220
0.0
230
1.0
 70
     8
 71
     3
 72
    14
 73
    10
 74
     0
 42
0.0000000008190936
 43
0.0000000001
 40
0.0
 40
0.0
 40
0.0
 40
0.0
 40
0.25
 40
0.25
 40
0.5
 40
0.5
 40
0.75
 40
0.75
 40
1.0
 40
1.0
 40
1.0
 40
1.0
 10
59.01020403349671
 20
140.3861871038635
 30
0.0
 10
60.30199633295735
 20
140.3861871038671
 30
0.0
 10
61.5712568261434
 20
140.541592650327
 30
0.0
 10
63.89199805876208
 20
141.1295324365902
 30
0.0
 10
64.94047447668937
 20
141.5644316846659
 30
0.0
 10
66.64026803445371
 20
142.6295740319896
 30
0.0
 10
67.30538332157893
 20
143.2672071566921
 30
0.0
 10
68.18676344666001
 20
144.6478070955877
 30
0.0
 10
68.4102040334968
 20
145.3945580928852
 30
0.0
 10
68.41020403349671
 20
146.1587408323169
 30
0.0
  0
SPLINE
  5
14C
330
105
100
AcDbEntity
  8
DV3_Default
  6
Continuous
 62
     7
100
AcDbSpline
210
0.0
220
0.0
230
1.0
 70
     8
 71
     3
 72
    14
 73
    10
 74
     0
 42
0.0000000008212388
 43
0.0000000001
 40
0.0
 40
0.0
 40
0.0
 40
0.0
 40
0.25
 40
0.25
 40
0.5
 40
0.5
 40
0.75
 40
0.75
 40
1.0
 40
1.0
 40
1.0
 40
1.0
 10
68.41020403349671
 20
144.0346528429972
 30
0.0
 10
68.41020403349738
 20
143.2753615566625
 30
0.0
 10
68.19124731780704
 20
142.5442286538404
 30
0.0
 10
67.30344542129491
 20
141.1634862225762
 30
0.0
 10
66.64862342182523
 20
140.5403679688548
 30
0.0
 10
64.93694373813688
 20
139.4754924645805
 30
0.0
 10
63.89624364069568
 20
139.0480771509235
 30
0.0
 10
61.57578638963197
 20
138.4639494760321
 30
0.0
 10
60.30271405573379
 20
138.3090112699628
 30
0.0
 10
59.01020403349671
 20
138.3090112699714
 30
0.0
  0
LINE
  5
14D
330
105
100
AcDbEntity
  8
DV3_Default
  6
Continuous
 62
     7
100
AcDbLine
 10
53.2502040335
 20
140.3861871039
 30
0.0
 11
59.0102040335
 21
140.3861871039
 31
0.0
  0
LINE
  5
14E
330
105
100
AcDbEntity
  8
DV3_Default
  6
Continuous
 62
     7
100
AcDbLine
 10
59.0102040335
 20
138.30901127
 30
0.0
 11
53.2502040335
 21
138.30901127
 31
0.0
  0
SPLINE
  5
14F
330
105
100
AcDbEntity
  8
DV3_Default
  6
Continuous
 62
     7
100
AcDbSpline
210
0.0
220
0.0
230
1.0
 70
     8
 71
     3
 72
    14
 73
    10
 74
     0
 42
0.0000000008543203
 43
0.0000000001
 40
0.0
 40
0.0
 40
0.0
 40
0.0
 40
0.25
 40
0.25
 40
0.5
 40
0.5
 40
0.75
 40
0.75
 40
1.0
 40
1.0
 40
1.0
 40
1.0
 10
53.25020403349671
 20
138.3090112699711
 30
0.0
 10
51.97512729027201
 20
138.3090112699644
 30
0.0
 10
50.72317417117136
 20
138.1580128782045
 30
0.0
 10
48.42352402694715
 20
137.5977070799042
 30
0.0
 10
47.38064282306547
 20
137.1876013503185
 30
0.0
 10
45.67404068139928
 20
136.2097033188082
 30
0.0
 10
44.99574049077225
 20
135.6344425896712
 30
0.0
 10
44.08849967962672
 20
134.4271819559914
 30
0.0
 10
43.85020403351115
 20
133.7873082926618
 30
0.0
 10
43.85020403350721
 20
133.1550135659812
 30
0.0
  0
LINE
  5
150
330
105
100
AcDbEntity
  8
DV3_Default
  6
Continuous
 62
     7
100
AcDbLine
 10
43.8502040335
 20
133.155013566
 30
0.0
 11
43.8502040335
 21
135.1942435399
 31
0.0
  0
SPLINE
  5
151
330
105
100
AcDbEntity
  8
DV3_Default
  6
Continuous
 62
     7
100
AcDbSpline
210
0.0
220
0.0
230
1.0
 70
     8
 71
     3
 72
    14
 73
    10
 74
     0
 42
0.0000000008525077
 43
0.0000000001
 40
0.0
 40
0.0
 40
0.0
 40
0.0
 40
0.25
 40
0.25
 40
0.5
 40
0.5
 40
0.75
 40
0.75
 40
1.0
 40
1.0
 40
1.0
 40
1.0
 10
43.85020403349971
 20
135.1942435398925
 30
0.0
 10
43.85020403349821
 20
135.8312493479308
 30
0.0
 10
44.08295945406192
 20
136.4663422273772
 30
0.0
 10
44.99467366920543
 20
137.6915212009704
 30
0.0
 10
45.6656184335274
 20
138.265203194633
 30
0.0
 10
47.37758855261011
 20
139.2552134381347
 30
0.0
 10
48.41789626599343
 20
139.6672535669798
 30
0.0
 10
50.71186345890531
 20
140.2319870638167
 30
0.0
 10
51.97289110028158
 20
140.386187103859
 30
0.0
 10
53.25020403348891
 20
140.3861871038631
 30
0.0
  0
LINE
  5
152
330
105
100
AcDbEntity
  8
DV3_Default
  6
Continuous
 62
     7
100
AcDbLine
 10
134.2902040335
 20
147.4191675992
 30
0.0
 11
134.2902040335
 21
144.034652843
 31
0.0
  0
SPLINE
  5
153
330
105
100
AcDbEntity
  8
DV3_Default
  6
Continuous
 62
     7
100
AcDbSpline
210
0.0
220
0.0
230
1.0
 70
     8
 71
     3
 72
    14
 73
    10
 74
     0
 42
0.000000000821289
 43
0.0000000001
 40
0.0
 40
0.0
 40
0.0
 40
0.0
 40
0.25
 40
0.25
 40
0.5
 40
0.5
 40
0.75
 40
0.75
 40
1.0
 40
1.0
 40
1.0
 40
1.0
 10
143.6902040334983
 20
138.309011269972
 30
0.0
 10
142.3996620508898
 20
138.3090112699642
 30
0.0
 10
141.1316343383131
 20
138.4628856464679
 30
0.0
 10
138.81197931052
 20
139.0454129195801
 30
0.0
 10
137.7635472280098
 20
139.4763923988728
 30
0.0
 10
136.0629552760443
 20
140.5324732320304
 30
0.0
 10
135.3969375834723
 20
141.1650403613542
 30
0.0
 10
134.5142677682068
 20
142.5347795739152
 30
0.0
 10
134.2902040334954
 20
143.2761372113918
 30
0.0
 10
134.2902040334961
 20
144.0346528430014
 30
0.0
  0
LINE
  5
154
330
105
100
AcDbEntity
  8
DV3_Default
  6
Continuous
 62
     7
100
AcDbLine
 10
149.4502040335
 20
138.30901127
 30
0.0
 11
143.6902040335
 21
138.30901127
 31
0.0
  0
SPLINE
  5
155
330
105
100
AcDbEntity
  8
DV3_Default
  6
Continuous
 62
     7
100
AcDbSpline
210
0.0
220
0.0
230
1.0
 70
     8
 71
     3
 72
    14
 73
    10
 74
     0
 42
0.0000000008543203
 43
0.0000000001
 40
0.0
 40
0.0
 40
0.0
 40
0.0
 40
0.25
 40
0.25
 40
0.5
 40
0.5
 40
0.75
 40
0.75
 40
1.0
 40
1.0
 40
1.0
 40
1.0
 10
149.4502040334967
 20
138.3090112699695
 30
0.0
 10
150.72528077672
 20
138.3090112699618
 30
0.0
 10
151.9772338958218
 20
138.1580128781989
 30
0.0
 10
154.2768840400447
 20
137.5977070798992
 30
0.0
 10
155.3197652439261
 20
137.1876013503143
 30
0.0
 10
157.0263673855942
 20
136.209703318806
 30
0.0
 10
157.7046675762236
 20
135.6344425896703
 30
0.0
 10
158.6119083873764
 20
134.4271819559931
 30
0.0
 10
158.8502040334981
 20
133.7873082926608
 30
0.0
 10
158.8502040334967
 20
133.1550135659824
 30
0.0
  0
LINE
  5
156
330
105
100
AcDbEntity
  8
DV3_Default
  6
Continuous
 62
     7
100
AcDbLine
 10
158.8502040335
 20
133.155013566
 30
0.0
 11
158.8502040335
 21
113.6888290779
 31
0.0
  0
LINE
  5
157
330
105
100
AcDbEntity
  8
DV3_Default
  6
Continuous
 62
     7
100
AcDbLine
 10
43.8502040335
 20
113.6888290779
 30
0.0
 11
43.8502040335
 21
133.155013566
 31
0.0
  0
SPLINE
  5
158
330
105
100
AcDbEntity
  8
DV3_Default
  6
Continuous
 62
     7
100
AcDbSpline
210
0.0
220
0.0
230
1.0
 70
     8
 71
     3
 72
    20
 73
    16
 74
     0
 42
0.0000000003956752
 43
0.0000000001
 40
0.0
 40
0.0
 40
0.0
 40
0.0
 40
0.125
 40
0.125
 40
0.2500000000000001
 40
0.2500000000000001
 40
0.3750000000000001
 40
0.3750000000000001
 40
0.5000000000000001
 40
0.5000000000000001
 40
0.6250000000000002
 40
0.6250000000000002
 40
0.7500000000000004
 40
0.7500000000000004
 40
1.0
 40
1.0
 40
1.0
 40
1.0
 10
111.3502040334967
 20
138.4505240266454
 30
0.0
 10
111.3502040334968
 20
137.7119627878238
 30
0.0
 10
111.1109742014892
 20
137.001706360115
 30
0.0
 10
110.1522715327417
 20
135.6729055457332
 30
0.0
 10
109.4425039569986
 20
135.0741642941806
 30
0.0
 10
107.6161956976452
 20
134.0654355260872
 30
0.0
 10
106.5045445193352
 20
133.6617530237089
 30
0.0
 10
104.0558295310068
 20
133.1156751045157
 30
0.0
 10
102.7049705436902
 20
132.9719237728804
 30
0.0
 10
100.0260032512143
 20
132.9698075997963
 30
0.0
 10
98.67526795208252
 20
133.1109669876659
 30
0.0
 10
96.21566058381194
 20
133.6552457852201
 30
0.0
 10
95.10597806942516
 20
134.0552289075764
 30
0.0
 10
92.3367648318427
 20
135.5793433380595
 30
0.0
 10
91.35020403349647
 20
136.9729466905123
 30
0.0
 10
91.35020403349671
 20
138.4505240266472
 30
0.0
  0
LINE
  5
159
330
105
100
AcDbEntity
  8
DV3_Default
  6
Continuous
 62
     7
100
AcDbLine
 10
111.3502040335
 20
138.4505240266
 30
0.0
 11
111.3502040335
 21
147.4191675991
 31
0.0
  0
SPLINE
  5
15A
330
105
100
AcDbEntity
  8
DV3_Default
  6
Continuous
 62
     7
100
AcDbSpline
210
0.0
220
0.0
230
1.0
 70
     8
 71
     3
 72
    14
 73
    10
 74
     0
 42
0.0000000006951316
 43
0.0000000001
 40
0.0
 40
0.0
 40
0.0
 40
0.0
 40
0.25
 40
0.25
 40
0.5
 40
0.5
 40
0.75
 40
0.75
 40
1.0
 40
1.0
 40
1.0
 40
1.0
 10
134.2902040334959
 20
159.9597629601365
 30
0.0
 10
134.2902040334947
 20
159.2458299266747
 30
0.0
 10
134.6440266912226
 20
158.1441627016264
 30
0.0
 10
135.4536043346846
 20
155.5966163063901
 30
0.0
 10
135.9036447625515
 20
154.1447432256694
 30
0.0
 10
136.1852260918814
 20
151.1356280517936
 30
0.0
 10
135.95544931683
 20
149.710091092969
 30
0.0
 10
135.1895105836579
 20
147.4455387261327
 30
0.0
 10
134.7110140620263
 20
146.6162695193245
 30
0.0
 10
134.4606987062058
 20
146.174870375663
 30
0.0
  0
LINE
  5
15B
330
105
100
AcDbEntity
  8
DV3_Default
  6
Continuous
 62
     7
100
AcDbLine
 10
134.2902040335
 20
160.8413666512
 30
0.0
 11
134.2902040335
 21
147.4191675992
 31
0.0
  0
LINE
  5
15C
330
105
100
AcDbEntity
  8
DV3_Default
  6
Continuous
 62
     7
100
AcDbLine
 10
111.3502040335
 20
160.8413666512
 30
0.0
 11
111.3502040335
 21
147.4191675992
 31
0.0
  0
ELLIPSE
  5
15D
330
105
100
AcDbEntity
  8
DV3_Default
  6
Continuous
 62
     7
100
AcDbEllipse
 10
143.6902040333
 20
149.5807687094
 30
0.0
 11
3.451405827803455E-11
 21
-17.96401733061002
 31
0.0
210
0.0
220
0.0
230
1.0
 40
0.5232682549
 41
4.795697916871831
 42
4.903139222525413
  0
SPLINE
  5
15E
330
105
100
AcDbEntity
  8
DV3_Default
  6
Continuous
 62
     7
100
AcDbSpline
210
0.0
220
0.0
230
1.0
 70
     8
 71
     3
 72
    14
 73
    10
 74
     0
 42
0.0000000010278508
 43
0.0000000001
 40
0.0
 40
0.0
 40
0.0
 40
0.0
 40
0.25
 40
0.25
 40
0.5
 40
0.5
 40
0.75
 40
0.75
 40
1.0
 40
1.0
 40
1.0
 40
1.0
 10
134.3228049525553
 20
148.0859360491496
 30
0.0
 10
134.396139661482
 20
148.3849787912645
 30
0.0
 10
134.5802070858198
 20
148.9419183446577
 30
0.0
 10
134.8845708551035
 20
150.4220098099776
 30
0.0
 10
134.9945063655147
 20
151.3605516185983
 30
0.0
 10
134.9595570587956
 20
153.3385867900214
 30
0.0
 10
134.8194810137552
 20
154.3644512034099
 30
0.0
 10
134.4985102084688
 20
156.236196224257
 30
0.0
 10
134.3319325159528
 20
157.060817303461
 30
0.0
 10
134.2969704469055
 20
157.684312622754
 30
0.0
  0
LINE
  5
15F
330
105
100
AcDbEntity
  8
DV3_Default
  6
Continuous
 62
     7
100
AcDbLine
 10
134.2902040335
 20
146.1748703757
 30
0.0
 11
134.4606987062
 21
146.1748703757
 31
0.0
  0
SPLINE
  5
160
330
105
100
AcDbEntity
  8
DV3_Default
  6
Continuous
 62
     7
100
AcDbSpline
210
0.0
220
0.0
230
1.0
 70
     8
 71
     3
 72
    20
 73
    16
 74
     0
 42
0.000000000394832
 43
0.0000000001
 40
0.0
 40
0.0
 40
0.0
 40
0.0
 40
0.1250000000000001
 40
0.1250000000000001
 40
0.2500000000000002
 40
0.2500000000000002
 40
0.3750000000000002
 40
0.3750000000000002
 40
0.5000000000000002
 40
0.5000000000000002
 40
0.6250000000000002
 40
0.6250000000000002
 40
0.7500000000000002
 40
0.7500000000000002
 40
1.0
 40
1.0
 40
1.0
 40
1.0
 10
91.35020403349671
 20
140.5288000979775
 30
0.0
 10
91.35020403349763
 20
139.7851277219632
 30
0.0
 10
91.5889511575655
 20
139.0700460533692
 30
0.0
 10
92.54660724617916
 20
137.7317077891497
 30
0.0
 10
93.25551205638347
 20
137.1287378946601
 30
0.0
 10
95.08141241584919
 20
136.1122029694811
 30
0.0
 10
96.19282911653507
 20
135.705408721547
 30
0.0
 10
98.64268064095329
 20
135.1548444654971
 30
0.0
 10
99.99430992203554
 20
135.0099008531727
 30
0.0
 10
102.6750813177725
 20
135.0077371358898
 30
0.0
 10
104.0267548028224
 20
135.1500703160565
 30
0.0
 10
106.4872774939724
 20
135.6987049778091
 30
0.0
 10
107.5971325826429
 20
136.1018933950234
 30
0.0
 10
110.3654099282226
 20
137.637528072786
 30
0.0
 10
111.3502040334948
 20
139.0409779159185
 30
0.0
 10
111.3502040334967
 20
140.5288000979845
 30
0.0
  0
SPLINE
  5
161
330
105
100
AcDbEntity
  8
DV3_Default
  6
Continuous
 62
     7
100
AcDbSpline
210
0.0
220
0.0
230
1.0
 70
     8
 71
     3
 72
    14
 73
    10
 74
     0
 42
0.0000000008190425
 43
0.0000000001
 40
0.0
 40
0.0
 40
0.0
 40
0.0
 40
0.25
 40
0.25
 40
0.5
 40
0.5
 40
0.75
 40
0.75
 40
1.0
 40
1.0
 40
1.0
 40
1.0
 10
134.2902040334951
 20
146.1587408323171
 30
0.0
 10
134.2902040334938
 20
145.3937591348742
 30
0.0
 10
134.5085696173362
 20
144.6572729768366
 30
0.0
 10
135.3950922719386
 20
143.2655935544809
 30
0.0
 10
136.0487313514283
 20
142.637698214094
 30
0.0
 10
137.7599937654344
 20
141.5634252641127
 30
0.0
 10
138.8002435238024
 20
141.1323112989276
 30
0.0
 10
141.1224528291141
 20
140.542584210439
 30
0.0
 10
142.396383768615
 20
140.3861871038676
 30
0.0
 10
143.6902040334973
 20
140.3861871038637
 30
0.0
  0
SPLINE
  5
162
330
105
100
AcDbEntity
  8
DV3_Default
  6
Continuous
 62
     7
100
AcDbSpline
210
0.0
220
0.0
230
1.0
 70
     8
 71
     3
 72
    14
 73
    10
 74
     0
 42
0.0000000008525077
 43
0.0000000001
 40
0.0
 40
0.0
 40
0.0
 40
0.0
 40
0.25
 40
0.25
 40
0.5
 40
0.5
 40
0.75
 40
0.75
 40
1.0
 40
1.0
 40
1.0
 40
1.0
 10
158.8502040334967
 20
135.1942435398892
 30
0.0
 10
158.850204033497
 20
135.8312493479308
 30
0.0
 10
158.6174486129296
 20
136.4663422273768
 30
0.0
 10
157.7057343977808
 20
137.6915212009691
 30
0.0
 10
157.0347896334577
 20
138.2652031946308
 30
0.0
 10
155.3228195143737
 20
139.2552134381322
 30
0.0
 10
154.2825118009913
 20
139.6672535669771
 30
0.0
 10
151.9885446080799
 20
140.231987063815
 30
0.0
 10
150.7275169667118
 20
140.3861871038577
 30
0.0
 10
149.4502040334967
 20
140.3861871038588
 30
0.0
  0
LINE
  5
163
330
105
100
AcDbEntity
  8
DV3_Default
  6
Continuous
 62
     7
100
AcDbLine
 10
143.6902040335
 20
140.3861871039
 30
0.0
 11
149.4502040335
 21
140.3861871039
 31
0.0
  0
LINE
  5
164
330
105
100
AcDbEntity
  8
DV3_Default
  6
Continuous
 62
     7
100
AcDbLine
 10
134.3228049526
 20
148.0859360491
 30
0.0
 11
134.2902040335
 21
148.0859360491
 31
0.0
  0
LINE
  5
165
330
105
100
AcDbEntity
  8
DV3_Default
  6
Continuous
 62
     7
100
AcDbLine
 10
158.8502040335
 20
135.1942435399
 30
0.0
 11
158.8502040335
 21
133.155013566
 31
0.0
  0
LINE
  5
166
330
105
100
AcDbEntity
  8
DV3_Default
  6
Continuous
 62
     7
100
AcDbLine
 10
158.8502040335
 20
113.6888290779
 30
0.0
 11
158.8502040335
 21
108.4404543434
 31
0.0
  0
LINE
  5
167
330
105
100
AcDbEntity
  8
DV3_Default
  6
Continuous
 62
     7
100
AcDbLine
 10
53.2502040335
 20
106.35
 30
0.0
 11
149.4502040335
 21
106.35
 31
0.0
  0
ELLIPSE
  5
168
330
105
100
AcDbEntity
  8
DV3_Default
  6
Continuous
 62
     7
100
AcDbEllipse
 10
149.4502040335
 20
108.4404543434
 30
0.0
 11
-9.40000000000464
 21
2.220446049250313E-13
 31
0.0
210
0.0
220
0.0
230
1.0
 40
0.2223887599
 41
1.570796326794902
 42
3.141592653589797
  0
ELLIPSE
  5
169
330
105
100
AcDbEntity
  8
DV3_Default
  6
Continuous
 62
     7
100
AcDbEllipse
 10
53.2502040335
 20
108.4404543434
 30
0.0
 11
-9.399999999999991
 21
0.0
 31
0.0
210
0.0
220
0.0
230
1.0
 40
0.2223887599
 41
0.0
 42
1.570796326794897
  0
LINE
  5
16A
330
105
100
AcDbEntity
  8
DV3_Default
  6
Continuous
 62
     7
100
AcDbLine
 10
43.8502040335
 20
108.4404543434
 30
0.0
 11
43.8502040335
 21
113.6888290779
 31
0.0
  0
LINE
  5
16B
330
105
100
AcDbEntity
  8
DV3_Default
  6
Continuous
 62
     7
100
AcDbLine
 10
91.3502040335
 20
160.8413666512
 30
0.0
 11
68.4102040335
 21
160.8413666512
 31
0.0
  0
LINE
  5
16C
330
105
100
AcDbEntity
  8
DV3_Default
  6
Continuous
 62
     7
100
AcDbLine
 10
134.2902040335
 20
160.8413666512
 30
0.0
 11
111.3502040335
 21
160.8413666512
 31
0.0
  0
ENDBLK
  5
16E
330
105
100
AcDbEntity
  8
0
100
AcDbBlockEnd
  0
ENDSEC
  0
SECTION
  2
ENTITIES
  0
INSERT
  5
5F
330
1F
100
AcDbEntity
  8
Default
100
AcDbBlockReference
  2
SEANNOT_GROUP
 10
0.0
 20
0.0
 30
0.0
  0
INSERT
  5
6A
330
1F
100
AcDbEntity
  8
Default
100
AcDbBlockReference
  2
SEANNOT_GROUP1
 10
0.0
 20
0.0
 30
0.0
  0
INSERT
  5
70
330
1F
100
AcDbEntity
  8
Default
100
AcDbBlockReference
  2
SEANNOT_GROUP2
 10
0.0
 20
0.0
 30
0.0
  0
INSERT
  5
76
330
1F
100
AcDbEntity
  8
Default
100
AcDbBlockReference
  2
SE
 10
0.0
 20
0.0
 30
0.0
  0
INSERT
  5
BA
330
1F
100
AcDbEntity
  8
Default
100
AcDbBlockReference
  2
SE1
 10
0.0
 20
0.0
 30
0.0
  0
INSERT
  5
106
330
1F
100
AcDbEntity
  8
Default
100
AcDbBlockReference
  2
SE2
 10
0.0
 20
0.0
 30
0.0
  0
TEXT
  5
170
330
1F
100
AcDbEntity
  8
Default
  6
Continuous
 62
     7
100
AcDbText
 10
5.9362635081
 20
53.4225120485
 30
0.0
 40
10.0
  1
Grohe AG^J
  7
SEACAD_seiso_ttf
 11
5.9362635081
 21
63.4225120485
 31
0.0
100
AcDbText
 73
     3
  0
TEXT
  5
171
330
1F
100
AcDbEntity
  8
Default
  6
Continuous
 62
     7
100
AcDbText
 10
5.9362635081
 20
37.0588756849
 30
0.0
 40
10.0
  1
 
  7
SEACAD_seiso_ttf
 11
5.9362635081
 21
47.0588756849
 31
0.0
100
AcDbText
 73
     3
  0
TEXT
  5
172
330
1F
100
AcDbEntity
  8
Default
  6
Continuous
 62
     7
100
AcDbText
 10
5.9362635081
 20
20.6952393213
 30
0.0
 40
10.0
  1
ecn:
  7
SEACAD_seiso_ttf
 11
5.9362635081
 21
30.6952393213
 31
0.0
100
AcDbText
 73
     3
  0
TEXT
  5
173
330
1F
100
AcDbEntity
  8
Default
  6
Continuous
 62
     7
100
AcDbText
 10
5.9362635081
 20
4.3316029576
 30
0.0
 40
10.0
  1
unit: mm
  7
SEACAD_seiso_ttf
 11
5.9362635081
 21
14.3316029576
 31
0.0
100
AcDbText
 73
     3
  0
LINE
  5
174
330
1F
100
AcDbEntity
  8
Default
  6
Continuous
 62
     7
100
AcDbLine
 10
0.0
 20
0.0
 30
0.0
 11
100.0
 21
0.0
 31
0.0
  0
LINE
  5
175
330
1F
100
AcDbEntity
  8
Default
  6
Continuous
 62
     7
100
AcDbLine
 10
0.0
 20
0.0
 30
0.0
 11
0.0
 21
100.0
 31
0.0
  0
TEXT
  5
176
330
1F
100
AcDbEntity
  8
Default
  6
Continuous
 62
     7
100
AcDbText
 10
24.3923665681
 20
-18.2375342018
 30
0.0
 40
10.0
  1
100 mm
  7
SEACAD_seiso_ttf
 11
24.3923665681
 21
-8.2375342018
 31
0.0
100
AcDbText
 73
     3
  0
TEXT
  5
177
330
1F
100
AcDbEntity
  8
Default
  6
Continuous
 62
     7
100
AcDbText
 10
-7.6150308803
 20
24.6231930421
 30
0.0
 40
10.0
  1
100 mm
 50
90.0
  7
SEACAD_seiso_ttf
 11
-17.6150308803
 21
24.6231930421
 31
0.0
100
AcDbText
 73
     3
  0
TEXT
  5
178
330
1F
100
AcDbEntity
  8
Default
  6
Continuous
 62
     7
100
AcDbText
 10
28.4878128572
 20
20.0907663715
 30
0.0
 40
10.0
  1
224990
  7
SEACAD_seiso_ttf
 11
28.4878128572
 21
30.0907663715
 31
0.0
100
AcDbText
 73
     3
  0
TEXT
  5
179
330
1F
100
AcDbEntity
  8
Default
  6
Continuous
 62
     7
100
AcDbText
 10
5.9012241913
 20
36.7242780188
 30
0.0
 40
10.0
  1
40657000
  7
SEACAD_seiso_ttf
 11
5.9012241913
 21
46.7242780188
 31
0.0
100
AcDbText
 73
     3
  0
ENDSEC
  0
SECTION
  2
OBJECTS
  0
DICTIONARY
  5
C
330
0
100
AcDbDictionary
281
     1
  3
ACAD_GROUP
350
D
  3
ACAD_LAYOUT
350
1A
  3
ACAD_MLEADERSTYLE
350
17D
  3
ACAD_MLINESTYLE
350
17
  3
ACAD_PLOTSETTINGS
350
19
  3
ACAD_PLOTSTYLENAME
350
E
  3
ACAD_SCALELIST
350
3B
  3
ACAD_TABLESTYLE
350
17C
  3
ACAD_VISUALSTYLE
350
2A
  3
AcDbVariableDictionary
350
17A
  0
DICTIONARY
  5
D
102
{ACAD_REACTORS
330
C
102
}
330
C
100
AcDbDictionary
281
     1
  0
DICTIONARY
  5
1A
102
{ACAD_REACTORS
330
C
102
}
330
C
100
AcDbDictionary
281
     1
  3
Layout1
350
1E
  3
Model
350
22
  0
DICTIONARY
  5
17D
102
{ACAD_REACTORS
330
C
102
}
330
C
100
AcDbDictionary
281
     1
  0
DICTIONARY
  5
17
102
{ACAD_REACTORS
330
C
102
}
330
C
100
AcDbDictionary
281
     1
  3
Standard
350
18
  0
DICTIONARY
  5
19
102
{ACAD_REACTORS
330
C
102
}
330
C
100
AcDbDictionary
281
     1
  0
ACDBDICTIONARYWDFLT
  5
E
102
{ACAD_REACTORS
330
C
102
}
330
C
100
AcDbDictionary
281
     1
  3
Normal
350
F
100
AcDbDictionaryWithDefault
340
F
  0
DICTIONARY
  5
3B
102
{ACAD_REACTORS
330
C
102
}
330
C
100
AcDbDictionary
281
     1
  3
A0
350
3C
  3
A1
350
3D
  3
A2
350
3E
  3
A3
350
3F
  3
A4
350
40
  3
A5
350
41
  3
A6
350
42
  3
A7
350
43
  3
A8
350
44
  3
A9
350
45
  3
B0
350
46
  3
B1
350
47
  3
B2
350
48
  3
B3
350
49
  3
B4
350
4A
  3
B5
350
4B
  3
B6
350
4C
  3
B7
350
4D
  3
B8
350
4E
  3
B9
350
4F
  3
C0
350
50
  3
C1
350
51
  3
C2
350
52
  3
C3
350
53
  3
C4
350
54
  3
C5
350
55
  3
C6
350
56
  3
C7
350
57
  3
C8
350
58
  3
C9
350
59
  3
D0
350
5A
  3
D1
350
5B
  3
D2
350
5C
  0
DICTIONARY
  5
17C
102
{ACAD_REACTORS
330
C
102
}
330
C
100
AcDbDictionary
281
     1
  0
DICTIONARY
  5
2A
102
{ACAD_REACTORS
330
C
102
}
330
C
100
AcDbDictionary
281
     1
  3
2dWireframe
350
2F
  3
3D Hidden
350
31
  3
3dWireframe
350
30
  3
Basic
350
32
  3
Brighten
350
36
  3
ColorChange
350
3A
  3
Conceptual
350
34
  3
Dim
350
35
  3
Facepattern
350
39
  3
Flat
350
2B
  3
FlatWithEdges
350
2C
  3
Gouraud
350
2D
  3
GouraudWithEdges
350
2E
  3
Linepattern
350
38
  3
Realistic
350
33
  3
Thicken
350
37
  0
DICTIONARY
  5
17A
102
{ACAD_REACTORS
330
C
102
}
330
C
100
AcDbDictionary
281
     1
  3
CANNOSCALE
350
17B
  3
PSOLHEIGHT
350
17F
  3
PSOLWIDTH
350
17E
  0
LAYOUT
  5
1E
102
{ACAD_REACTORS
330
1A
102
}
330
1A
100
AcDbPlotSettings
  1

  2
none_device
  4

  6

 40
0.0
 41
0.0
 42
0.0
 43
0.0
 44
0.0
 45
0.0
 46
0.0
 47
0.0
 48
0.0
 49
0.0
140
0.0
141
0.0
142
1.0
143
1.0
 70
   688
 72
     0
 73
     0
 74
     5
  7

 75
    16
147
1.0
148
0.0
149
0.0
100
AcDbLayout
  1
Layout1
 70
     1
 71
     1
 10
0.0
 20
0.0
 11
3000.0
 21
4500.0
 12
0.0
 22
0.0
 32
0.0
 14
0.0
 24
0.0
 34
0.0
 15
3000.0
 25
4500.0
 35
0.0
146
0.0
 13
0.0
 23
0.0
 33
0.0
 16
1.0
 26
0.0
 36
0.0
 17
0.0
 27
1.0
 37
0.0
 76
     0
330
1B
  0
LAYOUT
  5
22
102
{ACAD_REACTORS
330
1A
102
}
330
1A
100
AcDbPlotSettings
  1

  2
none_device
  4

  6

 40
0.0
 41
0.0
 42
0.0
 43
0.0
 44
0.0
 45
0.0
 46
0.0
 47
0.0
 48
0.0
 49
0.0
140
0.0
141
0.0
142
1.0
143
1.0
 70
  1712
 72
     0
 73
     0
 74
     0
  7

 75
     0
147
1.0
148
0.0
149
0.0
100
AcDbLayout
  1
Model
 70
     1
 71
     0
 10
0.0
 20
0.0
 11
3000.0
 21
4500.0
 12
0.0
 22
0.0
 32
0.0
 14
0.0
 24
0.0
 34
0.0
 15
3000.0
 25
4500.0
 35
0.0
146
0.0
 13
0.0
 23
0.0
 33
0.0
 16
1.0
 26
0.0
 36
0.0
 17
0.0
 27
1.0
 37
0.0
 76
     0
330
1F
331
29
  0
MLINESTYLE
  5
18
102
{ACAD_REACTORS
330
17
102
}
330
17
100
AcDbMlineStyle
  2
Standard
 70
     0
  3

 62
   256
 51
90.0
 52
90.0
 71
     2
 49
0.5
 62
   256
  6
BYLAYER
 49
-0.5
 62
   256
  6
BYLAYER
  0
ACDBPLACEHOLDER
  5
F
102
{ACAD_REACTORS
330
E
102
}
330
E
  0
SCALE
  5
3C
102
{ACAD_REACTORS
330
3B
102
}
330
3B
100
AcDbScale
 70
     0
300
1:1
140
1.0
141
1.0
290
     1
  0
SCALE
  5
3D
102
{ACAD_REACTORS
330
3B
102
}
330
3B
100
AcDbScale
 70
     0
300
1:2
140
1.0
141
2.0
290
     0
  0
SCALE
  5
3E
102
{ACAD_REACTORS
330
3B
102
}
330
3B
100
AcDbScale
 70
     0
300
1:4
140
1.0
141
4.0
290
     0
  0
SCALE
  5
3F
102
{ACAD_REACTORS
330
3B
102
}
330
3B
100
AcDbScale
 70
     0
300
1:5
140
1.0
141
5.0
290
     0
  0
SCALE
  5
40
102
{ACAD_REACTORS
330
3B
102
}
330
3B
100
AcDbScale
 70
     0
300
1:8
140
1.0
141
8.0
290
     0
  0
SCALE
  5
41
102
{ACAD_REACTORS
330
3B
102
}
330
3B
100
AcDbScale
 70
     0
300
1:10
140
1.0
141
10.0
290
     0
  0
SCALE
  5
42
102
{ACAD_REACTORS
330
3B
102
}
330
3B
100
AcDbScale
 70
     0
300
1:16
140
1.0
141
16.0
290
     0
  0
SCALE
  5
43
102
{ACAD_REACTORS
330
3B
102
}
330
3B
100
AcDbScale
 70
     0
300
1:20
140
1.0
141
20.0
290
     0
  0
SCALE
  5
44
102
{ACAD_REACTORS
330
3B
102
}
330
3B
100
AcDbScale
 70
     0
300
1:30
140
1.0
141
30.0
290
     0
  0
SCALE
  5
45
102
{ACAD_REACTORS
330
3B
102
}
330
3B
100
AcDbScale
 70
     0
300
1:40
140
1.0
141
40.0
290
     0
  0
SCALE
  5
46
102
{ACAD_REACTORS
330
3B
102
}
330
3B
100
AcDbScale
 70
     0
300
1:50
140
1.0
141
50.0
290
     0
  0
SCALE
  5
47
102
{ACAD_REACTORS
330
3B
102
}
330
3B
100
AcDbScale
 70
     0
300
1:100
140
1.0
141
100.0
290
     0
  0
SCALE
  5
48
102
{ACAD_REACTORS
330
3B
102
}
330
3B
100
AcDbScale
 70
     0
300
2:1
140
2.0
141
1.0
290
     0
  0
SCALE
  5
49
102
{ACAD_REACTORS
330
3B
102
}
330
3B
100
AcDbScale
 70
     0
300
4:1
140
4.0
141
1.0
290
     0
  0
SCALE
  5
4A
102
{ACAD_REACTORS
330
3B
102
}
330
3B
100
AcDbScale
 70
     0
300
8:1
140
8.0
141
1.0
290
     0
  0
SCALE
  5
4B
102
{ACAD_REACTORS
330
3B
102
}
330
3B
100
AcDbScale
 70
     0
300
10:1
140
10.0
141
1.0
290
     0
  0
SCALE
  5
4C
102
{ACAD_REACTORS
330
3B
102
}
330
3B
100
AcDbScale
 70
     0
300
100:1
140
100.0
141
1.0
290
     0
  0
SCALE
  5
4D
102
{ACAD_REACTORS
330
3B
102
}
330
3B
100
AcDbScale
 70
     0
300
1/128" = 1'-0"
140
0.0078125
141
12.0
290
     0
  0
SCALE
  5
4E
102
{ACAD_REACTORS
330
3B
102
}
330
3B
100
AcDbScale
 70
     0
300
1/64" = 1'-0"
140
0.015625
141
12.0
290
     0
  0
SCALE
  5
4F
102
{ACAD_REACTORS
330
3B
102
}
330
3B
100
AcDbScale
 70
     0
300
1/32" = 1'-0"
140
0.03125
141
12.0
290
     0
  0
SCALE
  5
50
102
{ACAD_REACTORS
330
3B
102
}
330
3B
100
AcDbScale
 70
     0
300
1/16" = 1'-0"
140
0.0625
141
12.0
290
     0
  0
SCALE
  5
51
102
{ACAD_REACTORS
330
3B
102
}
330
3B
100
AcDbScale
 70
     0
300
3/32" = 1'-0"
140
0.09375
141
12.0
290
     0
  0
SCALE
  5
52
102
{ACAD_REACTORS
330
3B
102
}
330
3B
100
AcDbScale
 70
     0
300
1/8" = 1'-0"
140
0.125
141
12.0
290
     0
  0
SCALE
  5
53
102
{ACAD_REACTORS
330
3B
102
}
330
3B
100
AcDbScale
 70
     0
300
3/16" = 1'-0"
140
0.1875
141
12.0
290
     0
  0
SCALE
  5
54
102
{ACAD_REACTORS
330
3B
102
}
330
3B
100
AcDbScale
 70
     0
300
1/4" = 1'-0"
140
0.25
141
12.0
290
     0
  0
SCALE
  5
55
102
{ACAD_REACTORS
330
3B
102
}
330
3B
100
AcDbScale
 70
     0
300
3/8" = 1'-0"
140
0.375
141
12.0
290
     0
  0
SCALE
  5
56
102
{ACAD_REACTORS
330
3B
102
}
330
3B
100
AcDbScale
 70
     0
300
1/2" = 1'-0"
140
0.5
141
12.0
290
     0
  0
SCALE
  5
57
102
{ACAD_REACTORS
330
3B
102
}
330
3B
100
AcDbScale
 70
     0
300
3/4" = 1'-0"
140
0.75
141
12.0
290
     0
  0
SCALE
  5
58
102
{ACAD_REACTORS
330
3B
102
}
330
3B
100
AcDbScale
 70
     0
300
1" = 1'-0"
140
1.0
141
12.0
290
     0
  0
SCALE
  5
59
102
{ACAD_REACTORS
330
3B
102
}
330
3B
100
AcDbScale
 70
     0
300
1-1/2" = 1'-0"
140
1.5
141
12.0
290
     0
  0
SCALE
  5
5A
102
{ACAD_REACTORS
330
3B
102
}
330
3B
100
AcDbScale
 70
     0
300
3" = 1'-0"
140
3.0
141
12.0
290
     0
  0
SCALE
  5
5B
102
{ACAD_REACTORS
330
3B
102
}
330
3B
100
AcDbScale
 70
     0
300
6" = 1'-0"
140
6.0
141
12.0
290
     0
  0
SCALE
  5
5C
102
{ACAD_REACTORS
330
3B
102
}
330
3B
100
AcDbScale
 70
     0
300
1'-0" = 1'-0"
140
12.0
141
12.0
290
     0
  0
VISUALSTYLE
  5
2F
102
{ACAD_REACTORS
330
2A
102
}
330
2A
100
AcDbVisualStyle
  2
2dWireframe
 70
     4
 71
     0
 72
     2
 73
     0
 90
        0
 40
-0.6
 41
-30.0
 62
     5
 63
     7
 74
     1
 91
        4
 64
     7
 65
   257
 75
     1
175
     1
 42
1.0
 92
        0
 66
   257
 43
1.0
 76
     1
 77
     6
 78
     2
 67
     7
 79
     5
170
     0
171
     0
290
     0
174
     0
 93
        1
 44
0.0
173
     0
291
     0
 45
0.0
1001
ACAD
1000
AcDbSavedByObjectVersion
1070
     0
  0
VISUALSTYLE
  5
31
102
{ACAD_REACTORS
330
2A
102
}
330
2A
100
AcDbVisualStyle
  2
3D Hidden
 70
     6
 71
     1
 72
     2
 73
     2
 90
        0
 40
-0.6
 41
-30.0
 62
     5
 63
     7
 74
     2
 91
        2
 64
     7
 65
   257
 75
     2
175
     1
 42
40.0
 92
        0
 66
   257
 43
1.0
 76
     1
 77
     6
 78
     2
 67
     7
 79
     3
170
     0
171
     0
290
     0
174
     0
 93
        1
 44
0.0
173
     0
291
     0
 45
0.0
1001
ACAD
1000
AcDbSavedByObjectVersion
1070
     0
  0
VISUALSTYLE
  5
30
102
{ACAD_REACTORS
330
2A
102
}
330
2A
100
AcDbVisualStyle
  2
3dWireframe
 70
     5
 71
     0
 72
     2
 73
     0
 90
        0
 40
-0.6
 41
-30.0
 62
     5
 63
     7
 74
     1
 91
        4
 64
     7
 65
   257
 75
     1
175
     1
 42
1.0
 92
        0
 66
   257
 43
1.0
 76
     1
 77
     6
 78
     2
 67
     7
 79
     5
170
     0
171
     0
290
     0
174
     0
 93
        1
 44
0.0
173
     0
291
     0
 45
0.0
1001
ACAD
1000
AcDbSavedByObjectVersion
1070
     0
  0
VISUALSTYLE
  5
32
102
{ACAD_REACTORS
330
2A
102
}
330
2A
100
AcDbVisualStyle
  2
Basic
 70
     7
 71
     1
 72
     0
 73
     1
 90
        0
 40
-0.6
 41
-30.0
 62
     5
 63
     7
 74
     0
 91
        4
 64
     7
 65
   257
 75
     1
175
     1
 42
1.0
 92
        8
 66
     7
 43
1.0
 76
     1
 77
     6
 78
     2
 67
     7
 79
     5
170
     0
171
     0
290
     0
174
     0
 93
        1
 44
0.0
173
     0
291
     1
 45
0.0
1001
ACAD
1000
AcDbSavedByObjectVersion
1070
     0
  0
VISUALSTYLE
  5
36
102
{ACAD_REACTORS
330
2A
102
}
330
2A
100
AcDbVisualStyle
  2
Brighten
 70
    12
 71
     2
 72
     2
 73
     0
 90
        0
 40
-0.6
 41
-30.0
 62
     5
 63
     7
 74
     1
 91
        4
 64
     7
 65
   257
 75
     1
175
     1
 42
1.0
 92
        8
 66
     7
 43
1.0
 76
     1
 77
     6
 78
     2
 67
     7
 79
     5
170
     0
171
     0
290
     0
174
     0
 93
        1
 44
50.0
173
     0
291
     1
 45
0.0
1001
ACAD
1000
AcDbSavedByObjectVersion
1070
     0
  0
VISUALSTYLE
  5
3A
102
{ACAD_REACTORS
330
2A
102
}
330
2A
100
AcDbVisualStyle
  2
ColorChange
 70
    16
 71
     2
 72
     2
 73
     3
 90
        0
 40
-0.6
 41
-30.0
 62
     5
 63
     8
 74
     1
 91
        4
 64
     7
 65
   257
 75
     1
175
     1
 42
1.0
 92
        8
 66
     8
 43
1.0
 76
     1
 77
     6
 78
     2
 67
     7
 79
     5
170
     0
171
     0
290
     0
174
     0
 93
        1
 44
0.0
173
     0
291
     1
 45
0.0
1001
ACAD
1000
AcDbSavedByObjectVersion
1070
     0
  0
VISUALSTYLE
  5
34
102
{ACAD_REACTORS
330
2A
102
}
330
2A
100
AcDbVisualStyle
  2
Conceptual
 70
     9
 71
     3
 72
     2
 73
     0
 90
        0
 40
-0.6
 41
-30.0
 62
     5
 63
     7
 74
     2
 91
        2
 64
     7
 65
   257
 75
     1
175
     1
 42
40.0
 92
        8
 66
     7
 43
1.0
 76
     1
 77
     6
 78
     2
 67
     7
 79
     3
170
     0
171
     0
290
     0
174
     0
 93
        1
 44
0.0
173
     0
291
     0
 45
0.0
1001
ACAD
1000
AcDbSavedByObjectVersion
1070
     0
  0
VISUALSTYLE
  5
35
102
{ACAD_REACTORS
330
2A
102
}
330
2A
100
AcDbVisualStyle
  2
Dim
 70
    11
 71
     2
 72
     2
 73
     0
 90
        0
 40
-0.6
 41
-30.0
 62
     5
 63
     7
 74
     1
 91
        4
 64
     7
 65
   257
 75
     1
175
     1
 42
1.0
 92
        8
 66
     7
 43
1.0
 76
     1
 77
     6
 78
     2
 67
     7
 79
     5
170
     0
171
     0
290
     0
174
     0
 93
        1
 44
-50.0
173
     0
291
     1
 45
0.0
1001
ACAD
1000
AcDbSavedByObjectVersion
1070
     0
  0
VISUALSTYLE
  5
39
102
{ACAD_REACTORS
330
2A
102
}
330
2A
100
AcDbVisualStyle
  2
Facepattern
 70
    15
 71
     2
 72
     2
 73
     0
 90
        0
 40
-0.6
 41
-30.0
 62
     5
 63
     7
 74
     1
 91
        4
 64
     7
 65
   257
 75
     1
175
     1
 42
1.0
 92
        8
 66
     7
 43
1.0
 76
     1
 77
     6
 78
     2
 67
     7
 79
     5
170
     0
171
     0
290
     0
174
     0
 93
        1
 44
0.0
173
     0
291
     1
 45
0.0
1001
ACAD
1000
AcDbSavedByObjectVersion
1070
     0
  0
VISUALSTYLE
  5
2B
102
{ACAD_REACTORS
330
2A
102
}
330
2A
100
AcDbVisualStyle
  2
Flat
 70
     0
 71
     2
 72
     1
 73
     1
 90
        2
 40
-0.6
 41
30.0
 62
     5
 63
     7
 74
     0
 91
        4
 64
     7
 65
   257
 75
     1
175
     1
 42
1.0
 92
        8
 66
     7
 43
1.0
 76
     1
 77
     6
 78
     2
 67
     7
 79
     5
170
     0
171
     0
290
     0
174
     0
 93
       13
 44
0.0
173
     0
291
     1
 45
0.0
1001
ACAD
1000
AcDbSavedByObjectVersion
1070
     0
  0
VISUALSTYLE
  5
2C
102
{ACAD_REACTORS
330
2A
102
}
330
2A
100
AcDbVisualStyle
  2
FlatWithEdges
 70
     1
 71
     2
 72
     1
 73
     1
 90
        2
 40
-0.6
 41
30.0
 62
     5
 63
     7
 74
     1
 91
        4
 64
     7
 65
   257
 75
     1
175
     1
 42
1.0
 92
        0
 66
   257
 43
1.0
 76
     1
 77
     6
 78
     2
 67
     7
 79
     5
170
     0
171
     0
290
     0
174
     0
 93
       13
 44
0.0
173
     0
291
     1
 45
0.0
1001
ACAD
1000
AcDbSavedByObjectVersion
1070
     0
  0
VISUALSTYLE
  5
2D
102
{ACAD_REACTORS
330
2A
102
}
330
2A
100
AcDbVisualStyle
  2
Gouraud
 70
     2
 71
     2
 72
     2
 73
     1
 90
        2
 40
-0.6
 41
30.0
 62
     5
 63
     7
 74
     0
 91
        4
 64
     7
 65
   257
 75
     1
175
     1
 42
1.0
 92
        0
 66
     7
 43
1.0
 76
     1
 77
     6
 78
     2
 67
     7
 79
     5
170
     0
171
     0
290
     0
174
     0
 93
       13
 44
0.0
173
     0
291
     1
 45
0.0
1001
ACAD
1000
AcDbSavedByObjectVersion
1070
     0
  0
VISUALSTYLE
  5
2E
102
{ACAD_REACTORS
330
2A
102
}
330
2A
100
AcDbVisualStyle
  2
GouraudWithEdges
 70
     3
 71
     2
 72
     2
 73
     1
 90
        2
 40
-0.6
 41
30.0
 62
     5
 63
     7
 74
     1
 91
        4
 64
     7
 65
   257
 75
     1
175
     1
 42
1.0
 92
        0
 66
   257
 43
1.0
 76
     1
 77
     6
 78
     2
 67
     7
 79
     5
170
     0
171
     0
290
     0
174
     0
 93
       13
 44
0.0
173
     0
291
     1
 45
0.0
1001
ACAD
1000
AcDbSavedByObjectVersion
1070
     0
  0
VISUALSTYLE
  5
38
102
{ACAD_REACTORS
330
2A
102
}
330
2A
100
AcDbVisualStyle
  2
Linepattern
 70
    14
 71
     2
 72
     2
 73
     0
 90
        0
 40
-0.6
 41
-30.0
 62
     5
 63
     7
 74
     1
 91
        4
 64
     7
 65
   257
 75
     7
175
     7
 42
1.0
 92
        8
 66
     7
 43
1.0
 76
     1
 77
     6
 78
     2
 67
     7
 79
     5
170
     0
171
     0
290
     0
174
     0
 93
        1
 44
0.0
173
     0
291
     1
 45
0.0
1001
ACAD
1000
AcDbSavedByObjectVersion
1070
     0
  0
VISUALSTYLE
  5
33
102
{ACAD_REACTORS
330
2A
102
}
330
2A
100
AcDbVisualStyle
  2
Realistic
 70
     8
 71
     2
 72
     2
 73
     0
 90
        0
 40
-0.6
 41
-30.0
 62
     5
 63
     7
 74
     1
 91
        0
 64
     7
 65
   257
 75
     1
175
     1
 42
1.0
 92
        8
 66
     8
 43
1.0
 76
     1
 77
     6
 78
     2
 67
     7
 79
     5
170
     0
171
     0
290
     0
174
     0
 93
       13
 44
0.0
173
     0
291
     0
 45
0.0
1001
ACAD
1000
AcDbSavedByObjectVersion
1070
     0
  0
VISUALSTYLE
  5
37
102
{ACAD_REACTORS
330
2A
102
}
330
2A
100
AcDbVisualStyle
  2
Thicken
 70
    13
 71
     2
 72
     2
 73
     0
 90
        0
 40
-0.6
 41
-30.0
 62
     5
 63
     7
 74
     1
 91
        4
 64
     7
 65
   257
 75
     1
175
     1
 42
1.0
 92
       12
 66
     7
 43
1.0
 76
     1
 77
     6
 78
     2
 67
     7
 79
     5
170
     0
171
     0
290
     0
174
     0
 93
        1
 44
0.0
173
     0
291
     1
 45
0.0
1001
ACAD
1000
AcDbSavedByObjectVersion
1070
     0
  0
DICTIONARYVAR
  5
17B
102
{ACAD_REACTORS
330
17A
102
}
330
17A
100
DictionaryVariables
280
     0
  1
1:1
  0
DICTIONARYVAR
  5
17F
102
{ACAD_REACTORS
330
17A
102
}
330
17A
100
DictionaryVariables
280
     0
  1
80.000000
  0
DICTIONARYVAR
  5
17E
102
{ACAD_REACTORS
330
17A
102
}
330
17A
100
DictionaryVariables
280
     0
  1
5.000000
  0
ENDSEC
  0
EOF
