  0
SECTION
  2
HEADER
  9
$ACADVER
  1
AC1015
  9
$ACADMAINTVER
 70
     6
  9
$DWGCODEPAGE
  3
ANSI_1252
  9
$INSBASE
 10
0.0
 20
0.0
 30
0.0
  9
$EXTMIN
 10
0.0
 20
0.0
 30
0.0
  9
$EXTMAX
 10
1682.0
 20
2378.0
 30
0.0
  9
$LIMMIN
 10
0.0
 20
0.0
  9
$LIMMAX
 10
1682.0
 20
2378.0
  9
$ORTHOMODE
 70
     0
  9
$REGENMODE
 70
     1
  9
$FILLMODE
 70
     1
  9
$QTEXTMODE
 70
     0
  9
$MIRRTEXT
 70
     1
  9
$LTSCALE
 40
1.0
  9
$ATTMODE
 70
     1
  9
$TEXTSIZE
 40
2.5
  9
$TRACEWID
 40
1.0
  9
$TEXTSTYLE
  7
Standard
  9
$CLAYER
  8
0
  9
$CELTYPE
  6
ByLayer
  9
$CECOLOR
 62
   256
  9
$CELTSCALE
 40
1.0
  9
$DISPSILH
 70
     0
  9
$DIMSCALE
 40
1.0
  9
$DIMASZ
 40
2.5
  9
$DIMEXO
 40
0.625
  9
$DIMDLI
 40
3.75
  9
$DIMRND
 40
0.0
  9
$DIMDLE
 40
0.0
  9
$DIMEXE
 40
1.25
  9
$DIMTP
 40
0.0
  9
$DIMTM
 40
0.0
  9
$DIMTXT
 40
2.5
  9
$DIMCEN
 40
2.5
  9
$DIMTSZ
 40
0.0
  9
$DIMTOL
 70
     0
  9
$DIMLIM
 70
     0
  9
$DIMTIH
 70
     0
  9
$DIMTOH
 70
     0
  9
$DIMSE1
 70
     0
  9
$DIMSE2
 70
     0
  9
$DIMTAD
 70
     1
  9
$DIMZIN
 70
     8
  9
$DIMBLK
  1

  9
$DIMASO
 70
     1
  9
$DIMSHO
 70
     1
  9
$DIMPOST
  1

  9
$DIMAPOST
  1

  9
$DIMALT
 70
     0
  9
$DIMALTD
 70
     3
  9
$DIMALTF
 40
0.0393700787
  9
$DIMLFAC
 40
1.0
  9
$DIMTOFL
 70
     1
  9
$DIMTVP
 40
0.0
  9
$DIMTIX
 70
     0
  9
$DIMSOXD
 70
     0
  9
$DIMSAH
 70
     0
  9
$DIMBLK1
  1

  9
$DIMBLK2
  1

  9
$DIMSTYLE
  2
ISO-25
  9
$DIMCLRD
 70
     0
  9
$DIMCLRE
 70
     0
  9
$DIMCLRT
 70
     0
  9
$DIMTFAC
 40
1.0
  9
$DIMGAP
 40
0.625
  9
$DIMJUST
 70
     0
  9
$DIMSD1
 70
     0
  9
$DIMSD2
 70
     0
  9
$DIMTOLJ
 70
     0
  9
$DIMTZIN
 70
     8
  9
$DIMALTZ
 70
     0
  9
$DIMALTTZ
 70
     0
  9
$DIMUPT
 70
     0
  9
$DIMDEC
 70
     2
  9
$DIMTDEC
 70
     2
  9
$DIMALTU
 70
     2
  9
$DIMALTTD
 70
     3
  9
$DIMTXSTY
  7
Standard
  9
$DIMAUNIT
 70
     0
  9
$DIMADEC
 70
     0
  9
$DIMALTRND
 40
0.0
  9
$DIMAZIN
 70
     0
  9
$DIMDSEP
 70
    44
  9
$DIMATFIT
 70
     3
  9
$DIMFRAC
 70
     0
  9
$DIMLDRBLK
  1

  9
$DIMLUNIT
 70
     2
  9
$DIMLWD
 70
    -2
  9
$DIMLWE
 70
    -2
  9
$DIMTMOVE
 70
     0
  9
$LUNITS
 70
     2
  9
$LUPREC
 70
     4
  9
$SKETCHINC
 40
1.0
  9
$FILLETRAD
 40
10.0
  9
$AUNITS
 70
     0
  9
$AUPREC
 70
     0
  9
$MENU
  1
.
  9
$ELEVATION
 40
0.0
  9
$PELEVATION
 40
0.0
  9
$THICKNESS
 40
0.0
  9
$LIMCHECK
 70
     0
  9
$CHAMFERA
 40
10.0
  9
$CHAMFERB
 40
10.0
  9
$CHAMFERC
 40
20.0
  9
$CHAMFERD
 40
0.0
  9
$SKPOLY
 70
     0
  9
$TDCREATE
 40
2455513.575672361
  9
$TDUCREATE
 40
2455513.534005695
  9
$TDUPDATE
 40
2455513.575672373
  9
$TDUUPDATE
 40
2455513.534005706
  9
$TDINDWG
 40
0.0000000116
  9
$TDUSRTIMER
 40
0.0000000116
  9
$USRTIMER
 70
     1
  9
$ANGBASE
 50
0.0
  9
$ANGDIR
 70
     0
  9
$PDMODE
 70
     0
  9
$PDSIZE
 40
0.0
  9
$PLINEWID
 40
0.0
  9
$SPLFRAME
 70
     0
  9
$SPLINETYPE
 70
     6
  9
$SPLINESEGS
 70
     8
  9
$HANDSEED
  5
1DA
  9
$SURFTAB1
 70
     6
  9
$SURFTAB2
 70
     6
  9
$SURFTYPE
 70
     6
  9
$SURFU
 70
     6
  9
$SURFV
 70
     6
  9
$UCSBASE
  2

  9
$UCSNAME
  2

  9
$UCSORG
 10
0.0
 20
0.0
 30
0.0
  9
$UCSXDIR
 10
1.0
 20
0.0
 30
0.0
  9
$UCSYDIR
 10
0.0
 20
1.0
 30
0.0
  9
$UCSORTHOREF
  2

  9
$UCSORTHOVIEW
 70
     0
  9
$UCSORGTOP
 10
0.0
 20
0.0
 30
0.0
  9
$UCSORGBOTTOM
 10
0.0
 20
0.0
 30
0.0
  9
$UCSORGLEFT
 10
0.0
 20
0.0
 30
0.0
  9
$UCSORGRIGHT
 10
0.0
 20
0.0
 30
0.0
  9
$UCSORGFRONT
 10
0.0
 20
0.0
 30
0.0
  9
$UCSORGBACK
 10
0.0
 20
0.0
 30
0.0
  9
$PUCSBASE
  2

  9
$PUCSNAME
  2

  9
$PUCSORG
 10
0.0
 20
0.0
 30
0.0
  9
$PUCSXDIR
 10
1.0
 20
0.0
 30
0.0
  9
$PUCSYDIR
 10
0.0
 20
1.0
 30
0.0
  9
$PUCSORTHOREF
  2

  9
$PUCSORTHOVIEW
 70
     0
  9
$PUCSORGTOP
 10
0.0
 20
0.0
 30
0.0
  9
$PUCSORGBOTTOM
 10
0.0
 20
0.0
 30
0.0
  9
$PUCSORGLEFT
 10
0.0
 20
0.0
 30
0.0
  9
$PUCSORGRIGHT
 10
0.0
 20
0.0
 30
0.0
  9
$PUCSORGFRONT
 10
0.0
 20
0.0
 30
0.0
  9
$PUCSORGBACK
 10
0.0
 20
0.0
 30
0.0
  9
$USERI1
 70
     0
  9
$USERI2
 70
     0
  9
$USERI3
 70
     0
  9
$USERI4
 70
     0
  9
$USERI5
 70
     0
  9
$USERR1
 40
0.0
  9
$USERR2
 40
0.0
  9
$USERR3
 40
0.0
  9
$USERR4
 40
0.0
  9
$USERR5
 40
0.0
  9
$WORLDVIEW
 70
     1
  9
$SHADEDGE
 70
     3
  9
$SHADEDIF
 70
    70
  9
$TILEMODE
 70
     1
  9
$MAXACTVP
 70
    64
  9
$PINSBASE
 10
0.0
 20
0.0
 30
0.0
  9
$PLIMCHECK
 70
     0
  9
$PEXTMIN
 10
0.0
 20
0.0
 30
0.0
  9
$PEXTMAX
 10
1682.0
 20
2378.0
 30
0.0
  9
$PLIMMIN
 10
0.0
 20
0.0
  9
$PLIMMAX
 10
1682.0
 20
2378.0
  9
$UNITMODE
 70
     0
  9
$VISRETAIN
 70
     1
  9
$PLINEGEN
 70
     0
  9
$PSLTSCALE
 70
     1
  9
$TREEDEPTH
 70
  3020
  9
$CMLSTYLE
  2
Standard
  9
$CMLJUST
 70
     0
  9
$CMLSCALE
 40
20.0
  9
$PROXYGRAPHICS
 70
     1
  9
$MEASUREMENT
 70
     1
  9
$CELWEIGHT
370
    -1
  9
$ENDCAPS
280
     0
  9
$JOINSTYLE
280
     0
  9
$LWDISPLAY
290
     0
  9
$INSUNITS
 70
     4
  9
$HYPERLINKBASE
  1

  9
$STYLESHEET
  1

  9
$XEDIT
290
     1
  9
$CEPSNTYPE
380
     0
  9
$PSTYLEMODE
290
     1
  9
$FINGERPRINTGUID
  2
{0665E704-CEF1-403B-8F64-BD29F749D3B9}
  9
$VERSIONGUID
  2
{FAEB1C32-E019-11D5-929B-00C0DF256EC4}
  9
$EXTNAMES
290
     1
  9
$PSVPSCALE
 40
0.0
  9
$OLESTARTUP
290
     0
  0
ENDSEC
  0
SECTION
  2
CLASSES
  0
CLASS
  1
ACDBDICTIONARYWDFLT
  2
AcDbDictionaryWithDefault
  3
ObjectDBX Classes
 90
        0
280
     0
281
     0
  0
CLASS
  1
VISUALSTYLE
  2
AcDbVisualStyle
  3
ObjectDBX Classes
 90
     4095
280
     0
281
     0
  0
CLASS
  1
SCALE
  2
AcDbScale
  3
ObjectDBX Classes
 90
     1153
280
     0
281
     0
  0
CLASS
  1
DICTIONARYVAR
  2
AcDbDictionaryVar
  3
ObjectDBX Classes
 90
        0
280
     0
281
     0
  0
CLASS
  1
ACDBPLACEHOLDER
  2
AcDbPlaceHolder
  3
ObjectDBX Classes
 90
        0
280
     0
281
     0
  0
CLASS
  1
LAYOUT
  2
AcDbLayout
  3
ObjectDBX Classes
 90
        0
280
     0
281
     0
  0
ENDSEC
  0
SECTION
  2
TABLES
  0
TABLE
  2
VPORT
  5
8
330
0
100
AcDbSymbolTable
 70
     1
  0
VPORT
  5
29
330
8
100
AcDbSymbolTableRecord
100
AcDbViewportTableRecord
  2
*Active
 70
     0
 10
0.0
 20
0.0
 11
1.0
 21
1.0
 12
344.1869158879
 22
148.5
 13
0.0
 23
0.0
 14
10.0
 24
10.0
 15
10.0
 25
10.0
 16
0.0
 26
0.0
 36
1.0
 17
0.0
 27
0.0
 37
0.0
 40
297.0
 41
1.9729729729
 42
50.0
 43
0.0
 44
0.0
 50
0.0
 51
0.0
 71
     0
 72
   100
 73
     1
 74
     3
 75
     0
 76
     0
 77
     0
 78
     0
281
     0
 65
     1
110
0.0
120
0.0
130
0.0
111
1.0
121
0.0
131
0.0
112
0.0
122
1.0
132
0.0
 79
     0
146
0.0
  0
ENDTAB
  0
TABLE
  2
LTYPE
  5
5
330
0
100
AcDbSymbolTable
 70
     2
  0
LTYPE
  5
14
330
5
100
AcDbSymbolTableRecord
100
AcDbLinetypeTableRecord
  2
ByBlock
 70
     0
  3

 72
    65
 73
     0
 40
0.0
  0
LTYPE
  5
15
330
5
100
AcDbSymbolTableRecord
100
AcDbLinetypeTableRecord
  2
ByLayer
 70
     0
  3

 72
    65
 73
     0
 40
0.0
  0
LTYPE
  5
16
330
5
100
AcDbSymbolTableRecord
100
AcDbLinetypeTableRecord
  2
Continuous
 70
     0
  3
Solid line
 72
    65
 73
     0
 40
0.0
  0
LTYPE
  5
60
330
5
100
AcDbSymbolTableRecord
100
AcDbLinetypeTableRecord
  2
CENTER2
 70
     0
  3
Center (.5x) ___ _ ___ _ ___ _ ___ _ ___ _ ___
 72
    65
 73
     4
 40
28.575
 49
19.05
 74
     4
 75
     0
340
0
 46
0.0
 50
0.0
 44
0.0
 45
0.0
 49
-3.175
 74
     4
 75
     0
340
0
 46
0.0
 50
0.0
 44
0.0
 45
0.0
 49
3.175
 74
     4
 75
     0
340
0
 46
0.0
 50
0.0
 44
0.0
 45
0.0
 49
-3.175
 74
     4
 75
     0
340
0
 46
0.0
 50
0.0
 44
0.0
 45
0.0
  0
ENDTAB
  0
TABLE
  2
LAYER
  5
2
330
0
100
AcDbSymbolTable
 70
    15
  0
LAYER
  5
10
330
2
100
AcDbSymbolTableRecord
100
AcDbLayerTableRecord
  2
0
 70
     0
 62
     7
  6
Continuous
370
    -3
390
F
  0
LAYER
  5
5D
330
2
100
AcDbSymbolTableRecord
100
AcDbLayerTableRecord
  2
Default
 70
     0
 62
     7
  6
Continuous
370
    -3
390
F
  0
LAYER
  5
87
330
2
100
AcDbSymbolTableRecord
100
AcDbLayerTableRecord
  2
$DDT_AUDIT_GENERATED_(87)
 70
     0
 62
     7
  6
Continuous
370
    -3
390
F
  0
LAYER
  5
8C
330
2
100
AcDbSymbolTableRecord
100
AcDbLayerTableRecord
  2
$DDT_AUDIT_GENERATED_(8C)
 70
     0
 62
     7
  6
Continuous
370
    -3
390
F
  0
LAYER
  5
8F
330
2
100
AcDbSymbolTableRecord
100
AcDbLayerTableRecord
  2
$DDT_AUDIT_GENERATED_(8F)
 70
     0
 62
     7
  6
Continuous
370
    -3
390
F
  0
LAYER
  5
96
330
2
100
AcDbSymbolTableRecord
100
AcDbLayerTableRecord
  2
$DDT_AUDIT_GENERATED_(96)
 70
     0
 62
     7
  6
Continuous
370
    -3
390
F
  0
LAYER
  5
9F
330
2
100
AcDbSymbolTableRecord
100
AcDbLayerTableRecord
  2
$DDT_AUDIT_GENERATED_(9F)
 70
     0
 62
     7
  6
Continuous
370
    -3
390
F
  0
LAYER
  5
A6
330
2
100
AcDbSymbolTableRecord
100
AcDbLayerTableRecord
  2
$DDT_AUDIT_GENERATED_(A6)
 70
     0
 62
     7
  6
Continuous
370
    -3
390
F
  0
LAYER
  5
A9
330
2
100
AcDbSymbolTableRecord
100
AcDbLayerTableRecord
  2
$DDT_AUDIT_GENERATED_(A9)
 70
     0
 62
     7
  6
Continuous
370
    -3
390
F
  0
LAYER
  5
AF
330
2
100
AcDbSymbolTableRecord
100
AcDbLayerTableRecord
  2
$DDT_AUDIT_GENERATED_(AF)
 70
     0
 62
     7
  6
Continuous
370
    -3
390
F
  0
LAYER
  5
BB
330
2
100
AcDbSymbolTableRecord
100
AcDbLayerTableRecord
  2
$DDT_AUDIT_GENERATED_(BB)
 70
     0
 62
     7
  6
Continuous
370
    -3
390
F
  0
LAYER
  5
BD
330
2
100
AcDbSymbolTableRecord
100
AcDbLayerTableRecord
  2
$DDT_AUDIT_GENERATED_(BD)
 70
     0
 62
     7
  6
Continuous
370
    -3
390
F
  0
LAYER
  5
C3
330
2
100
AcDbSymbolTableRecord
100
AcDbLayerTableRecord
  2
$DDT_AUDIT_GENERATED_(C3)
 70
     0
 62
     7
  6
Continuous
370
    -3
390
F
  0
LAYER
  5
CF
330
2
100
AcDbSymbolTableRecord
100
AcDbLayerTableRecord
  2
$DDT_AUDIT_GENERATED_(CF)
 70
     0
 62
     7
  6
Continuous
370
    -3
390
F
  0
LAYER
  5
158
330
2
100
AcDbSymbolTableRecord
100
AcDbLayerTableRecord
  2
DV2_Default
 70
     0
 62
     7
  6
Continuous
370
    -3
390
F
  0
ENDTAB
  0
TABLE
  2
STYLE
  5
3
330
0
100
AcDbSymbolTable
 70
     2
  0
STYLE
  5
11
330
3
100
AcDbSymbolTableRecord
100
AcDbTextStyleTableRecord
  2
Standard
 70
     0
 40
0.0
 41
1.0
 50
0.0
 71
     0
 42
2.5
  3
txt
  4

  0
STYLE
  5
1C9
330
3
100
AcDbSymbolTableRecord
100
AcDbTextStyleTableRecord
  2
SEACAD_seiso_ttf
 70
     0
 40
0.0
 41
1.0
 50
0.0
 71
     0
 42
0.2
  3
seiso.ttf
  4

  0
ENDTAB
  0
TABLE
  2
VIEW
  5
6
330
0
100
AcDbSymbolTable
 70
     0
  0
ENDTAB
  0
TABLE
  2
UCS
  5
7
330
0
100
AcDbSymbolTable
 70
     0
  0
ENDTAB
  0
TABLE
  2
APPID
  5
9
330
0
100
AcDbSymbolTable
 70
     1
  0
APPID
  5
12
330
9
100
AcDbSymbolTableRecord
100
AcDbRegAppTableRecord
  2
ACAD
 70
     0
  0
ENDTAB
  0
TABLE
  2
DIMSTYLE
  5
A
330
0
100
AcDbSymbolTable
 70
     1
100
AcDbDimStyleTable
  0
DIMSTYLE
105
27
330
A
100
AcDbSymbolTableRecord
100
AcDbDimStyleTableRecord
  2
ISO-25
 70
     0
 41
2.5
 42
0.625
 43
3.75
 44
1.25
 73
     0
 74
     0
 77
     1
 78
     8
140
2.5
141
2.5
143
0.0393700787
147
0.625
171
     3
172
     1
271
     2
272
     2
274
     3
278
    44
283
     0
284
     8
340
11
  0
ENDTAB
  0
TABLE
  2
BLOCK_RECORD
  5
1
330
0
100
AcDbSymbolTable
 70
     9
  0
BLOCK_RECORD
  5
1F
330
1
100
AcDbSymbolTableRecord
100
AcDbBlockTableRecord
  2
*Model_Space
340
22
  0
BLOCK_RECORD
  5
1B
330
1
100
AcDbSymbolTableRecord
100
AcDbBlockTableRecord
  2
*Paper_Space
340
1E
  0
BLOCK_RECORD
  5
5E
330
1
100
AcDbSymbolTableRecord
100
AcDbBlockTableRecord
  2
SEANNOT_GROUP
340
0
102
{BLKREFS
331
5F
102
}
  0
BLOCK_RECORD
  5
69
330
1
100
AcDbSymbolTableRecord
100
AcDbBlockTableRecord
  2
SEANNOT_GROUP1
340
0
102
{BLKREFS
331
6A
102
}
  0
BLOCK_RECORD
  5
73
330
1
100
AcDbSymbolTableRecord
100
AcDbBlockTableRecord
  2
SEANNOT_GROUP2
340
0
102
{BLKREFS
331
74
102
}
  0
BLOCK_RECORD
  5
79
330
1
100
AcDbSymbolTableRecord
100
AcDbBlockTableRecord
  2
SEANNOT_GROUP3
340
0
102
{BLKREFS
331
7A
102
}
  0
BLOCK_RECORD
  5
7F
330
1
100
AcDbSymbolTableRecord
100
AcDbBlockTableRecord
  2
SEANNOT_GROUP4
340
0
102
{BLKREFS
331
80
102
}
  0
BLOCK_RECORD
  5
85
330
1
100
AcDbSymbolTableRecord
100
AcDbBlockTableRecord
  2
SE
340
0
102
{BLKREFS
331
86
102
}
  0
BLOCK_RECORD
  5
D4
330
1
100
AcDbSymbolTableRecord
100
AcDbBlockTableRecord
  2
SE1
340
0
102
{BLKREFS
331
D5
102
}
  0
BLOCK_RECORD
  5
15D
330
1
100
AcDbSymbolTableRecord
100
AcDbBlockTableRecord
  2
SE2
340
0
102
{BLKREFS
331
15E
102
}
  0
ENDTAB
  0
ENDSEC
  0
SECTION
  2
BLOCKS
  0
BLOCK
  5
20
330
1F
100
AcDbEntity
  8
0
100
AcDbBlockBegin
  2
*Model_Space
 70
     0
 10
0.0
 20
0.0
 30
0.0
  3
*Model_Space
  1

  0
ENDBLK
  5
21
330
1F
100
AcDbEntity
  8
0
100
AcDbBlockEnd
  0
BLOCK
  5
1C
330
1B
100
AcDbEntity
 67
     1
  8
0
100
AcDbBlockBegin
  2
*Paper_Space
 70
     0
 10
0.0
 20
0.0
 30
0.0
  3
*Paper_Space
  1

  0
ENDBLK
  5
1D
330
1B
100
AcDbEntity
 67
     1
  8
0
100
AcDbBlockEnd
  0
BLOCK
  5
67
330
5E
100
AcDbEntity
  8
0
100
AcDbBlockBegin
  2
SEANNOT_GROUP
 70
     0
 10
0.0
 20
0.0
 30
0.0
  3
SEANNOT_GROUP
  1

  0
LINE
  5
61
330
5E
100
AcDbEntity
  8
Default
  6
CENTER2
 62
     7
100
AcDbLine
 10
177.4163262571
 20
357.9275704556
 30
0.0
 11
137.4163271512
 21
357.9275704556
 31
0.0
  0
LINE
  5
62
330
5E
100
AcDbEntity
  8
Default
  6
CENTER2
 62
     7
100
AcDbLine
 10
157.4163267041
 20
377.9275700086
 30
0.0
 11
157.4163267041
 21
337.9275709026
 31
0.0
  0
LINE
  5
63
330
5E
100
AcDbEntity
  8
Default
  6
CENTER2
 62
     7
100
AcDbLine
 10
182.4163261454
 20
357.9275704556
 30
0.0
 11
192.2663267041
 21
357.9275704556
 31
0.0
  0
LINE
  5
64
330
5E
100
AcDbEntity
  8
Default
  6
CENTER2
 62
     7
100
AcDbLine
 10
157.4163267041
 20
382.9275698968
 30
0.0
 11
157.4163267041
 21
392.7775704556
 31
0.0
  0
LINE
  5
65
330
5E
100
AcDbEntity
  8
Default
  6
CENTER2
 62
     7
100
AcDbLine
 10
132.4163272629
 20
357.9275704556
 30
0.0
 11
122.5663267041
 21
357.9275704556
 31
0.0
  0
LINE
  5
66
330
5E
100
AcDbEntity
  8
Default
  6
CENTER2
 62
     7
100
AcDbLine
 10
157.4163267041
 20
332.9275710144
 30
0.0
 11
157.4163267041
 21
323.0775704556
 31
0.0
  0
ENDBLK
  5
68
330
5E
100
AcDbEntity
  8
0
100
AcDbBlockEnd
  0
BLOCK
  5
71
330
69
100
AcDbEntity
  8
0
100
AcDbBlockBegin
  2
SEANNOT_GROUP1
 70
     0
 10
0.0
 20
0.0
 30
0.0
  3
SEANNOT_GROUP1
  1

  0
LINE
  5
6B
330
69
100
AcDbEntity
  8
Default
  6
CENTER2
 62
     7
100
AcDbLine
 10
177.4163302499
 20
442.927600448
 30
0.0
 11
137.416331144
 21
442.927600448
 31
0.0
  0
LINE
  5
6C
330
69
100
AcDbEntity
  8
Default
  6
CENTER2
 62
     7
100
AcDbLine
 10
157.416330697
 20
462.927600001
 30
0.0
 11
157.416330697
 21
422.9276008951
 31
0.0
  0
LINE
  5
6D
330
69
100
AcDbEntity
  8
Default
  6
CENTER2
 62
     7
100
AcDbLine
 10
182.4163301382
 20
442.927600448
 30
0.0
 11
187.166330697
 21
442.927600448
 31
0.0
  0
LINE
  5
6E
330
69
100
AcDbEntity
  8
Default
  6
CENTER2
 62
     7
100
AcDbLine
 10
157.416330697
 20
467.9275998892
 30
0.0
 11
157.416330697
 21
472.677600448
 31
0.0
  0
LINE
  5
6F
330
69
100
AcDbEntity
  8
Default
  6
CENTER2
 62
     7
100
AcDbLine
 10
132.4163312558
 20
442.927600448
 30
0.0
 11
127.666330697
 21
442.927600448
 31
0.0
  0
LINE
  5
70
330
69
100
AcDbEntity
  8
Default
  6
CENTER2
 62
     7
100
AcDbLine
 10
157.416330697
 20
417.9276010068
 30
0.0
 11
157.416330697
 21
413.177600448
 31
0.0
  0
ENDBLK
  5
72
330
69
100
AcDbEntity
  8
0
100
AcDbBlockEnd
  0
BLOCK
  5
77
330
73
100
AcDbEntity
  8
0
100
AcDbBlockBegin
  2
SEANNOT_GROUP2
 70
     0
 10
0.0
 20
0.0
 30
0.0
  3
SEANNOT_GROUP2
  1

  0
LINE
  5
75
330
73
100
AcDbEntity
  8
Default
  6
CENTER2
 62
     7
100
AcDbLine
 10
436.2522966191
 20
357.927600448
 30
0.0
 11
396.2522975131
 21
357.927600448
 31
0.0
  0
LINE
  5
76
330
73
100
AcDbEntity
  8
Default
  6
CENTER2
 62
     7
100
AcDbLine
 10
416.2522970661
 20
377.927600001
 30
0.0
 11
416.2522970661
 21
337.9276008951
 31
0.0
  0
ENDBLK
  5
78
330
73
100
AcDbEntity
  8
0
100
AcDbBlockEnd
  0
BLOCK
  5
7D
330
79
100
AcDbEntity
  8
0
100
AcDbBlockBegin
  2
SEANNOT_GROUP3
 70
     0
 10
0.0
 20
0.0
 30
0.0
  3
SEANNOT_GROUP3
  1

  0
LINE
  5
7B
330
79
100
AcDbEntity
  8
Default
  6
CENTER2
 62
     7
100
AcDbLine
 10
436.2522966191
 20
442.927600448
 30
0.0
 11
396.2522975131
 21
442.927600448
 31
0.0
  0
LINE
  5
7C
330
79
100
AcDbEntity
  8
Default
  6
CENTER2
 62
     7
100
AcDbLine
 10
416.2522970661
 20
462.927600001
 30
0.0
 11
416.2522970661
 21
422.9276008951
 31
0.0
  0
ENDBLK
  5
7E
330
79
100
AcDbEntity
  8
0
100
AcDbBlockEnd
  0
BLOCK
  5
83
330
7F
100
AcDbEntity
  8
0
100
AcDbBlockBegin
  2
SEANNOT_GROUP4
 70
     0
 10
0.0
 20
0.0
 30
0.0
  3
SEANNOT_GROUP4
  1

  0
LINE
  5
81
330
7F
100
AcDbEntity
  8
Default
  6
CENTER2
 62
     7
100
AcDbLine
 10
177.4163262572
 20
167.1060139458
 30
0.0
 11
137.4163271513
 21
167.1060139458
 31
0.0
  0
LINE
  5
82
330
7F
100
AcDbEntity
  8
Default
  6
CENTER2
 62
     7
100
AcDbLine
 10
157.4163267043
 20
187.1060134988
 30
0.0
 11
157.4163267043
 21
147.1060143928
 31
0.0
  0
ENDBLK
  5
84
330
7F
100
AcDbEntity
  8
0
100
AcDbBlockEnd
  0
BLOCK
  5
D2
330
85
100
AcDbEntity
  8
0
100
AcDbBlockBegin
  2
SE
 70
     0
 10
0.0
 20
0.0
 30
0.0
  3
SE
  1

  0
ARC
  5
88
330
85
100
AcDbEntity
  8
$DDT_AUDIT_GENERATED_(87)
  6
Continuous
 62
     7
100
AcDbCircle
 10
157.416330697
 20
442.927600448
 30
0.0
 40
26.25
100
AcDbArc
 50
101.0875214985
 51
360.0
  0
ARC
  5
89
330
85
100
AcDbEntity
  8
$DDT_AUDIT_GENERATED_(87)
  6
Continuous
 62
     7
100
AcDbCircle
 10
157.416330697
 20
442.927600448
 30
0.0
 40
26.25
100
AcDbArc
 50
0.0
 51
79.1265256887
  0
ARC
  5
8A
330
85
100
AcDbEntity
  8
$DDT_AUDIT_GENERATED_(87)
  6
Continuous
 62
     7
100
AcDbCircle
 10
157.416330697
 20
357.927600448
 30
0.0
 40
26.25
100
AcDbArc
 50
101.0926133883
 51
0.0
  0
ARC
  5
8B
330
85
100
AcDbEntity
  8
$DDT_AUDIT_GENERATED_(87)
  6
Continuous
 62
     7
100
AcDbCircle
 10
157.416330697
 20
357.927600448
 30
0.0
 40
26.25
100
AcDbArc
 50
0.0
 51
79.119750079
  0
ARC
  5
8D
330
85
100
AcDbEntity
  8
$DDT_AUDIT_GENERATED_(8C)
  6
Continuous
 62
     7
100
AcDbCircle
 10
157.416330697
 20
442.927600448
 30
0.0
 40
25.96826565097061
100
AcDbArc
 50
0.0
 51
78.98455814
  0
ARC
  5
8E
330
85
100
AcDbEntity
  8
$DDT_AUDIT_GENERATED_(8C)
  6
Continuous
 62
     7
100
AcDbCircle
 10
157.416330697
 20
442.927600448
 30
0.0
 40
25.96826565097061
100
AcDbArc
 50
101.2143191127
 51
360.0
  0
ARC
  5
90
330
85
100
AcDbEntity
  8
$DDT_AUDIT_GENERATED_(8F)
  6
Continuous
 62
     7
100
AcDbCircle
 10
157.416330697
 20
357.927600448
 30
0.0
 40
26.55
100
AcDbArc
 50
0.0
 51
79.2550092638
  0
ARC
  5
91
330
85
100
AcDbEntity
  8
$DDT_AUDIT_GENERATED_(8F)
  6
Continuous
 62
     7
100
AcDbCircle
 10
157.416330697
 20
357.927600448
 30
0.0
 40
26.55
100
AcDbArc
 50
100.9429400894
 51
0.0
  0
ARC
  5
92
330
85
100
AcDbEntity
  8
$DDT_AUDIT_GENERATED_(8C)
  6
Continuous
 62
     7
100
AcDbCircle
 10
157.416330697
 20
357.927600448
 30
0.0
 40
25.96826565097061
100
AcDbArc
 50
0.0
 51
78.9781826346
  0
ARC
  5
93
330
85
100
AcDbEntity
  8
$DDT_AUDIT_GENERATED_(8C)
  6
Continuous
 62
     7
100
AcDbCircle
 10
157.416330697
 20
357.927600448
 30
0.0
 40
25.96826565097061
100
AcDbArc
 50
101.1882051889
 51
0.0
  0
ARC
  5
94
330
85
100
AcDbEntity
  8
$DDT_AUDIT_GENERATED_(8F)
  6
Continuous
 62
     7
100
AcDbCircle
 10
157.416330697
 20
442.927600448
 30
0.0
 40
26.55
100
AcDbArc
 50
0.0
 51
79.2809013954
  0
ARC
  5
95
330
85
100
AcDbEntity
  8
$DDT_AUDIT_GENERATED_(8F)
  6
Continuous
 62
     7
100
AcDbCircle
 10
157.416330697
 20
442.927600448
 30
0.0
 40
26.55
100
AcDbArc
 50
100.9538620354
 51
0.0
  0
ARC
  5
97
330
85
100
AcDbEntity
  8
$DDT_AUDIT_GENERATED_(96)
  6
Continuous
 62
     7
100
AcDbCircle
 10
157.4161974619
 20
398.4276311014
 30
0.0
 40
102.5001292424122
100
AcDbArc
 50
270.0000722441
 51
359.9999661
  0
ARC
  5
98
330
85
100
AcDbEntity
  8
$DDT_AUDIT_GENERATED_(96)
  6
Continuous
 62
     7
100
AcDbCircle
 10
157.4161970553
 20
398.427509619
 30
0.0
 40
102.5001296490155
100
AcDbArc
 50
0.0000340066
 51
89.9999275286
  0
SPLINE
  5
99
330
85
100
AcDbEntity
  8
$DDT_AUDIT_GENERATED_(96)
  6
Continuous
 62
     7
100
AcDbSpline
210
0.0
220
0.0
230
1.0
 70
     8
 71
     3
 72
    32
 73
    28
 74
     0
 42
0.0000000000620096
 43
0.0000000001
 40
0.0
 40
0.0
 40
0.0
 40
0.0
 40
0.000000047260315
 40
0.000000047260315
 40
0.000000047260315
 40
0.125000041352777
 40
0.125000041352777
 40
0.125000041352777
 40
0.2500000354452391
 40
0.2500000354452391
 40
0.2500000354452391
 40
0.3750000295376951
 40
0.3750000295376951
 40
0.3750000295376951
 40
0.5000000236301572
 40
0.5000000236301572
 40
0.5000000236301572
 40
0.6250000177226196
 40
0.6250000177226196
 40
0.6250000177226196
 40
0.7500000118150816
 40
0.7500000118150816
 40
0.7500000118150816
 40
0.8750000059075376
 40
0.8750000059075376
 40
0.8750000059075376
 40
1.0
 40
1.0
 40
1.0
 40
1.0
 10
157.4163267041426
 20
500.9276392679254
 30
0.0
 10
157.4163241676107
 20
500.927708080254
 30
0.0
 10
157.4163216312104
 20
500.927708080249
 30
0.0
 10
157.4163190948101
 20
500.927708080244
 30
0.0
 10
150.7077302409297
 20
500.92769470066
 30
0.0
 10
143.9991728970107
 20
500.2672116293439
 30
0.0
 10
137.4195476271037
 20
498.958214671471
 30
0.0
 10
130.8399223571967
 20
497.649217713598
 30
0.0
 10
124.3890287796627
 20
495.692935841016
 30
0.0
 10
118.1912183762437
 20
493.125420560598
 30
0.0
 10
111.9934079728247
 20
490.55790528018
 30
0.0
 10
106.0480963318857
 20
487.38066910354
 30
0.0
 10
100.4702486388967
 20
483.653405683558
 30
0.0
 10
94.89240094590772
 20
479.926142263577
 30
0.0
 10
89.68136736885974
 20
475.649842742221
 30
0.0
 10
84.9376977393677
 20
470.906187473498
 30
0.0
 10
80.1940281098747
 20
466.1625322047751
 30
0.0
 10
75.91772242306268
 20
460.951521193554
 30
0.0
 10
72.1904653348377
 20
455.373674159236
 30
0.0
 10
68.46320824661267
 20
449.795827124917
 30
0.0
 10
65.28599205326968
 20
443.850491186132
 30
0.0
 10
62.71848889394568
 20
437.652669198165
 30
0.0
 10
60.15098573462269
 20
431.4548472101981
 30
0.0
 10
58.19470750056568
 20
425.003958615751
 30
0.0
 10
56.88569228533166
 20
418.4243376165101
 30
0.0
 10
55.57667707009867
 20
411.84471661727
 30
0.0
 10
54.91614830168465
 20
405.136161159304
 30
0.0
 10
54.91623611735305
 20
398.4275756644342
 30
0.0
  0
ARC
  5
9A
330
85
100
AcDbEntity
  8
$DDT_AUDIT_GENERATED_(96)
  6
Continuous
 62
     7
100
AcDbCircle
 10
157.4162371484
 20
398.4276514661
 30
0.0
 40
101.5000893353565
100
AcDbArc
 50
359.9999542704
 51
180.0000778165
  0
ARC
  5
9B
330
85
100
AcDbEntity
  8
$DDT_AUDIT_GENERATED_(96)
  6
Continuous
 62
     7
100
AcDbCircle
 10
157.4165360345
 20
398.4278017763
 30
0.0
 40
102.5002999174195
100
AcDbArc
 50
180.0001263924
 51
269.9998829881
  0
ARC
  5
9C
330
85
100
AcDbEntity
  8
$DDT_AUDIT_GENERATED_(96)
  6
Continuous
 62
     7
100
AcDbCircle
 10
157.4162371484
 20
398.4274904308
 30
0.0
 40
101.5000893353106
100
AcDbArc
 50
179.9999869137
 51
0.0000451732
  0
CIRCLE
  5
9D
330
85
100
AcDbEntity
  8
$DDT_AUDIT_GENERATED_(96)
  6
Continuous
 62
     7
100
AcDbCircle
 10
157.4163267041
 20
357.9275704556
 30
0.0
 40
31.35
  0
CIRCLE
  5
9E
330
85
100
AcDbEntity
  8
$DDT_AUDIT_GENERATED_(96)
  6
Continuous
 62
     7
100
AcDbCircle
 10
157.4163267041
 20
442.9275704556
 30
0.0
 40
31.35
  0
CIRCLE
  5
A0
330
85
100
AcDbEntity
  8
$DDT_AUDIT_GENERATED_(9F)
  6
Continuous
 62
     7
100
AcDbCircle
 10
157.4163267041
 20
442.9275704556
 30
0.0
 40
31.25
  0
ARC
  5
A1
330
85
100
AcDbEntity
  8
$DDT_AUDIT_GENERATED_(9F)
  6
Continuous
 62
     7
100
AcDbCircle
 10
157.416330697
 20
442.9275710481
 30
0.0
 40
26.79999999999999
100
AcDbArc
 50
0.0
 51
79.3756726461
  0
ARC
  5
A2
330
85
100
AcDbEntity
  8
$DDT_AUDIT_GENERATED_(9F)
  6
Continuous
 62
     7
100
AcDbCircle
 10
157.416330697
 20
442.9275710481
 30
0.0
 40
26.79999999999999
100
AcDbArc
 50
100.8189467903
 51
0.0
  0
CIRCLE
  5
A3
330
85
100
AcDbEntity
  8
$DDT_AUDIT_GENERATED_(9F)
  6
Continuous
 62
     7
100
AcDbCircle
 10
157.4163267041
 20
357.9275704556
 30
0.0
 40
31.25
  0
ARC
  5
A4
330
85
100
AcDbEntity
  8
$DDT_AUDIT_GENERATED_(9F)
  6
Continuous
 62
     7
100
AcDbCircle
 10
157.416330697
 20
357.9275710481
 30
0.0
 40
26.8
100
AcDbArc
 50
0.0
 51
79.3756726461
  0
ARC
  5
A5
330
85
100
AcDbEntity
  8
$DDT_AUDIT_GENERATED_(9F)
  6
Continuous
 62
     7
100
AcDbCircle
 10
157.416330697
 20
357.9275710481
 30
0.0
 40
26.8
100
AcDbArc
 50
100.8189467903
 51
0.0
  0
ARC
  5
A7
330
85
100
AcDbEntity
  8
$DDT_AUDIT_GENERATED_(A6)
  6
Continuous
 62
     7
100
AcDbCircle
 10
165.1809289577
 20
368.6146531138
 30
0.0
 40
0.1999999999999844
100
AcDbArc
 50
8.0
 51
100.0
  0
ARC
  5
A8
330
85
100
AcDbEntity
  8
$DDT_AUDIT_GENERATED_(A6)
  6
Continuous
 62
     7
100
AcDbCircle
 10
157.416330697
 20
357.927600448
 30
0.0
 40
13.50000000006292
100
AcDbArc
 50
125.7320650397
 51
126.2679349603
  0
ARC
  5
AA
330
85
100
AcDbEntity
  8
$DDT_AUDIT_GENERATED_(A9)
  6
Continuous
 62
     7
100
AcDbCircle
 10
157.4163349354
 20
361.9600217875
 30
0.0
 40
21.57481697310203
100
AcDbArc
 50
75.06090708
 51
104.9389878506
  0
SPLINE
  5
AB
330
85
100
AcDbEntity
  8
$DDT_AUDIT_GENERATED_(A9)
  6
Continuous
 62
     7
100
AcDbSpline
210
0.0
220
0.0
230
1.0
 70
     8
 71
     3
 72
     8
 73
     4
 74
     0
 42
0.0000000000856334
 43
0.0000000001
 40
0.0023180076872763
 40
0.0023180076872763
 40
0.0023180076872763
 40
0.0023180076872763
 40
0.0059839234412133
 40
0.0059839234412133
 40
0.0059839234412133
 40
0.0059839234412133
 10
158.5245513321321
 20
382.619958744127
 30
0.0
 10
158.6654696879773
 20
382.5968208251821
 30
0.0
 10
158.8055490912708
 20
382.5694352311006
 30
0.0
 10
158.9445819606371
 20
382.5379314556478
 30
0.0
  0
SPLINE
  5
AC
330
85
100
AcDbEntity
  8
$DDT_AUDIT_GENERATED_(A9)
  6
Continuous
 62
     7
100
AcDbSpline
210
0.0
220
0.0
230
1.0
 70
     8
 71
     3
 72
    14
 73
    10
 74
     0
 42
0.0000000000868435
 43
0.0000000001
 40
0.6198959710520662
 40
0.6198959710520662
 40
0.6198959710520662
 40
0.6198959710520662
 40
0.6250000000000003
 40
0.6250000000000003
 40
0.6875000000000003
 40
0.6875000000000003
 40
0.7500000000000003
 40
0.7500000000000003
 40
0.8109339494751971
 40
0.8109339494751971
 40
0.8109339494751971
 40
0.8109339494751971
 10
149.6985661048158
 20
343.4659452091157
 30
0.0
 10
149.690097568033
 20
343.6620044487512
 30
0.0
 10
149.6828124537936
 20
343.8580084827336
 30
0.0
 10
149.5970758931964
 20
346.4516198538386
 30
0.0
 10
149.616335203983
 20
348.8508537184706
 30
0.0
 10
149.5693729836147
 20
353.6480746262539
 30
0.0
 10
149.5459832060581
 20
356.0466864881683
 30
0.0
 10
149.5529381039816
 20
360.7845842128933
 30
0.0
 10
149.5788414793927
 20
363.1231190376124
 30
0.0
 10
149.6011598939967
 20
365.4614833825268
 30
0.0
  0
SPLINE
  5
AD
330
85
100
AcDbEntity
  8
$DDT_AUDIT_GENERATED_(A9)
  6
Continuous
 62
     7
100
AcDbSpline
210
0.0
220
0.0
230
1.0
 70
     8
 71
     3
 72
     8
 73
     4
 74
     0
 42
0.0000000000866237
 43
0.0000000001
 40
0.886779308649405
 40
0.886779308649405
 40
0.886779308649405
 40
0.886779308649405
 40
0.9023394225517534
 40
0.9023394225517534
 40
0.9023394225517534
 40
0.9023394225517534
 10
149.8192478825672
 20
374.1848767744316
 30
0.0
 10
149.8764062749565
 20
374.7788213855957
 30
0.0
 10
149.9557452123413
 20
375.371397264238
 30
0.0
 10
150.07275133683
 20
375.9616487533214
 30
0.0
  0
ARC
  5
AE
330
85
100
AcDbEntity
  8
$DDT_AUDIT_GENERATED_(A9)
  6
Continuous
 62
     7
100
AcDbCircle
 10
157.416330697
 20
357.9274285753
 30
0.0
 40
25.69402261187271
100
AcDbArc
 50
78.8687800896
 51
101.3493051227
  0
LINE
  5
B0
330
85
100
AcDbEntity
  8
$DDT_AUDIT_GENERATED_(AF)
  6
Continuous
 62
     7
100
AcDbLine
 10
152.4163306961
 20
385.2954595033
 30
0.0
 11
152.4163572216
 21
385.5876353637
 31
0.0
  0
ARC
  5
B1
330
85
100
AcDbEntity
  8
$DDT_AUDIT_GENERATED_(AF)
  6
Continuous
 62
     7
100
AcDbCircle
 10
157.3965286429
 20
362.1973718755
 30
0.0
 40
24.72570132746884
100
AcDbArc
 50
80.3383868494
 51
99.5758155185
  0
ARC
  5
B2
330
85
100
AcDbEntity
  8
$DDT_AUDIT_GENERATED_(AF)
  6
Continuous
 62
     7
100
AcDbCircle
 10
157.3813335138
 20
335.2736654365
 30
0.0
 40
50.26736410485529
100
AcDbArc
 50
84.2513748803
 51
95.6684334672
  0
LINE
  5
B3
330
85
100
AcDbEntity
  8
$DDT_AUDIT_GENERATED_(AF)
  6
Continuous
 62
     7
100
AcDbLine
 10
162.416323392
 20
385.5810376187
 30
0.0
 11
162.4163423798
 21
385.28846763
 31
0.0
  0
ARC
  5
B4
330
85
100
AcDbEntity
  8
$DDT_AUDIT_GENERATED_(AF)
  6
Continuous
 62
     7
100
AcDbCircle
 10
161.4164597806
 20
385.5809588644
 30
0.0
 40
0.9998636145220593
100
AcDbArc
 50
0.0045129044
 51
82.5434159477
  0
ARC
  5
B5
330
85
100
AcDbEntity
  8
$DDT_AUDIT_GENERATED_(AF)
  6
Continuous
 62
     7
100
AcDbCircle
 10
157.3916829941
 20
348.2121292716
 30
0.0
 40
37.70520285297435
100
AcDbArc
 50
82.3419147656
 51
97.5824804012
  0
ARC
  5
B6
330
85
100
AcDbEntity
  8
$DDT_AUDIT_GENERATED_(AF)
  6
Continuous
 62
     7
100
AcDbCircle
 10
153.4162003076
 20
385.5875765691
 30
0.0
 40
0.9998430877588573
100
AcDbArc
 50
97.6358076002
 51
179.9966307916
  0
LINE
  5
B7
330
85
100
AcDbEntity
  8
$DDT_AUDIT_GENERATED_(AF)
  6
Continuous
 62
     7
100
AcDbLine
 10
162.416323392
 20
385.5810376187
 30
0.0
 11
162.4694763977
 21
382.535626557
 31
0.0
  0
LINE
  5
B8
330
85
100
AcDbEntity
  8
$DDT_AUDIT_GENERATED_(AF)
  6
Continuous
 62
     7
100
AcDbLine
 10
152.3630862805
 20
382.5347687992
 30
0.0
 11
152.4163572216
 21
385.5876353637
 31
0.0
  0
SPLINE
  5
B9
330
85
100
AcDbEntity
  8
$DDT_AUDIT_GENERATED_(AF)
  6
Continuous
 62
     7
100
AcDbSpline
210
0.0
220
0.0
230
1.0
 70
     8
 71
     3
 72
    21
 73
    17
 74
     0
 42
0.0000000009316314
 43
0.0000000001
 40
0.0
 40
0.0
 40
0.0
 40
0.0
 40
0.0573588843908504
 40
0.1171758930271554
 40
0.1811032535696846
 40
0.2463713848822139
 40
0.3085324801186876
 40
0.3674744689318982
 40
0.4779596780104858
 40
0.585973669726495
 40
0.6399616306568292
 40
0.693708428036856
 40
0.7529689828895898
 40
0.8226354398357141
 40
0.9044510999784328
 40
1.0
 40
1.0
 40
1.0
 40
1.0
 10
162.3997009430965
 20
385.7626038427624
 30
0.0
 10
162.3405466477205
 20
385.9183062809408
 30
0.0
 10
162.2332861296002
 20
386.1867484090052
 30
0.0
 10
161.8255775070863
 20
386.4276557755804
 30
0.0
 10
161.3467477334418
 20
386.5694493551669
 30
0.0
 10
160.7514804326969
 20
386.6767445397656
 30
0.0
 10
160.0436221242385
 20
386.7753211254067
 30
0.0
 10
159.0618093067361
 20
386.8706612410587
 30
0.0
 10
157.7536639767107
 20
386.9287076958738
 30
0.0
 10
156.4308412884372
 20
386.909087663164
 30
0.0
 10
155.4629948006622
 20
386.8514336054544
 30
0.0
 10
154.7881449629788
 20
386.7967985467732
 30
0.0
 10
154.0820344301734
 20
386.7002079325127
 30
0.0
 10
153.3496404401235
 20
386.5244125308032
 30
0.0
 10
152.6623967573964
 20
386.2123331594296
 30
0.0
 10
152.5149478569692
 20
385.9409933728547
 30
0.0
 10
152.4328777172292
 20
385.7687548592774
 30
0.0
  0
LINE
  5
BA
330
85
100
AcDbEntity
  8
$DDT_AUDIT_GENERATED_(AF)
  6
Continuous
 62
     7
100
AcDbLine
 10
162.3785452847
 20
382.5513135508
 30
0.0
 11
162.3261835105
 21
385.6058236197
 31
0.0
  0
ARC
  5
BC
330
85
100
AcDbEntity
  8
$DDT_AUDIT_GENERATED_(BB)
  6
Continuous
 62
     7
100
AcDbCircle
 10
157.4163306965
 20
442.9276004487
 30
0.0
 40
13.49999999916462
100
AcDbArc
 50
125.7320650397
 51
126.2679349603
  0
ARC
  5
BE
330
85
100
AcDbEntity
  8
$DDT_AUDIT_GENERATED_(BD)
  6
Continuous
 62
     7
100
AcDbCircle
 10
157.4163349354
 20
446.9600217875
 30
0.0
 40
21.57481697310214
100
AcDbArc
 50
75.06090708
 51
104.9389878506
  0
SPLINE
  5
BF
330
85
100
AcDbEntity
  8
$DDT_AUDIT_GENERATED_(BD)
  6
Continuous
 62
     7
100
AcDbSpline
210
0.0
220
0.0
230
1.0
 70
     8
 71
     3
 72
     8
 73
     4
 74
     0
 42
0.0000000000856334
 43
0.0000000001
 40
0.0023180076872763
 40
0.0023180076872763
 40
0.0023180076872763
 40
0.0023180076872763
 40
0.0059839234412146
 40
0.0059839234412146
 40
0.0059839234412146
 40
0.0059839234412146
 10
158.524551332132
 20
467.6199587441271
 30
0.0
 10
158.6654696879773
 20
467.5968208251822
 30
0.0
 10
158.8055490912709
 20
467.5694352311007
 30
0.0
 10
158.9445819606372
 20
467.5379314556478
 30
0.0
  0
SPLINE
  5
C0
330
85
100
AcDbEntity
  8
$DDT_AUDIT_GENERATED_(BD)
  6
Continuous
 62
     7
100
AcDbSpline
210
0.0
220
0.0
230
1.0
 70
     8
 71
     3
 72
    14
 73
    10
 74
     0
 42
0.0000000000868435
 43
0.0000000001
 40
0.6198959710520664
 40
0.6198959710520664
 40
0.6198959710520664
 40
0.6198959710520664
 40
0.6250000000000003
 40
0.6250000000000003
 40
0.6875000000000003
 40
0.6875000000000003
 40
0.7500000000000003
 40
0.7500000000000003
 40
0.8109339494751973
 40
0.8109339494751973
 40
0.8109339494751973
 40
0.8109339494751973
 10
149.6985661048158
 20
428.4659452091158
 30
0.0
 10
149.6900975680329
 20
428.6620044487513
 30
0.0
 10
149.6828124537936
 20
428.8580084827337
 30
0.0
 10
149.5970758931964
 20
431.4516198538386
 30
0.0
 10
149.616335203983
 20
433.8508537184707
 30
0.0
 10
149.5693729836147
 20
438.648074626254
 30
0.0
 10
149.5459832060581
 20
441.0466864881684
 30
0.0
 10
149.5529381039816
 20
445.7845842128934
 30
0.0
 10
149.5788414793927
 20
448.1231190376125
 30
0.0
 10
149.6011598939967
 20
450.4614833825269
 30
0.0
  0
SPLINE
  5
C1
330
85
100
AcDbEntity
  8
$DDT_AUDIT_GENERATED_(BD)
  6
Continuous
 62
     7
100
AcDbSpline
210
0.0
220
0.0
230
1.0
 70
     8
 71
     3
 72
     8
 73
     4
 74
     0
 42
0.0000000000866237
 43
0.0000000001
 40
0.8867793086494051
 40
0.8867793086494051
 40
0.8867793086494051
 40
0.8867793086494051
 40
0.9023394225517535
 40
0.9023394225517535
 40
0.9023394225517535
 40
0.9023394225517535
 10
149.8192478825672
 20
459.1848767744317
 30
0.0
 10
149.8764062749565
 20
459.7788213855958
 30
0.0
 10
149.9557452123412
 20
460.3713972642381
 30
0.0
 10
150.07275133683
 20
460.9616487533214
 30
0.0
  0
ARC
  5
C2
330
85
100
AcDbEntity
  8
$DDT_AUDIT_GENERATED_(BD)
  6
Continuous
 62
     7
100
AcDbCircle
 10
157.416330697
 20
442.9274285753
 30
0.0
 40
25.69402261187275
100
AcDbArc
 50
78.8687800896
 51
101.3493051227
  0
LINE
  5
C4
330
85
100
AcDbEntity
  8
$DDT_AUDIT_GENERATED_(C3)
  6
Continuous
 62
     7
100
AcDbLine
 10
152.4163306961
 20
470.2954595033
 30
0.0
 11
152.4163572216
 21
470.5876353637
 31
0.0
  0
ARC
  5
C5
330
85
100
AcDbEntity
  8
$DDT_AUDIT_GENERATED_(C3)
  6
Continuous
 62
     7
100
AcDbCircle
 10
157.3965286429
 20
447.1973718755
 30
0.0
 40
24.72570132746947
100
AcDbArc
 50
80.3383868494
 51
99.5758155185
  0
ARC
  5
C6
330
85
100
AcDbEntity
  8
$DDT_AUDIT_GENERATED_(C3)
  6
Continuous
 62
     7
100
AcDbCircle
 10
157.3813335138
 20
420.2736654365
 30
0.0
 40
50.26736410485417
100
AcDbArc
 50
84.2513748803
 51
95.6684334672
  0
LINE
  5
C7
330
85
100
AcDbEntity
  8
$DDT_AUDIT_GENERATED_(C3)
  6
Continuous
 62
     7
100
AcDbLine
 10
162.416323392
 20
470.5810376187
 30
0.0
 11
162.4163423798
 21
470.28846763
 31
0.0
  0
ARC
  5
C8
330
85
100
AcDbEntity
  8
$DDT_AUDIT_GENERATED_(C3)
  6
Continuous
 62
     7
100
AcDbCircle
 10
161.4164597806
 20
470.5809588644
 30
0.0
 40
0.9998636145220557
100
AcDbArc
 50
0.0045129044
 51
82.5434159477
  0
ARC
  5
C9
330
85
100
AcDbEntity
  8
$DDT_AUDIT_GENERATED_(C3)
  6
Continuous
 62
     7
100
AcDbCircle
 10
157.3916829941
 20
433.2121292716
 30
0.0
 40
37.70520285297502
100
AcDbArc
 50
82.3419147656
 51
97.5824804012
  0
ARC
  5
CA
330
85
100
AcDbEntity
  8
$DDT_AUDIT_GENERATED_(C3)
  6
Continuous
 62
     7
100
AcDbCircle
 10
153.4162003076
 20
470.5875765691
 30
0.0
 40
0.9998430877588673
100
AcDbArc
 50
97.6358076002
 51
179.9966307916
  0
LINE
  5
CB
330
85
100
AcDbEntity
  8
$DDT_AUDIT_GENERATED_(C3)
  6
Continuous
 62
     7
100
AcDbLine
 10
162.416323392
 20
470.5810376187
 30
0.0
 11
162.4694763977
 21
467.535626557
 31
0.0
  0
LINE
  5
CC
330
85
100
AcDbEntity
  8
$DDT_AUDIT_GENERATED_(C3)
  6
Continuous
 62
     7
100
AcDbLine
 10
152.3633133136
 20
467.5477796786
 30
0.0
 11
152.4163572216
 21
470.5876353637
 31
0.0
  0
SPLINE
  5
CD
330
85
100
AcDbEntity
  8
$DDT_AUDIT_GENERATED_(C3)
  6
Continuous
 62
     7
100
AcDbSpline
210
0.0
220
0.0
230
1.0
 70
     8
 71
     3
 72
    21
 73
    17
 74
     0
 42
0.0000000009316314
 43
0.0000000001
 40
0.0
 40
0.0
 40
0.0
 40
0.0
 40
0.0573588843908495
 40
0.1171758930271553
 40
0.1811032535696836
 40
0.2463713848822137
 40
0.3085324801186868
 40
0.3674744689318978
 40
0.4779596780104856
 40
0.5859736697264947
 40
0.6399616306568289
 40
0.6937084280368555
 40
0.7529689828895895
 40
0.8226354398357144
 40
0.9044510999784329
 40
1.0
 40
1.0
 40
1.0
 40
1.0
 10
162.3997009430965
 20
470.7626038427624
 30
0.0
 10
162.3405466477205
 20
470.9183062809407
 30
0.0
 10
162.2332861296002
 20
471.1867484090051
 30
0.0
 10
161.8255775070862
 20
471.4276557755804
 30
0.0
 10
161.3467477334417
 20
471.5694493551667
 30
0.0
 10
160.7514804326969
 20
471.6767445397656
 30
0.0
 10
160.0436221242384
 20
471.7753211254067
 30
0.0
 10
159.0618093067361
 20
471.8706612410588
 30
0.0
 10
157.7536639767107
 20
471.9287076958737
 30
0.0
 10
156.4308412884371
 20
471.9090876631637
 30
0.0
 10
155.4629948006621
 20
471.8514336054545
 30
0.0
 10
154.7881449629787
 20
471.7967985467732
 30
0.0
 10
154.0820344301733
 20
471.7002079325127
 30
0.0
 10
153.3496404401234
 20
471.5244125308034
 30
0.0
 10
152.6623967573963
 20
471.2123331594296
 30
0.0
 10
152.5149478569691
 20
470.9409933728548
 30
0.0
 10
152.4328777172291
 20
470.7687548592774
 30
0.0
  0
LINE
  5
CE
330
85
100
AcDbEntity
  8
$DDT_AUDIT_GENERATED_(C3)
  6
Continuous
 62
     7
100
AcDbLine
 10
162.3785452847
 20
467.5513135508
 30
0.0
 11
162.3261847505
 21
470.605751285
 31
0.0
  0
SPLINE
  5
D0
330
85
100
AcDbEntity
  8
$DDT_AUDIT_GENERATED_(CF)
  6
Continuous
 62
     7
100
AcDbSpline
210
0.0
220
0.0
230
1.0
 70
    11
 71
     3
 72
   107
 73
   103
 74
     0
 42
0.000000000086283
 43
0.0000000001
 40
0.0
 40
0.0
 40
0.0
 40
0.0
 40
0.00390625
 40
0.0078125
 40
0.0117187500000201
 40
0.0156249999999686
 40
0.0195312500000044
 40
0.0234375000000403
 40
0.0273437499999887
 40
0.0312500000000246
 40
0.035156249999973
 40
0.0390625000000089
 40
0.0429687499999573
 40
0.0468749999999932
 40
0.050781250000029
 40
0.0546874999999775
 40
0.0585937500000133
 40
0.0624999999999618
 40
0.0664062499999976
 40
0.0703125000000334
 40
0.0742187499999819
 40
0.0781250000000177
 40
0.0820312499999662
 40
0.0859375000000021
 40
0.0898437500000379
 40
0.0937499999999864
 40
0.1015624999999707
 40
0.1093750000000423
 40
0.1171875000000266
 40
0.1250000000000109
 40
0.1406249999999795
 40
0.1562500000000355
 40
0.1718750000000041
 40
0.1874999999999727
 40
0.2187499999999973
 40
0.2500000000000218
 40
0.281249999999959
 40
0.3124999999999836
 40
0.3281250000000396
 40
0.3437500000000082
 40
0.3593749999999768
 40
0.3750000000000328
 40
0.3828125000000171
 40
0.3906250000000014
 40
0.3984374999999857
 40
0.40624999999997
 40
0.4140625000000417
 40
0.421875000000026
 40
0.4296875000000103
 40
0.4374999999999946
 40
0.4453124999999788
 40
0.4531249999999632
 40
0.4609375000000349
 40
0.4687500000000192
 40
0.4765625000000034
 40
0.4843749999999877
 40
0.492187499999972
 40
0.4999999999999563
 40
0.507812500000028
 40
0.5156250000000123
 40
0.5234374999999967
 40
0.5312499999999809
 40
0.5390624999999653
 40
0.5468750000000369
 40
0.5546875000000212
 40
0.5625000000000054
 40
0.5703124999999898
 40
0.5781249999999741
 40
0.5859374999999585
 40
0.5937500000000301
 40
0.6015625000000144
 40
0.6093749999999987
 40
0.6171874999999829
 40
0.6249999999999672
 40
0.6406250000000232
 40
0.6562499999999919
 40
0.6718749999999605
 40
0.6875000000000164
 40
0.7187499999999535
 40
0.7499999999999782
 40
0.7812500000000028
 40
0.8125000000000274
 40
0.8281249999999959
 40
0.8437499999999645
 40
0.8593750000000205
 40
0.8749999999999892
 40
0.8828124999999735
 40
0.8906249999999578
 40
0.8984375000000294
 40
0.9062500000000138
 40
0.914062499999998
 40
0.9218749999999823
 40
0.9296874999999666
 40
0.9375000000000383
 40
0.9453125000000225
 40
0.9531250000000069
 40
0.9609374999999911
 40
0.9687499999999755
 40
0.9765624999999599
 40
0.9843750000000315
 40
0.9921875000000157
 40
1.0
 40
1.0
 40
1.0
 40
1.0
 10
157.4163306969796
 20
418.1444116697605
 30
0.0
 10
157.2670744529675
 20
418.1444116697605
 30
0.0
 10
156.9686055207955
 20
418.1545114724795
 30
0.0
 10
156.5195917903835
 20
418.1991367125035
 30
0.0
 10
156.0727296250105
 20
418.2725730956735
 30
0.0
 10
155.6294896854885
 20
418.3739394274145
 30
0.0
 10
155.1922354290425
 20
418.5024289287666
 30
0.0
 10
154.7629782551045
 20
418.6570385292325
 30
0.0
 10
154.3435843190625
 20
418.8370937037595
 30
0.0
 10
153.9365090787925
 20
419.0413075158665
 30
0.0
 10
153.5428612458015
 20
419.2696934281295
 30
0.0
 10
153.1663883925835
 20
419.5198541140635
 30
0.0
 10
152.8058249069745
 20
419.7944475432935
 30
0.0
 10
152.4705575058805
 20
420.0854266392655
 30
0.0
 10
152.1380593273495
 20
420.4178742351985
 30
0.0
 10
151.8363986365975
 20
420.7664064262895
 30
0.0
 10
151.5594915284815
 20
421.1323411988015
 30
0.0
 10
151.3080743720665
 20
421.5127071098265
 30
0.0
 10
151.0801102333485
 20
421.9060817701505
 30
0.0
 10
150.8748284140575
 20
422.3104601351235
 30
0.0
 10
150.6908642891205
 20
422.7239920498985
 30
0.0
 10
150.5270391603975
 20
423.1451773247755
 30
0.0
 10
150.3822937183305
 20
423.5716404403465
 30
0.0
 10
150.2551580598115
 20
424.0028745880035
 30
0.0
 10
150.1450278811695
 20
424.4348167041315
 30
0.0
 10
150.0179141982295
 20
425.0153937376655
 30
0.0
 10
149.8996419282435
 20
425.7275008405175
 30
0.0
 10
149.8071169049915
 20
426.5861568304015
 30
0.0
 10
149.7498738769025
 20
427.4398348321115
 30
0.0
 10
149.6994166101145
 20
428.6439559313895
 30
0.0
 10
149.6689410578625
 20
430.3724724645895
 30
0.0
 10
149.6488160601455
 20
431.9962316651975
 30
0.0
 10
149.6299770080035
 20
433.8233692631605
 30
0.0
 10
149.6105257959205
 20
436.2620783436325
 30
0.0
 10
149.5939251758375
 20
439.4757258955235
 30
0.0
 10
149.5883149168015
 20
442.9277732817501
 30
0.0
 10
149.5939203145645
 20
446.3795808861405
 30
0.0
 10
149.6105183700664
 20
449.5932774254885
 30
0.0
 10
149.6299633798004
 20
452.0319571393745
 30
0.0
 10
149.6488066230314
 20
453.8592800238345
 30
0.0
 10
149.6689142955155
 20
455.4828680798275
 30
0.0
 10
149.6993975125495
 20
457.2112796288925
 30
0.0
 10
149.7497729308434
 20
458.4154569820586
 30
0.0
 10
149.8070877864955
 20
459.2694944869865
 30
0.0
 10
149.8993081288885
 20
460.1273833244765
 30
0.0
 10
150.0417390039275
 20
460.9835924975475
 30
0.0
 10
150.2469804831065
 20
461.8550430650255
 30
0.0
 10
150.5172988580944
 20
462.7128546125375
 30
0.0
 10
150.8635833157464
 20
463.5496164577435
 30
0.0
 10
151.2967513126335
 20
464.3495032305975
 30
0.0
 10
151.8209342029745
 20
465.0959579640175
 30
0.0
 10
152.4603035155905
 20
465.7826422345575
 30
0.0
 10
153.1556701207865
 20
466.3442972712935
 30
0.0
 10
153.9297592411324
 20
466.8263449118835
 30
0.0
 10
154.7578420645274
 20
467.2104628788705
 30
0.0
 10
155.6262926294654
 20
467.4949581973935
 30
0.0
 10
156.5195142116405
 20
467.6704671273305
 30
0.0
 10
157.4163306969788
 20
467.7309726844475
 30
0.0
 10
158.3131471823204
 20
467.6704671273315
 30
0.0
 10
159.2063687644915
 20
467.4949581973915
 30
0.0
 10
160.0748193294345
 20
467.2104628788765
 30
0.0
 10
160.9029021528235
 20
466.8263449118735
 30
0.0
 10
161.6769912731774
 20
466.3442972713145
 30
0.0
 10
162.3723578783635
 20
465.7826422345135
 30
0.0
 10
163.0117271909915
 20
465.0959579641135
 30
0.0
 10
163.5359100813154
 20
464.3495032303985
 30
0.0
 10
163.9690780782375
 20
463.5496164581495
 30
0.0
 10
164.3153625357984
 20
462.7128546117235
 30
0.0
 10
164.5856809110245
 20
461.8550430666255
 30
0.0
 10
164.7909223896135
 20
460.9835924944466
 30
0.0
 10
164.9333532660314
 20
460.1273833304145
 30
0.0
 10
165.0255736053915
 20
459.2694944758416
 30
0.0
 10
165.0828884671594
 20
458.4154570017255
 30
0.0
 10
165.1332638723235
 20
457.2112795875385
 30
0.0
 10
165.1637471197015
 20
455.4828681724586
 30
0.0
 10
165.1838547353294
 20
453.8592798710315
 30
0.0
 10
165.2026980740825
 20
452.0319573956905
 30
0.0
 10
165.2221429037265
 20
449.5932769155545
 30
0.0
 10
165.2387413157235
 20
446.3795818833476
 30
0.0
 10
165.2443460269265
 20
442.9277713947075
 30
0.0
 10
165.2387370828625
 20
439.4757294645646
 30
0.0
 10
165.2221343002185
 20
436.2620729994405
 30
0.0
 10
165.2026866668455
 20
433.8233785750185
 30
0.0
 10
165.1838398903675
 20
431.9962095334735
 30
0.0
 10
165.1637317731755
 20
430.3725186470385
 30
0.0
 10
165.1332243114915
 20
428.6438750974965
 30
0.0
 10
165.0828207164175
 20
427.4399608823495
 30
0.0
 10
165.0254632115585
 20
426.5858697767706
 30
0.0
 10
164.9331963472835
 20
425.7280738250325
 30
0.0
 10
164.7906992168745
 20
424.8718232211645
 30
0.0
 10
164.5854302727635
 20
424.0004237128076
 30
0.0
 10
164.3151083770605
 20
423.1426283706695
 30
0.0
 10
163.9688353371905
 20
422.3058335142345
 30
0.0
 10
163.5356948222855
 20
421.5058991356745
 30
0.0
 10
163.0115727823725
 20
420.7593912479185
 30
0.0
 10
162.3722595794075
 20
420.0726661464345
 30
0.0
 10
161.6769777712365
 20
419.5109669944445
 30
0.0
 10
160.9027717519785
 20
419.0288522456765
 30
0.0
 10
160.0749841170305
 20
418.6447923699565
 30
0.0
 10
159.2059908638445
 20
418.3602023168036
 30
0.0
 10
158.3138907534215
 20
418.1848338789636
 30
0.0
 10
157.7143961322055
 20
418.1444116697605
 30
0.0
 10
157.4163306969796
 20
418.1444116697605
 30
0.0
  0
SPLINE
  5
D1
330
85
100
AcDbEntity
  8
$DDT_AUDIT_GENERATED_(CF)
  6
Continuous
 62
     7
100
AcDbSpline
210
0.0
220
0.0
230
1.0
 70
    11
 71
     3
 72
   107
 73
   103
 74
     0
 42
0.000000000086283
 43
0.0000000001
 40
0.0
 40
0.0
 40
0.0
 40
0.0
 40
0.00390625
 40
0.0078125
 40
0.0117187500000201
 40
0.0156249999999686
 40
0.0195312500000044
 40
0.0234375000000403
 40
0.0273437499999887
 40
0.0312500000000246
 40
0.035156249999973
 40
0.0390625000000089
 40
0.0429687499999573
 40
0.0468749999999932
 40
0.050781250000029
 40
0.0546874999999775
 40
0.0585937500000133
 40
0.0624999999999618
 40
0.0664062499999976
 40
0.0703125000000334
 40
0.0742187499999819
 40
0.0781250000000177
 40
0.0820312499999662
 40
0.0859375000000021
 40
0.0898437500000379
 40
0.0937499999999864
 40
0.1015624999999707
 40
0.1093750000000423
 40
0.1171875000000266
 40
0.1250000000000109
 40
0.1406249999999795
 40
0.1562500000000355
 40
0.1718750000000041
 40
0.1874999999999727
 40
0.2187499999999973
 40
0.2500000000000218
 40
0.281249999999959
 40
0.3124999999999836
 40
0.3281250000000396
 40
0.3437500000000082
 40
0.3593749999999768
 40
0.3750000000000328
 40
0.3828125000000171
 40
0.3906250000000014
 40
0.3984374999999857
 40
0.40624999999997
 40
0.4140625000000417
 40
0.421875000000026
 40
0.4296875000000103
 40
0.4374999999999946
 40
0.4453124999999788
 40
0.4531249999999632
 40
0.4609375000000349
 40
0.4687500000000192
 40
0.4765625000000034
 40
0.4843749999999877
 40
0.492187499999972
 40
0.4999999999999563
 40
0.507812500000028
 40
0.5156250000000123
 40
0.5234374999999967
 40
0.5312499999999809
 40
0.5390624999999653
 40
0.5468750000000369
 40
0.5546875000000212
 40
0.5625000000000054
 40
0.5703124999999898
 40
0.5781249999999741
 40
0.5859374999999585
 40
0.5937500000000301
 40
0.6015625000000144
 40
0.6093749999999987
 40
0.6171874999999829
 40
0.6249999999999672
 40
0.6406250000000232
 40
0.6562499999999919
 40
0.6718749999999605
 40
0.6875000000000164
 40
0.7187499999999535
 40
0.7499999999999782
 40
0.7812500000000028
 40
0.8125000000000274
 40
0.8281249999999959
 40
0.8437499999999645
 40
0.8593750000000205
 40
0.8749999999999892
 40
0.8828124999999735
 40
0.8906249999999578
 40
0.8984375000000294
 40
0.9062500000000138
 40
0.914062499999998
 40
0.9218749999999823
 40
0.9296874999999666
 40
0.9375000000000383
 40
0.9453125000000225
 40
0.9531250000000069
 40
0.9609374999999911
 40
0.9687499999999755
 40
0.9765624999999599
 40
0.9843750000000315
 40
0.9921875000000157
 40
1.0
 40
1.0
 40
1.0
 40
1.0
 10
157.4163306969796
 20
333.1444116697604
 30
0.0
 10
157.2670744529675
 20
333.1444116697604
 30
0.0
 10
156.9686055207955
 20
333.1545114724794
 30
0.0
 10
156.5195917903835
 20
333.1991367125034
 30
0.0
 10
156.0727296250105
 20
333.2725730956735
 30
0.0
 10
155.6294896854885
 20
333.3739394274144
 30
0.0
 10
155.1922354290425
 20
333.5024289287664
 30
0.0
 10
154.7629782551045
 20
333.6570385292325
 30
0.0
 10
154.3435843190625
 20
333.8370937037595
 30
0.0
 10
153.9365090787925
 20
334.0413075158665
 30
0.0
 10
153.5428612458015
 20
334.2696934281295
 30
0.0
 10
153.1663883925835
 20
334.5198541140635
 30
0.0
 10
152.8058249069745
 20
334.7944475432935
 30
0.0
 10
152.4705575058805
 20
335.0854266392654
 30
0.0
 10
152.1380593273495
 20
335.4178742351984
 30
0.0
 10
151.8363986365975
 20
335.7664064262894
 30
0.0
 10
151.5594915284815
 20
336.1323411988014
 30
0.0
 10
151.3080743720665
 20
336.5127071098265
 30
0.0
 10
151.0801102333485
 20
336.9060817701505
 30
0.0
 10
150.8748284140575
 20
337.3104601351234
 30
0.0
 10
150.6908642891205
 20
337.7239920498985
 30
0.0
 10
150.5270391603975
 20
338.1451773247754
 30
0.0
 10
150.3822937183305
 20
338.5716404403464
 30
0.0
 10
150.2551580598115
 20
339.0028745880034
 30
0.0
 10
150.1450278811695
 20
339.4348167041314
 30
0.0
 10
150.0179141982295
 20
340.0153937376654
 30
0.0
 10
149.8996419282435
 20
340.7275008405175
 30
0.0
 10
149.8071169049915
 20
341.5861568304014
 30
0.0
 10
149.7498738769025
 20
342.4398348321114
 30
0.0
 10
149.6994166101145
 20
343.6439559313895
 30
0.0
 10
149.6689410578625
 20
345.3724724645895
 30
0.0
 10
149.6488160601455
 20
346.9962316651975
 30
0.0
 10
149.6299770080035
 20
348.8233692631604
 30
0.0
 10
149.6105257959205
 20
351.2620783436324
 30
0.0
 10
149.5939251758375
 20
354.4757258955235
 30
0.0
 10
149.5883149168015
 20
357.9277732817501
 30
0.0
 10
149.5939203145645
 20
361.3795808861404
 30
0.0
 10
149.6105183700665
 20
364.5932774254885
 30
0.0
 10
149.6299633798005
 20
367.0319571393745
 30
0.0
 10
149.6488066230315
 20
368.8592800238345
 30
0.0
 10
149.6689142955155
 20
370.4828680798274
 30
0.0
 10
149.6993975125495
 20
372.2112796288924
 30
0.0
 10
149.7497729308435
 20
373.4154569820585
 30
0.0
 10
149.8070877864955
 20
374.2694944869864
 30
0.0
 10
149.8993081288885
 20
375.1273833244765
 30
0.0
 10
150.0417390039275
 20
375.9835924975474
 30
0.0
 10
150.2469804831065
 20
376.8550430650254
 30
0.0
 10
150.5172988580945
 20
377.7128546125375
 30
0.0
 10
150.8635833157465
 20
378.5496164577434
 30
0.0
 10
151.2967513126335
 20
379.3495032305975
 30
0.0
 10
151.8209342029745
 20
380.0959579640175
 30
0.0
 10
152.4603035155905
 20
380.7826422345574
 30
0.0
 10
153.1556701207865
 20
381.3442972712934
 30
0.0
 10
153.9297592411325
 20
381.8263449118834
 30
0.0
 10
154.7578420645275
 20
382.2104628788704
 30
0.0
 10
155.6262926294655
 20
382.4949581973934
 30
0.0
 10
156.5195142116405
 20
382.6704671273304
 30
0.0
 10
157.4163306969788
 20
382.7309726844475
 30
0.0
 10
158.3131471823205
 20
382.6704671273314
 30
0.0
 10
159.2063687644915
 20
382.4949581973914
 30
0.0
 10
160.0748193294345
 20
382.2104628788765
 30
0.0
 10
160.9029021528235
 20
381.8263449118734
 30
0.0
 10
161.6769912731775
 20
381.3442972713145
 30
0.0
 10
162.3723578783635
 20
380.7826422345134
 30
0.0
 10
163.0117271909915
 20
380.0959579641134
 30
0.0
 10
163.5359100813155
 20
379.3495032303985
 30
0.0
 10
163.9690780782375
 20
378.5496164581494
 30
0.0
 10
164.3153625357985
 20
377.7128546117235
 30
0.0
 10
164.5856809110245
 20
376.8550430666255
 30
0.0
 10
164.7909223896135
 20
375.9835924944464
 30
0.0
 10
164.9333532660315
 20
375.1273833304144
 30
0.0
 10
165.0255736053915
 20
374.2694944758414
 30
0.0
 10
165.0828884671595
 20
373.4154570017255
 30
0.0
 10
165.1332638723235
 20
372.2112795875385
 30
0.0
 10
165.1637471197015
 20
370.4828681724584
 30
0.0
 10
165.1838547353295
 20
368.8592798710314
 30
0.0
 10
165.2026980740825
 20
367.0319573956904
 30
0.0
 10
165.2221429037265
 20
364.5932769155544
 30
0.0
 10
165.2387413157235
 20
361.3795818833474
 30
0.0
 10
165.2443460269265
 20
357.9277713947075
 30
0.0
 10
165.2387370828625
 20
354.4757294645644
 30
0.0
 10
165.2221343002185
 20
351.2620729994405
 30
0.0
 10
165.2026866668455
 20
348.8233785750185
 30
0.0
 10
165.1838398903675
 20
346.9962095334734
 30
0.0
 10
165.1637317731755
 20
345.3725186470384
 30
0.0
 10
165.1332243114915
 20
343.6438750974964
 30
0.0
 10
165.0828207164175
 20
342.4399608823495
 30
0.0
 10
165.0254632115585
 20
341.5858697767705
 30
0.0
 10
164.9331963472835
 20
340.7280738250324
 30
0.0
 10
164.7906992168745
 20
339.8718232211644
 30
0.0
 10
164.5854302727635
 20
339.0004237128074
 30
0.0
 10
164.3151083770605
 20
338.1426283706695
 30
0.0
 10
163.9688353371905
 20
337.3058335142345
 30
0.0
 10
163.5356948222855
 20
336.5058991356745
 30
0.0
 10
163.0115727823725
 20
335.7593912479184
 30
0.0
 10
162.3722595794075
 20
335.0726661464344
 30
0.0
 10
161.6769777712365
 20
334.5109669944445
 30
0.0
 10
160.9027717519785
 20
334.0288522456765
 30
0.0
 10
160.0749841170305
 20
333.6447923699565
 30
0.0
 10
159.2059908638445
 20
333.3602023168035
 30
0.0
 10
158.3138907534215
 20
333.1848338789634
 30
0.0
 10
157.7143961322055
 20
333.1444116697604
 30
0.0
 10
157.4163306969796
 20
333.1444116697604
 30
0.0
  0
ENDBLK
  5
D3
330
85
100
AcDbEntity
  8
0
100
AcDbBlockEnd
  0
BLOCK
  5
15B
330
D4
100
AcDbEntity
  8
0
100
AcDbBlockBegin
  2
SE1
 70
     0
 10
0.0
 20
0.0
 30
0.0
  3
SE1
  1

  0
ARC
  5
D6
330
D4
100
AcDbEntity
  8
$DDT_AUDIT_GENERATED_(87)
  6
Continuous
 62
     7
100
AcDbCircle
 10
429.3522970661
 20
418.677600448
 30
0.0
 40
1.999999999999988
100
AcDbArc
 50
275.8644981899
 51
278.9221827988
  0
ARC
  5
D7
330
D4
100
AcDbEntity
  8
$DDT_AUDIT_GENERATED_(87)
  6
Continuous
 62
     7
100
AcDbCircle
 10
429.3522970661
 20
418.677600448
 30
0.0
 40
1.999999999999988
100
AcDbArc
 50
320.7251267414
 51
0.0
  0
ARC
  5
D8
330
D4
100
AcDbEntity
  8
$DDT_AUDIT_GENERATED_(87)
  6
Continuous
 62
     7
100
AcDbCircle
 10
429.3522970661
 20
467.177600448
 30
0.0
 40
2.000000000000002
100
AcDbArc
 50
0.0
 51
38.6853117137
  0
ARC
  5
D9
330
D4
100
AcDbEntity
  8
$DDT_AUDIT_GENERATED_(87)
  6
Continuous
 62
     7
100
AcDbCircle
 10
429.3522970661
 20
467.177600448
 30
0.0
 40
2.000000000000002
100
AcDbArc
 50
81.0793820202
 51
84.0970604689
  0
LINE
  5
DA
330
D4
100
AcDbEntity
  8
$DDT_AUDIT_GENERATED_(87)
  6
Continuous
 62
     7
100
AcDbLine
 10
429.5522970661
 20
331.677600448
 30
0.0
 11
429.6553262826
 21
331.677600448
 31
0.0
  0
LINE
  5
DB
330
D4
100
AcDbEntity
  8
$DDT_AUDIT_GENERATED_(87)
  6
Continuous
 62
     7
100
AcDbLine
 10
429.6553855087
 20
384.177600448
 30
0.0
 11
429.5522970661
 21
384.177600448
 31
0.0
  0
ARC
  5
DC
330
D4
100
AcDbEntity
  8
$DDT_AUDIT_GENERATED_(87)
  6
Continuous
 62
     7
100
AcDbCircle
 10
430.0522970661
 20
333.677600448
 30
0.0
 40
1.999999999999998
100
AcDbArc
 50
294.6684033456
 51
0.0
  0
ARC
  5
DD
330
D4
100
AcDbEntity
  8
$DDT_AUDIT_GENERATED_(87)
  6
Continuous
 62
     7
100
AcDbCircle
 10
430.0522970661
 20
382.177600448
 30
0.0
 40
2.000000000000002
100
AcDbArc
 50
0.0
 51
64.9818852424
  0
LINE
  5
DE
330
D4
100
AcDbEntity
  8
$DDT_AUDIT_GENERATED_(8C)
  6
Continuous
 62
     7
100
AcDbLine
 10
439.3522970661
 20
468.192981367
 30
0.0
 11
439.3522970661
 21
417.6622195291
 31
0.0
  0
LINE
  5
DF
330
D4
100
AcDbEntity
  8
$DDT_AUDIT_GENERATED_(8C)
  6
Continuous
 62
     7
100
AcDbLine
 10
431.3522970661
 20
467.9114872859
 30
0.0
 11
431.3522970661
 21
417.9437136101
 31
0.0
  0
LINE
  5
E0
330
D4
100
AcDbEntity
  8
$DDT_AUDIT_GENERATED_(8C)
  6
Continuous
 62
     7
100
AcDbLine
 10
439.8522970661
 20
421.177600448
 30
0.0
 11
440.6023009439
 21
421.177600448
 31
0.0
  0
LINE
  5
E1
330
D4
100
AcDbEntity
  8
$DDT_AUDIT_GENERATED_(8C)
  6
Continuous
 62
     7
100
AcDbLine
 10
440.6023009439
 20
464.677600448
 30
0.0
 11
439.8522970661
 21
464.677600448
 31
0.0
  0
LINE
  5
E2
330
D4
100
AcDbEntity
  8
$DDT_AUDIT_GENERATED_(8C)
  6
Continuous
 62
     7
100
AcDbLine
 10
432.3834098003
 20
416.959822721
 30
0.0
 11
438.8679144423
 21
417.162463491
 31
0.0
  0
LINE
  5
E3
330
D4
100
AcDbEntity
  8
$DDT_AUDIT_GENERATED_(8C)
  6
Continuous
 62
     7
100
AcDbLine
 10
438.8679144423
 20
468.692737405
 30
0.0
 11
432.3834098003
 21
468.8953781751
 31
0.0
  0
ARC
  5
E4
330
D4
100
AcDbEntity
  8
$DDT_AUDIT_GENERATED_(8C)
  6
Continuous
 62
     7
100
AcDbCircle
 10
439.8522970661
 20
465.177600448
 30
0.0
 40
0.5000000000000004
100
AcDbArc
 50
180.0
 51
270.0
  0
ARC
  5
E5
330
D4
100
AcDbEntity
  8
$DDT_AUDIT_GENERATED_(8C)
  6
Continuous
 62
     7
100
AcDbCircle
 10
439.8522970661
 20
420.677600448
 30
0.0
 40
0.5000000000000004
100
AcDbArc
 50
90.0
 51
180.0
  0
ARC
  5
E6
330
D4
100
AcDbEntity
  8
$DDT_AUDIT_GENERATED_(8C)
  6
Continuous
 62
     7
100
AcDbCircle
 10
438.8522970661
 20
468.192981367
 30
0.0
 40
0.5000000000000004
100
AcDbArc
 50
0.0
 51
88.2100893918
  0
ARC
  5
E7
330
D4
100
AcDbEntity
  8
$DDT_AUDIT_GENERATED_(8C)
  6
Continuous
 62
     7
100
AcDbCircle
 10
438.8522970661
 20
417.6622195291
 30
0.0
 40
0.4999999999999993
100
AcDbArc
 50
271.7899106083
 51
0.0
  0
ARC
  5
E8
330
D4
100
AcDbEntity
  8
$DDT_AUDIT_GENERATED_(8C)
  6
Continuous
 62
     7
100
AcDbCircle
 10
432.3521750479
 20
417.9593347971
 30
0.0
 40
0.9999999999805742
100
AcDbArc
 50
180.8950645584
 51
271.7899106082
  0
ARC
  5
E9
330
D4
100
AcDbEntity
  8
$DDT_AUDIT_GENERATED_(8C)
  6
Continuous
 62
     7
100
AcDbCircle
 10
432.3521750479
 20
467.895866099
 30
0.0
 40
0.9999999999999963
100
AcDbArc
 50
88.2100893918
 51
179.1049354416
  0
LINE
  5
EA
330
D4
100
AcDbEntity
  8
$DDT_AUDIT_GENERATED_(8C)
  6
Continuous
 62
     7
100
AcDbLine
 10
440.0522970661
 20
383.192981367
 30
0.0
 11
440.0522970661
 21
332.6622195291
 31
0.0
  0
LINE
  5
EB
330
D4
100
AcDbEntity
  8
$DDT_AUDIT_GENERATED_(8C)
  6
Continuous
 62
     7
100
AcDbLine
 10
432.0522970661
 20
382.9114872859
 30
0.0
 11
432.0522970661
 21
332.9437136101
 31
0.0
  0
LINE
  5
EC
330
D4
100
AcDbEntity
  8
$DDT_AUDIT_GENERATED_(8C)
  6
Continuous
 62
     7
100
AcDbLine
 10
440.5522970661
 20
336.177600448
 30
0.0
 11
440.8523009439
 21
336.177600448
 31
0.0
  0
LINE
  5
ED
330
D4
100
AcDbEntity
  8
$DDT_AUDIT_GENERATED_(8C)
  6
Continuous
 62
     7
100
AcDbLine
 10
440.8523009439
 20
379.677600448
 30
0.0
 11
440.5522970661
 21
379.677600448
 31
0.0
  0
LINE
  5
EE
330
D4
100
AcDbEntity
  8
$DDT_AUDIT_GENERATED_(8C)
  6
Continuous
 62
     7
100
AcDbLine
 10
433.0834098003
 20
331.959822721
 30
0.0
 11
439.5679144423
 21
332.162463491
 31
0.0
  0
LINE
  5
EF
330
D4
100
AcDbEntity
  8
$DDT_AUDIT_GENERATED_(8C)
  6
Continuous
 62
     7
100
AcDbLine
 10
439.5679144423
 20
383.692737405
 30
0.0
 11
433.0834098003
 21
383.8953781751
 31
0.0
  0
ARC
  5
F0
330
D4
100
AcDbEntity
  8
$DDT_AUDIT_GENERATED_(8C)
  6
Continuous
 62
     7
100
AcDbCircle
 10
440.5522970661
 20
380.177600448
 30
0.0
 40
0.5000000000000039
100
AcDbArc
 50
180.0
 51
270.0
  0
ARC
  5
F1
330
D4
100
AcDbEntity
  8
$DDT_AUDIT_GENERATED_(8C)
  6
Continuous
 62
     7
100
AcDbCircle
 10
440.5522970661
 20
335.677600448
 30
0.0
 40
0.5000000000000004
100
AcDbArc
 50
90.0
 51
180.0
  0
ARC
  5
F2
330
D4
100
AcDbEntity
  8
$DDT_AUDIT_GENERATED_(8C)
  6
Continuous
 62
     7
100
AcDbCircle
 10
439.5522970661
 20
383.192981367
 30
0.0
 40
0.5000000000000004
100
AcDbArc
 50
0.0
 51
88.2100893918
  0
ARC
  5
F3
330
D4
100
AcDbEntity
  8
$DDT_AUDIT_GENERATED_(8C)
  6
Continuous
 62
     7
100
AcDbCircle
 10
439.5522970661
 20
332.6622195291
 30
0.0
 40
0.4999999999999988
100
AcDbArc
 50
271.7899106082
 51
0.0
  0
ARC
  5
F4
330
D4
100
AcDbEntity
  8
$DDT_AUDIT_GENERATED_(8C)
  6
Continuous
 62
     7
100
AcDbCircle
 10
433.0521750479
 20
332.9593347971
 30
0.0
 40
0.999999999980574
100
AcDbArc
 50
180.8950645584
 51
271.7899106082
  0
ARC
  5
F5
330
D4
100
AcDbEntity
  8
$DDT_AUDIT_GENERATED_(8C)
  6
Continuous
 62
     7
100
AcDbCircle
 10
433.0521750479
 20
382.895866099
 30
0.0
 40
0.9999999999999998
100
AcDbArc
 50
88.2100893918
 51
179.1049354416
  0
LINE
  5
F6
330
D4
100
AcDbEntity
  8
$DDT_AUDIT_GENERATED_(96)
  6
Continuous
 62
     7
100
AcDbLine
 10
429.5522735117
 20
398.4275841926
 30
0.0
 11
429.5522501581
 21
499.9277062992
 31
0.0
  0
LINE
  5
F7
330
D4
100
AcDbEntity
  8
$DDT_AUDIT_GENERATED_(96)
  6
Continuous
 62
     7
100
AcDbLine
 10
429.5522735107
 20
398.4275136134
 30
0.0
 11
429.5522497575
 21
296.927435045
 31
0.0
  0
LINE
  5
F8
330
D4
100
AcDbEntity
  8
$DDT_AUDIT_GENERATED_(96)
  6
Continuous
 62
     7
100
AcDbLine
 10
416.2522970661
 20
499.9275704556
 30
0.0
 11
416.2522970661
 21
297.9125855046
 31
0.0
  0
ARC
  5
F9
330
D4
100
AcDbEntity
  8
$DDT_AUDIT_GENERATED_(96)
  6
Continuous
 62
     7
100
AcDbCircle
 10
417.2690591697
 20
297.0534147923
 30
0.0
 40
1.017048639595255
100
AcDbArc
 50
191.5206339177
 51
262.7396048084
  0
LINE
  5
FA
330
D4
100
AcDbEntity
  8
$DDT_AUDIT_GENERATED_(96)
  6
Continuous
 62
     7
100
AcDbLine
 10
417.1405256338
 20
296.044520811
 30
0.0
 11
417.2522970661
 21
296.0366411639
 31
0.0
  0
ARC
  5
FB
330
D4
100
AcDbEntity
  8
$DDT_AUDIT_GENERATED_(96)
  6
Continuous
 62
     7
100
AcDbCircle
 10
417.3532844046
 20
288.820997598
 30
0.0
 40
7.216350220990793
100
AcDbArc
 50
82.8435000268
 51
90.8018370754
  0
LINE
  5
FC
330
D4
100
AcDbEntity
  8
$DDT_AUDIT_GENERATED_(96)
  6
Continuous
 62
     7
100
AcDbLine
 10
418.2522970661
 20
295.9275704556
 30
0.0
 11
418.2522970661
 21
295.9811293529
 31
0.0
  0
LINE
  5
FD
330
D4
100
AcDbEntity
  8
$DDT_AUDIT_GENERATED_(96)
  6
Continuous
 62
     7
100
AcDbLine
 10
416.272501169
 20
297.5958212317
 30
0.0
 11
416.272501169
 21
296.8502890024
 31
0.0
  0
ARC
  5
FE
330
D4
100
AcDbEntity
  8
$DDT_AUDIT_GENERATED_(96)
  6
Continuous
 62
     7
100
AcDbCircle
 10
422.0775124406
 20
298.1251074061
 30
0.0
 40
5.829090813999379
100
AcDbArc
 50
182.089400839
 51
185.2096788332
  0
LINE
  5
FF
330
D4
100
AcDbEntity
  8
$DDT_AUDIT_GENERATED_(96)
  6
Continuous
 62
     7
100
AcDbLine
 10
418.2522970661
 20
295.9275704556
 30
0.0
 11
428.5573276113
 21
295.9275704556
 31
0.0
  0
LINE
  5
100
330
D4
100
AcDbEntity
  8
$DDT_AUDIT_GENERATED_(96)
  6
Continuous
 62
     7
100
AcDbLine
 10
428.5573276113
 20
500.9275704556
 30
0.0
 11
417.2522970661
 21
500.9275704556
 31
0.0
  0
ARC
  5
101
330
D4
100
AcDbEntity
  8
$DDT_AUDIT_GENERATED_(96)
  6
Continuous
 62
     7
100
AcDbCircle
 10
428.5523364465
 20
499.9277943658
 30
0.0
 40
0.9999137154545963
100
AcDbArc
 50
359.994953732
 51
90.0022565244
  0
ARC
  5
102
330
D4
100
AcDbEntity
  8
$DDT_AUDIT_GENERATED_(96)
  6
Continuous
 62
     7
100
AcDbCircle
 10
428.5523367903
 20
296.9273462328
 30
0.0
 40
0.9999129711653291
100
AcDbArc
 50
269.9977237734
 51
0.0050889956
  0
ARC
  5
103
330
D4
100
AcDbEntity
  8
$DDT_AUDIT_GENERATED_(96)
  6
Continuous
 62
     7
100
AcDbCircle
 10
417.2522970661
 20
499.9275704556
 30
0.0
 40
1.000000000000001
100
AcDbArc
 50
90.0
 51
180.0
  0
ARC
  5
104
330
D4
100
AcDbEntity
  8
$DDT_AUDIT_GENERATED_(9F)
  6
Continuous
 62
     7
100
AcDbCircle
 10
2034.2977176842
 20
442.9272622454
 30
0.0
 40
1604.936756246877
100
AcDbArc
 50
178.8892543928
 51
181.1107288976
  0
ARC
  5
105
330
D4
100
AcDbEntity
  8
$DDT_AUDIT_GENERATED_(9F)
  6
Continuous
 62
     7
100
AcDbCircle
 10
-2964.3419403597
 20
442.9294154517
 30
0.0
 40
3395.343338972712
100
AcDbArc
 50
359.5434450486
 51
0.4565037378
  0
SPLINE
  5
106
330
D4
100
AcDbEntity
  8
$DDT_AUDIT_GENERATED_(9F)
  6
Continuous
 62
     7
100
AcDbSpline
210
0.0
220
0.0
230
1.0
 70
     8
 71
     3
 72
     8
 73
     4
 74
     0
 42
0.00000000235424
 43
0.0000000001
 40
0.0
 40
0.0
 40
0.0
 40
0.0
 40
1.0
 40
1.0
 40
1.0
 40
1.0
 10
429.6697987474669
 20
411.840015408588
 30
0.0
 10
430.1007746659643
 20
413.1556973283838
 30
0.0
 10
430.511646362982
 20
414.5104267019272
 30
0.0
 10
430.9024138385202
 20
415.9042035292184
 30
0.0
  0
SPLINE
  5
107
330
D4
100
AcDbEntity
  8
$DDT_AUDIT_GENERATED_(9F)
  6
Continuous
 62
     7
100
AcDbSpline
210
0.0
220
0.0
230
1.0
 70
     8
 71
     3
 72
     8
 73
     4
 74
     0
 42
0.0000000023461709
 43
0.0000000001
 40
0.0
 40
0.0
 40
0.0
 40
0.0
 40
1.0
 40
1.0
 40
1.0
 40
1.0
 10
430.9024138385203
 20
469.9509830712109
 30
0.0
 10
430.5116977303664
 20
471.3447754910508
 30
0.0
 10
430.0993614931397
 20
472.7041485177429
 30
0.0
 10
429.6654051268399
 20
474.0291021512872
 30
0.0
  0
ARC
  5
108
330
D4
100
AcDbEntity
  8
$DDT_AUDIT_GENERATED_(9F)
  6
Continuous
 62
     7
100
AcDbCircle
 10
2034.2977176814
 20
357.9272622454
 30
0.0
 40
1604.936756244039
100
AcDbArc
 50
178.8892543928
 51
181.1107288976
  0
ARC
  5
109
330
D4
100
AcDbEntity
  8
$DDT_AUDIT_GENERATED_(9F)
  6
Continuous
 62
     7
100
AcDbCircle
 10
-2964.341940362
 20
357.9294154517
 30
0.0
 40
3395.343338975016
100
AcDbArc
 50
359.5434450486
 51
0.4565037378
  0
SPLINE
  5
10A
330
D4
100
AcDbEntity
  8
$DDT_AUDIT_GENERATED_(9F)
  6
Continuous
 62
     7
100
AcDbSpline
210
0.0
220
0.0
230
1.0
 70
     8
 71
     3
 72
     8
 73
     4
 74
     0
 42
0.00000000235424
 43
0.0000000001
 40
0.0
 40
0.0
 40
0.0
 40
0.0
 40
1.0
 40
1.0
 40
1.0
 40
1.0
 10
429.6697987474669
 20
326.8400154085881
 30
0.0
 10
430.1007746659642
 20
328.1556973283838
 30
0.0
 10
430.511646362982
 20
329.5104267019273
 30
0.0
 10
430.9024138385202
 20
330.9042035292185
 30
0.0
  0
SPLINE
  5
10B
330
D4
100
AcDbEntity
  8
$DDT_AUDIT_GENERATED_(9F)
  6
Continuous
 62
     7
100
AcDbSpline
210
0.0
220
0.0
230
1.0
 70
     8
 71
     3
 72
     8
 73
     4
 74
     0
 42
0.0000000023461709
 43
0.0000000001
 40
0.0
 40
0.0
 40
0.0
 40
0.0
 40
1.0
 40
1.0
 40
1.0
 40
1.0
 10
430.9024138385201
 20
384.9509830712108
 30
0.0
 10
430.5116977303664
 20
386.3447754910508
 30
0.0
 10
430.0993614931397
 20
387.704148517743
 30
0.0
 10
429.6654051268399
 20
389.0291021512873
 30
0.0
  0
ARC
  5
10C
330
D4
100
AcDbEntity
  8
$DDT_AUDIT_GENERATED_(A9)
  6
Continuous
 62
     7
100
AcDbCircle
 10
466.6100583673
 20
401.4557094605
 30
0.0
 40
18.99234080669758
100
AcDbArc
 50
267.7298637496
 51
284.5419238144
  0
ARC
  5
10D
330
D4
100
AcDbEntity
  8
$DDT_AUDIT_GENERATED_(A9)
  6
Continuous
 62
     7
100
AcDbCircle
 10
451.4234222887
 20
408.678891338
 30
0.0
 40
25.87947866645603
100
AcDbArc
 50
256.3705050716
 51
268.7441515093
  0
ARC
  5
10E
330
D4
100
AcDbEntity
  8
$DDT_AUDIT_GENERATED_(A9)
  6
Continuous
 62
     7
100
AcDbCircle
 10
414.5048092447
 20
-1626.9507786579
 30
0.0
 40
2010.085133428621
100
AcDbArc
 50
88.5360684212
 51
88.9637771446
  0
LINE
  5
10F
330
D4
100
AcDbEntity
  8
$DDT_AUDIT_GENERATED_(A9)
  6
Continuous
 62
     7
100
AcDbLine
 10
502.8522970661
 20
382.510291223
 30
0.0
 11
502.8522970661
 21
333.3304379829
 31
0.0
  0
LINE
  5
110
330
D4
100
AcDbEntity
  8
$DDT_AUDIT_GENERATED_(A9)
  6
Continuous
 62
     7
100
AcDbLine
 10
440.8523009439
 20
383.2344878994
 30
0.0
 11
440.8523009439
 21
332.5330306836
 31
0.0
  0
ARC
  5
111
330
D4
100
AcDbEntity
  8
$DDT_AUDIT_GENERATED_(A9)
  6
Continuous
 62
     7
100
AcDbCircle
 10
441.1502717629
 20
383.2322413533
 30
0.0
 40
0.2979792877373692
100
AcDbArc
 50
88.2986341386
 51
179.5680275833
  0
ARC
  5
112
330
D4
100
AcDbEntity
  8
$DDT_AUDIT_GENERATED_(A9)
  6
Continuous
 62
     7
100
AcDbCircle
 10
442.3964228259
 20
409.1499101315
 30
0.0
 40
25.64026386406656
100
AcDbArc
 50
268.7644693721
 51
273.528692159
  0
SPLINE
  5
113
330
D4
100
AcDbEntity
  8
$DDT_AUDIT_GENERATED_(A9)
  6
Continuous
 62
     7
100
AcDbSpline
210
0.0
220
0.0
230
1.0
 70
    12
 71
     2
 72
     6
 73
     3
 74
     0
 42
0.0000008478212973
 43
0.0000000001
 40
0.0
 40
0.0
 40
0.0
 40
0.0938215311595117
 40
0.0938215311595117
 40
0.0938215311595117
 10
441.843557039982
 20
383.5156075187788
 30
0.0
 41
1.0
 10
441.8433748274613
 20
383.5164939213831
 30
0.0
 41
0.9903084495661575
 10
441.8431733417659
 20
383.5165028217392
 30
0.0
 41
0.9824354513343404
  0
SPLINE
  5
114
330
D4
100
AcDbEntity
  8
$DDT_AUDIT_GENERATED_(A9)
  6
Continuous
 62
     7
100
AcDbSpline
210
0.0
220
0.0
230
1.0
 70
    12
 71
     2
 72
     6
 73
     3
 74
     0
 42
0.0000007934229345
 43
0.0000000001
 40
0.0939735196679234
 40
0.0939735196679234
 40
0.0939735196679234
 40
0.1916864857478758
 40
0.1916864857478758
 40
0.1916864857478758
 10
441.1587362618471
 20
383.5309962321123
 30
0.0
 41
0.9821326324094779
 10
441.1585236549828
 20
383.5310032165265
 30
0.0
 41
0.9738069326911231
 10
441.1582907226212
 20
383.5300113862386
 30
0.0
 41
0.9674848678428538
  0
SPLINE
  5
115
330
D4
100
AcDbEntity
  8
$DDT_AUDIT_GENERATED_(A9)
  6
Continuous
 62
     7
100
AcDbSpline
210
0.0
220
0.0
230
1.0
 70
     8
 71
     3
 72
     8
 73
     4
 74
     0
 42
0.0000000001625952
 43
0.0000000001
 40
0.0
 40
0.0
 40
0.0
 40
0.0
 40
1.0
 40
1.0
 40
1.0
 40
1.0
 10
441.1598923875139
 20
332.2315552852581
 30
0.0
 10
462.2981195999427
 20
332.6750807245469
 30
0.0
 10
482.796446348013
 20
332.9741459999514
 30
0.0
 10
502.6548726317249
 20
333.1287511114716
 30
0.0
  0
LINE
  5
116
330
D4
100
AcDbEntity
  8
$DDT_AUDIT_GENERATED_(A9)
  6
Continuous
 62
     7
100
AcDbLine
 10
445.3445749489
 20
383.5286648702
 30
0.0
 11
443.945395894
 21
383.5599707862
 31
0.0
  0
SPLINE
  5
117
330
D4
100
AcDbEntity
  8
$DDT_AUDIT_GENERATED_(A9)
  6
Continuous
 62
     7
100
AcDbSpline
210
0.0
220
0.0
230
1.0
 70
     8
 71
     3
 72
    15
 73
    11
 74
     0
 42
0.0000000003195119
 43
0.0000000001
 40
0.0
 40
0.0
 40
0.0
 40
0.0
 40
0.118966770773224
 40
0.2619268398449426
 40
0.4081814488806957
 40
0.5537284240413418
 40
0.6975672525169744
 40
0.8421910990014476
 40
0.9707727745656537
 40
1.0
 40
1.0
 40
1.0
 40
1.0
 10
502.6543506710498
 20
382.7113646466462
 30
0.0
 10
501.2891675512051
 20
382.7241529273843
 30
0.0
 10
498.7504707447008
 20
382.7480437409089
 30
0.0
 10
494.4021816060232
 20
382.789770727215
 30
0.0
 10
489.8921333100794
 20
382.8359536487384
 30
0.0
 10
485.3433804416544
 20
382.8866848358442
 30
0.0
 10
480.8072904061261
 20
382.9422483022457
 30
0.0
 10
476.4939954111989
 20
382.9996823746925
 30
0.0
 10
473.2445477162616
 20
383.0448055519578
 30
0.0
 10
471.6941153364116
 20
383.0674034476601
 30
0.0
 10
471.3587442085633
 20
383.0722959409936
 30
0.0
  0
ARC
  5
118
330
D4
100
AcDbEntity
  8
$DDT_AUDIT_GENERATED_(A9)
  6
Continuous
 62
     7
100
AcDbCircle
 10
502.6522970656
 20
382.511375112
 30
0.0
 40
0.199999943216854
100
AcDbArc
 50
359.9989725317
 51
90.2551126047
  0
ARC
  5
119
330
D4
100
AcDbEntity
  8
$DDT_AUDIT_GENERATED_(A9)
  6
Continuous
 62
     7
100
AcDbCircle
 10
502.6522972288
 20
333.328553022
 30
0.0
 40
0.1999971125857252
100
AcDbArc
 50
271.656376092
 51
0.0506106042
  0
ARC
  5
11A
330
D4
100
AcDbEntity
  8
$DDT_AUDIT_GENERATED_(A9)
  6
Continuous
 62
     7
100
AcDbCircle
 10
441.152300956
 20
332.533030734
 30
0.0
 40
0.2999998654818964
100
AcDbArc
 50
179.9957309876
 51
272.5956244971
  0
ARC
  5
11B
330
D4
100
AcDbEntity
  8
$DDT_AUDIT_GENERATED_(A9)
  6
Continuous
 62
     7
100
AcDbCircle
 10
443.9689292528
 20
383.3083205904
 30
0.0
 40
0.2499999836275559
100
AcDbArc
 50
93.4933157435
 51
93.5197778228
  0
LINE
  5
11C
330
D4
100
AcDbEntity
  8
$DDT_AUDIT_GENERATED_(A9)
  6
Continuous
 62
     7
100
AcDbLine
 10
441.8431691431
 20
383.5165687533
 30
0.0
 11
441.1587341029
 21
383.53101977
 31
0.0
  0
LINE
  5
11D
330
D4
100
AcDbEntity
  8
$DDT_AUDIT_GENERATED_(A9)
  6
Continuous
 62
     7
100
AcDbLine
 10
441.8431710067
 20
383.5165090584
 30
0.0
 11
441.1587340687
 21
383.5310007717
 31
0.0
  0
ARC
  5
11E
330
D4
100
AcDbEntity
  8
$DDT_AUDIT_GENERATED_(AF)
  6
Continuous
 62
     7
100
AcDbCircle
 10
337.6925326942
 20
-5809.1031871247
 30
0.0
 40
6195.724293297057
100
AcDbArc
 50
88.814741101
 51
88.9534819279
  0
ARC
  5
11F
330
D4
100
AcDbEntity
  8
$DDT_AUDIT_GENERATED_(AF)
  6
Continuous
 62
     7
100
AcDbCircle
 10
466.6840244687
 20
422.4746226625
 30
0.0
 40
37.18846519668889
100
AcDbArc
 50
268.71846167
 51
276.435535979
  0
SPLINE
  5
120
330
D4
100
AcDbEntity
  8
$DDT_AUDIT_GENERATED_(AF)
  6
Continuous
 62
     7
100
AcDbSpline
210
0.0
220
0.0
230
1.0
 70
     8
 71
     3
 72
   146
 73
   142
 74
     0
 42
0.0000000009978292
 43
0.0000000001
 40
0.0
 40
0.0
 40
0.0
 40
0.0
 40
0.0625
 40
0.0625
 40
0.09375
 40
0.09375
 40
0.109375
 40
0.109375
 40
0.1171875
 40
0.1171875
 40
0.12109375
 40
0.12109375
 40
0.123046875
 40
0.123046875
 40
0.125
 40
0.125
 40
0.126953125
 40
0.126953125
 40
0.12890625
 40
0.12890625
 40
0.1328125
 40
0.1328125
 40
0.140625
 40
0.140625
 40
0.15625
 40
0.15625
 40
0.171875
 40
0.171875
 40
0.1796875
 40
0.1796875
 40
0.18359375
 40
0.18359375
 40
0.185546875
 40
0.185546875
 40
0.1865234375
 40
0.1865234375
 40
0.18701171875
 40
0.18701171875
 40
0.187255859375
 40
0.187255859375
 40
0.1875
 40
0.1875
 40
0.187744140625
 40
0.187744140625
 40
0.18798828125
 40
0.18798828125
 40
0.1884765625
 40
0.1884765625
 40
0.189453125
 40
0.189453125
 40
0.19140625
 40
0.19140625
 40
0.1953125
 40
0.1953125
 40
0.203125
 40
0.203125
 40
0.21875
 40
0.21875
 40
0.234375
 40
0.234375
 40
0.2421875
 40
0.2421875
 40
0.24609375
 40
0.24609375
 40
0.248046875
 40
0.248046875
 40
0.2490234375
 40
0.2490234375
 40
0.24951171875
 40
0.24951171875
 40
0.25
 40
0.25
 40
0.25048828125
 40
0.25048828125
 40
0.2509765625
 40
0.2509765625
 40
0.251953125
 40
0.251953125
 40
0.25390625
 40
0.25390625
 40
0.2578125
 40
0.2578125
 40
0.265625
 40
0.265625
 40
0.28125
 40
0.28125
 40
0.296875
 40
0.296875
 40
0.3046875
 40
0.3046875
 40
0.30859375
 40
0.30859375
 40
0.310546875
 40
0.310546875
 40
0.3115234375
 40
0.3115234375
 40
0.3125
 40
0.3125
 40
0.3134765625
 40
0.3134765625
 40
0.314453125
 40
0.314453125
 40
0.31640625
 40
0.31640625
 40
0.3203125
 40
0.3203125
 40
0.328125
 40
0.328125
 40
0.34375
 40
0.34375
 40
0.359375
 40
0.359375
 40
0.3671875
 40
0.3671875
 40
0.37109375
 40
0.37109375
 40
0.373046875
 40
0.373046875
 40
0.375
 40
0.375
 40
0.376953125
 40
0.376953125
 40
0.37890625
 40
0.37890625
 40
0.3828125
 40
0.3828125
 40
0.390625
 40
0.390625
 40
0.40625
 40
0.40625
 40
0.4375
 40
0.4375
 40
0.46875
 40
0.46875
 40
0.484375
 40
0.484375
 40
0.4921875
 40
0.4921875
 40
0.5
 40
0.5
 40
0.5003884958098243
 40
0.5003884958098243
 40
0.5003884958098243
 40
0.5003884958098243
 10
450.852297315934
 20
385.5876353636863
 30
0.0
 10
450.5475235579067
 20
385.5925370098088
 30
0.0
 10
450.2313806233907
 20
385.6008474477006
 30
0.0
 10
449.7497898442385
 20
385.6184214587232
 30
0.0
 10
449.5880482034831
 20
385.6251311445392
 30
0.0
 10
449.3451163422594
 20
385.6364731964762
 30
0.0
 10
449.2640881197174
 20
385.6404668009907
 30
0.0
 10
449.1426771349658
 20
385.6467765885656
 30
0.0
 10
449.102228838263
 20
385.6489330812245
 30
0.0
 10
449.0416166760282
 20
385.6522476654134
 30
0.0
 10
449.0214226769868
 20
385.6533658343432
 30
0.0
 10
448.9911502446864
 20
385.6550630490382
 30
0.0
 10
448.9810625284243
 20
385.6556321141531
 30
0.0
 10
448.9608938728083
 20
385.6567768981499
 30
0.0
 10
448.9499100571863
 20
385.6574045189191
 30
0.0
 10
448.9315612968063
 20
385.6584588066744
 30
0.0
 10
448.9241675138525
 20
385.6588860326737
 30
0.0
 10
448.907517674056
 20
385.6598521950045
 30
0.0
 10
448.8991656505042
 20
385.6603392069877
 30
0.0
 10
448.874029400218
 20
385.6618120353912
 30
0.0
 10
448.8571649821983
 20
385.6628096442652
 30
0.0
 10
448.8062603132758
 20
385.665849640702
 30
0.0
 10
448.7719084978873
 20
385.6679391980796
 30
0.0
 10
448.6676866641656
 20
385.6743965494722
 30
0.0
 10
448.5966477696509
 20
385.6789530227464
 30
0.0
 10
448.451936756179
 20
385.6885691139871
 30
0.0
 10
448.3782644001631
 20
385.6936287319535
 30
0.0
 10
448.2662036578342
 20
385.7015955174219
 30
0.0
 10
448.2285920344062
 20
385.7043140056646
 30
0.0
 10
448.1718465820729
 20
385.7084860776582
 30
0.0
 10
448.1528768039108
 20
385.7098924915945
 30
0.0
 10
448.1243479793357
 20
385.7120256974062
 30
0.0
 10
448.1148260135468
 20
385.7127406968281
 30
0.0
 10
448.1005255281898
 20
385.7138190921876
 30
0.0
 10
448.0957557767086
 20
385.714179540012
 30
0.0
 10
448.0885968921568
 20
385.7147216858052
 30
0.0
 10
448.0862098875481
 20
385.7149026467457
 30
0.0
 10
448.082628332322
 20
385.7151744566706
 30
0.0
 10
448.0814343057547
 20
385.715265121398
 30
0.0
 10
448.0790459059128
 20
385.7154465736908
 30
0.0
 10
448.0773800093417
 20
385.7155732436692
 30
0.0
 10
448.0759339647701
 20
385.715683176812
 30
0.0
 10
448.0761954339046
 20
385.7156633224889
 30
0.0
 10
448.0756105757938
 20
385.7157078410333
 30
0.0
 10
448.0753908514631
 20
385.715724580696
 30
0.0
 10
448.0746083809475
 20
385.7157842059801
 30
0.0
 10
448.0740740728531
 20
385.7158249578422
 30
0.0
 10
448.0724332108217
 20
385.7159502184464
 30
0.0
 10
448.0712887031195
 20
385.7160377322068
 30
0.0
 10
448.0677036649674
 20
385.7163122935601
 30
0.0
 10
448.0651115831105
 20
385.7165113612254
 30
0.0
 10
448.0567315341017
 20
385.7171566445107
 30
0.0
 10
448.0503395864128
 20
385.71765094042
 30
0.0
 10
448.0287711235052
 20
385.7193261493052
 30
0.0
 10
448.0111997419161
 20
385.7206993834384
 30
0.0
 10
447.9491682964961
 20
385.7255883704677
 30
0.0
 10
447.895350340056
 20
385.729873407993
 30
0.0
 10
447.7650653656482
 20
385.7404949087221
 30
0.0
 10
447.6885876039534
 20
385.7468313719258
 30
0.0
 10
447.5596485914185
 20
385.7578746359902
 30
0.0
 10
447.5143106691382
 20
385.7618121522215
 30
0.0
 10
447.4432354846771
 20
385.768103068883
 30
0.0
 10
447.4190332756139
 20
385.770264148156
 30
0.0
 10
447.3820314660899
 20
385.7736019276442
 30
0.0
 10
447.3695811719934
 20
385.77473054757
 30
0.0
 10
447.3507401705118
 20
385.7764475176033
 30
0.0
 10
447.3444322456629
 20
385.7770238476386
 30
0.0
 10
447.3349301327913
 20
385.7778943527276
 30
0.0
 10
447.331756057007
 20
385.7781855227634
 30
0.0
 10
447.3253946939809
 20
385.7787698661801
 30
0.0
 10
447.3217029006915
 20
385.7791095232298
 30
0.0
 10
447.3163243205945
 20
385.7796049060003
 30
0.0
 10
447.3146465409037
 20
385.7797595896209
 30
0.0
 10
447.3102943634647
 20
385.7801609854425
 30
0.0
 10
447.3081232348306
 20
385.7803613569586
 30
0.0
 10
447.3016246903234
 20
385.7809614923227
 30
0.0
 10
447.2973121167579
 20
385.7813602769865
 30
0.0
 10
447.2844334579968
 20
385.7825527142411
 30
0.0
 10
447.275926436862
 20
385.7833424500952
 30
0.0
 10
447.2506391751643
 20
385.7856959907101
 30
0.0
 10
447.2340927441993
 20
385.7872441285239
 30
0.0
 10
447.1853689154498
 20
385.7918258741768
 30
0.0
 10
447.1541070284732
 20
385.7947968142272
 30
0.0
 10
447.0638233155953
 20
385.8034589632244
 30
0.0
 10
447.0083032648483
 20
385.8088995010168
 30
0.0
 10
446.9057414676728
 20
385.8191121201907
 30
0.0
 10
446.8586988100002
 20
385.8238842015718
 30
0.0
 10
446.7938599853323
 20
385.8305409813353
 30
0.0
 10
446.7732014645051
 20
385.8326763508717
 30
0.0
 10
446.7435690092098
 20
385.8357540695993
 30
0.0
 10
446.7339174382078
 20
385.8367590865789
 30
0.0
 10
446.7197696362375
 20
385.8382352781541
 30
0.0
 10
446.7151086315185
 20
385.8387221196968
 30
0.0
 10
446.7081983667488
 20
385.8394445485372
 30
0.0
 10
446.705908486592
 20
385.8396840525718
 30
0.0
 10
446.7013556166978
 20
385.8401604494831
 30
0.0
 10
446.699502264532
 20
385.8403544396659
 30
0.0
 10
446.6941837163654
 20
385.8409114196493
 30
0.0
 10
446.6907165998452
 20
385.8412747450557
 30
0.0
 10
446.6846236366918
 20
385.8419137886237
 30
0.0
 10
446.6815882856621
 20
385.8422323864645
 30
0.0
 10
446.67251551381
 20
385.8431854081566
 30
0.0
 10
446.6665113752161
 20
385.843817060178
 30
0.0
 10
446.648631202164
 20
385.8457009289223
 30
0.0
 10
446.6368874148815
 20
385.8469420583251
 30
0.0
 10
446.6021778614505
 20
385.8506210972534
 30
0.0
 10
446.5797339470719
 20
385.8530146574988
 30
0.0
 10
446.5144306444146
 20
385.8600179411146
 30
0.0
 10
446.4736001949472
 20
385.8644502673649
 30
0.0
 10
446.3970214593358
 20
385.8728418608775
 30
0.0
 10
446.3612729972787
 20
385.8768011281401
 30
0.0
 10
446.3112054880375
 20
385.8823852347934
 30
0.0
 10
446.2951087625517
 20
385.8841874713043
 30
0.0
 10
446.2718196743176
 20
385.8868021275106
 30
0.0
 10
446.2641993092042
 20
385.887658896486
 30
0.0
 10
446.2529786449676
 20
385.8889218753091
 30
0.0
 10
446.2492734045929
 20
385.8893391724767
 30
0.0
 10
446.2419321972988
 20
385.8901663752654
 30
0.0
 10
446.2385433204458
 20
385.8905484139509
 30
0.0
 10
446.2308457953491
 20
385.8914165675172
 30
0.0
 10
446.2265372069164
 20
385.8919026337854
 30
0.0
 10
446.2184828361669
 20
385.8928115339775
 30
0.0
 10
446.2144899627175
 20
385.8932622364538
 30
0.0
 10
446.2026141386137
 20
385.8946031010236
 30
0.0
 10
446.1948339862339
 20
385.8954820202578
 30
0.0
 10
446.1719035418794
 20
385.8980738065235
 30
0.0
 10
446.1571632904933
 20
385.8997417021183
 30
0.0
 10
446.1145722516372
 20
385.9045655031549
 30
0.0
 10
446.0883515892566
 20
385.9075415228494
 30
0.0
 10
446.0161110994086
 20
385.9157500389435
 30
0.0
 10
445.9765184520948
 20
385.920262992353
 30
0.0
 10
445.9137948512838
 20
385.9273701178664
 30
0.0
 10
445.8906627837765
 20
385.9299642899701
 30
0.0
 10
445.8676777742816
 20
385.9324164621462
 30
0.0
 10
445.8619670780459
 20
385.9329940052083
 30
0.0
 10
445.8562386904468
 20
385.9335005483067
 30
0.0
 10
445.8548021085641
 20
385.9336094340903
 30
0.0
 10
445.8528591897369
 20
385.9337072818259
 30
0.0
 10
445.8523535052254
 20
385.933697370146
 30
0.0
 10
445.8523011836763
 20
385.9336216571546
 30
0.0
 10
445.8522998260345
 20
385.9336179323857
 30
0.0
 10
445.8522995893109
 20
385.9336140689446
 30
0.0
  0
ARC
  5
121
330
D4
100
AcDbEntity
  8
$DDT_AUDIT_GENERATED_(AF)
  6
Continuous
 62
     7
100
AcDbCircle
 10
536.7701545799
 20
4752.1787163244
 30
0.0
 40
4366.170795661946
100
AcDbArc
 50
268.8202106974
 51
269.1220682463
  0
ARC
  5
122
330
D4
100
AcDbEntity
  8
$DDT_AUDIT_GENERATED_(AF)
  6
Continuous
 62
     7
100
AcDbCircle
 10
469.8516885676
 20
385.5200565629
 30
0.0
 40
1.000608300166973
100
AcDbArc
 50
0.0249375052
 51
89.0918002404
  0
ARC
  5
123
330
D4
100
AcDbEntity
  8
$DDT_AUDIT_GENERATED_(AF)
  6
Continuous
 62
     7
100
AcDbCircle
 10
446.8526744155
 20
385.9333188647
 30
0.0
 40
1.000377099219477
100
AcDbArc
 50
88.7479083823
 51
179.9831382989
  0
LINE
  5
124
330
D4
100
AcDbEntity
  8
$DDT_AUDIT_GENERATED_(AF)
  6
Continuous
 62
     7
100
AcDbLine
 10
445.8522995832
 20
385.9336139643
 30
0.0
 11
445.8083613758
 21
383.4163958071
 31
0.0
  0
LINE
  5
125
330
D4
100
AcDbEntity
  8
$DDT_AUDIT_GENERATED_(AF)
  6
Continuous
 62
     7
100
AcDbLine
 10
470.8971446509
 20
382.9515654474
 30
0.0
 11
470.8523038884
 21
385.5204911003
 31
0.0
  0
ARC
  5
126
330
D4
100
AcDbEntity
  8
$DDT_AUDIT_GENERATED_(BD)
  6
Continuous
 62
     7
100
AcDbCircle
 10
466.3600583673
 20
486.4557094605
 30
0.0
 40
18.9923408066976
100
AcDbArc
 50
267.7298637496
 51
284.5419238144
  0
ARC
  5
127
330
D4
100
AcDbEntity
  8
$DDT_AUDIT_GENERATED_(BD)
  6
Continuous
 62
     7
100
AcDbCircle
 10
451.1734222887
 20
493.678891338
 30
0.0
 40
25.87947866645706
100
AcDbArc
 50
256.3737762198
 51
268.7441515093
  0
ARC
  5
128
330
D4
100
AcDbEntity
  8
$DDT_AUDIT_GENERATED_(BD)
  6
Continuous
 62
     7
100
AcDbCircle
 10
414.2548092447
 20
-1541.9507786579
 30
0.0
 40
2010.085133428598
100
AcDbArc
 50
88.5360684212
 51
88.9637771446
  0
LINE
  5
129
330
D4
100
AcDbEntity
  8
$DDT_AUDIT_GENERATED_(BD)
  6
Continuous
 62
     7
100
AcDbLine
 10
502.6022970661
 20
418.3304379829
 30
0.0
 11
502.6022970661
 21
467.510291223
 31
0.0
  0
LINE
  5
12A
330
D4
100
AcDbEntity
  8
$DDT_AUDIT_GENERATED_(BD)
  6
Continuous
 62
     7
100
AcDbLine
 10
440.6023009439
 20
468.2344878994
 30
0.0
 11
440.6023009439
 21
417.5330306836
 31
0.0
  0
ARC
  5
12B
330
D4
100
AcDbEntity
  8
$DDT_AUDIT_GENERATED_(BD)
  6
Continuous
 62
     7
100
AcDbCircle
 10
440.9002717629
 20
468.2322413533
 30
0.0
 40
0.2979792877373599
100
AcDbArc
 50
88.2986341386
 51
179.5680275833
  0
ARC
  5
12C
330
D4
100
AcDbEntity
  8
$DDT_AUDIT_GENERATED_(BD)
  6
Continuous
 62
     7
100
AcDbCircle
 10
442.1464228259
 20
494.1499101315
 30
0.0
 40
25.6402638640728
100
AcDbArc
 50
268.7644693721
 51
273.528692159
  0
SPLINE
  5
12D
330
D4
100
AcDbEntity
  8
$DDT_AUDIT_GENERATED_(BD)
  6
Continuous
 62
     7
100
AcDbSpline
210
0.0
220
0.0
230
1.0
 70
    12
 71
     2
 72
     6
 73
     3
 74
     0
 42
0.0000008049333292
 43
0.0000000001
 40
0.0938215311622383
 40
0.0938215311622383
 40
0.0938215311622383
 40
0.1914300696270998
 40
0.1914300696270998
 40
0.1914300696270998
 10
441.593173341766
 20
468.5165028217391
 30
0.0
 41
0.9824354513338827
 10
441.5929602670299
 20
468.5165122340251
 30
0.0
 41
0.9742446678192498
 10
441.5927272701271
 20
468.5155404287235
 30
0.0
 41
0.9680222072687392
  0
SPLINE
  5
12E
330
D4
100
AcDbEntity
  8
$DDT_AUDIT_GENERATED_(BD)
  6
Continuous
 62
     7
100
AcDbSpline
210
0.0
220
0.0
230
1.0
 70
    12
 71
     2
 72
     6
 73
     3
 74
     0
 42
0.0000008393097416
 43
0.0000000001
 40
0.0
 40
0.0
 40
0.0
 40
0.0939735196671988
 40
0.0939735196671988
 40
0.0939735196671988
 10
440.9091187894713
 20
468.5300892776382
 30
0.0
 41
1.0
 10
440.9089373594818
 20
468.5309896257914
 30
0.0
 41
0.9901397100535984
 10
440.9087362618471
 20
468.5309962321123
 30
0.0
 41
0.9821326324096017
  0
SPLINE
  5
12F
330
D4
100
AcDbEntity
  8
$DDT_AUDIT_GENERATED_(BD)
  6
Continuous
 62
     7
100
AcDbSpline
210
0.0
220
0.0
230
1.0
 70
     8
 71
     3
 72
     8
 73
     4
 74
     0
 42
0.0000000001625952
 43
0.0000000001
 40
0.0
 40
0.0
 40
0.0
 40
0.0
 40
1.0
 40
1.0
 40
1.0
 40
1.0
 10
440.9098923875139
 20
417.2315552852581
 30
0.0
 10
462.0481195999429
 20
417.6750807245469
 30
0.0
 10
482.5464463480133
 20
417.9741459999514
 30
0.0
 10
502.404872631725
 20
418.1287511114716
 30
0.0
  0
LINE
  5
130
330
D4
100
AcDbEntity
  8
$DDT_AUDIT_GENERATED_(BD)
  6
Continuous
 62
     7
100
AcDbLine
 10
445.0945749489
 20
468.5286648702
 30
0.0
 11
443.695395894
 21
468.5599707862
 31
0.0
  0
SPLINE
  5
131
330
D4
100
AcDbEntity
  8
$DDT_AUDIT_GENERATED_(BD)
  6
Continuous
 62
     7
100
AcDbSpline
210
0.0
220
0.0
230
1.0
 70
     8
 71
     3
 72
    15
 73
    11
 74
     0
 42
0.0000000003195119
 43
0.0000000001
 40
0.0
 40
0.0
 40
0.0
 40
0.0
 40
0.118966770773224
 40
0.2619268398449417
 40
0.4081814488806957
 40
0.5537284240413418
 40
0.6975672525169744
 40
0.8421910990014472
 40
0.9707727745656537
 40
1.0
 40
1.0
 40
1.0
 40
1.0
 10
502.4043506710498
 20
467.7113646466462
 30
0.0
 10
501.0391675512051
 20
467.7241529273846
 30
0.0
 10
498.5004707447007
 20
467.7480437409088
 30
0.0
 10
494.1521816060231
 20
467.7897707272151
 30
0.0
 10
489.6421333100794
 20
467.8359536487385
 30
0.0
 10
485.0933804416545
 20
467.8866848358443
 30
0.0
 10
480.5572904061262
 20
467.9422483022456
 30
0.0
 10
476.2439954111989
 20
467.9996823746926
 30
0.0
 10
472.9945477162615
 20
468.0448055519581
 30
0.0
 10
471.4441153364116
 20
468.06740344766
 30
0.0
 10
471.1087442085633
 20
468.0722959409935
 30
0.0
  0
ARC
  5
132
330
D4
100
AcDbEntity
  8
$DDT_AUDIT_GENERATED_(BD)
  6
Continuous
 62
     7
100
AcDbCircle
 10
502.4022970656
 20
467.511375112
 30
0.0
 40
0.1999999432168573
100
AcDbArc
 50
359.9989725317
 51
90.2551126046
  0
ARC
  5
133
330
D4
100
AcDbEntity
  8
$DDT_AUDIT_GENERATED_(BD)
  6
Continuous
 62
     7
100
AcDbCircle
 10
502.4022972288
 20
418.328553022
 30
0.0
 40
0.1999971125857495
100
AcDbArc
 50
271.656376092
 51
0.0506106042
  0
ARC
  5
134
330
D4
100
AcDbEntity
  8
$DDT_AUDIT_GENERATED_(BD)
  6
Continuous
 62
     7
100
AcDbCircle
 10
440.902300956
 20
417.533030734
 30
0.0
 40
0.2999998654819004
100
AcDbArc
 50
179.9957309876
 51
272.5956244971
  0
ARC
  5
135
330
D4
100
AcDbEntity
  8
$DDT_AUDIT_GENERATED_(BD)
  6
Continuous
 62
     7
100
AcDbCircle
 10
443.7189292528
 20
468.3083205904
 30
0.0
 40
0.2499999836275576
100
AcDbArc
 50
93.4933157435
 51
93.5197778228
  0
LINE
  5
136
330
D4
100
AcDbEntity
  8
$DDT_AUDIT_GENERATED_(BD)
  6
Continuous
 62
     7
100
AcDbLine
 10
441.5931691431
 20
468.5165687533
 30
0.0
 11
440.9087341029
 21
468.53101977
 31
0.0
  0
LINE
  5
137
330
D4
100
AcDbEntity
  8
$DDT_AUDIT_GENERATED_(BD)
  6
Continuous
 62
     7
100
AcDbLine
 10
441.5931710067
 20
468.5165090584
 30
0.0
 11
440.9087340687
 21
468.5310007717
 31
0.0
  0
ARC
  5
138
330
D4
100
AcDbEntity
  8
$DDT_AUDIT_GENERATED_(C3)
  6
Continuous
 62
     7
100
AcDbCircle
 10
337.442532694
 20
-5724.1031871344
 30
0.0
 40
6195.72429330676
100
AcDbArc
 50
88.814741101
 51
88.9534819279
  0
ARC
  5
139
330
D4
100
AcDbEntity
  8
$DDT_AUDIT_GENERATED_(C3)
  6
Continuous
 62
     7
100
AcDbCircle
 10
466.4340244687
 20
507.4746226625
 30
0.0
 40
37.18846519669091
100
AcDbArc
 50
268.71846167
 51
276.435535979
  0
SPLINE
  5
13A
330
D4
100
AcDbEntity
  8
$DDT_AUDIT_GENERATED_(C3)
  6
Continuous
 62
     7
100
AcDbSpline
210
0.0
220
0.0
230
1.0
 70
     8
 71
     3
 72
   146
 73
   142
 74
     0
 42
0.0000000009978292
 43
0.0000000001
 40
0.0
 40
0.0
 40
0.0
 40
0.0
 40
0.0625
 40
0.0625
 40
0.09375
 40
0.09375
 40
0.109375
 40
0.109375
 40
0.1171875
 40
0.1171875
 40
0.12109375
 40
0.12109375
 40
0.123046875
 40
0.123046875
 40
0.125
 40
0.125
 40
0.126953125
 40
0.126953125
 40
0.12890625
 40
0.12890625
 40
0.1328125
 40
0.1328125
 40
0.140625
 40
0.140625
 40
0.15625
 40
0.15625
 40
0.171875
 40
0.171875
 40
0.1796875
 40
0.1796875
 40
0.18359375
 40
0.18359375
 40
0.185546875
 40
0.185546875
 40
0.1865234375
 40
0.1865234375
 40
0.18701171875
 40
0.18701171875
 40
0.187255859375
 40
0.187255859375
 40
0.1875
 40
0.1875
 40
0.187744140625
 40
0.187744140625
 40
0.18798828125
 40
0.18798828125
 40
0.1884765625
 40
0.1884765625
 40
0.189453125
 40
0.189453125
 40
0.19140625
 40
0.19140625
 40
0.1953125
 40
0.1953125
 40
0.203125
 40
0.203125
 40
0.21875
 40
0.21875
 40
0.234375
 40
0.234375
 40
0.2421875
 40
0.2421875
 40
0.24609375
 40
0.24609375
 40
0.248046875
 40
0.248046875
 40
0.2490234375
 40
0.2490234375
 40
0.24951171875
 40
0.24951171875
 40
0.25
 40
0.25
 40
0.25048828125
 40
0.25048828125
 40
0.2509765625
 40
0.2509765625
 40
0.251953125
 40
0.251953125
 40
0.25390625
 40
0.25390625
 40
0.2578125
 40
0.2578125
 40
0.265625
 40
0.265625
 40
0.28125
 40
0.28125
 40
0.296875
 40
0.296875
 40
0.3046875
 40
0.3046875
 40
0.30859375
 40
0.30859375
 40
0.310546875
 40
0.310546875
 40
0.3115234375
 40
0.3115234375
 40
0.3125
 40
0.3125
 40
0.3134765625
 40
0.3134765625
 40
0.314453125
 40
0.314453125
 40
0.31640625
 40
0.31640625
 40
0.3203125
 40
0.3203125
 40
0.328125
 40
0.328125
 40
0.34375
 40
0.34375
 40
0.359375
 40
0.359375
 40
0.3671875
 40
0.3671875
 40
0.37109375
 40
0.37109375
 40
0.373046875
 40
0.373046875
 40
0.375
 40
0.375
 40
0.376953125
 40
0.376953125
 40
0.37890625
 40
0.37890625
 40
0.3828125
 40
0.3828125
 40
0.390625
 40
0.390625
 40
0.40625
 40
0.40625
 40
0.4375
 40
0.4375
 40
0.46875
 40
0.46875
 40
0.484375
 40
0.484375
 40
0.4921875
 40
0.4921875
 40
0.5
 40
0.5
 40
0.5003884958098243
 40
0.5003884958098243
 40
0.5003884958098243
 40
0.5003884958098243
 10
450.602297315934
 20
470.5876353636863
 30
0.0
 10
450.2975235579067
 20
470.5925370098088
 30
0.0
 10
449.9813806233906
 20
470.6008474477006
 30
0.0
 10
449.4997898442385
 20
470.6184214587232
 30
0.0
 10
449.3380482034831
 20
470.6251311445392
 30
0.0
 10
449.0951163422594
 20
470.6364731964762
 30
0.0
 10
449.0140881197174
 20
470.6404668009906
 30
0.0
 10
448.8926771349658
 20
470.6467765885656
 30
0.0
 10
448.852228838263
 20
470.6489330812244
 30
0.0
 10
448.7916166760282
 20
470.6522476654134
 30
0.0
 10
448.7714226769868
 20
470.6533658343432
 30
0.0
 10
448.7411502446865
 20
470.6550630490381
 30
0.0
 10
448.7310625284244
 20
470.6556321141531
 30
0.0
 10
448.7108938728082
 20
470.6567768981499
 30
0.0
 10
448.6999100571863
 20
470.6574045189191
 30
0.0
 10
448.6815612968064
 20
470.6584588066744
 30
0.0
 10
448.6741675138525
 20
470.6588860326738
 30
0.0
 10
448.657517674056
 20
470.6598521950044
 30
0.0
 10
448.6491656505043
 20
470.6603392069878
 30
0.0
 10
448.624029400218
 20
470.6618120353912
 30
0.0
 10
448.6071649821983
 20
470.6628096442652
 30
0.0
 10
448.5562603132759
 20
470.6658496407019
 30
0.0
 10
448.5219084978873
 20
470.6679391980796
 30
0.0
 10
448.4176866641656
 20
470.6743965494721
 30
0.0
 10
448.3466477696509
 20
470.6789530227464
 30
0.0
 10
448.201936756179
 20
470.6885691139872
 30
0.0
 10
448.1282644001631
 20
470.6936287319534
 30
0.0
 10
448.0162036578342
 20
470.7015955174219
 30
0.0
 10
447.9785920344062
 20
470.7043140056645
 30
0.0
 10
447.9218465820729
 20
470.7084860776582
 30
0.0
 10
447.9028768039108
 20
470.7098924915945
 30
0.0
 10
447.8743479793357
 20
470.7120256974061
 30
0.0
 10
447.8648260135467
 20
470.712740696828
 30
0.0
 10
447.8505255281899
 20
470.7138190921876
 30
0.0
 10
447.8457557767086
 20
470.7141795400119
 30
0.0
 10
447.8385968921568
 20
470.7147216858052
 30
0.0
 10
447.8362098875481
 20
470.7149026467457
 30
0.0
 10
447.8326283323221
 20
470.7151744566706
 30
0.0
 10
447.8314343057547
 20
470.715265121398
 30
0.0
 10
447.8290459059128
 20
470.7154465736908
 30
0.0
 10
447.8273800093418
 20
470.7155732436692
 30
0.0
 10
447.8259339647701
 20
470.715683176812
 30
0.0
 10
447.8261954339046
 20
470.7156633224889
 30
0.0
 10
447.8256105757938
 20
470.7157078410333
 30
0.0
 10
447.825390851463
 20
470.715724580696
 30
0.0
 10
447.8246083809475
 20
470.71578420598
 30
0.0
 10
447.8240740728531
 20
470.7158249578421
 30
0.0
 10
447.8224332108217
 20
470.7159502184465
 30
0.0
 10
447.8212887031195
 20
470.7160377322068
 30
0.0
 10
447.8177036649674
 20
470.71631229356
 30
0.0
 10
447.8151115831105
 20
470.7165113612254
 30
0.0
 10
447.8067315341017
 20
470.7171566445106
 30
0.0
 10
447.8003395864129
 20
470.71765094042
 30
0.0
 10
447.7787711235053
 20
470.7193261493052
 30
0.0
 10
447.7611997419161
 20
470.7206993834384
 30
0.0
 10
447.6991682964962
 20
470.7255883704677
 30
0.0
 10
447.645350340056
 20
470.729873407993
 30
0.0
 10
447.5150653656482
 20
470.740494908722
 30
0.0
 10
447.4385876039535
 20
470.7468313719257
 30
0.0
 10
447.3096485914185
 20
470.7578746359902
 30
0.0
 10
447.2643106691382
 20
470.7618121522214
 30
0.0
 10
447.1932354846771
 20
470.768103068883
 30
0.0
 10
447.1690332756139
 20
470.770264148156
 30
0.0
 10
447.1320314660899
 20
470.7736019276441
 30
0.0
 10
447.1195811719934
 20
470.77473054757
 30
0.0
 10
447.1007401705118
 20
470.7764475176033
 30
0.0
 10
447.0944322456629
 20
470.7770238476386
 30
0.0
 10
447.0849301327913
 20
470.7778943527276
 30
0.0
 10
447.0817560570069
 20
470.7781855227634
 30
0.0
 10
447.075394693981
 20
470.7787698661801
 30
0.0
 10
447.0717029006915
 20
470.7791095232297
 30
0.0
 10
447.0663243205944
 20
470.7796049060003
 30
0.0
 10
447.0646465409037
 20
470.7797595896209
 30
0.0
 10
447.0602943634647
 20
470.7801609854425
 30
0.0
 10
447.0581232348306
 20
470.7803613569586
 30
0.0
 10
447.0516246903234
 20
470.7809614923227
 30
0.0
 10
447.0473121167579
 20
470.7813602769865
 30
0.0
 10
447.0344334579968
 20
470.7825527142411
 30
0.0
 10
447.025926436862
 20
470.7833424500952
 30
0.0
 10
447.0006391751643
 20
470.7856959907101
 30
0.0
 10
446.9840927441993
 20
470.7872441285239
 30
0.0
 10
446.9353689154498
 20
470.7918258741767
 30
0.0
 10
446.9041070284732
 20
470.7947968142271
 30
0.0
 10
446.8138233155952
 20
470.8034589632243
 30
0.0
 10
446.7583032648483
 20
470.8088995010168
 30
0.0
 10
446.6557414676728
 20
470.8191121201906
 30
0.0
 10
446.6086988100002
 20
470.8238842015718
 30
0.0
 10
446.5438599853323
 20
470.8305409813353
 30
0.0
 10
446.5232014645051
 20
470.8326763508717
 30
0.0
 10
446.4935690092098
 20
470.8357540695992
 30
0.0
 10
446.4839174382079
 20
470.8367590865789
 30
0.0
 10
446.4697696362375
 20
470.8382352781541
 30
0.0
 10
446.4651086315185
 20
470.8387221196968
 30
0.0
 10
446.4581983667489
 20
470.8394445485372
 30
0.0
 10
446.455908486592
 20
470.8396840525718
 30
0.0
 10
446.4513556166978
 20
470.8401604494831
 30
0.0
 10
446.449502264532
 20
470.8403544396659
 30
0.0
 10
446.4441837163654
 20
470.8409114196492
 30
0.0
 10
446.4407165998453
 20
470.8412747450557
 30
0.0
 10
446.4346236366919
 20
470.8419137886237
 30
0.0
 10
446.4315882856621
 20
470.8422323864644
 30
0.0
 10
446.42251551381
 20
470.8431854081566
 30
0.0
 10
446.4165113752161
 20
470.843817060178
 30
0.0
 10
446.398631202164
 20
470.8457009289223
 30
0.0
 10
446.3868874148815
 20
470.846942058325
 30
0.0
 10
446.3521778614505
 20
470.8506210972533
 30
0.0
 10
446.3297339470719
 20
470.8530146574988
 30
0.0
 10
446.2644306444146
 20
470.8600179411146
 30
0.0
 10
446.2236001949472
 20
470.8644502673648
 30
0.0
 10
446.1470214593358
 20
470.8728418608775
 30
0.0
 10
446.1112729972787
 20
470.8768011281401
 30
0.0
 10
446.0612054880375
 20
470.8823852347934
 30
0.0
 10
446.0451087625516
 20
470.8841874713044
 30
0.0
 10
446.0218196743176
 20
470.8868021275106
 30
0.0
 10
446.0141993092043
 20
470.887658896486
 30
0.0
 10
446.0029786449677
 20
470.8889218753091
 30
0.0
 10
445.9992734045928
 20
470.8893391724767
 30
0.0
 10
445.9919321972988
 20
470.8901663752654
 30
0.0
 10
445.9885433204458
 20
470.8905484139509
 30
0.0
 10
445.9808457953491
 20
470.8914165675172
 30
0.0
 10
445.9765372069164
 20
470.8919026337854
 30
0.0
 10
445.9684828361669
 20
470.8928115339775
 30
0.0
 10
445.9644899627176
 20
470.8932622364538
 30
0.0
 10
445.9526141386137
 20
470.8946031010236
 30
0.0
 10
445.9448339862339
 20
470.8954820202578
 30
0.0
 10
445.9219035418794
 20
470.8980738065235
 30
0.0
 10
445.9071632904933
 20
470.8997417021183
 30
0.0
 10
445.8645722516372
 20
470.9045655031549
 30
0.0
 10
445.8383515892565
 20
470.9075415228494
 30
0.0
 10
445.7661110994086
 20
470.9157500389434
 30
0.0
 10
445.7265184520948
 20
470.9202629923529
 30
0.0
 10
445.6637948512838
 20
470.9273701178664
 30
0.0
 10
445.6406627837765
 20
470.92996428997
 30
0.0
 10
445.6176777742816
 20
470.9324164621463
 30
0.0
 10
445.6119670780458
 20
470.9329940052083
 30
0.0
 10
445.6062386904468
 20
470.9335005483067
 30
0.0
 10
445.6048021085641
 20
470.9336094340903
 30
0.0
 10
445.602859189737
 20
470.9337072818259
 30
0.0
 10
445.6023535052254
 20
470.933697370146
 30
0.0
 10
445.6023011836763
 20
470.9336216571546
 30
0.0
 10
445.6022998260345
 20
470.9336179323856
 30
0.0
 10
445.6022995893109
 20
470.9336140689445
 30
0.0
  0
ARC
  5
13B
330
D4
100
AcDbEntity
  8
$DDT_AUDIT_GENERATED_(C3)
  6
Continuous
 62
     7
100
AcDbCircle
 10
536.5201545799
 20
4837.178716327
 30
0.0
 40
4366.1707956645
100
AcDbArc
 50
268.8202106974
 51
269.1220682463
  0
ARC
  5
13C
330
D4
100
AcDbEntity
  8
$DDT_AUDIT_GENERATED_(C3)
  6
Continuous
 62
     7
100
AcDbCircle
 10
469.6016885676
 20
470.5200565629
 30
0.0
 40
1.000608300166903
100
AcDbArc
 50
0.0249375052
 51
89.0918002404
  0
ARC
  5
13D
330
D4
100
AcDbEntity
  8
$DDT_AUDIT_GENERATED_(C3)
  6
Continuous
 62
     7
100
AcDbCircle
 10
446.6026744155
 20
470.9333188647
 30
0.0
 40
1.000377099219457
100
AcDbArc
 50
88.7479083823
 51
179.9831382989
  0
LINE
  5
13E
330
D4
100
AcDbEntity
  8
$DDT_AUDIT_GENERATED_(C3)
  6
Continuous
 62
     7
100
AcDbLine
 10
445.6022995832
 20
470.9336139643
 30
0.0
 11
445.5583613758
 21
468.4163958071
 31
0.0
  0
LINE
  5
13F
330
D4
100
AcDbEntity
  8
$DDT_AUDIT_GENERATED_(C3)
  6
Continuous
 62
     7
100
AcDbLine
 10
470.6471446509
 20
467.9515654474
 30
0.0
 11
470.6023038884
 21
470.5204911003
 31
0.0
  0
LINE
  5
140
330
D4
100
AcDbEntity
  8
$DDT_AUDIT_GENERATED_(CF)
  6
Continuous
 62
     7
100
AcDbLine
 10
502.9022970667
 20
467.5108396684
 30
0.0
 11
502.9022970655
 21
418.3443787478
 31
0.0
  0
SPLINE
  5
141
330
D4
100
AcDbEntity
  8
$DDT_AUDIT_GENERATED_(CF)
  6
Continuous
 62
     7
100
AcDbSpline
210
0.0
220
0.0
230
1.0
 70
     8
 71
     3
 72
     8
 73
     4
 74
     0
 42
0.000000005295889
 43
0.0000000001
 40
0.0
 40
0.0
 40
0.0
 40
0.0
 40
1.0
 40
1.0
 40
1.0
 40
1.0
 10
503.0920745618174
 20
418.1441608515502
 30
0.0
 10
503.8641808146438
 20
418.1590789807437
 30
0.0
 10
504.4934492011623
 20
418.1727596419693
 30
0.0
 10
504.979879721373
 20
418.1852028352268
 30
0.0
  0
SPLINE
  5
142
330
D4
100
AcDbEntity
  8
$DDT_AUDIT_GENERATED_(CF)
  6
Continuous
 62
     7
100
AcDbSpline
210
0.0
220
0.0
230
1.0
 70
     8
 71
     3
 72
     8
 73
     4
 74
     0
 42
0.0000000052927461
 43
0.0000000001
 40
0.0
 40
0.0
 40
0.0
 40
0.0
 40
1.0
 40
1.0
 40
1.0
 40
1.0
 10
504.9811106952635
 20
467.6701297332937
 30
0.0
 10
504.4939316398501
 20
467.6825543563726
 30
0.0
 10
503.864288651696
 20
467.6962007046157
 30
0.0
 10
503.092181730801
 20
467.7110687780231
 30
0.0
  0
SPLINE
  5
143
330
D4
100
AcDbEntity
  8
$DDT_AUDIT_GENERATED_(CF)
  6
Continuous
 62
     7
100
AcDbSpline
210
0.0
220
0.0
230
1.0
 70
     8
 71
     3
 72
    13
 73
     9
 74
     0
 42
0.0000000311416621
 43
0.0000000001
 40
0.0
 40
0.0
 40
0.0
 40
0.0
 40
0.1295374438521798
 40
0.2551393509243635
 40
0.5000023449693504
 40
0.7448639939231996
 40
0.87046439222677
 40
1.0
 40
1.0
 40
1.0
 40
1.0
 10
503.1059128423975
 20
467.7108041654087
 30
0.0
 10
503.0908848816563
 20
467.7103222327127
 30
0.0
 10
503.06578028683
 20
467.7091228699163
 30
0.0
 10
503.0139708225605
 20
467.6936706365503
 30
0.0
 10
502.9586103273131
 20
467.6571462418344
 30
0.0
 10
502.9210902856647
 20
467.6024557812107
 30
0.0
 10
502.9047036501044
 20
467.550934734503
 30
0.0
 10
502.9030506118527
 20
467.5258562467093
 30
0.0
 10
502.9022970667318
 20
467.5108396683966
 30
0.0
  0
SPLINE
  5
144
330
D4
100
AcDbEntity
  8
$DDT_AUDIT_GENERATED_(CF)
  6
Continuous
 62
     7
100
AcDbSpline
210
0.0
220
0.0
230
1.0
 70
     8
 71
     3
 72
    13
 73
     9
 74
     0
 42
0.0000000311401713
 43
0.0000000001
 40
0.0
 40
0.0
 40
0.0
 40
0.0
 40
0.1295369006899897
 40
0.2551380783515068
 40
0.5000000000005032
 40
0.74486192164907
 40
0.8704630993102455
 40
1.0
 40
1.0
 40
1.0
 40
1.0
 10
502.9022970654716
 20
418.3443787478115
 30
0.0
 10
502.9030506704244
 20
418.3293613184719
 30
0.0
 10
502.9047038427432
 20
418.3042814484991
 30
0.0
 10
502.9210917593274
 20
418.2527578706412
 30
0.0
 10
502.9586145368274
 20
418.1980653922155
 30
0.0
 10
503.0139787679081
 20
418.1615410449319
 30
0.0
 10
503.0657911822561
 20
418.1460905884769
 30
0.0
 10
503.0908969169602
 20
418.1448926980248
 30
0.0
 10
503.1059255468446
 20
418.1444116697605
 30
0.0
  0
ARC
  5
145
330
D4
100
AcDbEntity
  8
$DDT_AUDIT_GENERATED_(CF)
  6
Continuous
 62
     7
100
AcDbCircle
 10
504.957553773
 20
466.6709843097
 30
0.0
 40
0.9996853699152249
100
AcDbArc
 50
2.6526441234
 51
88.6493885632
  0
ARC
  5
146
330
D4
100
AcDbEntity
  8
$DDT_AUDIT_GENERATED_(CF)
  6
Continuous
 62
     7
100
AcDbCircle
 10
504.956241849
 20
419.1843433282
 30
0.0
 40
0.9996943830962314
100
AcDbArc
 50
271.3552573128
 51
357.3447290092
  0
ARC
  5
147
330
D4
100
AcDbEntity
  8
$DDT_AUDIT_GENERATED_(CF)
  6
Continuous
 62
     7
100
AcDbCircle
 10
-2.9714741926
 20
442.9392603666
 30
0.0
 40
509.4814317047507
100
AcDbArc
 50
357.3223716962
 51
2.67501417
  0
LINE
  5
148
330
D4
100
AcDbEntity
  8
$DDT_AUDIT_GENERATED_(CF)
  6
Continuous
 62
     7
100
AcDbLine
 10
502.7818135832
 20
467.1412405851
 30
0.0
 11
502.6022970661
 21
467.0375966756
 31
0.0
  0
LINE
  5
149
330
D4
100
AcDbEntity
  8
$DDT_AUDIT_GENERATED_(CF)
  6
Continuous
 62
     7
100
AcDbLine
 10
502.6022970661
 20
418.8176167502
 30
0.0
 11
502.781813582
 21
418.7139728414
 31
0.0
  0
ARC
  5
14A
330
D4
100
AcDbEntity
  8
$DDT_AUDIT_GENERATED_(CF)
  6
Continuous
 62
     7
100
AcDbCircle
 10
502.6523061592
 20
418.5003210021
 30
0.0
 40
0.2499909533526271
100
AcDbArc
 50
5.4032783781
 51
60.7723574525
  0
ARC
  5
14B
330
D4
100
AcDbEntity
  8
$DDT_AUDIT_GENERATED_(CF)
  6
Continuous
 62
     7
100
AcDbCircle
 10
502.6522977931
 20
467.3551206804
 30
0.0
 40
0.2499992744337037
100
AcDbArc
 50
300.2332738879
 51
357.3615269459
  0
LINE
  5
14C
330
D4
100
AcDbEntity
  8
$DDT_AUDIT_GENERATED_(CF)
  6
Continuous
 62
     7
100
AcDbLine
 10
503.1522970667
 20
382.5108396684
 30
0.0
 11
503.1522970655
 21
333.3443787478
 31
0.0
  0
SPLINE
  5
14D
330
D4
100
AcDbEntity
  8
$DDT_AUDIT_GENERATED_(CF)
  6
Continuous
 62
     7
100
AcDbSpline
210
0.0
220
0.0
230
1.0
 70
     8
 71
     3
 72
     8
 73
     4
 74
     0
 42
0.000000005295889
 43
0.0000000001
 40
0.0
 40
0.0
 40
0.0
 40
0.0
 40
1.0
 40
1.0
 40
1.0
 40
1.0
 10
503.3420745618175
 20
333.1441608515501
 30
0.0
 10
504.1141808146438
 20
333.1590789807436
 30
0.0
 10
504.7434492011622
 20
333.1727596419692
 30
0.0
 10
505.2298797213729
 20
333.1852028352267
 30
0.0
  0
SPLINE
  5
14E
330
D4
100
AcDbEntity
  8
$DDT_AUDIT_GENERATED_(CF)
  6
Continuous
 62
     7
100
AcDbSpline
210
0.0
220
0.0
230
1.0
 70
     8
 71
     3
 72
     8
 73
     4
 74
     0
 42
0.0000000052927461
 43
0.0000000001
 40
0.0
 40
0.0
 40
0.0
 40
0.0
 40
1.0
 40
1.0
 40
1.0
 40
1.0
 10
505.2311106952636
 20
382.6701297332938
 30
0.0
 10
504.7439316398502
 20
382.6825543563725
 30
0.0
 10
504.114288651696
 20
382.6962007046156
 30
0.0
 10
503.342181730801
 20
382.711068778023
 30
0.0
  0
SPLINE
  5
14F
330
D4
100
AcDbEntity
  8
$DDT_AUDIT_GENERATED_(CF)
  6
Continuous
 62
     7
100
AcDbSpline
210
0.0
220
0.0
230
1.0
 70
     8
 71
     3
 72
    13
 73
     9
 74
     0
 42
0.0000000311416621
 43
0.0000000001
 40
0.0
 40
0.0
 40
0.0
 40
0.0
 40
0.1295374438521771
 40
0.2551393509244448
 40
0.5000023449693646
 40
0.7448639939232229
 40
0.8704643922267828
 40
1.0
 40
1.0
 40
1.0
 40
1.0
 10
503.3559128423976
 20
382.7108041654086
 30
0.0
 10
503.3408848816564
 20
382.7103222327126
 30
0.0
 10
503.3157802868301
 20
382.7091228699161
 30
0.0
 10
503.2639708225603
 20
382.6936706365503
 30
0.0
 10
503.2086103273134
 20
382.6571462418343
 30
0.0
 10
503.1710902856647
 20
382.6024557812107
 30
0.0
 10
503.1547036501045
 20
382.5509347345028
 30
0.0
 10
503.1530506118527
 20
382.5258562467092
 30
0.0
 10
503.1522970667318
 20
382.5108396683966
 30
0.0
  0
SPLINE
  5
150
330
D4
100
AcDbEntity
  8
$DDT_AUDIT_GENERATED_(CF)
  6
Continuous
 62
     7
100
AcDbSpline
210
0.0
220
0.0
230
1.0
 70
     8
 71
     3
 72
    13
 73
     9
 74
     0
 42
0.0000000311401713
 43
0.0000000001
 40
0.0
 40
0.0
 40
0.0
 40
0.0
 40
0.1295369006900244
 40
0.2551380783515349
 40
0.5000000000004892
 40
0.7448619216490634
 40
0.8704630993102398
 40
1.0
 40
1.0
 40
1.0
 40
1.0
 10
503.1522970654715
 20
333.3443787478114
 30
0.0
 10
503.1530506704242
 20
333.3293613184719
 30
0.0
 10
503.1547038427432
 20
333.3042814484991
 30
0.0
 10
503.1710917593274
 20
333.2527578706411
 30
0.0
 10
503.2086145368273
 20
333.1980653922155
 30
0.0
 10
503.263978767908
 20
333.1615410449318
 30
0.0
 10
503.315791182256
 20
333.1460905884769
 30
0.0
 10
503.34089691696
 20
333.1448926980247
 30
0.0
 10
503.3559255468445
 20
333.1444116697604
 30
0.0
  0
ARC
  5
151
330
D4
100
AcDbEntity
  8
$DDT_AUDIT_GENERATED_(CF)
  6
Continuous
 62
     7
100
AcDbCircle
 10
505.207553773
 20
381.6709843097
 30
0.0
 40
0.9996853699151838
100
AcDbArc
 50
2.6526441234
 51
88.6493885632
  0
ARC
  5
152
330
D4
100
AcDbEntity
  8
$DDT_AUDIT_GENERATED_(CF)
  6
Continuous
 62
     7
100
AcDbCircle
 10
505.206241849
 20
334.1843433282
 30
0.0
 40
0.9996943830962359
100
AcDbArc
 50
271.3552573128
 51
357.3447290092
  0
ARC
  5
153
330
D4
100
AcDbEntity
  8
$DDT_AUDIT_GENERATED_(CF)
  6
Continuous
 62
     7
100
AcDbCircle
 10
-2.7214741926
 20
357.9392603666
 30
0.0
 40
509.4814317047809
100
AcDbArc
 50
357.3308435365
 51
2.6645786233
  0
LINE
  5
154
330
D4
100
AcDbEntity
  8
$DDT_AUDIT_GENERATED_(CF)
  6
Continuous
 62
     7
100
AcDbLine
 10
503.0318135832
 20
382.1412405851
 30
0.0
 11
502.8522970661
 21
382.0375966756
 31
0.0
  0
LINE
  5
155
330
D4
100
AcDbEntity
  8
$DDT_AUDIT_GENERATED_(CF)
  6
Continuous
 62
     7
100
AcDbLine
 10
502.8522970661
 20
333.8176167502
 30
0.0
 11
503.031813582
 21
333.7139728414
 31
0.0
  0
ARC
  5
156
330
D4
100
AcDbEntity
  8
$DDT_AUDIT_GENERATED_(CF)
  6
Continuous
 62
     7
100
AcDbCircle
 10
502.9023061592
 20
333.5003210021
 30
0.0
 40
0.2499909533526544
100
AcDbArc
 50
5.4032783781
 51
60.7723574525
  0
ARC
  5
157
330
D4
100
AcDbEntity
  8
$DDT_AUDIT_GENERATED_(CF)
  6
Continuous
 62
     7
100
AcDbCircle
 10
502.9022977931
 20
382.3551206804
 30
0.0
 40
0.2499992744337313
100
AcDbArc
 50
300.2332738879
 51
357.3615269459
  0
LINE
  5
159
330
D4
100
AcDbEntity
  8
DV2_Default
  6
Continuous
 62
     7
100
AcDbLine
 10
416.2522970661
 20
384.177600448
 30
0.0
 11
416.2522970661
 21
331.677600448
 31
0.0
  0
LINE
  5
15A
330
D4
100
AcDbEntity
  8
DV2_Default
  6
Continuous
 62
     7
100
AcDbLine
 10
416.2522970661
 20
469.177600448
 30
0.0
 11
416.2522970661
 21
416.677600448
 31
0.0
  0
ENDBLK
  5
15C
330
D4
100
AcDbEntity
  8
0
100
AcDbBlockEnd
  0
BLOCK
  5
1C7
330
15D
100
AcDbEntity
  8
0
100
AcDbBlockBegin
  2
SE2
 70
     0
 10
0.0
 20
0.0
 30
0.0
  3
SE2
  1

  0
ARC
  5
15F
330
15D
100
AcDbEntity
  8
$DDT_AUDIT_GENERATED_(87)
  6
Continuous
 62
     7
100
AcDbCircle
 10
133.166330697
 20
154.0060139458
 30
0.0
 40
2.000000000000002
100
AcDbArc
 50
230.7345658309
 51
270.0
  0
ARC
  5
160
330
15D
100
AcDbEntity
  8
$DDT_AUDIT_GENERATED_(87)
  6
Continuous
 62
     7
100
AcDbCircle
 10
181.666330697
 20
154.0060139458
 30
0.0
 40
2.000000000000002
100
AcDbArc
 50
270.0
 51
308.6832684777
  0
ARC
  5
161
330
15D
100
AcDbEntity
  8
$DDT_AUDIT_GENERATED_(87)
  6
Continuous
 62
     7
100
AcDbCircle
 10
133.166330697
 20
153.3060139458
 30
0.0
 40
1.999999999999998
100
AcDbArc
 50
204.6710729121
 51
228.6686106918
  0
ARC
  5
162
330
15D
100
AcDbEntity
  8
$DDT_AUDIT_GENERATED_(87)
  6
Continuous
 62
     7
100
AcDbCircle
 10
181.666330697
 20
153.3060139458
 30
0.0
 40
2.000000000000002
100
AcDbArc
 50
311.3313893055
 51
334.9781067215
  0
LINE
  5
163
330
15D
100
AcDbEntity
  8
$DDT_AUDIT_GENERATED_(8C)
  6
Continuous
 62
     7
100
AcDbLine
 10
132.150949778
 20
144.0060139458
 30
0.0
 11
182.6817116159
 21
144.0060139458
 31
0.0
  0
LINE
  5
164
330
15D
100
AcDbEntity
  8
$DDT_AUDIT_GENERATED_(8C)
  6
Continuous
 62
     7
100
AcDbLine
 10
132.4324438591
 20
152.0060139458
 30
0.0
 11
182.4002175349
 21
152.0060139458
 31
0.0
  0
LINE
  5
165
330
15D
100
AcDbEntity
  8
$DDT_AUDIT_GENERATED_(8C)
  6
Continuous
 62
     7
100
AcDbLine
 10
135.666330697
 20
143.5060139458
 30
0.0
 11
135.666330697
 21
142.756010068
 31
0.0
  0
LINE
  5
166
330
15D
100
AcDbEntity
  8
$DDT_AUDIT_GENERATED_(8C)
  6
Continuous
 62
     7
100
AcDbLine
 10
179.166330697
 20
142.756010068
 30
0.0
 11
179.166330697
 21
143.5060139458
 31
0.0
  0
LINE
  5
167
330
15D
100
AcDbEntity
  8
$DDT_AUDIT_GENERATED_(8C)
  6
Continuous
 62
     7
100
AcDbLine
 10
131.4485529699
 20
150.9749012117
 30
0.0
 11
131.65119374
 21
144.4903965696
 31
0.0
  0
LINE
  5
168
330
15D
100
AcDbEntity
  8
$DDT_AUDIT_GENERATED_(8C)
  6
Continuous
 62
     7
100
AcDbLine
 10
183.181467654
 20
144.4903965696
 30
0.0
 11
183.384108424
 21
150.9749012117
 31
0.0
  0
ARC
  5
169
330
15D
100
AcDbEntity
  8
$DDT_AUDIT_GENERATED_(8C)
  6
Continuous
 62
     7
100
AcDbCircle
 10
179.666330697
 20
143.5060139458
 30
0.0
 40
0.5000000000000004
100
AcDbArc
 50
90.0
 51
180.0
  0
ARC
  5
16A
330
15D
100
AcDbEntity
  8
$DDT_AUDIT_GENERATED_(8C)
  6
Continuous
 62
     7
100
AcDbCircle
 10
135.166330697
 20
143.5060139458
 30
0.0
 40
0.5000000000000004
100
AcDbArc
 50
0.0
 51
90.0
  0
ARC
  5
16B
330
15D
100
AcDbEntity
  8
$DDT_AUDIT_GENERATED_(8C)
  6
Continuous
 62
     7
100
AcDbCircle
 10
182.6817116159
 20
144.5060139458
 30
0.0
 40
0.5000000000000004
100
AcDbArc
 50
270.0
 51
358.2100893917
  0
ARC
  5
16C
330
15D
100
AcDbEntity
  8
$DDT_AUDIT_GENERATED_(8C)
  6
Continuous
 62
     7
100
AcDbCircle
 10
132.150949778
 20
144.5060139458
 30
0.0
 40
0.4999999999999988
100
AcDbArc
 50
181.7899106082
 51
270.0
  0
ARC
  5
16D
330
15D
100
AcDbEntity
  8
$DDT_AUDIT_GENERATED_(8C)
  6
Continuous
 62
     7
100
AcDbCircle
 10
132.448065046
 20
151.006135964
 30
0.0
 40
0.9999999999805742
100
AcDbArc
 50
90.8950645584
 51
181.7899106082
  0
ARC
  5
16E
330
15D
100
AcDbEntity
  8
$DDT_AUDIT_GENERATED_(8C)
  6
Continuous
 62
     7
100
AcDbCircle
 10
182.384596348
 20
151.006135964
 30
0.0
 40
0.9999999999999963
100
AcDbArc
 50
358.2100893918
 51
89.1049354416
  0
LINE
  5
16F
330
15D
100
AcDbEntity
  8
$DDT_AUDIT_GENERATED_(8C)
  6
Continuous
 62
     7
100
AcDbLine
 10
182.6817116159
 20
143.3060139458
 30
0.0
 11
179.166330697
 21
143.3060139458
 31
0.0
  0
LINE
  5
170
330
15D
100
AcDbEntity
  8
$DDT_AUDIT_GENERATED_(8C)
  6
Continuous
 62
     7
100
AcDbLine
 10
135.666330697
 20
143.3060139458
 30
0.0
 11
132.150949778
 21
143.3060139458
 31
0.0
  0
LINE
  5
171
330
15D
100
AcDbEntity
  8
$DDT_AUDIT_GENERATED_(8C)
  6
Continuous
 62
     7
100
AcDbLine
 10
131.4485529699
 20
150.2749012117
 30
0.0
 11
131.65119374
 21
143.7903965696
 31
0.0
  0
LINE
  5
172
330
15D
100
AcDbEntity
  8
$DDT_AUDIT_GENERATED_(8C)
  6
Continuous
 62
     7
100
AcDbLine
 10
183.181467654
 20
143.7903965696
 30
0.0
 11
183.384108424
 21
150.2749012117
 31
0.0
  0
ARC
  5
173
330
15D
100
AcDbEntity
  8
$DDT_AUDIT_GENERATED_(8C)
  6
Continuous
 62
     7
100
AcDbCircle
 10
179.666330697
 20
142.8060139458
 30
0.0
 40
0.5000000000000039
100
AcDbArc
 50
90.0
 51
180.0
  0
ARC
  5
174
330
15D
100
AcDbEntity
  8
$DDT_AUDIT_GENERATED_(8C)
  6
Continuous
 62
     7
100
AcDbCircle
 10
135.166330697
 20
142.8060139458
 30
0.0
 40
0.5000000000000004
100
AcDbArc
 50
0.0
 51
90.0
  0
ARC
  5
175
330
15D
100
AcDbEntity
  8
$DDT_AUDIT_GENERATED_(8C)
  6
Continuous
 62
     7
100
AcDbCircle
 10
182.6817116159
 20
143.8060139458
 30
0.0
 40
0.5000000000000004
100
AcDbArc
 50
270.0
 51
358.2100893918
  0
ARC
  5
176
330
15D
100
AcDbEntity
  8
$DDT_AUDIT_GENERATED_(8C)
  6
Continuous
 62
     7
100
AcDbCircle
 10
132.150949778
 20
143.8060139458
 30
0.0
 40
0.4999999999999988
100
AcDbArc
 50
181.7899106082
 51
270.0
  0
ARC
  5
177
330
15D
100
AcDbEntity
  8
$DDT_AUDIT_GENERATED_(8C)
  6
Continuous
 62
     7
100
AcDbCircle
 10
132.448065046
 20
150.306135964
 30
0.0
 40
0.999999999980574
100
AcDbArc
 50
169.7866241294
 51
181.7899106082
  0
ARC
  5
178
330
15D
100
AcDbEntity
  8
$DDT_AUDIT_GENERATED_(8C)
  6
Continuous
 62
     7
100
AcDbCircle
 10
182.384596348
 20
150.306135964
 30
0.0
 40
0.9999999999999998
100
AcDbArc
 50
358.2100893918
 51
10.2133758707
  0
SPLINE
  5
179
330
15D
100
AcDbEntity
  8
$DDT_AUDIT_GENERATED_(96)
  6
Continuous
 62
     7
100
AcDbSpline
210
0.0
220
0.0
230
1.0
 70
     8
 71
     3
 72
    17
 73
    13
 74
     0
 42
0.0000000063269817
 43
0.0000000001
 40
0.0
 40
0.0
 40
0.0
 40
0.0
 40
0.2450873813310192
 40
0.2450873813310192
 40
0.2450873813310192
 40
0.4967249208866795
 40
0.4967249208866795
 40
0.4967249208866795
 40
0.7483624604433398
 40
0.7483624604433398
 40
0.7483624604433398
 40
1.0
 40
1.0
 40
1.0
 40
1.0
 10
258.9163264836851
 20
153.8060375012449
 30
0.0
 10
259.0416240831843
 20
153.8072318461001
 30
0.0
 10
259.1712775099843
 20
153.8303600993299
 30
0.0
 10
259.2917686936217
 20
153.8791680510495
 30
0.0
 10
259.4154801014627
 20
153.9292804347015
 30
0.0
 10
259.5285381752367
 20
154.0049422930655
 30
0.0
 10
259.6198742416017
 20
154.0953657468245
 30
0.0
 10
259.7112103079667
 20
154.1857892005845
 30
0.0
 10
259.7878037285396
 20
154.2977383861945
 30
0.0
 10
259.8392048632197
 20
154.4209218740375
 30
0.0
 10
259.8906059979007
 20
154.5441053618795
 30
0.0
 10
259.9163267042757
 20
154.6776163930865
 30
0.0
 10
259.9163267042752
 20
154.8060139455554
 30
0.0
  0
LINE
  5
17A
330
15D
100
AcDbEntity
  8
$DDT_AUDIT_GENERATED_(96)
  6
Continuous
 62
     7
100
AcDbLine
 10
56.0167102177
 20
153.8060375002
 30
0.0
 11
258.7938732
 21
153.8060375012
 31
0.0
  0
ARC
  5
17B
330
15D
100
AcDbEntity
  8
$DDT_AUDIT_GENERATED_(96)
  6
Continuous
 62
     7
100
AcDbCircle
 10
55.9160223063
 20
154.8058236994
 30
0.0
 40
0.9997862070693291
100
AcDbArc
 50
179.9890973511
 51
259.082044012
  0
LINE
  5
17C
330
15D
100
AcDbEntity
  8
$DDT_AUDIT_GENERATED_(96)
  6
Continuous
 62
     7
100
AcDbLine
 10
258.9163264837
 20
153.8060375012
 30
0.0
 11
258.7938729452
 21
153.8060375012
 31
0.0
  0
LINE
  5
17D
330
15D
100
AcDbEntity
  8
$DDT_AUDIT_GENERATED_(96)
  6
Continuous
 62
     7
100
AcDbLine
 10
55.9163267043
 20
167.1060139458
 30
0.0
 11
258.9163267043
 21
167.1060139458
 31
0.0
  0
LINE
  5
17E
330
15D
100
AcDbEntity
  8
$DDT_AUDIT_GENERATED_(96)
  6
Continuous
 62
     7
100
AcDbLine
 10
54.9163267043
 20
166.1060139458
 30
0.0
 11
54.9163267043
 21
154.8009834006
 31
0.0
  0
LINE
  5
17F
330
15D
100
AcDbEntity
  8
$DDT_AUDIT_GENERATED_(96)
  6
Continuous
 62
     7
100
AcDbLine
 10
259.9163267043
 20
154.8009834006
 30
0.0
 11
259.9163267043
 21
166.1060139458
 31
0.0
  0
ARC
  5
180
330
15D
100
AcDbEntity
  8
$DDT_AUDIT_GENERATED_(96)
  6
Continuous
 62
     7
100
AcDbCircle
 10
258.7934251234
 20
154.8053713238
 30
0.0
 40
0.9993106030740361
100
AcDbArc
 50
270.0295733688
 51
0.0368449317
  0
ARC
  5
181
330
15D
100
AcDbEntity
  8
$DDT_AUDIT_GENERATED_(96)
  6
Continuous
 62
     7
100
AcDbCircle
 10
55.9984188234
 20
155.7484750381
 30
0.0
 40
1.942829804975638
100
AcDbArc
 50
261.9580688848
 51
271.1851588773
  0
ARC
  5
182
330
15D
100
AcDbEntity
  8
$DDT_AUDIT_GENERATED_(96)
  6
Continuous
 62
     7
100
AcDbCircle
 10
258.7934256109
 20
154.8053709826
 30
0.0
 40
0.9993098608933378
100
AcDbArc
 50
270.0295305439
 51
0.0368645247
  0
ARC
  5
183
330
15D
100
AcDbEntity
  8
$DDT_AUDIT_GENERATED_(96)
  6
Continuous
 62
     7
100
AcDbCircle
 10
55.8609006582
 20
154.6497317381
 30
0.0
 40
0.8358359919214919
100
AcDbArc
 50
169.223575237
 51
260.7562702593
  0
ARC
  5
184
330
15D
100
AcDbEntity
  8
$DDT_AUDIT_GENERATED_(96)
  6
Continuous
 62
     7
100
AcDbCircle
 10
55.9163267043
 20
166.1060139458
 30
0.0
 40
1.000000000000001
100
AcDbArc
 50
90.0
 51
180.0
  0
ARC
  5
185
330
15D
100
AcDbEntity
  8
$DDT_AUDIT_GENERATED_(96)
  6
Continuous
 62
     7
100
AcDbCircle
 10
258.9163267043
 20
166.1060139458
 30
0.0
 40
1.000000000000001
100
AcDbArc
 50
0.0
 51
90.0
  0
ARC
  5
186
330
15D
100
AcDbEntity
  8
$DDT_AUDIT_GENERATED_(9F)
  6
Continuous
 62
     7
100
AcDbCircle
 10
157.4165553877
 20
1572.4771077552
 30
0.0
 40
1419.122415755628
100
AcDbArc
 50
268.7437882283
 51
271.2562154949
  0
ARC
  5
187
330
15D
100
AcDbEntity
  8
$DDT_AUDIT_GENERATED_(9F)
  6
Continuous
 62
     7
100
AcDbCircle
 10
157.4174411249
 20
-3215.9118098293
 30
0.0
 40
3368.48514201049
100
AcDbArc
 50
89.5398393415
 51
90.4602003983
  0
SPLINE
  5
188
330
15D
100
AcDbEntity
  8
$DDT_AUDIT_GENERATED_(9F)
  6
Continuous
 62
     7
100
AcDbSpline
210
0.0
220
0.0
230
1.0
 70
     8
 71
     3
 72
     8
 73
     4
 74
     0
 42
0.0000000023031307
 43
0.0000000001
 40
0.0
 40
0.0
 40
0.0
 40
0.0
 40
1.0
 40
1.0
 40
1.0
 40
1.0
 10
126.23883840601
 20
153.7168613261414
 30
0.0
 10
127.6143453643235
 20
153.2666576969988
 30
0.0
 10
128.9990370902835
 20
152.8463363127489
 30
0.0
 10
130.3929135838901
 20
152.4558971733919
 30
0.0
  0
SPLINE
  5
189
330
15D
100
AcDbEntity
  8
$DDT_AUDIT_GENERATED_(9F)
  6
Continuous
 62
     7
100
AcDbSpline
210
0.0
220
0.0
230
1.0
 70
     8
 71
     3
 72
     8
 73
     4
 74
     0
 42
0.0000000023520239
 43
0.0000000001
 40
0.0
 40
0.0
 40
0.0
 40
0.0
 40
1.0
 40
1.0
 40
1.0
 40
1.0
 10
184.4396931258767
 20
152.4558971733918
 30
0.0
 10
185.833474230237
 20
152.8466505587477
 30
0.0
 10
187.1894757475907
 20
153.2579234712961
 30
0.0
 10
188.507697677938
 20
153.6897159110371
 30
0.0
  0
SPLINE
  5
18A
330
15D
100
AcDbEntity
  8
$DDT_AUDIT_GENERATED_(A9)
  6
Continuous
 62
     7
100
AcDbSpline
210
0.0
220
0.0
230
1.0
 70
     8
 71
     3
 72
     8
 73
     4
 74
     0
 42
0.0000000329114125
 43
0.0000000001
 40
0.226495278178666
 40
0.226495278178666
 40
0.226495278178666
 40
0.226495278178666
 40
0.2432132858641756
 40
0.2432132858641756
 40
0.2432132858641756
 40
0.2432132858641756
 10
165.2783624403001
 20
80.69112369994993
 30
0.0
 10
165.2814745466494
 20
80.69106089316216
 30
0.0
 10
165.2833319049983
 20
80.69102728413642
 30
0.0
 10
165.2834411997243
 20
80.69102661298312
 30
0.0
  0
SPLINE
  5
18B
330
15D
100
AcDbEntity
  8
$DDT_AUDIT_GENERATED_(A9)
  6
Continuous
 62
     7
100
AcDbSpline
210
0.0
220
0.0
230
1.0
 70
     8
 71
     3
 72
     8
 73
     4
 74
     0
 42
0.0000000367104916
 43
0.0000000001
 40
0.7305614736266007
 40
0.7305614736266007
 40
0.7305614736266007
 40
0.7305614736266007
 40
0.7455016519363672
 40
0.7455016519363672
 40
0.7455016519363672
 40
0.7455016519363672
 10
149.5532215992639
 20
80.69110358879185
 30
0.0
 10
149.5506820462175
 20
80.69105310069813
 30
0.0
 10
149.5492036037871
 20
80.69102636070825
 30
0.0
 10
149.5491526136105
 20
80.6910261188147
 30
0.0
  0
LINE
  5
18C
330
15D
100
AcDbEntity
  8
$DDT_AUDIT_GENERATED_(A9)
  6
Continuous
 62
     7
100
AcDbLine
 10
165.0788878977
 20
80.5060139458
 30
0.0
 11
165.0545328371
 21
80.5060139458
 31
0.0
  0
LINE
  5
18D
330
15D
100
AcDbEntity
  8
$DDT_AUDIT_GENERATED_(A9)
  6
Continuous
 62
     7
100
AcDbLine
 10
164.8646069145
 20
80.5060139458
 30
0.0
 11
164.7567394414
 21
80.5060139458
 31
0.0
  0
LINE
  5
18E
330
15D
100
AcDbEntity
  8
$DDT_AUDIT_GENERATED_(A9)
  6
Continuous
 62
     7
100
AcDbLine
 10
153.9110127811
 20
80.5060139458
 30
0.0
 11
150.1340055763
 21
80.5060139458
 31
0.0
  0
LINE
  5
18F
330
15D
100
AcDbEntity
  8
$DDT_AUDIT_GENERATED_(A9)
  6
Continuous
 62
     7
100
AcDbLine
 10
150.0667869568
 20
80.5060139458
 30
0.0
 11
149.8996926144
 21
80.5060139458
 31
0.0
  0
SPLINE
  5
190
330
15D
100
AcDbEntity
  8
$DDT_AUDIT_GENERATED_(A9)
  6
Continuous
 62
     7
100
AcDbSpline
210
0.0
220
0.0
230
1.0
 70
     8
 71
     3
 72
     8
 73
     4
 74
     0
 42
0.0000000001408869
 43
0.0000000001
 40
0.9982757501717192
 40
0.9982757501717192
 40
0.9982757501717192
 40
0.9982757501717192
 40
1.0
 40
1.0
 40
1.0
 40
1.0
 10
149.5275307671367
 20
80.81079692883728
 30
0.0
 10
149.5308646957327
 20
80.77035045515501
 30
0.0
 10
149.5342085243144
 20
80.72969568643067
 30
0.0
 10
149.5375644050006
 20
80.68882350086812
 30
0.0
  0
SPLINE
  5
191
330
15D
100
AcDbEntity
  8
$DDT_AUDIT_GENERATED_(A9)
  6
Continuous
 62
     7
100
AcDbSpline
210
0.0
220
0.0
230
1.0
 70
     8
 71
     3
 72
     8
 73
     4
 74
     0
 42
0.0000000001408833
 43
0.0000000001
 40
0.0
 40
0.0
 40
0.0
 40
0.0
 40
0.0017242057661946
 40
0.0017242057661946
 40
0.0017242057661946
 40
0.0017242057661946
 10
165.2950056627448
 20
80.68788849840682
 30
0.0
 10
165.2983614464514
 20
80.72876063368719
 30
0.0
 10
165.3017051829511
 20
80.76941541019877
 30
0.0
 10
165.3050390233005
 20
80.80986194493207
 30
0.0
  0
ARC
  5
192
330
15D
100
AcDbEntity
  8
$DDT_AUDIT_GENERATED_(A9)
  6
Continuous
 62
     7
100
AcDbCircle
 10
149.7525433305
 20
80.7060136271
 30
0.0
 40
0.1999996834257807
100
AcDbArc
 50
184.8398328372
 51
268.030289708
  0
ARC
  5
193
330
15D
100
AcDbEntity
  8
$DDT_AUDIT_GENERATED_(A9)
  6
Continuous
 62
     7
100
AcDbCircle
 10
165.0791661549
 20
80.7060135688
 30
0.0
 40
0.1999996266355905
100
AcDbArc
 50
272.3589240215
 51
355.2325395061
  0
ARC
  5
194
330
15D
100
AcDbEntity
  8
$DDT_AUDIT_GENERATED_(A9)
  6
Continuous
 62
     7
100
AcDbCircle
 10
182.800267344
 20
142.2060100356
 30
0.0
 40
0.3000000323933947
100
AcDbArc
 50
355.0075628716
 51
10.3827933956
  0
ARC
  5
195
330
15D
100
AcDbEntity
  8
$DDT_AUDIT_GENERATED_(A9)
  6
Continuous
 62
     7
100
AcDbCircle
 10
132.0324145523
 20
142.2060099902
 30
0.0
 40
0.3000000777708984
100
AcDbArc
 50
169.6363511838
 51
185.1582282135
  0
ARC
  5
196
330
15D
100
AcDbEntity
  8
$DDT_AUDIT_GENERATED_(BD)
  6
Continuous
 62
     7
100
AcDbCircle
 10
157.4163294305
 20
132.767144896
 30
0.0
 40
5.287744134140791
100
AcDbArc
 50
359.8793448709
 51
180.1206524167
  0
SPLINE
  5
197
330
15D
100
AcDbEntity
  8
$DDT_AUDIT_GENERATED_(BD)
  6
Continuous
 62
     7
100
AcDbSpline
210
0.0
220
0.0
230
1.0
 70
     8
 71
     3
 72
    10
 73
     6
 74
     0
 42
0.0000000006666666
 43
0.0000000001
 40
0.0
 40
0.0
 40
0.0
 40
0.0
 40
0.5
 40
0.5
 40
1.0
 40
1.0
 40
1.0
 40
1.0
 10
152.1343741597111
 20
117.7560100680145
 30
0.0
 10
152.1331014328441
 20
120.2555972253175
 30
0.0
 10
152.1321185444348
 20
122.7555744393685
 30
0.0
 10
152.1302936791277
 20
127.7557184584489
 30
0.0
 10
152.1294556042826
 20
130.2558859208399
 30
0.0
 10
152.1285970201717
 20
132.7560100682687
 30
0.0
  0
SPLINE
  5
198
330
15D
100
AcDbEntity
  8
$DDT_AUDIT_GENERATED_(BD)
  6
Continuous
 62
     7
100
AcDbSpline
210
0.0
220
0.0
230
1.0
 70
     8
 71
     3
 72
    10
 73
     6
 74
     0
 42
0.0000000006666666
 43
0.0000000001
 40
0.0
 40
0.0
 40
0.0
 40
0.0
 40
0.5000000000000002
 40
0.5000000000000002
 40
1.0
 40
1.0
 40
1.0
 40
1.0
 10
162.6982970333942
 20
117.7560095751102
 30
0.0
 10
162.6995513512778
 20
120.2555954976411
 30
0.0
 10
162.7005342389033
 20
122.7555729235056
 30
0.0
 10
162.7023591034438
 20
127.7557180699501
 30
0.0
 10
162.7031971783067
 20
130.2558860488709
 30
0.0
 10
162.7040618403985
 20
132.7560098179441
 30
0.0
  0
ARC
  5
199
330
15D
100
AcDbEntity
  8
$DDT_AUDIT_GENERATED_(BD)
  6
Continuous
 62
     7
100
AcDbCircle
 10
157.4163355961
 20
117.7473285422
 30
0.0
 40
5.281968570986768
100
AcDbArc
 50
179.9058277221
 51
0.0941669311
  0
LINE
  5
19A
330
15D
100
AcDbEntity
  8
$DDT_AUDIT_GENERATED_(BD)
  6
Continuous
 62
     7
100
AcDbLine
 10
152.0972279639
 20
132.7560098755
 30
0.0
 11
152.1029210005
 21
117.756010068
 31
0.0
  0
ARC
  5
19B
330
15D
100
AcDbEntity
  8
$DDT_AUDIT_GENERATED_(BD)
  6
Continuous
 62
     7
100
AcDbCircle
 10
157.4163362732
 20
132.7673588426
 30
0.0
 40
5.31909293498656
100
AcDbArc
 50
359.8777514882
 51
180.1222479856
  0
LINE
  5
19C
330
15D
100
AcDbEntity
  8
$DDT_AUDIT_GENERATED_(BD)
  6
Continuous
 62
     7
100
AcDbLine
 10
162.7297317848
 20
117.7560094487
 30
0.0
 11
162.7354248176
 21
132.7560098269
 31
0.0
  0
ARC
  5
19D
330
15D
100
AcDbEntity
  8
$DDT_AUDIT_GENERATED_(BD)
  6
Continuous
 62
     7
100
AcDbCircle
 10
157.4163325122
 20
117.7473471405
 30
0.0
 40
5.313418573598454
100
AcDbArc
 50
179.9065856754
 51
0.0934076463
  0
SPLINE
  5
19E
330
15D
100
AcDbEntity
  8
$DDT_AUDIT_GENERATED_(BD)
  6
Continuous
 62
     7
100
AcDbSpline
210
0.0
220
0.0
230
1.0
 70
     8
 71
     3
 72
     8
 73
     4
 74
     0
 42
0.0000000329114125
 43
0.0000000001
 40
0.2264952781786659
 40
0.2264952781786659
 40
0.2264952781786659
 40
0.2264952781786659
 40
0.2432132858641758
 40
0.2432132858641758
 40
0.2432132858641758
 40
0.2432132858641758
 10
165.2783624403001
 20
80.94112369994987
 30
0.0
 10
165.2814745466494
 20
80.9410608931621
 30
0.0
 10
165.2833319049983
 20
80.94102728413637
 30
0.0
 10
165.2834411997243
 20
80.94102661298307
 30
0.0
  0
SPLINE
  5
19F
330
15D
100
AcDbEntity
  8
$DDT_AUDIT_GENERATED_(BD)
  6
Continuous
 62
     7
100
AcDbSpline
210
0.0
220
0.0
230
1.0
 70
     8
 71
     3
 72
     8
 73
     4
 74
     0
 42
0.0000000367104916
 43
0.0000000001
 40
0.7305614736266007
 40
0.7305614736266007
 40
0.7305614736266007
 40
0.7305614736266007
 40
0.7455016519363673
 40
0.7455016519363673
 40
0.7455016519363673
 40
0.7455016519363673
 10
149.5532215992639
 20
80.94110358879178
 30
0.0
 10
149.5506820462175
 20
80.94105310069806
 30
0.0
 10
149.549203603787
 20
80.94102636070818
 30
0.0
 10
149.5491526136104
 20
80.94102611881463
 30
0.0
  0
LINE
  5
1A0
330
15D
100
AcDbEntity
  8
$DDT_AUDIT_GENERATED_(BD)
  6
Continuous
 62
     7
100
AcDbLine
 10
149.7486743108
 20
80.7560139458
 30
0.0
 11
165.0788878977
 21
80.7560139458
 31
0.0
  0
LINE
  5
1A1
330
15D
100
AcDbEntity
  8
$DDT_AUDIT_GENERATED_(BD)
  6
Continuous
 62
     7
100
AcDbLine
 10
182.799860384
 20
142.756010068
 30
0.0
 11
159.5172819313
 21
142.756010068
 31
0.0
  0
LINE
  5
1A2
330
15D
100
AcDbEntity
  8
$DDT_AUDIT_GENERATED_(BD)
  6
Continuous
 62
     7
100
AcDbLine
 10
155.3153794626
 20
142.756010068
 30
0.0
 11
132.0328241399
 21
142.756010068
 31
0.0
  0
LINE
  5
1A3
330
15D
100
AcDbEntity
  8
$DDT_AUDIT_GENERATED_(BD)
  6
Continuous
 62
     7
100
AcDbLine
 10
155.3153794626
 20
142.756010068
 30
0.0
 11
159.5172819313
 21
142.756010068
 31
0.0
  0
SPLINE
  5
1A4
330
15D
100
AcDbEntity
  8
$DDT_AUDIT_GENERATED_(BD)
  6
Continuous
 62
     7
100
AcDbSpline
210
0.0
220
0.0
230
1.0
 70
     8
 71
     3
 72
    38
 73
    34
 74
     0
 42
0.0000000001541159
 43
0.0000000001
 40
0.0
 40
0.0
 40
0.0
 40
0.0
 40
0.0308241927502133
 40
0.0620366754180971
 40
0.0886966037265962
 40
0.1107993410017682
 40
0.1283453210203745
 40
0.1413404792580071
 40
0.1498770551059744
 40
0.1571510372545501
 40
0.1811773613967534
 40
0.210417495065043
 40
0.2463168471731395
 40
0.2887233300331998
 40
0.3356065829437909
 40
0.3801780228194331
 40
0.4220258817586578
 40
0.4613386335026843
 40
0.4942594108846135
 40
0.5252282479137125
 40
0.5541067862265214
 40
0.5808667595173829
 40
0.6054652636024083
 40
0.6307204257709651
 40
0.6555157225154462
 40
0.6858786229119688
 40
0.7221052843398554
 40
0.7646100411353562
 40
0.803502826684369
 40
0.847088302729875
 40
0.8956362568651153
 40
0.9491581905633905
 40
1.0
 40
1.0
 40
1.0
 40
1.0
 10
131.7330475607918
 20
142.436358651801
 30
0.0
 10
131.7747211902479
 20
141.7044184785289
 30
0.0
 10
131.8457355172703
 20
140.4632882125283
 30
0.0
 10
131.9590887362926
 20
138.510057173717
 30
0.0
 10
132.0646900149095
 20
136.7927326583112
 30
0.0
 10
132.1603364015356
 20
135.3604428598161
 30
0.0
 10
132.2433200755581
 20
134.2255363973634
 30
0.0
 10
132.3101354750922
 20
133.3831860046014
 30
0.0
 10
132.3625382523311
 20
132.7625663596153
 30
0.0
 10
132.438521071491
 20
131.9045716393072
 30
0.0
 10
132.5653572443414
 20
130.6016827806384
 30
0.0
 10
132.7874424757362
 20
128.686425856083
 30
0.0
 10
133.1196539710289
 20
126.3844851365956
 30
0.0
 10
133.6166196031781
 20
123.7225838891413
 30
0.0
 10
134.307137537766
 20
120.9098088246589
 30
0.0
 10
135.1736781510265
 20
118.1588122971344
 30
0.0
 10
136.150349912516
 20
115.6200662746405
 30
0.0
 10
137.1599892614574
 20
113.3684227964649
 30
0.0
 10
138.1553312650653
 20
111.370847554023
 30
0.0
 10
139.1000208715926
 20
109.6012163855106
 30
0.0
 10
140.0114674203053
 20
107.965325949469
 30
0.0
 10
140.8691141125595
 20
106.457262725739
 30
0.0
 10
141.6895588875455
 20
105.01817722963
 30
0.0
 10
142.4816376027974
 20
103.6118196918887
 30
0.0
 10
143.3174790967361
 20
102.0871601953382
 30
0.0
 10
144.2344819882407
 20
100.3366888523367
 30
0.0
 10
145.2638354734528
 20
98.21376247289369
 30
0.0
 10
146.2673208079744
 20
95.87517545307854
 30
0.0
 10
147.1950821405953
 20
93.33661522477409
 30
0.0
 10
148.0112508447293
 20
90.6178132834219
 30
0.0
 10
148.7149726459448
 20
87.56269055671194
 30
0.0
 10
149.2569998869802
 20
84.22983868004967
 30
0.0
 10
149.438611780187
 20
82.14399448917003
 30
0.0
 10
149.5375644050006
 20
80.93882350086808
 30
0.0
  0
SPLINE
  5
1A5
330
15D
100
AcDbEntity
  8
$DDT_AUDIT_GENERATED_(BD)
  6
Continuous
 62
     7
100
AcDbSpline
210
0.0
220
0.0
230
1.0
 70
     8
 71
     3
 72
    39
 73
    35
 74
     0
 42
0.0000000001541156
 43
0.0000000001
 40
0.0
 40
0.0
 40
0.0
 40
0.0
 40
0.050855064850628
 40
0.1043757065892555
 40
0.1529224888311545
 40
0.1965069127719931
 40
0.235398759492641
 40
0.2763264857599592
 40
0.3114512043011243
 40
0.3411464859223443
 40
0.3656832869298464
 40
0.3852558152690837
 40
0.402173519225446
 40
0.4201674764313199
 40
0.4560513777514773
 40
0.4956073941538064
 40
0.538661772814256
 40
0.5734840307606327
 40
0.6102948796887359
 40
0.6492211915722527
 40
0.6904126219692587
 40
0.7309183382781723
 40
0.7663819275781649
 40
0.7966611571460983
 40
0.821660039634669
 40
0.8428486898093299
 40
0.8501224963721085
 40
0.858658866156677
 40
0.8716537107057163
 40
0.8891992671839791
 40
0.9113014709237814
 40
0.9379607556914138
 40
0.9691724849248575
 40
1.0
 40
1.0
 40
1.0
 40
1.0
 10
165.2950056627448
 20
80.93788849840679
 30
0.0
 10
165.3939837553651
 20
82.14340302052457
 30
0.0
 10
165.5756178241739
 20
84.22952916392514
 30
0.0
 10
166.1176866605053
 20
87.56268907588182
 30
0.0
 10
166.8214116607671
 20
90.61781350425333
 30
0.0
 10
167.6375769911894
 20
93.33661554832754
 30
0.0
 10
168.5536487941266
 20
95.84316273967829
 30
0.0
 10
169.5317937377882
 20
98.12948534814917
 30
0.0
 10
170.5247628881885
 20
100.1896591273199
 30
0.0
 10
171.417094577815
 20
101.9035959224956
 30
0.0
 10
172.1813704209556
 20
103.3045724906601
 30
0.0
 10
172.8258448664326
 20
104.4560512284888
 30
0.0
 10
173.4068735155761
 20
105.4808854454607
 30
0.0
 10
174.1649139994424
 20
106.8107846148588
 30
0.0
 10
175.1628930841669
 20
108.5673674706429
 30
0.0
 10
176.3933404969042
 20
110.8149422488655
 30
0.0
 10
177.5392004124258
 20
113.0817561881447
 30
0.0
 10
178.5598818938228
 20
115.3426016455944
 30
0.0
 10
179.4401383175804
 20
117.5663138552065
 30
0.0
 10
180.2431063515064
 20
119.9650976732795
 30
0.0
 10
180.9283749833874
 20
122.4831435536491
 30
0.0
 10
181.4595218714233
 20
124.9612642426726
 30
0.0
 10
181.840978028668
 20
127.2272769005633
 30
0.0
 10
182.1039145841533
 20
129.1718739250576
 30
0.0
 10
182.2884531573862
 20
130.8150319638559
 30
0.0
 10
182.3995518255539
 20
131.9656773633108
 30
0.0
 10
182.4701231336324
 20
132.762566398955
 30
0.0
 10
182.5225259225035
 20
133.3831859872653
 30
0.0
 10
182.5893413166316
 20
134.2255364020228
 30
0.0
 10
182.6723249942344
 20
135.3604428741353
 30
0.0
 10
182.767971372562
 20
136.7927325696572
 30
0.0
 10
182.8735726884151
 20
138.5100576120725
 30
0.0
 10
182.9869309388948
 20
140.4633758361267
 30
0.0
 10
183.0579497982428
 20
141.7045852605808
 30
0.0
 10
183.0996289101802
 20
142.4366219960039
 30
0.0
  0
ARC
  5
1A6
330
15D
100
AcDbEntity
  8
$DDT_AUDIT_GENERATED_(BD)
  6
Continuous
 62
     7
100
AcDbCircle
 10
149.7525433305
 20
80.9560136271
 30
0.0
 40
0.1999996834257807
100
AcDbArc
 50
184.8398328372
 51
268.030289708
  0
ARC
  5
1A7
330
15D
100
AcDbEntity
  8
$DDT_AUDIT_GENERATED_(BD)
  6
Continuous
 62
     7
100
AcDbCircle
 10
165.0791661549
 20
80.9560135688
 30
0.0
 40
0.1999996266356182
100
AcDbArc
 50
272.3589240216
 51
355.2325395061
  0
ARC
  5
1A8
330
15D
100
AcDbEntity
  8
$DDT_AUDIT_GENERATED_(BD)
  6
Continuous
 62
     7
100
AcDbCircle
 10
182.800267344
 20
142.4560100356
 30
0.0
 40
0.3000000323933947
100
AcDbArc
 50
355.0075628715
 51
90.0059270562
  0
ARC
  5
1A9
330
15D
100
AcDbEntity
  8
$DDT_AUDIT_GENERATED_(BD)
  6
Continuous
 62
     7
100
AcDbCircle
 10
132.0324145523
 20
142.4560099902
 30
0.0
 40
0.3000000777708846
100
AcDbArc
 50
89.9862393107
 51
185.1582282135
  0
LINE
  5
1AA
330
15D
100
AcDbEntity
  8
$DDT_AUDIT_GENERATED_(C3)
  6
Continuous
 62
     7
100
AcDbLine
 10
152.4163306961
 20
117.7560139458
 30
0.0
 11
152.4163572216
 21
132.756013696
 31
0.0
  0
ARC
  5
1AB
330
15D
100
AcDbEntity
  8
$DDT_AUDIT_GENERATED_(C3)
  6
Continuous
 62
     7
100
AcDbCircle
 10
157.416336538
 20
117.7560192208
 30
0.0
 40
5.000005841885644
100
AcDbArc
 50
180.0000604468
 51
359.9999396453
  0
LINE
  5
1AC
330
15D
100
AcDbEntity
  8
$DDT_AUDIT_GENERATED_(C3)
  6
Continuous
 62
     7
100
AcDbLine
 10
162.416323392
 20
132.7560141317
 30
0.0
 11
162.4163423798
 21
117.7560139538
 31
0.0
  0
ARC
  5
1AD
330
15D
100
AcDbEntity
  8
$DDT_AUDIT_GENERATED_(C3)
  6
Continuous
 62
     7
100
AcDbCircle
 10
157.4163403068
 20
132.7560419199
 30
0.0
 40
4.999983085296885
100
AcDbArc
 50
359.9996815701
 51
180.0003234232
  0
SPLINE
  5
1AE
330
15D
100
AcDbEntity
  8
$DDT_AUDIT_GENERATED_(C3)
  6
Continuous
 62
     7
100
AcDbSpline
210
0.0
220
0.0
230
1.0
 70
     8
 71
     3
 72
    10
 73
     6
 74
     0
 42
0.0000000006666666
 43
0.0000000001
 40
0.0
 40
0.0
 40
0.0
 40
0.0
 40
0.5
 40
0.5
 40
1.0
 40
1.0
 40
1.0
 40
1.0
 10
152.3334503555083
 20
132.7559901460626
 30
0.0
 10
152.3333979565384
 20
130.2558901694904
 30
0.0
 10
152.3333816915941
 20
127.7557461441547
 30
0.0
 10
152.3332251510965
 20
122.7556096634553
 30
0.0
 10
152.3330903004188
 20
120.255607149055
 30
0.0
 10
152.3327852492613
 20
117.7559891431468
 30
0.0
  0
ARC
  5
1AF
330
15D
100
AcDbEntity
  8
$DDT_AUDIT_GENERATED_(C3)
  6
Continuous
 62
     7
100
AcDbCircle
 10
157.4162920693
 20
132.751252649
 30
0.0
 40
5.082843921551328
100
AcDbArc
 50
0.0534124432
 51
179.9465970961
  0
SPLINE
  5
1B0
330
15D
100
AcDbEntity
  8
$DDT_AUDIT_GENERATED_(C3)
  6
Continuous
 62
     7
100
AcDbSpline
210
0.0
220
0.0
230
1.0
 70
     8
 71
     3
 72
    10
 73
     6
 74
     0
 42
0.0000000006666666
 43
0.0000000001
 40
0.0
 40
0.0
 40
0.0
 40
0.0
 40
0.5
 40
0.5
 40
1.0
 40
1.0
 40
1.0
 40
1.0
 10
162.4991337822069
 20
132.7559909923153
 30
0.0
 10
162.4991490565929
 20
130.2558907228784
 30
0.0
 10
162.4991657957136
 20
127.75574656651
 30
0.0
 10
162.4993203236179
 20
122.7556097944449
 30
0.0
 10
162.4994524974854
 20
120.2556071203103
 30
0.0
 10
162.4997770424974
 20
117.7559890739724
 30
0.0
  0
ARC
  5
1B1
330
15D
100
AcDbEntity
  8
$DDT_AUDIT_GENERATED_(C3)
  6
Continuous
 62
     7
100
AcDbCircle
 10
157.4162811459
 20
117.7606895342
 30
0.0
 40
5.083498069728569
100
AcDbArc
 50
180.0529778131
 51
359.9470214073
  0
LINE
  5
1B2
330
15D
100
AcDbEntity
  8
$DDT_AUDIT_GENERATED_(CF)
  6
Continuous
 62
     7
100
AcDbLine
 10
149.7898346736
 20
80.4560139458
 30
0.0
 11
165.0428266131
 21
80.4560139458
 31
0.0
  0
SPLINE
  5
1B3
330
15D
100
AcDbEntity
  8
$DDT_AUDIT_GENERATED_(CF)
  6
Continuous
 62
     7
100
AcDbSpline
210
0.0
220
0.0
230
1.0
 70
     8
 71
     3
 72
     8
 73
     4
 74
     0
 42
0.0000000043118362
 43
0.0000000001
 40
0.0
 40
0.0
 40
0.0
 40
0.0
 40
1.0
 40
1.0
 40
1.0
 40
1.0
 10
149.5888407067811
 20
80.26613190979636
 30
0.0
 10
149.6358571379905
 20
79.49405147375903
 30
0.0
 10
149.6826599691123
 20
78.72240369907558
 30
0.0
 10
149.7292492001467
 20
77.951188585746
 30
0.0
  0
SPLINE
  5
1B4
330
15D
100
AcDbEntity
  8
$DDT_AUDIT_GENERATED_(CF)
  6
Continuous
 62
     7
100
AcDbSpline
210
0.0
220
0.0
230
1.0
 70
     8
 71
     3
 72
     8
 73
     4
 74
     0
 42
0.0000000043118362
 43
0.0000000001
 40
0.0
 40
0.0
 40
0.0
 40
0.0
 40
1.0
 40
1.0
 40
1.0
 40
1.0
 10
165.1034121938125
 20
77.95118858574602
 30
0.0
 10
165.1500014248467
 20
78.72240369907561
 30
0.0
 10
165.1968042559685
 20
79.49405147375911
 30
0.0
 10
165.2438206871778
 20
80.26613190979647
 30
0.0
  0
ARC
  5
1B5
330
15D
100
AcDbEntity
  8
$DDT_AUDIT_GENERATED_(CF)
  6
Continuous
 62
     7
100
AcDbCircle
 10
165.0429060727
 20
80.2560888777
 30
0.0
 40
0.1999250839289769
100
AcDbArc
 50
356.5895324281
 51
90.0227720167
  0
ARC
  5
1B6
330
15D
100
AcDbEntity
  8
$DDT_AUDIT_GENERATED_(CF)
  6
Continuous
 62
     7
100
AcDbCircle
 10
149.7897552091
 20
80.2560888733
 30
0.0
 40
0.1999250882777857
100
AcDbArc
 50
89.97722657
 51
183.4104664801
  0
ARC
  5
1B7
330
15D
100
AcDbEntity
  8
$DDT_AUDIT_GENERATED_(CF)
  6
Continuous
 62
     7
100
AcDbCircle
 10
164.1062963502
 20
78.0245654637
 30
0.0
 40
0.9997229604104395
100
AcDbArc
 50
273.0105181699
 51
356.5809964227
  0
ARC
  5
1B8
330
15D
100
AcDbEntity
  8
$DDT_AUDIT_GENERATED_(CF)
  6
Continuous
 62
     7
100
AcDbCircle
 10
150.7263658869
 20
78.0245512708
 30
0.0
 40
0.9997229516978813
100
AcDbArc
 50
183.4190036243
 51
266.9896032026
  0
ARC
  5
1B9
330
15D
100
AcDbEntity
  8
$DDT_AUDIT_GENERATED_(CF)
  6
Continuous
 62
     7
100
AcDbCircle
 10
157.4161969712
 20
204.5440256756
 30
0.0
 40
127.695942951303
100
AcDbArc
 50
266.9370245863
 51
273.0630961379
  0
LINE
  5
1BA
330
15D
100
AcDbEntity
  8
$DDT_AUDIT_GENERATED_(CF)
  6
Continuous
 62
     7
100
AcDbLine
 10
164.6729158843
 20
80.5764974293
 30
0.0
 11
164.5692719752
 21
80.7560139458
 31
0.0
  0
LINE
  5
1BB
330
15D
100
AcDbEntity
  8
$DDT_AUDIT_GENERATED_(CF)
  6
Continuous
 62
     7
100
AcDbLine
 10
150.263389302
 20
80.7560139458
 30
0.0
 11
150.1597453929
 21
80.5764974293
 31
0.0
  0
ARC
  5
1BC
330
15D
100
AcDbEntity
  8
$DDT_AUDIT_GENERATED_(CF)
  6
Continuous
 62
     7
100
AcDbCircle
 10
164.8867319583
 20
80.7060139267
 30
0.0
 40
0.249999975524145
100
AcDbArc
 50
208.646558386
 51
270.1398866513
  0
ARC
  5
1BD
330
15D
100
AcDbEntity
  8
$DDT_AUDIT_GENERATED_(CF)
  6
Continuous
 62
     7
100
AcDbCircle
 10
149.9459256666
 20
80.7060139269
 30
0.0
 40
0.249999976297266
100
AcDbArc
 50
270.0358939606
 51
330.2123133319
  0
SPLINE
  5
1BE
330
15D
100
AcDbEntity
  8
$DDT_AUDIT_GENERATED_(CF)
  6
Continuous
 62
     7
100
AcDbSpline
210
0.0
220
0.0
230
1.0
 70
     8
 71
     3
 72
     8
 73
     4
 74
     0
 42
0.0000000043118362
 43
0.0000000001
 40
0.0
 40
0.0
 40
0.0
 40
0.0
 40
1.0
 40
1.0
 40
1.0
 40
1.0
 10
149.5888407067811
 20
80.0161319097966
 30
0.0
 10
149.6358571379905
 20
79.24405147375914
 30
0.0
 10
149.6826599691124
 20
78.47240369907564
 30
0.0
 10
149.7292492001467
 20
77.70118858574605
 30
0.0
  0
SPLINE
  5
1BF
330
15D
100
AcDbEntity
  8
$DDT_AUDIT_GENERATED_(CF)
  6
Continuous
 62
     7
100
AcDbSpline
210
0.0
220
0.0
230
1.0
 70
     8
 71
     3
 72
     8
 73
     4
 74
     0
 42
0.0000000043118362
 43
0.0000000001
 40
0.0
 40
0.0
 40
0.0
 40
0.0
 40
1.0
 40
1.0
 40
1.0
 40
1.0
 10
165.1034121938125
 20
77.70118858574611
 30
0.0
 10
165.1500014248467
 20
78.47240369907567
 30
0.0
 10
165.1968042559685
 20
79.24405147375917
 30
0.0
 10
165.2438206871778
 20
80.01613190979651
 30
0.0
  0
ARC
  5
1C0
330
15D
100
AcDbEntity
  8
$DDT_AUDIT_GENERATED_(CF)
  6
Continuous
 62
     7
100
AcDbCircle
 10
165.0429060727
 20
80.0060888777
 30
0.0
 40
0.199925083928947
100
AcDbArc
 50
356.5895324281
 51
18.6272376484
  0
ARC
  5
1C1
330
15D
100
AcDbEntity
  8
$DDT_AUDIT_GENERATED_(CF)
  6
Continuous
 62
     7
100
AcDbCircle
 10
149.7897552091
 20
80.0060888733
 30
0.0
 40
0.1999250882778016
100
AcDbArc
 50
161.3726540801
 51
183.4104664801
  0
ARC
  5
1C2
330
15D
100
AcDbEntity
  8
$DDT_AUDIT_GENERATED_(CF)
  6
Continuous
 62
     7
100
AcDbCircle
 10
164.1062963502
 20
77.7745654637
 30
0.0
 40
0.999722960410396
100
AcDbArc
 50
273.0105181699
 51
356.5809964227
  0
ARC
  5
1C3
330
15D
100
AcDbEntity
  8
$DDT_AUDIT_GENERATED_(CF)
  6
Continuous
 62
     7
100
AcDbCircle
 10
150.7263658869
 20
77.7745512708
 30
0.0
 40
0.999722951697916
100
AcDbArc
 50
183.4190036243
 51
266.9896032026
  0
ARC
  5
1C4
330
15D
100
AcDbEntity
  8
$DDT_AUDIT_GENERATED_(CF)
  6
Continuous
 62
     7
100
AcDbCircle
 10
157.4161969712
 20
204.2940256756
 30
0.0
 40
127.6959429512859
100
AcDbArc
 50
266.9370245863
 51
273.0630961379
  0
LINE
  5
1C5
330
15D
100
AcDbEntity
  8
$DDT_AUDIT_GENERATED_(CF)
  6
Continuous
 62
     7
100
AcDbLine
 10
164.5981394889
 20
80.4560139454
 30
0.0
 11
164.5692719752
 21
80.5060139458
 31
0.0
  0
LINE
  5
1C6
330
15D
100
AcDbEntity
  8
$DDT_AUDIT_GENERATED_(CF)
  6
Continuous
 62
     7
100
AcDbLine
 10
150.263389302
 20
80.5060139458
 30
0.0
 11
150.2345217883
 21
80.4560139454
 31
0.0
  0
ENDBLK
  5
1C8
330
15D
100
AcDbEntity
  8
0
100
AcDbBlockEnd
  0
ENDSEC
  0
SECTION
  2
ENTITIES
  0
INSERT
  5
5F
330
1F
100
AcDbEntity
  8
Default
100
AcDbBlockReference
  2
SEANNOT_GROUP
 10
0.0
 20
0.0
 30
0.0
  0
INSERT
  5
6A
330
1F
100
AcDbEntity
  8
Default
100
AcDbBlockReference
  2
SEANNOT_GROUP1
 10
0.0
 20
0.0
 30
0.0
  0
INSERT
  5
74
330
1F
100
AcDbEntity
  8
Default
100
AcDbBlockReference
  2
SEANNOT_GROUP2
 10
0.0
 20
0.0
 30
0.0
  0
INSERT
  5
7A
330
1F
100
AcDbEntity
  8
Default
100
AcDbBlockReference
  2
SEANNOT_GROUP3
 10
0.0
 20
0.0
 30
0.0
  0
INSERT
  5
80
330
1F
100
AcDbEntity
  8
Default
100
AcDbBlockReference
  2
SEANNOT_GROUP4
 10
0.0
 20
0.0
 30
0.0
  0
INSERT
  5
86
330
1F
100
AcDbEntity
  8
Default
100
AcDbBlockReference
  2
SE
 10
0.0
 20
0.0
 30
0.0
  0
INSERT
  5
D5
330
1F
100
AcDbEntity
  8
Default
100
AcDbBlockReference
  2
SE1
 10
0.0
 20
0.0
 30
0.0
  0
INSERT
  5
15E
330
1F
100
AcDbEntity
  8
Default
100
AcDbBlockReference
  2
SE2
 10
0.0
 20
0.0
 30
0.0
  0
TEXT
  5
1CA
330
1F
100
AcDbEntity
  8
Default
  6
Continuous
 62
     7
100
AcDbText
 10
5.9362635081
 20
53.4225120485
 30
0.0
 40
10.0
  1
Grohe AG^J
  7
SEACAD_seiso_ttf
 11
5.9362635081
 21
63.4225120485
 31
0.0
100
AcDbText
 73
     3
  0
TEXT
  5
1CB
330
1F
100
AcDbEntity
  8
Default
  6
Continuous
 62
     7
100
AcDbText
 10
5.9362635081
 20
37.0588756849
 30
0.0
 40
10.0
  1
 
  7
SEACAD_seiso_ttf
 11
5.9362635081
 21
47.0588756849
 31
0.0
100
AcDbText
 73
     3
  0
TEXT
  5
1CC
330
1F
100
AcDbEntity
  8
Default
  6
Continuous
 62
     7
100
AcDbText
 10
5.9362635081
 20
20.6952393213
 30
0.0
 40
10.0
  1
ecn: 
  7
SEACAD_seiso_ttf
 11
5.9362635081
 21
30.6952393213
 31
0.0
100
AcDbText
 73
     3
  0
TEXT
  5
1CD
330
1F
100
AcDbEntity
  8
Default
  6
Continuous
 62
     7
100
AcDbText
 10
5.9362635081
 20
4.3316029576
 30
0.0
 40
10.0
  1
unit: mm
  7
SEACAD_seiso_ttf
 11
5.9362635081
 21
14.3316029576
 31
0.0
100
AcDbText
 73
     3
  0
LINE
  5
1CE
330
1F
100
AcDbEntity
  8
Default
  6
Continuous
 62
     7
100
AcDbLine
 10
0.0
 20
0.0
 30
0.0
 11
100.0
 21
0.0
 31
0.0
  0
LINE
  5
1CF
330
1F
100
AcDbEntity
  8
Default
  6
Continuous
 62
     7
100
AcDbLine
 10
0.0
 20
0.0
 30
0.0
 11
0.0
 21
100.0
 31
0.0
  0
TEXT
  5
1D0
330
1F
100
AcDbEntity
  8
Default
  6
Continuous
 62
     7
100
AcDbText
 10
24.3923665681
 20
-18.2375342018
 30
0.0
 40
10.0
  1
100 mm
  7
SEACAD_seiso_ttf
 11
24.3923665681
 21
-8.2375342018
 31
0.0
100
AcDbText
 73
     3
  0
TEXT
  5
1D1
330
1F
100
AcDbEntity
  8
Default
  6
Continuous
 62
     7
100
AcDbText
 10
-7.6150308803
 20
24.6231930421
 30
0.0
 40
10.0
  1
100 mm
 50
90.0
  7
SEACAD_seiso_ttf
 11
-17.6150308803
 21
24.6231930421
 31
0.0
100
AcDbText
 73
     3
  0
TEXT
  5
1D2
330
1F
100
AcDbEntity
  8
Default
  6
Continuous
 62
     7
100
AcDbText
 10
28.4878128572
 20
20.0907663715
 30
0.0
 40
10.0
  1
210671
  7
SEACAD_seiso_ttf
 11
28.4878128572
 21
30.0907663715
 31
0.0
100
AcDbText
 73
     3
  0
TEXT
  5
1D3
330
1F
100
AcDbEntity
  8
Default
  6
Continuous
 62
     7
100
AcDbText
 10
5.9012241913
 20
36.7242780188
 30
0.0
 40
10.0
  1
19437000
  7
SEACAD_seiso_ttf
 11
5.9012241913
 21
46.7242780188
 31
0.0
100
AcDbText
 73
     3
  0
ENDSEC
  0
SECTION
  2
OBJECTS
  0
DICTIONARY
  5
C
330
0
100
AcDbDictionary
281
     1
  3
ACAD_GROUP
350
D
  3
ACAD_LAYOUT
350
1A
  3
ACAD_MLEADERSTYLE
350
1D7
  3
ACAD_MLINESTYLE
350
17
  3
ACAD_PLOTSETTINGS
350
19
  3
ACAD_PLOTSTYLENAME
350
E
  3
ACAD_SCALELIST
350
3B
  3
ACAD_TABLESTYLE
350
1D6
  3
ACAD_VISUALSTYLE
350
2A
  3
AcDbVariableDictionary
350
1D4
  0
DICTIONARY
  5
D
102
{ACAD_REACTORS
330
C
102
}
330
C
100
AcDbDictionary
281
     1
  0
DICTIONARY
  5
1A
102
{ACAD_REACTORS
330
C
102
}
330
C
100
AcDbDictionary
281
     1
  3
Layout1
350
1E
  3
Model
350
22
  0
DICTIONARY
  5
1D7
102
{ACAD_REACTORS
330
C
102
}
330
C
100
AcDbDictionary
281
     1
  0
DICTIONARY
  5
17
102
{ACAD_REACTORS
330
C
102
}
330
C
100
AcDbDictionary
281
     1
  3
Standard
350
18
  0
DICTIONARY
  5
19
102
{ACAD_REACTORS
330
C
102
}
330
C
100
AcDbDictionary
281
     1
  0
ACDBDICTIONARYWDFLT
  5
E
102
{ACAD_REACTORS
330
C
102
}
330
C
100
AcDbDictionary
281
     1
  3
Normal
350
F
100
AcDbDictionaryWithDefault
340
F
  0
DICTIONARY
  5
3B
102
{ACAD_REACTORS
330
C
102
}
330
C
100
AcDbDictionary
281
     1
  3
A0
350
3C
  3
A1
350
3D
  3
A2
350
3E
  3
A3
350
3F
  3
A4
350
40
  3
A5
350
41
  3
A6
350
42
  3
A7
350
43
  3
A8
350
44
  3
A9
350
45
  3
B0
350
46
  3
B1
350
47
  3
B2
350
48
  3
B3
350
49
  3
B4
350
4A
  3
B5
350
4B
  3
B6
350
4C
  3
B7
350
4D
  3
B8
350
4E
  3
B9
350
4F
  3
C0
350
50
  3
C1
350
51
  3
C2
350
52
  3
C3
350
53
  3
C4
350
54
  3
C5
350
55
  3
C6
350
56
  3
C7
350
57
  3
C8
350
58
  3
C9
350
59
  3
D0
350
5A
  3
D1
350
5B
  3
D2
350
5C
  0
DICTIONARY
  5
1D6
102
{ACAD_REACTORS
330
C
102
}
330
C
100
AcDbDictionary
281
     1
  0
DICTIONARY
  5
2A
102
{ACAD_REACTORS
330
C
102
}
330
C
100
AcDbDictionary
281
     1
  3
2dWireframe
350
2F
  3
3D Hidden
350
31
  3
3dWireframe
350
30
  3
Basic
350
32
  3
Brighten
350
36
  3
ColorChange
350
3A
  3
Conceptual
350
34
  3
Dim
350
35
  3
Facepattern
350
39
  3
Flat
350
2B
  3
FlatWithEdges
350
2C
  3
Gouraud
350
2D
  3
GouraudWithEdges
350
2E
  3
Linepattern
350
38
  3
Realistic
350
33
  3
Thicken
350
37
  0
DICTIONARY
  5
1D4
102
{ACAD_REACTORS
330
C
102
}
330
C
100
AcDbDictionary
281
     1
  3
CANNOSCALE
350
1D5
  3
PSOLHEIGHT
350
1D9
  3
PSOLWIDTH
350
1D8
  0
LAYOUT
  5
1E
102
{ACAD_REACTORS
330
1A
102
}
330
1A
100
AcDbPlotSettings
  1

  2
none_device
  4

  6

 40
0.0
 41
0.0
 42
0.0
 43
0.0
 44
0.0
 45
0.0
 46
0.0
 47
0.0
 48
0.0
 49
0.0
140
0.0
141
0.0
142
1.0
143
1.0
 70
   688
 72
     0
 73
     0
 74
     5
  7

 75
    16
147
1.0
148
0.0
149
0.0
100
AcDbLayout
  1
Layout1
 70
     1
 71
     1
 10
0.0
 20
0.0
 11
1682.0
 21
2378.0
 12
0.0
 22
0.0
 32
0.0
 14
0.0
 24
0.0
 34
0.0
 15
1682.0
 25
2378.0
 35
0.0
146
0.0
 13
0.0
 23
0.0
 33
0.0
 16
1.0
 26
0.0
 36
0.0
 17
0.0
 27
1.0
 37
0.0
 76
     0
330
1B
  0
LAYOUT
  5
22
102
{ACAD_REACTORS
330
1A
102
}
330
1A
100
AcDbPlotSettings
  1

  2
none_device
  4

  6

 40
0.0
 41
0.0
 42
0.0
 43
0.0
 44
0.0
 45
0.0
 46
0.0
 47
0.0
 48
0.0
 49
0.0
140
0.0
141
0.0
142
1.0
143
1.0
 70
  1712
 72
     0
 73
     0
 74
     0
  7

 75
     0
147
1.0
148
0.0
149
0.0
100
AcDbLayout
  1
Model
 70
     1
 71
     0
 10
0.0
 20
0.0
 11
1682.0
 21
2378.0
 12
0.0
 22
0.0
 32
0.0
 14
0.0
 24
0.0
 34
0.0
 15
1682.0
 25
2378.0
 35
0.0
146
0.0
 13
0.0
 23
0.0
 33
0.0
 16
1.0
 26
0.0
 36
0.0
 17
0.0
 27
1.0
 37
0.0
 76
     0
330
1F
331
29
  0
MLINESTYLE
  5
18
102
{ACAD_REACTORS
330
17
102
}
330
17
100
AcDbMlineStyle
  2
Standard
 70
     0
  3

 62
   256
 51
90.0
 52
90.0
 71
     2
 49
0.5
 62
   256
  6
BYLAYER
 49
-0.5
 62
   256
  6
BYLAYER
  0
ACDBPLACEHOLDER
  5
F
102
{ACAD_REACTORS
330
E
102
}
330
E
  0
SCALE
  5
3C
102
{ACAD_REACTORS
330
3B
102
}
330
3B
100
AcDbScale
 70
     0
300
1:1
140
1.0
141
1.0
290
     1
  0
SCALE
  5
3D
102
{ACAD_REACTORS
330
3B
102
}
330
3B
100
AcDbScale
 70
     0
300
1:2
140
1.0
141
2.0
290
     0
  0
SCALE
  5
3E
102
{ACAD_REACTORS
330
3B
102
}
330
3B
100
AcDbScale
 70
     0
300
1:4
140
1.0
141
4.0
290
     0
  0
SCALE
  5
3F
102
{ACAD_REACTORS
330
3B
102
}
330
3B
100
AcDbScale
 70
     0
300
1:5
140
1.0
141
5.0
290
     0
  0
SCALE
  5
40
102
{ACAD_REACTORS
330
3B
102
}
330
3B
100
AcDbScale
 70
     0
300
1:8
140
1.0
141
8.0
290
     0
  0
SCALE
  5
41
102
{ACAD_REACTORS
330
3B
102
}
330
3B
100
AcDbScale
 70
     0
300
1:10
140
1.0
141
10.0
290
     0
  0
SCALE
  5
42
102
{ACAD_REACTORS
330
3B
102
}
330
3B
100
AcDbScale
 70
     0
300
1:16
140
1.0
141
16.0
290
     0
  0
SCALE
  5
43
102
{ACAD_REACTORS
330
3B
102
}
330
3B
100
AcDbScale
 70
     0
300
1:20
140
1.0
141
20.0
290
     0
  0
SCALE
  5
44
102
{ACAD_REACTORS
330
3B
102
}
330
3B
100
AcDbScale
 70
     0
300
1:30
140
1.0
141
30.0
290
     0
  0
SCALE
  5
45
102
{ACAD_REACTORS
330
3B
102
}
330
3B
100
AcDbScale
 70
     0
300
1:40
140
1.0
141
40.0
290
     0
  0
SCALE
  5
46
102
{ACAD_REACTORS
330
3B
102
}
330
3B
100
AcDbScale
 70
     0
300
1:50
140
1.0
141
50.0
290
     0
  0
SCALE
  5
47
102
{ACAD_REACTORS
330
3B
102
}
330
3B
100
AcDbScale
 70
     0
300
1:100
140
1.0
141
100.0
290
     0
  0
SCALE
  5
48
102
{ACAD_REACTORS
330
3B
102
}
330
3B
100
AcDbScale
 70
     0
300
2:1
140
2.0
141
1.0
290
     0
  0
SCALE
  5
49
102
{ACAD_REACTORS
330
3B
102
}
330
3B
100
AcDbScale
 70
     0
300
4:1
140
4.0
141
1.0
290
     0
  0
SCALE
  5
4A
102
{ACAD_REACTORS
330
3B
102
}
330
3B
100
AcDbScale
 70
     0
300
8:1
140
8.0
141
1.0
290
     0
  0
SCALE
  5
4B
102
{ACAD_REACTORS
330
3B
102
}
330
3B
100
AcDbScale
 70
     0
300
10:1
140
10.0
141
1.0
290
     0
  0
SCALE
  5
4C
102
{ACAD_REACTORS
330
3B
102
}
330
3B
100
AcDbScale
 70
     0
300
100:1
140
100.0
141
1.0
290
     0
  0
SCALE
  5
4D
102
{ACAD_REACTORS
330
3B
102
}
330
3B
100
AcDbScale
 70
     0
300
1/128" = 1'-0"
140
0.0078125
141
12.0
290
     0
  0
SCALE
  5
4E
102
{ACAD_REACTORS
330
3B
102
}
330
3B
100
AcDbScale
 70
     0
300
1/64" = 1'-0"
140
0.015625
141
12.0
290
     0
  0
SCALE
  5
4F
102
{ACAD_REACTORS
330
3B
102
}
330
3B
100
AcDbScale
 70
     0
300
1/32" = 1'-0"
140
0.03125
141
12.0
290
     0
  0
SCALE
  5
50
102
{ACAD_REACTORS
330
3B
102
}
330
3B
100
AcDbScale
 70
     0
300
1/16" = 1'-0"
140
0.0625
141
12.0
290
     0
  0
SCALE
  5
51
102
{ACAD_REACTORS
330
3B
102
}
330
3B
100
AcDbScale
 70
     0
300
3/32" = 1'-0"
140
0.09375
141
12.0
290
     0
  0
SCALE
  5
52
102
{ACAD_REACTORS
330
3B
102
}
330
3B
100
AcDbScale
 70
     0
300
1/8" = 1'-0"
140
0.125
141
12.0
290
     0
  0
SCALE
  5
53
102
{ACAD_REACTORS
330
3B
102
}
330
3B
100
AcDbScale
 70
     0
300
3/16" = 1'-0"
140
0.1875
141
12.0
290
     0
  0
SCALE
  5
54
102
{ACAD_REACTORS
330
3B
102
}
330
3B
100
AcDbScale
 70
     0
300
1/4" = 1'-0"
140
0.25
141
12.0
290
     0
  0
SCALE
  5
55
102
{ACAD_REACTORS
330
3B
102
}
330
3B
100
AcDbScale
 70
     0
300
3/8" = 1'-0"
140
0.375
141
12.0
290
     0
  0
SCALE
  5
56
102
{ACAD_REACTORS
330
3B
102
}
330
3B
100
AcDbScale
 70
     0
300
1/2" = 1'-0"
140
0.5
141
12.0
290
     0
  0
SCALE
  5
57
102
{ACAD_REACTORS
330
3B
102
}
330
3B
100
AcDbScale
 70
     0
300
3/4" = 1'-0"
140
0.75
141
12.0
290
     0
  0
SCALE
  5
58
102
{ACAD_REACTORS
330
3B
102
}
330
3B
100
AcDbScale
 70
     0
300
1" = 1'-0"
140
1.0
141
12.0
290
     0
  0
SCALE
  5
59
102
{ACAD_REACTORS
330
3B
102
}
330
3B
100
AcDbScale
 70
     0
300
1-1/2" = 1'-0"
140
1.5
141
12.0
290
     0
  0
SCALE
  5
5A
102
{ACAD_REACTORS
330
3B
102
}
330
3B
100
AcDbScale
 70
     0
300
3" = 1'-0"
140
3.0
141
12.0
290
     0
  0
SCALE
  5
5B
102
{ACAD_REACTORS
330
3B
102
}
330
3B
100
AcDbScale
 70
     0
300
6" = 1'-0"
140
6.0
141
12.0
290
     0
  0
SCALE
  5
5C
102
{ACAD_REACTORS
330
3B
102
}
330
3B
100
AcDbScale
 70
     0
300
1'-0" = 1'-0"
140
12.0
141
12.0
290
     0
  0
VISUALSTYLE
  5
2F
102
{ACAD_REACTORS
330
2A
102
}
330
2A
100
AcDbVisualStyle
  2
2dWireframe
 70
     4
 71
     0
 72
     2
 73
     0
 90
        0
 40
-0.6
 41
-30.0
 62
     5
 63
     7
 74
     1
 91
        4
 64
     7
 65
   257
 75
     1
175
     1
 42
1.0
 92
        0
 66
   257
 43
1.0
 76
     1
 77
     6
 78
     2
 67
     7
 79
     5
170
     0
171
     0
290
     0
174
     0
 93
        1
 44
0.0
173
     0
291
     0
 45
0.0
1001
ACAD
1000
AcDbSavedByObjectVersion
1070
     0
  0
VISUALSTYLE
  5
31
102
{ACAD_REACTORS
330
2A
102
}
330
2A
100
AcDbVisualStyle
  2
3D Hidden
 70
     6
 71
     1
 72
     2
 73
     2
 90
        0
 40
-0.6
 41
-30.0
 62
     5
 63
     7
 74
     2
 91
        2
 64
     7
 65
   257
 75
     2
175
     1
 42
40.0
 92
        0
 66
   257
 43
1.0
 76
     1
 77
     6
 78
     2
 67
     7
 79
     3
170
     0
171
     0
290
     0
174
     0
 93
        1
 44
0.0
173
     0
291
     0
 45
0.0
1001
ACAD
1000
AcDbSavedByObjectVersion
1070
     0
  0
VISUALSTYLE
  5
30
102
{ACAD_REACTORS
330
2A
102
}
330
2A
100
AcDbVisualStyle
  2
3dWireframe
 70
     5
 71
     0
 72
     2
 73
     0
 90
        0
 40
-0.6
 41
-30.0
 62
     5
 63
     7
 74
     1
 91
        4
 64
     7
 65
   257
 75
     1
175
     1
 42
1.0
 92
        0
 66
   257
 43
1.0
 76
     1
 77
     6
 78
     2
 67
     7
 79
     5
170
     0
171
     0
290
     0
174
     0
 93
        1
 44
0.0
173
     0
291
     0
 45
0.0
1001
ACAD
1000
AcDbSavedByObjectVersion
1070
     0
  0
VISUALSTYLE
  5
32
102
{ACAD_REACTORS
330
2A
102
}
330
2A
100
AcDbVisualStyle
  2
Basic
 70
     7
 71
     1
 72
     0
 73
     1
 90
        0
 40
-0.6
 41
-30.0
 62
     5
 63
     7
 74
     0
 91
        4
 64
     7
 65
   257
 75
     1
175
     1
 42
1.0
 92
        8
 66
     7
 43
1.0
 76
     1
 77
     6
 78
     2
 67
     7
 79
     5
170
     0
171
     0
290
     0
174
     0
 93
        1
 44
0.0
173
     0
291
     1
 45
0.0
1001
ACAD
1000
AcDbSavedByObjectVersion
1070
     0
  0
VISUALSTYLE
  5
36
102
{ACAD_REACTORS
330
2A
102
}
330
2A
100
AcDbVisualStyle
  2
Brighten
 70
    12
 71
     2
 72
     2
 73
     0
 90
        0
 40
-0.6
 41
-30.0
 62
     5
 63
     7
 74
     1
 91
        4
 64
     7
 65
   257
 75
     1
175
     1
 42
1.0
 92
        8
 66
     7
 43
1.0
 76
     1
 77
     6
 78
     2
 67
     7
 79
     5
170
     0
171
     0
290
     0
174
     0
 93
        1
 44
50.0
173
     0
291
     1
 45
0.0
1001
ACAD
1000
AcDbSavedByObjectVersion
1070
     0
  0
VISUALSTYLE
  5
3A
102
{ACAD_REACTORS
330
2A
102
}
330
2A
100
AcDbVisualStyle
  2
ColorChange
 70
    16
 71
     2
 72
     2
 73
     3
 90
        0
 40
-0.6
 41
-30.0
 62
     5
 63
     8
 74
     1
 91
        4
 64
     7
 65
   257
 75
     1
175
     1
 42
1.0
 92
        8
 66
     8
 43
1.0
 76
     1
 77
     6
 78
     2
 67
     7
 79
     5
170
     0
171
     0
290
     0
174
     0
 93
        1
 44
0.0
173
     0
291
     1
 45
0.0
1001
ACAD
1000
AcDbSavedByObjectVersion
1070
     0
  0
VISUALSTYLE
  5
34
102
{ACAD_REACTORS
330
2A
102
}
330
2A
100
AcDbVisualStyle
  2
Conceptual
 70
     9
 71
     3
 72
     2
 73
     0
 90
        0
 40
-0.6
 41
-30.0
 62
     5
 63
     7
 74
     2
 91
        2
 64
     7
 65
   257
 75
     1
175
     1
 42
40.0
 92
        8
 66
     7
 43
1.0
 76
     1
 77
     6
 78
     2
 67
     7
 79
     3
170
     0
171
     0
290
     0
174
     0
 93
        1
 44
0.0
173
     0
291
     0
 45
0.0
1001
ACAD
1000
AcDbSavedByObjectVersion
1070
     0
  0
VISUALSTYLE
  5
35
102
{ACAD_REACTORS
330
2A
102
}
330
2A
100
AcDbVisualStyle
  2
Dim
 70
    11
 71
     2
 72
     2
 73
     0
 90
        0
 40
-0.6
 41
-30.0
 62
     5
 63
     7
 74
     1
 91
        4
 64
     7
 65
   257
 75
     1
175
     1
 42
1.0
 92
        8
 66
     7
 43
1.0
 76
     1
 77
     6
 78
     2
 67
     7
 79
     5
170
     0
171
     0
290
     0
174
     0
 93
        1
 44
-50.0
173
     0
291
     1
 45
0.0
1001
ACAD
1000
AcDbSavedByObjectVersion
1070
     0
  0
VISUALSTYLE
  5
39
102
{ACAD_REACTORS
330
2A
102
}
330
2A
100
AcDbVisualStyle
  2
Facepattern
 70
    15
 71
     2
 72
     2
 73
     0
 90
        0
 40
-0.6
 41
-30.0
 62
     5
 63
     7
 74
     1
 91
        4
 64
     7
 65
   257
 75
     1
175
     1
 42
1.0
 92
        8
 66
     7
 43
1.0
 76
     1
 77
     6
 78
     2
 67
     7
 79
     5
170
     0
171
     0
290
     0
174
     0
 93
        1
 44
0.0
173
     0
291
     1
 45
0.0
1001
ACAD
1000
AcDbSavedByObjectVersion
1070
     0
  0
VISUALSTYLE
  5
2B
102
{ACAD_REACTORS
330
2A
102
}
330
2A
100
AcDbVisualStyle
  2
Flat
 70
     0
 71
     2
 72
     1
 73
     1
 90
        2
 40
-0.6
 41
30.0
 62
     5
 63
     7
 74
     0
 91
        4
 64
     7
 65
   257
 75
     1
175
     1
 42
1.0
 92
        8
 66
     7
 43
1.0
 76
     1
 77
     6
 78
     2
 67
     7
 79
     5
170
     0
171
     0
290
     0
174
     0
 93
       13
 44
0.0
173
     0
291
     1
 45
0.0
1001
ACAD
1000
AcDbSavedByObjectVersion
1070
     0
  0
VISUALSTYLE
  5
2C
102
{ACAD_REACTORS
330
2A
102
}
330
2A
100
AcDbVisualStyle
  2
FlatWithEdges
 70
     1
 71
     2
 72
     1
 73
     1
 90
        2
 40
-0.6
 41
30.0
 62
     5
 63
     7
 74
     1
 91
        4
 64
     7
 65
   257
 75
     1
175
     1
 42
1.0
 92
        0
 66
   257
 43
1.0
 76
     1
 77
     6
 78
     2
 67
     7
 79
     5
170
     0
171
     0
290
     0
174
     0
 93
       13
 44
0.0
173
     0
291
     1
 45
0.0
1001
ACAD
1000
AcDbSavedByObjectVersion
1070
     0
  0
VISUALSTYLE
  5
2D
102
{ACAD_REACTORS
330
2A
102
}
330
2A
100
AcDbVisualStyle
  2
Gouraud
 70
     2
 71
     2
 72
     2
 73
     1
 90
        2
 40
-0.6
 41
30.0
 62
     5
 63
     7
 74
     0
 91
        4
 64
     7
 65
   257
 75
     1
175
     1
 42
1.0
 92
        0
 66
     7
 43
1.0
 76
     1
 77
     6
 78
     2
 67
     7
 79
     5
170
     0
171
     0
290
     0
174
     0
 93
       13
 44
0.0
173
     0
291
     1
 45
0.0
1001
ACAD
1000
AcDbSavedByObjectVersion
1070
     0
  0
VISUALSTYLE
  5
2E
102
{ACAD_REACTORS
330
2A
102
}
330
2A
100
AcDbVisualStyle
  2
GouraudWithEdges
 70
     3
 71
     2
 72
     2
 73
     1
 90
        2
 40
-0.6
 41
30.0
 62
     5
 63
     7
 74
     1
 91
        4
 64
     7
 65
   257
 75
     1
175
     1
 42
1.0
 92
        0
 66
   257
 43
1.0
 76
     1
 77
     6
 78
     2
 67
     7
 79
     5
170
     0
171
     0
290
     0
174
     0
 93
       13
 44
0.0
173
     0
291
     1
 45
0.0
1001
ACAD
1000
AcDbSavedByObjectVersion
1070
     0
  0
VISUALSTYLE
  5
38
102
{ACAD_REACTORS
330
2A
102
}
330
2A
100
AcDbVisualStyle
  2
Linepattern
 70
    14
 71
     2
 72
     2
 73
     0
 90
        0
 40
-0.6
 41
-30.0
 62
     5
 63
     7
 74
     1
 91
        4
 64
     7
 65
   257
 75
     7
175
     7
 42
1.0
 92
        8
 66
     7
 43
1.0
 76
     1
 77
     6
 78
     2
 67
     7
 79
     5
170
     0
171
     0
290
     0
174
     0
 93
        1
 44
0.0
173
     0
291
     1
 45
0.0
1001
ACAD
1000
AcDbSavedByObjectVersion
1070
     0
  0
VISUALSTYLE
  5
33
102
{ACAD_REACTORS
330
2A
102
}
330
2A
100
AcDbVisualStyle
  2
Realistic
 70
     8
 71
     2
 72
     2
 73
     0
 90
        0
 40
-0.6
 41
-30.0
 62
     5
 63
     7
 74
     1
 91
        0
 64
     7
 65
   257
 75
     1
175
     1
 42
1.0
 92
        8
 66
     8
 43
1.0
 76
     1
 77
     6
 78
     2
 67
     7
 79
     5
170
     0
171
     0
290
     0
174
     0
 93
       13
 44
0.0
173
     0
291
     0
 45
0.0
1001
ACAD
1000
AcDbSavedByObjectVersion
1070
     0
  0
VISUALSTYLE
  5
37
102
{ACAD_REACTORS
330
2A
102
}
330
2A
100
AcDbVisualStyle
  2
Thicken
 70
    13
 71
     2
 72
     2
 73
     0
 90
        0
 40
-0.6
 41
-30.0
 62
     5
 63
     7
 74
     1
 91
        4
 64
     7
 65
   257
 75
     1
175
     1
 42
1.0
 92
       12
 66
     7
 43
1.0
 76
     1
 77
     6
 78
     2
 67
     7
 79
     5
170
     0
171
     0
290
     0
174
     0
 93
        1
 44
0.0
173
     0
291
     1
 45
0.0
1001
ACAD
1000
AcDbSavedByObjectVersion
1070
     0
  0
DICTIONARYVAR
  5
1D5
102
{ACAD_REACTORS
330
1D4
102
}
330
1D4
100
DictionaryVariables
280
     0
  1
1:1
  0
DICTIONARYVAR
  5
1D9
102
{ACAD_REACTORS
330
1D4
102
}
330
1D4
100
DictionaryVariables
280
     0
  1
80.000000
  0
DICTIONARYVAR
  5
1D8
102
{ACAD_REACTORS
330
1D4
102
}
330
1D4
100
DictionaryVariables
280
     0
  1
5.000000
  0
ENDSEC
  0
EOF
