  0
SECTION
  2
HEADER
  9
$ACADVER
  1
AC1015
  9
$ACADMAINTVER
 70
     6
  9
$DWGCODEPAGE
  3
ANSI_1252
  9
$INSBASE
 10
0.0
 20
0.0
 30
0.0
  9
$EXTMIN
 10
0.0
 20
0.0
 30
0.0
  9
$EXTMAX
 10
1682.0
 20
2378.0
 30
0.0
  9
$LIMMIN
 10
0.0
 20
0.0
  9
$LIMMAX
 10
1682.0
 20
2378.0
  9
$ORTHOMODE
 70
     0
  9
$REGENMODE
 70
     1
  9
$FILLMODE
 70
     1
  9
$QTEXTMODE
 70
     0
  9
$MIRRTEXT
 70
     1
  9
$LTSCALE
 40
1.0
  9
$ATTMODE
 70
     1
  9
$TEXTSIZE
 40
2.5
  9
$TRACEWID
 40
1.0
  9
$TEXTSTYLE
  7
Standard
  9
$CLAYER
  8
0
  9
$CELTYPE
  6
ByLayer
  9
$CECOLOR
 62
   256
  9
$CELTSCALE
 40
1.0
  9
$DISPSILH
 70
     0
  9
$DIMSCALE
 40
1.0
  9
$DIMASZ
 40
2.5
  9
$DIMEXO
 40
0.625
  9
$DIMDLI
 40
3.75
  9
$DIMRND
 40
0.0
  9
$DIMDLE
 40
0.0
  9
$DIMEXE
 40
1.25
  9
$DIMTP
 40
0.0
  9
$DIMTM
 40
0.0
  9
$DIMTXT
 40
2.5
  9
$DIMCEN
 40
2.5
  9
$DIMTSZ
 40
0.0
  9
$DIMTOL
 70
     0
  9
$DIMLIM
 70
     0
  9
$DIMTIH
 70
     0
  9
$DIMTOH
 70
     0
  9
$DIMSE1
 70
     0
  9
$DIMSE2
 70
     0
  9
$DIMTAD
 70
     1
  9
$DIMZIN
 70
     8
  9
$DIMBLK
  1

  9
$DIMASO
 70
     1
  9
$DIMSHO
 70
     1
  9
$DIMPOST
  1

  9
$DIMAPOST
  1

  9
$DIMALT
 70
     0
  9
$DIMALTD
 70
     3
  9
$DIMALTF
 40
0.0393700787
  9
$DIMLFAC
 40
1.0
  9
$DIMTOFL
 70
     1
  9
$DIMTVP
 40
0.0
  9
$DIMTIX
 70
     0
  9
$DIMSOXD
 70
     0
  9
$DIMSAH
 70
     0
  9
$DIMBLK1
  1

  9
$DIMBLK2
  1

  9
$DIMSTYLE
  2
ISO-25
  9
$DIMCLRD
 70
     0
  9
$DIMCLRE
 70
     0
  9
$DIMCLRT
 70
     0
  9
$DIMTFAC
 40
1.0
  9
$DIMGAP
 40
0.625
  9
$DIMJUST
 70
     0
  9
$DIMSD1
 70
     0
  9
$DIMSD2
 70
     0
  9
$DIMTOLJ
 70
     0
  9
$DIMTZIN
 70
     8
  9
$DIMALTZ
 70
     0
  9
$DIMALTTZ
 70
     0
  9
$DIMUPT
 70
     0
  9
$DIMDEC
 70
     2
  9
$DIMTDEC
 70
     2
  9
$DIMALTU
 70
     2
  9
$DIMALTTD
 70
     3
  9
$DIMTXSTY
  7
Standard
  9
$DIMAUNIT
 70
     0
  9
$DIMADEC
 70
     0
  9
$DIMALTRND
 40
0.0
  9
$DIMAZIN
 70
     0
  9
$DIMDSEP
 70
    44
  9
$DIMATFIT
 70
     3
  9
$DIMFRAC
 70
     0
  9
$DIMLDRBLK
  1

  9
$DIMLUNIT
 70
     2
  9
$DIMLWD
 70
    -2
  9
$DIMLWE
 70
    -2
  9
$DIMTMOVE
 70
     0
  9
$LUNITS
 70
     2
  9
$LUPREC
 70
     4
  9
$SKETCHINC
 40
1.0
  9
$FILLETRAD
 40
10.0
  9
$AUNITS
 70
     0
  9
$AUPREC
 70
     0
  9
$MENU
  1
.
  9
$ELEVATION
 40
0.0
  9
$PELEVATION
 40
0.0
  9
$THICKNESS
 40
0.0
  9
$LIMCHECK
 70
     0
  9
$CHAMFERA
 40
10.0
  9
$CHAMFERB
 40
10.0
  9
$CHAMFERC
 40
20.0
  9
$CHAMFERD
 40
0.0
  9
$SKPOLY
 70
     0
  9
$TDCREATE
 40
2455545.653520104
  9
$TDUCREATE
 40
2455545.611853437
  9
$TDUPDATE
 40
2455545.653520116
  9
$TDUUPDATE
 40
2455545.611853449
  9
$TDINDWG
 40
0.0000000116
  9
$TDUSRTIMER
 40
0.0000000116
  9
$USRTIMER
 70
     1
  9
$ANGBASE
 50
0.0
  9
$ANGDIR
 70
     0
  9
$PDMODE
 70
     0
  9
$PDSIZE
 40
0.0
  9
$PLINEWID
 40
0.0
  9
$SPLFRAME
 70
     0
  9
$SPLINETYPE
 70
     6
  9
$SPLINESEGS
 70
     8
  9
$HANDSEED
  5
1F0
  9
$SURFTAB1
 70
     6
  9
$SURFTAB2
 70
     6
  9
$SURFTYPE
 70
     6
  9
$SURFU
 70
     6
  9
$SURFV
 70
     6
  9
$UCSBASE
  2

  9
$UCSNAME
  2

  9
$UCSORG
 10
0.0
 20
0.0
 30
0.0
  9
$UCSXDIR
 10
1.0
 20
0.0
 30
0.0
  9
$UCSYDIR
 10
0.0
 20
1.0
 30
0.0
  9
$UCSORTHOREF
  2

  9
$UCSORTHOVIEW
 70
     0
  9
$UCSORGTOP
 10
0.0
 20
0.0
 30
0.0
  9
$UCSORGBOTTOM
 10
0.0
 20
0.0
 30
0.0
  9
$UCSORGLEFT
 10
0.0
 20
0.0
 30
0.0
  9
$UCSORGRIGHT
 10
0.0
 20
0.0
 30
0.0
  9
$UCSORGFRONT
 10
0.0
 20
0.0
 30
0.0
  9
$UCSORGBACK
 10
0.0
 20
0.0
 30
0.0
  9
$PUCSBASE
  2

  9
$PUCSNAME
  2

  9
$PUCSORG
 10
0.0
 20
0.0
 30
0.0
  9
$PUCSXDIR
 10
1.0
 20
0.0
 30
0.0
  9
$PUCSYDIR
 10
0.0
 20
1.0
 30
0.0
  9
$PUCSORTHOREF
  2

  9
$PUCSORTHOVIEW
 70
     0
  9
$PUCSORGTOP
 10
0.0
 20
0.0
 30
0.0
  9
$PUCSORGBOTTOM
 10
0.0
 20
0.0
 30
0.0
  9
$PUCSORGLEFT
 10
0.0
 20
0.0
 30
0.0
  9
$PUCSORGRIGHT
 10
0.0
 20
0.0
 30
0.0
  9
$PUCSORGFRONT
 10
0.0
 20
0.0
 30
0.0
  9
$PUCSORGBACK
 10
0.0
 20
0.0
 30
0.0
  9
$USERI1
 70
     0
  9
$USERI2
 70
     0
  9
$USERI3
 70
     0
  9
$USERI4
 70
     0
  9
$USERI5
 70
     0
  9
$USERR1
 40
0.0
  9
$USERR2
 40
0.0
  9
$USERR3
 40
0.0
  9
$USERR4
 40
0.0
  9
$USERR5
 40
0.0
  9
$WORLDVIEW
 70
     1
  9
$SHADEDGE
 70
     3
  9
$SHADEDIF
 70
    70
  9
$TILEMODE
 70
     1
  9
$MAXACTVP
 70
    64
  9
$PINSBASE
 10
0.0
 20
0.0
 30
0.0
  9
$PLIMCHECK
 70
     0
  9
$PEXTMIN
 10
0.0
 20
0.0
 30
0.0
  9
$PEXTMAX
 10
1682.0
 20
2378.0
 30
0.0
  9
$PLIMMIN
 10
0.0
 20
0.0
  9
$PLIMMAX
 10
1682.0
 20
2378.0
  9
$UNITMODE
 70
     0
  9
$VISRETAIN
 70
     1
  9
$PLINEGEN
 70
     0
  9
$PSLTSCALE
 70
     1
  9
$TREEDEPTH
 70
  3020
  9
$CMLSTYLE
  2
Standard
  9
$CMLJUST
 70
     0
  9
$CMLSCALE
 40
20.0
  9
$PROXYGRAPHICS
 70
     1
  9
$MEASUREMENT
 70
     1
  9
$CELWEIGHT
370
    -1
  9
$ENDCAPS
280
     0
  9
$JOINSTYLE
280
     0
  9
$LWDISPLAY
290
     0
  9
$INSUNITS
 70
     4
  9
$HYPERLINKBASE
  1

  9
$STYLESHEET
  1

  9
$XEDIT
290
     1
  9
$CEPSNTYPE
380
     0
  9
$PSTYLEMODE
290
     1
  9
$FINGERPRINTGUID
  2
{2C0358E8-2FE9-4CB0-A542-5C43D0EC948B}
  9
$VERSIONGUID
  2
{FAEB1C32-E019-11D5-929B-00C0DF256EC4}
  9
$EXTNAMES
290
     1
  9
$PSVPSCALE
 40
0.0
  9
$OLESTARTUP
290
     0
  0
ENDSEC
  0
SECTION
  2
CLASSES
  0
CLASS
  1
ACDBDICTIONARYWDFLT
  2
AcDbDictionaryWithDefault
  3
ObjectDBX Classes
 90
        0
280
     0
281
     0
  0
CLASS
  1
VISUALSTYLE
  2
AcDbVisualStyle
  3
ObjectDBX Classes
 90
     4095
280
     0
281
     0
  0
CLASS
  1
SCALE
  2
AcDbScale
  3
ObjectDBX Classes
 90
     1153
280
     0
281
     0
  0
CLASS
  1
DICTIONARYVAR
  2
AcDbDictionaryVar
  3
ObjectDBX Classes
 90
        0
280
     0
281
     0
  0
CLASS
  1
ACDBPLACEHOLDER
  2
AcDbPlaceHolder
  3
ObjectDBX Classes
 90
        0
280
     0
281
     0
  0
CLASS
  1
LAYOUT
  2
AcDbLayout
  3
ObjectDBX Classes
 90
        0
280
     0
281
     0
  0
ENDSEC
  0
SECTION
  2
TABLES
  0
TABLE
  2
VPORT
  5
8
330
0
100
AcDbSymbolTable
 70
     1
  0
VPORT
  5
29
330
8
100
AcDbSymbolTableRecord
100
AcDbViewportTableRecord
  2
*Active
 70
     0
 10
0.0
 20
0.0
 11
1.0
 21
1.0
 12
344.1869158879
 22
148.5
 13
0.0
 23
0.0
 14
10.0
 24
10.0
 15
10.0
 25
10.0
 16
0.0
 26
0.0
 36
1.0
 17
0.0
 27
0.0
 37
0.0
 40
297.0
 41
1.9729729729
 42
50.0
 43
0.0
 44
0.0
 50
0.0
 51
0.0
 71
     0
 72
   100
 73
     1
 74
     3
 75
     0
 76
     0
 77
     0
 78
     0
281
     0
 65
     1
110
0.0
120
0.0
130
0.0
111
1.0
121
0.0
131
0.0
112
0.0
122
1.0
132
0.0
 79
     0
146
0.0
  0
ENDTAB
  0
TABLE
  2
LTYPE
  5
5
330
0
100
AcDbSymbolTable
 70
     2
  0
LTYPE
  5
14
330
5
100
AcDbSymbolTableRecord
100
AcDbLinetypeTableRecord
  2
ByBlock
 70
     0
  3

 72
    65
 73
     0
 40
0.0
  0
LTYPE
  5
15
330
5
100
AcDbSymbolTableRecord
100
AcDbLinetypeTableRecord
  2
ByLayer
 70
     0
  3

 72
    65
 73
     0
 40
0.0
  0
LTYPE
  5
16
330
5
100
AcDbSymbolTableRecord
100
AcDbLinetypeTableRecord
  2
Continuous
 70
     0
  3
Solid line
 72
    65
 73
     0
 40
0.0
  0
LTYPE
  5
60
330
5
100
AcDbSymbolTableRecord
100
AcDbLinetypeTableRecord
  2
CENTER2
 70
     0
  3
Center (.5x) ___ _ ___ _ ___ _ ___ _ ___ _ ___
 72
    65
 73
     4
 40
28.575
 49
19.05
 74
     4
 75
     0
340
0
 46
0.0
 50
0.0
 44
0.0
 45
0.0
 49
-3.175
 74
     4
 75
     0
340
0
 46
0.0
 50
0.0
 44
0.0
 45
0.0
 49
3.175
 74
     4
 75
     0
340
0
 46
0.0
 50
0.0
 44
0.0
 45
0.0
 49
-3.175
 74
     4
 75
     0
340
0
 46
0.0
 50
0.0
 44
0.0
 45
0.0
  0
ENDTAB
  0
TABLE
  2
LAYER
  5
2
330
0
100
AcDbSymbolTable
 70
     8
  0
LAYER
  5
10
330
2
100
AcDbSymbolTableRecord
100
AcDbLayerTableRecord
  2
0
 70
     0
 62
     7
  6
Continuous
370
    -3
390
F
  0
LAYER
  5
5D
330
2
100
AcDbSymbolTableRecord
100
AcDbLayerTableRecord
  2
Default
 70
     0
 62
     7
  6
Continuous
370
    -3
390
F
  0
LAYER
  5
87
330
2
100
AcDbSymbolTableRecord
100
AcDbLayerTableRecord
  2
14086500_ESC_-_A
 70
     0
 62
     7
  6
Continuous
370
    -3
390
F
  0
LAYER
  5
B5
330
2
100
AcDbSymbolTableRecord
100
AcDbLayerTableRecord
  2
T14085010__SLEEV
 70
     0
 62
     7
  6
Continuous
370
    -3
390
F
  0
LAYER
  5
BA
330
2
100
AcDbSymbolTableRecord
100
AcDbLayerTableRecord
  2
14086600_KENSING
 70
     0
 62
     7
  6
Continuous
370
    -3
390
F
  0
LAYER
  5
BD
330
2
100
AcDbSymbolTableRecord
100
AcDbLayerTableRecord
  2
12086000_CAP_-_P
 70
     0
 62
     7
  6
Continuous
370
    -3
390
F
  0
LAYER
  5
D1
330
2
100
AcDbSymbolTableRecord
100
AcDbLayerTableRecord
  2
T14085030__TOWEL
 70
     0
 62
     7
  6
Continuous
370
    -3
390
F
  0
LAYER
  5
146
330
2
100
AcDbSymbolTableRecord
100
AcDbLayerTableRecord
  2
T02083008_49437_
 70
     0
 62
     7
  6
Continuous
370
    -3
390
F
  0
ENDTAB
  0
TABLE
  2
STYLE
  5
3
330
0
100
AcDbSymbolTable
 70
     2
  0
STYLE
  5
11
330
3
100
AcDbSymbolTableRecord
100
AcDbTextStyleTableRecord
  2
Standard
 70
     0
 40
0.0
 41
1.0
 50
0.0
 71
     0
 42
2.5
  3
txt
  4

  0
STYLE
  5
1DF
330
3
100
AcDbSymbolTableRecord
100
AcDbTextStyleTableRecord
  2
SEACAD_seiso_ttf
 70
     0
 40
0.0
 41
1.0
 50
0.0
 71
     0
 42
0.2
  3
seiso.ttf
  4

  0
ENDTAB
  0
TABLE
  2
VIEW
  5
6
330
0
100
AcDbSymbolTable
 70
     0
  0
ENDTAB
  0
TABLE
  2
UCS
  5
7
330
0
100
AcDbSymbolTable
 70
     0
  0
ENDTAB
  0
TABLE
  2
APPID
  5
9
330
0
100
AcDbSymbolTable
 70
     1
  0
APPID
  5
12
330
9
100
AcDbSymbolTableRecord
100
AcDbRegAppTableRecord
  2
ACAD
 70
     0
  0
ENDTAB
  0
TABLE
  2
DIMSTYLE
  5
A
330
0
100
AcDbSymbolTable
 70
     1
100
AcDbDimStyleTable
  0
DIMSTYLE
105
27
330
A
100
AcDbSymbolTableRecord
100
AcDbDimStyleTableRecord
  2
ISO-25
 70
     0
 41
2.5
 42
0.625
 43
3.75
 44
1.25
 73
     0
 74
     0
 77
     1
 78
     8
140
2.5
141
2.5
143
0.0393700787
147
0.625
171
     3
172
     1
271
     2
272
     2
274
     3
278
    44
283
     0
284
     8
340
11
  0
ENDTAB
  0
TABLE
  2
BLOCK_RECORD
  5
1
330
0
100
AcDbSymbolTable
 70
     9
  0
BLOCK_RECORD
  5
1F
330
1
100
AcDbSymbolTableRecord
100
AcDbBlockTableRecord
  2
*Model_Space
340
22
  0
BLOCK_RECORD
  5
1B
330
1
100
AcDbSymbolTableRecord
100
AcDbBlockTableRecord
  2
*Paper_Space
340
1E
  0
BLOCK_RECORD
  5
5E
330
1
100
AcDbSymbolTableRecord
100
AcDbBlockTableRecord
  2
SEANNOT_GROUP
340
0
102
{BLKREFS
331
5F
102
}
  0
BLOCK_RECORD
  5
69
330
1
100
AcDbSymbolTableRecord
100
AcDbBlockTableRecord
  2
SEANNOT_GROUP1
340
0
102
{BLKREFS
331
6A
102
}
  0
BLOCK_RECORD
  5
6F
330
1
100
AcDbSymbolTableRecord
100
AcDbBlockTableRecord
  2
SEANNOT_GROUP2
340
0
102
{BLKREFS
331
70
102
}
  0
BLOCK_RECORD
  5
75
330
1
100
AcDbSymbolTableRecord
100
AcDbBlockTableRecord
  2
SEANNOT_GROUP3
340
0
102
{BLKREFS
331
76
102
}
  0
BLOCK_RECORD
  5
7F
330
1
100
AcDbSymbolTableRecord
100
AcDbBlockTableRecord
  2
SEANNOT_GROUP4
340
0
102
{BLKREFS
331
80
102
}
  0
BLOCK_RECORD
  5
85
330
1
100
AcDbSymbolTableRecord
100
AcDbBlockTableRecord
  2
SE
340
0
102
{BLKREFS
331
86
102
}
  0
BLOCK_RECORD
  5
11C
330
1
100
AcDbSymbolTableRecord
100
AcDbBlockTableRecord
  2
SE1
340
0
102
{BLKREFS
331
11D
102
}
  0
BLOCK_RECORD
  5
1A4
330
1
100
AcDbSymbolTableRecord
100
AcDbBlockTableRecord
  2
SE2
340
0
102
{BLKREFS
331
1A5
102
}
  0
ENDTAB
  0
ENDSEC
  0
SECTION
  2
BLOCKS
  0
BLOCK
  5
20
330
1F
100
AcDbEntity
  8
0
100
AcDbBlockBegin
  2
*Model_Space
 70
     0
 10
0.0
 20
0.0
 30
0.0
  3
*Model_Space
  1

  0
ENDBLK
  5
21
330
1F
100
AcDbEntity
  8
0
100
AcDbBlockEnd
  0
BLOCK
  5
1C
330
1B
100
AcDbEntity
 67
     1
  8
0
100
AcDbBlockBegin
  2
*Paper_Space
 70
     0
 10
0.0
 20
0.0
 30
0.0
  3
*Paper_Space
  1

  0
ENDBLK
  5
1D
330
1B
100
AcDbEntity
 67
     1
  8
0
100
AcDbBlockEnd
  0
BLOCK
  5
67
330
5E
100
AcDbEntity
  8
0
100
AcDbBlockBegin
  2
SEANNOT_GROUP
 70
     0
 10
0.0
 20
0.0
 30
0.0
  3
SEANNOT_GROUP
  1

  0
LINE
  5
61
330
5E
100
AcDbEntity
  8
Default
  6
CENTER2
 62
     7
100
AcDbLine
 10
166.5314164783
 20
792.7201180423
 30
0.0
 11
126.5314173724
 21
792.7201180423
 31
0.0
  0
LINE
  5
62
330
5E
100
AcDbEntity
  8
Default
  6
CENTER2
 62
     7
100
AcDbLine
 10
146.5314169253
 20
812.7201175952
 30
0.0
 11
146.5314169253
 21
772.7201184893
 31
0.0
  0
LINE
  5
63
330
5E
100
AcDbEntity
  8
Default
  6
CENTER2
 62
     7
100
AcDbLine
 10
171.5314163665
 20
792.7201180423
 30
0.0
 11
163.8665633909
 21
792.7201180423
 31
0.0
  0
LINE
  5
64
330
5E
100
AcDbEntity
  8
Default
  6
CENTER2
 62
     7
100
AcDbLine
 10
146.5314169253
 20
817.7201174835
 30
0.0
 11
146.5314169253
 21
810.0552645078
 31
0.0
  0
LINE
  5
65
330
5E
100
AcDbEntity
  8
Default
  6
CENTER2
 62
     7
100
AcDbLine
 10
121.5314174841
 20
792.7201180423
 30
0.0
 11
129.1962704598
 21
792.7201180423
 31
0.0
  0
LINE
  5
66
330
5E
100
AcDbEntity
  8
Default
  6
CENTER2
 62
     7
100
AcDbLine
 10
146.5314169253
 20
767.7201186011
 30
0.0
 11
146.5314169253
 21
775.3849715767
 31
0.0
  0
ENDBLK
  5
68
330
5E
100
AcDbEntity
  8
0
100
AcDbBlockEnd
  0
BLOCK
  5
6D
330
69
100
AcDbEntity
  8
0
100
AcDbBlockBegin
  2
SEANNOT_GROUP1
 70
     0
 10
0.0
 20
0.0
 30
0.0
  3
SEANNOT_GROUP1
  1

  0
LINE
  5
6B
330
69
100
AcDbEntity
  8
Default
  6
CENTER2
 62
     7
100
AcDbLine
 10
249.2846835648
 20
792.7201180423
 30
0.0
 11
209.2846844589
 21
792.7201180423
 31
0.0
  0
LINE
  5
6C
330
69
100
AcDbEntity
  8
Default
  6
CENTER2
 62
     7
100
AcDbLine
 10
229.2846840118
 20
812.7201175952
 30
0.0
 11
229.2846840118
 21
772.7201184893
 31
0.0
  0
ENDBLK
  5
6E
330
69
100
AcDbEntity
  8
0
100
AcDbBlockEnd
  0
BLOCK
  5
73
330
6F
100
AcDbEntity
  8
0
100
AcDbBlockBegin
  2
SEANNOT_GROUP2
 70
     0
 10
0.0
 20
0.0
 30
0.0
  3
SEANNOT_GROUP2
  1

  0
LINE
  5
71
330
6F
100
AcDbEntity
  8
Default
  6
CENTER2
 62
     7
100
AcDbLine
 10
249.2846835648
 20
171.2201180423
 30
0.0
 11
209.2846844589
 21
171.2201180423
 31
0.0
  0
LINE
  5
72
330
6F
100
AcDbEntity
  8
Default
  6
CENTER2
 62
     7
100
AcDbLine
 10
229.2846840118
 20
191.2201175952
 30
0.0
 11
229.2846840118
 21
151.2201184893
 31
0.0
  0
ENDBLK
  5
74
330
6F
100
AcDbEntity
  8
0
100
AcDbBlockEnd
  0
BLOCK
  5
7D
330
75
100
AcDbEntity
  8
0
100
AcDbBlockBegin
  2
SEANNOT_GROUP3
 70
     0
 10
0.0
 20
0.0
 30
0.0
  3
SEANNOT_GROUP3
  1

  0
LINE
  5
77
330
75
100
AcDbEntity
  8
Default
  6
CENTER2
 62
     7
100
AcDbLine
 10
166.5314164783
 20
171.2201180423
 30
0.0
 11
126.5314173724
 21
171.2201180423
 31
0.0
  0
LINE
  5
78
330
75
100
AcDbEntity
  8
Default
  6
CENTER2
 62
     7
100
AcDbLine
 10
146.5314169253
 20
191.2201175952
 30
0.0
 11
146.5314169253
 21
151.2201184893
 31
0.0
  0
LINE
  5
79
330
75
100
AcDbEntity
  8
Default
  6
CENTER2
 62
     7
100
AcDbLine
 10
171.5314163665
 20
171.2201180423
 30
0.0
 11
167.9814169253
 21
171.2201180423
 31
0.0
  0
LINE
  5
7A
330
75
100
AcDbEntity
  8
Default
  6
CENTER2
 62
     7
100
AcDbLine
 10
146.5314169253
 20
196.2201174835
 30
0.0
 11
146.5314169253
 21
192.6701180423
 31
0.0
  0
LINE
  5
7B
330
75
100
AcDbEntity
  8
Default
  6
CENTER2
 62
     7
100
AcDbLine
 10
121.5314174841
 20
171.2201180423
 30
0.0
 11
125.0814169253
 21
171.2201180423
 31
0.0
  0
LINE
  5
7C
330
75
100
AcDbEntity
  8
Default
  6
CENTER2
 62
     7
100
AcDbLine
 10
146.5314169253
 20
146.2201186011
 30
0.0
 11
146.5314169253
 21
149.7701180423
 31
0.0
  0
ENDBLK
  5
7E
330
75
100
AcDbEntity
  8
0
100
AcDbBlockEnd
  0
BLOCK
  5
83
330
7F
100
AcDbEntity
  8
0
100
AcDbBlockBegin
  2
SEANNOT_GROUP4
 70
     0
 10
0.0
 20
0.0
 30
0.0
  3
SEANNOT_GROUP4
  1

  0
LINE
  5
81
330
7F
100
AcDbEntity
  8
Default
  6
CENTER2
 62
     7
100
AcDbLine
 10
166.5314164783
 20
105.7688962436
 30
0.0
 11
126.5314173724
 21
105.7688962436
 31
0.0
  0
LINE
  5
82
330
7F
100
AcDbEntity
  8
Default
  6
CENTER2
 62
     7
100
AcDbLine
 10
146.5314169253
 20
125.7688957965
 30
0.0
 11
146.5314169253
 21
85.7688966906
 31
0.0
  0
ENDBLK
  5
84
330
7F
100
AcDbEntity
  8
0
100
AcDbBlockEnd
  0
BLOCK
  5
11A
330
85
100
AcDbEntity
  8
0
100
AcDbBlockBegin
  2
SE
 70
     0
 10
0.0
 20
0.0
 30
0.0
  3
SE
  1

  0
ELLIPSE
  5
88
330
85
100
AcDbEntity
  8
14086500_ESC_-_A
  6
Continuous
 62
     7
100
AcDbEllipse
 10
123.3452909076
 20
798.9328217843
 30
0.0
 11
0.4880358840482386
 21
-0.1087243113624403
 31
0.0
210
0.0
220
0.0
230
0.9999999999999997
 40
0.2681301623
 41
3.141592653589392
 42
3.277601957343508
  0
ELLIPSE
  5
89
330
85
100
AcDbEntity
  8
14086500_ESC_-_A
  6
Continuous
 62
     7
100
AcDbEllipse
 10
123.3452909076
 20
786.5074143002
 30
0.0
 11
0.4770136292346489
 21
0.1498599263459744
 31
0.0
210
0.0
220
0.0
230
0.9999999999999998
 40
0.2681301622
 41
3.141592653590257
 42
3.277669355761376
  0
ELLIPSE
  5
8A
330
85
100
AcDbEntity
  8
14086500_ESC_-_A
  6
Continuous
 62
     7
100
AcDbEllipse
 10
123.3452909076
 20
786.5074143002
 30
0.0
 11
0.4880358840176693
 21
0.1087243114999414
 31
0.0
210
0.0
220
0.0
230
1.0
 40
0.2681301606
 41
3.004929925141671
 42
3.141592653589793
  0
ELLIPSE
  5
8B
330
85
100
AcDbEntity
  8
14086500_ESC_-_A
  6
Continuous
 62
     7
100
AcDbEllipse
 10
129.5579946497
 20
809.6935403179
 30
0.0
 11
0.3682893178630215
 21
-0.3381759576728816
 31
0.0
210
0.0
220
0.0
230
0.9999999999999999
 40
0.2681301623
 41
3.141592653589036
 42
3.277599202718044
  0
ELLIPSE
  5
8C
330
85
100
AcDbEntity
  8
14086500_ESC_-_A
  6
Continuous
 62
     7
100
AcDbEllipse
 10
129.5579946497
 20
809.6935403179
 30
0.0
 11
0.3381759577995407
 21
-0.3682893177466284
 31
0.0
210
0.0
220
0.0
230
1.0
 40
0.2681301606
 41
3.00976972719321
 42
3.141592653573485
  0
ELLIPSE
  5
8D
330
85
100
AcDbEntity
  8
14086500_ESC_-_A
  6
Continuous
 62
     7
100
AcDbEllipse
 10
129.5579946497
 20
775.7466957666
 30
0.0
 11
0.3381759576957278
 21
0.3682893178422186
 31
0.0
210
0.0
220
0.0
230
0.9999999999999998
 40
0.2681301622
 41
3.141592653589793
 42
3.277664272277229
  0
ELLIPSE
  5
8E
330
85
100
AcDbEntity
  8
14086500_ESC_-_A
  6
Continuous
 62
     7
100
AcDbEllipse
 10
129.5579946497
 20
775.7466957666
 30
0.0
 11
0.3682893177676879
 21
0.3381759577767429
 31
0.0
210
0.0
220
0.0
230
0.9999999999999999
 40
0.2681301606
 41
3.004930168817364
 42
3.141592653589793
  0
ELLIPSE
  5
8F
330
85
100
AcDbEntity
  8
14086500_ESC_-_A
  6
Continuous
 62
     7
100
AcDbEllipse
 10
140.3187131833
 20
815.90624406
 30
0.0
 11
0.1498599263753961
 21
-0.4770136292253091
 31
0.0
210
0.0
220
0.0
230
1.0
 40
0.2681301623
 41
3.141592653589793
 42
3.277577558486148
  0
ELLIPSE
  5
90
330
85
100
AcDbEntity
  8
14086500_ESC_-_A
  6
Continuous
 62
     7
100
AcDbEllipse
 10
140.3187131833
 20
815.90624406
 30
0.0
 11
0.1087243115301603
 21
-0.4880358840109733
 31
0.0
210
0.0
220
0.0
230
1.0
 40
0.2681301606
 41
3.004968983554553
 42
3.141592653589793
  0
ELLIPSE
  5
91
330
85
100
AcDbEntity
  8
14086500_ESC_-_A
  6
Continuous
 62
     7
100
AcDbEllipse
 10
152.7441206674
 20
815.90624406
 30
0.0
 11
-0.1087243113623362
 21
-0.4880358840481658
 31
0.0
210
0.0
220
0.0
230
1.0
 40
0.2681301623
 41
3.141592653589793
 42
3.277601957364964
  0
ELLIPSE
  5
92
330
85
100
AcDbEntity
  8
14086500_ESC_-_A
  6
Continuous
 62
     7
100
AcDbEllipse
 10
152.7441206674
 20
815.90624406
 30
0.0
 11
-0.1498599262113321
 21
-0.477013629276879
 31
0.0
210
0.0
220
0.0
230
1.0
 40
0.2681301606
 41
3.004969229636587
 42
3.141592653589793
  0
ELLIPSE
  5
93
330
85
100
AcDbEntity
  8
14086500_ESC_-_A
  6
Continuous
 62
     7
100
AcDbEllipse
 10
152.7441206674
 20
769.5339920246
 30
0.0
 11
-0.1498599263458477
 21
0.477013629234857
 31
0.0
210
0.0
220
0.0
230
1.0
 40
0.2681301622
 41
3.141592653589445
 42
3.277666637521519
  0
ELLIPSE
  5
94
330
85
100
AcDbEntity
  8
14086500_ESC_-_A
  6
Continuous
 62
     7
100
AcDbEllipse
 10
163.504839201
 20
809.6935403179
 30
0.0
 11
-0.3381759576729093
 21
-0.3682893178629798
 31
0.0
210
0.0
220
0.0
230
1.0
 40
0.2681301623
 41
3.141592653590154
 42
3.277604464297588
  0
ELLIPSE
  5
95
330
85
100
AcDbEntity
  8
14086500_ESC_-_A
  6
Continuous
 62
     7
100
AcDbEllipse
 10
163.504839201
 20
809.6935403179
 30
0.0
 11
-0.3682893177467083
 21
-0.3381759577996135
 31
0.0
210
0.0
220
0.0
230
0.9999999999999999
 40
0.2681301606
 41
3.009773806920026
 42
3.141592653589793
  0
ELLIPSE
  5
96
330
85
100
AcDbEntity
  8
14086500_ESC_-_A
  6
Continuous
 62
     7
100
AcDbEllipse
 10
163.504839201
 20
775.7466957666
 30
0.0
 11
-0.3682893178420972
 21
0.3381759576955856
 31
0.0
210
0.0
220
0.0
230
1.0
 40
0.2681301622
 41
3.141592653589651
 42
3.277669355760083
  0
ELLIPSE
  5
97
330
85
100
AcDbEntity
  8
14086500_ESC_-_A
  6
Continuous
 62
     7
100
AcDbEllipse
 10
163.504839201
 20
775.7466957666
 30
0.0
 11
-0.3381759577767533
 21
0.3682893177677226
 31
0.0
210
0.0
220
0.0
230
1.0
 40
0.2681301606
 41
3.00493247397849
 42
3.141592653589231
  0
ELLIPSE
  5
98
330
85
100
AcDbEntity
  8
14086500_ESC_-_A
  6
Continuous
 62
     7
100
AcDbEllipse
 10
169.7175429431
 20
798.9328217843
 30
0.0
 11
-0.4770136292253508
 21
-0.1498599263753398
 31
0.0
210
0.0
220
0.0
230
0.9999999999999999
 40
0.2681301623
 41
3.141592653589793
 42
3.277575515846164
  0
ELLIPSE
  5
99
330
85
100
AcDbEntity
  8
14086500_ESC_-_A
  6
Continuous
 62
     7
100
AcDbEllipse
 10
169.717542943
 20
798.9328217843
 30
0.0
 11
-0.4880358840108588
 21
-0.108724311530306
 31
0.0
210
0.0
220
0.0
230
1.0
 40
0.2681301606
 41
3.00496898355359
 42
3.141592653589793
  0
ELLIPSE
  5
9A
330
85
100
AcDbEntity
  8
14086500_ESC_-_A
  6
Continuous
 62
     7
100
AcDbEllipse
 10
169.717542943
 20
786.5074143002
 30
0.0
 11
-0.4880358840415322
 21
0.1087243113924719
 31
0.0
210
0.0
220
0.0
230
1.0
 40
0.2681301622
 41
3.141592653588694
 42
3.277666922381978
  0
ELLIPSE
  5
9B
330
85
100
AcDbEntity
  8
14086500_ESC_-_A
  6
Continuous
 62
     7
100
AcDbEllipse
 10
169.7175429431
 20
786.5074143002
 30
0.0
 11
-0.477013629267605
 21
0.1498599262410582
 31
0.0
210
0.0
220
0.0
230
1.0
 40
0.2681301606
 41
3.004930168817517
 42
3.141592653589793
  0
ARC
  5
9C
330
85
100
AcDbEntity
  8
14086500_ESC_-_A
  6
Continuous
 62
     7
100
AcDbCircle
 10
149.9845434129
 20
798.7011085637
 30
0.0
 40
31.2204308806039
100
AcDbArc
 50
251.6621337437
 51
251.7178380757
  0
ARC
  5
9D
330
85
100
AcDbEntity
  8
14086500_ESC_-_A
  6
Continuous
 62
     7
100
AcDbCircle
 10
149.9845434129
 20
798.7011085637
 30
0.0
 40
31.2204308806039
100
AcDbArc
 50
228.3374529922
 51
229.3720321206
  0
ARC
  5
9E
330
85
100
AcDbEntity
  8
14086500_ESC_-_A
  6
Continuous
 62
     7
100
AcDbCircle
 10
123.3452909076
 20
798.9328217843
 30
0.0
 40
0.5000000000000093
100
AcDbArc
 50
162.3608518936
 51
167.4407776132
  0
ARC
  5
9F
330
85
100
AcDbEntity
  8
14086500_ESC_-_A
  6
Continuous
 62
     7
100
AcDbCircle
 10
123.3452909076
 20
786.5074143002
 30
0.0
 40
0.4999999999999737
100
AcDbArc
 50
192.5592224064
 51
197.4407776096
  0
ARC
  5
A0
330
85
100
AcDbEntity
  8
14086500_ESC_-_A
  6
Continuous
 62
     7
100
AcDbCircle
 10
129.5579946497
 20
809.6935403179
 30
0.0
 40
0.4999999999988539
100
AcDbArc
 50
132.5592224094
 51
137.4407776132
  0
ARC
  5
A1
330
85
100
AcDbEntity
  8
14086500_ESC_-_A
  6
Continuous
 62
     7
100
AcDbCircle
 10
129.5579946497
 20
775.7466957666
 30
0.0
 40
0.5000000000000024
100
AcDbArc
 50
222.5592224063
 51
227.4407776096
  0
ARC
  5
A2
330
85
100
AcDbEntity
  8
14086500_ESC_-_A
  6
Continuous
 62
     7
100
AcDbCircle
 10
140.3187131833
 20
815.90624406
 30
0.0
 40
0.4999999999988208
100
AcDbArc
 50
102.5592224094
 51
107.4407776132
  0
ARC
  5
A3
330
85
100
AcDbEntity
  8
14086500_ESC_-_A
  6
Continuous
 62
     7
100
AcDbCircle
 10
140.3187131833
 20
769.5339920246
 30
0.0
 40
0.499999999999953
100
AcDbArc
 50
252.4124137808
 51
254.06226775
  0
ARC
  5
A4
330
85
100
AcDbEntity
  8
14086500_ESC_-_A
  6
Continuous
 62
     7
100
AcDbCircle
 10
152.7441206674
 20
815.90624406
 30
0.0
 40
0.5000000000000189
100
AcDbArc
 50
72.5592224065
 51
77.4407776098
  0
ARC
  5
A5
330
85
100
AcDbEntity
  8
14086500_ESC_-_A
  6
Continuous
 62
     7
100
AcDbCircle
 10
152.7441206674
 20
769.5339920246
 30
0.0
 40
0.4999999999999906
100
AcDbArc
 50
285.9377322499
 51
287.4407776096
  0
ARC
  5
A6
330
85
100
AcDbEntity
  8
14086500_ESC_-_A
  6
Continuous
 62
     7
100
AcDbCircle
 10
163.504839201
 20
809.6935403179
 30
0.0
 40
0.4999999999999996
100
AcDbArc
 50
42.5592224065
 51
47.4407776098
  0
ARC
  5
A7
330
85
100
AcDbEntity
  8
14086500_ESC_-_A
  6
Continuous
 62
     7
100
AcDbCircle
 10
163.504839201
 20
775.7466957666
 30
0.0
 40
0.5000000000000071
100
AcDbArc
 50
312.5592224063
 51
317.4407776096
  0
ARC
  5
A8
330
85
100
AcDbEntity
  8
14086500_ESC_-_A
  6
Continuous
 62
     7
100
AcDbCircle
 10
169.717542943
 20
798.9328217843
 30
0.0
 40
0.4999999999999957
100
AcDbArc
 50
12.5592224065
 51
17.4407776098
  0
ARC
  5
A9
330
85
100
AcDbEntity
  8
14086500_ESC_-_A
  6
Continuous
 62
     7
100
AcDbCircle
 10
169.717542943
 20
786.5074143002
 30
0.0
 40
0.5000000000000062
100
AcDbArc
 50
342.5592224063
 51
347.4407776096
  0
ARC
  5
AA
330
85
100
AcDbEntity
  8
14086500_ESC_-_A
  6
Continuous
 62
     7
100
AcDbCircle
 10
140.1850732858
 20
792.7194521578
 30
0.0
 40
30.67286802169169
100
AcDbArc
 50
348.1443175581
 51
11.8578911523
  0
ARC
  5
AB
330
85
100
AcDbEntity
  8
14086500_ESC_-_A
  6
Continuous
 62
     7
100
AcDbCircle
 10
141.0334904821
 20
795.8935816398
 30
0.0
 40
30.67456297225436
100
AcDbArc
 50
318.1449779553
 51
341.8572727764
  0
ARC
  5
AC
330
85
100
AcDbEntity
  8
14086500_ESC_-_A
  6
Continuous
 62
     7
100
AcDbCircle
 10
141.0018204859
 20
789.5324228729
 30
0.0
 40
30.70937394865513
100
AcDbArc
 50
18.1494211114
 51
41.8366072085
  0
ARC
  5
AD
330
85
100
AcDbEntity
  8
14086500_ESC_-_A
  6
Continuous
 62
     7
100
AcDbCircle
 10
143.356957316
 20
798.2171175799
 30
0.0
 40
30.67426575988001
100
AcDbArc
 50
288.1448599307
 51
311.8573898463
  0
ARC
  5
AE
330
85
100
AcDbEntity
  8
14086500_ESC_-_A
  6
Continuous
 62
     7
100
AcDbCircle
 10
143.3579576061
 20
787.2221983221
 30
0.0
 40
30.6745549048451
100
AcDbArc
 50
48.1450181722
 51
71.857225095
  0
ARC
  5
AF
330
85
100
AcDbEntity
  8
14086500_ESC_-_A
  6
Continuous
 62
     7
100
AcDbCircle
 10
146.5320823111
 20
786.3737770846
 30
0.0
 40
30.67286529456383
100
AcDbArc
 50
78.1443582307
 51
101.8578912702
  0
ARC
  5
B0
330
85
100
AcDbEntity
  8
14086500_ESC_-_A
  6
Continuous
 62
     7
100
AcDbCircle
 10
149.7054382272
 20
798.2189482176
 30
0.0
 40
30.67561015384367
100
AcDbArc
 50
228.1453269893
 51
251.8567978025
  0
ARC
  5
B1
330
85
100
AcDbEntity
  8
14086500_ESC_-_A
  6
Continuous
 62
     7
100
AcDbCircle
 10
149.7190781213
 20
787.1905824647
 30
0.0
 40
30.70930485903386
100
AcDbArc
 50
108.1493967831
 51
131.8366346372
  0
ARC
  5
B2
330
85
100
AcDbEntity
  8
14086500_ESC_-_A
  6
Continuous
 62
     7
100
AcDbCircle
 10
152.0286802404
 20
795.8947302115
 30
0.0
 40
30.67456297225434
100
AcDbArc
 50
198.1449779553
 51
221.8572727764
  0
ARC
  5
B3
330
85
100
AcDbEntity
  8
14086500_ESC_-_A
  6
Continuous
 62
     7
100
AcDbCircle
 10
152.0302445494
 20
789.5460976391
 30
0.0
 40
30.67560744956732
100
AcDbArc
 50
138.1453676584
 51
161.8567979136
  0
ARC
  5
B4
330
85
100
AcDbEntity
  8
14086500_ESC_-_A
  6
Continuous
 62
     7
100
AcDbCircle
 10
152.8777626457
 20
792.7207825818
 30
0.0
 40
30.67287012958097
100
AcDbArc
 50
168.1443585114
 51
191.857939273
  0
ARC
  5
B6
330
85
100
AcDbEntity
  8
T14085010__SLEEV
  6
Continuous
 62
     7
100
AcDbCircle
 10
146.5314169253
 20
792.7201180423
 30
0.0
 40
17.94999999999999
100
AcDbArc
 50
0.0
 51
249.2825059251
  0
ARC
  5
B7
330
85
100
AcDbEntity
  8
T14085010__SLEEV
  6
Continuous
 62
     7
100
AcDbCircle
 10
146.5314169253
 20
792.7201180423
 30
0.0
 40
17.94999999999999
100
AcDbArc
 50
290.7174940749
 51
0.0
  0
ARC
  5
B8
330
85
100
AcDbEntity
  8
T14085010__SLEEV
  6
Continuous
 62
     7
100
AcDbCircle
 10
146.5314169253
 20
792.7201180423
 30
0.0
 40
18.01446922828351
100
AcDbArc
 50
0.0
 51
249.3600385053
  0
ARC
  5
B9
330
85
100
AcDbEntity
  8
T14085010__SLEEV
  6
Continuous
 62
     7
100
AcDbCircle
 10
146.5314169253
 20
792.7201180423
 30
0.0
 40
18.01446922828351
100
AcDbArc
 50
290.6399614947
 51
0.0
  0
CIRCLE
  5
BB
330
85
100
AcDbEntity
  8
14086600_KENSING
  6
Continuous
 62
     7
100
AcDbCircle
 10
146.5314169253
 20
792.7201180423
 30
0.0
 40
8.75
  0
CIRCLE
  5
BC
330
85
100
AcDbEntity
  8
14086600_KENSING
  6
Continuous
 62
     7
100
AcDbCircle
 10
146.5314169253
 20
792.7201180423
 30
0.0
 40
13.83514646558062
  0
LINE
  5
BE
330
85
100
AcDbEntity
  8
12086000_CAP_-_P
  6
Continuous
 62
     7
100
AcDbLine
 10
141.467934534
 20
792.7201180423
 30
0.0
 11
138.2447714095
 21
792.7201180423
 31
0.0
  0
LINE
  5
BF
330
85
100
AcDbEntity
  8
12086000_CAP_-_P
  6
Continuous
 62
     7
100
AcDbLine
 10
151.4342234076
 20
792.7201180423
 30
0.0
 11
151.5948993166
 21
792.7201180423
 31
0.0
  0
LINE
  5
C0
330
85
100
AcDbEntity
  8
12086000_CAP_-_P
  6
Continuous
 62
     7
100
AcDbLine
 10
148.9828201665
 20
788.4741630788
 30
0.0
 11
149.063158121
 21
788.3350136598
 31
0.0
  0
LINE
  5
C1
330
85
100
AcDbEntity
  8
12086000_CAP_-_P
  6
Continuous
 62
     7
100
AcDbLine
 10
144.0800136842
 20
788.4741630788
 30
0.0
 11
143.9996757297
 21
788.3350136598
 31
0.0
  0
LINE
  5
C2
330
85
100
AcDbEntity
  8
12086000_CAP_-_P
  6
Continuous
 62
     7
100
AcDbLine
 10
141.6286104431
 20
792.7201180423
 30
0.0
 11
141.467934534
 21
792.7201180423
 31
0.0
  0
LINE
  5
C3
330
85
100
AcDbEntity
  8
12086000_CAP_-_P
  6
Continuous
 62
     7
100
AcDbLine
 10
144.0800136842
 20
796.9660730057
 30
0.0
 11
143.9996757297
 21
797.1052224247
 31
0.0
  0
LINE
  5
C4
330
85
100
AcDbEntity
  8
12086000_CAP_-_P
  6
Continuous
 62
     7
100
AcDbLine
 10
148.9828201665
 20
796.9660730057
 30
0.0
 11
149.063158121
 21
797.1052224247
 31
0.0
  0
LINE
  5
C5
330
85
100
AcDbEntity
  8
12086000_CAP_-_P
  6
Continuous
 62
     7
100
AcDbLine
 10
142.3880941674
 20
785.5436725134
 30
0.0
 11
143.9996757297
 21
788.3350136598
 31
0.0
  0
LINE
  5
C6
330
85
100
AcDbEntity
  8
12086000_CAP_-_P
  6
Continuous
 62
     7
100
AcDbLine
 10
150.6747396833
 20
785.5436725134
 30
0.0
 11
149.063158121
 21
788.3350136598
 31
0.0
  0
LINE
  5
C7
330
85
100
AcDbEntity
  8
12086000_CAP_-_P
  6
Continuous
 62
     7
100
AcDbLine
 10
154.8180624412
 20
792.7201180423
 30
0.0
 11
151.5948993166
 21
792.7201180423
 31
0.0
  0
LINE
  5
C8
330
85
100
AcDbEntity
  8
12086000_CAP_-_P
  6
Continuous
 62
     7
100
AcDbLine
 10
142.3880941674
 20
799.8965635712
 30
0.0
 11
143.9996757297
 21
797.1052224247
 31
0.0
  0
LINE
  5
C9
330
85
100
AcDbEntity
  8
12086000_CAP_-_P
  6
Continuous
 62
     7
100
AcDbLine
 10
150.6747396833
 20
799.8965635712
 30
0.0
 11
149.063158121
 21
797.1052224247
 31
0.0
  0
LINE
  5
CA
330
85
100
AcDbEntity
  8
12086000_CAP_-_P
  6
Continuous
 62
     7
100
AcDbLine
 10
142.3880941674
 20
799.8965635712
 30
0.0
 11
142.1981485119
 21
800.2255590972
 31
0.0
  0
LINE
  5
CB
330
85
100
AcDbEntity
  8
12086000_CAP_-_P
  6
Continuous
 62
     7
100
AcDbLine
 10
150.8646853388
 20
800.2255590972
 30
0.0
 11
150.6747396833
 21
799.8965635712
 31
0.0
  0
LINE
  5
CC
330
85
100
AcDbEntity
  8
12086000_CAP_-_P
  6
Continuous
 62
     7
100
AcDbLine
 10
138.2447714095
 20
792.7201180423
 30
0.0
 11
137.8648800984
 21
792.7201180423
 31
0.0
  0
LINE
  5
CD
330
85
100
AcDbEntity
  8
12086000_CAP_-_P
  6
Continuous
 62
     7
100
AcDbLine
 10
155.1979537522
 20
792.7201180423
 30
0.0
 11
154.8180624412
 21
792.7201180423
 31
0.0
  0
LINE
  5
CE
330
85
100
AcDbEntity
  8
12086000_CAP_-_P
  6
Continuous
 62
     7
100
AcDbLine
 10
142.3880941674
 20
785.5436725134
 30
0.0
 11
142.1981485119
 21
785.2146769873
 31
0.0
  0
LINE
  5
CF
330
85
100
AcDbEntity
  8
12086000_CAP_-_P
  6
Continuous
 62
     7
100
AcDbLine
 10
150.8646853388
 20
785.2146769873
 30
0.0
 11
150.6747396833
 21
785.5436725134
 31
0.0
  0
CIRCLE
  5
D0
330
85
100
AcDbEntity
  8
12086000_CAP_-_P
  6
Continuous
 62
     7
100
AcDbCircle
 10
146.5314169253
 20
792.7201180423
 30
0.0
 40
8.691196303513935
  0
LINE
  5
D2
330
85
100
AcDbEntity
  8
T14085030__TOWEL
  6
Continuous
 62
     7
100
AcDbLine
 10
152.8814169253
 20
183.5119355533
 30
0.0
 11
152.8814169253
 21
780.4283005313
 31
0.0
  0
LINE
  5
D3
330
85
100
AcDbEntity
  8
T14085030__TOWEL
  6
Continuous
 62
     7
100
AcDbLine
 10
140.1814169253
 20
780.4283005313
 30
0.0
 11
140.1814169253
 21
183.5119355533
 31
0.0
  0
LINE
  5
D4
330
85
100
AcDbEntity
  8
12086000_CAP_-_P
  6
Continuous
 62
     7
100
AcDbLine
 10
141.467934534
 20
171.2201180423
 30
0.0
 11
138.2447714095
 21
171.2201180423
 31
0.0
  0
LINE
  5
D5
330
85
100
AcDbEntity
  8
12086000_CAP_-_P
  6
Continuous
 62
     7
100
AcDbLine
 10
151.4342234076
 20
171.2201180423
 30
0.0
 11
151.5948993166
 21
171.2201180423
 31
0.0
  0
LINE
  5
D6
330
85
100
AcDbEntity
  8
12086000_CAP_-_P
  6
Continuous
 62
     7
100
AcDbLine
 10
148.9828201665
 20
166.9741630788
 30
0.0
 11
149.063158121
 21
166.8350136598
 31
0.0
  0
LINE
  5
D7
330
85
100
AcDbEntity
  8
12086000_CAP_-_P
  6
Continuous
 62
     7
100
AcDbLine
 10
144.0800136842
 20
166.9741630788
 30
0.0
 11
143.9996757297
 21
166.8350136598
 31
0.0
  0
LINE
  5
D8
330
85
100
AcDbEntity
  8
12086000_CAP_-_P
  6
Continuous
 62
     7
100
AcDbLine
 10
141.6286104431
 20
171.2201180423
 30
0.0
 11
141.467934534
 21
171.2201180423
 31
0.0
  0
LINE
  5
D9
330
85
100
AcDbEntity
  8
12086000_CAP_-_P
  6
Continuous
 62
     7
100
AcDbLine
 10
144.0800136842
 20
175.4660730057
 30
0.0
 11
143.9996757297
 21
175.6052224247
 31
0.0
  0
LINE
  5
DA
330
85
100
AcDbEntity
  8
12086000_CAP_-_P
  6
Continuous
 62
     7
100
AcDbLine
 10
148.9828201665
 20
175.4660730057
 30
0.0
 11
149.063158121
 21
175.6052224247
 31
0.0
  0
LINE
  5
DB
330
85
100
AcDbEntity
  8
12086000_CAP_-_P
  6
Continuous
 62
     7
100
AcDbLine
 10
142.3880941674
 20
164.0436725134
 30
0.0
 11
143.9996757297
 21
166.8350136598
 31
0.0
  0
LINE
  5
DC
330
85
100
AcDbEntity
  8
12086000_CAP_-_P
  6
Continuous
 62
     7
100
AcDbLine
 10
150.6747396833
 20
164.0436725134
 30
0.0
 11
149.063158121
 21
166.8350136598
 31
0.0
  0
LINE
  5
DD
330
85
100
AcDbEntity
  8
12086000_CAP_-_P
  6
Continuous
 62
     7
100
AcDbLine
 10
154.8180624412
 20
171.2201180423
 30
0.0
 11
151.5948993166
 21
171.2201180423
 31
0.0
  0
LINE
  5
DE
330
85
100
AcDbEntity
  8
12086000_CAP_-_P
  6
Continuous
 62
     7
100
AcDbLine
 10
142.3880941674
 20
178.3965635712
 30
0.0
 11
143.9996757297
 21
175.6052224247
 31
0.0
  0
LINE
  5
DF
330
85
100
AcDbEntity
  8
12086000_CAP_-_P
  6
Continuous
 62
     7
100
AcDbLine
 10
150.6747396833
 20
178.3965635712
 30
0.0
 11
149.063158121
 21
175.6052224247
 31
0.0
  0
LINE
  5
E0
330
85
100
AcDbEntity
  8
12086000_CAP_-_P
  6
Continuous
 62
     7
100
AcDbLine
 10
142.3880941674
 20
178.3965635712
 30
0.0
 11
142.1981485119
 21
178.7255590972
 31
0.0
  0
LINE
  5
E1
330
85
100
AcDbEntity
  8
12086000_CAP_-_P
  6
Continuous
 62
     7
100
AcDbLine
 10
150.8646853388
 20
178.7255590972
 30
0.0
 11
150.6747396833
 21
178.3965635712
 31
0.0
  0
LINE
  5
E2
330
85
100
AcDbEntity
  8
12086000_CAP_-_P
  6
Continuous
 62
     7
100
AcDbLine
 10
138.2447714095
 20
171.2201180423
 30
0.0
 11
137.8648800984
 21
171.2201180423
 31
0.0
  0
LINE
  5
E3
330
85
100
AcDbEntity
  8
12086000_CAP_-_P
  6
Continuous
 62
     7
100
AcDbLine
 10
155.1979537522
 20
171.2201180423
 30
0.0
 11
154.8180624412
 21
171.2201180423
 31
0.0
  0
LINE
  5
E4
330
85
100
AcDbEntity
  8
12086000_CAP_-_P
  6
Continuous
 62
     7
100
AcDbLine
 10
142.3880941674
 20
164.0436725134
 30
0.0
 11
142.1981485119
 21
163.7146769873
 31
0.0
  0
LINE
  5
E5
330
85
100
AcDbEntity
  8
12086000_CAP_-_P
  6
Continuous
 62
     7
100
AcDbLine
 10
150.8646853388
 20
163.7146769873
 30
0.0
 11
150.6747396833
 21
164.0436725134
 31
0.0
  0
CIRCLE
  5
E6
330
85
100
AcDbEntity
  8
12086000_CAP_-_P
  6
Continuous
 62
     7
100
AcDbCircle
 10
146.5314169253
 20
171.2201180423
 30
0.0
 40
8.691196303513935
  0
ARC
  5
E7
330
85
100
AcDbEntity
  8
T14085010__SLEEV
  6
Continuous
 62
     7
100
AcDbCircle
 10
146.5314169253
 20
171.2201180423
 30
0.0
 40
17.94999999999999
100
AcDbArc
 50
0.0
 51
69.2825059251
  0
ARC
  5
E8
330
85
100
AcDbEntity
  8
T14085010__SLEEV
  6
Continuous
 62
     7
100
AcDbCircle
 10
146.5314169253
 20
171.2201180423
 30
0.0
 40
17.94999999999999
100
AcDbArc
 50
110.7174940749
 51
0.0
  0
ARC
  5
E9
330
85
100
AcDbEntity
  8
T14085010__SLEEV
  6
Continuous
 62
     7
100
AcDbCircle
 10
146.5314169253
 20
171.2201180423
 30
0.0
 40
18.01446922828351
100
AcDbArc
 50
0.0
 51
69.3600385053
  0
ARC
  5
EA
330
85
100
AcDbEntity
  8
T14085010__SLEEV
  6
Continuous
 62
     7
100
AcDbCircle
 10
146.5314169253
 20
171.2201180423
 30
0.0
 40
18.01446922828351
100
AcDbArc
 50
110.6399614947
 51
0.0
  0
ELLIPSE
  5
EB
330
85
100
AcDbEntity
  8
14086500_ESC_-_A
  6
Continuous
 62
     7
100
AcDbEllipse
 10
123.3452909076
 20
177.4328217843
 30
0.0
 11
0.488035884048249
 21
-0.1087243113624403
 31
0.0
210
0.0
220
0.0
230
1.0
 40
0.2681301623
 41
3.141592653589834
 42
3.277601957342972
  0
ELLIPSE
  5
EC
330
85
100
AcDbEntity
  8
14086500_ESC_-_A
  6
Continuous
 62
     7
100
AcDbEllipse
 10
123.3452909076
 20
165.0074143002
 30
0.0
 11
0.4770136292346489
 21
0.1498599263459744
 31
0.0
210
0.0
220
0.0
230
0.9999999999999998
 40
0.2681301622
 41
3.141592653589793
 42
3.277669355761079
  0
ELLIPSE
  5
ED
330
85
100
AcDbEntity
  8
14086500_ESC_-_A
  6
Continuous
 62
     7
100
AcDbEllipse
 10
123.3452909076
 20
165.0074143002
 30
0.0
 11
0.488035884017659
 21
0.1087243114999414
 31
0.0
210
0.0
220
0.0
230
1.0
 40
0.2681301606
 41
3.004929925140819
 42
3.141592653589784
  0
ELLIPSE
  5
EE
330
85
100
AcDbEntity
  8
14086500_ESC_-_A
  6
Continuous
 62
     7
100
AcDbEllipse
 10
129.5579946497
 20
188.1935403179
 30
0.0
 11
0.3682893178630284
 21
-0.3381759576729371
 31
0.0
210
0.0
220
0.0
230
1.0
 40
0.2681301623
 41
3.141592653589762
 42
3.27759920271977
  0
ELLIPSE
  5
EF
330
85
100
AcDbEntity
  8
14086500_ESC_-_A
  6
Continuous
 62
     7
100
AcDbEllipse
 10
129.5579946497
 20
188.1935403179
 30
0.0
 11
0.3381759577995407
 21
-0.3682893177466284
 31
0.0
210
0.0
220
0.0
230
1.0
 40
0.2681301606
 41
3.009769727193028
 42
3.141592653573329
  0
ELLIPSE
  5
F0
330
85
100
AcDbEntity
  8
14086500_ESC_-_A
  6
Continuous
 62
     7
100
AcDbEllipse
 10
129.5579946497
 20
154.2466957666
 30
0.0
 11
0.3381759576957071
 21
0.3682893178421631
 31
0.0
210
0.0
220
0.0
230
1.0
 40
0.2681301622
 41
3.141592653589793
 42
3.277664272277008
  0
ELLIPSE
  5
F1
330
85
100
AcDbEntity
  8
14086500_ESC_-_A
  6
Continuous
 62
     7
100
AcDbEllipse
 10
129.5579946497
 20
154.2466957666
 30
0.0
 11
0.3682893177677053
 21
0.3381759577767429
 31
0.0
210
0.0
220
0.0
230
0.9999999999999999
 40
0.2681301606
 41
3.00493016881857
 42
3.141592653589793
  0
ELLIPSE
  5
F2
330
85
100
AcDbEntity
  8
14086500_ESC_-_A
  6
Continuous
 62
     7
100
AcDbEllipse
 10
140.3187131833
 20
194.40624406
 30
0.0
 11
0.1498599263753961
 21
-0.4770136292253091
 31
0.0
210
0.0
220
0.0
230
1.0
 40
0.2681301623
 41
3.141592653589793
 42
3.277577558486423
  0
ELLIPSE
  5
F3
330
85
100
AcDbEntity
  8
14086500_ESC_-_A
  6
Continuous
 62
     7
100
AcDbEllipse
 10
140.3187131833
 20
148.0339920246
 30
0.0
 11
0.1087243113925569
 21
0.4880358840413934
 31
0.0
210
0.0
220
0.0
230
1.0
 40
0.2681301622
 41
3.141592653589793
 42
3.277666922359944
  0
ELLIPSE
  5
F4
330
85
100
AcDbEntity
  8
14086500_ESC_-_A
  6
Continuous
 62
     7
100
AcDbEllipse
 10
152.7441206674
 20
194.40624406
 30
0.0
 11
-0.1498599262113338
 21
-0.477013629276768
 31
0.0
210
0.0
220
0.0
230
0.9999999999999998
 40
0.2681301606
 41
3.004969229638835
 42
3.141592653589689
  0
ELLIPSE
  5
F5
330
85
100
AcDbEntity
  8
14086500_ESC_-_A
  6
Continuous
 62
     7
100
AcDbEllipse
 10
152.7441206674
 20
148.0339920246
 30
0.0
 11
-0.1498599263458477
 21
0.477013629234857
 31
0.0
210
0.0
220
0.0
230
1.0
 40
0.2681301622
 41
3.141592653589901
 42
3.277666637520422
  0
ELLIPSE
  5
F6
330
85
100
AcDbEntity
  8
14086500_ESC_-_A
  6
Continuous
 62
     7
100
AcDbEllipse
 10
152.7441206674
 20
148.0339920246
 30
0.0
 11
-0.1087243114999301
 21
0.4880358840178011
 31
0.0
210
0.0
220
0.0
230
0.9999999999999998
 40
0.2681301606
 41
3.004929925140895
 42
3.141592653589793
  0
ELLIPSE
  5
F7
330
85
100
AcDbEntity
  8
14086500_ESC_-_A
  6
Continuous
 62
     7
100
AcDbEllipse
 10
163.504839201
 20
188.1935403179
 30
0.0
 11
-0.3381759576729197
 21
-0.3682893178627578
 31
0.0
210
0.0
220
0.0
230
0.9999999999999998
 40
0.2681301623
 41
3.141592653589793
 42
3.277604464297907
  0
ELLIPSE
  5
F8
330
85
100
AcDbEntity
  8
14086500_ESC_-_A
  6
Continuous
 62
     7
100
AcDbEllipse
 10
163.504839201
 20
188.1935403179
 30
0.0
 11
-0.3682893177467013
 21
-0.3381759577996135
 31
0.0
210
0.0
220
0.0
230
1.0
 40
0.2681301606
 41
3.009773806922122
 42
3.141592653589691
  0
ELLIPSE
  5
F9
330
85
100
AcDbEntity
  8
14086500_ESC_-_A
  6
Continuous
 62
     7
100
AcDbEllipse
 10
163.504839201
 20
154.2466957666
 30
0.0
 11
-0.3682893178421111
 21
0.3381759576955856
 31
0.0
210
0.0
220
0.0
230
1.0
 40
0.2681301622
 41
3.141592653589793
 42
3.277669355760227
  0
ELLIPSE
  5
FA
330
85
100
AcDbEntity
  8
14086500_ESC_-_A
  6
Continuous
 62
     7
100
AcDbEllipse
 10
163.504839201
 20
154.2466957666
 30
0.0
 11
-0.338175957776729
 21
0.3682893177677227
 31
0.0
210
0.0
220
0.0
230
1.0
 40
0.2681301606
 41
3.004932473980638
 42
3.141592653589808
  0
ELLIPSE
  5
FB
330
85
100
AcDbEntity
  8
14086500_ESC_-_A
  6
Continuous
 62
     7
100
AcDbEllipse
 10
169.7175429431
 20
177.4328217843
 30
0.0
 11
-0.4770136292253612
 21
-0.1498599263753397
 31
0.0
210
0.0
220
0.0
230
1.0
 40
0.2681301623
 41
3.141592653574674
 42
3.277575515845763
  0
ELLIPSE
  5
FC
330
85
100
AcDbEntity
  8
14086500_ESC_-_A
  6
Continuous
 62
     7
100
AcDbEllipse
 10
169.717542943
 20
177.4328217843
 30
0.0
 11
-0.4880358840108692
 21
-0.1087243115300285
 31
0.0
210
0.0
220
0.0
230
1.0
 40
0.2681301606
 41
3.004968983554421
 42
3.141592653589793
  0
ELLIPSE
  5
FD
330
85
100
AcDbEntity
  8
14086500_ESC_-_A
  6
Continuous
 62
     7
100
AcDbEllipse
 10
169.717542943
 20
165.0074143002
 30
0.0
 11
-0.4880358840415322
 21
0.1087243113924719
 31
0.0
210
0.0
220
0.0
230
1.0
 40
0.2681301622
 41
3.141592653589793
 42
3.277666922381887
  0
ELLIPSE
  5
FE
330
85
100
AcDbEntity
  8
14086500_ESC_-_A
  6
Continuous
 62
     7
100
AcDbEllipse
 10
169.7175429431
 20
165.0074143002
 30
0.0
 11
-0.477013629267605
 21
0.1498599262410582
 31
0.0
210
0.0
220
0.0
230
1.0
 40
0.2681301606
 41
3.004930168816721
 42
3.141592653589883
  0
ARC
  5
FF
330
85
100
AcDbEntity
  8
14086500_ESC_-_A
  6
Continuous
 62
     7
100
AcDbCircle
 10
149.9845434129
 20
177.2011085637
 30
0.0
 40
31.2204308806039
100
AcDbArc
 50
251.6621337437
 51
251.7178380757
  0
ARC
  5
100
330
85
100
AcDbEntity
  8
14086500_ESC_-_A
  6
Continuous
 62
     7
100
AcDbCircle
 10
149.9845434129
 20
177.2011085637
 30
0.0
 40
31.2204308806039
100
AcDbArc
 50
228.3374529922
 51
229.3720321206
  0
ARC
  5
101
330
85
100
AcDbEntity
  8
14086500_ESC_-_A
  6
Continuous
 62
     7
100
AcDbCircle
 10
123.3452909076
 20
177.4328217843
 30
0.0
 40
0.5000000000000093
100
AcDbArc
 50
162.3608518936
 51
167.4407776132
  0
ARC
  5
102
330
85
100
AcDbEntity
  8
14086500_ESC_-_A
  6
Continuous
 62
     7
100
AcDbCircle
 10
123.3452909076
 20
165.0074143002
 30
0.0
 40
0.4999999999999737
100
AcDbArc
 50
192.5592224063
 51
197.4407776096
  0
ARC
  5
103
330
85
100
AcDbEntity
  8
14086500_ESC_-_A
  6
Continuous
 62
     7
100
AcDbCircle
 10
129.5579946497
 20
188.1935403179
 30
0.0
 40
0.4999999999988539
100
AcDbArc
 50
132.5592224094
 51
137.4407776132
  0
ARC
  5
104
330
85
100
AcDbEntity
  8
14086500_ESC_-_A
  6
Continuous
 62
     7
100
AcDbCircle
 10
129.5579946497
 20
154.2466957666
 30
0.0
 40
0.5000000000000024
100
AcDbArc
 50
222.5592224063
 51
227.4407776096
  0
ARC
  5
105
330
85
100
AcDbEntity
  8
14086500_ESC_-_A
  6
Continuous
 62
     7
100
AcDbCircle
 10
140.3187131833
 20
194.40624406
 30
0.0
 40
0.4999999999988208
100
AcDbArc
 50
105.9377322533
 51
107.4407776132
  0
ARC
  5
106
330
85
100
AcDbEntity
  8
14086500_ESC_-_A
  6
Continuous
 62
     7
100
AcDbCircle
 10
140.3187131833
 20
148.0339920246
 30
0.0
 40
0.499999999999953
100
AcDbArc
 50
252.4124137808
 51
257.4407776096
  0
ARC
  5
107
330
85
100
AcDbEntity
  8
14086500_ESC_-_A
  6
Continuous
 62
     7
100
AcDbCircle
 10
152.7441206674
 20
194.40624406
 30
0.0
 40
0.5000000000000189
100
AcDbArc
 50
72.5592224065
 51
74.8627110235
  0
ARC
  5
108
330
85
100
AcDbEntity
  8
14086500_ESC_-_A
  6
Continuous
 62
     7
100
AcDbCircle
 10
152.7441206674
 20
148.0339920246
 30
0.0
 40
0.4999999999999906
100
AcDbArc
 50
282.5592224063
 51
287.4407776096
  0
ARC
  5
109
330
85
100
AcDbEntity
  8
14086500_ESC_-_A
  6
Continuous
 62
     7
100
AcDbCircle
 10
163.504839201
 20
188.1935403179
 30
0.0
 40
0.4999999999999996
100
AcDbArc
 50
42.5592224065
 51
47.4407776098
  0
ARC
  5
10A
330
85
100
AcDbEntity
  8
14086500_ESC_-_A
  6
Continuous
 62
     7
100
AcDbCircle
 10
163.504839201
 20
154.2466957666
 30
0.0
 40
0.5000000000000071
100
AcDbArc
 50
312.5592224063
 51
317.4407776096
  0
ARC
  5
10B
330
85
100
AcDbEntity
  8
14086500_ESC_-_A
  6
Continuous
 62
     7
100
AcDbCircle
 10
169.717542943
 20
177.4328217843
 30
0.0
 40
0.4999999999999957
100
AcDbArc
 50
12.5592224065
 51
17.4407776098
  0
ARC
  5
10C
330
85
100
AcDbEntity
  8
14086500_ESC_-_A
  6
Continuous
 62
     7
100
AcDbCircle
 10
169.717542943
 20
165.0074143002
 30
0.0
 40
0.5000000000000062
100
AcDbArc
 50
342.5592224063
 51
347.4407776096
  0
ARC
  5
10D
330
85
100
AcDbEntity
  8
14086500_ESC_-_A
  6
Continuous
 62
     7
100
AcDbCircle
 10
140.1850732858
 20
171.2194521578
 30
0.0
 40
30.67286802169159
100
AcDbArc
 50
348.1443175581
 51
11.8578911523
  0
ARC
  5
10E
330
85
100
AcDbEntity
  8
14086500_ESC_-_A
  6
Continuous
 62
     7
100
AcDbCircle
 10
141.0334904821
 20
174.3935816398
 30
0.0
 40
30.67456297225221
100
AcDbArc
 50
318.1449779553
 51
341.8572727764
  0
ARC
  5
10F
330
85
100
AcDbEntity
  8
14086500_ESC_-_A
  6
Continuous
 62
     7
100
AcDbCircle
 10
141.0018204859
 20
168.0324228729
 30
0.0
 40
30.70937394865925
100
AcDbArc
 50
18.1494211115
 51
41.8366072085
  0
ARC
  5
110
330
85
100
AcDbEntity
  8
14086500_ESC_-_A
  6
Continuous
 62
     7
100
AcDbCircle
 10
143.356957316
 20
176.7171175799
 30
0.0
 40
30.67426575988114
100
AcDbArc
 50
288.1448599307
 51
311.8573898463
  0
ARC
  5
111
330
85
100
AcDbEntity
  8
14086500_ESC_-_A
  6
Continuous
 62
     7
100
AcDbCircle
 10
143.3579576061
 20
165.7221983221
 30
0.0
 40
30.67455490484696
100
AcDbArc
 50
48.1450181722
 51
71.857225095
  0
ARC
  5
112
330
85
100
AcDbEntity
  8
14086500_ESC_-_A
  6
Continuous
 62
     7
100
AcDbCircle
 10
146.5307518872
 20
177.5664664445
 30
0.0
 40
30.67287285665347
100
AcDbArc
 50
258.1443178387
 51
281.8579391552
  0
ARC
  5
113
330
85
100
AcDbEntity
  8
14086500_ESC_-_A
  6
Continuous
 62
     7
100
AcDbCircle
 10
149.7054382272
 20
176.7189482176
 30
0.0
 40
30.67561015384113
100
AcDbArc
 50
228.1453269893
 51
251.8567978025
  0
ARC
  5
114
330
85
100
AcDbEntity
  8
14086500_ESC_-_A
  6
Continuous
 62
     7
100
AcDbCircle
 10
149.7190781213
 20
165.6905824647
 30
0.0
 40
30.70930485903212
100
AcDbArc
 50
108.1493967831
 51
131.8366346372
  0
ARC
  5
115
330
85
100
AcDbEntity
  8
14086500_ESC_-_A
  6
Continuous
 62
     7
100
AcDbCircle
 10
152.0286802404
 20
174.3947302115
 30
0.0
 40
30.6745629722551
100
AcDbArc
 50
198.1449779553
 51
221.8572727764
  0
ARC
  5
116
330
85
100
AcDbEntity
  8
14086500_ESC_-_A
  6
Continuous
 62
     7
100
AcDbCircle
 10
152.0302445494
 20
168.0460976391
 30
0.0
 40
30.6756074495668
100
AcDbArc
 50
138.1453676584
 51
161.8567979136
  0
ARC
  5
117
330
85
100
AcDbEntity
  8
14086500_ESC_-_A
  6
Continuous
 62
     7
100
AcDbCircle
 10
152.8777626457
 20
171.2207825818
 30
0.0
 40
30.67287012958038
100
AcDbArc
 50
168.1443585114
 51
191.857939273
  0
CIRCLE
  5
118
330
85
100
AcDbEntity
  8
14086600_KENSING
  6
Continuous
 62
     7
100
AcDbCircle
 10
146.5314169253
 20
171.2201180423
 30
0.0
 40
8.75
  0
CIRCLE
  5
119
330
85
100
AcDbEntity
  8
14086600_KENSING
  6
Continuous
 62
     7
100
AcDbCircle
 10
146.5314169253
 20
171.2201180423
 30
0.0
 40
13.83514646558062
  0
ENDBLK
  5
11B
330
85
100
AcDbEntity
  8
0
100
AcDbBlockEnd
  0
BLOCK
  5
1A2
330
11C
100
AcDbEntity
  8
0
100
AcDbBlockBegin
  2
SE1
 70
     0
 10
0.0
 20
0.0
 30
0.0
  3
SE1
  1

  0
LINE
  5
11E
330
11C
100
AcDbEntity
  8
14086500_ESC_-_A
  6
Continuous
 62
     7
100
AcDbLine
 10
230.9307989125
 20
768.4974840195
 30
0.0
 11
231.7531647752
 21
769.1399866478
 31
0.0
  0
LINE
  5
11F
330
11C
100
AcDbEntity
  8
14086500_ESC_-_A
  6
Continuous
 62
     7
100
AcDbLine
 10
238.0536995292
 20
774.0625038904
 30
0.0
 11
237.9505572671
 21
773.9819203235
 31
0.0
  0
LINE
  5
120
330
11C
100
AcDbEntity
  8
14086500_ESC_-_A
  6
Continuous
 62
     7
100
AcDbLine
 10
237.9505572671
 20
773.9819203235
 30
0.0
 11
231.753164775
 21
769.1399866476
 31
0.0
  0
LINE
  5
121
330
11C
100
AcDbEntity
  8
14086500_ESC_-_A
  6
Continuous
 62
     7
100
AcDbLine
 10
237.9505572671
 20
811.458315761
 30
0.0
 11
238.0536995292
 21
811.3777321941
 31
0.0
  0
LINE
  5
122
330
11C
100
AcDbEntity
  8
14086500_ESC_-_A
  6
Continuous
 62
     7
100
AcDbLine
 10
231.7531647752
 20
816.3002494368
 30
0.0
 11
237.9505572671
 21
811.458315761
 31
0.0
  0
LINE
  5
123
330
11C
100
AcDbEntity
  8
14086500_ESC_-_A
  6
Continuous
 62
     7
100
AcDbLine
 10
238.2846840118
 20
774.9312891135
 30
0.0
 11
238.2846840118
 21
810.5089469711
 31
0.0
  0
LINE
  5
124
330
11C
100
AcDbEntity
  8
14086500_ESC_-_A
  6
Continuous
 62
     7
100
AcDbLine
 10
229.2846840118
 20
768.8351521799
 30
0.0
 11
229.2846840118
 21
816.6050839046
 31
0.0
  0
ARC
  5
125
330
11C
100
AcDbEntity
  8
14086500_ESC_-_A
  6
Continuous
 62
     7
100
AcDbCircle
 10
230.6173223119
 20
768.9027496295
 30
0.0
 40
0.5120592913154498
100
AcDbArc
 50
255.6750879411
 51
301.4934008873
  0
SPLINE
  5
126
330
11C
100
AcDbEntity
  8
14086500_ESC_-_A
  6
Continuous
 62
     7
100
AcDbSpline
210
0.0
220
0.0
230
1.0
 70
     8
 71
     3
 72
    11
 73
     7
 74
     0
 42
0.0000000067414032
 43
0.0000000001
 40
0.0
 40
0.0
 40
0.0
 40
0.0
 40
0.2397488513182238
 40
0.4920024129334652
 40
0.7455482974835885
 40
1.0
 40
1.0
 40
1.0
 40
1.0
 10
231.7516439413656
 20
816.3007089224925
 30
0.0
 10
231.580188603248
 20
816.4321266840416
 30
0.0
 10
231.2864988021891
 20
816.6556657828776
 30
0.0
 10
230.9169927864467
 20
816.8948542394248
 30
0.0
 10
230.6339144776878
 20
817.032449862756
 30
0.0
 10
230.5421984508933
 20
817.035116429523
 30
0.0
 10
230.4906284407474
 20
817.0336249244564
 30
0.0
  0
SPLINE
  5
127
330
11C
100
AcDbEntity
  8
14086500_ESC_-_A
  6
Continuous
 62
     7
100
AcDbSpline
210
0.0
220
0.0
230
1.0
 70
     8
 71
     3
 72
    11
 73
     7
 74
     0
 42
0.0000000247801638
 43
0.0000000001
 40
0.0
 40
0.0
 40
0.0
 40
0.0
 40
0.2500000000035004
 40
0.5000000000046741
 40
0.750000000010256
 40
1.0
 40
1.0
 40
1.0
 40
1.0
 10
238.053699529189
 20
774.0625038903846
 30
0.0
 10
238.0815035013573
 20
774.086569683636
 30
0.0
 10
238.1281242969996
 20
774.1281772597263
 30
0.0
 10
238.18613514636
 20
774.2126988604632
 30
0.0
 10
238.226996262836
 20
774.3067176287731
 30
0.0
 10
238.2375263053942
 20
774.368311517902
 30
0.0
 10
238.2431719419516
 20
774.404648139386
 30
0.0
  0
SPLINE
  5
128
330
11C
100
AcDbEntity
  8
14086500_ESC_-_A
  6
Continuous
 62
     7
100
AcDbSpline
210
0.0
220
0.0
230
1.0
 70
     8
 71
     3
 72
    11
 73
     7
 74
     0
 42
0.0000000247801638
 43
0.0000000001
 40
0.0
 40
0.0
 40
0.0
 40
0.0
 40
0.2499999999898865
 40
0.4999999999954514
 40
0.749999999996623
 40
1.0
 40
1.0
 40
1.0
 40
1.0
 10
238.2431719420196
 20
811.0355879444926
 30
0.0
 10
238.2375263054977
 20
811.0719245660426
 30
0.0
 10
238.2269962629963
 20
811.1335184552858
 30
0.0
 10
238.1861351465292
 20
811.2275372237842
 30
0.0
 10
238.1281242971151
 20
811.3120588246894
 30
0.0
 10
238.0815035014005
 20
811.3536664008534
 30
0.0
 10
238.0536995291889
 20
811.3777321941462
 30
0.0
  0
ARC
  5
129
330
11C
100
AcDbEntity
  8
14086500_ESC_-_A
  6
Continuous
 62
     7
100
AcDbCircle
 10
227.8362278523
 20
775.4899240715
 30
0.0
 40
10.46337943180476
100
AcDbArc
 50
353.9854637468
 51
356.9395498828
  0
ARC
  5
12A
330
11C
100
AcDbEntity
  8
14086500_ESC_-_A
  6
Continuous
 62
     7
100
AcDbCircle
 10
227.8362278523
 20
809.950312013
 30
0.0
 40
10.46337943180474
100
AcDbArc
 50
3.0604501172
 51
6.0147178378
  0
ARC
  5
12B
330
11C
100
AcDbEntity
  8
14086500_ESC_-_A
  6
Continuous
 62
     7
100
AcDbCircle
 10
232.5976678477
 20
776.2470440805
 30
0.0
 40
8.118620784498145
100
AcDbArc
 50
245.9162061553
 51
254.9537227288
  0
ARC
  5
12C
330
11C
100
AcDbEntity
  8
14086500_ESC_-_A
  6
Continuous
 62
     7
100
AcDbCircle
 10
232.5976678477
 20
809.193192004
 30
0.0
 40
8.118620784498214
100
AcDbArc
 50
105.0451366547
 51
114.0837938447
  0
LINE
  5
12D
330
11C
100
AcDbEntity
  8
T14085010__SLEEV
  6
Continuous
 62
     7
100
AcDbLine
 10
276.6846840118
 20
782.9699148923
 30
0.0
 11
276.6846840118
 21
802.4703211922
 31
0.0
  0
LINE
  5
12E
330
11C
100
AcDbEntity
  8
T14085010__SLEEV
  6
Continuous
 62
     7
100
AcDbLine
 10
239.2781131143
 20
774.7701180423
 30
0.0
 11
239.2781131143
 21
810.6701180423
 31
0.0
  0
CIRCLE
  5
12F
330
11C
100
AcDbEntity
  8
T14085010__SLEEV
  6
Continuous
 62
     7
100
AcDbCircle
 10
257.0846840118
 20
792.7201180423
 30
0.0
 40
3.300000000000038
  0
LINE
  5
130
330
11C
100
AcDbEntity
  8
T14085010__SLEEV
  6
Continuous
 62
     7
100
AcDbLine
 10
275.7724610292
 20
782.1485456295
 30
0.0
 11
276.6846840118
 21
782.9699148923
 31
0.0
  0
LINE
  5
131
330
11C
100
AcDbEntity
  8
T14085010__SLEEV
  6
Continuous
 62
     7
100
AcDbLine
 10
276.6846840118
 20
802.4703211922
 30
0.0
 11
275.7724610292
 21
803.291690455
 31
0.0
  0
ARC
  5
132
330
11C
100
AcDbEntity
  8
T14085010__SLEEV
  6
Continuous
 62
     7
100
AcDbCircle
 10
275.4378957261
 20
802.9201180423
 30
0.0
 40
0.4999999999999741
100
AcDbArc
 50
48.0
 51
100.2120265005
  0
ARC
  5
133
330
11C
100
AcDbEntity
  8
T14085010__SLEEV
  6
Continuous
 62
     7
100
AcDbCircle
 10
275.4378957261
 20
782.5201180423
 30
0.0
 40
0.4999999999999784
100
AcDbArc
 50
259.7879734995
 51
312.0
  0
ARC
  5
134
330
11C
100
AcDbEntity
  8
T14085010__SLEEV
  6
Continuous
 62
     7
100
AcDbCircle
 10
266.4846840118
 20
852.6201180423
 30
0.0
 40
49.99999999999999
100
AcDbArc
 50
237.0346722594
 51
280.2120265005
  0
ARC
  5
135
330
11C
100
AcDbEntity
  8
T14085010__SLEEV
  6
Continuous
 62
     7
100
AcDbCircle
 10
266.4846840118
 20
732.8201180423
 30
0.0
 40
50.00000000000004
100
AcDbArc
 50
79.7879734995
 51
122.9653277406
  0
ARC
  5
136
330
11C
100
AcDbEntity
  8
T14085010__SLEEV
  6
Continuous
 62
     7
100
AcDbCircle
 10
238.9846840118
 20
810.0345872705
 30
0.0
 40
0.6999999999999829
100
AcDbArc
 50
65.2168920114
 51
180.0
  0
ARC
  5
137
330
11C
100
AcDbEntity
  8
T14085010__SLEEV
  6
Continuous
 62
     7
100
AcDbCircle
 10
238.9846840118
 20
775.405648814
 30
0.0
 40
0.6999999999999993
100
AcDbArc
 50
180.0
 51
294.7831079886
  0
SPLINE
  5
138
330
11C
100
AcDbEntity
  8
14086600_KENSING
  6
Continuous
 62
     7
100
AcDbSpline
210
0.0
220
0.0
230
1.0
 70
     8
 71
     3
 72
     9
 73
     5
 74
     0
 42
0.0000000005913763
 43
0.0000000001
 40
0.0
 40
0.0
 40
0.0
 40
0.0
 40
0.0651166897179643
 40
0.1043860211642174
 40
0.1043860211642174
 40
0.1043860211642174
 40
0.1043860211642174
 10
289.7661076592009
 20
781.1410003882121
 30
0.0
 10
290.281604973917
 20
780.7392507444667
 30
0.0
 10
290.9461887840783
 20
780.1861844883047
 30
0.0
 10
291.1323493247401
 20
780.025444139445
 30
0.0
 10
291.1321584646591
 20
780.0244507335684
 30
0.0
  0
SPLINE
  5
139
330
11C
100
AcDbEntity
  8
14086600_KENSING
  6
Continuous
 62
     7
100
AcDbSpline
210
0.0
220
0.0
230
1.0
 70
     8
 71
     3
 72
    17
 73
    13
 74
     0
 42
0.0000000003094651
 43
0.0000000001
 40
0.6044382150587678
 40
0.6044382150587678
 40
0.6044382150587678
 40
0.6044382150587678
 40
0.6252010968860702
 40
0.6883056866712043
 40
0.7508884620038341
 40
0.7826703319071877
 40
0.8133095566872315
 40
0.8431647659043652
 40
0.875404621379924
 40
0.9375154758914096
 40
0.9688382983004551
 40
1.0
 40
1.0
 40
1.0
 40
1.0
 10
278.1119182123467
 20
782.7845617417322
 30
0.0
 10
278.1112855648006
 20
782.7839898211395
 30
0.0
 10
278.187847252825
 20
782.8270300200204
 30
0.0
 10
278.8926721991158
 20
783.2382353441492
 30
0.0
 10
280.3783437169899
 20
783.900076011996
 30
0.0
 10
281.9082761555557
 20
784.2373008106929
 30
0.0
 10
283.1821201395032
 20
784.2835849544632
 30
0.0
 10
284.5081375919835
 20
784.0766623406034
 30
0.0
 10
286.2082810320489
 20
783.4886717187644
 30
0.0
 10
287.7227895056432
 20
782.615133383177
 30
0.0
 10
288.9784100466562
 20
781.7448252935465
 30
0.0
 10
289.5194155497328
 20
781.3332583578742
 30
0.0
 10
289.7661076592009
 20
781.1410003882121
 30
0.0
  0
ARC
  5
13A
330
11C
100
AcDbEntity
  8
14086600_KENSING
  6
Continuous
 62
     7
100
AcDbCircle
 10
271.3225124049
 20
866.7725579529
 30
0.0
 40
64.4732880231175
100
AcDbArc
 50
275.1765129594
 51
290.7724246819
  0
ARC
  5
13B
330
11C
100
AcDbEntity
  8
14086600_KENSING
  6
Continuous
 62
     7
100
AcDbCircle
 10
271.3225124049
 20
718.6676781317
 30
0.0
 40
64.4732880231175
100
AcDbArc
 50
69.2275753181
 51
72.1326612999
  0
ARC
  5
13C
330
11C
100
AcDbEntity
  8
14086600_KENSING
  6
Continuous
 62
     7
100
AcDbCircle
 10
271.3225124049
 20
718.6676781317
 30
0.0
 40
64.47328802311748
100
AcDbArc
 50
83.9322215288
 51
84.8234870406
  0
ARC
  5
13D
330
11C
100
AcDbEntity
  8
14086600_KENSING
  6
Continuous
 62
     7
100
AcDbCircle
 10
294.5430728594
 20
805.5552645078
 30
0.0
 40
0.99999999999999
100
AcDbArc
 50
32.4251674377
 51
110.7724246819
  0
ARC
  5
13E
330
11C
100
AcDbEntity
  8
14086600_KENSING
  6
Continuous
 62
     7
100
AcDbCircle
 10
294.5430728594
 20
779.8849715767
 30
0.0
 40
1.000000000000014
100
AcDbArc
 50
249.2275753181
 51
327.5748325623
  0
ARC
  5
13F
330
11C
100
AcDbEntity
  8
14086600_KENSING
  6
Continuous
 62
     7
100
AcDbCircle
 10
277.1846840118
 20
802.0642655895
 30
0.0
 40
0.4999999999999722
100
AcDbArc
 50
95.1765129593
 51
180.0
  0
ARC
  5
140
330
11C
100
AcDbEntity
  8
14086600_KENSING
  6
Continuous
 62
     7
100
AcDbCircle
 10
277.1846840118
 20
783.375970495
 30
0.0
 40
0.5000000000000004
100
AcDbArc
 50
180.0
 51
264.8234870407
  0
ARC
  5
141
330
11C
100
AcDbEntity
  8
14086600_KENSING
  6
Continuous
 62
     7
100
AcDbCircle
 10
273.9716850984
 20
792.952650045
 30
0.0
 40
25.37101177561874
100
AcDbArc
 50
327.5748325623
 51
338.2689886123
  0
ARC
  5
142
330
11C
100
AcDbEntity
  8
14086600_KENSING
  6
Continuous
 62
     7
100
AcDbCircle
 10
273.9716850984
 20
792.4875860396
 30
0.0
 40
25.37101177561875
100
AcDbArc
 50
21.7310113877
 51
32.4251674377
  0
ARC
  5
143
330
11C
100
AcDbEntity
  8
14086600_KENSING
  6
Continuous
 62
     7
100
AcDbCircle
 10
297.2609579739
 20
801.7701180423
 30
0.0
 40
0.2999999999999947
100
AcDbArc
 50
0.0
 51
21.7310113877
  0
ARC
  5
144
330
11C
100
AcDbEntity
  8
14086600_KENSING
  6
Continuous
 62
     7
100
AcDbCircle
 10
297.2609579739
 20
783.6701180423
 30
0.0
 40
0.2999999999999982
100
AcDbArc
 50
338.2689886124
 51
0.0
  0
LINE
  5
145
330
11C
100
AcDbEntity
  8
14086600_KENSING
  6
Continuous
 62
     7
100
AcDbLine
 10
297.5609579739
 20
783.6701180423
 30
0.0
 11
297.5609579739
 21
801.7701180423
 31
0.0
  0
CIRCLE
  5
147
330
11C
100
AcDbEntity
  8
T02083008_49437_
  6
Continuous
 62
     7
100
AcDbCircle
 10
257.0846840118
 20
792.7201180423
 30
0.0
 40
3.0
  0
LINE
  5
148
330
11C
100
AcDbEntity
  8
T02083008_49437_
  6
Continuous
 62
     7
100
AcDbLine
 10
258.8167348194
 20
792.7201180423
 30
0.0
 11
257.9507094156
 21
791.2201180423
 31
0.0
  0
LINE
  5
149
330
11C
100
AcDbEntity
  8
T02083008_49437_
  6
Continuous
 62
     7
100
AcDbLine
 10
257.9507094156
 20
791.2201180423
 30
0.0
 11
256.218658608
 21
791.2201180423
 31
0.0
  0
LINE
  5
14A
330
11C
100
AcDbEntity
  8
T02083008_49437_
  6
Continuous
 62
     7
100
AcDbLine
 10
256.218658608
 20
791.2201180423
 30
0.0
 11
255.3526332043
 21
792.7201180423
 31
0.0
  0
LINE
  5
14B
330
11C
100
AcDbEntity
  8
T02083008_49437_
  6
Continuous
 62
     7
100
AcDbLine
 10
255.3526332043
 20
792.7201180423
 30
0.0
 11
256.218658608
 21
794.2201180423
 31
0.0
  0
LINE
  5
14C
330
11C
100
AcDbEntity
  8
T02083008_49437_
  6
Continuous
 62
     7
100
AcDbLine
 10
256.218658608
 20
794.2201180423
 30
0.0
 11
257.9507094156
 21
794.2201180423
 31
0.0
  0
LINE
  5
14D
330
11C
100
AcDbEntity
  8
T02083008_49437_
  6
Continuous
 62
     7
100
AcDbLine
 10
257.9507094156
 20
794.2201180423
 30
0.0
 11
258.8167348194
 21
792.7201180423
 31
0.0
  0
ARC
  5
14E
330
11C
100
AcDbEntity
  8
T02083008_49437_
  6
Continuous
 62
     7
100
AcDbCircle
 10
257.0846840118
 20
792.7201180423
 30
0.0
 40
2.3865
100
AcDbArc
 50
255.0
 51
195.0
  0
LINE
  5
14F
330
11C
100
AcDbEntity
  8
12086000_CAP_-_P
  6
Continuous
 62
     7
100
AcDbLine
 10
298.9069574429
 20
792.7201180423
 30
0.0
 11
298.0981792905
 21
792.7201180423
 31
0.0
  0
ARC
  5
150
330
11C
100
AcDbEntity
  8
12086000_CAP_-_P
  6
Continuous
 62
     7
100
AcDbCircle
 10
298.4267101741
 20
788.4741630788
 30
0.0
 40
0.500000000000167
100
AcDbArc
 50
343.8412997469
 51
0.0
  0
LINE
  5
151
330
11C
100
AcDbEntity
  8
12086000_CAP_-_P
  6
Continuous
 62
     7
100
AcDbLine
 10
298.9267101741
 20
788.4741630788
 30
0.0
 11
298.9267101741
 21
792.7201180423
 31
0.0
  0
LINE
  5
152
330
11C
100
AcDbEntity
  8
12086000_CAP_-_P
  6
Continuous
 62
     7
100
AcDbLine
 10
298.9267101741
 20
792.7201180423
 30
0.0
 11
298.9069574429
 21
792.7201180423
 31
0.0
  0
LINE
  5
153
330
11C
100
AcDbEntity
  8
12086000_CAP_-_P
  6
Continuous
 62
     7
100
AcDbLine
 10
298.9267101741
 20
792.7201180423
 30
0.0
 11
298.9267101741
 21
796.9660730057
 31
0.0
  0
ARC
  5
154
330
11C
100
AcDbEntity
  8
12086000_CAP_-_P
  6
Continuous
 62
     7
100
AcDbCircle
 10
298.4267101741
 20
796.9660730057
 30
0.0
 40
0.5000000000005278
100
AcDbArc
 50
0.0
 51
16.1587002531
  0
LINE
  5
155
330
11C
100
AcDbEntity
  8
12086000_CAP_-_P
  6
Continuous
 62
     7
100
AcDbLine
 10
298.0981792905
 20
785.5436725134
 30
0.0
 11
298.9069574429
 21
788.3350136598
 31
0.0
  0
LINE
  5
156
330
11C
100
AcDbEntity
  8
12086000_CAP_-_P
  6
Continuous
 62
     7
100
AcDbLine
 10
298.0981792905
 20
785.5436725134
 30
0.0
 11
297.7693534996
 21
784.4087939841
 31
0.0
  0
LINE
  5
157
330
11C
100
AcDbEntity
  8
12086000_CAP_-_P
  6
Continuous
 62
     7
100
AcDbLine
 10
298.0981792905
 20
799.8965635712
 30
0.0
 11
298.9069574429
 21
797.1052224247
 31
0.0
  0
LINE
  5
158
330
11C
100
AcDbEntity
  8
12086000_CAP_-_P
  6
Continuous
 62
     7
100
AcDbLine
 10
298.0981792905
 20
799.8965635712
 30
0.0
 11
297.7693534996
 21
801.0314421004
 31
0.0
  0
ARC
  5
159
330
11C
100
AcDbEntity
  8
12086000_CAP_-_P
  6
Continuous
 62
     7
100
AcDbCircle
 10
297.6310865819
 20
799.7298081167
 30
0.0
 40
0.4959667126231392
100
AcDbArc
 50
19.646929831
 51
91.6899913655
  0
LINE
  5
15A
330
11C
100
AcDbEntity
  8
12086000_CAP_-_P
  6
Continuous
 62
     7
100
AcDbLine
 10
298.0981792905
 20
792.7201180423
 30
0.0
 11
297.6164597117
 21
792.7201180423
 31
0.0
  0
ARC
  5
15B
330
11C
100
AcDbEntity
  8
12086000_CAP_-_P
  6
Continuous
 62
     7
100
AcDbCircle
 10
297.6310865819
 20
785.7104279679
 30
0.0
 40
0.4959667126235543
100
AcDbArc
 50
268.3100086345
 51
340.3530701689
  0
ARC
  5
15C
330
11C
100
AcDbEntity
  8
12086000_CAP_-_P
  6
Continuous
 62
     7
100
AcDbCircle
 10
297.2891062308
 20
800.8922926814
 30
0.0
 40
0.5000000000000013
100
AcDbArc
 50
16.1587002531
 51
57.0638911212
  0
ARC
  5
15D
330
11C
100
AcDbEntity
  8
12086000_CAP_-_P
  6
Continuous
 62
     7
100
AcDbCircle
 10
297.2891062308
 20
784.5479434031
 30
0.0
 40
0.5000000000000047
100
AcDbArc
 50
302.9361088788
 51
343.8412997469
  0
LINE
  5
15E
330
11C
100
AcDbEntity
  8
T14085030__TOWEL
  6
Continuous
 62
     7
100
AcDbLine
 10
278.3139938481
 20
183.0201180423
 30
0.0
 11
290.0542530893
 21
183.0201180423
 31
0.0
  0
LINE
  5
15F
330
11C
100
AcDbEntity
  8
T14085030__TOWEL
  6
Continuous
 62
     7
100
AcDbLine
 10
290.0813862449
 20
780.9201180423
 30
0.0
 11
278.3139938481
 21
780.9201180423
 31
0.0
  0
LINE
  5
160
330
11C
100
AcDbEntity
  8
T14085030__TOWEL
  6
Continuous
 62
     7
100
AcDbLine
 10
278.3439938481
 20
183.0201180423
 30
0.0
 11
278.3439938481
 21
181.0238844882
 31
0.0
  0
LINE
  5
161
330
11C
100
AcDbEntity
  8
T14085030__TOWEL
  6
Continuous
 62
     7
100
AcDbLine
 10
291.0139938481
 20
183.817646862
 30
0.0
 11
291.0139938481
 21
780.1254791157
 31
0.0
  0
LINE
  5
162
330
11C
100
AcDbEntity
  8
T14085030__TOWEL
  6
Continuous
 62
     7
100
AcDbLine
 10
278.3139938481
 20
780.9201180423
 30
0.0
 11
278.3139938481
 21
183.0201180423
 31
0.0
  0
LINE
  5
163
330
11C
100
AcDbEntity
  8
T14085030__TOWEL
  6
Continuous
 62
     7
100
AcDbLine
 10
278.3439938481
 20
782.9159833338
 30
0.0
 11
278.3439938481
 21
780.9201180423
 31
0.0
  0
LINE
  5
164
330
11C
100
AcDbEntity
  8
12086000_CAP_-_P
  6
Continuous
 62
     7
100
AcDbLine
 10
298.9069574429
 20
171.2201180423
 30
0.0
 11
298.0981792905
 21
171.2201180423
 31
0.0
  0
ARC
  5
165
330
11C
100
AcDbEntity
  8
12086000_CAP_-_P
  6
Continuous
 62
     7
100
AcDbCircle
 10
298.4267101741
 20
166.9741630788
 30
0.0
 40
0.500000000000167
100
AcDbArc
 50
343.8412997469
 51
0.0
  0
LINE
  5
166
330
11C
100
AcDbEntity
  8
12086000_CAP_-_P
  6
Continuous
 62
     7
100
AcDbLine
 10
298.9267101741
 20
166.9741630788
 30
0.0
 11
298.9267101741
 21
171.2201180423
 31
0.0
  0
LINE
  5
167
330
11C
100
AcDbEntity
  8
12086000_CAP_-_P
  6
Continuous
 62
     7
100
AcDbLine
 10
298.9267101741
 20
171.2201180423
 30
0.0
 11
298.9069574429
 21
171.2201180423
 31
0.0
  0
LINE
  5
168
330
11C
100
AcDbEntity
  8
12086000_CAP_-_P
  6
Continuous
 62
     7
100
AcDbLine
 10
298.9267101741
 20
171.2201180423
 30
0.0
 11
298.9267101741
 21
175.4660730057
 31
0.0
  0
ARC
  5
169
330
11C
100
AcDbEntity
  8
12086000_CAP_-_P
  6
Continuous
 62
     7
100
AcDbCircle
 10
298.4267101741
 20
175.4660730057
 30
0.0
 40
0.500000000000389
100
AcDbArc
 50
0.0
 51
16.1587002531
  0
LINE
  5
16A
330
11C
100
AcDbEntity
  8
12086000_CAP_-_P
  6
Continuous
 62
     7
100
AcDbLine
 10
298.0981792905
 20
164.0436725134
 30
0.0
 11
298.9069574429
 21
166.8350136598
 31
0.0
  0
LINE
  5
16B
330
11C
100
AcDbEntity
  8
12086000_CAP_-_P
  6
Continuous
 62
     7
100
AcDbLine
 10
298.0981792905
 20
164.0436725134
 30
0.0
 11
297.7693534996
 21
162.9087939841
 31
0.0
  0
LINE
  5
16C
330
11C
100
AcDbEntity
  8
12086000_CAP_-_P
  6
Continuous
 62
     7
100
AcDbLine
 10
298.0981792905
 20
178.3965635712
 30
0.0
 11
298.9069574429
 21
175.6052224247
 31
0.0
  0
LINE
  5
16D
330
11C
100
AcDbEntity
  8
12086000_CAP_-_P
  6
Continuous
 62
     7
100
AcDbLine
 10
298.0981792905
 20
178.3965635712
 30
0.0
 11
297.7693534996
 21
179.5314421004
 31
0.0
  0
ARC
  5
16E
330
11C
100
AcDbEntity
  8
12086000_CAP_-_P
  6
Continuous
 62
     7
100
AcDbCircle
 10
297.6310865819
 20
178.2298081167
 30
0.0
 40
0.4959667126231392
100
AcDbArc
 50
19.646929831
 51
91.6899913655
  0
LINE
  5
16F
330
11C
100
AcDbEntity
  8
12086000_CAP_-_P
  6
Continuous
 62
     7
100
AcDbLine
 10
298.0981792905
 20
171.2201180423
 30
0.0
 11
297.6164597117
 21
171.2201180423
 31
0.0
  0
ARC
  5
170
330
11C
100
AcDbEntity
  8
12086000_CAP_-_P
  6
Continuous
 62
     7
100
AcDbCircle
 10
297.6310865819
 20
164.2104279679
 30
0.0
 40
0.4959667126235543
100
AcDbArc
 50
268.3100086345
 51
340.3530701689
  0
ARC
  5
171
330
11C
100
AcDbEntity
  8
12086000_CAP_-_P
  6
Continuous
 62
     7
100
AcDbCircle
 10
297.2891062308
 20
179.3922926814
 30
0.0
 40
0.5000000000000013
100
AcDbArc
 50
16.1587002531
 51
57.0638911212
  0
ARC
  5
172
330
11C
100
AcDbEntity
  8
12086000_CAP_-_P
  6
Continuous
 62
     7
100
AcDbCircle
 10
297.2891062308
 20
163.0479434031
 30
0.0
 40
0.5000000000000047
100
AcDbArc
 50
302.9361088788
 51
343.8412997469
  0
CIRCLE
  5
173
330
11C
100
AcDbEntity
  8
T02083008_49437_
  6
Continuous
 62
     7
100
AcDbCircle
 10
257.0846840118
 20
171.2201180423
 30
0.0
 40
3.0
  0
LINE
  5
174
330
11C
100
AcDbEntity
  8
T02083008_49437_
  6
Continuous
 62
     7
100
AcDbLine
 10
258.8167348194
 20
171.2201180423
 30
0.0
 11
257.9507094156
 21
169.7201180423
 31
0.0
  0
LINE
  5
175
330
11C
100
AcDbEntity
  8
T02083008_49437_
  6
Continuous
 62
     7
100
AcDbLine
 10
257.9507094156
 20
169.7201180423
 30
0.0
 11
256.218658608
 21
169.7201180423
 31
0.0
  0
LINE
  5
176
330
11C
100
AcDbEntity
  8
T02083008_49437_
  6
Continuous
 62
     7
100
AcDbLine
 10
256.218658608
 20
169.7201180423
 30
0.0
 11
255.3526332043
 21
171.2201180423
 31
0.0
  0
LINE
  5
177
330
11C
100
AcDbEntity
  8
T02083008_49437_
  6
Continuous
 62
     7
100
AcDbLine
 10
255.3526332043
 20
171.2201180423
 30
0.0
 11
256.218658608
 21
172.7201180423
 31
0.0
  0
LINE
  5
178
330
11C
100
AcDbEntity
  8
T02083008_49437_
  6
Continuous
 62
     7
100
AcDbLine
 10
256.218658608
 20
172.7201180423
 30
0.0
 11
257.9507094156
 21
172.7201180423
 31
0.0
  0
LINE
  5
179
330
11C
100
AcDbEntity
  8
T02083008_49437_
  6
Continuous
 62
     7
100
AcDbLine
 10
257.9507094156
 20
172.7201180423
 30
0.0
 11
258.8167348194
 21
171.2201180423
 31
0.0
  0
ARC
  5
17A
330
11C
100
AcDbEntity
  8
T02083008_49437_
  6
Continuous
 62
     7
100
AcDbCircle
 10
257.0846840118
 20
171.2201180423
 30
0.0
 40
2.3865
100
AcDbArc
 50
255.0
 51
195.0
  0
LINE
  5
17B
330
11C
100
AcDbEntity
  8
T14085010__SLEEV
  6
Continuous
 62
     7
100
AcDbLine
 10
276.6846840118
 20
180.9703211922
 30
0.0
 11
276.6846840118
 21
161.4699148923
 31
0.0
  0
LINE
  5
17C
330
11C
100
AcDbEntity
  8
T14085010__SLEEV
  6
Continuous
 62
     7
100
AcDbLine
 10
239.2781131143
 20
189.1701180423
 30
0.0
 11
239.2781131143
 21
153.2701180423
 31
0.0
  0
CIRCLE
  5
17D
330
11C
100
AcDbEntity
  8
T14085010__SLEEV
  6
Continuous
 62
     7
100
AcDbCircle
 10
257.0846840118
 20
171.2201180423
 30
0.0
 40
3.300000000000038
  0
LINE
  5
17E
330
11C
100
AcDbEntity
  8
T14085010__SLEEV
  6
Continuous
 62
     7
100
AcDbLine
 10
275.7724610292
 20
160.6485456295
 30
0.0
 11
276.6846840118
 21
161.4699148923
 31
0.0
  0
LINE
  5
17F
330
11C
100
AcDbEntity
  8
T14085010__SLEEV
  6
Continuous
 62
     7
100
AcDbLine
 10
276.6846840118
 20
180.9703211922
 30
0.0
 11
275.7724610292
 21
181.791690455
 31
0.0
  0
ARC
  5
180
330
11C
100
AcDbEntity
  8
T14085010__SLEEV
  6
Continuous
 62
     7
100
AcDbCircle
 10
275.4378957261
 20
181.4201180423
 30
0.0
 40
0.4999999999999741
100
AcDbArc
 50
48.0
 51
100.2120265005
  0
ARC
  5
181
330
11C
100
AcDbEntity
  8
T14085010__SLEEV
  6
Continuous
 62
     7
100
AcDbCircle
 10
275.4378957261
 20
161.0201180423
 30
0.0
 40
0.4999999999999784
100
AcDbArc
 50
259.7879734995
 51
312.0
  0
ARC
  5
182
330
11C
100
AcDbEntity
  8
T14085010__SLEEV
  6
Continuous
 62
     7
100
AcDbCircle
 10
266.4846840118
 20
231.1201180423
 30
0.0
 40
49.99999999999999
100
AcDbArc
 50
237.0346722594
 51
280.2120265005
  0
ARC
  5
183
330
11C
100
AcDbEntity
  8
T14085010__SLEEV
  6
Continuous
 62
     7
100
AcDbCircle
 10
266.4846840118
 20
111.3201180423
 30
0.0
 40
50.00000000000004
100
AcDbArc
 50
79.7879734995
 51
122.9653277406
  0
ARC
  5
184
330
11C
100
AcDbEntity
  8
T14085010__SLEEV
  6
Continuous
 62
     7
100
AcDbCircle
 10
238.9846840118
 20
188.5345872705
 30
0.0
 40
0.6999999999999829
100
AcDbArc
 50
65.2168920114
 51
180.0
  0
ARC
  5
185
330
11C
100
AcDbEntity
  8
T14085010__SLEEV
  6
Continuous
 62
     7
100
AcDbCircle
 10
238.9846840118
 20
153.905648814
 30
0.0
 40
0.6999999999999993
100
AcDbArc
 50
180.0
 51
294.7831079886
  0
LINE
  5
186
330
11C
100
AcDbEntity
  8
14086500_ESC_-_A
  6
Continuous
 62
     7
100
AcDbLine
 10
230.9307989125
 20
146.9974840195
 30
0.0
 11
231.7531647752
 21
147.6399866478
 31
0.0
  0
LINE
  5
187
330
11C
100
AcDbEntity
  8
14086500_ESC_-_A
  6
Continuous
 62
     7
100
AcDbLine
 10
238.0536995292
 20
152.5625038904
 30
0.0
 11
237.9505572671
 21
152.4819203235
 31
0.0
  0
LINE
  5
188
330
11C
100
AcDbEntity
  8
14086500_ESC_-_A
  6
Continuous
 62
     7
100
AcDbLine
 10
237.9505572671
 20
152.4819203235
 30
0.0
 11
231.753164775
 21
147.6399866476
 31
0.0
  0
LINE
  5
189
330
11C
100
AcDbEntity
  8
14086500_ESC_-_A
  6
Continuous
 62
     7
100
AcDbLine
 10
237.9505572671
 20
189.958315761
 30
0.0
 11
238.0536995292
 21
189.8777321941
 31
0.0
  0
LINE
  5
18A
330
11C
100
AcDbEntity
  8
14086500_ESC_-_A
  6
Continuous
 62
     7
100
AcDbLine
 10
231.7531647752
 20
194.8002494368
 30
0.0
 11
237.9505572671
 21
189.958315761
 31
0.0
  0
LINE
  5
18B
330
11C
100
AcDbEntity
  8
14086500_ESC_-_A
  6
Continuous
 62
     7
100
AcDbLine
 10
238.2846840118
 20
189.0089469711
 30
0.0
 11
238.2846840118
 21
153.4312891135
 31
0.0
  0
LINE
  5
18C
330
11C
100
AcDbEntity
  8
14086500_ESC_-_A
  6
Continuous
 62
     7
100
AcDbLine
 10
229.2846840118
 20
195.1050839046
 30
0.0
 11
229.2846840118
 21
147.3351521799
 31
0.0
  0
ARC
  5
18D
330
11C
100
AcDbEntity
  8
14086500_ESC_-_A
  6
Continuous
 62
     7
100
AcDbCircle
 10
230.6173223119
 20
147.4027496295
 30
0.0
 40
0.5120592913166995
100
AcDbArc
 50
255.6750879411
 51
301.4934008872
  0
SPLINE
  5
18E
330
11C
100
AcDbEntity
  8
14086500_ESC_-_A
  6
Continuous
 62
     7
100
AcDbSpline
210
0.0
220
0.0
230
1.0
 70
     8
 71
     3
 72
    11
 73
     7
 74
     0
 42
0.0000000067414032
 43
0.0000000001
 40
0.0
 40
0.0
 40
0.0
 40
0.0
 40
0.2397488513182238
 40
0.4920024129334652
 40
0.7455482974835885
 40
1.0
 40
1.0
 40
1.0
 40
1.0
 10
231.7516439413656
 20
194.8007089224924
 30
0.0
 10
231.580188603248
 20
194.9321266840414
 30
0.0
 10
231.2864988021891
 20
195.1556657828772
 30
0.0
 10
230.9169927864467
 20
195.3948542394244
 30
0.0
 10
230.6339144776878
 20
195.532449862756
 30
0.0
 10
230.5421984508933
 20
195.5351164295228
 30
0.0
 10
230.4906284407474
 20
195.5336249244563
 30
0.0
  0
SPLINE
  5
18F
330
11C
100
AcDbEntity
  8
14086500_ESC_-_A
  6
Continuous
 62
     7
100
AcDbSpline
210
0.0
220
0.0
230
1.0
 70
     8
 71
     3
 72
    11
 73
     7
 74
     0
 42
0.0000000247801638
 43
0.0000000001
 40
0.0
 40
0.0
 40
0.0
 40
0.0
 40
0.2500000000035004
 40
0.5000000000046741
 40
0.750000000010256
 40
1.0
 40
1.0
 40
1.0
 40
1.0
 10
238.053699529189
 20
152.5625038903845
 30
0.0
 10
238.0815035013573
 20
152.5865696836358
 30
0.0
 10
238.1281242969996
 20
152.6281772597263
 30
0.0
 10
238.18613514636
 20
152.7126988604629
 30
0.0
 10
238.226996262836
 20
152.8067176287731
 30
0.0
 10
238.2375263053942
 20
152.8683115179019
 30
0.0
 10
238.2431719419516
 20
152.9046481393859
 30
0.0
  0
SPLINE
  5
190
330
11C
100
AcDbEntity
  8
14086500_ESC_-_A
  6
Continuous
 62
     7
100
AcDbSpline
210
0.0
220
0.0
230
1.0
 70
     8
 71
     3
 72
    11
 73
     7
 74
     0
 42
0.0000000247801638
 43
0.0000000001
 40
0.0
 40
0.0
 40
0.0
 40
0.0
 40
0.2499999999898865
 40
0.4999999999954514
 40
0.749999999996623
 40
1.0
 40
1.0
 40
1.0
 40
1.0
 10
238.2431719420196
 20
189.5355879444924
 30
0.0
 10
238.2375263054977
 20
189.5719245660424
 30
0.0
 10
238.2269962629963
 20
189.6335184552855
 30
0.0
 10
238.1861351465292
 20
189.7275372237842
 30
0.0
 10
238.1281242971151
 20
189.8120588246891
 30
0.0
 10
238.0815035014005
 20
189.8536664008532
 30
0.0
 10
238.0536995291889
 20
189.8777321941461
 30
0.0
  0
ARC
  5
191
330
11C
100
AcDbEntity
  8
14086500_ESC_-_A
  6
Continuous
 62
     7
100
AcDbCircle
 10
227.8362278523
 20
153.9899240715
 30
0.0
 40
10.46337943180476
100
AcDbArc
 50
353.9854637468
 51
356.9395498828
  0
ARC
  5
192
330
11C
100
AcDbEntity
  8
14086500_ESC_-_A
  6
Continuous
 62
     7
100
AcDbCircle
 10
227.8362278523
 20
188.450312013
 30
0.0
 40
10.46337943180474
100
AcDbArc
 50
3.0604501172
 51
6.0147178378
  0
ARC
  5
193
330
11C
100
AcDbEntity
  8
14086500_ESC_-_A
  6
Continuous
 62
     7
100
AcDbCircle
 10
232.5976678477
 20
154.7470440805
 30
0.0
 40
8.118620784498145
100
AcDbArc
 50
245.9162061553
 51
254.9537227288
  0
ARC
  5
194
330
11C
100
AcDbEntity
  8
14086500_ESC_-_A
  6
Continuous
 62
     7
100
AcDbCircle
 10
232.5976678477
 20
187.693192004
 30
0.0
 40
8.118620784498214
100
AcDbArc
 50
105.0451366547
 51
114.0837938447
  0
SPLINE
  5
195
330
11C
100
AcDbEntity
  8
14086600_KENSING
  6
Continuous
 62
     7
100
AcDbSpline
210
0.0
220
0.0
230
1.0
 70
     8
 71
     3
 72
    19
 73
    15
 74
     0
 42
0.0000000003436993
 43
0.0000000001
 40
0.1043778234539458
 40
0.1043778234539458
 40
0.1043778234539458
 40
0.1043778234539458
 40
0.1251170710873906
 40
0.1558473225219315
 40
0.1881442302723451
 40
0.2506084856884709
 40
0.3129321670427939
 40
0.3452930267261712
 40
0.374877018507401
 40
0.4055718082612613
 40
0.4368398296886222
 40
0.4993223656071651
 40
0.5621158558886326
 40
0.6044362231554937
 40
0.6044362231554937
 40
0.6044362231554937
 40
0.6044362231554937
 10
291.132158575008
 20
183.915784721048
 30
0.0
 10
291.1320732605478
 20
183.9163224812416
 30
0.0
 10
291.083252894348
 20
183.8764879025074
 30
0.0
 10
290.8037511547341
 20
183.639536260923
 30
0.0
 10
290.0892786855749
 20
183.0474406443637
 30
0.0
 10
288.7432570579421
 20
181.9943399206578
 30
0.0
 10
286.9812227925499
 20
180.8641352952303
 30
0.0
 10
285.3697280050098
 20
180.1435062534597
 30
0.0
 10
284.0769270009564
 20
179.770128243197
 30
0.0
 10
282.7671361459387
 20
179.6379164056397
 30
0.0
 10
281.1071443497326
 20
179.8131666744709
 30
0.0
 10
279.4081114462527
 20
180.4348692008494
 30
0.0
 10
278.318552083701
 20
181.035744879336
 30
0.0
 10
278.1132155618672
 20
181.1545040582502
 30
0.0
 10
278.1119183949681
 20
181.1556741778854
 30
0.0
  0
ARC
  5
196
330
11C
100
AcDbEntity
  8
14086600_KENSING
  6
Continuous
 62
     7
100
AcDbCircle
 10
271.3225124049
 20
245.2725579529
 30
0.0
 40
64.47328802311752
100
AcDbArc
 50
275.1765129594
 51
276.068127919
  0
ARC
  5
197
330
11C
100
AcDbEntity
  8
14086600_KENSING
  6
Continuous
 62
     7
100
AcDbCircle
 10
271.3225124049
 20
245.2725579529
 30
0.0
 40
64.4732880231175
100
AcDbArc
 50
287.8674206979
 51
290.7724246819
  0
ARC
  5
198
330
11C
100
AcDbEntity
  8
14086600_KENSING
  6
Continuous
 62
     7
100
AcDbCircle
 10
271.3225124049
 20
97.1676781317
 30
0.0
 40
64.47328802311748
100
AcDbArc
 50
69.2275753181
 51
84.8234870406
  0
ARC
  5
199
330
11C
100
AcDbEntity
  8
14086600_KENSING
  6
Continuous
 62
     7
100
AcDbCircle
 10
294.5430728594
 20
184.0552645078
 30
0.0
 40
0.99999999999999
100
AcDbArc
 50
32.4251674377
 51
110.7724246819
  0
ARC
  5
19A
330
11C
100
AcDbEntity
  8
14086600_KENSING
  6
Continuous
 62
     7
100
AcDbCircle
 10
294.5430728594
 20
158.3849715767
 30
0.0
 40
1.000000000000004
100
AcDbArc
 50
249.2275753181
 51
327.5748325623
  0
ARC
  5
19B
330
11C
100
AcDbEntity
  8
14086600_KENSING
  6
Continuous
 62
     7
100
AcDbCircle
 10
277.1846840118
 20
180.5642655895
 30
0.0
 40
0.5000000000000276
100
AcDbArc
 50
95.1765129594
 51
180.0
  0
ARC
  5
19C
330
11C
100
AcDbEntity
  8
14086600_KENSING
  6
Continuous
 62
     7
100
AcDbCircle
 10
277.1846840118
 20
161.875970495
 30
0.0
 40
0.5000000000000004
100
AcDbArc
 50
180.0
 51
264.8234870406
  0
ARC
  5
19D
330
11C
100
AcDbEntity
  8
14086600_KENSING
  6
Continuous
 62
     7
100
AcDbCircle
 10
273.9716850984
 20
171.452650045
 30
0.0
 40
25.37101177561876
100
AcDbArc
 50
327.5748325623
 51
338.2689886123
  0
ARC
  5
19E
330
11C
100
AcDbEntity
  8
14086600_KENSING
  6
Continuous
 62
     7
100
AcDbCircle
 10
273.9716850984
 20
170.9875860396
 30
0.0
 40
25.37101177561876
100
AcDbArc
 50
21.7310113877
 51
32.4251674377
  0
ARC
  5
19F
330
11C
100
AcDbEntity
  8
14086600_KENSING
  6
Continuous
 62
     7
100
AcDbCircle
 10
297.2609579739
 20
180.2701180423
 30
0.0
 40
0.3000000000000086
100
AcDbArc
 50
0.0
 51
21.7310113877
  0
ARC
  5
1A0
330
11C
100
AcDbEntity
  8
14086600_KENSING
  6
Continuous
 62
     7
100
AcDbCircle
 10
297.2609579739
 20
162.1701180423
 30
0.0
 40
0.2999999999999852
100
AcDbArc
 50
338.2689886124
 51
0.0
  0
LINE
  5
1A1
330
11C
100
AcDbEntity
  8
14086600_KENSING
  6
Continuous
 62
     7
100
AcDbLine
 10
297.5609579739
 20
162.1701180423
 30
0.0
 11
297.5609579739
 21
180.2701180423
 31
0.0
  0
ENDBLK
  5
1A3
330
11C
100
AcDbEntity
  8
0
100
AcDbBlockEnd
  0
BLOCK
  5
1DD
330
1A4
100
AcDbEntity
  8
0
100
AcDbBlockBegin
  2
SE2
 70
     0
 10
0.0
 20
0.0
 30
0.0
  3
SE2
  1

  0
LINE
  5
1A6
330
1A4
100
AcDbEntity
  8
14086500_ESC_-_A
  6
Continuous
 62
     7
100
AcDbLine
 10
170.6773586892
 20
104.0246197279
 30
0.0
 11
170.1115483198
 21
103.3004154802
 31
0.0
  0
LINE
  5
1A7
330
1A4
100
AcDbEntity
  8
14086500_ESC_-_A
  6
Continuous
 62
     7
100
AcDbLine
 10
170.1115483198
 20
103.3004154802
 30
0.0
 11
165.2696146441
 21
97.1030229883
 31
0.0
  0
LINE
  5
1A8
330
1A4
100
AcDbEntity
  8
14086500_ESC_-_A
  6
Continuous
 62
     7
100
AcDbLine
 10
165.1890310772
 20
96.9998807262
 30
0.0
 11
165.2696146441
 21
97.1030229883
 31
0.0
  0
LINE
  5
1A9
330
1A4
100
AcDbEntity
  8
14086500_ESC_-_A
  6
Continuous
 62
     7
100
AcDbLine
 10
127.7932192066
 20
97.1030229883
 30
0.0
 11
122.9512855306
 21
103.3004154805
 31
0.0
  0
LINE
  5
1AA
330
1A4
100
AcDbEntity
  8
14086500_ESC_-_A
  6
Continuous
 62
     7
100
AcDbLine
 10
127.8738027735
 20
96.9998807262
 30
0.0
 11
127.7932192066
 21
97.1030229883
 31
0.0
  0
LINE
  5
1AB
330
1A4
100
AcDbEntity
  8
14086500_ESC_-_A
  6
Continuous
 62
     7
100
AcDbLine
 10
164.3202458541
 20
96.7688962436
 30
0.0
 11
128.7425879965
 21
96.7688962436
 31
0.0
  0
LINE
  5
1AC
330
1A4
100
AcDbEntity
  8
14086500_ESC_-_A
  6
Continuous
 62
     7
100
AcDbLine
 10
170.4163827877
 20
105.7688962436
 30
0.0
 11
122.646451063
 21
105.7688962436
 31
0.0
  0
SPLINE
  5
1AD
330
1A4
100
AcDbEntity
  8
14086500_ESC_-_A
  6
Continuous
 62
     7
100
AcDbSpline
210
0.0
220
0.0
230
1.0
 70
     8
 71
     3
 72
    13
 73
     9
 74
     0
 42
0.0000000183512478
 43
0.0000000001
 40
0.0
 40
0.0
 40
0.0
 40
0.0
 40
0.1557626341636314
 40
0.372190797244661
 40
0.6151354511857737
 40
0.7833429414330292
 40
0.9031682776043523
 40
1.0
 40
1.0
 40
1.0
 40
1.0
 10
170.7027482545638
 20
104.0611347957114
 30
0.0
 10
170.7157372429634
 20
104.0784726754646
 30
0.0
 10
170.7419526560973
 20
104.1139277602803
 30
0.0
 10
170.7847691729459
 20
104.1787836665191
 30
0.0
 10
170.825540635773
 20
104.2552269401727
 30
0.0
 10
170.8548249646993
 20
104.3475962041343
 30
0.0
 10
170.8657809043589
 20
104.4552612307704
 30
0.0
 10
170.8522249297238
 20
104.5254179468302
 30
0.0
 10
170.8449238075307
 20
104.56295181464
 30
0.0
  0
SPLINE
  5
1AE
330
1A4
100
AcDbEntity
  8
14086500_ESC_-_A
  6
Continuous
 62
     7
100
AcDbSpline
210
0.0
220
0.0
230
1.0
 70
     8
 71
     3
 72
    11
 73
     7
 74
     0
 42
0.0000000247801638
 43
0.0000000001
 40
0.0
 40
0.0
 40
0.0
 40
0.0
 40
0.2499999999897193
 40
0.4999999999953089
 40
0.749999999996537
 40
1.0
 40
1.0
 40
1.0
 40
1.0
 10
164.8468868280258
 20
96.81040831341586
 30
0.0
 10
164.8832234495294
 20
96.81605394996275
 30
0.0
 10
164.9448173386922
 20
96.82658399250408
 30
0.0
 10
165.0388361070582
 20
96.86744510897746
 30
0.0
 10
165.1233577078447
 20
96.92545595835378
 30
0.0
 10
165.1649652839571
 20
96.97207675401756
 30
0.0
 10
165.1890310772208
 20
96.99988072619871
 30
0.0
  0
SPLINE
  5
1AF
330
1A4
100
AcDbEntity
  8
14086500_ESC_-_A
  6
Continuous
 62
     7
100
AcDbSpline
210
0.0
220
0.0
230
1.0
 70
     8
 71
     3
 72
    11
 73
     7
 74
     0
 42
0.0000000073498198
 43
0.0000000001
 40
0.0
 40
0.0
 40
0.0
 40
0.0
 40
0.2686118678298003
 40
0.536315580241453
 40
0.8027143439603707
 40
1.0
 40
1.0
 40
1.0
 40
1.0
 10
122.2179100431488
 20
104.5629518146407
 30
0.0
 10
122.2164715977512
 20
104.5113158759105
 30
0.0
 10
122.2190305357567
 20
104.4196368910469
 30
0.0
 10
122.3574130806337
 20
104.1359785623203
 30
0.0
 10
122.576656369389
 20
103.7950592847169
 30
0.0
 10
122.7757400667001
 20
103.5330646306596
 30
0.0
 10
122.8772753351819
 20
103.4002125723423
 30
0.0
  0
SPLINE
  5
1B0
330
1A4
100
AcDbEntity
  8
14086500_ESC_-_A
  6
Continuous
 62
     7
100
AcDbSpline
210
0.0
220
0.0
230
1.0
 70
     8
 71
     3
 72
    11
 73
     7
 74
     0
 42
0.0000000247801638
 43
0.0000000001
 40
0.0
 40
0.0
 40
0.0
 40
0.0
 40
0.2500000000034289
 40
0.5000000000046386
 40
0.7500000000102102
 40
1.0
 40
1.0
 40
1.0
 40
1.0
 10
127.8738027734592
 20
96.99988072619887
 30
0.0
 10
127.8978685667106
 20
96.97207675403055
 30
0.0
 10
127.9394761428011
 20
96.92545595838824
 30
0.0
 10
128.0239977435376
 20
96.86744510902787
 30
0.0
 10
128.1180165118477
 20
96.82658399255182
 30
0.0
 10
128.1796104009766
 20
96.81605394999364
 30
0.0
 10
128.2159470224606
 20
96.81040831343623
 30
0.0
  0
ARC
  5
1B1
330
1A4
100
AcDbEntity
  8
14086500_ESC_-_A
  6
Continuous
 62
     7
100
AcDbCircle
 10
129.3012229546
 20
107.2173524031
 30
0.0
 40
10.46337943180476
100
AcDbArc
 50
264.0456604366
 51
266.9395498828
  0
ARC
  5
1B2
330
1A4
100
AcDbEntity
  8
14086500_ESC_-_A
  6
Continuous
 62
     7
100
AcDbCircle
 10
163.7616108961
 20
107.2173524031
 30
0.0
 40
10.46337943180474
100
AcDbArc
 50
273.0604501172
 51
275.9544550496
  0
ARC
  5
1B3
330
1A4
100
AcDbEntity
  8
14086500_ESC_-_A
  6
Continuous
 62
     7
100
AcDbCircle
 10
130.0583429636
 20
102.4559124077
 30
0.0
 40
8.118620784498185
100
AcDbArc
 50
155.9162061553
 51
164.9597034921
  0
ARC
  5
1B4
330
1A4
100
AcDbEntity
  8
14086500_ESC_-_A
  6
Continuous
 62
     7
100
AcDbCircle
 10
163.0044908871
 20
102.4559124077
 30
0.0
 40
8.11862078449818
100
AcDbArc
 50
15.0451855086
 51
24.0837938447
  0
LINE
  5
1B5
330
1A4
100
AcDbEntity
  8
T14085010__SLEEV
  6
Continuous
 62
     7
100
AcDbLine
 10
136.7812137754
 20
58.3688962436
 30
0.0
 11
156.2816200753
 21
58.3688962436
 31
0.0
  0
LINE
  5
1B6
330
1A4
100
AcDbEntity
  8
T14085010__SLEEV
  6
Continuous
 62
     7
100
AcDbLine
 10
128.5814169253
 20
95.775467141
 30
0.0
 11
164.4814169253
 21
95.775467141
 31
0.0
  0
ARC
  5
1B7
330
1A4
100
AcDbEntity
  8
T14085010__SLEEV
  6
Continuous
 62
     7
100
AcDbCircle
 10
127.009642407
 20
76.3158880392
 30
0.0
 40
9.393886280463692
100
AcDbArc
 50
349.9030100076
 51
31.8196153061
  0
LINE
  5
1B8
330
1A4
100
AcDbEntity
  8
T14085010__SLEEV
  6
Continuous
 62
     7
100
AcDbLine
 10
135.9598445126
 20
59.2811192261
 30
0.0
 11
136.7812137754
 21
58.3688962436
 31
0.0
  0
LINE
  5
1B9
330
1A4
100
AcDbEntity
  8
T14085010__SLEEV
  6
Continuous
 62
     7
100
AcDbLine
 10
156.2816200753
 20
58.3688962436
 30
0.0
 11
157.1029893381
 21
59.2811192261
 31
0.0
  0
ARC
  5
1BA
330
1A4
100
AcDbEntity
  8
T14085010__SLEEV
  6
Continuous
 62
     7
100
AcDbCircle
 10
156.7314169253
 20
59.6156845293
 30
0.0
 40
0.5000000000000044
100
AcDbArc
 50
318.0
 51
10.2120265005
  0
ARC
  5
1BB
330
1A4
100
AcDbEntity
  8
T14085010__SLEEV
  6
Continuous
 62
     7
100
AcDbCircle
 10
136.3314169253
 20
59.6156845293
 30
0.0
 40
0.5000000000000019
100
AcDbArc
 50
169.7879734995
 51
222.0
  0
ARC
  5
1BC
330
1A4
100
AcDbEntity
  8
T14085010__SLEEV
  6
Continuous
 62
     7
100
AcDbCircle
 10
206.4314169253
 20
68.5688962436
 30
0.0
 40
50.0
100
AcDbArc
 50
147.0346722594
 51
190.2120265005
  0
ARC
  5
1BD
330
1A4
100
AcDbEntity
  8
T14085010__SLEEV
  6
Continuous
 62
     7
100
AcDbCircle
 10
86.6314169253
 20
68.5688962436
 30
0.0
 40
50.0
100
AcDbArc
 50
349.7879734995
 51
7.0160568329
  0
ARC
  5
1BE
330
1A4
100
AcDbEntity
  8
T14085010__SLEEV
  6
Continuous
 62
     7
100
AcDbCircle
 10
86.6314169253
 20
68.5688962436
 30
0.0
 40
50.0
100
AcDbArc
 50
14.7015761459
 51
32.9653277406
  0
ARC
  5
1BF
330
1A4
100
AcDbEntity
  8
T14085010__SLEEV
  6
Continuous
 62
     7
100
AcDbCircle
 10
163.8458861536
 20
96.0688962436
 30
0.0
 40
0.7000000000000001
100
AcDbArc
 50
335.2168920114
 51
90.0
  0
ARC
  5
1C0
330
1A4
100
AcDbEntity
  8
T14085010__SLEEV
  6
Continuous
 62
     7
100
AcDbCircle
 10
129.2169476971
 20
96.0688962436
 30
0.0
 40
0.6999999999999993
100
AcDbArc
 50
90.0
 51
204.7831079886
  0
ARC
  5
1C1
330
1A4
100
AcDbEntity
  8
14086600_KENSING
  6
Continuous
 62
     7
100
AcDbCircle
 10
220.583856836
 20
63.7310678505
 30
0.0
 40
64.4732880231175
100
AcDbArc
 50
185.1765129594
 51
200.7724246819
  0
ARC
  5
1C2
330
1A4
100
AcDbEntity
  8
14086600_KENSING
  6
Continuous
 62
     7
100
AcDbCircle
 10
72.4789770147
 20
63.7310678505
 30
0.0
 40
64.47328802311748
100
AcDbArc
 50
339.2275753181
 51
354.8234870406
  0
ARC
  5
1C3
330
1A4
100
AcDbEntity
  8
14086600_KENSING
  6
Continuous
 62
     7
100
AcDbCircle
 10
159.3665633909
 20
40.510507396
 30
0.0
 40
0.9999999999999957
100
AcDbArc
 50
302.4251674377
 51
20.7724246819
  0
ARC
  5
1C4
330
1A4
100
AcDbEntity
  8
14086600_KENSING
  6
Continuous
 62
     7
100
AcDbCircle
 10
133.6962704598
 20
40.510507396
 30
0.0
 40
1.000000000000002
100
AcDbArc
 50
159.2275753181
 51
237.5748325623
  0
ARC
  5
1C5
330
1A4
100
AcDbEntity
  8
14086600_KENSING
  6
Continuous
 62
     7
100
AcDbCircle
 10
155.8755644726
 20
57.8688962436
 30
0.0
 40
0.4999999999999966
100
AcDbArc
 50
5.1765129594
 51
90.0
  0
ARC
  5
1C6
330
1A4
100
AcDbEntity
  8
14086600_KENSING
  6
Continuous
 62
     7
100
AcDbCircle
 10
137.1872693781
 20
57.8688962436
 30
0.0
 40
0.5000000000000004
100
AcDbArc
 50
90.0
 51
174.8234870406
  0
ARC
  5
1C7
330
1A4
100
AcDbEntity
  8
14086600_KENSING
  6
Continuous
 62
     7
100
AcDbCircle
 10
146.7639489281
 20
61.081895157
 30
0.0
 40
25.37101177561874
100
AcDbArc
 50
237.5748325623
 51
248.2689886123
  0
ARC
  5
1C8
330
1A4
100
AcDbEntity
  8
14086600_KENSING
  6
Continuous
 62
     7
100
AcDbCircle
 10
146.2988849226
 20
61.081895157
 30
0.0
 40
25.37101177561876
100
AcDbArc
 50
291.7310113877
 51
302.4251674377
  0
ARC
  5
1C9
330
1A4
100
AcDbEntity
  8
14086600_KENSING
  6
Continuous
 62
     7
100
AcDbCircle
 10
155.5814169253
 20
37.7926222815
 30
0.0
 40
0.2999999999999947
100
AcDbArc
 50
270.0
 51
291.7310113877
  0
ARC
  5
1CA
330
1A4
100
AcDbEntity
  8
14086600_KENSING
  6
Continuous
 62
     7
100
AcDbCircle
 10
137.4814169253
 20
37.7926222815
 30
0.0
 40
0.300000000000009
100
AcDbArc
 50
248.2689886123
 51
270.0
  0
LINE
  5
1CB
330
1A4
100
AcDbEntity
  8
14086600_KENSING
  6
Continuous
 62
     7
100
AcDbLine
 10
137.4814169253
 20
37.4926222815
 30
0.0
 11
155.5814169253
 21
37.4926222815
 31
0.0
  0
LINE
  5
1CC
330
1A4
100
AcDbEntity
  8
12086000_CAP_-_P
  6
Continuous
 62
     7
100
AcDbLine
 10
141.467934534
 20
36.1466228124
 30
0.0
 11
138.2447714095
 21
36.9554009649
 31
0.0
  0
ELLIPSE
  5
1CD
330
1A4
100
AcDbEntity
  8
12086000_CAP_-_P
  6
Continuous
 62
     7
100
AcDbEllipse
 10
151.4342234076
 20
36.6268700812
 30
0.0
 11
0.5773502691896251
 21
-6.407901379123562E-15
 31
0.0
210
0.0
220
0.0
230
1.0
 40
0.8660254038
 41
4.712388980384699
 42
4.99441150264413
  0
ELLIPSE
  5
1CE
330
1A4
100
AcDbEntity
  8
12086000_CAP_-_P
  6
Continuous
 62
     7
100
AcDbEllipse
 10
141.6286104431
 20
36.6268700812
 30
0.0
 11
-0.5773502691896191
 21
4.187455329873268E-15
 31
0.0
210
0.0
220
0.0
230
1.0
 40
0.8660254038
 41
1.28877380453552
 42
1.570796326794903
  0
LINE
  5
1CF
330
1A4
100
AcDbEntity
  8
12086000_CAP_-_P
  6
Continuous
 62
     7
100
AcDbLine
 10
141.6286104431
 20
36.1268700812
 30
0.0
 11
144.0800136842
 21
36.1268700812
 31
0.0
  0
ELLIPSE
  5
1D0
330
1A4
100
AcDbEntity
  8
12086000_CAP_-_P
  6
Continuous
 62
     7
100
AcDbEllipse
 10
144.0800136842
 20
36.6268700812
 30
0.0
 11
-7.329206686002010E-14
 21
-0.500000000000278
 31
0.0
210
0.0
220
0.0
230
1.0
 40
0.5773502692
 41
6.001162784920414
 42
6.283185307179586
  0
LINE
  5
1D1
330
1A4
100
AcDbEntity
  8
12086000_CAP_-_P
  6
Continuous
 62
     7
100
AcDbLine
 10
144.0800136842
 20
36.1268700812
 30
0.0
 11
148.9828201665
 21
36.1268700812
 31
0.0
  0
ELLIPSE
  5
1D2
330
1A4
100
AcDbEntity
  8
12086000_CAP_-_P
  6
Continuous
 62
     7
100
AcDbEllipse
 10
148.9828201665
 20
36.6268700812
 30
0.0
 11
4.336808689942018E-16
 21
-0.4999999999999588
 31
0.0
210
0.0
220
0.0
230
1.0
 40
0.5773502692
 41
0.0
 42
0.2820225222594538
  0
LINE
  5
1D3
330
1A4
100
AcDbEntity
  8
12086000_CAP_-_P
  6
Continuous
 62
     7
100
AcDbLine
 10
148.9828201665
 20
36.1268700812
 30
0.0
 11
151.4342234076
 21
36.1268700812
 31
0.0
  0
LINE
  5
1D4
330
1A4
100
AcDbEntity
  8
12086000_CAP_-_P
  6
Continuous
 62
     7
100
AcDbLine
 10
154.8180624412
 20
36.9554009649
 30
0.0
 11
151.5948993166
 21
36.1466228124
 31
0.0
  0
LINE
  5
1D5
330
1A4
100
AcDbEntity
  8
12086000_CAP_-_P
  6
Continuous
 62
     7
100
AcDbLine
 10
142.3880941674
 20
36.9554009649
 30
0.0
 11
143.9996757297
 21
36.1466228124
 31
0.0
  0
LINE
  5
1D6
330
1A4
100
AcDbEntity
  8
12086000_CAP_-_P
  6
Continuous
 62
     7
100
AcDbLine
 10
150.6747396833
 20
36.9554009649
 30
0.0
 11
149.063158121
 21
36.1466228124
 31
0.0
  0
SPLINE
  5
1D7
330
1A4
100
AcDbEntity
  8
12086000_CAP_-_P
  6
Continuous
 62
     7
100
AcDbSpline
210
0.0
220
0.0
230
1.0
 70
     8
 71
     3
 72
    10
 73
     6
 74
     0
 42
0.0000000183253848
 43
0.0000000001
 40
0.0
 40
0.0
 40
0.0
 40
0.0
 40
0.5
 40
0.5
 40
1.0
 40
1.0
 40
1.0
 40
1.0
 10
142.3880941673974
 20
36.95540096492353
 30
0.0
 10
142.3343092045683
 20
36.98239314694274
 30
0.0
 10
142.2866214836406
 20
37.04470840676733
 30
0.0
 10
142.2182287902625
 20
37.2186018409625
 30
0.0
 10
142.1991024778669
 20
37.3278151983687
 30
0.0
 10
142.19814851189
 20
37.43712054371515
 30
0.0
  0
SPLINE
  5
1D8
330
1A4
100
AcDbEntity
  8
12086000_CAP_-_P
  6
Continuous
 62
     7
100
AcDbSpline
210
0.0
220
0.0
230
1.0
 70
     8
 71
     3
 72
    10
 73
     6
 74
     0
 42
0.0000000183253848
 43
0.0000000001
 40
0.0
 40
0.0
 40
0.0
 40
0.0
 40
0.5
 40
0.5
 40
1.0
 40
1.0
 40
1.0
 40
1.0
 10
150.8646853387888
 20
37.4371205437152
 30
0.0
 10
150.8637313728319
 20
37.32781519836877
 30
0.0
 10
150.8446050604163
 20
37.21860184096257
 30
0.0
 10
150.7762123670382
 20
37.04470840676739
 30
0.0
 10
150.728524646111
 20
36.98239314694273
 30
0.0
 10
150.6747396832818
 20
36.95540096492351
 30
0.0
  0
SPLINE
  5
1D9
330
1A4
100
AcDbEntity
  8
12086000_CAP_-_P
  6
Continuous
 62
     7
100
AcDbSpline
210
0.0
220
0.0
230
1.0
 70
     8
 71
     3
 72
    10
 73
     6
 74
     0
 42
0.0000000149005003
 43
0.0000000001
 40
0.0
 40
0.0
 40
0.0
 40
0.0
 40
0.5
 40
0.5
 40
1.0
 40
1.0
 40
1.0
 40
1.0
 10
138.2447714094551
 20
36.95540096492358
 30
0.0
 10
138.1372014837968
 20
36.9823931469428
 30
0.0
 10
138.0418260419412
 20
37.04470840676742
 30
0.0
 10
137.905040655185
 20
37.21860184096257
 30
0.0
 10
137.8667880303401
 20
37.32781519836875
 30
0.0
 10
137.8648800984401
 20
37.43712054371522
 30
0.0
  0
SPLINE
  5
1DA
330
1A4
100
AcDbEntity
  8
12086000_CAP_-_P
  6
Continuous
 62
     7
100
AcDbSpline
210
0.0
220
0.0
230
1.0
 70
     8
 71
     3
 72
    10
 73
     6
 74
     0
 42
0.0000000149005003
 43
0.0000000001
 40
0.0
 40
0.0
 40
0.0
 40
0.0
 40
0.5
 40
0.5
 40
1.0
 40
1.0
 40
1.0
 40
1.0
 10
155.1979537522392
 20
37.43712054371532
 30
0.0
 10
155.1960458203392
 20
37.32781519836889
 30
0.0
 10
155.1577931954942
 20
37.21860184096269
 30
0.0
 10
155.0210078087381
 20
37.0447084067675
 30
0.0
 10
154.9256323668825
 20
36.98239314694277
 30
0.0
 10
154.8180624412242
 20
36.95540096492354
 30
0.0
  0
LINE
  5
1DB
330
1A4
100
AcDbEntity
  8
12086000_CAP_-_P
  6
Continuous
 62
     7
100
AcDbLine
 10
137.863911312
 20
37.4926222815
 30
0.0
 11
137.8648800984
 21
37.4371205437
 31
0.0
  0
LINE
  5
1DC
330
1A4
100
AcDbEntity
  8
12086000_CAP_-_P
  6
Continuous
 62
     7
100
AcDbLine
 10
155.1979537522
 20
37.4371205437
 30
0.0
 11
155.1989225387
 21
37.4926222815
 31
0.0
  0
ENDBLK
  5
1DE
330
1A4
100
AcDbEntity
  8
0
100
AcDbBlockEnd
  0
ENDSEC
  0
SECTION
  2
ENTITIES
  0
INSERT
  5
5F
330
1F
100
AcDbEntity
  8
Default
100
AcDbBlockReference
  2
SEANNOT_GROUP
 10
0.0
 20
0.0
 30
0.0
  0
INSERT
  5
6A
330
1F
100
AcDbEntity
  8
Default
100
AcDbBlockReference
  2
SEANNOT_GROUP1
 10
0.0
 20
0.0
 30
0.0
  0
INSERT
  5
70
330
1F
100
AcDbEntity
  8
Default
100
AcDbBlockReference
  2
SEANNOT_GROUP2
 10
0.0
 20
0.0
 30
0.0
  0
INSERT
  5
76
330
1F
100
AcDbEntity
  8
Default
100
AcDbBlockReference
  2
SEANNOT_GROUP3
 10
0.0
 20
0.0
 30
0.0
  0
INSERT
  5
80
330
1F
100
AcDbEntity
  8
Default
100
AcDbBlockReference
  2
SEANNOT_GROUP4
 10
0.0
 20
0.0
 30
0.0
  0
INSERT
  5
86
330
1F
100
AcDbEntity
  8
Default
100
AcDbBlockReference
  2
SE
 10
0.0
 20
0.0
 30
0.0
  0
INSERT
  5
11D
330
1F
100
AcDbEntity
  8
Default
100
AcDbBlockReference
  2
SE1
 10
0.0
 20
0.0
 30
0.0
  0
INSERT
  5
1A5
330
1F
100
AcDbEntity
  8
Default
100
AcDbBlockReference
  2
SE2
 10
0.0
 20
0.0
 30
0.0
  0
TEXT
  5
1E0
330
1F
100
AcDbEntity
  8
Default
  6
Continuous
 62
     7
100
AcDbText
 10
5.9362635081
 20
53.4225120485
 30
0.0
 40
10.0
  1
Grohe AG^J
  7
SEACAD_seiso_ttf
 11
5.9362635081
 21
63.4225120485
 31
0.0
100
AcDbText
 73
     3
  0
TEXT
  5
1E1
330
1F
100
AcDbEntity
  8
Default
  6
Continuous
 62
     7
100
AcDbText
 10
5.9362635081
 20
37.0588756849
 30
0.0
 40
10.0
  1
 
  7
SEACAD_seiso_ttf
 11
5.9362635081
 21
47.0588756849
 31
0.0
100
AcDbText
 73
     3
  0
TEXT
  5
1E2
330
1F
100
AcDbEntity
  8
Default
  6
Continuous
 62
     7
100
AcDbText
 10
5.9362635081
 20
20.6952393213
 30
0.0
 40
10.0
  1
ecn: 
  7
SEACAD_seiso_ttf
 11
5.9362635081
 21
30.6952393213
 31
0.0
100
AcDbText
 73
     3
  0
TEXT
  5
1E3
330
1F
100
AcDbEntity
  8
Default
  6
Continuous
 62
     7
100
AcDbText
 10
5.9362635081
 20
4.3316029576
 30
0.0
 40
10.0
  1
unit: mm
  7
SEACAD_seiso_ttf
 11
5.9362635081
 21
14.3316029576
 31
0.0
100
AcDbText
 73
     3
  0
LINE
  5
1E4
330
1F
100
AcDbEntity
  8
Default
  6
Continuous
 62
     7
100
AcDbLine
 10
0.0
 20
0.0
 30
0.0
 11
100.0
 21
0.0
 31
0.0
  0
LINE
  5
1E5
330
1F
100
AcDbEntity
  8
Default
  6
Continuous
 62
     7
100
AcDbLine
 10
0.0
 20
0.0
 30
0.0
 11
0.0
 21
100.0
 31
0.0
  0
TEXT
  5
1E6
330
1F
100
AcDbEntity
  8
Default
  6
Continuous
 62
     7
100
AcDbText
 10
24.3923665681
 20
-18.2375342018
 30
0.0
 40
10.0
  1
100 mm
  7
SEACAD_seiso_ttf
 11
24.3923665681
 21
-8.2375342018
 31
0.0
100
AcDbText
 73
     3
  0
TEXT
  5
1E7
330
1F
100
AcDbEntity
  8
Default
  6
Continuous
 62
     7
100
AcDbText
 10
-7.6150308803
 20
24.6231930421
 30
0.0
 40
10.0
  1
100 mm
 50
90.0
  7
SEACAD_seiso_ttf
 11
-17.6150308803
 21
24.6231930421
 31
0.0
100
AcDbText
 73
     3
  0
TEXT
  5
1E8
330
1F
100
AcDbEntity
  8
Default
  6
Continuous
 62
     7
100
AcDbText
 10
28.4878128572
 20
20.0907663715
 30
0.0
 40
10.0
  1
201846
  7
SEACAD_seiso_ttf
 11
28.4878128572
 21
30.0907663715
 31
0.0
100
AcDbText
 73
     3
  0
TEXT
  5
1E9
330
1F
100
AcDbEntity
  8
Default
  6
Continuous
 62
     7
100
AcDbText
 10
5.9012241913
 20
36.7242780188
 30
0.0
 40
10.0
  1
40224000
  7
SEACAD_seiso_ttf
 11
5.9012241913
 21
46.7242780188
 31
0.0
100
AcDbText
 73
     3
  0
ENDSEC
  0
SECTION
  2
OBJECTS
  0
DICTIONARY
  5
C
330
0
100
AcDbDictionary
281
     1
  3
ACAD_GROUP
350
D
  3
ACAD_LAYOUT
350
1A
  3
ACAD_MLEADERSTYLE
350
1ED
  3
ACAD_MLINESTYLE
350
17
  3
ACAD_PLOTSETTINGS
350
19
  3
ACAD_PLOTSTYLENAME
350
E
  3
ACAD_SCALELIST
350
3B
  3
ACAD_TABLESTYLE
350
1EC
  3
ACAD_VISUALSTYLE
350
2A
  3
AcDbVariableDictionary
350
1EA
  0
DICTIONARY
  5
D
102
{ACAD_REACTORS
330
C
102
}
330
C
100
AcDbDictionary
281
     1
  0
DICTIONARY
  5
1A
102
{ACAD_REACTORS
330
C
102
}
330
C
100
AcDbDictionary
281
     1
  3
Layout1
350
1E
  3
Model
350
22
  0
DICTIONARY
  5
1ED
102
{ACAD_REACTORS
330
C
102
}
330
C
100
AcDbDictionary
281
     1
  0
DICTIONARY
  5
17
102
{ACAD_REACTORS
330
C
102
}
330
C
100
AcDbDictionary
281
     1
  3
Standard
350
18
  0
DICTIONARY
  5
19
102
{ACAD_REACTORS
330
C
102
}
330
C
100
AcDbDictionary
281
     1
  0
ACDBDICTIONARYWDFLT
  5
E
102
{ACAD_REACTORS
330
C
102
}
330
C
100
AcDbDictionary
281
     1
  3
Normal
350
F
100
AcDbDictionaryWithDefault
340
F
  0
DICTIONARY
  5
3B
102
{ACAD_REACTORS
330
C
102
}
330
C
100
AcDbDictionary
281
     1
  3
A0
350
3C
  3
A1
350
3D
  3
A2
350
3E
  3
A3
350
3F
  3
A4
350
40
  3
A5
350
41
  3
A6
350
42
  3
A7
350
43
  3
A8
350
44
  3
A9
350
45
  3
B0
350
46
  3
B1
350
47
  3
B2
350
48
  3
B3
350
49
  3
B4
350
4A
  3
B5
350
4B
  3
B6
350
4C
  3
B7
350
4D
  3
B8
350
4E
  3
B9
350
4F
  3
C0
350
50
  3
C1
350
51
  3
C2
350
52
  3
C3
350
53
  3
C4
350
54
  3
C5
350
55
  3
C6
350
56
  3
C7
350
57
  3
C8
350
58
  3
C9
350
59
  3
D0
350
5A
  3
D1
350
5B
  3
D2
350
5C
  0
DICTIONARY
  5
1EC
102
{ACAD_REACTORS
330
C
102
}
330
C
100
AcDbDictionary
281
     1
  0
DICTIONARY
  5
2A
102
{ACAD_REACTORS
330
C
102
}
330
C
100
AcDbDictionary
281
     1
  3
2dWireframe
350
2F
  3
3D Hidden
350
31
  3
3dWireframe
350
30
  3
Basic
350
32
  3
Brighten
350
36
  3
ColorChange
350
3A
  3
Conceptual
350
34
  3
Dim
350
35
  3
Facepattern
350
39
  3
Flat
350
2B
  3
FlatWithEdges
350
2C
  3
Gouraud
350
2D
  3
GouraudWithEdges
350
2E
  3
Linepattern
350
38
  3
Realistic
350
33
  3
Thicken
350
37
  0
DICTIONARY
  5
1EA
102
{ACAD_REACTORS
330
C
102
}
330
C
100
AcDbDictionary
281
     1
  3
CANNOSCALE
350
1EB
  3
PSOLHEIGHT
350
1EF
  3
PSOLWIDTH
350
1EE
  0
LAYOUT
  5
1E
102
{ACAD_REACTORS
330
1A
102
}
330
1A
100
AcDbPlotSettings
  1

  2
none_device
  4

  6

 40
0.0
 41
0.0
 42
0.0
 43
0.0
 44
0.0
 45
0.0
 46
0.0
 47
0.0
 48
0.0
 49
0.0
140
0.0
141
0.0
142
1.0
143
1.0
 70
   688
 72
     0
 73
     0
 74
     5
  7

 75
    16
147
1.0
148
0.0
149
0.0
100
AcDbLayout
  1
Layout1
 70
     1
 71
     1
 10
0.0
 20
0.0
 11
1682.0
 21
2378.0
 12
0.0
 22
0.0
 32
0.0
 14
0.0
 24
0.0
 34
0.0
 15
1682.0
 25
2378.0
 35
0.0
146
0.0
 13
0.0
 23
0.0
 33
0.0
 16
1.0
 26
0.0
 36
0.0
 17
0.0
 27
1.0
 37
0.0
 76
     0
330
1B
  0
LAYOUT
  5
22
102
{ACAD_REACTORS
330
1A
102
}
330
1A
100
AcDbPlotSettings
  1

  2
none_device
  4

  6

 40
0.0
 41
0.0
 42
0.0
 43
0.0
 44
0.0
 45
0.0
 46
0.0
 47
0.0
 48
0.0
 49
0.0
140
0.0
141
0.0
142
1.0
143
1.0
 70
  1712
 72
     0
 73
     0
 74
     0
  7

 75
     0
147
1.0
148
0.0
149
0.0
100
AcDbLayout
  1
Model
 70
     1
 71
     0
 10
0.0
 20
0.0
 11
1682.0
 21
2378.0
 12
0.0
 22
0.0
 32
0.0
 14
0.0
 24
0.0
 34
0.0
 15
1682.0
 25
2378.0
 35
0.0
146
0.0
 13
0.0
 23
0.0
 33
0.0
 16
1.0
 26
0.0
 36
0.0
 17
0.0
 27
1.0
 37
0.0
 76
     0
330
1F
331
29
  0
MLINESTYLE
  5
18
102
{ACAD_REACTORS
330
17
102
}
330
17
100
AcDbMlineStyle
  2
Standard
 70
     0
  3

 62
   256
 51
90.0
 52
90.0
 71
     2
 49
0.5
 62
   256
  6
BYLAYER
 49
-0.5
 62
   256
  6
BYLAYER
  0
ACDBPLACEHOLDER
  5
F
102
{ACAD_REACTORS
330
E
102
}
330
E
  0
SCALE
  5
3C
102
{ACAD_REACTORS
330
3B
102
}
330
3B
100
AcDbScale
 70
     0
300
1:1
140
1.0
141
1.0
290
     1
  0
SCALE
  5
3D
102
{ACAD_REACTORS
330
3B
102
}
330
3B
100
AcDbScale
 70
     0
300
1:2
140
1.0
141
2.0
290
     0
  0
SCALE
  5
3E
102
{ACAD_REACTORS
330
3B
102
}
330
3B
100
AcDbScale
 70
     0
300
1:4
140
1.0
141
4.0
290
     0
  0
SCALE
  5
3F
102
{ACAD_REACTORS
330
3B
102
}
330
3B
100
AcDbScale
 70
     0
300
1:5
140
1.0
141
5.0
290
     0
  0
SCALE
  5
40
102
{ACAD_REACTORS
330
3B
102
}
330
3B
100
AcDbScale
 70
     0
300
1:8
140
1.0
141
8.0
290
     0
  0
SCALE
  5
41
102
{ACAD_REACTORS
330
3B
102
}
330
3B
100
AcDbScale
 70
     0
300
1:10
140
1.0
141
10.0
290
     0
  0
SCALE
  5
42
102
{ACAD_REACTORS
330
3B
102
}
330
3B
100
AcDbScale
 70
     0
300
1:16
140
1.0
141
16.0
290
     0
  0
SCALE
  5
43
102
{ACAD_REACTORS
330
3B
102
}
330
3B
100
AcDbScale
 70
     0
300
1:20
140
1.0
141
20.0
290
     0
  0
SCALE
  5
44
102
{ACAD_REACTORS
330
3B
102
}
330
3B
100
AcDbScale
 70
     0
300
1:30
140
1.0
141
30.0
290
     0
  0
SCALE
  5
45
102
{ACAD_REACTORS
330
3B
102
}
330
3B
100
AcDbScale
 70
     0
300
1:40
140
1.0
141
40.0
290
     0
  0
SCALE
  5
46
102
{ACAD_REACTORS
330
3B
102
}
330
3B
100
AcDbScale
 70
     0
300
1:50
140
1.0
141
50.0
290
     0
  0
SCALE
  5
47
102
{ACAD_REACTORS
330
3B
102
}
330
3B
100
AcDbScale
 70
     0
300
1:100
140
1.0
141
100.0
290
     0
  0
SCALE
  5
48
102
{ACAD_REACTORS
330
3B
102
}
330
3B
100
AcDbScale
 70
     0
300
2:1
140
2.0
141
1.0
290
     0
  0
SCALE
  5
49
102
{ACAD_REACTORS
330
3B
102
}
330
3B
100
AcDbScale
 70
     0
300
4:1
140
4.0
141
1.0
290
     0
  0
SCALE
  5
4A
102
{ACAD_REACTORS
330
3B
102
}
330
3B
100
AcDbScale
 70
     0
300
8:1
140
8.0
141
1.0
290
     0
  0
SCALE
  5
4B
102
{ACAD_REACTORS
330
3B
102
}
330
3B
100
AcDbScale
 70
     0
300
10:1
140
10.0
141
1.0
290
     0
  0
SCALE
  5
4C
102
{ACAD_REACTORS
330
3B
102
}
330
3B
100
AcDbScale
 70
     0
300
100:1
140
100.0
141
1.0
290
     0
  0
SCALE
  5
4D
102
{ACAD_REACTORS
330
3B
102
}
330
3B
100
AcDbScale
 70
     0
300
1/128" = 1'-0"
140
0.0078125
141
12.0
290
     0
  0
SCALE
  5
4E
102
{ACAD_REACTORS
330
3B
102
}
330
3B
100
AcDbScale
 70
     0
300
1/64" = 1'-0"
140
0.015625
141
12.0
290
     0
  0
SCALE
  5
4F
102
{ACAD_REACTORS
330
3B
102
}
330
3B
100
AcDbScale
 70
     0
300
1/32" = 1'-0"
140
0.03125
141
12.0
290
     0
  0
SCALE
  5
50
102
{ACAD_REACTORS
330
3B
102
}
330
3B
100
AcDbScale
 70
     0
300
1/16" = 1'-0"
140
0.0625
141
12.0
290
     0
  0
SCALE
  5
51
102
{ACAD_REACTORS
330
3B
102
}
330
3B
100
AcDbScale
 70
     0
300
3/32" = 1'-0"
140
0.09375
141
12.0
290
     0
  0
SCALE
  5
52
102
{ACAD_REACTORS
330
3B
102
}
330
3B
100
AcDbScale
 70
     0
300
1/8" = 1'-0"
140
0.125
141
12.0
290
     0
  0
SCALE
  5
53
102
{ACAD_REACTORS
330
3B
102
}
330
3B
100
AcDbScale
 70
     0
300
3/16" = 1'-0"
140
0.1875
141
12.0
290
     0
  0
SCALE
  5
54
102
{ACAD_REACTORS
330
3B
102
}
330
3B
100
AcDbScale
 70
     0
300
1/4" = 1'-0"
140
0.25
141
12.0
290
     0
  0
SCALE
  5
55
102
{ACAD_REACTORS
330
3B
102
}
330
3B
100
AcDbScale
 70
     0
300
3/8" = 1'-0"
140
0.375
141
12.0
290
     0
  0
SCALE
  5
56
102
{ACAD_REACTORS
330
3B
102
}
330
3B
100
AcDbScale
 70
     0
300
1/2" = 1'-0"
140
0.5
141
12.0
290
     0
  0
SCALE
  5
57
102
{ACAD_REACTORS
330
3B
102
}
330
3B
100
AcDbScale
 70
     0
300
3/4" = 1'-0"
140
0.75
141
12.0
290
     0
  0
SCALE
  5
58
102
{ACAD_REACTORS
330
3B
102
}
330
3B
100
AcDbScale
 70
     0
300
1" = 1'-0"
140
1.0
141
12.0
290
     0
  0
SCALE
  5
59
102
{ACAD_REACTORS
330
3B
102
}
330
3B
100
AcDbScale
 70
     0
300
1-1/2" = 1'-0"
140
1.5
141
12.0
290
     0
  0
SCALE
  5
5A
102
{ACAD_REACTORS
330
3B
102
}
330
3B
100
AcDbScale
 70
     0
300
3" = 1'-0"
140
3.0
141
12.0
290
     0
  0
SCALE
  5
5B
102
{ACAD_REACTORS
330
3B
102
}
330
3B
100
AcDbScale
 70
     0
300
6" = 1'-0"
140
6.0
141
12.0
290
     0
  0
SCALE
  5
5C
102
{ACAD_REACTORS
330
3B
102
}
330
3B
100
AcDbScale
 70
     0
300
1'-0" = 1'-0"
140
12.0
141
12.0
290
     0
  0
VISUALSTYLE
  5
2F
102
{ACAD_REACTORS
330
2A
102
}
330
2A
100
AcDbVisualStyle
  2
2dWireframe
 70
     4
 71
     0
 72
     2
 73
     0
 90
        0
 40
-0.6
 41
-30.0
 62
     5
 63
     7
 74
     1
 91
        4
 64
     7
 65
   257
 75
     1
175
     1
 42
1.0
 92
        0
 66
   257
 43
1.0
 76
     1
 77
     6
 78
     2
 67
     7
 79
     5
170
     0
171
     0
290
     0
174
     0
 93
        1
 44
0.0
173
     0
291
     0
 45
0.0
1001
ACAD
1000
AcDbSavedByObjectVersion
1070
     0
  0
VISUALSTYLE
  5
31
102
{ACAD_REACTORS
330
2A
102
}
330
2A
100
AcDbVisualStyle
  2
3D Hidden
 70
     6
 71
     1
 72
     2
 73
     2
 90
        0
 40
-0.6
 41
-30.0
 62
     5
 63
     7
 74
     2
 91
        2
 64
     7
 65
   257
 75
     2
175
     1
 42
40.0
 92
        0
 66
   257
 43
1.0
 76
     1
 77
     6
 78
     2
 67
     7
 79
     3
170
     0
171
     0
290
     0
174
     0
 93
        1
 44
0.0
173
     0
291
     0
 45
0.0
1001
ACAD
1000
AcDbSavedByObjectVersion
1070
     0
  0
VISUALSTYLE
  5
30
102
{ACAD_REACTORS
330
2A
102
}
330
2A
100
AcDbVisualStyle
  2
3dWireframe
 70
     5
 71
     0
 72
     2
 73
     0
 90
        0
 40
-0.6
 41
-30.0
 62
     5
 63
     7
 74
     1
 91
        4
 64
     7
 65
   257
 75
     1
175
     1
 42
1.0
 92
        0
 66
   257
 43
1.0
 76
     1
 77
     6
 78
     2
 67
     7
 79
     5
170
     0
171
     0
290
     0
174
     0
 93
        1
 44
0.0
173
     0
291
     0
 45
0.0
1001
ACAD
1000
AcDbSavedByObjectVersion
1070
     0
  0
VISUALSTYLE
  5
32
102
{ACAD_REACTORS
330
2A
102
}
330
2A
100
AcDbVisualStyle
  2
Basic
 70
     7
 71
     1
 72
     0
 73
     1
 90
        0
 40
-0.6
 41
-30.0
 62
     5
 63
     7
 74
     0
 91
        4
 64
     7
 65
   257
 75
     1
175
     1
 42
1.0
 92
        8
 66
     7
 43
1.0
 76
     1
 77
     6
 78
     2
 67
     7
 79
     5
170
     0
171
     0
290
     0
174
     0
 93
        1
 44
0.0
173
     0
291
     1
 45
0.0
1001
ACAD
1000
AcDbSavedByObjectVersion
1070
     0
  0
VISUALSTYLE
  5
36
102
{ACAD_REACTORS
330
2A
102
}
330
2A
100
AcDbVisualStyle
  2
Brighten
 70
    12
 71
     2
 72
     2
 73
     0
 90
        0
 40
-0.6
 41
-30.0
 62
     5
 63
     7
 74
     1
 91
        4
 64
     7
 65
   257
 75
     1
175
     1
 42
1.0
 92
        8
 66
     7
 43
1.0
 76
     1
 77
     6
 78
     2
 67
     7
 79
     5
170
     0
171
     0
290
     0
174
     0
 93
        1
 44
50.0
173
     0
291
     1
 45
0.0
1001
ACAD
1000
AcDbSavedByObjectVersion
1070
     0
  0
VISUALSTYLE
  5
3A
102
{ACAD_REACTORS
330
2A
102
}
330
2A
100
AcDbVisualStyle
  2
ColorChange
 70
    16
 71
     2
 72
     2
 73
     3
 90
        0
 40
-0.6
 41
-30.0
 62
     5
 63
     8
 74
     1
 91
        4
 64
     7
 65
   257
 75
     1
175
     1
 42
1.0
 92
        8
 66
     8
 43
1.0
 76
     1
 77
     6
 78
     2
 67
     7
 79
     5
170
     0
171
     0
290
     0
174
     0
 93
        1
 44
0.0
173
     0
291
     1
 45
0.0
1001
ACAD
1000
AcDbSavedByObjectVersion
1070
     0
  0
VISUALSTYLE
  5
34
102
{ACAD_REACTORS
330
2A
102
}
330
2A
100
AcDbVisualStyle
  2
Conceptual
 70
     9
 71
     3
 72
     2
 73
     0
 90
        0
 40
-0.6
 41
-30.0
 62
     5
 63
     7
 74
     2
 91
        2
 64
     7
 65
   257
 75
     1
175
     1
 42
40.0
 92
        8
 66
     7
 43
1.0
 76
     1
 77
     6
 78
     2
 67
     7
 79
     3
170
     0
171
     0
290
     0
174
     0
 93
        1
 44
0.0
173
     0
291
     0
 45
0.0
1001
ACAD
1000
AcDbSavedByObjectVersion
1070
     0
  0
VISUALSTYLE
  5
35
102
{ACAD_REACTORS
330
2A
102
}
330
2A
100
AcDbVisualStyle
  2
Dim
 70
    11
 71
     2
 72
     2
 73
     0
 90
        0
 40
-0.6
 41
-30.0
 62
     5
 63
     7
 74
     1
 91
        4
 64
     7
 65
   257
 75
     1
175
     1
 42
1.0
 92
        8
 66
     7
 43
1.0
 76
     1
 77
     6
 78
     2
 67
     7
 79
     5
170
     0
171
     0
290
     0
174
     0
 93
        1
 44
-50.0
173
     0
291
     1
 45
0.0
1001
ACAD
1000
AcDbSavedByObjectVersion
1070
     0
  0
VISUALSTYLE
  5
39
102
{ACAD_REACTORS
330
2A
102
}
330
2A
100
AcDbVisualStyle
  2
Facepattern
 70
    15
 71
     2
 72
     2
 73
     0
 90
        0
 40
-0.6
 41
-30.0
 62
     5
 63
     7
 74
     1
 91
        4
 64
     7
 65
   257
 75
     1
175
     1
 42
1.0
 92
        8
 66
     7
 43
1.0
 76
     1
 77
     6
 78
     2
 67
     7
 79
     5
170
     0
171
     0
290
     0
174
     0
 93
        1
 44
0.0
173
     0
291
     1
 45
0.0
1001
ACAD
1000
AcDbSavedByObjectVersion
1070
     0
  0
VISUALSTYLE
  5
2B
102
{ACAD_REACTORS
330
2A
102
}
330
2A
100
AcDbVisualStyle
  2
Flat
 70
     0
 71
     2
 72
     1
 73
     1
 90
        2
 40
-0.6
 41
30.0
 62
     5
 63
     7
 74
     0
 91
        4
 64
     7
 65
   257
 75
     1
175
     1
 42
1.0
 92
        8
 66
     7
 43
1.0
 76
     1
 77
     6
 78
     2
 67
     7
 79
     5
170
     0
171
     0
290
     0
174
     0
 93
       13
 44
0.0
173
     0
291
     1
 45
0.0
1001
ACAD
1000
AcDbSavedByObjectVersion
1070
     0
  0
VISUALSTYLE
  5
2C
102
{ACAD_REACTORS
330
2A
102
}
330
2A
100
AcDbVisualStyle
  2
FlatWithEdges
 70
     1
 71
     2
 72
     1
 73
     1
 90
        2
 40
-0.6
 41
30.0
 62
     5
 63
     7
 74
     1
 91
        4
 64
     7
 65
   257
 75
     1
175
     1
 42
1.0
 92
        0
 66
   257
 43
1.0
 76
     1
 77
     6
 78
     2
 67
     7
 79
     5
170
     0
171
     0
290
     0
174
     0
 93
       13
 44
0.0
173
     0
291
     1
 45
0.0
1001
ACAD
1000
AcDbSavedByObjectVersion
1070
     0
  0
VISUALSTYLE
  5
2D
102
{ACAD_REACTORS
330
2A
102
}
330
2A
100
AcDbVisualStyle
  2
Gouraud
 70
     2
 71
     2
 72
     2
 73
     1
 90
        2
 40
-0.6
 41
30.0
 62
     5
 63
     7
 74
     0
 91
        4
 64
     7
 65
   257
 75
     1
175
     1
 42
1.0
 92
        0
 66
     7
 43
1.0
 76
     1
 77
     6
 78
     2
 67
     7
 79
     5
170
     0
171
     0
290
     0
174
     0
 93
       13
 44
0.0
173
     0
291
     1
 45
0.0
1001
ACAD
1000
AcDbSavedByObjectVersion
1070
     0
  0
VISUALSTYLE
  5
2E
102
{ACAD_REACTORS
330
2A
102
}
330
2A
100
AcDbVisualStyle
  2
GouraudWithEdges
 70
     3
 71
     2
 72
     2
 73
     1
 90
        2
 40
-0.6
 41
30.0
 62
     5
 63
     7
 74
     1
 91
        4
 64
     7
 65
   257
 75
     1
175
     1
 42
1.0
 92
        0
 66
   257
 43
1.0
 76
     1
 77
     6
 78
     2
 67
     7
 79
     5
170
     0
171
     0
290
     0
174
     0
 93
       13
 44
0.0
173
     0
291
     1
 45
0.0
1001
ACAD
1000
AcDbSavedByObjectVersion
1070
     0
  0
VISUALSTYLE
  5
38
102
{ACAD_REACTORS
330
2A
102
}
330
2A
100
AcDbVisualStyle
  2
Linepattern
 70
    14
 71
     2
 72
     2
 73
     0
 90
        0
 40
-0.6
 41
-30.0
 62
     5
 63
     7
 74
     1
 91
        4
 64
     7
 65
   257
 75
     7
175
     7
 42
1.0
 92
        8
 66
     7
 43
1.0
 76
     1
 77
     6
 78
     2
 67
     7
 79
     5
170
     0
171
     0
290
     0
174
     0
 93
        1
 44
0.0
173
     0
291
     1
 45
0.0
1001
ACAD
1000
AcDbSavedByObjectVersion
1070
     0
  0
VISUALSTYLE
  5
33
102
{ACAD_REACTORS
330
2A
102
}
330
2A
100
AcDbVisualStyle
  2
Realistic
 70
     8
 71
     2
 72
     2
 73
     0
 90
        0
 40
-0.6
 41
-30.0
 62
     5
 63
     7
 74
     1
 91
        0
 64
     7
 65
   257
 75
     1
175
     1
 42
1.0
 92
        8
 66
     8
 43
1.0
 76
     1
 77
     6
 78
     2
 67
     7
 79
     5
170
     0
171
     0
290
     0
174
     0
 93
       13
 44
0.0
173
     0
291
     0
 45
0.0
1001
ACAD
1000
AcDbSavedByObjectVersion
1070
     0
  0
VISUALSTYLE
  5
37
102
{ACAD_REACTORS
330
2A
102
}
330
2A
100
AcDbVisualStyle
  2
Thicken
 70
    13
 71
     2
 72
     2
 73
     0
 90
        0
 40
-0.6
 41
-30.0
 62
     5
 63
     7
 74
     1
 91
        4
 64
     7
 65
   257
 75
     1
175
     1
 42
1.0
 92
       12
 66
     7
 43
1.0
 76
     1
 77
     6
 78
     2
 67
     7
 79
     5
170
     0
171
     0
290
     0
174
     0
 93
        1
 44
0.0
173
     0
291
     1
 45
0.0
1001
ACAD
1000
AcDbSavedByObjectVersion
1070
     0
  0
DICTIONARYVAR
  5
1EB
102
{ACAD_REACTORS
330
1EA
102
}
330
1EA
100
DictionaryVariables
280
     0
  1
1:1
  0
DICTIONARYVAR
  5
1EF
102
{ACAD_REACTORS
330
1EA
102
}
330
1EA
100
DictionaryVariables
280
     0
  1
80.000000
  0
DICTIONARYVAR
  5
1EE
102
{ACAD_REACTORS
330
1EA
102
}
330
1EA
100
DictionaryVariables
280
     0
  1
5.000000
  0
ENDSEC
  0
EOF
