  0
SECTION
  2
HEADER
  9
$ACADVER
  1
AC1015
  9
$ACADMAINTVER
 70
     6
  9
$DWGCODEPAGE
  3
ANSI_1252
  9
$INSBASE
 10
0.0
 20
0.0
 30
0.0
  9
$EXTMIN
 10
0.0
 20
0.0
 30
0.0
  9
$EXTMAX
 10
1682.0
 20
2378.0
 30
0.0
  9
$LIMMIN
 10
0.0
 20
0.0
  9
$LIMMAX
 10
1682.0
 20
2378.0
  9
$ORTHOMODE
 70
     0
  9
$REGENMODE
 70
     1
  9
$FILLMODE
 70
     1
  9
$QTEXTMODE
 70
     0
  9
$MIRRTEXT
 70
     1
  9
$LTSCALE
 40
1.0
  9
$ATTMODE
 70
     1
  9
$TEXTSIZE
 40
2.5
  9
$TRACEWID
 40
1.0
  9
$TEXTSTYLE
  7
Standard
  9
$CLAYER
  8
0
  9
$CELTYPE
  6
ByLayer
  9
$CECOLOR
 62
   256
  9
$CELTSCALE
 40
1.0
  9
$DISPSILH
 70
     0
  9
$DIMSCALE
 40
1.0
  9
$DIMASZ
 40
2.5
  9
$DIMEXO
 40
0.625
  9
$DIMDLI
 40
3.75
  9
$DIMRND
 40
0.0
  9
$DIMDLE
 40
0.0
  9
$DIMEXE
 40
1.25
  9
$DIMTP
 40
0.0
  9
$DIMTM
 40
0.0
  9
$DIMTXT
 40
2.5
  9
$DIMCEN
 40
2.5
  9
$DIMTSZ
 40
0.0
  9
$DIMTOL
 70
     0
  9
$DIMLIM
 70
     0
  9
$DIMTIH
 70
     0
  9
$DIMTOH
 70
     0
  9
$DIMSE1
 70
     0
  9
$DIMSE2
 70
     0
  9
$DIMTAD
 70
     1
  9
$DIMZIN
 70
     8
  9
$DIMBLK
  1

  9
$DIMASO
 70
     1
  9
$DIMSHO
 70
     1
  9
$DIMPOST
  1

  9
$DIMAPOST
  1

  9
$DIMALT
 70
     0
  9
$DIMALTD
 70
     3
  9
$DIMALTF
 40
0.0393700787
  9
$DIMLFAC
 40
1.0
  9
$DIMTOFL
 70
     1
  9
$DIMTVP
 40
0.0
  9
$DIMTIX
 70
     0
  9
$DIMSOXD
 70
     0
  9
$DIMSAH
 70
     0
  9
$DIMBLK1
  1

  9
$DIMBLK2
  1

  9
$DIMSTYLE
  2
ISO-25
  9
$DIMCLRD
 70
     0
  9
$DIMCLRE
 70
     0
  9
$DIMCLRT
 70
     0
  9
$DIMTFAC
 40
1.0
  9
$DIMGAP
 40
0.625
  9
$DIMJUST
 70
     0
  9
$DIMSD1
 70
     0
  9
$DIMSD2
 70
     0
  9
$DIMTOLJ
 70
     0
  9
$DIMTZIN
 70
     8
  9
$DIMALTZ
 70
     0
  9
$DIMALTTZ
 70
     0
  9
$DIMUPT
 70
     0
  9
$DIMDEC
 70
     2
  9
$DIMTDEC
 70
     2
  9
$DIMALTU
 70
     2
  9
$DIMALTTD
 70
     3
  9
$DIMTXSTY
  7
Standard
  9
$DIMAUNIT
 70
     0
  9
$DIMADEC
 70
     0
  9
$DIMALTRND
 40
0.0
  9
$DIMAZIN
 70
     0
  9
$DIMDSEP
 70
    44
  9
$DIMATFIT
 70
     3
  9
$DIMFRAC
 70
     0
  9
$DIMLDRBLK
  1

  9
$DIMLUNIT
 70
     2
  9
$DIMLWD
 70
    -2
  9
$DIMLWE
 70
    -2
  9
$DIMTMOVE
 70
     0
  9
$LUNITS
 70
     2
  9
$LUPREC
 70
     4
  9
$SKETCHINC
 40
1.0
  9
$FILLETRAD
 40
10.0
  9
$AUNITS
 70
     0
  9
$AUPREC
 70
     0
  9
$MENU
  1
.
  9
$ELEVATION
 40
0.0
  9
$PELEVATION
 40
0.0
  9
$THICKNESS
 40
0.0
  9
$LIMCHECK
 70
     0
  9
$CHAMFERA
 40
10.0
  9
$CHAMFERB
 40
10.0
  9
$CHAMFERC
 40
20.0
  9
$CHAMFERD
 40
0.0
  9
$SKPOLY
 70
     0
  9
$TDCREATE
 40
2455660.543687604
  9
$TDUCREATE
 40
2455660.460354271
  9
$TDUPDATE
 40
2455660.543687616
  9
$TDUUPDATE
 40
2455660.460354283
  9
$TDINDWG
 40
0.0000000116
  9
$TDUSRTIMER
 40
0.0000000116
  9
$USRTIMER
 70
     1
  9
$ANGBASE
 50
0.0
  9
$ANGDIR
 70
     0
  9
$PDMODE
 70
     0
  9
$PDSIZE
 40
0.0
  9
$PLINEWID
 40
0.0
  9
$SPLFRAME
 70
     0
  9
$SPLINETYPE
 70
     6
  9
$SPLINESEGS
 70
     8
  9
$HANDSEED
  5
1C4
  9
$SURFTAB1
 70
     6
  9
$SURFTAB2
 70
     6
  9
$SURFTYPE
 70
     6
  9
$SURFU
 70
     6
  9
$SURFV
 70
     6
  9
$UCSBASE
  2

  9
$UCSNAME
  2

  9
$UCSORG
 10
0.0
 20
0.0
 30
0.0
  9
$UCSXDIR
 10
1.0
 20
0.0
 30
0.0
  9
$UCSYDIR
 10
0.0
 20
1.0
 30
0.0
  9
$UCSORTHOREF
  2

  9
$UCSORTHOVIEW
 70
     0
  9
$UCSORGTOP
 10
0.0
 20
0.0
 30
0.0
  9
$UCSORGBOTTOM
 10
0.0
 20
0.0
 30
0.0
  9
$UCSORGLEFT
 10
0.0
 20
0.0
 30
0.0
  9
$UCSORGRIGHT
 10
0.0
 20
0.0
 30
0.0
  9
$UCSORGFRONT
 10
0.0
 20
0.0
 30
0.0
  9
$UCSORGBACK
 10
0.0
 20
0.0
 30
0.0
  9
$PUCSBASE
  2

  9
$PUCSNAME
  2

  9
$PUCSORG
 10
0.0
 20
0.0
 30
0.0
  9
$PUCSXDIR
 10
1.0
 20
0.0
 30
0.0
  9
$PUCSYDIR
 10
0.0
 20
1.0
 30
0.0
  9
$PUCSORTHOREF
  2

  9
$PUCSORTHOVIEW
 70
     0
  9
$PUCSORGTOP
 10
0.0
 20
0.0
 30
0.0
  9
$PUCSORGBOTTOM
 10
0.0
 20
0.0
 30
0.0
  9
$PUCSORGLEFT
 10
0.0
 20
0.0
 30
0.0
  9
$PUCSORGRIGHT
 10
0.0
 20
0.0
 30
0.0
  9
$PUCSORGFRONT
 10
0.0
 20
0.0
 30
0.0
  9
$PUCSORGBACK
 10
0.0
 20
0.0
 30
0.0
  9
$USERI1
 70
     0
  9
$USERI2
 70
     0
  9
$USERI3
 70
     0
  9
$USERI4
 70
     0
  9
$USERI5
 70
     0
  9
$USERR1
 40
0.0
  9
$USERR2
 40
0.0
  9
$USERR3
 40
0.0
  9
$USERR4
 40
0.0
  9
$USERR5
 40
0.0
  9
$WORLDVIEW
 70
     1
  9
$SHADEDGE
 70
     3
  9
$SHADEDIF
 70
    70
  9
$TILEMODE
 70
     1
  9
$MAXACTVP
 70
    64
  9
$PINSBASE
 10
0.0
 20
0.0
 30
0.0
  9
$PLIMCHECK
 70
     0
  9
$PEXTMIN
 10
0.0
 20
0.0
 30
0.0
  9
$PEXTMAX
 10
1682.0
 20
2378.0
 30
0.0
  9
$PLIMMIN
 10
0.0
 20
0.0
  9
$PLIMMAX
 10
1682.0
 20
2378.0
  9
$UNITMODE
 70
     0
  9
$VISRETAIN
 70
     1
  9
$PLINEGEN
 70
     0
  9
$PSLTSCALE
 70
     1
  9
$TREEDEPTH
 70
  3020
  9
$CMLSTYLE
  2
Standard
  9
$CMLJUST
 70
     0
  9
$CMLSCALE
 40
20.0
  9
$PROXYGRAPHICS
 70
     1
  9
$MEASUREMENT
 70
     1
  9
$CELWEIGHT
370
    -1
  9
$ENDCAPS
280
     0
  9
$JOINSTYLE
280
     0
  9
$LWDISPLAY
290
     0
  9
$INSUNITS
 70
     4
  9
$HYPERLINKBASE
  1

  9
$STYLESHEET
  1

  9
$XEDIT
290
     1
  9
$CEPSNTYPE
380
     0
  9
$PSTYLEMODE
290
     1
  9
$FINGERPRINTGUID
  2
{F3603A42-C40A-47E6-B347-ABD917D3C5C4}
  9
$VERSIONGUID
  2
{FAEB1C32-E019-11D5-929B-00C0DF256EC4}
  9
$EXTNAMES
290
     1
  9
$PSVPSCALE
 40
0.0
  9
$OLESTARTUP
290
     0
  0
ENDSEC
  0
SECTION
  2
CLASSES
  0
CLASS
  1
ACDBDICTIONARYWDFLT
  2
AcDbDictionaryWithDefault
  3
ObjectDBX Classes
 90
        0
280
     0
281
     0
  0
CLASS
  1
VISUALSTYLE
  2
AcDbVisualStyle
  3
ObjectDBX Classes
 90
     4095
280
     0
281
     0
  0
CLASS
  1
SCALE
  2
AcDbScale
  3
ObjectDBX Classes
 90
     1153
280
     0
281
     0
  0
CLASS
  1
DICTIONARYVAR
  2
AcDbDictionaryVar
  3
ObjectDBX Classes
 90
        0
280
     0
281
     0
  0
CLASS
  1
ACDBPLACEHOLDER
  2
AcDbPlaceHolder
  3
ObjectDBX Classes
 90
        0
280
     0
281
     0
  0
CLASS
  1
LAYOUT
  2
AcDbLayout
  3
ObjectDBX Classes
 90
        0
280
     0
281
     0
  0
ENDSEC
  0
SECTION
  2
TABLES
  0
TABLE
  2
VPORT
  5
8
330
0
100
AcDbSymbolTable
 70
     1
  0
VPORT
  5
29
330
8
100
AcDbSymbolTableRecord
100
AcDbViewportTableRecord
  2
*Active
 70
     0
 10
0.0
 20
0.0
 11
1.0
 21
1.0
 12
344.1869158879
 22
148.5
 13
0.0
 23
0.0
 14
10.0
 24
10.0
 15
10.0
 25
10.0
 16
0.0
 26
0.0
 36
1.0
 17
0.0
 27
0.0
 37
0.0
 40
297.0
 41
1.9729729729
 42
50.0
 43
0.0
 44
0.0
 50
0.0
 51
0.0
 71
     0
 72
   100
 73
     1
 74
     3
 75
     0
 76
     0
 77
     0
 78
     0
281
     0
 65
     1
110
0.0
120
0.0
130
0.0
111
1.0
121
0.0
131
0.0
112
0.0
122
1.0
132
0.0
 79
     0
146
0.0
  0
ENDTAB
  0
TABLE
  2
LTYPE
  5
5
330
0
100
AcDbSymbolTable
 70
     2
  0
LTYPE
  5
14
330
5
100
AcDbSymbolTableRecord
100
AcDbLinetypeTableRecord
  2
ByBlock
 70
     0
  3

 72
    65
 73
     0
 40
0.0
  0
LTYPE
  5
15
330
5
100
AcDbSymbolTableRecord
100
AcDbLinetypeTableRecord
  2
ByLayer
 70
     0
  3

 72
    65
 73
     0
 40
0.0
  0
LTYPE
  5
16
330
5
100
AcDbSymbolTableRecord
100
AcDbLinetypeTableRecord
  2
Continuous
 70
     0
  3
Solid line
 72
    65
 73
     0
 40
0.0
  0
LTYPE
  5
60
330
5
100
AcDbSymbolTableRecord
100
AcDbLinetypeTableRecord
  2
CENTER2
 70
     0
  3
Center (.5x) ___ _ ___ _ ___ _ ___ _ ___ _ ___
 72
    65
 73
     4
 40
28.575
 49
19.05
 74
     4
 75
     0
340
0
 46
0.0
 50
0.0
 44
0.0
 45
0.0
 49
-3.175
 74
     4
 75
     0
340
0
 46
0.0
 50
0.0
 44
0.0
 45
0.0
 49
3.175
 74
     4
 75
     0
340
0
 46
0.0
 50
0.0
 44
0.0
 45
0.0
 49
-3.175
 74
     4
 75
     0
340
0
 46
0.0
 50
0.0
 44
0.0
 45
0.0
  0
ENDTAB
  0
TABLE
  2
LAYER
  5
2
330
0
100
AcDbSymbolTable
 70
     8
  0
LAYER
  5
10
330
2
100
AcDbSymbolTableRecord
100
AcDbLayerTableRecord
  2
0
 70
     0
 62
     7
  6
Continuous
370
    -3
390
F
  0
LAYER
  5
5D
330
2
100
AcDbSymbolTableRecord
100
AcDbLayerTableRecord
  2
Default
 70
     0
 62
     7
  6
Continuous
370
    -3
390
F
  0
LAYER
  5
77
330
2
100
AcDbSymbolTableRecord
100
AcDbLayerTableRecord
  2
$DDT_AUDIT_GENERATED_(77)
 70
     0
 62
     7
  6
Continuous
370
    -3
390
F
  0
LAYER
  5
7A
330
2
100
AcDbSymbolTableRecord
100
AcDbLayerTableRecord
  2
$DDT_AUDIT_GENERATED_(7A)
 70
     0
 62
     7
  6
Continuous
370
    -3
390
F
  0
LAYER
  5
B3
330
2
100
AcDbSymbolTableRecord
100
AcDbLayerTableRecord
  2
$DDT_AUDIT_GENERATED_(B3)
 70
     0
 62
     7
  6
Continuous
370
    -3
390
F
  0
LAYER
  5
BC
330
2
100
AcDbSymbolTableRecord
100
AcDbLayerTableRecord
  2
$DDT_AUDIT_GENERATED_(BC)
 70
     0
 62
     7
  6
Continuous
370
    -3
390
F
  0
LAYER
  5
105
330
2
100
AcDbSymbolTableRecord
100
AcDbLayerTableRecord
  2
$DDT_AUDIT_GENERATED_(105)
 70
     0
 62
     7
  6
Continuous
370
    -3
390
F
  0
LAYER
  5
11C
330
2
100
AcDbSymbolTableRecord
100
AcDbLayerTableRecord
  2
$DDT_AUDIT_GENERATED_(11C)
 70
     0
 62
     7
  6
Continuous
370
    -3
390
F
  0
ENDTAB
  0
TABLE
  2
STYLE
  5
3
330
0
100
AcDbSymbolTable
 70
     2
  0
STYLE
  5
11
330
3
100
AcDbSymbolTableRecord
100
AcDbTextStyleTableRecord
  2
Standard
 70
     0
 40
0.0
 41
1.0
 50
0.0
 71
     0
 42
2.5
  3
txt
  4

  0
STYLE
  5
1B3
330
3
100
AcDbSymbolTableRecord
100
AcDbTextStyleTableRecord
  2
SEACAD_seiso_ttf
 70
     0
 40
0.0
 41
1.0
 50
0.0
 71
     0
 42
0.2
  3
seiso.ttf
  4

  0
ENDTAB
  0
TABLE
  2
VIEW
  5
6
330
0
100
AcDbSymbolTable
 70
     0
  0
ENDTAB
  0
TABLE
  2
UCS
  5
7
330
0
100
AcDbSymbolTable
 70
     0
  0
ENDTAB
  0
TABLE
  2
APPID
  5
9
330
0
100
AcDbSymbolTable
 70
     1
  0
APPID
  5
12
330
9
100
AcDbSymbolTableRecord
100
AcDbRegAppTableRecord
  2
ACAD
 70
     0
  0
ENDTAB
  0
TABLE
  2
DIMSTYLE
  5
A
330
0
100
AcDbSymbolTable
 70
     1
100
AcDbDimStyleTable
  0
DIMSTYLE
105
27
330
A
100
AcDbSymbolTableRecord
100
AcDbDimStyleTableRecord
  2
ISO-25
 70
     0
 41
2.5
 42
0.625
 43
3.75
 44
1.25
 73
     0
 74
     0
 77
     1
 78
     8
140
2.5
141
2.5
143
0.0393700787
147
0.625
171
     3
172
     1
271
     2
272
     2
274
     3
278
    44
283
     0
284
     8
340
11
  0
ENDTAB
  0
TABLE
  2
BLOCK_RECORD
  5
1
330
0
100
AcDbSymbolTable
 70
     7
  0
BLOCK_RECORD
  5
1F
330
1
100
AcDbSymbolTableRecord
100
AcDbBlockTableRecord
  2
*Model_Space
340
22
  0
BLOCK_RECORD
  5
1B
330
1
100
AcDbSymbolTableRecord
100
AcDbBlockTableRecord
  2
*Paper_Space
340
1E
  0
BLOCK_RECORD
  5
5E
330
1
100
AcDbSymbolTableRecord
100
AcDbBlockTableRecord
  2
SEANNOT_GROUP
340
0
102
{BLKREFS
331
5F
102
}
  0
BLOCK_RECORD
  5
69
330
1
100
AcDbSymbolTableRecord
100
AcDbBlockTableRecord
  2
SEANNOT_GROUP1
340
0
102
{BLKREFS
331
6A
102
}
  0
BLOCK_RECORD
  5
6F
330
1
100
AcDbSymbolTableRecord
100
AcDbBlockTableRecord
  2
SEANNOT_GROUP2
340
0
102
{BLKREFS
331
70
102
}
  0
BLOCK_RECORD
  5
75
330
1
100
AcDbSymbolTableRecord
100
AcDbBlockTableRecord
  2
SE
340
0
102
{BLKREFS
331
76
102
}
  0
BLOCK_RECORD
  5
FE
330
1
100
AcDbSymbolTableRecord
100
AcDbBlockTableRecord
  2
SE1
340
0
102
{BLKREFS
331
FF
102
}
  0
BLOCK_RECORD
  5
168
330
1
100
AcDbSymbolTableRecord
100
AcDbBlockTableRecord
  2
SE2
340
0
102
{BLKREFS
331
169
102
}
  0
ENDTAB
  0
ENDSEC
  0
SECTION
  2
BLOCKS
  0
BLOCK
  5
20
330
1F
100
AcDbEntity
  8
0
100
AcDbBlockBegin
  2
*Model_Space
 70
     0
 10
0.0
 20
0.0
 30
0.0
  3
*Model_Space
  1

  0
ENDBLK
  5
21
330
1F
100
AcDbEntity
  8
0
100
AcDbBlockEnd
  0
BLOCK
  5
1C
330
1B
100
AcDbEntity
 67
     1
  8
0
100
AcDbBlockBegin
  2
*Paper_Space
 70
     0
 10
0.0
 20
0.0
 30
0.0
  3
*Paper_Space
  1

  0
ENDBLK
  5
1D
330
1B
100
AcDbEntity
 67
     1
  8
0
100
AcDbBlockEnd
  0
BLOCK
  5
67
330
5E
100
AcDbEntity
  8
0
100
AcDbBlockBegin
  2
SEANNOT_GROUP
 70
     0
 10
0.0
 20
0.0
 30
0.0
  3
SEANNOT_GROUP
  1

  0
LINE
  5
61
330
5E
100
AcDbEntity
  8
Default
  6
CENTER2
 62
     7
100
AcDbLine
 10
115.0266995681
 20
338.9148107555
 30
0.0
 11
75.0267004622
 21
338.9148107555
 31
0.0
  0
LINE
  5
62
330
5E
100
AcDbEntity
  8
Default
  6
CENTER2
 62
     7
100
AcDbLine
 10
95.0267000151
 20
358.9148103085
 30
0.0
 11
95.0267000151
 21
318.9148112026
 31
0.0
  0
LINE
  5
63
330
5E
100
AcDbEntity
  8
Default
  6
CENTER2
 62
     7
100
AcDbLine
 10
120.0266994564
 20
338.9148107555
 30
0.0
 11
183.5267000151
 21
338.9148107555
 31
0.0
  0
LINE
  5
64
330
5E
100
AcDbEntity
  8
Default
  6
CENTER2
 62
     7
100
AcDbLine
 10
95.0267000151
 20
363.9148101967
 30
0.0
 11
95.0267000151
 21
427.4148107555
 31
0.0
  0
LINE
  5
65
330
5E
100
AcDbEntity
  8
Default
  6
CENTER2
 62
     7
100
AcDbLine
 10
70.0267005739
 20
338.9148107555
 30
0.0
 11
6.5267000151
 21
338.9148107555
 31
0.0
  0
LINE
  5
66
330
5E
100
AcDbEntity
  8
Default
  6
CENTER2
 62
     7
100
AcDbLine
 10
95.0267000151
 20
313.9148113143
 30
0.0
 11
95.0267000151
 21
250.4148107555
 31
0.0
  0
ENDBLK
  5
68
330
5E
100
AcDbEntity
  8
0
100
AcDbBlockEnd
  0
BLOCK
  5
6D
330
69
100
AcDbEntity
  8
0
100
AcDbBlockBegin
  2
SEANNOT_GROUP1
 70
     0
 10
0.0
 20
0.0
 30
0.0
  3
SEANNOT_GROUP1
  1

  0
LINE
  5
6B
330
69
100
AcDbEntity
  8
Default
  6
CENTER2
 62
     7
100
AcDbLine
 10
268.7772488845
 20
338.9412013856
 30
0.0
 11
228.7772497786
 21
338.9412013856
 31
0.0
  0
LINE
  5
6C
330
69
100
AcDbEntity
  8
Default
  6
CENTER2
 62
     7
100
AcDbLine
 10
248.7772493316
 20
358.9412009386
 30
0.0
 11
248.7772493316
 21
318.9412018327
 31
0.0
  0
ENDBLK
  5
6E
330
69
100
AcDbEntity
  8
0
100
AcDbBlockEnd
  0
BLOCK
  5
73
330
6F
100
AcDbEntity
  8
0
100
AcDbBlockBegin
  2
SEANNOT_GROUP2
 70
     0
 10
0.0
 20
0.0
 30
0.0
  3
SEANNOT_GROUP2
  1

  0
LINE
  5
71
330
6F
100
AcDbEntity
  8
Default
  6
CENTER2
 62
     7
100
AcDbLine
 10
115.0266995681
 20
180.3342597428
 30
0.0
 11
75.0267004622
 21
180.3342597428
 31
0.0
  0
LINE
  5
72
330
6F
100
AcDbEntity
  8
Default
  6
CENTER2
 62
     7
100
AcDbLine
 10
95.0267000151
 20
200.3342592958
 30
0.0
 11
95.0267000151
 21
160.3342601899
 31
0.0
  0
ENDBLK
  5
74
330
6F
100
AcDbEntity
  8
0
100
AcDbBlockEnd
  0
BLOCK
  5
FC
330
75
100
AcDbEntity
  8
0
100
AcDbBlockBegin
  2
SE
 70
     0
 10
0.0
 20
0.0
 30
0.0
  3
SE
  1

  0
ARC
  5
78
330
75
100
AcDbEntity
  8
$DDT_AUDIT_GENERATED_(77)
  6
Continuous
 62
     7
100
AcDbCircle
 10
95.0267000151
 20
338.9148107555
 30
0.0
 40
28.33483234498358
100
AcDbArc
 50
281.1932199572
 51
0.0
  0
ARC
  5
79
330
75
100
AcDbEntity
  8
$DDT_AUDIT_GENERATED_(77)
  6
Continuous
 62
     7
100
AcDbCircle
 10
95.0267000151
 20
338.9148107555
 30
0.0
 40
28.33483234498358
100
AcDbArc
 50
0.0
 51
258.80676954
  0
LINE
  5
7B
330
75
100
AcDbEntity
  8
$DDT_AUDIT_GENERATED_(7A)
  6
Continuous
 62
     7
100
AcDbLine
 10
135.4097221668
 20
338.9124340725
 30
0.0
 11
136.191335132
 21
338.1307291005
 31
0.0
  0
LINE
  5
7C
330
75
100
AcDbEntity
  8
$DDT_AUDIT_GENERATED_(7A)
  6
Continuous
 62
     7
100
AcDbLine
 10
136.1914271387
 20
339.6940470376
 30
0.0
 11
135.4097221668
 21
338.9124340725
 31
0.0
  0
LINE
  5
7D
330
75
100
AcDbEntity
  8
$DDT_AUDIT_GENERATED_(7A)
  6
Continuous
 62
     7
100
AcDbLine
 10
134.2451095229
 20
340.0771838075
 30
0.0
 11
135.0267224881
 21
339.2954788356
 31
0.0
  0
LINE
  5
7E
330
75
100
AcDbEntity
  8
$DDT_AUDIT_GENERATED_(7A)
  6
Continuous
 62
     7
100
AcDbLine
 10
135.0267224881
 20
339.2954788356
 30
0.0
 11
135.80842746
 21
340.0770918008
 31
0.0
  0
LINE
  5
7F
330
75
100
AcDbEntity
  8
$DDT_AUDIT_GENERATED_(7A)
  6
Continuous
 62
     7
100
AcDbLine
 10
134.643677725
 20
338.9124791569
 30
0.0
 11
133.8620647598
 21
339.6941841288
 31
0.0
  0
LINE
  5
80
330
75
100
AcDbEntity
  8
$DDT_AUDIT_GENERATED_(7A)
  6
Continuous
 62
     7
100
AcDbLine
 10
133.861972753
 20
338.1308661917
 30
0.0
 11
134.643677725
 21
338.9124791569
 31
0.0
  0
LINE
  5
81
330
75
100
AcDbEntity
  8
$DDT_AUDIT_GENERATED_(7A)
  6
Continuous
 62
     7
100
AcDbLine
 10
135.8082903689
 20
337.7477294218
 30
0.0
 11
135.0266774037
 21
338.5294343938
 31
0.0
  0
LINE
  5
82
330
75
100
AcDbEntity
  8
$DDT_AUDIT_GENERATED_(7A)
  6
Continuous
 62
     7
100
AcDbLine
 10
135.0266774037
 20
338.5294343938
 30
0.0
 11
134.2449724317
 21
337.7478214286
 31
0.0
  0
ELLIPSE
  5
83
330
75
100
AcDbEntity
  8
$DDT_AUDIT_GENERATED_(7A)
  6
Continuous
 62
     7
100
AcDbEllipse
 10
135.0266999459
 20
338.9124566147
 30
0.0
 11
-0.3535741978431401
 21
-0.3535325821187906
 31
0.0
210
0.0
220
0.0
230
1.0
 40
0.6444004776
 41
0.9983675788175277
 42
2.143225074772154
  0
ELLIPSE
  5
84
330
75
100
AcDbEntity
  8
$DDT_AUDIT_GENERATED_(7A)
  6
Continuous
 62
     7
100
AcDbEllipse
 10
135.0266999459
 20
338.9124566147
 30
0.0
 11
-0.3535325821187943
 21
0.3535741978431318
 31
0.0
210
0.0
220
0.0
230
1.0
 40
0.6444004776
 41
0.9983675788176083
 42
2.143225074772242
  0
ELLIPSE
  5
85
330
75
100
AcDbEntity
  8
$DDT_AUDIT_GENERATED_(7A)
  6
Continuous
 62
     7
100
AcDbEllipse
 10
135.0266999459
 20
338.9124566147
 30
0.0
 11
0.35357419784314
 21
0.3535325821187885
 31
0.0
210
0.0
220
0.0
230
1.0
 40
0.6444004776
 41
0.9983675788176235
 42
2.143225074772253
  0
ELLIPSE
  5
86
330
75
100
AcDbEntity
  8
$DDT_AUDIT_GENERATED_(7A)
  6
Continuous
 62
     7
100
AcDbEllipse
 10
135.0266999459
 20
338.9124566147
 30
0.0
 11
-0.3535325821187943
 21
0.3535741978431343
 31
0.0
210
0.0
220
0.0
230
1.0
 40
0.6444004776
 41
4.13996023240731
 42
5.28481772836194
  0
ARC
  5
87
330
75
100
AcDbEntity
  8
$DDT_AUDIT_GENERATED_(7A)
  6
Continuous
 62
     7
100
AcDbCircle
 10
136.9565863552
 20
336.9823430307
 30
0.0
 40
1.379999999999976
100
AcDbArc
 50
89.9966279416
 51
179.9966279416
  0
LINE
  5
88
330
75
100
AcDbEntity
  8
$DDT_AUDIT_GENERATED_(7A)
  6
Continuous
 62
     7
100
AcDbLine
 10
134.4765469277
 20
336.3124889886
 30
0.0
 11
135.5765469258
 21
336.3124242497
 31
0.0
  0
LINE
  5
89
330
75
100
AcDbEntity
  8
$DDT_AUDIT_GENERATED_(7A)
  6
Continuous
 62
     7
100
AcDbLine
 10
135.5765469258
 20
336.3124242497
 30
0.0
 11
135.5765863576
 21
336.9824242486
 31
0.0
  0
LINE
  5
8A
330
75
100
AcDbEntity
  8
$DDT_AUDIT_GENERATED_(7A)
  6
Continuous
 62
     7
100
AcDbLine
 10
136.9566675731
 20
338.3623430283
 30
0.0
 11
137.6266675719
 21
338.3623035965
 31
0.0
  0
LINE
  5
8B
330
75
100
AcDbEntity
  8
$DDT_AUDIT_GENERATED_(7A)
  6
Continuous
 62
     7
100
AcDbLine
 10
137.6266675719
 20
338.3623035965
 30
0.0
 11
137.6267323108
 21
339.4623035946
 31
0.0
  0
LINE
  5
8C
330
75
100
AcDbEntity
  8
$DDT_AUDIT_GENERATED_(7A)
  6
Continuous
 62
     7
100
AcDbLine
 10
137.6267323108
 20
339.4623035946
 30
0.0
 11
136.956732312
 21
339.4623430264
 31
0.0
  0
ARC
  5
8D
330
75
100
AcDbEntity
  8
$DDT_AUDIT_GENERATED_(7A)
  6
Continuous
 62
     7
100
AcDbCircle
 10
136.9568135298
 20
340.842343024
 30
0.0
 40
1.379999999999982
100
AcDbArc
 50
179.9966279416
 51
269.9966279412
  0
LINE
  5
8E
330
75
100
AcDbEntity
  8
$DDT_AUDIT_GENERATED_(7A)
  6
Continuous
 62
     7
100
AcDbLine
 10
135.5768135322
 20
340.8424242419
 30
0.0
 11
135.5768529641
 21
341.5124242407
 31
0.0
  0
LINE
  5
8F
330
75
100
AcDbEntity
  8
$DDT_AUDIT_GENERATED_(7A)
  6
Continuous
 62
     7
100
AcDbLine
 10
135.5768529641
 20
341.5124242407
 30
0.0
 11
134.476852966
 21
341.5124889796
 31
0.0
  0
LINE
  5
90
330
75
100
AcDbEntity
  8
$DDT_AUDIT_GENERATED_(7A)
  6
Continuous
 62
     7
100
AcDbLine
 10
134.476852966
 20
341.5124889796
 30
0.0
 11
134.4768135341
 21
340.8424889807
 31
0.0
  0
ARC
  5
91
330
75
100
AcDbEntity
  8
$DDT_AUDIT_GENERATED_(7A)
  6
Continuous
 62
     7
100
AcDbCircle
 10
133.0968135365
 20
340.8425701986
 30
0.0
 40
1.379999999999976
100
AcDbArc
 50
269.9966279416
 51
359.9966279412
  0
LINE
  5
92
330
75
100
AcDbEntity
  8
$DDT_AUDIT_GENERATED_(7A)
  6
Continuous
 62
     7
100
AcDbLine
 10
133.0967323187
 20
339.462570201
 30
0.0
 11
132.4267323198
 21
339.4626096329
 31
0.0
  0
LINE
  5
93
330
75
100
AcDbEntity
  8
$DDT_AUDIT_GENERATED_(7A)
  6
Continuous
 62
     7
100
AcDbLine
 10
132.4267323198
 20
339.4626096329
 30
0.0
 11
132.4266675809
 21
338.3626096348
 31
0.0
  0
LINE
  5
94
330
75
100
AcDbEntity
  8
$DDT_AUDIT_GENERATED_(7A)
  6
Continuous
 62
     7
100
AcDbLine
 10
132.4266675809
 20
338.3626096348
 30
0.0
 11
133.0966675798
 21
338.3625702029
 31
0.0
  0
ARC
  5
95
330
75
100
AcDbEntity
  8
$DDT_AUDIT_GENERATED_(7A)
  6
Continuous
 62
     7
100
AcDbCircle
 10
133.0965863619
 20
336.9825702053
 30
0.0
 40
1.37999999999997
100
AcDbArc
 50
359.9966279416
 51
89.9966279412
  0
LINE
  5
96
330
75
100
AcDbEntity
  8
$DDT_AUDIT_GENERATED_(7A)
  6
Continuous
 62
     7
100
AcDbLine
 10
134.4765863595
 20
336.9824889874
 30
0.0
 11
134.4765469277
 21
336.3124889886
 31
0.0
  0
LINE
  5
97
330
75
100
AcDbEntity
  8
$DDT_AUDIT_GENERATED_(7A)
  6
Continuous
 62
     7
100
AcDbLine
 10
54.6436778635
 20
338.9171874386
 30
0.0
 11
53.8620648983
 21
339.6988924106
 31
0.0
  0
LINE
  5
98
330
75
100
AcDbEntity
  8
$DDT_AUDIT_GENERATED_(7A)
  6
Continuous
 62
     7
100
AcDbLine
 10
53.8619728916
 20
338.1355744734
 30
0.0
 11
54.6436778635
 21
338.9171874386
 31
0.0
  0
LINE
  5
99
330
75
100
AcDbEntity
  8
$DDT_AUDIT_GENERATED_(7A)
  6
Continuous
 62
     7
100
AcDbLine
 10
55.8082905074
 20
337.7524377035
 30
0.0
 11
55.0266775422
 21
338.5341426755
 31
0.0
  0
LINE
  5
9A
330
75
100
AcDbEntity
  8
$DDT_AUDIT_GENERATED_(7A)
  6
Continuous
 62
     7
100
AcDbLine
 10
55.0266775422
 20
338.5341426755
 30
0.0
 11
54.2449725703
 21
337.7525297103
 31
0.0
  0
LINE
  5
9B
330
75
100
AcDbEntity
  8
$DDT_AUDIT_GENERATED_(7A)
  6
Continuous
 62
     7
100
AcDbLine
 10
55.4097223053
 20
338.9171423542
 30
0.0
 11
56.1913352705
 21
338.1354373822
 31
0.0
  0
LINE
  5
9C
330
75
100
AcDbEntity
  8
$DDT_AUDIT_GENERATED_(7A)
  6
Continuous
 62
     7
100
AcDbLine
 10
56.1914272773
 20
339.6987553194
 30
0.0
 11
55.4097223053
 21
338.9171423542
 31
0.0
  0
LINE
  5
9D
330
75
100
AcDbEntity
  8
$DDT_AUDIT_GENERATED_(7A)
  6
Continuous
 62
     7
100
AcDbLine
 10
54.2451096614
 20
340.0818920893
 30
0.0
 11
55.0267226266
 21
339.3001871173
 31
0.0
  0
LINE
  5
9E
330
75
100
AcDbEntity
  8
$DDT_AUDIT_GENERATED_(7A)
  6
Continuous
 62
     7
100
AcDbLine
 10
55.0267226266
 20
339.3001871173
 30
0.0
 11
55.8084275986
 21
340.0818000825
 31
0.0
  0
ELLIPSE
  5
9F
330
75
100
AcDbEntity
  8
$DDT_AUDIT_GENERATED_(7A)
  6
Continuous
 62
     7
100
AcDbEllipse
 10
55.0267000844
 20
338.9171648964
 30
0.0
 11
0.353574197843147
 21
0.3535325821187899
 31
0.0
210
0.0
220
0.0
230
1.0
 40
0.6444004776
 41
0.998367578817648
 42
2.14322507477225
  0
ELLIPSE
  5
A0
330
75
100
AcDbEntity
  8
$DDT_AUDIT_GENERATED_(7A)
  6
Continuous
 62
     7
100
AcDbEllipse
 10
55.0267000844
 20
338.9171648964
 30
0.0
 11
0.3535325821187943
 21
-0.3535741978431372
 31
0.0
210
0.0
220
0.0
230
1.0
 40
0.6444004776
 41
0.99836757881763
 42
2.143225074772182
  0
ELLIPSE
  5
A1
330
75
100
AcDbEntity
  8
$DDT_AUDIT_GENERATED_(7A)
  6
Continuous
 62
     7
100
AcDbEllipse
 10
55.0267000844
 20
338.9171648964
 30
0.0
 11
-0.35357419784314
 21
-0.3535325821187884
 31
0.0
210
0.0
220
0.0
230
1.0
 40
0.6444004776
 41
0.9983675788176354
 42
2.143225074772253
  0
ELLIPSE
  5
A2
330
75
100
AcDbEntity
  8
$DDT_AUDIT_GENERATED_(7A)
  6
Continuous
 62
     7
100
AcDbEllipse
 10
55.0267000844
 20
338.9171648964
 30
0.0
 11
0.3535325821188151
 21
-0.3535741978431153
 31
0.0
210
0.0
220
0.0
230
1.0
 40
0.6444004776
 41
4.139960232407335
 42
5.284817728361865
  0
ARC
  5
A3
330
75
100
AcDbEntity
  8
$DDT_AUDIT_GENERATED_(7A)
  6
Continuous
 62
     7
100
AcDbCircle
 10
53.0968136751
 20
340.8472784804
 30
0.0
 40
1.379999999999977
100
AcDbArc
 50
269.9966279416
 51
359.9966279416
  0
LINE
  5
A4
330
75
100
AcDbEntity
  8
$DDT_AUDIT_GENERATED_(7A)
  6
Continuous
 62
     7
100
AcDbLine
 10
55.5768531026
 20
341.5171325225
 30
0.0
 11
54.4768531045
 21
341.5171972613
 31
0.0
  0
LINE
  5
A5
330
75
100
AcDbEntity
  8
$DDT_AUDIT_GENERATED_(7A)
  6
Continuous
 62
     7
100
AcDbLine
 10
54.4768531045
 20
341.5171972613
 30
0.0
 11
54.4768136727
 21
340.8471972625
 31
0.0
  0
LINE
  5
A6
330
75
100
AcDbEntity
  8
$DDT_AUDIT_GENERATED_(7A)
  6
Continuous
 62
     7
100
AcDbLine
 10
53.0967324572
 20
339.4672784827
 30
0.0
 11
52.4267324584
 21
339.4673179146
 31
0.0
  0
LINE
  5
A7
330
75
100
AcDbEntity
  8
$DDT_AUDIT_GENERATED_(7A)
  6
Continuous
 62
     7
100
AcDbLine
 10
52.4267324584
 20
339.4673179146
 30
0.0
 11
52.4266677195
 21
338.3673179165
 31
0.0
  0
LINE
  5
A8
330
75
100
AcDbEntity
  8
$DDT_AUDIT_GENERATED_(7A)
  6
Continuous
 62
     7
100
AcDbLine
 10
52.4266677195
 20
338.3673179165
 30
0.0
 11
53.0966677183
 21
338.3672784847
 31
0.0
  0
ARC
  5
A9
330
75
100
AcDbEntity
  8
$DDT_AUDIT_GENERATED_(7A)
  6
Continuous
 62
     7
100
AcDbCircle
 10
53.0965865005
 20
336.987278487
 30
0.0
 40
1.379999999999971
100
AcDbArc
 50
359.9966279416
 51
89.9966279412
  0
LINE
  5
AA
330
75
100
AcDbEntity
  8
$DDT_AUDIT_GENERATED_(7A)
  6
Continuous
 62
     7
100
AcDbLine
 10
54.4765864981
 20
336.9871972692
 30
0.0
 11
54.4765470662
 21
336.3171972703
 31
0.0
  0
LINE
  5
AB
330
75
100
AcDbEntity
  8
$DDT_AUDIT_GENERATED_(7A)
  6
Continuous
 62
     7
100
AcDbLine
 10
54.4765470662
 20
336.3171972703
 30
0.0
 11
55.5765470643
 21
336.3171325315
 31
0.0
  0
LINE
  5
AC
330
75
100
AcDbEntity
  8
$DDT_AUDIT_GENERATED_(7A)
  6
Continuous
 62
     7
100
AcDbLine
 10
55.5765470643
 20
336.3171325315
 30
0.0
 11
55.5765864962
 21
336.9871325303
 31
0.0
  0
ARC
  5
AD
330
75
100
AcDbEntity
  8
$DDT_AUDIT_GENERATED_(7A)
  6
Continuous
 62
     7
100
AcDbCircle
 10
56.9565864938
 20
336.9870513124
 30
0.0
 40
1.379999999999976
100
AcDbArc
 50
89.9966279416
 51
179.9966279412
  0
LINE
  5
AE
330
75
100
AcDbEntity
  8
$DDT_AUDIT_GENERATED_(7A)
  6
Continuous
 62
     7
100
AcDbLine
 10
56.9566677116
 20
338.3670513101
 30
0.0
 11
57.6266677105
 21
338.3670118782
 31
0.0
  0
LINE
  5
AF
330
75
100
AcDbEntity
  8
$DDT_AUDIT_GENERATED_(7A)
  6
Continuous
 62
     7
100
AcDbLine
 10
57.6266677105
 20
338.3670118782
 30
0.0
 11
57.6267324494
 21
339.4670118763
 31
0.0
  0
LINE
  5
B0
330
75
100
AcDbEntity
  8
$DDT_AUDIT_GENERATED_(7A)
  6
Continuous
 62
     7
100
AcDbLine
 10
57.6267324494
 20
339.4670118763
 30
0.0
 11
56.9567324505
 21
339.4670513082
 31
0.0
  0
ARC
  5
B1
330
75
100
AcDbEntity
  8
$DDT_AUDIT_GENERATED_(7A)
  6
Continuous
 62
     7
100
AcDbCircle
 10
56.9568136684
 20
340.8470513058
 30
0.0
 40
1.379999999999982
100
AcDbArc
 50
179.9966279416
 51
269.9966279412
  0
LINE
  5
B2
330
75
100
AcDbEntity
  8
$DDT_AUDIT_GENERATED_(7A)
  6
Continuous
 62
     7
100
AcDbLine
 10
55.5768136708
 20
340.8471325236
 30
0.0
 11
55.5768531026
 21
341.5171325225
 31
0.0
  0
ARC
  5
B4
330
75
100
AcDbEntity
  8
$DDT_AUDIT_GENERATED_(B3)
  6
Continuous
 62
     7
100
AcDbCircle
 10
95.0267000151
 20
338.9148107555
 30
0.0
 40
84.99999999999989
100
AcDbArc
 50
273.7101743597
 51
0.0
  0
ARC
  5
B5
330
75
100
AcDbEntity
  8
$DDT_AUDIT_GENERATED_(B3)
  6
Continuous
 62
     7
100
AcDbCircle
 10
95.0267000151
 20
338.9148107555
 30
0.0
 40
84.99999999999989
100
AcDbArc
 50
0.0
 51
266.2898221986
  0
CIRCLE
  5
B6
330
75
100
AcDbEntity
  8
$DDT_AUDIT_GENERATED_(B3)
  6
Continuous
 62
     7
100
AcDbCircle
 10
134.9082349702
 20
338.9125309737
 30
0.0
 40
6.841735161351598
  0
CIRCLE
  5
B7
330
75
100
AcDbEntity
  8
$DDT_AUDIT_GENERATED_(B3)
  6
Continuous
 62
     7
100
AcDbCircle
 10
134.8750591259
 20
338.9124656295
 30
0.0
 40
5.775532713064937
  0
CIRCLE
  5
B8
330
75
100
AcDbEntity
  8
$DDT_AUDIT_GENERATED_(B3)
  6
Continuous
 62
     7
100
AcDbCircle
 10
55.1448019803
 20
338.9172253288
 30
0.0
 40
6.841735191932493
  0
CIRCLE
  5
B9
330
75
100
AcDbEntity
  8
$DDT_AUDIT_GENERATED_(B3)
  6
Continuous
 62
     7
100
AcDbCircle
 10
55.1780946302
 20
338.9171560299
 30
0.0
 40
5.775532618859098
  0
ARC
  5
BA
330
75
100
AcDbEntity
  8
$DDT_AUDIT_GENERATED_(B3)
  6
Continuous
 62
     7
100
AcDbCircle
 10
95.0267000151
 20
338.9148107555
 30
0.0
 40
29.78309232480537
100
AcDbArc
 50
280.6424119351
 51
0.0
  0
ARC
  5
BB
330
75
100
AcDbEntity
  8
$DDT_AUDIT_GENERATED_(B3)
  6
Continuous
 62
     7
100
AcDbCircle
 10
95.0267000151
 20
338.9148107555
 30
0.0
 40
29.78309232480537
100
AcDbArc
 50
0.0
 51
259.3575780913
  0
ARC
  5
BD
330
75
100
AcDbEntity
  8
$DDT_AUDIT_GENERATED_(BC)
  6
Continuous
 62
     7
100
AcDbCircle
 10
95.0265547783
 20
339.0117740807
 30
0.0
 40
26.62012481945057
100
AcDbArc
 50
89.9996928832
 51
101.3507792569
  0
ARC
  5
BE
330
75
100
AcDbEntity
  8
$DDT_AUDIT_GENERATED_(BC)
  6
Continuous
 62
     7
100
AcDbCircle
 10
95.0314585293
 20
338.9977149551
 30
0.0
 40
26.63487416789464
100
AcDbArc
 50
101.3551693103
 51
112.6730382674
  0
ARC
  5
BF
330
75
100
AcDbEntity
  8
$DDT_AUDIT_GENERATED_(BC)
  6
Continuous
 62
     7
100
AcDbCircle
 10
95.0270182039
 20
339.0121459616
 30
0.0
 40
26.6198468153645
100
AcDbArc
 50
112.6761927218
 51
135.24758684
  0
ARC
  5
C0
330
75
100
AcDbEntity
  8
$DDT_AUDIT_GENERATED_(BC)
  6
Continuous
 62
     7
100
AcDbCircle
 10
95.0389709816
 20
339.0028868586
 30
0.0
 40
26.63485403418811
100
AcDbArc
 50
135.2515447212
 51
146.4294898373
  0
ARC
  5
C1
330
75
100
AcDbEntity
  8
$DDT_AUDIT_GENERATED_(BC)
  6
Continuous
 62
     7
100
AcDbCircle
 10
95.0437840899
 20
339.0042667405
 30
0.0
 40
26.6381015939625
100
AcDbArc
 50
146.4376873216
 51
157.6557743009
  0
ARC
  5
C2
330
75
100
AcDbEntity
  8
$DDT_AUDIT_GENERATED_(BC)
  6
Continuous
 62
     7
100
AcDbCircle
 10
95.0407078104
 20
339.0092318888
 30
0.0
 40
26.63336891078501
100
AcDbArc
 50
157.6631377769
 51
168.8771106459
  0
ARC
  5
C3
330
75
100
AcDbEntity
  8
$DDT_AUDIT_GENERATED_(BC)
  6
Continuous
 62
     7
100
AcDbCircle
 10
95.034328508
 20
339.0133221182
 30
0.0
 40
26.6263205221922
100
AcDbArc
 50
168.8830986794
 51
180.038938624
  0
ARC
  5
C4
330
75
100
AcDbEntity
  8
$DDT_AUDIT_GENERATED_(BC)
  6
Continuous
 62
     7
100
AcDbCircle
 10
95.0189284238
 20
339.0137894056
 30
0.0
 40
26.61092076347937
100
AcDbArc
 50
180.039967271
 51
191.2323293805
  0
ARC
  5
C5
330
75
100
AcDbEntity
  8
$DDT_AUDIT_GENERATED_(BC)
  6
Continuous
 62
     7
100
AcDbCircle
 10
95.025823591
 20
339.0148085892
 30
0.0
 40
26.61788238324828
100
AcDbArc
 50
191.2315901307
 51
213.6279207844
  0
ARC
  5
C6
330
75
100
AcDbEntity
  8
$DDT_AUDIT_GENERATED_(BC)
  6
Continuous
 62
     7
100
AcDbCircle
 10
95.0384653943
 20
339.0255777257
 30
0.0
 40
26.63437259145436
100
AcDbArc
 50
213.632149908
 51
224.8157879536
  0
ARC
  5
C7
330
75
100
AcDbEntity
  8
$DDT_AUDIT_GENERATED_(BC)
  6
Continuous
 62
     7
100
AcDbCircle
 10
95.0240007027
 20
339.0123625733
 30
0.0
 40
26.61479725911111
100
AcDbArc
 50
224.8175545784
 51
236.1309386917
  0
ARC
  5
C8
330
75
100
AcDbEntity
  8
$DDT_AUDIT_GENERATED_(BC)
  6
Continuous
 62
     7
100
AcDbCircle
 10
95.0329986368
 20
339.0274953378
 30
0.0
 40
26.63237673282777
100
AcDbArc
 50
236.1330090233
 51
247.3841928321
  0
ARC
  5
C9
330
75
100
AcDbEntity
  8
$DDT_AUDIT_GENERATED_(BC)
  6
Continuous
 62
     7
100
AcDbCircle
 10
95.0273083229
 20
339.0181218016
 30
0.0
 40
26.62153582338502
100
AcDbArc
 50
247.3877400563
 51
258.6638587463
  0
ARC
  5
CA
330
75
100
AcDbEntity
  8
$DDT_AUDIT_GENERATED_(BC)
  6
Continuous
 62
     7
100
AcDbCircle
 10
95.0266772904
 20
339.0153958964
 30
0.0
 40
26.61873905964191
100
AcDbArc
 50
258.664037196
 51
270.0000434305
  0
ARC
  5
CB
330
75
100
AcDbEntity
  8
$DDT_AUDIT_GENERATED_(BC)
  6
Continuous
 62
     7
100
AcDbCircle
 10
95.0267178094
 20
339.0153942371
 30
0.0
 40
26.61873740036251
100
AcDbArc
 50
269.999956215
 51
281.3359631585
  0
ARC
  5
CC
330
75
100
AcDbEntity
  8
$DDT_AUDIT_GENERATED_(BC)
  6
Continuous
 62
     7
100
AcDbCircle
 10
95.0260866121
 20
339.0181218019
 30
0.0
 40
26.62153582370376
100
AcDbArc
 50
281.3361412538
 51
292.6122599436
  0
ARC
  5
CD
330
75
100
AcDbEntity
  8
$DDT_AUDIT_GENERATED_(BC)
  6
Continuous
 62
     7
100
AcDbCircle
 10
95.0203962921
 20
339.0274953495
 30
0.0
 40
26.63237674604952
100
AcDbArc
 50
292.6158071704
 51
303.8669909737
  0
ARC
  5
CE
330
75
100
AcDbEntity
  8
$DDT_AUDIT_GENERATED_(BC)
  6
Continuous
 62
     7
100
AcDbCircle
 10
95.0293942302
 20
339.0123625755
 30
0.0
 40
26.61479726216051
100
AcDbArc
 50
303.8690613097
 51
315.1824454217
  0
ARC
  5
CF
330
75
100
AcDbEntity
  8
$DDT_AUDIT_GENERATED_(BC)
  6
Continuous
 62
     7
100
AcDbCircle
 10
95.0149295404
 20
339.0255777264
 30
0.0
 40
26.63437259211398
100
AcDbArc
 50
315.1842120458
 51
326.3678500911
  0
ARC
  5
D0
330
75
100
AcDbEntity
  8
$DDT_AUDIT_GENERATED_(BC)
  6
Continuous
 62
     7
100
AcDbCircle
 10
95.0276759128
 20
339.0147654255
 30
0.0
 40
26.61777141008475
100
AcDbArc
 50
326.3720319253
 51
348.7684571597
  0
ARC
  5
D1
330
75
100
AcDbEntity
  8
$DDT_AUDIT_GENERATED_(BC)
  6
Continuous
 62
     7
100
AcDbCircle
 10
95.0344664914
 20
339.0137894075
 30
0.0
 40
26.61092078334591
100
AcDbArc
 50
348.7676706238
 51
359.960032725
  0
ARC
  5
D2
330
75
100
AcDbEntity
  8
$DDT_AUDIT_GENERATED_(BC)
  6
Continuous
 62
     7
100
AcDbCircle
 10
95.0190664176
 20
339.0133221182
 30
0.0
 40
26.626320531716
100
AcDbArc
 50
359.9610613761
 51
11.1169013168
  0
ARC
  5
D3
330
75
100
AcDbEntity
  8
$DDT_AUDIT_GENERATED_(BC)
  6
Continuous
 62
     7
100
AcDbCircle
 10
95.012687139
 20
339.0092318917
 30
0.0
 40
26.63336889627321
100
AcDbArc
 50
11.1228893539
 51
22.336862229
  0
ARC
  5
D4
330
75
100
AcDbEntity
  8
$DDT_AUDIT_GENERATED_(BC)
  6
Continuous
 62
     7
100
AcDbCircle
 10
95.0096108277
 20
339.0042667306
 30
0.0
 40
26.63810161380309
100
AcDbArc
 50
22.3442257044
 51
33.5623126753
  0
ARC
  5
D5
330
75
100
AcDbEntity
  8
$DDT_AUDIT_GENERATED_(BC)
  6
Continuous
 62
     7
100
AcDbCircle
 10
95.0144239446
 20
339.0028868532
 30
0.0
 40
26.63485404441651
100
AcDbArc
 50
33.5705101617
 51
44.7484552735
  0
ARC
  5
D6
330
75
100
AcDbEntity
  8
$DDT_AUDIT_GENERATED_(BC)
  6
Continuous
 62
     7
100
AcDbCircle
 10
95.0263767327
 20
339.012145964
 30
0.0
 40
26.61984681272327
100
AcDbArc
 50
44.7524131587
 51
67.3238072792
  0
ARC
  5
D7
330
75
100
AcDbEntity
  8
$DDT_AUDIT_GENERATED_(BC)
  6
Continuous
 62
     7
100
AcDbCircle
 10
95.0219364047
 20
338.9977149513
 30
0.0
 40
26.63487417189899
100
AcDbArc
 50
67.3269617336
 51
78.644830689
  0
ARC
  5
D8
330
75
100
AcDbEntity
  8
$DDT_AUDIT_GENERATED_(BC)
  6
Continuous
 62
     7
100
AcDbCircle
 10
95.026840165
 20
339.0117741592
 30
0.0
 40
26.62012474095788
100
AcDbArc
 50
78.6492207273
 51
90.0003071349
  0
LINE
  5
D9
330
75
100
AcDbEntity
  8
$DDT_AUDIT_GENERATED_(BC)
  6
Continuous
 62
     7
100
AcDbLine
 10
95.0266974675
 20
365.6834382351
 30
0.0
 11
95.0266974675
 21
365.6318988998
 31
0.0
  0
ARC
  5
DA
330
75
100
AcDbEntity
  8
$DDT_AUDIT_GENERATED_(BC)
  6
Continuous
 62
     7
100
AcDbCircle
 10
95.0274654512
 20
338.9956789431
 30
0.0
 40
26.68775930302927
100
AcDbArc
 50
90.0016487792
 51
101.3561352717
  0
ARC
  5
DB
330
75
100
AcDbEntity
  8
$DDT_AUDIT_GENERATED_(BC)
  6
Continuous
 62
     7
100
AcDbCircle
 10
95.0265974807
 20
339.000277309
 30
0.0
 40
26.68308005369747
100
AcDbArc
 50
101.3562522378
 51
112.6856859048
  0
ARC
  5
DC
330
75
100
AcDbEntity
  8
$DDT_AUDIT_GENERATED_(BC)
  6
Continuous
 62
     7
100
AcDbCircle
 10
95.0264063686
 20
339.00052535
 30
0.0
 40
26.68277749534424
100
AcDbArc
 50
112.685512697
 51
157.6855119557
  0
ARC
  5
DD
330
75
100
AcDbEntity
  8
$DDT_AUDIT_GENERATED_(BC)
  6
Continuous
 62
     7
100
AcDbCircle
 10
95.0239391151
 20
339.0011902685
 30
0.0
 40
26.68024254419209
100
AcDbArc
 50
157.6848211774
 51
168.9083149753
  0
ARC
  5
DE
330
75
100
AcDbEntity
  8
$DDT_AUDIT_GENERATED_(BC)
  6
Continuous
 62
     7
100
AcDbCircle
 10
95.0266594888
 20
339.0004145969
 30
0.0
 40
26.68306132735257
100
AcDbArc
 50
168.907804272
 51
180.0687360434
  0
ARC
  5
DF
330
75
100
AcDbEntity
  8
$DDT_AUDIT_GENERATED_(BC)
  6
Continuous
 62
     7
100
AcDbCircle
 10
95.023543727
 20
339.0002971491
 30
0.0
 40
26.67994542713446
100
AcDbArc
 50
180.068491849
 51
191.2596233221
  0
ARC
  5
E0
330
75
100
AcDbEntity
  8
$DDT_AUDIT_GENERATED_(BC)
  6
Continuous
 62
     7
100
AcDbCircle
 10
95.0266002625
 20
339.0007094119
 30
0.0
 40
26.6830236290819
100
AcDbArc
 50
191.2592100227
 51
213.6525895889
  0
ARC
  5
E1
330
75
100
AcDbEntity
  8
$DDT_AUDIT_GENERATED_(BC)
  6
Continuous
 62
     7
100
AcDbCircle
 10
95.0246784144
 20
338.9993170353
 30
0.0
 40
26.68065226442015
100
AcDbArc
 50
213.6523876649
 51
224.8410064305
  0
ARC
  5
E2
330
75
100
AcDbEntity
  8
$DDT_AUDIT_GENERATED_(BC)
  6
Continuous
 62
     7
100
AcDbCircle
 10
95.0280507257
 20
339.0026597123
 30
0.0
 40
26.68540051801241
100
AcDbArc
 50
224.8409897294
 51
236.1470749862
  0
ARC
  5
E3
330
75
100
AcDbEntity
  8
$DDT_AUDIT_GENERATED_(BC)
  6
Continuous
 62
     7
100
AcDbCircle
 10
95.0256360474
 20
338.9991161284
 30
0.0
 40
26.6811125491774
100
AcDbArc
 50
236.1471422418
 51
247.3999631181
  0
ARC
  5
E4
330
75
100
AcDbEntity
  8
$DDT_AUDIT_GENERATED_(BC)
  6
Continuous
 62
     7
100
AcDbCircle
 10
95.0267955616
 20
339.001397862
 30
0.0
 40
26.68366466564558
100
AcDbArc
 50
247.3995473853
 51
258.6704720358
  0
ARC
  5
E5
330
75
100
AcDbEntity
  8
$DDT_AUDIT_GENERATED_(BC)
  6
Continuous
 62
     7
100
AcDbCircle
 10
95.026919796
 20
339.0024857163
 30
0.0
 40
26.68475572769603
100
AcDbArc
 50
258.6706693515
 51
269.9995226308
  0
ARC
  5
E6
330
75
100
AcDbEntity
  8
$DDT_AUDIT_GENERATED_(BC)
  6
Continuous
 62
     7
100
AcDbCircle
 10
95.0264751391
 20
339.0024857163
 30
0.0
 40
26.68475572768897
100
AcDbArc
 50
270.0004773692
 51
281.3293306485
  0
ARC
  5
E7
330
75
100
AcDbEntity
  8
$DDT_AUDIT_GENERATED_(BC)
  6
Continuous
 62
     7
100
AcDbCircle
 10
95.0265993735
 20
339.0013978619
 30
0.0
 40
26.6836646655223
100
AcDbArc
 50
281.3295279641
 51
292.6004526148
  0
ARC
  5
E8
330
75
100
AcDbEntity
  8
$DDT_AUDIT_GENERATED_(BC)
  6
Continuous
 62
     7
100
AcDbCircle
 10
95.0277592179
 20
338.9991155132
 30
0.0
 40
26.68111185430953
100
AcDbArc
 50
292.6000367349
 51
303.8528579053
  0
ARC
  5
E9
330
75
100
AcDbEntity
  8
$DDT_AUDIT_GENERATED_(BC)
  6
Continuous
 62
     7
100
AcDbCircle
 10
95.0253437694
 20
339.0026602458
 30
0.0
 40
26.6854012061959
100
AcDbArc
 50
303.8529251601
 51
315.1590101243
  0
ARC
  5
EA
330
75
100
AcDbEntity
  8
$DDT_AUDIT_GENERATED_(BC)
  6
Continuous
 62
     7
100
AcDbCircle
 10
95.0287165208
 20
338.9993170352
 30
0.0
 40
26.68065226420564
100
AcDbArc
 50
315.1589935695
 51
326.3476123351
  0
ARC
  5
EB
330
75
100
AcDbEntity
  8
$DDT_AUDIT_GENERATED_(BC)
  6
Continuous
 62
     7
100
AcDbCircle
 10
95.0267744306
 20
339.0007177781
 30
0.0
 40
26.68304511494802
100
AcDbArc
 50
326.3474195435
 51
348.7407808449
  0
ARC
  5
EC
330
75
100
AcDbEntity
  8
$DDT_AUDIT_GENERATED_(BC)
  6
Continuous
 62
     7
100
AcDbCircle
 10
95.02607193
 20
339.0006719769
 30
0.0
 40
26.68372515315567
100
AcDbArc
 50
348.741171814
 51
359.9307130152
  0
ARC
  5
ED
330
75
100
AcDbEntity
  8
$DDT_AUDIT_GENERATED_(BC)
  6
Continuous
 62
     7
100
AcDbCircle
 10
95.0270179742
 20
339.0004418596
 30
0.0
 40
26.68277883233818
100
AcDbArc
 50
359.9312046878
 51
11.0922549969
  0
ARC
  5
EE
330
75
100
AcDbEntity
  8
$DDT_AUDIT_GENERATED_(BC)
  6
Continuous
 62
     7
100
AcDbCircle
 10
95.0295354433
 20
339.0012141619
 30
0.0
 40
26.68015981162116
100
AcDbArc
 50
11.0916675672
 51
22.3151962798
  0
ARC
  5
EF
330
75
100
AcDbEntity
  8
$DDT_AUDIT_GENERATED_(BC)
  6
Continuous
 62
     7
100
AcDbCircle
 10
95.0269480803
 20
339.0004851251
 30
0.0
 40
26.68283022274684
100
AcDbArc
 50
22.3145349421
 51
67.3144404054
  0
ARC
  5
F0
330
75
100
AcDbEntity
  8
$DDT_AUDIT_GENERATED_(BC)
  6
Continuous
 62
     7
100
AcDbCircle
 10
95.0268127255
 20
339.000327193
 30
0.0
 40
26.68302813923691
100
AcDbArc
 50
67.314303038
 51
78.6437588197
  0
ARC
  5
F1
330
75
100
AcDbEntity
  8
$DDT_AUDIT_GENERATED_(BC)
  6
Continuous
 62
     7
100
AcDbCircle
 10
95.0259011016
 20
338.9953935285
 30
0.0
 40
26.6880447184786
100
AcDbArc
 50
78.6439256424
 51
89.9982903053
  0
SPLINE
  5
F2
330
75
100
AcDbEntity
  8
$DDT_AUDIT_GENERATED_(BC)
  6
Continuous
 62
     7
100
AcDbSpline
210
0.0
220
0.0
230
1.0
 70
     8
 71
     3
 72
     8
 73
     4
 74
     0
 42
0.0000000024521701
 43
0.0000000001
 40
0.4208564962347772
 40
0.4208564962347772
 40
0.4208564962347772
 40
0.4208564962347772
 40
0.4583033384350909
 40
0.4583033384350909
 40
0.4583033384350909
 40
0.4583033384350909
 10
88.75302761395648
 20
312.8157766127256
 30
0.0
 10
88.69031236974368
 20
312.8353119126564
 30
0.0
 10
88.64200623069415
 20
312.8517749965103
 30
0.0
 10
88.60844437969101
 20
312.8647626117265
 30
0.0
  0
SPLINE
  5
F3
330
75
100
AcDbEntity
  8
$DDT_AUDIT_GENERATED_(BC)
  6
Continuous
 62
     7
100
AcDbSpline
210
0.0
220
0.0
230
1.0
 70
     8
 71
     3
 72
    14
 73
    10
 74
     0
 42
0.0000000008075094
 43
0.0000000001
 40
0.4583033384350909
 40
0.4583033384350909
 40
0.4583033384350909
 40
0.4583033384350909
 40
0.5000244748168483
 40
0.625057865230288
 40
0.7497144618516339
 40
0.8126229749623225
 40
0.8747853001796361
 40
0.9375225148514902
 40
1.0
 40
1.0
 40
1.0
 40
1.0
 10
88.60844437969101
 20
312.8647626117265
 30
0.0
 10
88.5710516789811
 20
312.8792326720539
 30
0.0
 10
88.49474956796327
 20
312.9198246641471
 30
0.0
 10
88.88529794424144
 20
312.8547527477401
 30
0.0
 10
90.08890179490474
 20
312.6258349665423
 30
0.0
 10
91.39702908833036
 20
312.4382262623192
 30
0.0
 10
92.52535306627378
 20
312.3178762704568
 30
0.0
 10
93.74870404958952
 20
312.2333509539377
 30
0.0
 10
94.60128915976698
 20
312.2222664859911
 30
0.0
 10
95.02669746754039
 20
312.2167359382044
 30
0.0
  0
SPLINE
  5
F4
330
75
100
AcDbEntity
  8
$DDT_AUDIT_GENERATED_(BC)
  6
Continuous
 62
     7
100
AcDbSpline
210
0.0
220
0.0
230
1.0
 70
     8
 71
     3
 72
    16
 73
    12
 74
     0
 42
0.0000000008077915
 43
0.0000000001
 40
0.0
 40
0.0
 40
0.0
 40
0.0
 40
0.0313669670682691
 40
0.0625581892366308
 40
0.0938132967695812
 40
0.1253735042500333
 40
0.1875382208421893
 40
0.2504445524459055
 40
0.3751013593265431
 40
0.5001349606347625
 40
0.5418552029169975
 40
0.5418552029169975
 40
0.5418552029169975
 40
0.5418552029169975
 10
95.02669746754039
 20
312.2167359382044
 30
0.0
 10
95.23997130402775
 20
312.2181104681991
 30
0.0
 10
95.66532403236621
 20
312.2208522059751
 30
0.0
 10
96.29678768361286
 20
312.2426589295826
 30
0.0
 10
96.91661269830249
 20
312.2765054966287
 30
0.0
 10
97.71481325232945
 20
312.3373175208091
 30
0.0
 10
98.65656335058729
 20
312.4384082855952
 30
0.0
 10
99.96439633134996
 20
312.6257334557314
 30
0.0
 10
101.1681303727324
 20
312.8547850073261
 30
0.0
 10
101.558651509019
 20
312.9198326839922
 30
0.0
 10
101.4823366963767
 20
312.8792251983583
 30
0.0
 10
101.4449432282911
 20
312.8647529272455
 30
0.0
  0
SPLINE
  5
F5
330
75
100
AcDbEntity
  8
$DDT_AUDIT_GENERATED_(BC)
  6
Continuous
 62
     7
100
AcDbSpline
210
0.0
220
0.0
230
1.0
 70
     8
 71
     3
 72
     8
 73
     4
 74
     0
 42
0.0000000024521695
 43
0.0000000001
 40
0.5418552029169975
 40
0.5418552029169975
 40
0.5418552029169975
 40
0.5418552029169975
 40
0.5793011567432828
 40
0.5793011567432828
 40
0.5793011567432828
 40
0.5793011567432828
 10
101.4449432282911
 20
312.8647529272455
 30
0.0
 10
101.4113807654974
 20
312.8517633575256
 30
0.0
 10
101.3630757575557
 20
312.8352995350538
 30
0.0
 10
101.3003642626563
 20
312.815765733789
 30
0.0
  0
ARC
  5
F6
330
75
100
AcDbEntity
  8
$DDT_AUDIT_GENERATED_(BC)
  6
Continuous
 62
     7
100
AcDbCircle
 10
88.1524157244
 20
311.5784017677
 30
0.0
 40
1.377117693286882
100
AcDbArc
 50
3.8735917998
 51
63.5272008194
  0
ARC
  5
F7
330
75
100
AcDbEntity
  8
$DDT_AUDIT_GENERATED_(BC)
  6
Continuous
 62
     7
100
AcDbCircle
 10
101.9009792107
 20
311.5784017678
 30
0.0
 40
1.377117693285838
100
AcDbArc
 50
116.4727991823
 51
176.1264082002
  0
LINE
  5
F8
330
75
100
AcDbEntity
  8
$DDT_AUDIT_GENERATED_(BC)
  6
Continuous
 62
     7
100
AcDbLine
 10
89.5263863002
 20
311.6915010534
 30
0.0
 11
89.5263863002
 21
248.9874427202
 31
0.0
  0
LINE
  5
F9
330
75
100
AcDbEntity
  8
$DDT_AUDIT_GENERATED_(BC)
  6
Continuous
 62
     7
100
AcDbLine
 10
100.5270086349
 20
248.9874427202
 30
0.0
 11
100.5270086349
 21
311.6915010534
 31
0.0
  0
SPLINE
  5
FA
330
75
100
AcDbEntity
  8
$DDT_AUDIT_GENERATED_(BC)
  6
Continuous
 62
     7
100
AcDbSpline
210
0.0
220
0.0
230
1.0
 70
     8
 71
     3
 72
    17
 73
    13
 74
     0
 42
0.0000000015993044
 43
0.0000000001
 40
0.0
 40
0.0
 40
0.0
 40
0.0
 40
0.0652169035995001
 40
0.1501102429901911
 40
0.2178236881096736
 40
0.2865876374808382
 40
0.3721960646961852
 40
0.486772738272338
 40
0.6297237628205247
 40
0.8005986547768119
 40
0.8967727292016772
 40
1.0
 40
1.0
 40
1.0
 40
1.0
 10
89.52635999085665
 20
248.9877520897847
 30
0.0
 10
89.54215349001285
 20
248.8568638299019
 30
0.0
 10
89.57712548001717
 20
248.6020527688142
 30
0.0
 10
89.8126740161206
 20
248.2477895318271
 30
0.0
 10
90.12119124971838
 20
247.9703208896746
 30
0.0
 10
90.41356544840049
 20
247.7975367633449
 30
0.0
 10
90.76985841373097
 20
247.6525554592527
 30
0.0
 10
91.33941880288377
 20
247.4922186541909
 30
0.0
 10
92.21678710391093
 20
247.3367882541677
 30
0.0
 10
93.21621195213528
 20
247.2363745933916
 30
0.0
 10
94.21349322947658
 20
247.1852678405456
 30
0.0
 10
94.71801610733108
 20
247.1789966894494
 30
0.0
 10
95.0267115405528
 20
247.1759177600663
 30
0.0
  0
SPLINE
  5
FB
330
75
100
AcDbEntity
  8
$DDT_AUDIT_GENERATED_(BC)
  6
Continuous
 62
     7
100
AcDbSpline
210
0.0
220
0.0
230
1.0
 70
     8
 71
     3
 72
    17
 73
    13
 74
     0
 42
0.0000000015998776
 43
0.0000000001
 40
0.0
 40
0.0
 40
0.0
 40
0.0
 40
0.1032261984555163
 40
0.1993992738074024
 40
0.3702723906856508
 40
0.5132219302337814
 40
0.627797413567558
 40
0.7134049514677011
 40
0.7821681865070261
 40
0.8762369502132188
 40
0.9347837738850123
 40
1.0
 40
1.0
 40
1.0
 40
1.0
 10
95.02668339452738
 20
247.1759177600664
 30
0.0
 10
95.33537882774911
 20
247.1789966894495
 30
0.0
 10
95.83990216659245
 20
247.1852680322655
 30
0.0
 10
96.83718099282804
 20
247.2363737657248
 30
0.0
 10
97.8366208313654
 20
247.3367936608009
 30
0.0
 10
98.71394023490745
 20
247.4922037249179
 30
0.0
 10
99.28363069424687
 20
247.6525946246864
 30
0.0
 10
99.6395943534867
 20
247.7974389741325
 30
0.0
 10
99.9677006216466
 20
247.9911585790956
 30
0.0
 10
100.2751645303309
 20
248.2871488408316
 30
0.0
 10
100.4832911957089
 20
248.6473992010729
 30
0.0
 10
100.5117028349571
 20
248.8569899377371
 30
0.0
 10
100.5270349442235
 20
248.9877520897847
 30
0.0
  0
ENDBLK
  5
FD
330
75
100
AcDbEntity
  8
0
100
AcDbBlockEnd
  0
BLOCK
  5
166
330
FE
100
AcDbEntity
  8
0
100
AcDbBlockBegin
  2
SE1
 70
     0
 10
0.0
 20
0.0
 30
0.0
  3
SE1
  1

  0
LINE
  5
100
330
FE
100
AcDbEntity
  8
$DDT_AUDIT_GENERATED_(77)
  6
Continuous
 62
     7
100
AcDbLine
 10
283.8296012433
 20
310.5799784105
 30
0.0
 11
283.8296012433
 21
367.2496431005
 31
0.0
  0
LINE
  5
101
330
FE
100
AcDbEntity
  8
$DDT_AUDIT_GENERATED_(77)
  6
Continuous
 62
     7
100
AcDbLine
 10
258.9011083178
 20
309.9272038174
 30
0.0
 11
283.8296012433
 21
310.5799784105
 31
0.0
  0
LINE
  5
102
330
FE
100
AcDbEntity
  8
$DDT_AUDIT_GENERATED_(77)
  6
Continuous
 62
     7
100
AcDbLine
 10
283.8296012433
 20
367.2496431005
 30
0.0
 11
258.9011083178
 21
367.9024176937
 31
0.0
  0
ARC
  5
103
330
FE
100
AcDbEntity
  8
$DDT_AUDIT_GENERATED_(77)
  6
Continuous
 62
     7
100
AcDbCircle
 10
283.7772474242
 20
365.2503284485
 30
0.0
 40
2.000000000000002
100
AcDbArc
 50
27.0449407173
 51
88.5000022219
  0
ARC
  5
104
330
FE
100
AcDbEntity
  8
$DDT_AUDIT_GENERATED_(77)
  6
Continuous
 62
     7
100
AcDbCircle
 10
283.7772474242
 20
312.5792930625
 30
0.0
 40
1.999999999999997
100
AcDbArc
 50
271.4999977781
 51
333.4615558033
  0
SPLINE
  5
106
330
FE
100
AcDbEntity
  8
$DDT_AUDIT_GENERATED_(105)
  6
Continuous
 62
     7
100
AcDbSpline
210
0.0
220
0.0
230
1.0
 70
    24
 71
     3
 72
     8
 73
     4
 74
     0
 42
0.0000000003555788
 43
0.0000000001
 40
0.9704060746158132
 40
0.9704060746158132
 40
0.9704060746158132
 40
0.9704060746158132
 40
1.0
 40
1.0
 40
1.0
 40
1.0
 10
286.1772474242351
 20
311.6965183266892
 30
0.0
 10
286.1772474242351
 20
311.4190934449426
 30
0.0
 10
286.1772474242351
 20
311.1416685631959
 30
0.0
 10
286.1772474242351
 20
310.8642436814493
 30
0.0
  0
SPLINE
  5
107
330
FE
100
AcDbEntity
  8
$DDT_AUDIT_GENERATED_(105)
  6
Continuous
 62
     7
100
AcDbSpline
210
0.0
220
0.0
230
1.0
 70
    24
 71
     3
 72
     8
 73
     4
 74
     0
 42
0.0000000003480916
 43
0.0000000001
 40
0.9651255602981863
 40
0.9651255602981863
 40
0.9651255602981863
 40
0.9651255602981863
 40
1.0
 40
1.0
 40
1.0
 40
1.0
 10
287.3464113702511
 20
311.7172349697472
 30
0.0
 10
287.2207515562862
 20
311.4078196206156
 30
0.0
 10
287.0950917423214
 20
311.098404271484
 30
0.0
 10
286.9694319283565
 20
310.7889889223524
 30
0.0
  0
LINE
  5
108
330
FE
100
AcDbEntity
  8
$DDT_AUDIT_GENERATED_(105)
  6
Continuous
 62
     7
100
AcDbLine
 10
286.6528295087
 20
310.6642436814
 30
0.0
 11
286.4368596286
 21
310.6642436814
 31
0.0
  0
LINE
  5
109
330
FE
100
AcDbEntity
  8
$DDT_AUDIT_GENERATED_(105)
  6
Continuous
 62
     7
100
AcDbLine
 10
286.7841302251
 20
310.6642436814
 30
0.0
 11
286.6528295087
 21
310.6642436814
 31
0.0
  0
LINE
  5
10A
330
FE
100
AcDbEntity
  8
$DDT_AUDIT_GENERATED_(105)
  6
Continuous
 62
     7
100
AcDbLine
 10
286.4368596286
 20
310.6642436814
 30
0.0
 11
286.3772474242
 21
310.6642436814
 31
0.0
  0
ARC
  5
10B
330
FE
100
AcDbEntity
  8
$DDT_AUDIT_GENERATED_(105)
  6
Continuous
 62
     7
100
AcDbCircle
 10
286.7841302251
 20
310.8642436814
 30
0.0
 40
0.2000000000000032
100
AcDbArc
 50
270.0
 51
337.8969369267
  0
ARC
  5
10C
330
FE
100
AcDbEntity
  8
$DDT_AUDIT_GENERATED_(105)
  6
Continuous
 62
     7
100
AcDbCircle
 10
286.3772474242
 20
310.8642436814
 30
0.0
 40
0.1999999999999953
100
AcDbArc
 50
180.0
 51
270.0
  0
LINE
  5
10D
330
FE
100
AcDbEntity
  8
$DDT_AUDIT_GENERATED_(B3)
  6
Continuous
 62
     7
100
AcDbLine
 10
248.7772493316
 20
253.9679451368
 30
0.0
 11
248.7772493316
 21
423.9148107555
 31
0.0
  0
LINE
  5
10E
330
FE
100
AcDbEntity
  8
$DDT_AUDIT_GENERATED_(B3)
  6
Continuous
 62
     7
100
AcDbLine
 10
255.6123895444
 20
253.9148107555
 30
0.0
 11
255.6123895444
 21
423.9148107555
 31
0.0
  0
ARC
  5
10F
330
FE
100
AcDbEntity
  8
$DDT_AUDIT_GENERATED_(B3)
  6
Continuous
 62
     7
100
AcDbCircle
 10
248.7823171547
 20
168.9716719348
 30
0.0
 40
84.99592023200611
100
AcDbArc
 50
87.9806976368
 51
90.0034162213
  0
SPLINE
  5
110
330
FE
100
AcDbEntity
  8
$DDT_AUDIT_GENERATED_(B3)
  6
Continuous
 62
     7
100
AcDbSpline
210
0.0
220
0.0
230
1.0
 70
     8
 71
     3
 72
    12
 73
     8
 74
     0
 42
0.0000000003180477
 43
0.0000000001
 40
0.0
 40
0.0
 40
0.0
 40
0.0
 40
0.0624999999999999
 40
0.0624999999999999
 40
0.1249999999999998
 40
0.1249999999999998
 40
0.2109252881183509
 40
0.2109252881183509
 40
0.2109252881183509
 40
0.2109252881183509
 10
258.5407155953715
 20
338.9175606409556
 30
0.0
 10
258.5407155953715
 20
339.8216675709683
 30
0.0
 10
258.5446630040148
 20
340.7088268586003
 30
0.0
 10
258.5598941147807
 20
342.3658738418347
 30
0.0
 10
258.5711656265121
 20
343.1247417938662
 30
0.0
 10
258.6044010509225
 20
344.6231171054945
 30
0.0
 10
258.6291241878597
 20
345.2437446911409
 30
0.0
 10
258.6555470048193
 20
345.5472655729136
 30
0.0
  0
SPLINE
  5
111
330
FE
100
AcDbEntity
  8
$DDT_AUDIT_GENERATED_(B3)
  6
Continuous
 62
     7
100
AcDbSpline
210
0.0
220
0.0
230
1.0
 70
     8
 71
     3
 72
    20
 73
    16
 74
     0
 42
0.0000000003163216
 43
0.0000000001
 40
0.2894456518559738
 40
0.2894456518559738
 40
0.2894456518559738
 40
0.2894456518559738
 40
0.3124999999999996
 40
0.3124999999999996
 40
0.3749999999999997
 40
0.3749999999999997
 40
0.4374999999999998
 40
0.4374999999999998
 40
0.5
 40
0.5
 40
0.6250000000000002
 40
0.6250000000000002
 40
0.6875000000000003
 40
0.6875000000000003
 40
0.708323763915128
 40
0.708323763915128
 40
0.708323763915128
 40
0.708323763915128
 10
258.7294446220362
 20
345.5498436516128
 30
0.0
 10
258.7365470213935
 20
345.4691735790748
 30
0.0
 10
258.7435241295506
 20
345.3654015933178
 30
0.0
 10
258.7686508726405
 20
344.8968173901367
 30
0.0
 10
258.7853660650158
 20
344.3952778382044
 30
0.0
 10
258.8136881677244
 20
343.1190353671764
 30
0.0
 10
258.8248240756096
 20
342.3659752755982
 30
0.0
 10
258.8400628041514
 20
340.7076611399089
 30
0.0
 10
258.843997587761
 20
339.8122739766632
 30
0.0
 10
258.8440186400159
 20
337.1329933090501
 30
0.0
 10
258.8276237199992
 20
335.3462646138778
 30
0.0
 10
258.7857168155582
 20
333.4524922227479
 30
0.0
 10
258.7688824292803
 20
332.9431917104741
 30
0.0
 10
258.7444430048737
 20
332.4851965929042
 30
0.0
 10
258.7381834607287
 20
332.389008210856
 30
0.0
 10
258.7318117864384
 20
332.3115900487258
 30
0.0
  0
SPLINE
  5
112
330
FE
100
AcDbEntity
  8
$DDT_AUDIT_GENERATED_(B3)
  6
Continuous
 62
     7
100
AcDbSpline
210
0.0
220
0.0
230
1.0
 70
     8
 71
     3
 72
    10
 73
     6
 74
     0
 42
0.0000000003214122
 43
0.0000000001
 40
0.7856289759760594
 40
0.7856289759760594
 40
0.7856289759760594
 40
0.7856289759760594
 40
0.8750000000000002
 40
0.8750000000000002
 40
1.0
 40
1.0
 40
1.0
 40
1.0
 10
258.6587507530919
 20
332.2503621568187
 30
0.0
 10
258.6310640955858
 20
332.5384198852677
 30
0.0
 10
258.6052773124101
 20
333.1734289662122
 30
0.0
 10
258.5572052480859
 20
335.3379027987193
 30
0.0
 10
258.5407155953715
 20
337.1093467809302
 30
0.0
 10
258.5407155953715
 20
338.9175606409556
 30
0.0
  0
ARC
  5
113
330
FE
100
AcDbEntity
  8
$DDT_AUDIT_GENERATED_(B3)
  6
Continuous
 62
     7
100
AcDbCircle
 10
-1540.8527506684
 20
338.9148107555
 30
0.0
 40
1800.0
100
AcDbArc
 50
0.9480685358
 51
2.6580195912
  0
ARC
  5
114
330
FE
100
AcDbEntity
  8
$DDT_AUDIT_GENERATED_(B3)
  6
Continuous
 62
     7
100
AcDbCircle
 10
-1540.8527506684
 20
338.9148107555
 30
0.0
 40
1800.0
100
AcDbArc
 50
357.3419804088
 51
359.0519314642
  0
ARC
  5
115
330
FE
100
AcDbEntity
  8
$DDT_AUDIT_GENERATED_(B3)
  6
Continuous
 62
     7
100
AcDbCircle
 10
255.6123895444
 20
255.5148107555
 30
0.0
 40
1.599999999999977
100
AcDbArc
 50
270.0
 51
357.3419804089
  0
ARC
  5
116
330
FE
100
AcDbEntity
  8
$DDT_AUDIT_GENERATED_(B3)
  6
Continuous
 62
     7
100
AcDbCircle
 10
255.6123895444
 20
422.3148107555
 30
0.0
 40
1.60000000000013
100
AcDbArc
 50
2.6580195911
 51
90.0
  0
LINE
  5
117
330
FE
100
AcDbEntity
  8
$DDT_AUDIT_GENERATED_(B3)
  6
Continuous
 62
     7
100
AcDbLine
 10
255.6123895444
 20
423.9148107555
 30
0.0
 11
248.7772493316
 21
423.9148107555
 31
0.0
  0
LINE
  5
118
330
FE
100
AcDbEntity
  8
$DDT_AUDIT_GENERATED_(B3)
  6
Continuous
 62
     7
100
AcDbLine
 10
251.738561096
 20
253.9148107555
 30
0.0
 11
255.6123895444
 21
253.9148107555
 31
0.0
  0
ARC
  5
119
330
FE
100
AcDbEntity
  8
$DDT_AUDIT_GENERATED_(B3)
  6
Continuous
 62
     7
100
AcDbCircle
 10
257.2972107725
 20
332.1445990336
 30
0.0
 40
1.37641224308358
100
AcDbArc
 50
9.5061515225
 51
10.7635571459
  0
ARC
  5
11A
330
FE
100
AcDbEntity
  8
$DDT_AUDIT_GENERATED_(B3)
  6
Continuous
 62
     7
100
AcDbCircle
 10
257.3081222363
 20
345.6832419799
 30
0.0
 40
1.364650924858945
100
AcDbArc
 50
348.3556285141
 51
350.6508844349
  0
LINE
  5
11B
330
FE
100
AcDbEntity
  8
$DDT_AUDIT_GENERATED_(B3)
  6
Continuous
 62
     7
100
AcDbLine
 10
258.9011083178
 20
309.1648107555
 30
0.0
 11
258.9011083178
 21
368.6648107555
 31
0.0
  0
LINE
  5
11D
330
FE
100
AcDbEntity
  8
$DDT_AUDIT_GENERATED_(11C)
  6
Continuous
 62
     7
100
AcDbLine
 10
293.3752350393
 20
311.6729245048
 30
0.0
 11
301.0495577283
 21
311.8738837169
 31
0.0
  0
LINE
  5
11E
330
FE
100
AcDbEntity
  8
$DDT_AUDIT_GENERATED_(11C)
  6
Continuous
 62
     7
100
AcDbLine
 10
293.4446725629
 20
311.8252912443
 30
0.0
 11
293.3752350393
 21
311.6729245048
 31
0.0
  0
LINE
  5
11F
330
FE
100
AcDbEntity
  8
$DDT_AUDIT_GENERATED_(11C)
  6
Continuous
 62
     7
100
AcDbLine
 10
301.0495577283
 20
311.8738837169
 30
0.0
 11
301.0891427395
 21
311.9607450963
 31
0.0
  0
SPLINE
  5
120
330
FE
100
AcDbEntity
  8
$DDT_AUDIT_GENERATED_(BC)
  6
Continuous
 62
     7
100
AcDbSpline
210
0.0
220
0.0
230
1.0
 70
     8
 71
     3
 72
    10
 73
     6
 74
     0
 42
0.0000000001967746
 43
0.0000000001
 40
0.0
 40
0.0
 40
0.0
 40
0.0
 40
0.2872246294816197
 40
0.7136953895106544
 40
1.0
 40
1.0
 40
1.0
 40
1.0
 10
314.4845754720691
 20
364.0549019683977
 30
0.0
 10
315.8223497889038
 20
359.3595723326694
 30
0.0
 10
318.752707285044
 20
347.6227057133611
 30
0.0
 10
321.5098482521252
 20
330.9571165260296
 30
0.0
 10
322.5155909132466
 20
318.9174257077356
 30
0.0
 10
322.7615081739303
 20
314.0571465746083
 30
0.0
  0
SPLINE
  5
121
330
FE
100
AcDbEntity
  8
$DDT_AUDIT_GENERATED_(BC)
  6
Continuous
 62
     7
100
AcDbSpline
210
0.0
220
0.0
230
1.0
 70
     8
 71
     3
 72
     8
 73
     4
 74
     0
 42
0.0000001621108032
 43
0.0000000001
 40
0.0
 40
0.0
 40
0.0
 40
0.0
 40
0.1246957678667302
 40
0.1246957678667302
 40
0.1246957678667302
 40
0.1246957678667302
 10
322.7615081739303
 20
314.0571465746083
 30
0.0
 10
322.7615168934406
 20
314.0569757973515
 30
0.0
 10
322.761103425179
 20
314.0593924604677
 30
0.0
 10
322.7602683385497
 20
314.0643924333332
 30
0.0
  0
ARC
  5
122
330
FE
100
AcDbEntity
  8
$DDT_AUDIT_GENERATED_(BC)
  6
Continuous
 62
     7
100
AcDbCircle
 10
-101.4436889376
 20
294.8616035008
 30
0.0
 40
421.6444345634205
100
AcDbArc
 50
9.4441658099
 51
9.4451581095
  0
SPLINE
  5
123
330
FE
100
AcDbEntity
  8
$DDT_AUDIT_GENERATED_(BC)
  6
Continuous
 62
     7
100
AcDbSpline
210
0.0
220
0.0
230
1.0
 70
     8
 71
     3
 72
    10
 73
     6
 74
     0
 42
0.000000031526653
 43
0.0000000001
 40
0.1268046532373287
 40
0.1268046532373287
 40
0.1268046532373287
 40
0.1268046532373287
 40
0.5
 40
0.5
 40
0.5046766663515193
 40
0.5046766663515193
 40
0.5046766663515193
 40
0.5046766663515193
 10
322.6256540254789
 20
313.6973185853869
 30
0.0
 10
322.6232127395982
 20
313.7125120074098
 30
0.0
 10
322.6169480149142
 20
313.7508513508034
 30
0.0
 10
322.6065789501853
 20
313.8140316866103
 30
0.0
 10
322.6064499949173
 20
313.8148174049746
 30
0.0
 10
322.6063204164925
 20
313.8156068940533
 30
0.0
  0
ARC
  5
124
330
FE
100
AcDbEntity
  8
$DDT_AUDIT_GENERATED_(BC)
  6
Continuous
 62
     7
100
AcDbCircle
 10
322.2621466157
 20
314.031880207
 30
0.0
 40
0.5000003551382421
100
AcDbArc
 50
316.832328973
 51
2.8965440442
  0
ARC
  5
125
330
FE
100
AcDbEntity
  8
$DDT_AUDIT_GENERATED_(BC)
  6
Continuous
 62
     7
100
AcDbCircle
 10
313.9947224596
 20
363.9117822757
 30
0.0
 40
0.5103324604744611
100
AcDbArc
 50
16.2867076828
 51
52.1587863532
  0
SPLINE
  5
126
330
FE
100
AcDbEntity
  8
$DDT_AUDIT_GENERATED_(BC)
  6
Continuous
 62
     7
100
AcDbSpline
210
0.0
220
0.0
230
1.0
 70
     8
 71
     3
 72
     8
 73
     4
 74
     0
 42
0.0000000344287748
 43
0.0000000001
 40
0.5561511350483518
 40
0.5561511350483518
 40
0.5561511350483518
 40
0.5561511350483518
 40
0.8727544353380936
 40
0.8727544353380936
 40
0.8727544353380936
 40
0.8727544353380936
 10
314.3237970922017
 20
364.2164664056961
 30
0.0
 10
314.316077128326
 20
364.2634668674923
 30
0.0
 10
314.3110910952671
 20
364.2939662265119
 30
0.0
 10
314.3089661638163
 20
364.3072214199127
 30
0.0
  0
SPLINE
  5
127
330
FE
100
AcDbEntity
  8
$DDT_AUDIT_GENERATED_(BC)
  6
Continuous
 62
     7
100
AcDbSpline
210
0.0
220
0.0
230
1.0
 70
     8
 71
     3
 72
     8
 73
     4
 74
     0
 42
0.0000000046178553
 43
0.0000000001
 40
0.0
 40
0.0
 40
0.0
 40
0.0
 40
1.0
 40
1.0
 40
1.0
 40
1.0
 10
312.5888834160936
 20
365.631898899814
 30
0.0
 10
313.1618346329636
 20
365.1928058514999
 30
0.0
 10
313.73481902469
 20
364.7537884468729
 30
0.0
 10
314.3077988008049
 20
364.3147989314723
 30
0.0
  0
ARC
  5
128
330
FE
100
AcDbEntity
  8
$DDT_AUDIT_GENERATED_(BC)
  6
Continuous
 62
     7
100
AcDbCircle
 10
332.4774397949
 20
368.6029962981
 30
0.0
 40
20.1092539539509
100
AcDbArc
 50
188.7950835657
 51
189.9995238197
  0
ARC
  5
129
330
FE
100
AcDbEntity
  8
$DDT_AUDIT_GENERATED_(BC)
  6
Continuous
 62
     7
100
AcDbCircle
 10
332.4774397949
 20
368.6029962981
 30
0.0
 40
20.1092539539509
100
AcDbArc
 50
188.4964289298
 51
188.7950835657
  0
ARC
  5
12A
330
FE
100
AcDbEntity
  8
$DDT_AUDIT_GENERATED_(BC)
  6
Continuous
 62
     7
100
AcDbCircle
 10
-1202.4394251059
 20
115.570235379
 30
0.0
 40
1535.525438153989
100
AcDbArc
 50
9.2946015159
 51
9.3527197756
  0
SPLINE
  5
12B
330
FE
100
AcDbEntity
  8
$DDT_AUDIT_GENERATED_(BC)
  6
Continuous
 62
     7
100
AcDbSpline
210
0.0
220
0.0
230
1.0
 70
     8
 71
     3
 72
    10
 73
     6
 74
     0
 42
0.0000000016952976
 43
0.0000000001
 40
0.0
 40
0.0
 40
0.0
 40
0.0
 40
0.5
 40
0.5
 40
1.0
 40
1.0
 40
1.0
 40
1.0
 10
313.8829495449855
 20
357.7537062998373
 30
0.0
 10
313.6790809999633
 20
358.9917730264593
 30
0.0
 10
313.4948293696056
 20
360.1105244453208
 30
0.0
 10
313.1737166151034
 20
362.0642095456312
 30
0.0
 10
313.0367799649597
 20
362.8987908887347
 30
0.0
 10
312.9260052154403
 20
363.5742349539273
 30
0.0
  0
SPLINE
  5
12C
330
FE
100
AcDbEntity
  8
$DDT_AUDIT_GENERATED_(BC)
  6
Continuous
 62
     7
100
AcDbSpline
210
0.0
220
0.0
230
1.0
 70
     8
 71
     3
 72
     8
 73
     4
 74
     0
 42
0.0000000024527661
 43
0.0000000001
 40
0.0
 40
0.0
 40
0.0
 40
0.0
 40
1.0
 40
1.0
 40
1.0
 40
1.0
 10
314.5460926439393
 20
353.7309696775118
 30
0.0
 10
314.3079672201778
 20
355.1722181676157
 30
0.0
 10
314.0858020102979
 20
356.5220692256982
 30
0.0
 10
313.8829495449855
 20
357.7537062998373
 30
0.0
  0
SPLINE
  5
12D
330
FE
100
AcDbEntity
  8
$DDT_AUDIT_GENERATED_(BC)
  6
Continuous
 62
     7
100
AcDbSpline
210
0.0
220
0.0
230
1.0
 70
     8
 71
     3
 72
     8
 73
     4
 74
     0
 42
0.0000000021449471
 43
0.0000000001
 40
0.0
 40
0.0
 40
0.0
 40
0.0
 40
1.0
 40
1.0
 40
1.0
 40
1.0
 10
315.3064910831063
 20
349.1312791791859
 30
0.0
 10
315.0409104870723
 20
350.737810398728
 30
0.0
 10
314.7855904503546
 20
352.2809326831468
 30
0.0
 10
314.5460926439393
 20
353.7309696775118
 30
0.0
  0
SPLINE
  5
12E
330
FE
100
AcDbEntity
  8
$DDT_AUDIT_GENERATED_(BC)
  6
Continuous
 62
     7
100
AcDbSpline
210
0.0
220
0.0
230
1.0
 70
     8
 71
     3
 72
     8
 73
     4
 74
     0
 42
0.0000000019795397
 43
0.0000000001
 40
0.0
 40
0.0
 40
0.0
 40
0.0
 40
1.0
 40
1.0
 40
1.0
 40
1.0
 10
316.1300380808613
 20
344.1471808801521
 30
0.0
 10
315.8485961755266
 20
345.8513831755766
 30
0.0
 10
315.5723533095087
 20
347.5228450911682
 30
0.0
 10
315.3064910831063
 20
349.1312791791859
 30
0.0
  0
SPLINE
  5
12F
330
FE
100
AcDbEntity
  8
$DDT_AUDIT_GENERATED_(BC)
  6
Continuous
 62
     7
100
AcDbSpline
210
0.0
220
0.0
230
1.0
 70
     8
 71
     3
 72
     8
 73
     4
 74
     0
 42
0.0000000019149803
 43
0.0000000001
 40
0.0
 40
0.0
 40
0.0
 40
0.0
 40
1.0
 40
1.0
 40
1.0
 40
1.0
 10
316.9823899280818
 20
338.9952266806292
 30
0.0
 10
316.6962133766359
 20
340.7230552226254
 30
0.0
 10
316.4102960942852
 20
342.4506206135954
 30
0.0
 10
316.1300380808613
 20
344.1471808801521
 30
0.0
  0
SPLINE
  5
130
330
FE
100
AcDbEntity
  8
$DDT_AUDIT_GENERATED_(BC)
  6
Continuous
 62
     7
100
AcDbSpline
210
0.0
220
0.0
230
1.0
 70
     8
 71
     3
 72
    11
 73
     7
 74
     0
 42
0.0000000019100111
 43
0.0000000001
 40
0.0
 40
0.0
 40
0.0
 40
0.0
 40
0.0490923131976719
 40
0.0490923131976719
 40
0.0490923131976719
 40
1.0
 40
1.0
 40
1.0
 40
1.0
 10
317.839596247998
 20
333.830305941698
 30
0.0
 10
317.8257357621692
 20
333.9137670276497
 30
0.0
 10
317.8118674145223
 20
333.9973054569893
 30
0.0
 10
317.7979900605374
 20
334.0809170890443
 30
0.0
 10
317.5291886593158
 20
335.700456655393
 30
0.0
 10
317.2552218383681
 20
337.3478391589481
 30
0.0
 10
316.9823899280818
 20
338.9952266806292
 30
0.0
  0
SPLINE
  5
131
330
FE
100
AcDbEntity
  8
$DDT_AUDIT_GENERATED_(BC)
  6
Continuous
 62
     7
100
AcDbSpline
210
0.0
220
0.0
230
1.0
 70
     8
 71
     3
 72
    14
 73
    10
 74
     0
 42
0.0000000010322279
 43
0.0000000001
 40
0.0
 40
0.0
 40
0.0
 40
0.0
 40
0.0186025306869537
 40
0.0186025306869537
 40
0.0186025306869537
 40
0.5215897848176436
 40
0.5215897848176436
 40
0.5215897848176436
 40
1.0
 40
1.0
 40
1.0
 40
1.0
 10
319.4296150180441
 20
324.2738952225596
 30
0.0
 10
319.4206507234289
 20
324.3277299186222
 30
0.0
 10
319.4116639880128
 20
324.3816916963812
 30
0.0
 10
319.4026603845792
 20
324.4357804204107
 30
0.0
 10
319.1592151327166
 20
325.8982663174564
 30
0.0
 10
318.9001218946705
 20
327.4536053269205
 30
0.0
 10
318.6311801400267
 20
329.0714177532391
 30
0.0
 10
318.3753794578941
 20
330.6101803851819
 30
0.0
 10
318.1093594546351
 20
332.205666015
 30
0.0
 10
317.839596247998
 20
333.830305941698
 30
0.0
  0
SPLINE
  5
132
330
FE
100
AcDbEntity
  8
$DDT_AUDIT_GENERATED_(BC)
  6
Continuous
 62
     7
100
AcDbSpline
210
0.0
220
0.0
230
1.0
 70
     8
 71
     3
 72
     8
 73
     4
 74
     0
 42
0.000000002452982
 43
0.0000000001
 40
0.0
 40
0.0
 40
0.0
 40
0.0
 40
1.0
 40
1.0
 40
1.0
 40
1.0
 10
320.1009453762518
 20
320.2528807043716
 30
0.0
 10
319.8946961052515
 20
321.483591631511
 30
0.0
 10
319.6697026060746
 20
322.8329109915222
 30
0.0
 10
319.4296150180441
 20
324.2738952225596
 30
0.0
  0
ARC
  5
133
330
FE
100
AcDbEntity
  8
$DDT_AUDIT_GENERATED_(BC)
  6
Continuous
 62
     7
100
AcDbCircle
 10
2527.9895401241
 20
687.4928246033
 30
0.0
 40
2238.221888735034
100
AcDbArc
 50
189.4435992551
 51
189.530262472
  0
ARC
  5
134
330
FE
100
AcDbEntity
  8
$DDT_AUDIT_GENERATED_(BC)
  6
Continuous
 62
     7
100
AcDbCircle
 10
2546.9265516142
 20
688.1472705457
 30
0.0
 40
2257.007266191885
100
AcDbArc
 50
189.4670530175
 51
189.5306455677
  0
ARC
  5
135
330
FE
100
AcDbEntity
  8
$DDT_AUDIT_GENERATED_(BC)
  6
Continuous
 62
     7
100
AcDbCircle
 10
710.6478300845
 20
378.8417588542
 30
0.0
 40
394.8623219823089
100
AcDbArc
 50
189.3863885658
 51
189.6110544304
  0
ARC
  5
136
330
FE
100
AcDbEntity
  8
$DDT_AUDIT_GENERATED_(BC)
  6
Continuous
 62
     7
100
AcDbCircle
 10
425.8853081899
 20
329.9619351819
 30
0.0
 40
105.9378407515741
100
AcDbArc
 50
189.4723096644
 51
189.5414797263
  0
ARC
  5
137
330
FE
100
AcDbEntity
  8
$DDT_AUDIT_GENERATED_(BC)
  6
Continuous
 62
     7
100
AcDbCircle
 10
425.8853081899
 20
329.9619351819
 30
0.0
 40
105.9378407515741
100
AcDbArc
 50
189.2594612051
 51
189.4723096644
  0
LINE
  5
138
330
FE
100
AcDbEntity
  8
$DDT_AUDIT_GENERATED_(BC)
  6
Continuous
 62
     7
100
AcDbLine
 10
322.6268242573
 20
313.6898121247
 30
0.0
 11
321.4138427088
 21
312.3966568367
 31
0.0
  0
ARC
  5
139
330
FE
100
AcDbEntity
  8
$DDT_AUDIT_GENERATED_(BC)
  6
Continuous
 62
     7
100
AcDbCircle
 10
332.4774340515
 20
368.6029953662
 30
0.0
 40
20.10924813583718
100
AcDbArc
 50
188.4964287215
 51
188.7950834386
  0
SPLINE
  5
13A
330
FE
100
AcDbEntity
  8
$DDT_AUDIT_GENERATED_(BC)
  6
Continuous
 62
     7
100
AcDbSpline
210
0.0
220
0.0
230
1.0
 70
     8
 71
     3
 72
     8
 73
     4
 74
     0
 42
0.0000003203398957
 43
0.0000000001
 40
0.0
 40
0.0
 40
0.0
 40
0.0
 40
1.0
 40
1.0
 40
1.0
 40
1.0
 10
321.4138427087792
 20
312.3966568367471
 30
0.0
 10
321.4068003988811
 20
312.389149056835
 30
0.0
 10
321.3991470166725
 20
312.3820657033833
 30
0.0
 10
321.3909946610099
 20
312.3754565079028
 30
0.0
  0
ARC
  5
13B
330
FE
100
AcDbEntity
  8
$DDT_AUDIT_GENERATED_(BC)
  6
Continuous
 62
     7
100
AcDbCircle
 10
312.4352689237
 20
365.4290861805
 30
0.0
 40
0.2544217196212663
100
AcDbArc
 50
52.8589689896
 51
88.6591574593
  0
SPLINE
  5
13C
330
FE
100
AcDbEntity
  8
$DDT_AUDIT_GENERATED_(BC)
  6
Continuous
 62
     7
100
AcDbSpline
210
0.0
220
0.0
230
1.0
 70
     8
 71
     3
 72
    18
 73
    14
 74
     0
 42
0.0000000188921233
 43
0.0000000001
 40
0.0
 40
0.0
 40
0.0
 40
0.0
 40
0.0930234611623706
 40
0.1857136653465671
 40
0.2780385149440505
 40
0.3699669914189094
 40
0.461469183003706
 40
0.5525163086367293
 40
0.6430807381712372
 40
0.7331360089080587
 40
0.822656838522308
 40
0.9116191344729104
 40
1.0
 40
1.0
 40
1.0
 40
1.0
 10
312.525868684284
 20
365.1609509152922
 30
0.0
 10
312.5207670477701
 20
365.1923839620229
 30
0.0
 10
312.5105818203627
 20
365.2551246793271
 30
0.0
 10
312.497116598717
 20
365.3378221177899
 30
0.0
 10
312.4850126894279
 20
365.4119988391677
 30
0.0
 10
312.4743971417433
 20
365.4769098531052
 30
0.0
 10
312.4652363220366
 20
365.5328403190992
 30
0.0
 10
312.4575385306839
 20
365.5798251090155
 30
0.0
 10
312.4513040733173
 20
365.6179664712803
 30
0.0
 10
312.4465236640265
 20
365.6474312450526
 30
0.0
 10
312.4432339243857
 20
365.6681445184082
 30
0.0
 10
312.4412989356767
 20
365.6810020810489
 30
0.0
 10
312.4412470065328
 20
365.6825808210448
 30
0.0
 10
312.441222387103
 20
365.6834382350702
 30
0.0
  0
ARC
  5
13D
330
FE
100
AcDbEntity
  8
$DDT_AUDIT_GENERATED_(BC)
  6
Continuous
 62
     7
100
AcDbCircle
 10
-306.3371102766
 20
263.3967461058
 30
0.0
 40
627.1740907506336
100
AcDbArc
 50
9.1952729816
 51
9.3380006873
  0
ARC
  5
13E
330
FE
100
AcDbEntity
  8
$DDT_AUDIT_GENERATED_(BC)
  6
Continuous
 62
     7
100
AcDbCircle
 10
10996.9886282078
 20
2106.6964449431
 30
0.0
 40
10825.46476872695
100
AcDbArc
 50
189.2658970141
 51
189.3435960534
  0
ARC
  5
13F
330
FE
100
AcDbEntity
  8
$DDT_AUDIT_GENERATED_(BC)
  6
Continuous
 62
     7
100
AcDbCircle
 10
2712.5951726282
 20
740.3445570723
 30
0.0
 40
2429.15329410596
100
AcDbArc
 50
189.2677924257
 51
189.3872534405
  0
ARC
  5
140
330
FE
100
AcDbEntity
  8
$DDT_AUDIT_GENERATED_(BC)
  6
Continuous
 62
     7
100
AcDbCircle
 10
-321.9297187338
 20
236.5659777651
 30
0.0
 40
646.9075705891871
100
AcDbArc
 50
9.1079629918
 51
9.5716142512
  0
ARC
  5
141
330
FE
100
AcDbEntity
  8
$DDT_AUDIT_GENERATED_(BC)
  6
Continuous
 62
     7
100
AcDbCircle
 10
4253.9041670962
 20
985.881117986
 30
0.0
 40
3989.876666149276
100
AcDbArc
 50
189.3310456626
 51
189.4064012257
  0
SPLINE
  5
142
330
FE
100
AcDbEntity
  8
$DDT_AUDIT_GENERATED_(BC)
  6
Continuous
 62
     7
100
AcDbSpline
210
0.0
220
0.0
230
1.0
 70
     8
 71
     3
 72
    23
 73
    19
 74
     0
 42
0.000000001030198
 43
0.0000000001
 40
0.0
 40
0.0
 40
0.0
 40
0.0
 40
0.0468488929237591
 40
0.0943984986054238
 40
0.1426497623181745
 40
0.1916031011693295
 40
0.2412583770217498
 40
0.2916148693384741
 40
0.3426712480759554
 40
0.394425546762033
 40
0.4468751359048838
 40
0.5000166968897004
 40
0.5751357167114945
 40
0.653530074911156
 40
0.7352123536497374
 40
0.8201880350303696
 40
0.9084544998404599
 40
1.0
 40
1.0
 40
1.0
 40
1.0
 10
319.2598224759652
 20
324.2141565099324
 30
0.0
 10
319.2372509635052
 20
324.3504641968837
 30
0.0
 10
319.1917773094235
 20
324.6251189989588
 30
0.0
 10
319.1220225469584
 20
325.0463408474768
 30
0.0
 10
319.0505027759044
 20
325.4782598531137
 30
0.0
 10
318.9771399797244
 20
325.9213932351462
 30
0.0
 10
318.9019555354549
 20
326.3756574132877
 30
0.0
 10
318.8249436757926
 20
326.8411099542335
 30
0.0
 10
318.746105783231
 20
327.3177449007078
 30
0.0
 10
318.6654423564734
 20
327.8055470497503
 30
0.0
 10
318.5829500508191
 20
328.304476296195
 30
0.0
 10
318.4873833874656
 20
328.8825733690614
 30
0.0
 10
318.3769068556117
 20
329.5503914547788
 30
0.0
 10
318.2497195785181
 20
330.3189223440007
 30
0.0
 10
318.1158532494025
 20
331.1281063716459
 30
0.0
 10
317.9752788811338
 20
331.9783184408666
 30
0.0
 10
317.8280957878538
 20
332.8689927733636
 30
0.0
 10
317.7271446387718
 20
333.479886168391
 30
0.0
 10
317.675748587902
 20
333.7909030536518
 30
0.0
  0
ARC
  5
143
330
FE
100
AcDbEntity
  8
$DDT_AUDIT_GENERATED_(BC)
  6
Continuous
 62
     7
100
AcDbCircle
 10
2896.1022030786
 20
749.8593395897
 30
0.0
 40
2611.760034219979
100
AcDbArc
 50
189.3794757615
 51
189.4690602318
  0
ARC
  5
144
330
FE
100
AcDbEntity
  8
$DDT_AUDIT_GENERATED_(BC)
  6
Continuous
 62
     7
100
AcDbCircle
 10
-2098.2137424763
 20
-83.3303782228
 30
0.0
 40
2451.578480177378
100
AcDbArc
 50
9.394437668
 51
9.4736722406
  0
ARC
  5
145
330
FE
100
AcDbEntity
  8
$DDT_AUDIT_GENERATED_(BC)
  6
Continuous
 62
     7
100
AcDbCircle
 10
1579.94396485
 20
525.1322625375
 30
0.0
 40
1276.56729471511
100
AcDbArc
 50
189.3906490332
 51
189.5032328089
  0
ARC
  5
146
330
FE
100
AcDbEntity
  8
$DDT_AUDIT_GENERATED_(BC)
  6
Continuous
 62
     7
100
AcDbCircle
 10
-1041.0780503918
 20
86.9791651869
 30
0.0
 40
1380.825200399824
100
AcDbArc
 50
9.4140450684
 51
9.4783673661
  0
ARC
  5
147
330
FE
100
AcDbEntity
  8
$DDT_AUDIT_GENERATED_(BC)
  6
Continuous
 62
     7
100
AcDbCircle
 10
297.462564049
 20
308.670862695
 30
0.0
 40
24.05145983675297
100
AcDbArc
 50
8.7212653636
 51
9.9766538225
  0
ARC
  5
148
330
FE
100
AcDbEntity
  8
$DDT_AUDIT_GENERATED_(BC)
  6
Continuous
 62
     7
100
AcDbCircle
 10
309.5021713785
 20
285.8142373793
 30
0.0
 40
27.0832370639882
100
AcDbArc
 50
77.2183486148
 51
104.9035870341
  0
ARC
  5
149
330
FE
100
AcDbEntity
  8
$DDT_AUDIT_GENERATED_(BC)
  6
Continuous
 62
     7
100
AcDbCircle
 10
309.5021713785
 20
285.8142373793
 30
0.0
 40
27.0832370639882
100
AcDbArc
 50
77.1266554884
 51
77.2183486148
  0
ARC
  5
14A
330
FE
100
AcDbEntity
  8
$DDT_AUDIT_GENERATED_(BC)
  6
Continuous
 62
     7
100
AcDbCircle
 10
302.4565668328
 20
310.904986955
 30
0.0
 40
1.084360257494158
100
AcDbArc
 50
5.2449112081
 51
85.770275968
  0
ARC
  5
14B
330
FE
100
AcDbEntity
  8
$DDT_AUDIT_GENERATED_(BC)
  6
Continuous
 62
     7
100
AcDbCircle
 10
309.5039650117
 20
284.7127124705
 30
0.0
 40
26.96014957736132
100
AcDbArc
 50
79.2419899277
 51
79.3076211022
  0
ARC
  5
14C
330
FE
100
AcDbEntity
  8
$DDT_AUDIT_GENERATED_(BC)
  6
Continuous
 62
     7
100
AcDbCircle
 10
315.6522026553
 20
311.1027972484
 30
0.0
 40
1.119959948559839
100
AcDbArc
 50
95.9439452193
 51
175.0713439587
  0
ARC
  5
14D
330
FE
100
AcDbEntity
  8
$DDT_AUDIT_GENERATED_(BC)
  6
Continuous
 62
     7
100
AcDbCircle
 10
309.5038769789
 20
284.7176807905
 30
0.0
 40
26.95528503037659
100
AcDbArc
 50
79.2398348404
 51
79.3220136427
  0
LINE
  5
14E
330
FE
100
AcDbEntity
  8
$DDT_AUDIT_GENERATED_(BC)
  6
Continuous
 62
     7
100
AcDbLine
 10
314.5363834059
 20
247.9989218972
 30
0.0
 11
314.5363834059
 21
311.1990188615
 31
0.0
  0
ARC
  5
14F
330
FE
100
AcDbEntity
  8
$DDT_AUDIT_GENERATED_(BC)
  6
Continuous
 62
     7
100
AcDbCircle
 10
131.5816045386
 20
-753.8691087002
 30
0.0
 40
1018.436055897076
100
AcDbArc
 50
80.2730501918
 51
80.2795026443
  0
ARC
  5
150
330
FE
100
AcDbEntity
  8
$DDT_AUDIT_GENERATED_(BC)
  6
Continuous
 62
     7
100
AcDbCircle
 10
131.5816045386
 20
-753.8691087002
 30
0.0
 40
1018.436055897076
100
AcDbArc
 50
79.6510414411
 51
79.6567864124
  0
LINE
  5
151
330
FE
100
AcDbEntity
  8
$DDT_AUDIT_GENERATED_(BC)
  6
Continuous
 62
     7
100
AcDbLine
 10
303.5363834235
 20
311.0041117687
 30
0.0
 11
303.5363834235
 21
249.9453926849
 31
0.0
  0
ARC
  5
152
330
FE
100
AcDbEntity
  8
$DDT_AUDIT_GENERATED_(BC)
  6
Continuous
 62
     7
100
AcDbCircle
 10
304.8386172784
 20
250.0374502043
 30
0.0
 40
1.30548140600764
100
AcDbArc
 50
184.043633553
 51
255.9231200521
  0
LINE
  5
153
330
FE
100
AcDbEntity
  8
$DDT_AUDIT_GENERATED_(BC)
  6
Continuous
 62
     7
100
AcDbLine
 10
313.4657813718
 20
247.1883946221
 30
0.0
 11
304.6075730701
 21
248.7558693614
 31
0.0
  0
SPLINE
  5
154
330
FE
100
AcDbEntity
  8
$DDT_AUDIT_GENERATED_(BC)
  6
Continuous
 62
     7
100
AcDbSpline
210
0.0
220
0.0
230
1.0
 70
     8
 71
     3
 72
    11
 73
     7
 74
     0
 42
0.0000000068666318
 43
0.0000000001
 40
0.0
 40
0.0
 40
0.0
 40
0.0
 40
0.5
 40
0.75
 40
0.75
 40
1.0
 40
1.0
 40
1.0
 40
1.0
 10
314.5363782343593
 20
247.9989218971787
 30
0.0
 10
314.5363725930513
 20
247.7847358288859
 30
0.0
 10
314.3252886733586
 20
247.4470856366213
 30
0.0
 10
313.9955689524889
 20
247.2509094117835
 30
0.0
 10
313.7713910738754
 20
247.1700117660156
 30
0.0
 10
313.6575336198843
 20
247.1560907202179
 30
0.0
 10
313.551675629448
 20
247.1731954899142
 30
0.0
  0
LINE
  5
155
330
FE
100
AcDbEntity
  8
$DDT_AUDIT_GENERATED_(BC)
  6
Continuous
 62
     7
100
AcDbLine
 10
313.4650051357
 20
247.1885319784
 30
0.0
 11
313.5516756294
 21
247.1731954899
 31
0.0
  0
ARC
  5
156
330
FE
100
AcDbEntity
  8
$DDT_AUDIT_GENERATED_(BC)
  6
Continuous
 62
     7
100
AcDbCircle
 10
314.0042487782
 20
363.9097730471
 30
0.0
 40
0.5008361294225836
100
AcDbArc
 50
15.9864644546
 51
52.5358767223
  0
ARC
  5
157
330
FE
100
AcDbEntity
  8
$DDT_AUDIT_GENERATED_(BC)
  6
Continuous
 62
     7
100
AcDbCircle
 10
322.2608427521
 20
314.0394863934
 30
0.0
 40
0.5000439846191607
100
AcDbArc
 50
316.8308685485
 51
2.8571487439
  0
LINE
  5
158
330
FE
100
AcDbEntity
  8
$DDT_AUDIT_GENERATED_(BC)
  6
Continuous
 62
     7
100
AcDbLine
 10
314.3344491242
 20
364.2083643103
 30
0.0
 11
312.5940141604
 21
365.5362310942
 31
0.0
  0
LINE
  5
159
330
FE
100
AcDbEntity
  8
$DDT_AUDIT_GENERATED_(BC)
  6
Continuous
 62
     7
100
AcDbLine
 10
321.360620207
 20
312.4944666961
 30
0.0
 11
322.6067987536
 21
313.8161188343
 31
0.0
  0
LINE
  5
15A
330
FE
100
AcDbEntity
  8
$DDT_AUDIT_GENERATED_(BC)
  6
Continuous
 62
     7
100
AcDbLine
 10
321.3606933131
 20
312.4945442297
 30
0.0
 11
322.6067987536
 21
313.8161188343
 31
0.0
  0
LINE
  5
15B
330
FE
100
AcDbEntity
  8
$DDT_AUDIT_GENERATED_(BC)
  6
Continuous
 62
     7
100
AcDbLine
 10
314.3238317502
 20
364.2164648475
 30
0.0
 11
312.5941119928
 21
365.5361564535
 31
0.0
  0
ARC
  5
15C
330
FE
100
AcDbEntity
  8
$DDT_AUDIT_GENERATED_(BC)
  6
Continuous
 62
     7
100
AcDbCircle
 10
321.2310939517
 20
312.5503669998
 30
0.0
 40
0.2327675730946401
100
AcDbArc
 50
283.3522253656
 51
321.6815315346
  0
ARC
  5
15D
330
FE
100
AcDbEntity
  8
$DDT_AUDIT_GENERATED_(BC)
  6
Continuous
 62
     7
100
AcDbCircle
 10
315.6334061987
 20
311.1009577552
 30
0.0
 40
1.130203029052684
100
AcDbArc
 50
96.5361198233
 51
174.7594937571
  0
ARC
  5
15E
330
FE
100
AcDbEntity
  8
$DDT_AUDIT_GENERATED_(BC)
  6
Continuous
 62
     7
100
AcDbCircle
 10
304.9251863556
 20
249.9923321453
 30
0.0
 40
1.27588518718805
100
AcDbArc
 50
182.9919660404
 51
256.0550847661
  0
SPLINE
  5
15F
330
FE
100
AcDbEntity
  8
$DDT_AUDIT_GENERATED_(BC)
  6
Continuous
 62
     7
100
AcDbSpline
210
0.0
220
0.0
230
1.0
 70
     8
 71
     3
 72
    13
 73
     9
 74
     0
 42
0.00000000699591
 43
0.0000000001
 40
0.0
 40
0.0
 40
0.0
 40
0.0
 40
0.1156902877159021
 40
0.2379682270339158
 40
0.4994520959030946
 40
0.7613085854864939
 40
0.8841445027050456
 40
1.0
 40
1.0
 40
1.0
 40
1.0
 10
313.4564138546972
 20
247.1900228132783
 30
0.0
 10
313.515296719835
 20
247.1846106108777
 30
0.0
 10
313.6188430587665
 20
247.1766380722374
 30
0.0
 10
313.8511393435024
 20
247.2363368746164
 30
0.0
 10
314.1124853027633
 20
247.3974481784643
 30
0.0
 10
314.315420315041
 20
247.6299660858174
 30
0.0
 10
314.4180794291438
 20
247.8515120986924
 30
0.0
 10
314.4297264826295
 20
247.9572238913499
 30
0.0
 10
314.4355121983693
 20
248.0173604818089
 30
0.0
  0
ARC
  5
160
330
FE
100
AcDbEntity
  8
$DDT_AUDIT_GENERATED_(BC)
  6
Continuous
 62
     7
100
AcDbCircle
 10
304.925186356
 20
249.9923321457
 30
0.0
 40
1.275885187551614
100
AcDbArc
 50
238.5639475632
 51
256.055084766
  0
LINE
  5
161
330
FE
100
AcDbEntity
  8
$DDT_AUDIT_GENERATED_(BC)
  6
Continuous
 62
     7
100
AcDbLine
 10
315.5362247232
 20
312.2167357481
 30
0.0
 11
321.2359341675
 21
312.3177300069
 31
0.0
  0
LINE
  5
162
330
FE
100
AcDbEntity
  8
$DDT_AUDIT_GENERATED_(BC)
  6
Continuous
 62
     7
100
AcDbLine
 10
301.0891427395
 20
311.9607450963
 30
0.0
 11
302.536544473
 21
311.9863918887
 31
0.0
  0
LINE
  5
163
330
FE
100
AcDbEntity
  8
$DDT_AUDIT_GENERATED_(BC)
  6
Continuous
 62
     7
100
AcDbLine
 10
285.5665169669
 20
311.6856966751
 30
0.0
 11
286.1772474242
 21
311.6965183267
 31
0.0
  0
LINE
  5
164
330
FE
100
AcDbEntity
  8
$DDT_AUDIT_GENERATED_(BC)
  6
Continuous
 62
     7
100
AcDbLine
 10
287.3464113703
 20
311.7172349697
 30
0.0
 11
293.4446725629
 21
311.8252912443
 31
0.0
  0
LINE
  5
165
330
FE
100
AcDbEntity
  8
$DDT_AUDIT_GENERATED_(BC)
  6
Continuous
 62
     7
100
AcDbLine
 10
312.4412212006
 20
365.6833676017
 30
0.0
 11
285.5585477374
 21
366.1597069145
 31
0.0
  0
ENDBLK
  5
167
330
FE
100
AcDbEntity
  8
0
100
AcDbBlockEnd
  0
BLOCK
  5
1B1
330
168
100
AcDbEntity
  8
0
100
AcDbBlockBegin
  2
SE2
 70
     0
 10
0.0
 20
0.0
 30
0.0
  3
SE2
  1

  0
LINE
  5
16A
330
168
100
AcDbEntity
  8
$DDT_AUDIT_GENERATED_(77)
  6
Continuous
 62
     7
100
AcDbLine
 10
123.3615323601
 20
145.2819078311
 30
0.0
 11
66.6918676702
 21
145.2819078311
 31
0.0
  0
LINE
  5
16B
330
168
100
AcDbEntity
  8
$DDT_AUDIT_GENERATED_(77)
  6
Continuous
 62
     7
100
AcDbLine
 10
66.039093077
 20
170.2104007566
 30
0.0
 11
66.6918676702
 21
145.2819078311
 31
0.0
  0
LINE
  5
16C
330
168
100
AcDbEntity
  8
$DDT_AUDIT_GENERATED_(77)
  6
Continuous
 62
     7
100
AcDbLine
 10
123.3615323601
 20
145.2819078311
 30
0.0
 11
124.0143069533
 21
170.2104007566
 31
0.0
  0
ARC
  5
16D
330
168
100
AcDbEntity
  8
$DDT_AUDIT_GENERATED_(77)
  6
Continuous
 62
     7
100
AcDbCircle
 10
121.3622177081
 20
145.3342616502
 30
0.0
 40
2.000000000000002
100
AcDbArc
 50
296.7913147882
 51
358.5000022219
  0
ARC
  5
16E
330
168
100
AcDbEntity
  8
$DDT_AUDIT_GENERATED_(77)
  6
Continuous
 62
     7
100
AcDbCircle
 10
68.6911823221
 20
145.3342616502
 30
0.0
 40
1.999999999999998
100
AcDbArc
 50
181.4999977781
 51
243.208520215
  0
LINE
  5
16F
330
168
100
AcDbEntity
  8
$DDT_AUDIT_GENERATED_(B3)
  6
Continuous
 62
     7
100
AcDbLine
 10
180.0267000151
 20
180.3342597428
 30
0.0
 11
10.0267000151
 21
180.3342597428
 31
0.0
  0
LINE
  5
170
330
168
100
AcDbEntity
  8
$DDT_AUDIT_GENERATED_(B3)
  6
Continuous
 62
     7
100
AcDbLine
 10
180.0267000151
 20
173.49911953
 30
0.0
 11
10.0267000151
 21
173.49911953
 31
0.0
  0
LINE
  5
171
330
168
100
AcDbEntity
  8
$DDT_AUDIT_GENERATED_(B3)
  6
Continuous
 62
     7
100
AcDbLine
 10
141.7509285563
 20
170.5707934695
 30
0.0
 11
128.0659042976
 21
170.2675044597
 31
0.0
  0
LINE
  5
172
330
168
100
AcDbEntity
  8
$DDT_AUDIT_GENERATED_(B3)
  6
Continuous
 62
     7
100
AcDbLine
 10
61.9874954454
 20
170.2675044692
 30
0.0
 11
48.3024711865
 21
170.5707934791
 31
0.0
  0
ARC
  5
173
330
168
100
AcDbEntity
  8
$DDT_AUDIT_GENERATED_(B3)
  6
Continuous
 62
     7
100
AcDbCircle
 10
95.0267000151
 20
1969.9642597428
 30
0.0
 40
1800.000000000001
100
AcDbArc
 50
271.4867464472
 51
272.6580195912
  0
ARC
  5
174
330
168
100
AcDbEntity
  8
$DDT_AUDIT_GENERATED_(B3)
  6
Continuous
 62
     7
100
AcDbCircle
 10
95.0267000151
 20
1969.9642597428
 30
0.0
 40
1800.0
100
AcDbArc
 50
270.9480685358
 51
271.0517342293
  0
ARC
  5
175
330
168
100
AcDbEntity
  8
$DDT_AUDIT_GENERATED_(B3)
  6
Continuous
 62
     7
100
AcDbCircle
 10
95.0267000151
 20
1969.9642597428
 30
0.0
 40
1800.0
100
AcDbArc
 50
268.9475713649
 51
269.0519314642
  0
ARC
  5
176
330
168
100
AcDbEntity
  8
$DDT_AUDIT_GENERATED_(B3)
  6
Continuous
 62
     7
100
AcDbCircle
 10
95.0267000151
 20
1969.9642597428
 30
0.0
 40
1800.0
100
AcDbArc
 50
267.3419804088
 51
268.5125640556
  0
ARC
  5
177
330
168
100
AcDbEntity
  8
$DDT_AUDIT_GENERATED_(B3)
  6
Continuous
 62
     7
100
AcDbCircle
 10
11.6267000151
 20
173.49911953
 30
0.0
 40
1.59999999999999
100
AcDbArc
 50
180.0
 51
267.3419804089
  0
ARC
  5
178
330
168
100
AcDbEntity
  8
$DDT_AUDIT_GENERATED_(B3)
  6
Continuous
 62
     7
100
AcDbCircle
 10
178.4267000151
 20
173.49911953
 30
0.0
 40
1.600000000000126
100
AcDbArc
 50
272.6580195911
 51
0.0
  0
LINE
  5
179
330
168
100
AcDbEntity
  8
$DDT_AUDIT_GENERATED_(B3)
  6
Continuous
 62
     7
100
AcDbLine
 10
180.0267000151
 20
173.49911953
 30
0.0
 11
180.0267000151
 21
180.3342597428
 31
0.0
  0
LINE
  5
17A
330
168
100
AcDbEntity
  8
$DDT_AUDIT_GENERATED_(B3)
  6
Continuous
 62
     7
100
AcDbLine
 10
10.0267000151
 20
180.3342597428
 30
0.0
 11
10.0267000151
 21
173.49911953
 31
0.0
  0
LINE
  5
17B
330
168
100
AcDbEntity
  8
$DDT_AUDIT_GENERATED_(B3)
  6
Continuous
 62
     7
100
AcDbLine
 10
65.2767000151
 20
170.2104007566
 30
0.0
 11
124.7767000151
 21
170.2104007566
 31
0.0
  0
ARC
  5
17C
330
168
100
AcDbEntity
  8
$DDT_AUDIT_GENERATED_(BC)
  6
Continuous
 62
     7
100
AcDbCircle
 10
95.0103323598
 20
255.0557936388
 30
0.0
 40
148.7057936388237
100
AcDbArc
 50
268.1130229595
 51
270.0063054141
  0
ARC
  5
17D
330
168
100
AcDbEntity
  8
$DDT_AUDIT_GENERATED_(BC)
  6
Continuous
 62
     7
100
AcDbCircle
 10
94.4421375719
 20
238.5719066043
 30
0.0
 40
132.212138246764
100
AcDbArc
 50
266.0828862414
 51
268.1239025637
  0
ARC
  5
17E
330
168
100
AcDbEntity
  8
$DDT_AUDIT_GENERATED_(BC)
  6
Continuous
 62
     7
100
AcDbCircle
 10
92.924813014
 20
215.3277932891
 30
0.0
 40
108.9186968476159
100
AcDbArc
 50
263.7631917029
 51
266.0439055846
  0
ARC
  5
17F
330
168
100
AcDbEntity
  8
$DDT_AUDIT_GENERATED_(BC)
  6
Continuous
 62
     7
100
AcDbCircle
 10
86.5379878579
 20
160.9756091708
 30
0.0
 40
54.19617218864333
100
AcDbArc
 50
256.8632566885
 51
264.2329194501
  0
ARC
  5
180
330
168
100
AcDbEntity
  8
$DDT_AUDIT_GENERATED_(BC)
  6
Continuous
 62
     7
100
AcDbCircle
 10
79.2372592699
 20
128.3464223463
 30
0.0
 40
20.76385536141494
100
AcDbArc
 50
249.3978298027
 51
256.0184218888
  0
SPLINE
  5
181
330
168
100
AcDbEntity
  8
$DDT_AUDIT_GENERATED_(BC)
  6
Continuous
 62
     7
100
AcDbSpline
210
0.0
220
0.0
230
1.0
 70
     8
 71
     3
 72
     8
 73
     4
 74
     0
 42
0.0000000040946032
 43
0.0000000001
 40
0.0
 40
0.0
 40
0.0
 40
0.0
 40
0.0250533830738112
 40
0.0250533830738112
 40
0.0250533830738112
 40
0.0250533830738112
 10
70.21178251184438
 20
109.8372090874673
 30
0.0
 10
70.19589947816019
 20
109.8504473385874
 30
0.0
 10
70.18040615689134
 20
109.8637103839767
 30
0.0
 10
70.16530356415961
 20
109.876996437604
 30
0.0
  0
ARC
  5
182
330
168
100
AcDbEntity
  8
$DDT_AUDIT_GENERATED_(BC)
  6
Continuous
 62
     7
100
AcDbCircle
 10
95.0430625753
 20
255.0557936388
 30
0.0
 40
148.7057936387726
100
AcDbArc
 50
269.9936945859
 51
271.8869770405
  0
ARC
  5
183
330
168
100
AcDbEntity
  8
$DDT_AUDIT_GENERATED_(BC)
  6
Continuous
 62
     7
100
AcDbCircle
 10
95.6112573081
 20
238.5719076925
 30
0.0
 40
132.2121393361696
100
AcDbArc
 50
271.8760974447
 51
273.9171137502
  0
ARC
  5
184
330
168
100
AcDbEntity
  8
$DDT_AUDIT_GENERATED_(BC)
  6
Continuous
 62
     7
100
AcDbCircle
 10
97.1286400088
 20
215.3271419731
 30
0.0
 40
108.9180430759893
100
AcDbArc
 50
273.9560875696
 51
276.2368151429
  0
ARC
  5
185
330
168
100
AcDbEntity
  8
$DDT_AUDIT_GENERATED_(BC)
  6
Continuous
 62
     7
100
AcDbCircle
 10
103.5154070772
 20
160.9756091708
 30
0.0
 40
54.19617218863508
100
AcDbArc
 50
275.7670805499
 51
283.1367433115
  0
ARC
  5
186
330
168
100
AcDbEntity
  8
$DDT_AUDIT_GENERATED_(BC)
  6
Continuous
 62
     7
100
AcDbCircle
 10
110.8161356653
 20
128.3464223458
 30
0.0
 40
20.76385536084594
100
AcDbArc
 50
283.9815781111
 51
290.6021701974
  0
ARC
  5
187
330
168
100
AcDbEntity
  8
$DDT_AUDIT_GENERATED_(BC)
  6
Continuous
 62
     7
100
AcDbCircle
 10
94.8568220783
 20
-34.9212982484
 30
0.0
 40
151.444019181757
100
AcDbArc
 50
89.9357310712
 51
91.9183053322
  0
ARC
  5
188
330
168
100
AcDbEntity
  8
$DDT_AUDIT_GENERATED_(BC)
  6
Continuous
 62
     7
100
AcDbCircle
 10
94.4551556421
 20
-26.5901595641
 30
0.0
 40
143.1041564031998
100
AcDbArc
 50
91.8692346909
 51
93.8829130375
  0
ARC
  5
189
330
168
100
AcDbEntity
  8
$DDT_AUDIT_GENERATED_(BC)
  6
Continuous
 62
     7
100
AcDbCircle
 10
90.5906738042
 20
24.0741266907
 30
0.0
 40
92.29545238101312
100
AcDbArc
 50
93.6192396483
 51
99.0186692132
  0
ARC
  5
18A
330
168
100
AcDbEntity
  8
$DDT_AUDIT_GENERATED_(BC)
  6
Continuous
 62
     7
100
AcDbCircle
 10
82.9386224468
 20
73.1321084406
 30
0.0
 40
42.64465828631716
100
AcDbArc
 50
99.1969542137
 51
103.6890596996
  0
ARC
  5
18B
330
168
100
AcDbEntity
  8
$DDT_AUDIT_GENERATED_(BC)
  6
Continuous
 62
     7
100
AcDbCircle
 10
77.2358280645
 20
96.1782632772
 30
0.0
 40
18.90376334023965
100
AcDbArc
 50
103.4257643191
 51
111.1804944696
  0
ARC
  5
18C
330
168
100
AcDbEntity
  8
$DDT_AUDIT_GENERATED_(BC)
  6
Continuous
 62
     7
100
AcDbCircle
 10
72.3575799905
 20
108.4800006652
 30
0.0
 40
5.671454706165421
100
AcDbArc
 50
110.12976337
 51
127.4667507873
  0
ARC
  5
18D
330
168
100
AcDbEntity
  8
$DDT_AUDIT_GENERATED_(BC)
  6
Continuous
 62
     7
100
AcDbCircle
 10
69.5673068987
 20
112.0221909926
 30
0.0
 40
1.164213615653972
100
AcDbArc
 50
124.5155437751
 51
174.7301953404
  0
SPLINE
  5
18E
330
168
100
AcDbEntity
  8
$DDT_AUDIT_GENERATED_(BC)
  6
Continuous
 62
     7
100
AcDbSpline
210
0.0
220
0.0
230
1.0
 70
     8
 71
     3
 72
     8
 73
     4
 74
     0
 42
0.000000010141247
 43
0.0000000001
 40
0.2417236599398644
 40
0.2417236599398644
 40
0.2417236599398644
 40
0.2417236599398644
 40
1.0
 40
1.0
 40
1.0
 40
1.0
 10
68.70216113188182
 20
111.4774609285355
 30
0.0
 10
68.50741113747672
 20
111.6932722033067
 30
0.0
 10
68.40896272390346
 20
111.9115565109188
 30
0.0
 10
68.40801413466282
 20
112.1291191463405
 30
0.0
  0
SPLINE
  5
18F
330
168
100
AcDbEntity
  8
$DDT_AUDIT_GENERATED_(BC)
  6
Continuous
 62
     7
100
AcDbSpline
210
0.0
220
0.0
230
1.0
 70
     8
 71
     3
 72
     8
 73
     4
 74
     0
 42
0.0000000041163583
 43
0.0000000001
 40
0.9652250403169516
 40
0.9652250403169516
 40
0.9652250403169516
 40
0.9652250403169516
 40
1.0
 40
1.0
 40
1.0
 40
1.0
 10
119.9054957950698
 20
109.8924730673039
 30
0.0
 10
119.8849539847864
 20
109.8740071552544
 30
0.0
 10
119.8636586217233
 20
109.8555842365488
 30
0.0
 10
119.8416124232365
 20
109.8372090874674
 30
0.0
  0
SPLINE
  5
190
330
168
100
AcDbEntity
  8
$DDT_AUDIT_GENERATED_(BC)
  6
Continuous
 62
     7
100
AcDbSpline
210
0.0
220
0.0
230
1.0
 70
     8
 71
     3
 72
     8
 73
     4
 74
     0
 42
0.000000010141247
 43
0.0000000001
 40
0.0
 40
0.0
 40
0.0
 40
0.0
 40
0.7582763389751737
 40
0.7582763389751737
 40
0.7582763389751737
 40
0.7582763389751737
 10
121.6453808004065
 20
112.1291191463483
 30
0.0
 10
121.6444322110646
 20
111.9115565112342
 30
0.0
 10
121.5459837978601
 20
111.6932722033023
 30
0.0
 10
121.351233804039
 20
111.4774609290842
 30
0.0
  0
ARC
  5
191
330
168
100
AcDbEntity
  8
$DDT_AUDIT_GENERATED_(BC)
  6
Continuous
 62
     7
100
AcDbCircle
 10
120.4860880307
 20
112.0221909892
 30
0.0
 40
1.164213621565226
100
AcDbArc
 50
5.2698047976
 51
55.4844560791
  0
ARC
  5
192
330
168
100
AcDbEntity
  8
$DDT_AUDIT_GENERATED_(BC)
  6
Continuous
 62
     7
100
AcDbCircle
 10
117.6958150134
 20
108.4800007909
 30
0.0
 40
5.671454564447613
100
AcDbArc
 50
52.5332489902
 51
69.8702368473
  0
ARC
  5
193
330
168
100
AcDbEntity
  8
$DDT_AUDIT_GENERATED_(BC)
  6
Continuous
 62
     7
100
AcDbCircle
 10
112.8175669595
 20
96.1782635644
 30
0.0
 40
18.90376304035987
100
AcDbArc
 50
68.8195054673
 51
76.5742357413
  0
ARC
  5
194
330
168
100
AcDbEntity
  8
$DDT_AUDIT_GENERATED_(BC)
  6
Continuous
 62
     7
100
AcDbCircle
 10
107.1147720636
 20
73.1321063312
 30
0.0
 40
42.64466043645993
100
AcDbArc
 50
76.310940417
 51
80.8030456759
  0
ARC
  5
195
330
168
100
AcDbEntity
  8
$DDT_AUDIT_GENERATED_(BC)
  6
Continuous
 62
     7
100
AcDbCircle
 10
99.4627211695
 20
24.0741270374
 30
0.0
 40
92.29545203239766
100
AcDbArc
 50
80.9813307767
 51
86.380760362
  0
ARC
  5
196
330
168
100
AcDbEntity
  8
$DDT_AUDIT_GENERATED_(BC)
  6
Continuous
 62
     7
100
AcDbCircle
 10
95.5982393177
 20
-26.5901590685
 30
0.0
 40
143.1041559069899
100
AcDbArc
 50
86.1170869589
 51
88.1307653126
  0
ARC
  5
197
330
168
100
AcDbEntity
  8
$DDT_AUDIT_GENERATED_(BC)
  6
Continuous
 62
     7
100
AcDbCircle
 10
95.1965729046
 20
-34.9212951656
 30
0.0
 40
151.4440160990258
100
AcDbArc
 50
88.0816946469
 51
90.0642689482
  0
LINE
  5
198
330
168
100
AcDbEntity
  8
$DDT_AUDIT_GENERATED_(BC)
  6
Continuous
 62
     7
100
AcDbLine
 10
95.0266974675
 20
116.6702866873
 30
0.0
 11
95.0266974675
 21
116.5226256583
 31
0.0
  0
ARC
  5
199
330
168
100
AcDbEntity
  8
$DDT_AUDIT_GENERATED_(BC)
  6
Continuous
 62
     7
100
AcDbCircle
 10
94.9582005211
 20
-42.1927488149
 30
0.0
 40
158.8630502691163
100
AcDbArc
 50
89.9752957906
 51
91.8706275747
  0
ARC
  5
19A
330
168
100
AcDbEntity
  8
$DDT_AUDIT_GENERATED_(BC)
  6
Continuous
 62
     7
100
AcDbCircle
 10
94.4482385043
 20
-27.5746846129
 30
0.0
 40
144.236133376164
100
AcDbArc
 50
91.8577112284
 51
93.8611367658
  0
ARC
  5
19B
330
168
100
AcDbEntity
  8
$DDT_AUDIT_GENERATED_(BC)
  6
Continuous
 62
     7
100
AcDbCircle
 10
86.2868405521
 20
62.0978836063
 30
0.0
 40
54.25835544315684
100
AcDbArc
 50
91.6383184308
 51
107.0899394688
  0
ARC
  5
19C
330
168
100
AcDbEntity
  8
$DDT_AUDIT_GENERATED_(BC)
  6
Continuous
 62
     7
100
AcDbCircle
 10
72.2157563188
 20
108.7563460085
 30
0.0
 40
5.531212475224777
100
AcDbArc
 50
109.8035513559
 51
127.5849151063
  0
SPLINE
  5
19D
330
168
100
AcDbEntity
  8
$DDT_AUDIT_GENERATED_(BC)
  6
Continuous
 62
     7
100
AcDbSpline
210
0.0
220
0.0
230
1.0
 70
     8
 71
     3
 72
    20
 73
    16
 74
     0
 42
0.0000000098188786
 43
0.0000000001
 40
0.0
 40
0.0
 40
0.0
 40
0.0
 40
0.1044749391132468
 40
0.2043794643387278
 40
0.2996984532025688
 40
0.3904214127234291
 40
0.4765419313012215
 40
0.5580571505511434
 40
0.6349672599761901
 40
0.7072750167426899
 40
0.7749852922667685
 40
0.8381046468389011
 40
0.8966409331121576
 40
0.9506029289617985
 40
1.0
 40
1.0
 40
1.0
 40
1.0
 10
68.34361736265896
 20
112.2899866804758
 30
0.0
 10
68.34445760674315
 20
112.3197807630557
 30
0.0
 10
68.34610454271805
 20
112.378065597957
 30
0.0
 10
68.3616833257921
 20
112.4634154142983
 30
0.0
 10
68.38525135645077
 20
112.5447723323077
 30
0.0
 10
68.41638891588303
 20
112.6221276937897
 30
0.0
 10
68.45359137223997
 20
112.695483477961
 30
0.0
 10
68.49570432144223
 20
112.7648390552051
 30
0.0
 10
68.54156998328662
 20
112.8301944058963
 30
0.0
 10
68.59011353282395
 20
112.8915496132756
 30
0.0
 10
68.64033387695315
 20
112.9489040254036
 30
0.0
 10
68.69126918526912
 20
113.0022597519649
 30
0.0
 10
68.74212995288566
 20
113.0516098173266
 30
0.0
 10
68.79185082709705
 20
113.096977708547
 30
0.0
 10
68.82582736162816
 20
113.1257878465149
 30
0.0
 10
68.84206767598897
 20
113.1395567480236
 30
0.0
  0
SPLINE
  5
19E
330
168
100
AcDbEntity
  8
$DDT_AUDIT_GENERATED_(BC)
  6
Continuous
 62
     7
100
AcDbSpline
210
0.0
220
0.0
230
1.0
 70
     8
 71
     3
 72
    14
 73
    10
 74
     0
 42
0.0000000098031339
 43
0.0000000001
 40
0.0
 40
0.0
 40
0.0
 40
0.0
 40
0.0953718466909833
 40
0.2065152866186782
 40
0.3334842179374938
 40
0.4763182791472785
 40
0.6350340044843672
 40
0.8096148230835339
 40
1.0
 40
1.0
 40
1.0
 40
1.0
 10
121.2113272590694
 20
113.139556748024
 30
0.0
 10
121.2422515821474
 20
113.1129375227488
 30
0.0
 10
121.3092090883694
 20
113.0552971563706
 30
0.0
 10
121.4030341005176
 20
112.9614234364311
 30
0.0
 10
121.4959776764655
 20
112.8538357361738
 30
0.0
 10
121.5809939063916
 20
112.7324398502124
 30
0.0
 10
121.6509067324496
 20
112.5972623027803
 30
0.0
 10
121.7007037352395
 20
112.4483217094907
 30
0.0
 10
121.706667961525
 20
112.3442669870662
 30
0.0
 10
121.7097775724056
 20
112.2899866804762
 30
0.0
  0
ARC
  5
19F
330
168
100
AcDbEntity
  8
$DDT_AUDIT_GENERATED_(BC)
  6
Continuous
 62
     7
100
AcDbCircle
 10
117.7996446611
 20
108.6869320445
 30
0.0
 40
5.60940682249325
100
AcDbArc
 50
52.5400029398
 51
70.0715305975
  0
ARC
  5
1A0
330
168
100
AcDbEntity
  8
$DDT_AUDIT_GENERATED_(BC)
  6
Continuous
 62
     7
100
AcDbCircle
 10
103.6584589068
 20
61.4423851464
 30
0.0
 40
54.91674903577709
100
AcDbArc
 50
73.003240049
 51
88.2685020514
  0
ARC
  5
1A1
330
168
100
AcDbEntity
  8
$DDT_AUDIT_GENERATED_(BC)
  6
Continuous
 62
     7
100
AcDbCircle
 10
95.6056296108
 20
-27.5652111282
 30
0.0
 40
144.2266495313069
100
AcDbArc
 50
86.1387973583
 51
88.1423546474
  0
ARC
  5
1A2
330
168
100
AcDbEntity
  8
$DDT_AUDIT_GENERATED_(BC)
  6
Continuous
 62
     7
100
AcDbCircle
 10
95.0953864186
 20
-42.1808305534
 30
0.0
 40
158.8511320916312
100
AcDbArc
 50
88.1293013179
 51
90.0247753168
  0
LINE
  5
1A3
330
168
100
AcDbEntity
  8
$DDT_AUDIT_GENERATED_(BC)
  6
Continuous
 62
     7
100
AcDbLine
 10
73.83633008
 20
108.3008994483
 30
0.0
 11
74.0569396182
 21
108.2425281803
 31
0.0
  0
ARC
  5
1A4
330
168
100
AcDbEntity
  8
$DDT_AUDIT_GENERATED_(BC)
  6
Continuous
 62
     7
100
AcDbCircle
 10
75.7039864629
 20
117.816644333
 30
0.0
 40
9.697295554661066
100
AcDbArc
 50
236.3389664189
 51
258.895701091
  0
LINE
  5
1A5
330
168
100
AcDbEntity
  8
$DDT_AUDIT_GENERATED_(BC)
  6
Continuous
 62
     7
100
AcDbLine
 10
70.1814503727
 20
109.8766649039
 30
0.0
 11
70.3289840911
 21
109.7452819587
 31
0.0
  0
LINE
  5
1A6
330
168
100
AcDbEntity
  8
$DDT_AUDIT_GENERATED_(BC)
  6
Continuous
 62
     7
100
AcDbLine
 10
70.0087545879
 20
110.0304553804
 30
0.0
 11
70.0730947484
 21
109.9731586493
 31
0.0
  0
LINE
  5
1A7
330
168
100
AcDbEntity
  8
$DDT_AUDIT_GENERATED_(BC)
  6
Continuous
 62
     7
100
AcDbLine
 10
68.6809644622
 20
111.5007279772
 30
0.0
 11
70.0430986208
 21
109.9928461908
 31
0.0
  0
LINE
  5
1A8
330
168
100
AcDbEntity
  8
$DDT_AUDIT_GENERATED_(BC)
  6
Continuous
 62
     7
100
AcDbLine
 10
119.9712140658
 20
109.9646201837
 30
0.0
 11
120.0446403472
 21
110.0304553804
 31
0.0
  0
LINE
  5
1A9
330
168
100
AcDbEntity
  8
$DDT_AUDIT_GENERATED_(BC)
  6
Continuous
 62
     7
100
AcDbLine
 10
119.7450923763
 20
109.7618758035
 30
0.0
 11
119.8631857021
 21
109.8677601979
 31
0.0
  0
ARC
  5
1AA
330
168
100
AcDbEntity
  8
$DDT_AUDIT_GENERATED_(BC)
  6
Continuous
 62
     7
100
AcDbCircle
 10
116.5990978868
 20
113.7837977243
 30
0.0
 40
5.10618617609676
100
AcDbArc
 50
289.5069657181
 51
308.0329343942
  0
LINE
  5
1AB
330
168
100
AcDbEntity
  8
$DDT_AUDIT_GENERATED_(BC)
  6
Continuous
 62
     7
100
AcDbLine
 10
120.010296771
 20
109.9928466963
 30
0.0
 11
121.3723539053
 21
111.5006432171
 31
0.0
  0
ARC
  5
1AC
330
168
100
AcDbEntity
  8
$DDT_AUDIT_GENERATED_(BC)
  6
Continuous
 62
     7
100
AcDbCircle
 10
69.4786565185
 20
112.3292962252
 30
0.0
 40
1.135880761126242
100
AcDbArc
 50
182.3027269468
 51
210.3656025338
  0
ARC
  5
1AD
330
168
100
AcDbEntity
  8
$DDT_AUDIT_GENERATED_(BC)
  6
Continuous
 62
     7
100
AcDbCircle
 10
69.4786565185
 20
112.3292962252
 30
0.0
 40
1.135880761126242
100
AcDbArc
 50
219.5239200437
 51
223.9828865267
  0
ARC
  5
1AE
330
168
100
AcDbEntity
  8
$DDT_AUDIT_GENERATED_(BC)
  6
Continuous
 62
     7
100
AcDbCircle
 10
120.5747384144
 20
112.3292962254
 30
0.0
 40
1.135880763239742
100
AcDbArc
 50
316.0171135231
 51
357.6972731043
  0
LINE
  5
1AF
330
168
100
AcDbEntity
  8
$DDT_AUDIT_GENERATED_(BC)
  6
Continuous
 62
     7
100
AcDbLine
 10
67.7803040905
 20
144.0788121759
 30
0.0
 11
68.3437105992
 21
112.2824166364
 31
0.0
  0
LINE
  5
1B0
330
168
100
AcDbEntity
  8
$DDT_AUDIT_GENERATED_(BC)
  6
Continuous
 62
     7
100
AcDbLine
 10
121.7096860464
 20
112.2825131728
 30
0.0
 11
122.273126391
 21
144.0808182748
 31
0.0
  0
ENDBLK
  5
1B2
330
168
100
AcDbEntity
  8
0
100
AcDbBlockEnd
  0
ENDSEC
  0
SECTION
  2
ENTITIES
  0
INSERT
  5
5F
330
1F
100
AcDbEntity
  8
Default
100
AcDbBlockReference
  2
SEANNOT_GROUP
 10
0.0
 20
0.0
 30
0.0
  0
INSERT
  5
6A
330
1F
100
AcDbEntity
  8
Default
100
AcDbBlockReference
  2
SEANNOT_GROUP1
 10
0.0
 20
0.0
 30
0.0
  0
INSERT
  5
70
330
1F
100
AcDbEntity
  8
Default
100
AcDbBlockReference
  2
SEANNOT_GROUP2
 10
0.0
 20
0.0
 30
0.0
  0
INSERT
  5
76
330
1F
100
AcDbEntity
  8
Default
100
AcDbBlockReference
  2
SE
 10
0.0
 20
0.0
 30
0.0
  0
INSERT
  5
FF
330
1F
100
AcDbEntity
  8
Default
100
AcDbBlockReference
  2
SE1
 10
0.0
 20
0.0
 30
0.0
  0
INSERT
  5
169
330
1F
100
AcDbEntity
  8
Default
100
AcDbBlockReference
  2
SE2
 10
0.0
 20
0.0
 30
0.0
  0
TEXT
  5
1B4
330
1F
100
AcDbEntity
  8
Default
  6
Continuous
 62
     7
100
AcDbText
 10
5.9362635081
 20
53.4225120485
 30
0.0
 40
10.0
  1
Grohe AG^J
  7
SEACAD_seiso_ttf
 11
5.9362635081
 21
63.4225120485
 31
0.0
100
AcDbText
 73
     3
  0
TEXT
  5
1B5
330
1F
100
AcDbEntity
  8
Default
  6
Continuous
 62
     7
100
AcDbText
 10
5.9362635081
 20
37.0588756849
 30
0.0
 40
10.0
  1
 
  7
SEACAD_seiso_ttf
 11
5.9362635081
 21
47.0588756849
 31
0.0
100
AcDbText
 73
     3
  0
TEXT
  5
1B6
330
1F
100
AcDbEntity
  8
Default
  6
Continuous
 62
     7
100
AcDbText
 10
5.9362635081
 20
20.6952393213
 30
0.0
 40
10.0
  1
ecn: 
  7
SEACAD_seiso_ttf
 11
5.9362635081
 21
30.6952393213
 31
0.0
100
AcDbText
 73
     3
  0
TEXT
  5
1B7
330
1F
100
AcDbEntity
  8
Default
  6
Continuous
 62
     7
100
AcDbText
 10
5.9362635081
 20
4.3316029576
 30
0.0
 40
10.0
  1
unit: mm
  7
SEACAD_seiso_ttf
 11
5.9362635081
 21
14.3316029576
 31
0.0
100
AcDbText
 73
     3
  0
LINE
  5
1B8
330
1F
100
AcDbEntity
  8
Default
  6
Continuous
 62
     7
100
AcDbLine
 10
0.0
 20
0.0
 30
0.0
 11
100.0
 21
0.0
 31
0.0
  0
LINE
  5
1B9
330
1F
100
AcDbEntity
  8
Default
  6
Continuous
 62
     7
100
AcDbLine
 10
0.0
 20
0.0
 30
0.0
 11
0.0
 21
100.0
 31
0.0
  0
TEXT
  5
1BA
330
1F
100
AcDbEntity
  8
Default
  6
Continuous
 62
     7
100
AcDbText
 10
24.3923665681
 20
-18.2375342018
 30
0.0
 40
10.0
  1
100 mm
  7
SEACAD_seiso_ttf
 11
24.3923665681
 21
-8.2375342018
 31
0.0
100
AcDbText
 73
     3
  0
TEXT
  5
1BB
330
1F
100
AcDbEntity
  8
Default
  6
Continuous
 62
     7
100
AcDbText
 10
-7.6150308803
 20
24.6231930421
 30
0.0
 40
10.0
  1
100 mm
 50
90.0
  7
SEACAD_seiso_ttf
 11
-17.6150308803
 21
24.6231930421
 31
0.0
100
AcDbText
 73
     3
  0
TEXT
  5
1BC
330
1F
100
AcDbEntity
  8
Default
  6
Continuous
 62
     7
100
AcDbText
 10
28.4878128572
 20
20.0907663715
 30
0.0
 40
10.0
  1
218879
  7
SEACAD_seiso_ttf
 11
28.4878128572
 21
30.0907663715
 31
0.0
100
AcDbText
 73
     3
  0
TEXT
  5
1BD
330
1F
100
AcDbEntity
  8
Default
  6
Continuous
 62
     7
100
AcDbText
 10
5.9012241913
 20
36.7242780188
 30
0.0
 40
10.0
  1
19457001
  7
SEACAD_seiso_ttf
 11
5.9012241913
 21
46.7242780188
 31
0.0
100
AcDbText
 73
     3
  0
ENDSEC
  0
SECTION
  2
OBJECTS
  0
DICTIONARY
  5
C
330
0
100
AcDbDictionary
281
     1
  3
ACAD_GROUP
350
D
  3
ACAD_LAYOUT
350
1A
  3
ACAD_MLEADERSTYLE
350
1C1
  3
ACAD_MLINESTYLE
350
17
  3
ACAD_PLOTSETTINGS
350
19
  3
ACAD_PLOTSTYLENAME
350
E
  3
ACAD_SCALELIST
350
3B
  3
ACAD_TABLESTYLE
350
1C0
  3
ACAD_VISUALSTYLE
350
2A
  3
AcDbVariableDictionary
350
1BE
  0
DICTIONARY
  5
D
102
{ACAD_REACTORS
330
C
102
}
330
C
100
AcDbDictionary
281
     1
  0
DICTIONARY
  5
1A
102
{ACAD_REACTORS
330
C
102
}
330
C
100
AcDbDictionary
281
     1
  3
Layout1
350
1E
  3
Model
350
22
  0
DICTIONARY
  5
1C1
102
{ACAD_REACTORS
330
C
102
}
330
C
100
AcDbDictionary
281
     1
  0
DICTIONARY
  5
17
102
{ACAD_REACTORS
330
C
102
}
330
C
100
AcDbDictionary
281
     1
  3
Standard
350
18
  0
DICTIONARY
  5
19
102
{ACAD_REACTORS
330
C
102
}
330
C
100
AcDbDictionary
281
     1
  0
ACDBDICTIONARYWDFLT
  5
E
102
{ACAD_REACTORS
330
C
102
}
330
C
100
AcDbDictionary
281
     1
  3
Normal
350
F
100
AcDbDictionaryWithDefault
340
F
  0
DICTIONARY
  5
3B
102
{ACAD_REACTORS
330
C
102
}
330
C
100
AcDbDictionary
281
     1
  3
A0
350
3C
  3
A1
350
3D
  3
A2
350
3E
  3
A3
350
3F
  3
A4
350
40
  3
A5
350
41
  3
A6
350
42
  3
A7
350
43
  3
A8
350
44
  3
A9
350
45
  3
B0
350
46
  3
B1
350
47
  3
B2
350
48
  3
B3
350
49
  3
B4
350
4A
  3
B5
350
4B
  3
B6
350
4C
  3
B7
350
4D
  3
B8
350
4E
  3
B9
350
4F
  3
C0
350
50
  3
C1
350
51
  3
C2
350
52
  3
C3
350
53
  3
C4
350
54
  3
C5
350
55
  3
C6
350
56
  3
C7
350
57
  3
C8
350
58
  3
C9
350
59
  3
D0
350
5A
  3
D1
350
5B
  3
D2
350
5C
  0
DICTIONARY
  5
1C0
102
{ACAD_REACTORS
330
C
102
}
330
C
100
AcDbDictionary
281
     1
  0
DICTIONARY
  5
2A
102
{ACAD_REACTORS
330
C
102
}
330
C
100
AcDbDictionary
281
     1
  3
2dWireframe
350
2F
  3
3D Hidden
350
31
  3
3dWireframe
350
30
  3
Basic
350
32
  3
Brighten
350
36
  3
ColorChange
350
3A
  3
Conceptual
350
34
  3
Dim
350
35
  3
Facepattern
350
39
  3
Flat
350
2B
  3
FlatWithEdges
350
2C
  3
Gouraud
350
2D
  3
GouraudWithEdges
350
2E
  3
Linepattern
350
38
  3
Realistic
350
33
  3
Thicken
350
37
  0
DICTIONARY
  5
1BE
102
{ACAD_REACTORS
330
C
102
}
330
C
100
AcDbDictionary
281
     1
  3
CANNOSCALE
350
1BF
  3
PSOLHEIGHT
350
1C3
  3
PSOLWIDTH
350
1C2
  0
LAYOUT
  5
1E
102
{ACAD_REACTORS
330
1A
102
}
330
1A
100
AcDbPlotSettings
  1

  2
none_device
  4

  6

 40
0.0
 41
0.0
 42
0.0
 43
0.0
 44
0.0
 45
0.0
 46
0.0
 47
0.0
 48
0.0
 49
0.0
140
0.0
141
0.0
142
1.0
143
1.0
 70
   688
 72
     0
 73
     0
 74
     5
  7

 75
    16
147
1.0
148
0.0
149
0.0
100
AcDbLayout
  1
Layout1
 70
     1
 71
     1
 10
0.0
 20
0.0
 11
1682.0
 21
2378.0
 12
0.0
 22
0.0
 32
0.0
 14
0.0
 24
0.0
 34
0.0
 15
1682.0
 25
2378.0
 35
0.0
146
0.0
 13
0.0
 23
0.0
 33
0.0
 16
1.0
 26
0.0
 36
0.0
 17
0.0
 27
1.0
 37
0.0
 76
     0
330
1B
  0
LAYOUT
  5
22
102
{ACAD_REACTORS
330
1A
102
}
330
1A
100
AcDbPlotSettings
  1

  2
none_device
  4

  6

 40
0.0
 41
0.0
 42
0.0
 43
0.0
 44
0.0
 45
0.0
 46
0.0
 47
0.0
 48
0.0
 49
0.0
140
0.0
141
0.0
142
1.0
143
1.0
 70
  1712
 72
     0
 73
     0
 74
     0
  7

 75
     0
147
1.0
148
0.0
149
0.0
100
AcDbLayout
  1
Model
 70
     1
 71
     0
 10
0.0
 20
0.0
 11
1682.0
 21
2378.0
 12
0.0
 22
0.0
 32
0.0
 14
0.0
 24
0.0
 34
0.0
 15
1682.0
 25
2378.0
 35
0.0
146
0.0
 13
0.0
 23
0.0
 33
0.0
 16
1.0
 26
0.0
 36
0.0
 17
0.0
 27
1.0
 37
0.0
 76
     0
330
1F
331
29
  0
MLINESTYLE
  5
18
102
{ACAD_REACTORS
330
17
102
}
330
17
100
AcDbMlineStyle
  2
Standard
 70
     0
  3

 62
   256
 51
90.0
 52
90.0
 71
     2
 49
0.5
 62
   256
  6
BYLAYER
 49
-0.5
 62
   256
  6
BYLAYER
  0
ACDBPLACEHOLDER
  5
F
102
{ACAD_REACTORS
330
E
102
}
330
E
  0
SCALE
  5
3C
102
{ACAD_REACTORS
330
3B
102
}
330
3B
100
AcDbScale
 70
     0
300
1:1
140
1.0
141
1.0
290
     1
  0
SCALE
  5
3D
102
{ACAD_REACTORS
330
3B
102
}
330
3B
100
AcDbScale
 70
     0
300
1:2
140
1.0
141
2.0
290
     0
  0
SCALE
  5
3E
102
{ACAD_REACTORS
330
3B
102
}
330
3B
100
AcDbScale
 70
     0
300
1:4
140
1.0
141
4.0
290
     0
  0
SCALE
  5
3F
102
{ACAD_REACTORS
330
3B
102
}
330
3B
100
AcDbScale
 70
     0
300
1:5
140
1.0
141
5.0
290
     0
  0
SCALE
  5
40
102
{ACAD_REACTORS
330
3B
102
}
330
3B
100
AcDbScale
 70
     0
300
1:8
140
1.0
141
8.0
290
     0
  0
SCALE
  5
41
102
{ACAD_REACTORS
330
3B
102
}
330
3B
100
AcDbScale
 70
     0
300
1:10
140
1.0
141
10.0
290
     0
  0
SCALE
  5
42
102
{ACAD_REACTORS
330
3B
102
}
330
3B
100
AcDbScale
 70
     0
300
1:16
140
1.0
141
16.0
290
     0
  0
SCALE
  5
43
102
{ACAD_REACTORS
330
3B
102
}
330
3B
100
AcDbScale
 70
     0
300
1:20
140
1.0
141
20.0
290
     0
  0
SCALE
  5
44
102
{ACAD_REACTORS
330
3B
102
}
330
3B
100
AcDbScale
 70
     0
300
1:30
140
1.0
141
30.0
290
     0
  0
SCALE
  5
45
102
{ACAD_REACTORS
330
3B
102
}
330
3B
100
AcDbScale
 70
     0
300
1:40
140
1.0
141
40.0
290
     0
  0
SCALE
  5
46
102
{ACAD_REACTORS
330
3B
102
}
330
3B
100
AcDbScale
 70
     0
300
1:50
140
1.0
141
50.0
290
     0
  0
SCALE
  5
47
102
{ACAD_REACTORS
330
3B
102
}
330
3B
100
AcDbScale
 70
     0
300
1:100
140
1.0
141
100.0
290
     0
  0
SCALE
  5
48
102
{ACAD_REACTORS
330
3B
102
}
330
3B
100
AcDbScale
 70
     0
300
2:1
140
2.0
141
1.0
290
     0
  0
SCALE
  5
49
102
{ACAD_REACTORS
330
3B
102
}
330
3B
100
AcDbScale
 70
     0
300
4:1
140
4.0
141
1.0
290
     0
  0
SCALE
  5
4A
102
{ACAD_REACTORS
330
3B
102
}
330
3B
100
AcDbScale
 70
     0
300
8:1
140
8.0
141
1.0
290
     0
  0
SCALE
  5
4B
102
{ACAD_REACTORS
330
3B
102
}
330
3B
100
AcDbScale
 70
     0
300
10:1
140
10.0
141
1.0
290
     0
  0
SCALE
  5
4C
102
{ACAD_REACTORS
330
3B
102
}
330
3B
100
AcDbScale
 70
     0
300
100:1
140
100.0
141
1.0
290
     0
  0
SCALE
  5
4D
102
{ACAD_REACTORS
330
3B
102
}
330
3B
100
AcDbScale
 70
     0
300
1/128" = 1'-0"
140
0.0078125
141
12.0
290
     0
  0
SCALE
  5
4E
102
{ACAD_REACTORS
330
3B
102
}
330
3B
100
AcDbScale
 70
     0
300
1/64" = 1'-0"
140
0.015625
141
12.0
290
     0
  0
SCALE
  5
4F
102
{ACAD_REACTORS
330
3B
102
}
330
3B
100
AcDbScale
 70
     0
300
1/32" = 1'-0"
140
0.03125
141
12.0
290
     0
  0
SCALE
  5
50
102
{ACAD_REACTORS
330
3B
102
}
330
3B
100
AcDbScale
 70
     0
300
1/16" = 1'-0"
140
0.0625
141
12.0
290
     0
  0
SCALE
  5
51
102
{ACAD_REACTORS
330
3B
102
}
330
3B
100
AcDbScale
 70
     0
300
3/32" = 1'-0"
140
0.09375
141
12.0
290
     0
  0
SCALE
  5
52
102
{ACAD_REACTORS
330
3B
102
}
330
3B
100
AcDbScale
 70
     0
300
1/8" = 1'-0"
140
0.125
141
12.0
290
     0
  0
SCALE
  5
53
102
{ACAD_REACTORS
330
3B
102
}
330
3B
100
AcDbScale
 70
     0
300
3/16" = 1'-0"
140
0.1875
141
12.0
290
     0
  0
SCALE
  5
54
102
{ACAD_REACTORS
330
3B
102
}
330
3B
100
AcDbScale
 70
     0
300
1/4" = 1'-0"
140
0.25
141
12.0
290
     0
  0
SCALE
  5
55
102
{ACAD_REACTORS
330
3B
102
}
330
3B
100
AcDbScale
 70
     0
300
3/8" = 1'-0"
140
0.375
141
12.0
290
     0
  0
SCALE
  5
56
102
{ACAD_REACTORS
330
3B
102
}
330
3B
100
AcDbScale
 70
     0
300
1/2" = 1'-0"
140
0.5
141
12.0
290
     0
  0
SCALE
  5
57
102
{ACAD_REACTORS
330
3B
102
}
330
3B
100
AcDbScale
 70
     0
300
3/4" = 1'-0"
140
0.75
141
12.0
290
     0
  0
SCALE
  5
58
102
{ACAD_REACTORS
330
3B
102
}
330
3B
100
AcDbScale
 70
     0
300
1" = 1'-0"
140
1.0
141
12.0
290
     0
  0
SCALE
  5
59
102
{ACAD_REACTORS
330
3B
102
}
330
3B
100
AcDbScale
 70
     0
300
1-1/2" = 1'-0"
140
1.5
141
12.0
290
     0
  0
SCALE
  5
5A
102
{ACAD_REACTORS
330
3B
102
}
330
3B
100
AcDbScale
 70
     0
300
3" = 1'-0"
140
3.0
141
12.0
290
     0
  0
SCALE
  5
5B
102
{ACAD_REACTORS
330
3B
102
}
330
3B
100
AcDbScale
 70
     0
300
6" = 1'-0"
140
6.0
141
12.0
290
     0
  0
SCALE
  5
5C
102
{ACAD_REACTORS
330
3B
102
}
330
3B
100
AcDbScale
 70
     0
300
1'-0" = 1'-0"
140
12.0
141
12.0
290
     0
  0
VISUALSTYLE
  5
2F
102
{ACAD_REACTORS
330
2A
102
}
330
2A
100
AcDbVisualStyle
  2
2dWireframe
 70
     4
 71
     0
 72
     2
 73
     0
 90
        0
 40
-0.6
 41
-30.0
 62
     5
 63
     7
 74
     1
 91
        4
 64
     7
 65
   257
 75
     1
175
     1
 42
1.0
 92
        0
 66
   257
 43
1.0
 76
     1
 77
     6
 78
     2
 67
     7
 79
     5
170
     0
171
     0
290
     0
174
     0
 93
        1
 44
0.0
173
     0
291
     0
 45
0.0
1001
ACAD
1000
AcDbSavedByObjectVersion
1070
     0
  0
VISUALSTYLE
  5
31
102
{ACAD_REACTORS
330
2A
102
}
330
2A
100
AcDbVisualStyle
  2
3D Hidden
 70
     6
 71
     1
 72
     2
 73
     2
 90
        0
 40
-0.6
 41
-30.0
 62
     5
 63
     7
 74
     2
 91
        2
 64
     7
 65
   257
 75
     2
175
     1
 42
40.0
 92
        0
 66
   257
 43
1.0
 76
     1
 77
     6
 78
     2
 67
     7
 79
     3
170
     0
171
     0
290
     0
174
     0
 93
        1
 44
0.0
173
     0
291
     0
 45
0.0
1001
ACAD
1000
AcDbSavedByObjectVersion
1070
     0
  0
VISUALSTYLE
  5
30
102
{ACAD_REACTORS
330
2A
102
}
330
2A
100
AcDbVisualStyle
  2
3dWireframe
 70
     5
 71
     0
 72
     2
 73
     0
 90
        0
 40
-0.6
 41
-30.0
 62
     5
 63
     7
 74
     1
 91
        4
 64
     7
 65
   257
 75
     1
175
     1
 42
1.0
 92
        0
 66
   257
 43
1.0
 76
     1
 77
     6
 78
     2
 67
     7
 79
     5
170
     0
171
     0
290
     0
174
     0
 93
        1
 44
0.0
173
     0
291
     0
 45
0.0
1001
ACAD
1000
AcDbSavedByObjectVersion
1070
     0
  0
VISUALSTYLE
  5
32
102
{ACAD_REACTORS
330
2A
102
}
330
2A
100
AcDbVisualStyle
  2
Basic
 70
     7
 71
     1
 72
     0
 73
     1
 90
        0
 40
-0.6
 41
-30.0
 62
     5
 63
     7
 74
     0
 91
        4
 64
     7
 65
   257
 75
     1
175
     1
 42
1.0
 92
        8
 66
     7
 43
1.0
 76
     1
 77
     6
 78
     2
 67
     7
 79
     5
170
     0
171
     0
290
     0
174
     0
 93
        1
 44
0.0
173
     0
291
     1
 45
0.0
1001
ACAD
1000
AcDbSavedByObjectVersion
1070
     0
  0
VISUALSTYLE
  5
36
102
{ACAD_REACTORS
330
2A
102
}
330
2A
100
AcDbVisualStyle
  2
Brighten
 70
    12
 71
     2
 72
     2
 73
     0
 90
        0
 40
-0.6
 41
-30.0
 62
     5
 63
     7
 74
     1
 91
        4
 64
     7
 65
   257
 75
     1
175
     1
 42
1.0
 92
        8
 66
     7
 43
1.0
 76
     1
 77
     6
 78
     2
 67
     7
 79
     5
170
     0
171
     0
290
     0
174
     0
 93
        1
 44
50.0
173
     0
291
     1
 45
0.0
1001
ACAD
1000
AcDbSavedByObjectVersion
1070
     0
  0
VISUALSTYLE
  5
3A
102
{ACAD_REACTORS
330
2A
102
}
330
2A
100
AcDbVisualStyle
  2
ColorChange
 70
    16
 71
     2
 72
     2
 73
     3
 90
        0
 40
-0.6
 41
-30.0
 62
     5
 63
     8
 74
     1
 91
        4
 64
     7
 65
   257
 75
     1
175
     1
 42
1.0
 92
        8
 66
     8
 43
1.0
 76
     1
 77
     6
 78
     2
 67
     7
 79
     5
170
     0
171
     0
290
     0
174
     0
 93
        1
 44
0.0
173
     0
291
     1
 45
0.0
1001
ACAD
1000
AcDbSavedByObjectVersion
1070
     0
  0
VISUALSTYLE
  5
34
102
{ACAD_REACTORS
330
2A
102
}
330
2A
100
AcDbVisualStyle
  2
Conceptual
 70
     9
 71
     3
 72
     2
 73
     0
 90
        0
 40
-0.6
 41
-30.0
 62
     5
 63
     7
 74
     2
 91
        2
 64
     7
 65
   257
 75
     1
175
     1
 42
40.0
 92
        8
 66
     7
 43
1.0
 76
     1
 77
     6
 78
     2
 67
     7
 79
     3
170
     0
171
     0
290
     0
174
     0
 93
        1
 44
0.0
173
     0
291
     0
 45
0.0
1001
ACAD
1000
AcDbSavedByObjectVersion
1070
     0
  0
VISUALSTYLE
  5
35
102
{ACAD_REACTORS
330
2A
102
}
330
2A
100
AcDbVisualStyle
  2
Dim
 70
    11
 71
     2
 72
     2
 73
     0
 90
        0
 40
-0.6
 41
-30.0
 62
     5
 63
     7
 74
     1
 91
        4
 64
     7
 65
   257
 75
     1
175
     1
 42
1.0
 92
        8
 66
     7
 43
1.0
 76
     1
 77
     6
 78
     2
 67
     7
 79
     5
170
     0
171
     0
290
     0
174
     0
 93
        1
 44
-50.0
173
     0
291
     1
 45
0.0
1001
ACAD
1000
AcDbSavedByObjectVersion
1070
     0
  0
VISUALSTYLE
  5
39
102
{ACAD_REACTORS
330
2A
102
}
330
2A
100
AcDbVisualStyle
  2
Facepattern
 70
    15
 71
     2
 72
     2
 73
     0
 90
        0
 40
-0.6
 41
-30.0
 62
     5
 63
     7
 74
     1
 91
        4
 64
     7
 65
   257
 75
     1
175
     1
 42
1.0
 92
        8
 66
     7
 43
1.0
 76
     1
 77
     6
 78
     2
 67
     7
 79
     5
170
     0
171
     0
290
     0
174
     0
 93
        1
 44
0.0
173
     0
291
     1
 45
0.0
1001
ACAD
1000
AcDbSavedByObjectVersion
1070
     0
  0
VISUALSTYLE
  5
2B
102
{ACAD_REACTORS
330
2A
102
}
330
2A
100
AcDbVisualStyle
  2
Flat
 70
     0
 71
     2
 72
     1
 73
     1
 90
        2
 40
-0.6
 41
30.0
 62
     5
 63
     7
 74
     0
 91
        4
 64
     7
 65
   257
 75
     1
175
     1
 42
1.0
 92
        8
 66
     7
 43
1.0
 76
     1
 77
     6
 78
     2
 67
     7
 79
     5
170
     0
171
     0
290
     0
174
     0
 93
       13
 44
0.0
173
     0
291
     1
 45
0.0
1001
ACAD
1000
AcDbSavedByObjectVersion
1070
     0
  0
VISUALSTYLE
  5
2C
102
{ACAD_REACTORS
330
2A
102
}
330
2A
100
AcDbVisualStyle
  2
FlatWithEdges
 70
     1
 71
     2
 72
     1
 73
     1
 90
        2
 40
-0.6
 41
30.0
 62
     5
 63
     7
 74
     1
 91
        4
 64
     7
 65
   257
 75
     1
175
     1
 42
1.0
 92
        0
 66
   257
 43
1.0
 76
     1
 77
     6
 78
     2
 67
     7
 79
     5
170
     0
171
     0
290
     0
174
     0
 93
       13
 44
0.0
173
     0
291
     1
 45
0.0
1001
ACAD
1000
AcDbSavedByObjectVersion
1070
     0
  0
VISUALSTYLE
  5
2D
102
{ACAD_REACTORS
330
2A
102
}
330
2A
100
AcDbVisualStyle
  2
Gouraud
 70
     2
 71
     2
 72
     2
 73
     1
 90
        2
 40
-0.6
 41
30.0
 62
     5
 63
     7
 74
     0
 91
        4
 64
     7
 65
   257
 75
     1
175
     1
 42
1.0
 92
        0
 66
     7
 43
1.0
 76
     1
 77
     6
 78
     2
 67
     7
 79
     5
170
     0
171
     0
290
     0
174
     0
 93
       13
 44
0.0
173
     0
291
     1
 45
0.0
1001
ACAD
1000
AcDbSavedByObjectVersion
1070
     0
  0
VISUALSTYLE
  5
2E
102
{ACAD_REACTORS
330
2A
102
}
330
2A
100
AcDbVisualStyle
  2
GouraudWithEdges
 70
     3
 71
     2
 72
     2
 73
     1
 90
        2
 40
-0.6
 41
30.0
 62
     5
 63
     7
 74
     1
 91
        4
 64
     7
 65
   257
 75
     1
175
     1
 42
1.0
 92
        0
 66
   257
 43
1.0
 76
     1
 77
     6
 78
     2
 67
     7
 79
     5
170
     0
171
     0
290
     0
174
     0
 93
       13
 44
0.0
173
     0
291
     1
 45
0.0
1001
ACAD
1000
AcDbSavedByObjectVersion
1070
     0
  0
VISUALSTYLE
  5
38
102
{ACAD_REACTORS
330
2A
102
}
330
2A
100
AcDbVisualStyle
  2
Linepattern
 70
    14
 71
     2
 72
     2
 73
     0
 90
        0
 40
-0.6
 41
-30.0
 62
     5
 63
     7
 74
     1
 91
        4
 64
     7
 65
   257
 75
     7
175
     7
 42
1.0
 92
        8
 66
     7
 43
1.0
 76
     1
 77
     6
 78
     2
 67
     7
 79
     5
170
     0
171
     0
290
     0
174
     0
 93
        1
 44
0.0
173
     0
291
     1
 45
0.0
1001
ACAD
1000
AcDbSavedByObjectVersion
1070
     0
  0
VISUALSTYLE
  5
33
102
{ACAD_REACTORS
330
2A
102
}
330
2A
100
AcDbVisualStyle
  2
Realistic
 70
     8
 71
     2
 72
     2
 73
     0
 90
        0
 40
-0.6
 41
-30.0
 62
     5
 63
     7
 74
     1
 91
        0
 64
     7
 65
   257
 75
     1
175
     1
 42
1.0
 92
        8
 66
     8
 43
1.0
 76
     1
 77
     6
 78
     2
 67
     7
 79
     5
170
     0
171
     0
290
     0
174
     0
 93
       13
 44
0.0
173
     0
291
     0
 45
0.0
1001
ACAD
1000
AcDbSavedByObjectVersion
1070
     0
  0
VISUALSTYLE
  5
37
102
{ACAD_REACTORS
330
2A
102
}
330
2A
100
AcDbVisualStyle
  2
Thicken
 70
    13
 71
     2
 72
     2
 73
     0
 90
        0
 40
-0.6
 41
-30.0
 62
     5
 63
     7
 74
     1
 91
        4
 64
     7
 65
   257
 75
     1
175
     1
 42
1.0
 92
       12
 66
     7
 43
1.0
 76
     1
 77
     6
 78
     2
 67
     7
 79
     5
170
     0
171
     0
290
     0
174
     0
 93
        1
 44
0.0
173
     0
291
     1
 45
0.0
1001
ACAD
1000
AcDbSavedByObjectVersion
1070
     0
  0
DICTIONARYVAR
  5
1BF
102
{ACAD_REACTORS
330
1BE
102
}
330
1BE
100
DictionaryVariables
280
     0
  1
1:1
  0
DICTIONARYVAR
  5
1C3
102
{ACAD_REACTORS
330
1BE
102
}
330
1BE
100
DictionaryVariables
280
     0
  1
80.000000
  0
DICTIONARYVAR
  5
1C2
102
{ACAD_REACTORS
330
1BE
102
}
330
1BE
100
DictionaryVariables
280
     0
  1
5.000000
  0
ENDSEC
  0
EOF
