  0
SECTION
  2
HEADER
  9
$ACADVER
  1
AC1027
  9
$ACADMAINTVER
 70
    55
  9
$DWGCODEPAGE
  3
ANSI_1252
  9
$LASTSAVEDBY
  1
danica
  9
$REQUIREDVERSIONS
160
                 0
  9
$INSBASE
 10
0.0
 20
0.0
 30
0.0
  9
$EXTMIN
 10
-1.288346200523839
 20
-0.0008275056158027
 30
-0.0000000349181948
  9
$EXTMAX
 10
22.04285000664819
 20
17.56868659359795
 30
0.0000000814935746
  9
$LIMMIN
 10
0.0
 20
0.0
  9
$LIMMAX
 10
12.0
 20
9.0
  9
$ORTHOMODE
 70
     0
  9
$REGENMODE
 70
     1
  9
$FILLMODE
 70
     1
  9
$QTEXTMODE
 70
     0
  9
$MIRRTEXT
 70
     0
  9
$LTSCALE
 40
1.0
  9
$ATTMODE
 70
     1
  9
$TEXTSIZE
 40
0.2
  9
$TRACEWID
 40
0.05
  9
$TEXTSTYLE
  7
Standard
  9
$CLAYER
  8
0
  9
$CELTYPE
  6
ByLayer
  9
$CECOLOR
 62
   256
  9
$CELTSCALE
 40
1.0
  9
$DISPSILH
 70
     0
  9
$DIMSCALE
 40
1.0
  9
$DIMASZ
 40
0.18
  9
$DIMEXO
 40
0.0625
  9
$DIMDLI
 40
0.38
  9
$DIMRND
 40
0.0
  9
$DIMDLE
 40
0.0
  9
$DIMEXE
 40
0.18
  9
$DIMTP
 40
0.0
  9
$DIMTM
 40
0.0
  9
$DIMTXT
 40
0.18
  9
$DIMCEN
 40
0.09
  9
$DIMTSZ
 40
0.0
  9
$DIMTOL
 70
     0
  9
$DIMLIM
 70
     0
  9
$DIMTIH
 70
     1
  9
$DIMTOH
 70
     1
  9
$DIMSE1
 70
     0
  9
$DIMSE2
 70
     0
  9
$DIMTAD
 70
     0
  9
$DIMZIN
 70
     0
  9
$DIMBLK
  1

  9
$DIMASO
 70
     1
  9
$DIMSHO
 70
     1
  9
$DIMPOST
  1

  9
$DIMAPOST
  1

  9
$DIMALT
 70
     0
  9
$DIMALTD
 70
     2
  9
$DIMALTF
 40
25.4
  9
$DIMLFAC
 40
1.0
  9
$DIMTOFL
 70
     0
  9
$DIMTVP
 40
0.0
  9
$DIMTIX
 70
     0
  9
$DIMSOXD
 70
     0
  9
$DIMSAH
 70
     0
  9
$DIMBLK1
  1

  9
$DIMBLK2
  1

  9
$DIMSTYLE
  2
Standard
  9
$DIMCLRD
 70
     0
  9
$DIMCLRE
 70
     0
  9
$DIMCLRT
 70
     0
  9
$DIMTFAC
 40
1.0
  9
$DIMGAP
 40
0.09
  9
$DIMJUST
 70
     0
  9
$DIMSD1
 70
     0
  9
$DIMSD2
 70
     0
  9
$DIMTOLJ
 70
     1
  9
$DIMTZIN
 70
     0
  9
$DIMALTZ
 70
     0
  9
$DIMALTTZ
 70
     0
  9
$DIMUPT
 70
     0
  9
$DIMDEC
 70
     4
  9
$DIMTDEC
 70
     4
  9
$DIMALTU
 70
     4
  9
$DIMALTTD
 70
     2
  9
$DIMTXSTY
  7
Standard
  9
$DIMAUNIT
 70
     0
  9
$DIMADEC
 70
     0
  9
$DIMALTRND
 40
0.0
  9
$DIMAZIN
 70
     0
  9
$DIMDSEP
 70
    46
  9
$DIMATFIT
 70
     3
  9
$DIMFRAC
 70
     0
  9
$DIMLDRBLK
  1

  9
$DIMLUNIT
 70
     4
  9
$DIMLWD
 70
    -2
  9
$DIMLWE
 70
    -2
  9
$DIMTMOVE
 70
     0
  9
$DIMFXL
 40
1.0
  9
$DIMFXLON
 70
     0
  9
$DIMJOGANG
 40
0.7853981633974483
  9
$DIMTFILL
 70
     0
  9
$DIMTFILLCLR
 70
     0
  9
$DIMARCSYM
 70
     0
  9
$DIMLTYPE
  6

  9
$DIMLTEX1
  6

  9
$DIMLTEX2
  6

  9
$DIMTXTDIRECTION
 70
     0
  9
$LUNITS
 70
     4
  9
$LUPREC
 70
     4
  9
$SKETCHINC
 40
0.1
  9
$FILLETRAD
 40
0.0
  9
$AUNITS
 70
     0
  9
$AUPREC
 70
     0
  9
$MENU
  1
.
  9
$ELEVATION
 40
0.0
  9
$PELEVATION
 40
0.0
  9
$THICKNESS
 40
0.0
  9
$LIMCHECK
 70
     0
  9
$CHAMFERA
 40
0.0
  9
$CHAMFERB
 40
0.0
  9
$CHAMFERC
 40
0.0
  9
$CHAMFERD
 40
0.0
  9
$SKPOLY
 70
     0
  9
$TDCREATE
 40
2458528.435745602
  9
$TDUCREATE
 40
2458528.644078935
  9
$TDUPDATE
 40
2458547.707491876
  9
$TDUUPDATE
 40
2458547.915825208
  9
$TDINDWG
 40
0.0051330208
  9
$TDUSRTIMER
 40
0.0051330208
  9
$USRTIMER
 70
     1
  9
$ANGBASE
 50
0.0
  9
$ANGDIR
 70
     0
  9
$PDMODE
 70
     0
  9
$PDSIZE
 40
0.0
  9
$PLINEWID
 40
0.0
  9
$SPLFRAME
 70
     0
  9
$SPLINETYPE
 70
     6
  9
$SPLINESEGS
 70
     8
  9
$HANDSEED
  5
798
  9
$SURFTAB1
 70
     6
  9
$SURFTAB2
 70
     6
  9
$SURFTYPE
 70
     6
  9
$SURFU
 70
     6
  9
$SURFV
 70
     6
  9
$UCSBASE
  2

  9
$UCSNAME
  2

  9
$UCSORG
 10
0.0
 20
0.0
 30
0.0
  9
$UCSXDIR
 10
1.0
 20
0.0
 30
0.0
  9
$UCSYDIR
 10
0.0
 20
1.0
 30
0.0
  9
$UCSORTHOREF
  2

  9
$UCSORTHOVIEW
 70
     0
  9
$UCSORGTOP
 10
0.0
 20
0.0
 30
0.0
  9
$UCSORGBOTTOM
 10
0.0
 20
0.0
 30
0.0
  9
$UCSORGLEFT
 10
0.0
 20
0.0
 30
0.0
  9
$UCSORGRIGHT
 10
0.0
 20
0.0
 30
0.0
  9
$UCSORGFRONT
 10
0.0
 20
0.0
 30
0.0
  9
$UCSORGBACK
 10
0.0
 20
0.0
 30
0.0
  9
$PUCSBASE
  2

  9
$PUCSNAME
  2

  9
$PUCSORG
 10
0.0
 20
0.0
 30
0.0
  9
$PUCSXDIR
 10
1.0
 20
0.0
 30
0.0
  9
$PUCSYDIR
 10
0.0
 20
1.0
 30
0.0
  9
$PUCSORTHOREF
  2

  9
$PUCSORTHOVIEW
 70
     0
  9
$PUCSORGTOP
 10
0.0
 20
0.0
 30
0.0
  9
$PUCSORGBOTTOM
 10
0.0
 20
0.0
 30
0.0
  9
$PUCSORGLEFT
 10
0.0
 20
0.0
 30
0.0
  9
$PUCSORGRIGHT
 10
0.0
 20
0.0
 30
0.0
  9
$PUCSORGFRONT
 10
0.0
 20
0.0
 30
0.0
  9
$PUCSORGBACK
 10
0.0
 20
0.0
 30
0.0
  9
$USERI1
 70
     0
  9
$USERI2
 70
     0
  9
$USERI3
 70
     0
  9
$USERI4
 70
     0
  9
$USERI5
 70
     0
  9
$USERR1
 40
0.0
  9
$USERR2
 40
0.0
  9
$USERR3
 40
0.0
  9
$USERR4
 40
0.0
  9
$USERR5
 40
0.0
  9
$WORLDVIEW
 70
     1
  9
$SHADEDGE
 70
     3
  9
$SHADEDIF
 70
    70
  9
$TILEMODE
 70
     1
  9
$MAXACTVP
 70
    64
  9
$PINSBASE
 10
0.0
 20
0.0
 30
0.0
  9
$PLIMCHECK
 70
     0
  9
$PEXTMIN
 10
1.000000000000000E+20
 20
1.000000000000000E+20
 30
1.000000000000000E+20
  9
$PEXTMAX
 10
-1.000000000000000E+20
 20
-1.000000000000000E+20
 30
-1.000000000000000E+20
  9
$PLIMMIN
 10
0.0
 20
0.0
  9
$PLIMMAX
 10
12.0
 20
9.0
  9
$UNITMODE
 70
     0
  9
$VISRETAIN
 70
     1
  9
$PLINEGEN
 70
     0
  9
$PSLTSCALE
 70
     1
  9
$TREEDEPTH
 70
  3020
  9
$CMLSTYLE
  2
Standard
  9
$CMLJUST
 70
     0
  9
$CMLSCALE
 40
1.0
  9
$PROXYGRAPHICS
 70
     1
  9
$MEASUREMENT
 70
     0
  9
$CELWEIGHT
370
    -1
  9
$ENDCAPS
280
     0
  9
$JOINSTYLE
280
     0
  9
$LWDISPLAY
290
     0
  9
$INSUNITS
 70
     1
  9
$HYPERLINKBASE
  1

  9
$STYLESHEET
  1

  9
$XEDIT
290
     1
  9
$CEPSNTYPE
380
     0
  9
$PSTYLEMODE
290
     1
  9
$FINGERPRINTGUID
  2
{BDF2D9C3-0328-4200-86FA-BF51222B11F2}
  9
$VERSIONGUID
  2
{3DBB1EF5-4ECB-4342-9A49-B6170B465856}
  9
$EXTNAMES
290
     1
  9
$PSVPSCALE
 40
0.0
  9
$OLESTARTUP
290
     0
  9
$SORTENTS
280
   127
  9
$INDEXCTL
280
     0
  9
$HIDETEXT
280
     1
  9
$XCLIPFRAME
280
     2
  9
$HALOGAP
280
     0
  9
$OBSCOLOR
 70
   257
  9
$OBSLTYPE
280
     0
  9
$INTERSECTIONDISPLAY
280
     0
  9
$INTERSECTIONCOLOR
 70
   257
  9
$DIMASSOC
280
     2
  9
$PROJECTNAME
  1

  9
$CAMERADISPLAY
290
     0
  9
$LENSLENGTH
 40
50.0
  9
$CAMERAHEIGHT
 40
0.0
  9
$STEPSPERSEC
 40
2.0
  9
$STEPSIZE
 40
6.0
  9
$3DDWFPREC
 40
2.0
  9
$PSOLWIDTH
 40
0.25
  9
$PSOLHEIGHT
 40
4.0
  9
$LOFTANG1
 40
1.570796326794896
  9
$LOFTANG2
 40
1.570796326794896
  9
$LOFTMAG1
 40
0.0
  9
$LOFTMAG2
 40
0.0
  9
$LOFTPARAM
 70
     7
  9
$LOFTNORMALS
280
     1
  9
$LATITUDE
 40
0.0
  9
$LONGITUDE
 40
0.0
  9
$NORTHDIRECTION
 40
0.0
  9
$TIMEZONE
 70
     0
  9
$LIGHTGLYPHDISPLAY
280
     1
  9
$TILEMODELIGHTSYNCH
280
     1
  9
$CMATERIAL
347
11
  9
$SOLIDHIST
280
     0
  9
$SHOWHIST
280
     1
  9
$DWFFRAME
280
     2
  9
$DGNFRAME
280
     0
  9
$REALWORLDSCALE
290
     1
  9
$INTERFERECOLOR
 62
     1
  9
$INTERFEREOBJVS
345
33
  9
$INTERFEREVPVS
346
30
  9
$CSHADOW
280
     0
  9
$SHADOWPLANELOCATION
 40
0.0
  0
ENDSEC
  0
SECTION
  2
CLASSES
  0
CLASS
  1
ACDBDICTIONARYWDFLT
  2
AcDbDictionaryWithDefault
  3
ObjectDBX Classes
 90
        0
 91
        1
280
     0
281
     0
  0
CLASS
  1
MATERIAL
  2
AcDbMaterial
  3
ObjectDBX Classes
 90
     1153
 91
        3
280
     0
281
     0
  0
CLASS
  1
VISUALSTYLE
  2
AcDbVisualStyle
  3
ObjectDBX Classes
 90
     4095
 91
       24
280
     0
281
     0
  0
CLASS
  1
SCALE
  2
AcDbScale
  3
ObjectDBX Classes
 90
     1153
 91
       17
280
     0
281
     0
  0
CLASS
  1
TABLESTYLE
  2
AcDbTableStyle
  3
ObjectDBX Classes
 90
     4095
 91
        1
280
     0
281
     0
  0
CLASS
  1
MLEADERSTYLE
  2
AcDbMLeaderStyle
  3
ACDB_MLEADERSTYLE_CLASS
 90
     4095
 91
        1
280
     0
281
     0
  0
CLASS
  1
ACDBSECTIONVIEWSTYLE
  2
AcDbSectionViewStyle
  3
ObjectDBX Classes
 90
     1025
 91
        1
280
     0
281
     0
  0
CLASS
  1
ACDBDETAILVIEWSTYLE
  2
AcDbDetailViewStyle
  3
ObjectDBX Classes
 90
     1025
 91
        1
280
     0
281
     0
  0
CLASS
  1
RASTERVARIABLES
  2
AcDbRasterVariables
  3
ISM
 90
        0
 91
        1
280
     0
281
     0
  0
CLASS
  1
DICTIONARYVAR
  2
AcDbDictionaryVar
  3
ObjectDBX Classes
 90
        0
 91
        5
280
     0
281
     0
  0
CLASS
  1
SORTENTSTABLE
  2
AcDbSortentsTable
  3
ObjectDBX Classes
 90
        0
 91
        7
280
     0
281
     0
  0
CLASS
  1
EXACXREFPANELOBJECT
  2
ExAcXREFPanelObject
  3
EXAC_ESW
 90
     1025
 91
        1
280
     0
281
     0
  0
CLASS
  1
NPOCOLLECTION
  2
AcDbImpNonPersistentObjectsCollection
  3
ObjectDBX Classes
 90
     1153
 91
        1
280
     0
281
     0
  0
CLASS
  1
CELLSTYLEMAP
  2
AcDbCellStyleMap
  3
ObjectDBX Classes
 90
     1152
 91
        1
280
     0
281
     0
  0
ENDSEC
  0
SECTION
  2
TABLES
  0
TABLE
  2
VPORT
  5
8
330
0
100
AcDbSymbolTable
 70
     1
  0
VPORT
  5
57
330
8
100
AcDbSymbolTableRecord
100
AcDbViewportTableRecord
  2
*Active
 70
     0
 10
0.0
 20
0.0
 11
1.0
 21
1.0
 12
10.37725190306217
 22
8.783929543991074
 13
0.0
 23
0.0
 14
1.0
 24
1.0
 15
0.0
 25
0.0
 16
0.0
 26
0.0
 36
1.0
 17
0.0
 27
0.0
 37
0.0
 40
17.69760290188117
 41
2.329683698296836
 42
50.0
 43
0.0
 44
0.0
 50
0.0
 51
0.0
 71
     0
 72
  1000
 73
     1
 74
     1
 75
     0
 76
     0
 77
     0
 78
     0
281
     0
 65
     1
110
0.0
120
0.0
130
0.0
111
1.0
121
0.0
131
0.0
112
0.0
122
1.0
132
0.0
 79
     0
146
0.0
348
2F
 60
     3
 61
     5
292
     1
282
     1
141
0.0
142
0.0
 63
   250
421
  3355443
1001
ACAD_NAV_VCDISPLAY
1070
     3
  0
ENDTAB
  0
TABLE
  2
LTYPE
  5
5
330
0
100
AcDbSymbolTable
 70
     2
  0
LTYPE
  5
5B
330
5
100
AcDbSymbolTableRecord
100
AcDbLinetypeTableRecord
  2
ByBlock
 70
     0
  3

 72
    65
 73
     0
 40
0.0
  0
LTYPE
  5
5C
330
5
100
AcDbSymbolTableRecord
100
AcDbLinetypeTableRecord
  2
ByLayer
 70
     0
  3

 72
    65
 73
     0
 40
0.0
  0
LTYPE
  5
5D
330
5
100
AcDbSymbolTableRecord
100
AcDbLinetypeTableRecord
  2
Continuous
 70
     0
  3
Solid line
 72
    65
 73
     0
 40
0.0
  0
ENDTAB
  0
TABLE
  2
LAYER
  5
2
330
0
100
AcDbSymbolTable
 70
     4
  0
LAYER
  5
54
330
2
100
AcDbSymbolTableRecord
100
AcDbLayerTableRecord
  2
0
 70
     0
 62
     7
  6
Continuous
370
    -3
390
F
347
21
348
0
  0
LAYER
  5
8B
330
2
100
AcDbSymbolTableRecord
100
AcDbLayerTableRecord
  2
7052814
 70
     0
 62
     7
  6
Continuous
370
     9
390
F
347
21
348
0
  0
ENDTAB
  0
TABLE
  2
STYLE
  5
3
330
0
100
AcDbSymbolTable
 70
     3
  0
STYLE
  5
55
330
3
100
AcDbSymbolTableRecord
100
AcDbTextStyleTableRecord
  2
Standard
 70
     0
 40
0.0
 41
1.0
 50
0.0
 71
     0
 42
0.2
  3
txt
  4

  0
ENDTAB
  0
TABLE
  2
VIEW
  5
6
330
0
100
AcDbSymbolTable
 70
     0
  0
ENDTAB
  0
TABLE
  2
UCS
  5
7
330
0
100
AcDbSymbolTable
 70
     0
  0
ENDTAB
  0
TABLE
  2
APPID
  5
9
330
0
100
AcDbSymbolTable
 70
     5
  0
APPID
  5
56
330
9
100
AcDbSymbolTableRecord
100
AcDbRegAppTableRecord
  2
ACAD
 70
     0
  0
APPID
  5
5E
330
9
100
AcDbSymbolTableRecord
100
AcDbRegAppTableRecord
  2
AcadAnnotative
 70
     0
  0
APPID
  5
78
330
9
100
AcDbSymbolTableRecord
100
AcDbRegAppTableRecord
  2
REVIT
 70
     0
  0
APPID
  5
23A
330
9
100
AcDbSymbolTableRecord
100
AcDbRegAppTableRecord
  2
ACAD_NAV_VCDISPLAY
 70
     0
  0
APPID
  5
474
330
9
100
AcDbSymbolTableRecord
100
AcDbRegAppTableRecord
  2
ACAD_EXEMPT_FROM_CAD_STANDARDS
 70
     0
  0
ENDTAB
  0
TABLE
  2
DIMSTYLE
  5
A
330
0
100
AcDbSymbolTable
 70
     3
100
AcDbDimStyleTable
 71
     1
340
58
  0
DIMSTYLE
105
58
330
A
100
AcDbSymbolTableRecord
100
AcDbDimStyleTableRecord
  2
Standard
 70
     0
340
55
  0
ENDTAB
  0
TABLE
  2
BLOCK_RECORD
  5
1
330
0
100
AcDbSymbolTable
 70
    18
  0
BLOCK_RECORD
  5
70
102
{ACAD_XDICTIONARY
360
13F
102
}
330
1
100
AcDbSymbolTableRecord
100
AcDbBlockTableRecord
  2
*Model_Space
340
73
 70
     0
280
     1
281
     0
  0
BLOCK_RECORD
  5
6C
330
1
100
AcDbSymbolTableRecord
100
AcDbBlockTableRecord
  2
*Paper_Space
340
6F
 70
     0
280
     1
281
     0
  0
BLOCK_RECORD
  5
74
330
1
100
AcDbSymbolTableRecord
100
AcDbBlockTableRecord
  2
*Paper_Space0
340
77
 70
     0
280
     1
281
     0
  0
BLOCK_RECORD
  5
47C
102
{ACAD_XDICTIONARY
360
6B9
102
}
330
1
100
AcDbSymbolTableRecord
100
AcDbBlockTableRecord
  2
AMSTN_Delancey_7052814_Side View
340
0
310
2800000020000000200000000100080000000000000400000000000000000000000000000000000000000000000080000080000000808000800000008000800080800000C0C0C000C0DCC000F0CAA6000020400000206000002080000020A0000020C0000020E00000400000004020000040400000406000004080000040A0
310
000040C0000040E00000600000006020000060400000606000006080000060A0000060C0000060E00000800000008020000080400000806000008080000080A0000080C0000080E00000A0000000A0200000A0400000A0600000A0800000A0A00000A0C00000A0E00000C0000000C0200000C0400000C0600000C0800000C0
310
A00000C0C00000C0E00000E0000000E0200000E0400000E0600000E0800000E0A00000E0C00000E0E00040000000400020004000400040006000400080004000A0004000C0004000E00040200000402020004020400040206000402080004020A0004020C0004020E000404000004040200040404000404060004040800040
310
40A0004040C0004040E00040600000406020004060400040606000406080004060A0004060C0004060E00040800000408020004080400040806000408080004080A0004080C0004080E00040A0000040A0200040A0400040A0600040A0800040A0A00040A0C00040A0E00040C0000040C0200040C0400040C0600040C08000
310
40C0A00040C0C00040C0E00040E0000040E0200040E0400040E0600040E0800040E0A00040E0C00040E0E00080000000800020008000400080006000800080008000A0008000C0008000E00080200000802020008020400080206000802080008020A0008020C0008020E00080400000804020008040400080406000804080
310
008040A0008040C0008040E00080600000806020008060400080606000806080008060A0008060C0008060E00080800000808020008080400080806000808080008080A0008080C0008080E00080A0000080A0200080A0400080A0600080A0800080A0A00080A0C00080A0E00080C0000080C0200080C0400080C0600080C0
310
800080C0A00080C0C00080C0E00080E0000080E0200080E0400080E0600080E0800080E0A00080E0C00080E0E000C0000000C0002000C0004000C0006000C0008000C000A000C000C000C000E000C0200000C0202000C0204000C0206000C0208000C020A000C020C000C020E000C0400000C0402000C0404000C0406000C0
310
408000C040A000C040C000C040E000C0600000C0602000C0604000C0606000C0608000C060A000C060C000C060E000C0800000C0802000C0804000C0806000C0808000C080A000C080C000C080E000C0A00000C0A02000C0A04000C0A06000C0A08000C0A0A000C0A0C000C0A0E000C0C00000C0C02000C0C04000C0C06000
310
C0C08000C0C0A000F0FBFF00A4A0A000808080000000FF0000FF000000FFFF00FF000000FF00FF00FFFF0000FFFFFF0049494949494949494949494949494949494949494949494949494949494949494949495D5D5D5D5D5D5D5D5D5D494949494949494949494949494949494949494949495D5D5D5D5D5D5D5D5D5D4949
310
4949494949494949494949494949494949494949495D4949494949495D5D49494949494949494949494949494949494949494949495D5D49494949495D494949494949494949494949494949494949494949494949495D494949495D5D494949494949494949494949494949494949494949494949495D494949495DFD4949
310
49494949494949494949494949494949494949494949FDFD5D4949495DFD494949494949494949494949494949494949494949494949FD495D4949495DFDFD4949494949494949494949494949494949494949494949FD495D4949495DFD494949494949494949494949494949494949494949494949FD495D4949495DFD49
310
4949494949494949494949494949494949494949494949FD495D4949495DFD494949494949494949494949494949494949494949494949FD495D49495D49FD49494949494949494949494949494949494949494949494949FD5D4949495DFD49494949494949494949494949494949494949494949494949FD495D5D5D49FD
310
49494949494949494949494949494949494949494949494949FD5D5D5D5D49FD49494949494949494949494949494949494949494949494949FD5D5D5D5D49FD49494949494949494949494949494949494949494949494949FD5D5D5D5D49FD49494949494949494949494949494949494949494949494949FD495D5D5D49
310
FD4949494949494949494949494949494949494949494949494949FD49494949FD4949494949494949494949494949494949494949494949494949FD49494949FD49494949494949494949FDFDFDFD49494949494949494949494949FD49494949FD494949494949494949FDFD49FDFDFDFD49494949494949494949FD4949
310
4949FD49494949494949494949FDFDFDFDFDFD4949494949494949494949FD49494949FD4949494949494949FD49494949FD494949494949494949494949FD4949494949FD494949494949FDFD494949FD4949494949494949494949494949FD4949494949FDFD494949FDFD49494949FD4949494949494949494949494949
310
FDFD494949494949FDFDFD4949494949FD4949494949494949494949494949494949FDFD494949494949494949494949FD49494949494949494949494949494949494949FD49494949494949494949FD494949494949494949494949494949494949494949FDFD4949494949FDFDFD49494949494949494949494949494949
310
4949494949494949FDFDFDFDFD49494949494949494949494949494949494949494949494949494949494949494949494949494949494949
102
{BLKREFS
331
4E8
102
}
 70
     1
280
     1
281
     0
  0
BLOCK_RECORD
  5
4E9
330
1
100
AcDbSymbolTableRecord
100
AcDbBlockTableRecord
  2
AMSTN_Delancey_7052814_Front View
340
0
310
2800000020000000200000000100080000000000000400000000000000000000000000000000000000000000000080000080000000808000800000008000800080800000C0C0C000C0DCC000F0CAA6000020400000206000002080000020A0000020C0000020E00000400000004020000040400000406000004080000040A0
310
000040C0000040E00000600000006020000060400000606000006080000060A0000060C0000060E00000800000008020000080400000806000008080000080A0000080C0000080E00000A0000000A0200000A0400000A0600000A0800000A0A00000A0C00000A0E00000C0000000C0200000C0400000C0600000C0800000C0
310
A00000C0C00000C0E00000E0000000E0200000E0400000E0600000E0800000E0A00000E0C00000E0E00040000000400020004000400040006000400080004000A0004000C0004000E00040200000402020004020400040206000402080004020A0004020C0004020E000404000004040200040404000404060004040800040
310
40A0004040C0004040E00040600000406020004060400040606000406080004060A0004060C0004060E00040800000408020004080400040806000408080004080A0004080C0004080E00040A0000040A0200040A0400040A0600040A0800040A0A00040A0C00040A0E00040C0000040C0200040C0400040C0600040C08000
310
40C0A00040C0C00040C0E00040E0000040E0200040E0400040E0600040E0800040E0A00040E0C00040E0E00080000000800020008000400080006000800080008000A0008000C0008000E00080200000802020008020400080206000802080008020A0008020C0008020E00080400000804020008040400080406000804080
310
008040A0008040C0008040E00080600000806020008060400080606000806080008060A0008060C0008060E00080800000808020008080400080806000808080008080A0008080C0008080E00080A0000080A0200080A0400080A0600080A0800080A0A00080A0C00080A0E00080C0000080C0200080C0400080C0600080C0
310
800080C0A00080C0C00080C0E00080E0000080E0200080E0400080E0600080E0800080E0A00080E0C00080E0E000C0000000C0002000C0004000C0006000C0008000C000A000C000C000C000E000C0200000C0202000C0204000C0206000C0208000C020A000C020C000C020E000C0400000C0402000C0404000C0406000C0
310
408000C040A000C040C000C040E000C0600000C0602000C0604000C0606000C0608000C060A000C060C000C060E000C0800000C0802000C0804000C0806000C0808000C080A000C080C000C080E000C0A00000C0A02000C0A04000C0A06000C0A08000C0A0A000C0A0C000C0A0E000C0C00000C0C02000C0C04000C0C06000
310
C0C08000C0C0A000F0FBFF00A4A0A000808080000000FF0000FF000000FFFF00FF000000FF00FF00FFFF0000FFFFFF0049494949494949494949494949494949494949494949494949494949494949494949494949494949494949494949494949494949494949494949494949494949494949494949494949494949494949
310
49494949494949494949494949494949494949494949494949494949494949494949494949494949494949494949494949494949494949494949494949494949494949494949494949494949494949494949494949494949494949494949494949494949494949494949494949494949494949494949494949494949494949
310
494949494949494949494949494949494949494949494949494949494949494949494949494949494949494949494949494949494949495D5D5D5D5D5D4949FDFDFDFDFDFD49495D5D5D5D5D5D49494949494949494949495D49495D5D4949FDFD4949FDFD49495D5D49495D4949494949494949494949495D49495D494949
310
49FD4949FD494949495D49495D4949494949494949494949495D5D495D494949FDFDFDFDFDFD4949495D495D5D494949494949494949494949495D495D49494949FD4949FD494949495D495D49494949494949494949494949495D495D49494949FD4949FD494949495D495D49494949494949494949494949495D5D5D4949
310
4949FD4949FD494949495D5D5D4949494949494949495D5D5D5D5D5D5D4949494949FD4949FD49494949495D5D5D5D5D5D5D4949495D5D495D5D5D5D5D4949494949FD4949FD49494949495D5D5D5D5D495D5D4949495D5D49494949494949494949FD4949FD494949494949494949495D5D49494949494949494949494949
310
494949FDFDFDFD49494949494949494949494949494949494949494949494949494949FDFFFFFD49494949494949494949494949494949494949494949494949494949FD4949FD49494949494949494949494949494949494949494949494949494949FD4949FD494949494949494949494949494949494949494949494949
310
49494949FDFDFDFD4949494949494949494949494949494949494949494949494949494949FDFD49494949494949494949494949494949494949494949494949494949494949494949494949494949494949494949494949494949494949494949494949494949494949494949494949494949494949494949494949494949
310
49494949494949494949494949494949494949494949494949494949494949494949494949494949494949494949494949494949494949494949494949494949494949494949494949494949494949494949494949494949494949494949494949494949494949494949494949494949494949494949494949494949494949
310
4949494949494949494949494949494949494949494949494949494949494949494949494949494949494949494949494949494949494949
102
{BLKREFS
331
5A4
102
}
 70
     1
280
     1
281
     0
  0
BLOCK_RECORD
  5
5A5
330
1
100
AcDbSymbolTableRecord
100
AcDbBlockTableRecord
  2
AMSTN_Delancey_7052814_Plan View
340
0
310
2800000020000000200000000100080000000000000400000000000000000000000000000000000000000000000080000080000000808000800000008000800080800000C0C0C000C0DCC000F0CAA6000020400000206000002080000020A0000020C0000020E00000400000004020000040400000406000004080000040A0
310
000040C0000040E00000600000006020000060400000606000006080000060A0000060C0000060E00000800000008020000080400000806000008080000080A0000080C0000080E00000A0000000A0200000A0400000A0600000A0800000A0A00000A0C00000A0E00000C0000000C0200000C0400000C0600000C0800000C0
310
A00000C0C00000C0E00000E0000000E0200000E0400000E0600000E0800000E0A00000E0C00000E0E00040000000400020004000400040006000400080004000A0004000C0004000E00040200000402020004020400040206000402080004020A0004020C0004020E000404000004040200040404000404060004040800040
310
40A0004040C0004040E00040600000406020004060400040606000406080004060A0004060C0004060E00040800000408020004080400040806000408080004080A0004080C0004080E00040A0000040A0200040A0400040A0600040A0800040A0A00040A0C00040A0E00040C0000040C0200040C0400040C0600040C08000
310
40C0A00040C0C00040C0E00040E0000040E0200040E0400040E0600040E0800040E0A00040E0C00040E0E00080000000800020008000400080006000800080008000A0008000C0008000E00080200000802020008020400080206000802080008020A0008020C0008020E00080400000804020008040400080406000804080
310
008040A0008040C0008040E00080600000806020008060400080606000806080008060A0008060C0008060E00080800000808020008080400080806000808080008080A0008080C0008080E00080A0000080A0200080A0400080A0600080A0800080A0A00080A0C00080A0E00080C0000080C0200080C0400080C0600080C0
310
800080C0A00080C0C00080C0E00080E0000080E0200080E0400080E0600080E0800080E0A00080E0C00080E0E000C0000000C0002000C0004000C0006000C0008000C000A000C000C000C000E000C0200000C0202000C0204000C0206000C0208000C020A000C020C000C020E000C0400000C0402000C0404000C0406000C0
310
408000C040A000C040C000C040E000C0600000C0602000C0604000C0606000C0608000C060A000C060C000C060E000C0800000C0802000C0804000C0806000C0808000C080A000C080C000C080E000C0A00000C0A02000C0A04000C0A06000C0A08000C0A0A000C0A0C000C0A0E000C0C00000C0C02000C0C04000C0C06000
310
C0C08000C0C0A000F0FBFF00A4A0A000808080000000FF0000FF000000FFFF00FF000000FF00FF00FFFF0000FFFFFF0049494949494949494949494949494949494949494949494949494949494949494949494949494949494949494949494949494949494949494949494949494949494949494949494949494949494949
310
49494949494949494949494949494949494949494949494949494949494949494949494949494949494949494949494949494949494949494949494949494949494949494949494949494949494949494949494949494949494949494949494949494949494949494949494949494949494949494949494949494949494949
310
494949494949494949494949494949494949494949494949494949494949494949494949494949494949494949494949494949494949494949494949494949494949494949494949494949494949494949494949494949494949494949494949FDFDFDFD494949494949494949494949494949494949494949494949494949
310
49FDFDFDFD49494949494949494949494949494949494949494949494949494949FD4949FD49494949494949494949494949494949494949494949494949494949FD4949FD49494949494949494949494949494949494949494949494949494949FD4949FD4949494949494949494949494949494949494949494949494949
310
4949FD4949FD49494949494949494949494949494949494949494949494949494949FD4949FD49494949494949494949494949494949494949494949494949494949FD4949FD4949494949494949494949494949494949494949495D5D5D49494949FD4949FD494949495D5D5D494949494949494949494949495D5D5D5D5D
310
4949FDFD4949FDFD49495D5D5D5D5D494949494949495D5D5D5D5D5D5D5D5D5D4949FDFD4949FDFD49495D5D5D5D5D5D5D5D5D5D49495D5D5D5D5D5D5D5D5D5D4949FDFD4949FDFD49495D5D5D5D5D5D5D5D5D5D4949495D49495D5D5D5D5D5D4949FDFDFDFDFDFD49495D5D5D5D5D5D49495D49494949494949495D5D5D5D
310
49494949FDFDFDFD494949495D5D5D5D494949494949494949494949494949494949494949494949494949494949494949494949494949494949494949494949494949494949494949494949494949494949494949494949494949494949494949494949494949494949494949494949494949494949494949494949494949
310
49494949494949494949494949494949494949494949494949494949494949494949494949494949494949494949494949494949494949494949494949494949494949494949494949494949494949494949494949494949494949494949494949494949494949494949494949494949494949494949494949494949494949
310
4949494949494949494949494949494949494949494949494949494949494949494949494949494949494949494949494949494949494949
102
{BLKREFS
331
5E3
102
}
 70
     1
280
     1
281
     0
  0
ENDTAB
  0
ENDSEC
  0
SECTION
  2
BLOCKS
  0
BLOCK
  5
71
330
70
100
AcDbEntity
  8
0
100
AcDbBlockBegin
  2
*Model_Space
 70
     0
 10
0.0
 20
0.0
 30
0.0
  3
*Model_Space
  1

  0
ENDBLK
  5
72
330
70
100
AcDbEntity
  8
0
100
AcDbBlockEnd
  0
BLOCK
  5
6D
330
6C
100
AcDbEntity
 67
     1
  8
0
100
AcDbBlockBegin
  2
*Paper_Space
 70
     0
 10
0.0
 20
0.0
 30
0.0
  3
*Paper_Space
  1

  0
ENDBLK
  5
6E
330
6C
100
AcDbEntity
 67
     1
  8
0
100
AcDbBlockEnd
  0
BLOCK
  5
75
330
74
100
AcDbEntity
 67
     1
  8
0
100
AcDbBlockBegin
  2
*Paper_Space0
 70
     0
 10
0.0
 20
0.0
 30
0.0
  3
*Paper_Space0
  1

  0
ENDBLK
  5
76
330
74
100
AcDbEntity
 67
     1
  8
0
100
AcDbBlockEnd
  0
BLOCK
  5
47D
330
47C
100
AcDbEntity
  8
0
100
AcDbBlockBegin
  2
AMSTN_Delancey_7052814_Side View
 70
     0
 10
0.0
 20
0.0
 30
0.0
  3
AMSTN_Delancey_7052814_Side View
  1

  0
LWPOLYLINE
  5
47F
330
47C
100
AcDbEntity
  8
7052814
100
AcDbPolyline
 90
       22
 70
   128
 43
0.0
 10
-1.286680389757491
 20
0.0909997752255323
 10
-1.286480925947885
 20
0.0929877600911779
 10
-1.286202123496901
 20
0.0949661783560307
 10
-1.285844428428988
 20
0.0969318649729063
 10
-1.285408412979947
 20
0.0988816752625437
 10
-1.284894774681488
 20
0.1008124899444156
 10
-1.284304335245317
 20
0.1027212201269183
 10
-1.283638039248578
 20
0.1046048122489291
 10
-1.282896952622729
 20
0.1064602529648684
 10
-1.282082260948283
 20
0.108284573965395
 10
-1.281195267558127
 20
0.1100748567260789
 10
-1.280237391452471
 20
0.1118282371764047
 10
-1.279210165028746
 20
0.1135419102816906
 10
-1.278115231630101
 20
0.1152131345305291
 10
-1.2769543429164
 20
0.1168392363206343
 10
-1.275729356061944
 20
0.118417614236022
 10
-1.274442230784381
 20
0.1199457432087323
 10
-1.273095026209585
 20
0.1214211785583896
 10
-1.271689897577485
 20
0.1228415599031827
 10
-1.27022909279415
 20
0.124204614935953
 10
-1.268714948835611
 20
0.1255081630594206
 10
-1.26721840270122
 20
0.1266978541360122
1001
REVIT
1002
{
1070
     2
1000
-2001160
1002
}
  0
LWPOLYLINE
  5
480
330
47C
100
AcDbEntity
  8
7052814
100
AcDbPolyline
 90
       22
 70
   128
 43
0.0
 10
1.267218402701889
 20
0.1266978541359762
 10
1.268781318691754
 20
0.1254532002700355
 10
1.270293211636137
 20
0.124147042024608
 10
1.271751662828848
 20
0.1227814689742525
 10
1.273154339059098
 20
0.1213586657445429
 10
1.274498996344137
 20
0.1198809085171328
 10
1.27578348351916
 20
0.1183505613883491
 10
1.277005745678693
 20
0.1167700725871379
 10
1.278163827464015
 20
0.1151419705584313
 10
1.279255876191315
 20
0.113468859918163
 10
1.280280144815589
 20
0.1117534172864478
 10
1.281234994725534
 20
0.1099983870055538
 10
1.282118898364985
 20
0.1082065767495437
 10
1.282930441676677
 20
0.1063808530325967
 10
1.283668326364431
 20
0.1045241366231919
 10
1.284331371970152
 20
0.1026393978715045
 10
1.284918517762314
 20
0.1007296519574816
 10
1.2854288244329
 20
0.0987979540671966
 10
1.285861475600096
 20
0.0968473945051991
 10
1.286215779114332
 20
0.0948810937506921
 10
1.286491168165563
 20
0.0929021974654254
 10
1.286687202190053
 20
0.0909138714613156
1001
REVIT
1002
{
1070
     2
1000
-2001160
1002
}
  0
LWPOLYLINE
  5
481
330
47C
100
AcDbEntity
  8
7052814
100
AcDbPolyline
 90
       16
 70
   128
 43
0.0
 10
-1.26721840270122
 20
0.1266978541360122
 10
-1.253126052474282
 20
0.1379205291255156
 10
-1.239493761925044
 20
0.1496977708747477
 10
-1.226343339810318
 20
0.1620107383092572
 10
-1.213695824000217
 20
0.1748397333077727
 10
-1.201571447822039
 20
0.1881642322150027
 10
-1.18998960769128
 20
0.201962918675107
 10
-1.178968832081483
 20
0.2162137177333081
 10
-1.168526751882651
 20
0.2308938311511221
 10
-1.158680072195579
 20
0.2459797738786724
 10
-1.149444545607253
 20
0.2614474116257579
 10
-1.140834946990074
 20
0.2772719994715688
 10
-1.132865049865211
 20
0.2934282214512822
 10
-1.125547604367913
 20
0.3098902310562112
 10
-1.118894316849999
 20
0.3266316925826941
 10
-1.113091337730513
 20
0.3430942508910073
1001
REVIT
1002
{
1070
     2
1000
-2001160
1002
}
  0
LWPOLYLINE
  5
482
330
47C
100
AcDbEntity
  8
7052814
100
AcDbPolyline
 90
       16
 70
   128
 43
0.0
 10
1.113091337731186
 20
0.343094250890978
 10
1.119090940267684
 20
0.326107563802473
 10
1.125765030068782
 20
0.3093743843626399
 10
1.133102930014528
 20
0.292921482089032
 10
1.141092901030345
 20
0.2767751781155176
 10
1.149722160867044
 20
0.2609613030840942
 10
1.158976904549694
 20
0.2455051558213661
 10
1.168842326462647
 20
0.2304314628658166
 10
1.17930264403535
 20
0.2157643389106267
 10
1.190341122991105
 20
0.2015272482253052
 10
1.20194010411833
 20
0.1877429671178623
 10
1.21408103152154
 20
0.174433547497582
 10
1.226744482306818
 20
0.1616202815966656
 10
1.239910197654294
 20
0.1493236679072009
 10
1.253557115227954
 20
0.1375633783879566
 10
1.267218402701888
 20
0.1266978541359762
1001
REVIT
1002
{
1070
     2
1000
-2001160
1002
}
  0
LWPOLYLINE
  5
483
330
47C
100
AcDbEntity
  8
7052814
100
AcDbPolyline
 90
       11
 70
   128
 43
0.0
 10
-1.113091337730513
 20
0.3430942508910073
 10
-1.105951424553993
 20
0.3633095018565182
 10
-1.098008828119938
 20
0.3832230624033527
 10
-1.089276254888313
 20
0.4028030750826401
 10
-1.079767675113438
 20
0.4220182160509398
 10
-1.069498300494563
 20
0.4408377451817102
 10
-1.058484559840398
 20
0.4592315552429653
 10
-1.046744072786513
 20
0.4771702200624088
 10
-1.034295621607693
 20
0.4946250416030406
 10
-1.021159121170296
 20
0.5115680958738919
 10
-1.007479469943391
 20
0.5278308434729721
1001
REVIT
1002
{
1070
     2
1000
-2001160
1002
}
  0
LWPOLYLINE
  5
484
330
47C
100
AcDbEntity
  8
7052814
100
AcDbPolyline
 90
       11
 70
   128
 43
0.0
 10
1.00747946994407
 20
0.5278308434729455
 10
1.021277249091897
 20
0.511421820883084
 10
1.034407805600066
 20
0.4944741597597173
 10
1.046850133379204
 20
0.477014972745331
 10
1.058584327359083
 20
0.4590721908147248
 10
1.069591615332499
 20
0.4406745185913956
 10
1.079854387986789
 20
0.4218513884262744
 10
1.089356227074983
 20
0.4026329133122366
 10
1.098081931681487
 20
0.3830498387097462
 10
1.106017542540317
 20
0.3631334933606615
 10
1.113091337731186
 20
0.343094250890978
1001
REVIT
1002
{
1070
     2
1000
-2001160
1002
}
  0
LWPOLYLINE
  5
485
330
47C
100
AcDbEntity
  8
7052814
100
AcDbPolyline
 90
       19
 70
   128
 43
0.0
 10
-1.007479469943391
 20
0.5278308434729721
 10
-1.005846828779845
 20
0.5297724636023248
 10
-1.004293137651306
 20
0.5317778188757626
 10
-1.002820882132145
 20
0.5338437011526391
 10
-1.001432417517127
 20
0.5359668054620052
 10
-1.000129965053447
 20
0.5381437352898723
 10
-0.9989156083872051
 20
0.540371008012904
 10
-0.9977912902300166
 20
0.5426450604698676
 10
-0.9967588092510929
 20
0.5449622546619394
 10
-0.9958198171997485
 20
0.5473188835727178
 10
-0.9949758162629585
 20
0.549711177098668
 10
-0.9942281566621787
 20
0.5521353080804791
 10
-0.9935780344932755
 20
0.5545873984256948
 10
-0.9930264898130362
 20
0.5570635253128539
 10
-0.9925744049752921
 20
0.5595597274671457
 10
-0.9922225032193438
 20
0.5620720114976189
 10
-0.9919713475129329
 20
0.5645963582857476
 10
-0.991821339651611
 20
0.5671287294151743
 10
-0.9917726976105999
 20
0.5696122403439609
1001
REVIT
1002
{
1070
     2
1000
-2001160
1002
}
  0
LWPOLYLINE
  5
486
330
47C
100
AcDbEntity
  8
7052814
100
AcDbPolyline
 90
       19
 70
   128
 43
0.0
 10
0.9917726976112794
 20
0.5696122403439316
 10
0.9918234304325579
 20
0.5670759375078233
 10
0.9919755477347033
 20
0.5645436922152029
 10
0.9922288061624792
 20
0.562019555518356
 10
0.9925828005564303
 20
0.5595075654975447
 10
0.9930369646010397
 20
0.5570117408009367
 10
0.993590571730717
 20
0.5545360742156355
 10
0.994242736292154
 20
0.5520845262800651
 10
0.9949924149611717
 20
0.5496610189479471
 10
0.9958384084118238
 20
0.5472694293140296
 10
0.9967793632350597
 20
0.5449135834115481
 10
0.9978137741038846
 20
0.5425972500913913
 10
0.998939986181575
 20
0.5403241349927507
 10
1.000156197769048
 20
0.5380978746148747
 10
1.001460463187211
 20
0.5359220304994569
 10
1.002850695889626
 20
0.533800083532931
 10
1.004324671800531
 20
0.5317354283777842
 10
1.005880032872902
 20
0.5297313680418263
 10
1.00747946994407
 20
0.5278308434729455
1001
REVIT
1002
{
1070
     2
1000
-2001160
1002
}
  0
LINE
  5
487
330
47C
100
AcDbEntity
  8
7052814
100
AcDbLine
 10
0.9917726976113046
 20
0.5696122403439316
 30
0.0
 11
0.991772697611306
 21
0.6713114365847312
 31
0.0
1001
REVIT
1002
{
1070
     2
1000
-2001160
1002
}
  0
LINE
  5
488
330
47C
100
AcDbEntity
  8
7052814
100
AcDbLine
 10
-0.9917726976106225
 20
0.6713114365847578
 30
0.0
 11
-0.9917726976106251
 21
0.5696122403439609
 31
0.0
1001
REVIT
1002
{
1070
     2
1000
-2001160
1002
}
  0
LWPOLYLINE
  5
489
330
47C
100
AcDbEntity
  8
7052814
100
AcDbPolyline
 90
       25
 70
   128
 43
0.0
 10
-0.9917726976106026
 20
0.6713114365847578
 10
-0.9917402118067116
 20
0.6729355102014937
 10
-0.9916428063653949
 20
0.6745569856468929
 10
-0.9914806371145814
 20
0.676173268906139
 10
-0.991253963490476
 20
0.6777817742708074
 10
-0.9909631481225263
 20
0.679379928475444
 10
-0.9906086562532795
 20
0.6809651748142404
 10
-0.990191054994108
 20
0.6825349772312248
 10
-0.9897110124179423
 20
0.6840868243774029
 10
-0.9891692964904999
 20
0.6856182336283822
 10
-0.9885667738417062
 20
0.6871267550560462
 10
-0.9879044083792665
 20
0.6886099753479117
 10
-0.9871832597466248
 20
0.6900655216679112
 10
-0.9864044816277573
 20
0.6914910654524386
 10
-0.9855693199015227
 20
0.6928843261355353
 10
-0.984679110648522
 20
0.6942430747973218
 10
-0.9837352780136637
 20
0.69556513772979
 10
-0.9827393319278202
 20
0.6968483999142729
 10
-0.9816928656922717
 20
0.6980908084050239
 10
-0.9805975534297614
 20
0.6992903756134891
 10
-0.9794551474062561
 20
0.7004451824880324
 10
-0.9782674752276932
 20
0.7015533815839978
 10
-0.9770364369162004
 20
0.7026132000192322
 10
-0.9757640018704696
 20
0.7036229423103286
 10
-0.9751858714141377
 20
0.7040551043801666
1001
REVIT
1002
{
1070
     2
1000
-2001160
1002
}
  0
LWPOLYLINE
  5
48A
330
47C
100
AcDbEntity
  8
7052814
100
AcDbPolyline
 90
       25
 70
   128
 43
0.0
 10
0.9751858714148212
 20
0.7040551043801399
 10
0.9764760507766871
 20
0.7030681354575052
 10
0.9777257299025972
 20
0.7020303625910759
 10
0.9789329095725317
 20
0.7009434459960588
 10
0.9800956585565383
 20
0.6998091245071393
 10
0.9812121167042835
 20
0.6986292127967272
 10
0.9822804979208939
 20
0.6974055984718585
 10
0.9832990930243322
 20
0.6961402390544271
 10
0.9842662724797234
 20
0.6948351588495738
 10
0.9851804890062572
 20
0.6934924457072222
 10
0.986040280052514
 20
0.6921142476819706
 10
0.9868442701362345
 20
0.6907027695966605
 10
0.9875911730447908
 20
0.6892602695151293
 10
0.9882797938928627
 20
0.6877890551297887
 10
0.9889090310339868
 20
0.6862914800698129
 10
0.9894778778229731
 20
0.6847699401358333
 10
0.9899854242263014
 20
0.6832268694671679
 10
0.9904308582780009
 20
0.6816647366477113
 10
0.9908134673786083
 20
0.680086040756743
 10
0.9911326394351819
 20
0.6784933073709149
 10
0.9913878638405146
 20
0.676889084523879
 10
0.9915787322900094
 20
0.6752759386299738
 10
0.9917049394348577
 20
0.673656450378512
 10
0.9917662833705527
 20
0.6720332106052238
 10
0.9917726976112847
 20
0.6713114365847299
1001
REVIT
1002
{
1070
     2
1000
-2001160
1002
}
  0
LWPOLYLINE
  5
48B
330
47C
100
AcDbEntity
  8
7052814
100
AcDbPolyline
 90
       15
 70
   128
 43
0.0
 10
-0.9751858714141391
 20
0.7040551043801679
 10
-0.9584894141626961
 20
0.716827657493583
 10
-0.942317078191062
 20
0.7302576741356001
 10
-0.9266947357868783
 20
0.7443236691445123
 10
-0.9116473793654023
 20
0.7590031399288879
 10
-0.8971990814869766
 20
0.7742726024669277
 10
-0.8833729563460702
 20
0.7901076288758792
 10
-0.8701911227934887
 20
0.806482886491452
 10
-0.8576746689509436
 20
0.8233721783946576
 10
-0.8458436184745469
 20
0.8407484853213111
 10
-0.8347168985212414
 20
0.8585840088870767
 10
-0.8243123094693761
 20
0.8768502160589582
 10
-0.8146464964419067
 20
0.8955178848020612
 10
-0.805734922677748
 20
0.9145571508286252
 10
-0.7935170464479036
 20
0.943635514980726
1001
REVIT
1002
{
1070
     2
1000
-2001160
1002
}
  0
LWPOLYLINE
  5
48C
330
47C
100
AcDbEntity
  8
7052814
100
AcDbPolyline
 90
        3
 70
   128
 43
0.0
 10
-0.7935170464479037
 20
0.9436355149807257
 10
-0.7836620351469383
 20
0.9735972658238869
 10
-0.7800561198781874
 20
0.985724483973262
1001
REVIT
1002
{
1070
     2
1000
-2001160
1002
}
  0
LWPOLYLINE
  5
48D
330
47C
100
AcDbEntity
  8
7052814
100
AcDbPolyline
 90
        3
 70
   128
 43
0.0
 10
0.780067192225248
 20
0.9855577308108852
 10
0.7872558327794036
 20
0.9623399850562698
 10
0.7942713841181894
 20
0.9425235313573971
1001
REVIT
1002
{
1070
     2
1000
-2001160
1002
}
  0
LWPOLYLINE
  5
48E
330
47C
100
AcDbEntity
  8
7052814
100
AcDbPolyline
 90
       16
 70
   128
 43
0.0
 10
0.7942713841181898
 20
0.942523531357396
 10
0.8020737705535026
 20
0.9230034759349393
 10
0.8106505099315345
 20
0.903811046713351
 10
0.8199878812988602
 20
0.8849769474852784
 10
0.8300709468531607
 20
0.8665313087917562
 10
0.8408835758404901
 20
0.8485036397198365
 10
0.8524084703610371
 20
0.8309227806943358
 10
0.8646271930420839
 20
0.8138168573393105
 10
0.8775201965338611
 20
0.7972132354830629
 10
0.8910668547811434
 20
0.7811384773786418
 10
0.9052454960205336
 20
0.7656182992099189
 10
0.9200334374506667
 20
0.7506775299511683
 10
0.9354070215198463
 20
0.7363400716460088
 10
0.9513416537730824
 20
0.7226288611692348
 10
0.9678118421979794
 20
0.7095658335327064
 10
0.9751858714148225
 20
0.7040551043801399
1001
REVIT
1002
{
1070
     2
1000
-2001160
1002
}
  0
LWPOLYLINE
  5
48F
330
47C
100
AcDbEntity
  8
7052814
100
AcDbPolyline
 90
       25
 70
   128
 43
0.0
 10
-0.773200192054598
 20
1.023792043197153
 10
-0.7728319003899724
 20
1.027453185902752
 10
-0.7722797097219977
 20
1.036605947700893
 10
-0.7720939735979355
 20
1.045773470002995
 10
-0.772274989155965
 20
1.054941086729008
 10
-0.772822466809806
 20
1.064094131647824
 10
-0.7737355307120026
 20
1.073217961840118
 10
-0.7750127201550878
 20
1.082297981123896
 10
-0.7766519919084049
 20
1.091319663405273
 10
-0.7786507234868409
 20
1.100268575917119
 10
-0.7810057173462436
 20
1.109130402308416
 10
-0.7837132059988114
 20
1.11789096554736
 10
-0.7867688580402649
 20
1.126536250601588
 10
-0.7901677850791766
 20
1.135052426859245
 10
-0.7939045495573506
 20
1.143425870255005
 10
-0.7979731734487529
 20
1.151643185065672
 10
-0.8023671478230886
 20
1.159691225340485
 10
-0.8070794432586851
 20
1.167557115931827
 10
-0.8121025210880839
 20
1.175228273092719
 10
-0.817428345458293
 20
1.182692424608132
 10
-0.8230483961864315
 20
1.189937629427905
 10
-0.8289536823902155
 20
1.196952296769889
 10
-0.835134756871448
 20
1.20372520466272
 10
-0.841581731229516
 20
1.21024551789858
 10
-0.8422594262669237
 20
1.210901339666284
1001
REVIT
1002
{
1070
     2
1000
-2001160
1002
}
  0
LWPOLYLINE
  5
490
330
47C
100
AcDbEntity
  8
7052814
100
AcDbPolyline
 90
       24
 70
   128
 43
0.0
 10
0.8422594262676204
 20
1.210901339666262
 10
0.8357856839499715
 20
1.204407602416266
 10
0.8295768001646889
 20
1.197660178818462
 10
0.8236427078013418
 20
1.190669863311236
 10
0.8179929001418376
 20
1.183447838908209
 10
0.8126364156732032
 20
1.176005659307809
 10
0.8075818236279326
 20
1.168355230409819
 10
0.8028372102750445
 20
1.160508791268468
 10
0.7984101659837707
 20
1.152478894512569
 10
0.7943077730805949
 20
1.144278386263973
 10
0.7905365945190272
 20
1.135920385586531
 10
0.7871026633802968
 20
1.127418263498385
 10
0.7840114732216862
 20
1.118785621581182
 10
0.7812679692880357
 20
1.110036270220461
 10
0.7788765406003865
 20
1.101184206511969
 10
0.7768410129344962
 20
1.0922435918693
 10
0.7751646427004077
 20
1.083228729368653
 10
0.7738501117328873
 20
1.074154040866959
 10
0.7728995230010644
 20
1.065034043929996
 10
0.7723143972441297
 20
1.05588332860736
 10
0.7720956705384742
 20
1.046716534091526
 10
0.7722436928001701
 20
1.037548325298235
 10
0.7727582272251689
 20
1.02839336940578
 10
0.7732039662044766
 20
1.02377149173322
1001
REVIT
1002
{
1070
     2
1000
-2001160
1002
}
  0
LINE
  5
491
330
47C
100
AcDbEntity
  8
7052814
100
AcDbLine
 10
0.7807793496882187
 20
0.9833279407626504
 30
0.0
 11
0.7810383399227798
 21
0.9824211349327621
 31
0.0
1001
REVIT
1002
{
1070
     2
1000
-2001160
1002
}
  0
LWPOLYLINE
  5
492
330
47C
100
AcDbEntity
  8
7052814
100
AcDbPolyline
 90
       49
 70
   128
 43
0.0
 10
-0.842259426266921
 20
1.210901339666284
 10
-0.84447183702254
 20
1.213120583718814
 10
-0.8465937319934754
 20
1.215426525445874
 10
-0.8486217166004175
 20
1.217815475832607
 10
-0.8505525465006121
 20
1.220283613068011
 10
-0.852383132778104
 20
1.222826988659017
 10
-0.8541105468853567
 20
1.225441533747236
 10
-0.8557320253282915
 20
1.228123065618269
 10
-0.8572449740872983
 20
1.230867294393152
 10
-0.8586469727671065
 20
1.233669829891249
 10
-0.8599357784689066
 20
1.236526188653603
 10
-0.8611093293785046
 20
1.23943180111552
 10
-0.8621657480647913
 20
1.242382018916892
 10
-0.8631033444832263
 20
1.245372122338583
 10
-0.8639206186795476
 20
1.248397327852974
 10
-0.8646162631893851
 20
1.251452795776583
 10
-0.8651891651299193
 20
1.25453363801253
 10
-0.8656384079802579
 20
1.257634925870451
 10
-0.8659632730476729
 20
1.260751697951346
 10
-0.8661632406173586
 20
1.263878968084761
 10
-0.8662379907838605
 20
1.267011733305596
 10
-0.8661874039628576
 20
1.270144981857788
 10
-0.8660115610824718
 20
1.273273701212043
 10
-0.8657107434538023
 20
1.276392886084818
 10
-0.8652854323208821
 20
1.279497546445709
 10
-0.8647363080907965
 20
1.282582715500428
 10
-0.8640642492451741
 20
1.285643457636626
 10
-0.863270330934802
 20
1.288674876319804
 10
-0.8623558232596163
 20
1.29167212192674
 10
-0.8613221892368136
 20
1.294630399503841
 10
-0.8601710824603342
 20
1.297544976438048
 10
-0.8589043444554611
 20
1.300411190028009
 10
-0.8575240017327832
 20
1.303224454943409
 10
-0.856032262546196
 20
1.305980270560512
 10
-0.854431513360179
 20
1.308674228162208
 10
-0.8527243150319543
 20
1.311302017991015
 10
-0.8509133987146645
 20
1.31385943614377
 10
-0.8490016614881094
 20
1.316342391296984
 10
-0.8469921617240355
 20
1.31874691125208
 10
-0.8448881141933938
 20
1.321069149290066
 10
-0.8426928849233958
 20
1.323305390325468
 10
-0.8404099858125814
 20
1.325452056849667
 10
-0.8380430690125358
 20
1.327505714654156
 10
-0.8355959210852244
 20
1.329463078324535
 10
-0.833072456945301
 20
1.331321016496484
 10
-0.8304767135970763
 20
1.333076556865266
 10
-0.8278128436761818
 20
1.334726890940786
 10
-0.8250851088062274
 20
1.336269378540574
 10
-0.8228439058756324
 20
1.337432013627924
1001
REVIT
1002
{
1070
     2
1000
-2001160
1002
}
  0
LWPOLYLINE
  5
493
330
47C
100
AcDbEntity
  8
7052814
100
AcDbPolyline
 90
       49
 70
   128
 43
0.0
 10
0.8228439058763331
 20
1.337432013627902
 10
0.8256199264726287
 20
1.335978220257023
 10
0.8283355903195939
 20
1.334414578550443
 10
0.8309865529343845
 20
1.332743590001334
 10
0.8335685733423238
 20
1.330967927834916
 10
0.8360775208615644
 20
1.329090432731866
 10
0.8385093817112853
 20
1.327114108283842
 10
0.8408602654328978
 20
1.325042116188362
 10
0.8431264111139421
 20
1.322877771190782
 10
0.8453041934047494
 20
1.320624535781394
 10
0.8473901283182197
 20
1.318286014656188
 10
0.8493808788034694
 20
1.315865948950106
 10
0.8512732600843916
 20
1.313368210252027
 10
0.8530642447546247
 20
1.310796794411043
 10
0.8547509676207514
 20
1.308155815143961
 10
0.8563307302860007
 20
1.305449497454231
 10
0.8578010054671068
 20
1.302682170872836
 10
0.8591594410374232
 20
1.299858262531978
 10
0.8604038637898211
 20
1.296982290082598
 10
0.861532282913356
 20
1.29405885446711
 10
0.862542893178152
 20
1.291092632558863
 10
0.8634340778233678
 20
1.288088369680152
 10
0.8642044111436788
 20
1.285050872010707
 10
0.8648526607701064
 20
1.281984998898833
 10
0.8653777896415293
 20
1.278895655087493
 10
0.8657789576637776
 20
1.275787782867759
 10
0.8660555230535912
 20
1.272666354172205
 10
0.8662070433653473
 20
1.269536362620874
 10
0.8662332761988674
 20
1.266402815532555
 10
0.8661341795872148
 20
1.263270725914133
 10
0.8659099120638268
 20
1.260145104440854
 10
0.8655608324089019
 20
1.257030951440311
 10
0.8650874990754216
 20
1.25393324889299
 10
0.8644906692957439
 20
1.250856952462156
 10
0.8637712978702037
 20
1.247806983565858
 10
0.8629305356396235
 20
1.244788221503704
 10
0.8619697276442147
 20
1.241805495651027
 10
0.8608904109718114
 20
1.238863577732909
 10
0.8596943122988504
 20
1.235967174190443
 10
0.8583833451280503
 20
1.233120918651431
 10
0.8569596067272295
 20
1.230329364517567
 10
0.8554253747741102
 20
1.227596977679964
 10
0.8537831037125352
 20
1.224928129374686
 10
0.8520354208258703
 20
1.222327089189698
 10
0.8501851220339164
 20
1.219798018234433
 10
0.8482351674200277
 20
1.217344962482917
 10
0.8461886764956217
 20
1.21497184630106
 10
0.844048923209613
 20
1.212682466168516
 10
0.8422594262676192
 20
1.210901339666262
1001
REVIT
1002
{
1070
     2
1000
-2001160
1002
}
  0
LWPOLYLINE
  5
494
330
47C
100
AcDbEntity
  8
7052814
100
AcDbPolyline
 90
       30
 70
   128
 43
0.0
 10
-0.8228439058756324
 20
1.337432013627924
 10
-0.8218271501313523
 20
1.337964485455694
 10
-0.820832500877087
 20
1.33853719074804
 10
-0.81986154933946
 20
1.339149213298665
 10
-0.8189158488338062
 20
1.339799574002045
 10
-0.8179969122791986
 20
1.340487232419791
 10
-0.8171062097780929
 20
1.341211088445128
 10
-0.816245166264485
 20
1.341969984062832
 10
-0.8154151592243177
 20
1.342762705201798
 10
-0.8146175164917965
 20
1.343587983677312
 10
-0.8138535141251374
 20
1.344444499219864
 10
-0.8131243743651491
 20
1.345330881587299
 10
-0.8124312636799071
 20
1.346245712756912
 10
-0.8117752908986521
 20
1.347187529193987
 10
-0.8111575054378999
 20
1.348154824193134
 10
-0.8105788956225994
 20
1.349146050288702
 10
-0.8100403871050268
 20
1.350159621730384
 10
-0.8095428413839343
 20
1.351193917020095
 10
-0.8090870544263383
 20
1.352247281506003
 10
-0.8086737553941402
 20
1.353318030029644
 10
-0.8083036054776265
 20
1.35440444962179
 10
-0.8079771968377031
 20
1.355504802242851
 10
-0.8076950516585641
 20
1.356617327563365
 10
-0.8074576213123071
 20
1.35774024578014
 10
-0.8072652856368367
 20
1.358871760463578
 10
-0.807118352328206
 20
1.36001006143156
 10
-0.8070170564483632
 20
1.361153327645362
 10
-0.8069615600491085
 20
1.362299730122924
 10
-0.8069519519128405
 20
1.363447434864837
 10
-0.8069671356876993
 20
1.36410494844778
1001
REVIT
1002
{
1070
     2
1000
-2001160
1002
}
  0
LWPOLYLINE
  5
495
330
47C
100
AcDbEntity
  8
7052814
100
AcDbPolyline
 90
       30
 70
   128
 43
0.0
 10
0.8069671356884015
 20
1.364104948447757
 10
0.8069504381488664
 20
1.362957324954155
 10
0.8069796466649895
 20
1.361809951713453
 10
0.8070547145093755
 20
1.360664664278076
 10
0.8071755215894842
 20
1.359523294863606
 10
0.8073418746397605
 20
1.358387669417625
 10
0.8075535075308096
 20
1.357259604698597
 10
0.8078100816951534
 20
1.356140905369427
 10
0.8081111866688587
 20
1.3550333611104
 10
0.8084563407482042
 20
1.353938743756069
 10
0.8088449917602881
 20
1.352858804460692
 10
0.8092765179464016
 20
1.351795270896768
 10
0.8097502289566985
 20
1.350749844491124
 10
0.8102653669546169
 20
1.349724197702998
 10
0.8108211078292509
 20
1.348719971348457
 10
0.8114165625137495
 20
1.347738771975444
 10
0.8120507784076449
 20
1.346782169293646
 10
0.8127227409007973
 20
1.345851693663288
 10
0.8134313749965629
 20
1.344948833646889
 10
0.8141755470315519
 20
1.344075033627875
 10
0.8149540664892629
 20
1.343231691499874
 10
0.8157656879046356
 20
1.342420156430391
 10
0.8166091128565419
 20
1.341641726702415
 10
0.8174829920449793
 20
1.340897647637457
 10
0.8183859274496633
 20
1.340189109603292
 10
0.8193164745665665
 20
1.339517246109627
 10
0.8202731447188032
 20
1.338883131994732
 10
0.8212544074382121
 20
1.338287781705916
 10
0.8222586929137637
 20
1.337732147676641
 10
0.8228439058763331
 20
1.337432013627902
1001
REVIT
1002
{
1070
     2
1000
-2001160
1002
}
  0
LWPOLYLINE
  5
496
330
47C
100
AcDbEntity
  8
7052814
100
AcDbPolyline
 90
       22
 70
   128
 43
0.0
 10
-0.8069671356877007
 20
1.36410494844778
 10
-0.8078718021681952
 20
1.380673079246433
 10
-0.8094382935313525
 20
1.397191780297405
 10
-0.8116641037251598
 20
1.413634625202816
 10
-0.8145456719281195
 20
1.429975308918436
 10
-0.818078388245812
 20
1.446187689836146
 10
-0.8222566010857303
 20
1.462245831604937
 10
-0.8270736261986385
 20
1.478124044623532
 10
-0.8325217573719315
 20
1.493796927138272
 10
-0.8385922787579403
 20
1.509239405880502
 10
-0.8452754788174202
 20
1.524426776178458
 10
-0.8525606658559492
 20
1.53933474147946
 10
-0.8604361851283586
 20
1.553939452219223
 10
-0.868889437483831
 20
1.568217543976069
 10
-0.8779068995218642
 20
1.582146174849019
 10
-0.8874741452268176
 20
1.595703061999958
 10
-0.8975758690464695
 20
1.608866517301425
 10
-0.908195910377627
 20
1.621615482032992
 10
-0.9193172794196463
 20
1.633929560570726
 10
-0.9309221843544939
 20
1.645789053015824
 10
-0.9429920598098558
 20
1.657174986710271
 10
-0.9472225706238919
 20
1.660956442728637
1001
REVIT
1002
{
1070
     2
1000
-2001160
1002
}
  0
LWPOLYLINE
  5
497
330
47C
100
AcDbEntity
  8
7052814
100
AcDbPolyline
 90
       22
 70
   128
 43
0.0
 10
0.9472225706246021
 20
1.660956442728612
 10
0.9349980933033881
 20
1.64973665958341
 10
0.923232065917851
 20
1.638037002359155
 10
0.9119433116018583
 20
1.625876188011613
 10
0.9011498899541731
 20
1.613273671249572
 10
0.8908690681469581
 20
1.600249613411458
 10
0.8811172933019818
 20
1.586824850211494
 10
0.8719101661787286
 20
1.573020858407002
 10
0.8632624162165093
 20
1.558859721440175
 10
0.8551878779705134
 20
1.54436409410928
 10
0.8476994689794542
 20
1.529557166325811
 10
0.8408091691002795
 20
1.514462626015578
 10
0.8345280013429409
 20
1.499104621223079
 10
0.8288660142359407
 20
1.483507721479784
 10
0.8238322657508229
 20
1.467696878498121
 10
0.8194348088113535
 20
1.45169738625406
 10
0.8156806784105635
 20
1.435534840522149
 10
0.8125758803562559
 20
1.419235097927734
 10
0.8101253816629933
 20
1.402824234581871
 10
0.8083331026059438
 20
1.386328504365119
 10
0.8072019104492616
 20
1.36977429692692
 10
0.8069671356884027
 20
1.364104948447757
1001
REVIT
1002
{
1070
     2
1000
-2001160
1002
}
  0
LWPOLYLINE
  5
498
330
47C
100
AcDbEntity
  8
7052814
100
AcDbPolyline
 90
       11
 70
   128
 43
0.0
 10
-0.9472225706238919
 20
1.660956442728637
 10
-0.950846445683886
 20
1.664024744498747
 10
-0.9545901213752284
 20
1.666945675603883
 10
-0.9584476086154214
 20
1.669714563177377
 10
-0.9624127362477675
 20
1.672326977589776
 10
-0.9664791609139038
 20
1.674778739535306
 10
-0.9706403772018216
 20
1.677065926717866
 10
-0.9748897280531386
 20
1.679184880125875
 10
-0.9792204154129734
 20
1.681132209885896
 10
-0.9836255111053809
 20
1.682904800685725
 10
-0.987781673547089
 20
1.684393602958232
1001
REVIT
1002
{
1070
     2
1000
-2001160
1002
}
  0
LWPOLYLINE
  5
499
330
47C
100
AcDbEntity
  8
7052814
100
AcDbPolyline
 90
       11
 70
   128
 43
0.0
 10
0.9877816735478004
 20
1.684393602958205
 10
0.983313717157125
 20
1.682786023444173
 10
0.9789136206894262
 20
1.681001059221046
 10
0.9745884233604121
 20
1.679041565850813
 10
0.9703450445631503
 20
1.676910678104861
 10
0.966190272798509
 20
1.674611804949018
 10
0.9621307548150104
 20
1.672148624089935
 10
0.9581729849754434
 20
1.669525076091536
 10
0.9543232948672692
 20
1.666745358070957
 10
0.9505878431734403
 20
1.663813916984056
 10
0.9472225706246021
 20
1.660956442728612
1001
REVIT
1002
{
1070
     2
1000
-2001160
1002
}
  0
LWPOLYLINE
  5
49A
330
47C
100
AcDbEntity
  8
7052814
100
AcDbPolyline
 90
       60
 70
   128
 43
0.0
 10
-0.987781673547089
 20
1.684393602958232
 10
-0.9909945945934575
 20
1.68554961828218
 10
-0.9941587173625684
 20
1.686833191490608
 10
-0.9972689799329675
 20
1.688242269140198
 10
-1.000320406548029
 20
1.6897745970073
 10
-1.003308115576106
 20
1.691427723694201
 10
-1.006227327320096
 20
1.693199004550853
 10
-1.009073371663943
 20
1.695085605905741
 10
-1.01184169554382
 20
1.697084509599146
 10
-1.014527870232062
 20
1.69919251781157
 10
-1.017127598422187
 20
1.701406258179558
 10
-1.019636721103674
 20
1.703722189190761
 10
-1.02205122421548
 20
1.706136605849599
 10
-1.024367245067694
 20
1.708645645604469
 10
-1.02658107852101
 20
1.711245294526993
 10
-1.028689182914163
 20
1.713931393733457
 10
-1.030688185729827
 20
1.716699646038136
 10
-1.03257488898993
 20
1.719545622827873
 10
-1.034346274371731
 20
1.722464771146911
 10
-1.035999508036492
 20
1.72545242098066
 10
-1.037531945163024
 20
1.728503792726717
 10
-1.038941134178824
 20
1.73161400484121
 10
-1.040224820682081
 20
1.734778081648236
 10
-1.041380951048224
 20
1.73799096129987
 10
-1.0424076757153
 20
1.741247503874044
 10
-1.04330335214286
 20
1.744542499597337
 10
-1.044066547439689
 20
1.747870677179482
 10
-1.044696040656121
 20
1.751226712246324
 10
-1.04519082473729
 20
1.754605235857671
 10
-1.04555010813422
 20
1.758000843096455
 10
-1.045773316070113
 20
1.761408101715456
 10
-1.045860091459889
 20
1.764821560827724
 10
-1.045810295481437
 20
1.768235759626847
 10
-1.045624007797698
 20
1.771645236123069
 10
-1.045301526429228
 20
1.77504453588131
 10
-1.044843367277424
 20
1.778428220747108
 10
-1.044250263299192
 20
1.781790877546485
 10
-1.043523163334377
 20
1.785127126745895
 10
-1.042663230587816
 20
1.788431631058315
 10
-1.04167184076846
 20
1.791699103981764
 10
-1.040550579888535
 20
1.794924318256591
 10
-1.039301241726259
 20
1.798102114227965
 10
-1.037925824956183
 20
1.801227408100226
 10
-1.036426529951728
 20
1.804295200069872
 10
-1.034805755265074
 20
1.807300582324178
 10
-1.033066093789968
 20
1.810238746892651
 10
-1.031210328613664
 20
1.813104993338757
 10
-1.029241428564569
 20
1.815894736279618
 10
-1.027162543462751
 20
1.818603512721636
 10
-1.024976999080903
 20
1.821226989200352
 10
-1.022688291823809
 20
1.823760968713041
 10
-1.02030008313485
 20
1.826201397433037
 10
-1.017816193638473
 20
1.828544371194986
 10
-1.015240597028
 20
1.830786141740675
 10
-1.012577413708578
 20
1.832923122715451
 10
-1.009830904205404
 20
1.83495189540562
 10
-1.00700546234779
 20
1.836869214207658
 10
-1.004105608239981
 20
1.838672011820489
 10
-1.001135981029949
 20
1.840357404152507
 10
-0.999569894533819
 20
1.841184385253137
1001
REVIT
1002
{
1070
     2
1000
-2001160
1002
}
  0
LWPOLYLINE
  5
49B
330
47C
100
AcDbEntity
  8
7052814
100
AcDbPolyline
 90
       60
 70
   128
 43
0.0
 10
0.9995698945345331
 20
1.84118438525311
 10
1.002573844870323
 20
1.839560958180676
 10
1.00551047259852
 20
1.837818703702886
 10
1.008375079741209
 20
1.835960409055244
 10
1.011163083538042
 20
1.833989047112768
 10
1.013870023777692
 20
1.831907771634036
 10
1.016491569933217
 20
1.829719912215828
 10
1.019023528090009
 20
1.827428968966497
 10
1.021461847655136
 20
1.825038606906531
 10
1.023802627837441
 20
1.822552650105313
 10
1.026042123887974
 20
1.819975075563412
 10
1.028176753090786
 20
1.817310006850245
 10
1.030203100494515
 20
1.814561707507233
 10
1.032117924375581
 20
1.811734574227054
 10
1.033918161424248
 20
1.808833129819865
 10
1.035600931645268
 20
1.805862015977777
 10
1.037163542965261
 20
1.802825985849133
 10
1.038603495539451
 20
1.799729896434487
 10
1.039918485750894
 20
1.796578700816438
 10
1.041106409895769
 20
1.793377440235758
 10
1.042165367548852
 20
1.790131236026473
 10
1.043093664603803
 20
1.786845281422835
 10
1.043889815983354
 20
1.783524833251241
 10
1.044552548015135
 20
1.780175203520443
 10
1.045080800469274
 20
1.776801750923459
 10
1.045473728254529
 20
1.773409872264813
 10
1.045730702770264
 20
1.770004993826798
 10
1.045851312912074
 20
1.766592562688578
 10
1.04583536572946
 20
1.763178038012027
 10
1.045682886734511
 20
1.759766882308238
 10
1.045394119861095
 20
1.756364552698659
 10
1.044969527074604
 20
1.752976492184876
 10
1.044409787632927
 20
1.749608120940961
 10
1.043715796999763
 20
1.746264827642358
 10
1.042888665412081
 20
1.742951960845148
 10
1.041929716103976
 20
1.739674820429497
 10
1.04084048318978
 20
1.736438649120986
 10
1.039622709209794
 20
1.733248624103363
 10
1.038278342342609
 20
1.730109848736151
 10
1.036809533288432
 20
1.727027344390368
 10
1.035218631828416
 20
1.724006042415404
 10
1.033508183065527
 20
1.721050776249908
 10
1.031680923352907
 20
1.718166273689319
 10
1.029739775916303
 20
1.715357149322411
 10
1.027687846177524
 20
1.712627897148919
 10
1.025528416786428
 20
1.709982883390112
 10
1.023264942369389
 20
1.707426339503767
 10
1.020901044002625
 20
1.704962355414732
 10
1.018440503419254
 20
1.702594872971929
 10
1.015887256959318
 20
1.700327679642231
 10
1.013245389272492
 20
1.698164402451323
 10
1.010519126783504
 20
1.696108502181236
 10
1.00771283093077
 20
1.694163267833833
 10
1.004830991189004
 20
1.69233181136911
 10
1.001878217887035
 20
1.690617062726718
 10
0.9988592348322557
 20
1.689021765138692
 10
0.995778871753539
 20
1.687548470740864
 10
0.9926420565746999
 20
1.686199536489983
 10
0.9894538075308737
 20
1.68497712039309
 10
0.9877816735478004
 20
1.684393602958205
1001
REVIT
1002
{
1070
     2
1000
-2001160
1002
}
  0
LWPOLYLINE
  5
49C
330
47C
100
AcDbEntity
  8
7052814
100
AcDbPolyline
 90
        6
 70
   128
 43
0.0
 10
4.819305889377347
 20
5.254918263884952
 10
4.653913314220608
 20
5.214128371085196
 10
4.487021874828459
 20
5.17998504480892
 10
4.318898561902312
 20
5.152542907094647
 10
4.149812336878458
 20
5.131845859508707
 10
4.05313681999653
 20
5.123082213489304
1001
REVIT
1002
{
1070
     2
1000
-2001160
1002
}
  0
LWPOLYLINE
  5
49D
330
47C
100
AcDbEntity
  8
7052814
100
AcDbPolyline
 90
        6
 70
   128
 43
0.0
 10
5.548745792252803
 20
5.523829429798118
 10
5.393523321456759
 20
5.453654620702804
 10
5.235618768188774
 20
5.389743187227793
 10
5.075284746049572
 20
5.332197374032929
 10
4.912777755271808
 20
5.281109242143542
 10
4.81930588937731
 20
5.254918263884942
1001
REVIT
1002
{
1070
     2
1000
-2001160
1002
}
  0
LWPOLYLINE
  5
49E
330
47C
100
AcDbEntity
  8
7052814
100
AcDbPolyline
 90
       43
 70
   128
 43
0.0
 10
4.053136819996507
 20
5.123082213489307
 10
4.050238073821894
 20
5.126948612515469
 10
4.047496261057795
 20
5.130927837764303
 10
4.044915768019742
 20
5.135013523324266
 10
4.04250072294612
 20
5.139199132970029
 10
4.040254989393867
 20
5.143477970619042
 10
4.038182160057597
 20
5.147843191043837
 10
4.036285551022074
 20
5.152287810822929
 10
4.034568196457164
 20
5.15680471951281
 10
4.03303284376382
 20
5.161386691023128
 10
4.031681949178828
 20
5.166026395176905
 10
4.030517673845352
 20
5.170716409437244
 10
4.029541880355555
 20
5.175449230781813
 10
4.028756129770862
 20
5.180217287706074
 10
4.028161679124595
 20
5.18501295233608
 10
4.027759479410978
 20
5.189828552631442
 10
4.027550174063751
 20
5.194656384658963
 10
4.027534097926823
 20
5.19948872491728
 10
4.027711276718584
 20
5.204317842692825
 10
4.028081426990761
 20
5.209136012427314
 10
4.028643956581884
 20
5.213935526076991
 10
4.029397965564601
 20
5.218708705443861
 10
4.030342247685392
 20
5.223447914459161
 10
4.031475292294298
 20
5.228145571399441
 10
4.032795286761645
 20
5.232794161015712
 10
4.034300119377873
 20
5.237386246556233
 10
4.035987382731808
 20
5.241914481663734
 10
4.037854377562015
 20
5.246371622128013
 10
4.039898117075035
 20
5.250750537475134
 10
4.042115331723625
 20
5.255044222374659
 10
4.044502474437325
 20
5.259245807846688
 10
4.047055726297023
 20
5.263348572250755
 10
4.049771002644408
 20
5.267345952039024
 10
4.052643959616556
 20
5.271231552256561
 10
4.055670001095171
 20
5.274999156771904
 10
4.058844286059413
 20
5.278642738221539
 10
4.062161736330479
 20
5.282156467652405
 10
4.065617044695624
 20
5.285534723846967
 10
4.069204683398558
 20
5.288772102315969
 10
4.072918912982672
 20
5.291863423944464
 10
4.076753791472963
 20
5.294803743277297
 10
4.080703183881913
 20
5.297588356430766
 10
4.084321572522452
 20
5.299939733538923
1001
REVIT
1002
{
1070
     2
1000
-2001160
1002
}
  0
LWPOLYLINE
  5
49F
330
47C
100
AcDbEntity
  8
7052814
100
AcDbPolyline
 90
       43
 70
   128
 43
0.0
 10
5.433310244329812
 20
5.661400158748441
 10
5.438135355943352
 20
5.661135453759395
 10
5.442946022605982
 20
5.660678007505305
 10
5.447734548277267
 20
5.660028551802593
 10
5.452493272337627
 20
5.659188125641843
 10
5.457214581843708
 20
5.658158073525627
 10
5.46189092370746
 20
5.656940043317602
 10
5.466514816779464
 20
5.655535983606266
 10
5.471078863817186
 20
5.65394814058764
 10
5.475575763318976
 20
5.652179054471835
 10
5.479998321204916
 20
5.650231555419249
 10
5.484339462325822
 20
5.648108759012921
 10
5.488592241781959
 20
5.645814061274264
 10
5.492749856033409
 20
5.64335113323015
 10
5.496805653784279
 20
5.640723915040052
 10
5.500753146623358
 20
5.637936609692633
 10
5.504586019404187
 20
5.634993676281853
 10
5.508298140347961
 20
5.631899822873377
 10
5.511883570853044
 20
5.628659998972674
 10
5.515336574995474
 20
5.625279387606858
 10
5.518651628705228
 20
5.621763397032955
 10
5.521823428603547
 20
5.618117652085847
 10
5.524846900487204
 20
5.614347985179731
 10
5.527717207446159
 20
5.610460426977502
 10
5.530429757601577
 20
5.606461196742986
 10
5.532980211451859
 20
5.602356692391433
 10
5.535364488814907
 20
5.598153480254225
 10
5.537578775355565
 20
5.593858284574142
 10
5.539619528687719
 20
5.589477976748013
 10
5.541483484041376
 20
5.585019564333947
 10
5.543167659485593
 20
5.580490179840727
 10
5.544669360698933
 20
5.575897069317324
 10
5.545986185279798
 20
5.571247580760767
 10
5.547116026589767
 20
5.566549152360905
 10
5.548057077123766
 20
5.561809300600903
 10
5.548807831401682
 20
5.557035608232461
 10
5.549367088376826
 20
5.552235712145034
 10
5.549733953357343
 20
5.547417291148443
 10
5.549907839437517
 20
5.542588053688403
 10
5.549888468436722
 20
5.537755725514669
 10
5.549675871344421
 20
5.532928037321478
 10
5.54927038827061
 20
5.528112712380087
 10
5.548745792252821
 20
5.523829429798131
1001
REVIT
1002
{
1070
     2
1000
-2001160
1002
}
  0
LWPOLYLINE
  5
4A0
330
47C
100
AcDbEntity
  8
7052814
100
AcDbPolyline
 90
       63
 70
   128
 43
0.0
 10
4.084321572522454
 20
5.299939733538922
 10
4.085648742478161
 20
5.30080622865101
 10
4.086940200276853
 20
5.301725103302312
 10
4.088193879861548
 20
5.302694887489399
 10
4.089407775612346
 20
5.303714029764451
 10
4.090579945555001
 20
5.304780899717231
 10
4.091708514467646
 20
5.305893790583405
 10
4.092791676880779
 20
5.307050921974987
 10
4.093827699965594
 20
5.308250442728592
 10
4.094814926306168
 20
5.309490433866902
 10
4.095751776550947
 20
5.31076891166861
 10
4.096636751939395
 20
5.312083830841963
 10
4.097468436699671
 20
5.313433087796783
 10
4.098245500313577
 20
5.314814524009768
 10
4.098966699645096
 20
5.316225929477669
 10
4.099630880929147
 20
5.31766504625282
 10
4.100236981617356
 20
5.319129572055379
 10
4.100784032077919
 20
5.320617163956474
 10
4.101271157146795
 20
5.322125442126401
 10
4.10169757752779
 20
5.323651993641836
 10
4.10206261103926
 20
5.325194376346003
 10
4.102365673705453
 20
5.326750122755596
 10
4.102606280690755
 20
5.328316744008238
 10
4.10278404707532
 20
5.329891733844117
 10
4.102898688470848
 20
5.331472572615479
 10
4.102950021475564
 20
5.333056731317514
 10
4.102937963967612
 20
5.334641675634235
 10
4.102862535236431
 20
5.336224869992839
 10
4.102723855951901
 20
5.337803781620084
 10
4.102522147971295
 20
5.339375884594181
 10
4.102257733984349
 20
5.340938663885736
 10
4.101931036997044
 20
5.342489619381258
 10
4.101542579654862
 20
5.344026269882807
 10
4.101092983406687
 20
5.345546157077381
 10
4.100582967510604
 20
5.347046849469696
 10
4.100013347883254
 20
5.348525946272054
 10
4.099385035794526
 20
5.349981081245092
 10
4.098699036409727
 20
5.351409926483269
 10
4.097956447181536
 20
5.352810196139007
 10
4.097158456094309
 20
5.354179650079567
 10
4.096306339763554
 20
5.355516097470775
 10
4.095401461393627
 20
5.356817400281901
 10
4.094445268596889
 20
5.358081476706042
 10
4.093439291077836
 20
5.359306304490575
 10
4.092385138185903
 20
5.36048992417233
 10
4.091284496340845
 20
5.361630442212307
 10
4.090139126334819
 20
5.362726034024936
 10
4.088950860515505
 20
5.363774946897036
 10
4.087721599854728
 20
5.364775502791765
 10
4.086453310907322
 20
5.365726101033131
 10
4.085148022665045
 20
5.366625220866733
 10
4.083807823310636
 20
5.36747142389264
 10
4.082434856877175
 20
5.368263356366522
 10
4.081031319818064
 20
5.368999751365358
 10
4.079599457493199
 20
5.369679430814239
 10
4.078141560576844
 20
5.370301307371041
 10
4.076659961393073
 20
5.370864386165926
 10
4.075157030184517
 20
5.371367766392945
 10
4.073635171320503
 20
5.371810642751114
 10
4.072096819450567
 20
5.372192306732737
 10
4.070544435609534
 20
5.37251214775686
 10
4.068980503280398
 20
5.372769654146074
 10
4.067520623930576
 20
5.372952537676569
1001
REVIT
1002
{
1070
     2
1000
-2001160
1002
}
  0
LWPOLYLINE
  5
4A1
330
47C
100
AcDbEntity
  8
7052814
100
AcDbPolyline
 90
       63
 70
   128
 43
0.0
 10
5.411353890549229
 20
5.733031576229119
 10
5.410091777077772
 20
5.732072793951555
 10
5.408869014227381
 20
5.731064307520159
 10
5.407687558157777
 20
5.730007730298085
 10
5.406549298946646
 20
5.728904752583499
 10
5.4054560575659
 20
5.727757138905457
 10
5.404409582968542
 20
5.726566725201029
 10
5.403411549290691
 20
5.725335415878201
 10
5.402463553173327
 20
5.724065180769227
 10
5.401567111208012
 20
5.72275805197931
 10
5.40072365751066
 20
5.721416120635677
 10
5.399934541427257
 20
5.720041533542211
 10
5.399201025375204
 20
5.718636489745034
 10
5.398524282823705
 20
5.717203237014496
 10
5.397905396416479
 20
5.715744068249218
 10
5.397345356239763
 20
5.714261317807955
 10
5.39684505823836
 20
5.712757357775109
 10
5.396405302782356
 20
5.711234594165905
 10
5.396026793386663
 20
5.709695463077276
 10
5.395710135585581
 20
5.708142426790637
 10
5.395455835964031
 20
5.706577969832749
 10
5.395264301347165
 20
5.705004595001011
 10
5.39513583814951
 20
5.703424819359518
 10
5.395070651884777
 20
5.701841170212297
 10
5.39506884683709
 20
5.700256181060154
 10
5.395130425894133
 20
5.698672387547621
 10
5.395255290542554
 20
5.697092323406462
 10
5.395443241025549
 20
5.695518516402237
 10
5.395693976662448
 20
5.693953484290427
 10
5.396007096329709
 20
5.692399730788555
 10
5.396382099102663
 20
5.690859741570774
 10
5.396818385056873
 20
5.68933598029132
 10
5.397315256227877
 20
5.687830884643187
 10
5.397871917727799
 20
5.686346862458341
 10
5.398487479016983
 20
5.684886287855706
 10
5.399160955328683
 20
5.683451497443073
 10
5.399891269244466
 20
5.682044786579028
 10
5.400677252417859
 20
5.680668405700874
 10
5.40151764744345
 20
5.679324556724402
 10
5.402411109868474
 20
5.678015389521301
 10
5.403356210343647
 20
5.676742998479824
 10
5.404351436909822
 20
5.675509419154208
 10
5.40539519741679
 20
5.674316625008222
 10
5.406485822070402
 20
5.673166524258053
 10
5.407621566103865
 20
5.672060956819558
 10
5.408800612569003
 20
5.671001691364798
 10
5.410021075242993
 20
5.669990422492536
 10
5.411281001645902
 20
5.669028768017241
 10
5.41257837616426
 20
5.668118266380932
 10
5.413911123275595
 20
5.667260374191996
 10
5.415277110868831
 20
5.66645646389493
 10
5.416674153655216
 20
5.665707821574716
 10
5.418100016664309
 20
5.665015644899365
 10
5.41955241881947
 20
5.664381041203902
 10
5.421029036587073
 20
5.663805025718863
 10
5.422527507693687
 20
5.663288519946149
 10
5.424045434905199
 20
5.662832350184814
 10
5.425580389861879
 20
5.662437246209162
 10
5.427129916963229
 20
5.662103840101275
 10
5.428691537296446
 20
5.661832665239798
 10
5.430262752602116
 20
5.661624155446665
 10
5.431841049270928
 20
5.661478644293066
 10
5.433310244329812
 20
5.66140015874844
1001
REVIT
1002
{
1070
     2
1000
-2001160
1002
}
  0
LWPOLYLINE
  5
4A2
330
47C
100
AcDbEntity
  8
7052814
100
AcDbPolyline
 90
       35
 70
   128
 43
0.0
 10
4.067520623930582
 20
5.372952537676565
 10
4.066500200754455
 20
5.373081856628999
 10
4.06548576518683
 20
5.373251878183467
 10
4.064478940108221
 20
5.37346233034175
 10
4.063481336223975
 20
5.373712876425289
 10
4.062494549487494
 20
5.374003115613799
 10
4.061520158547053
 20
5.374332583586491
 10
4.0605597222203
 20
5.374700753264891
 10
4.059614777000472
 20
5.375107035656054
 10
4.058686834598347
 20
5.375550780794822
 10
4.057777379523818
 20
5.376031278783632
 10
4.056887866710994
 20
5.376547760928207
 10
4.056019719190624
 20
5.37709940096729
 10
4.055174325813548
 20
5.377685316394495
 10
4.054353039028826
 20
5.378304569870127
 10
4.053557172720116
 20
5.378956170720726
 10
4.052788000103736
 20
5.379639076523933
 10
4.05204675169179
 20
5.38035219477614
 10
4.051334613323615
 20
5.381094384640267
 10
4.050652724268682
 20
5.381864458770857
 10
4.05000217540402
 20
5.382661185213578
 10
4.049384007469035
 20
5.383483289376076
 10
4.048799209400552
 20
5.384329456067066
 10
4.048248716750734
 20
5.385198331600349
 10
4.047733410190386
 20
5.386088525960421
 10
4.047254114100079
 20
5.386998615026206
 10
4.046811595251314
 20
5.387927142849337
 10
4.04640656157985
 20
5.388872623983374
 10
4.046039661053156
 20
5.389833545860196
 10
4.04571148063381
 20
5.390808371209785
 10
4.045422545340474
 20
5.391795540519531
 10
4.045173317407981
 20
5.392793474529126
 10
4.044964195547858
 20
5.393800576757035
 10
4.044795514310468
 20
5.39481523605453
 10
4.044754801808313
 20
5.395106188892342
1001
REVIT
1002
{
1070
     2
1000
-2001160
1002
}
  0
LWPOLYLINE
  5
4A3
330
47C
100
AcDbEntity
  8
7052814
100
AcDbPolyline
 90
       35
 70
   128
 43
0.0
 10
5.419992845237262
 20
5.76360011202969
 10
5.420365071059608
 20
5.762641240407928
 10
5.420698654503273
 20
5.761668250718386
 10
5.420993061905909
 20
5.760682699537009
 10
5.421247822278472
 20
5.759686163535445
 10
5.421462528058717
 20
5.758680236958714
 10
5.421636835763195
 20
5.757666529074756
 10
5.421770466536759
 20
5.756646661599935
 10
5.421863206598683
 20
5.755622266104651
 10
5.42191490758465
 20
5.754594981403173
 10
5.421925486784108
 20
5.753566450931879
 10
5.421894927272597
 20
5.752538320120115
 10
5.421823277938816
 20
5.751512233757858
 10
5.421710653406417
 20
5.750489833364399
 10
5.421557233850627
 20
5.749472754562269
 10
5.421363264710003
 20
5.748462624460587
 10
5.421129056293793
 20
5.747461059052028
 10
5.420854983285502
 20
5.746469660627595
 10
5.420541484143482
 20
5.745490015213278
 10
5.420189060399476
 20
5.744523690032759
 10
5.4197982758563
 20
5.74357223100019
 10
5.419369755685856
 20
5.742637160247056
 10
5.418904185429011
 20
5.741719973687091
 10
5.418402309898855
 20
5.740822138623134
 10
5.417864931989175
 20
5.73994509139976
 10
5.417292911389991
 20
5.739090235105432
 10
5.41668716321224
 20
5.738258937327862
 10
5.416048656523785
 20
5.73745252796616
 10
5.41537841279912
 20
5.73667229710328
 10
5.41467750428523
 20
5.735919492942162
 10
5.413947052286215
 20
5.735195319808875
 10
5.413188225369449
 20
5.734500936225948
 10
5.412402237496129
 20
5.73383745305899
 10
5.411590346079185
 20
5.73320593173953
 10
5.411353890549226
 20
5.733031576229111
1001
REVIT
1002
{
1070
     2
1000
-2001160
1002
}
  0
LWPOLYLINE
  5
4A4
330
47C
100
AcDbEntity
  8
7052814
100
AcDbPolyline
 90
       37
 70
   128
 43
0.0
 10
4.044754801808299
 20
5.395106188892346
 10
4.044376458536449
 20
5.39843079655352
 10
4.044131366745661
 20
5.401767874578704
 10
4.044019918530522
 20
5.405112084354934
 10
4.044042292184398
 20
5.408458075859959
 10
4.044198451914219
 20
5.411800496221145
 10
4.044488147897728
 20
5.415133998278926
 10
4.04491091668315
 20
5.418453249141118
 10
4.045466081930612
 20
5.42175293871441
 10
4.046152755494152
 20
5.425027788199383
 10
4.046969838842545
 20
5.428272558535457
 10
4.047916024816742
 20
5.431482058782274
 10
4.048989799721019
 20
5.434651154424099
 10
4.050189445744593
 20
5.43777477558394
 10
4.051513043709738
 20
5.44084792513428
 10
4.052958476142064
 20
5.443865686691405
 10
4.054523430658016
 20
5.446823232480585
 10
4.05620540366421
 20
5.449715831059462
 10
4.058001704362639
 20
5.452538854887365
 10
4.059909459055377
 20
5.455287787728383
 10
4.061925615741877
 20
5.457958231876379
 10
4.064046949001536
 20
5.460545915190378
 10
4.066270065153663
 20
5.463046697929091
 10
4.068591407686655
 20
5.465456579373604
 10
4.07100726294765
 20
5.46777170422769
 10
4.073513766083589
 20
5.469988368785446
 10
4.076106907224144
 20
5.472103026856445
 10
4.078782537896668
 20
5.474112295438876
 10
4.081536377662851
 20
5.476012960131629
 10
4.084364020966523
 20
5.477801980276647
 10
4.087260944181599
 20
5.479476493823337
 10
4.090222512848908
 20
5.481033821907235
 10
4.093243989090354
 20
5.482471473135617
 10
4.096320539188494
 20
5.483787147573202
 10
4.09944724131947
 20
5.484978740421552
 10
4.102619093426865
 20
5.486044345386302
 10
4.105452676544209
 20
5.486878990832596
1001
REVIT
1002
{
1070
     2
1000
-2001160
1002
}
  0
LWPOLYLINE
  5
4A5
330
47C
100
AcDbEntity
  8
7052814
100
AcDbPolyline
 90
       37
 70
   128
 43
0.0
 10
5.321540542790123
 20
5.812728752518478
 10
5.32479479519621
 20
5.813507213185152
 10
5.328077574671226
 20
5.814154915779329
 10
5.331383629468298
 20
5.814670824115028
 10
5.334707670605004
 20
5.815054112848966
 10
5.33804438032462
 20
5.815304168800934
 10
5.341388420603386
 20
5.815420591934748
 10
5.344734441690213
 20
5.815403195998233
 10
5.348077090665135
 20
5.815252008821175
 10
5.351411020002867
 20
5.814967272270807
 10
5.354730896127659
 20
5.814549441864867
 10
5.358031407945916
 20
5.813999186042872
 10
5.361307275342798
 20
5.813317385096758
 10
5.364553257629288
 20
5.812505129762594
 10
5.367764161926166
 20
5.811563719475643
 10
5.370934851471513
 20
5.81049466029154
 10
5.374060253838434
 20
5.809299662476927
 10
5.37713536904986
 20
5.807980637773388
 10
5.380155277577439
 20
5.80653969633907
 10
5.383115148211746
 20
5.804979143372886
 10
5.386010245791164
 20
5.803301475426681
 10
5.388835938777159
 20
5.801509376411282
 10
5.391587706663735
 20
5.799605713302825
 10
5.394261147209283
 20
5.797593531556187
 10
5.396851983479237
 20
5.795476050232922
 10
5.399356070688246
 20
5.79325665685144
 10
5.401769402830953
 20
5.790938901967707
 10
5.404088119090745
 20
5.78852649349511
 10
5.40630851001624
 20
5.786023290772583
 10
5.408427023455617
 20
5.783433298390495
 10
5.410440270239297
 20
5.780760659784156
 10
5.412345029601894
 20
5.778009650605205
 10
5.414138254334758
 20
5.775184671881475
 10
5.415817075660851
 20
5.772290242976293
 10
5.417378807824178
 20
5.769330994358464
 10
5.41882095238643
 20
5.766311660194505
 10
5.41999284523727
 20
5.7636001120297
1001
REVIT
1002
{
1070
     2
1000
-2001160
1002
}
  0
LINE
  5
4A6
330
47C
100
AcDbEntity
  8
7052814
100
AcDbLine
 10
0.9995698945345317
 20
1.841184385253107
 30
0.0
 11
0.5789491551861151
 21
1.841184385253149
 31
0.0
1001
REVIT
1002
{
1070
     2
1000
-2001160
1002
}
  0
LINE
  5
4A7
330
47C
100
AcDbEntity
  8
7052814
100
AcDbLine
 10
-0.5788199977907789
 20
1.841184385253163
 30
0.0
 11
-0.9995698945338173
 21
1.841184385253136
 31
0.0
1001
REVIT
1002
{
1070
     2
1000
-2001160
1002
}
  0
LINE
  5
4A8
330
47C
100
AcDbEntity
  8
7052814
100
AcDbLine
 10
5.548745792252813
 20
5.523829429798124
 30
0.0
 11
4.053136819996503
 21
5.123082213489301
 31
0.0
1001
REVIT
1002
{
1070
     2
1000
-2001160
1002
}
  0
LINE
  5
4A9
330
47C
100
AcDbEntity
  8
7052814
100
AcDbLine
 10
5.321540542790117
 20
5.812728752518471
 30
0.0
 11
4.556123848788904
 21
5.60763596748755
 31
0.0
1001
REVIT
1002
{
1070
     2
1000
-2001160
1002
}
  0
LINE
  5
4AA
330
47C
100
AcDbEntity
  8
7052814
100
AcDbLine
 10
4.5561232595159
 20
5.607635809592324
 30
0.0
 11
4.105452676544205
 21
5.486878990832588
 31
0.0
1001
REVIT
1002
{
1070
     2
1000
-2001160
1002
}
  0
LWPOLYLINE
  5
4AB
330
47C
100
AcDbEntity
  8
7052814
100
AcDbPolyline
 90
        2
 70
   128
 43
0.0
 10
-0.6339768096205746
 20
4.38982454901371
 10
-0.8040556931999709
 20
3.596681348367981
1001
REVIT
1002
{
1070
     2
1000
-2001160
1002
}
  0
LWPOLYLINE
  5
4AC
330
47C
100
AcDbEntity
  8
7052814
100
AcDbPolyline
 90
        6
 70
   128
 43
0.0
 10
0.9971324307560548
 20
1.841184385253108
 10
0.9200673561420357
 20
3.01749932294584
 10
0.9088144272324203
 20
3.995974139217975
 10
1.01235358815148
 20
4.930155286549302
 10
1.256734766961216
 20
5.800664855301298
 10
1.588469373367997
 20
6.336004670632658
1001
REVIT
1002
{
1070
     2
1000
-2001160
1002
}
  0
LWPOLYLINE
  5
4AD
330
47C
100
AcDbEntity
  8
7052814
100
AcDbPolyline
 90
        2
 70
   128
 43
0.0
 10
-0.6339768096205746
 20
4.38982454901371
 10
-0.3898948458189757
 20
5.168622924990251
1001
REVIT
1002
{
1070
     2
1000
-2001160
1002
}
  0
LWPOLYLINE
  5
4AE
330
47C
100
AcDbEntity
  8
7052814
100
AcDbPolyline
 90
       12
 70
   128
 43
0.0
 10
1.588464659856054
 20
6.336012515233878
 10
2.140540936261355
 20
6.600315169127187
 10
2.557995346001577
 20
6.706571820045183
 10
2.876670769268409
 20
6.711919760250394
 10
3.150896920409269
 20
6.657298610097078
 10
3.383130972730973
 20
6.568103289611965
 10
3.565284853884594
 20
6.45939337069052
 10
3.697526641009114
 20
6.344423843159906
 10
3.791917461153589
 20
6.225280421405245
 10
3.889184856080978
 20
6.062713939223721
 10
3.991279968111144
 20
5.856357358479438
 10
4.105452676544222
 20
5.486878990832593
1001
REVIT
1002
{
1070
     2
1000
-2001160
1002
}
  0
LWPOLYLINE
  5
4AF
330
47C
100
AcDbEntity
  8
7052814
100
AcDbPolyline
 90
       11
 70
   128
 43
0.0
 10
5.32154054279011
 20
5.812728752518464
 10
5.089383274960089
 20
6.420872081766566
 10
4.883671674754525
 20
6.7532110932039
 10
4.658052439809218
 20
7.036695715970481
 10
4.366622581137974
 20
7.297048976192313
 10
4.006887973126607
 20
7.51468427632585
 10
3.581391432654747
 20
7.677292229960889
 10
3.091791860896193
 20
7.770289103297018
 10
2.505526640557153
 20
7.75865613132562
 10
1.833004741061148
 20
7.579678739177342
 10
1.073436011969883
 20
7.19316412673356
1001
REVIT
1002
{
1070
     2
1000
-2001160
1002
}
  0
LWPOLYLINE
  5
4B0
330
47C
100
AcDbEntity
  8
7052814
100
AcDbPolyline
 90
       80
 70
   128
 43
0.0
 10
0.0000000000010608
 20
4.588334311740085
 10
-0.0182440611662706
 20
4.587969881878575
 10
-0.0364589975603675
 20
4.586877171594737
 10
-0.054615730116122
 20
4.585057917916853
 10
-0.0726852711241161
 20
4.582515012980005
 10
-0.0906387697570132
 20
4.579252499660303
 10
-0.1084475574140026
 20
4.57527556546741
 10
-0.1260831928222663
 20
4.570590534700066
 10
-0.1435175068342029
 20
4.565204858870748
 10
-0.1607226468587683
 20
4.559127105407133
 10
-0.1776711208649068
 20
4.552366944639636
 10
-0.1943358408946644
 20
4.544935135086037
 10
-0.2106901660231069
 20
4.536843507046015
 10
-0.2267079447017824
 20
4.528104944520431
 10
-0.2423635564220095
 20
4.518733365472236
 10
-0.2576319526339926
 20
4.50874370044816
 10
-0.2724886968573537
 20
4.498151869582741
 10
-0.2869100039185622
 20
4.48697475800871
 10
-0.3008727782505326
 20
4.475230189700512
 10
-0.31435465118973
 20
4.46293689978047
 10
-0.3273340172062401
 20
4.450114505320087
 10
-0.3397900690026124
 20
4.436783474671994
 10
-0.3517028314177565
 20
4.422965095371266
 10
-0.3630531940729075
 20
4.408681440648029
 10
-0.3738229426976148
 20
4.39395533459664
 10
-0.3839947890748499
 20
4.378810316050074
 10
-0.393552399545786
 20
4.363270601211592
 10
-0.4024804220164456
 20
4.34736104509913
 10
-0.4107645114104074
 20
4.331107101861297
 10
-0.4183913535139118
 20
4.314534784027144
 10
-0.4253486871622913
 20
4.297670620755233
 10
-0.4316253247193257
 20
4.280541615150589
 10
-0.4372111708042158
 20
4.263175200721245
 10
-0.4420972392241397
 20
4.245599197048928
 10
-0.4462756680738972
 20
4.227841764751098
 10
-0.4497397329678959
 20
4.209931359814087
 10
-0.4524838583737615
 20
4.191896687379262
 10
-0.4545036270210005
 20
4.173766655066156
 10
-0.455795787362476
 20
4.15557032591817
 10
-0.4563582590710055
 20
4.137336871057887
 10
-0.4561901365579303
 20
4.119095522140098
 10
-0.4552916905052446
 20
4.100875523691386
 10
-0.4536643674076176
 20
4.0827060854256
 10
-0.4513107871253769
 20
4.064616334624562
 10
-0.4482347384543687
 20
4.046635268673194
 10
-0.4444411727232268
 20
4.028791707837561
 10
-0.4399361954333704
 20
4.011114248373549
 10
-0.4347270559614823
 20
3.993631216052523
 10
-0.4288221353487344
 20
3.976370620188893
 10
-0.422230932205281
 20
3.959360108252608
 10
-0.414964046762584
 20
3.942626921147558
 10
-0.4070331631101022
 20
3.926197849234449
 10
-0.3984510296564641
 20
3.910099189174217
 10
-0.3892314378587357
 20
3.894356701665194
 10
-0.3793891992665062
 20
3.878995570144344
 10
-0.3689401209304882
 20
3.864040360519767
 10
-0.3579009792279143
 20
3.849514981998428
 10
-0.3462894921594085
 20
3.835442649069815
 10
-0.3341242901741116
 20
3.821845844702793
 10
-0.3214248855816303
 20
3.808746284809585
 10
-0.3082116406109861
 20
3.796164884027331
 10
-0.2945057341779936
 20
3.784121722864337
 10
-0.2803291274235998
 20
3.772636016254733
 10
-0.2657045280865248
 20
3.761726083561985
 10
-0.2506553537741563
 20
3.751409320068481
 10
-0.235205694196087
 20
3.741702169985306
 10
-0.2193802724249033
 20
3.732620101013315
 10
-0.2032044052489415
 20
3.724177580483734
 10
-0.1867039626816466
 20
3.716388053103766
 10
-0.1699053266920238
 20
3.709263920330112
 10
-0.1528353492204097
 20
3.70281652139078
 10
-0.1355213095434486
 20
3.697056115973333
 10
-0.117990871051756
 20
3.691991868595449
 10
-0.1002720375034018
 20
3.687631834671729
 10
-0.082393108815818
 20
3.683982948288689
 10
-0.0643826364584188
 20
3.681051011698158
 10
-0.0462693785077294
 20
3.678840686537596
 10
-0.028082254426512
 20
3.677355486784289
 10
-0.0098502996280307
 20
3.676597773448869
 10
0.0000000000010448
 20
3.676491568004726
  0
LWPOLYLINE
  5
4B1
330
47C
100
AcDbEntity
  8
7052814
100
AcDbPolyline
 90
       80
 70
   128
 43
0.0
 10
0.0000000000010448
 20
3.676491568004726
 10
0.0182440611683748
 20
3.676855997866237
 10
0.036458997562473
 20
3.677948708150073
 10
0.0546157301182289
 20
3.679767961827957
 10
0.0726852711262216
 20
3.682310866764806
 10
0.0906387697591187
 20
3.685573380084508
 10
0.1084475574161081
 20
3.689550314277401
 10
0.1260831928243731
 20
3.694235345044745
 10
0.1435175068363097
 20
3.699621020874062
 10
0.1607226468608751
 20
3.705698774337677
 10
0.1776711208670137
 20
3.712458935105174
 10
0.1943358408967713
 20
3.719890744658774
 10
0.2106901660252139
 20
3.727982372698796
 10
0.2267079447038894
 20
3.736720935224378
 10
0.2423635564241165
 20
3.746092514272575
 10
0.2576319526360995
 20
3.75608217929665
 10
0.2724886968594607
 20
3.766674010162069
 10
0.2869100039206691
 20
3.777851121736101
 10
0.3008727782526395
 20
3.7895956900443
 10
0.3143546511918369
 20
3.801888979964341
 10
0.327334017208347
 20
3.814711374424724
 10
0.3397900690047206
 20
3.828042405072817
 10
0.3517028314198634
 20
3.841860784373545
 10
0.3630531940750143
 20
3.856144439096782
 10
0.373822942699723
 20
3.870870545148171
 10
0.3839947890769568
 20
3.886015563694737
 10
0.3935523995478929
 20
3.901555278533219
 10
0.4024804220185538
 20
3.91746483464568
 10
0.4107645114125142
 20
3.933718777883514
 10
0.41839135351602
 20
3.950291095717667
 10
0.4253486871643994
 20
3.967155258989579
 10
0.4316253247214339
 20
3.984284264594222
 10
0.4372111708063227
 20
4.001650679023565
 10
0.4420972392262479
 20
4.019226682695883
 10
0.4462756680760054
 20
4.036984114993714
 10
0.4497397329700028
 20
4.054894519930724
 10
0.4524838583758697
 20
4.072929192365548
 10
0.4545036270231073
 20
4.091059224678654
 10
0.4557957873645828
 20
4.109255553826641
 10
0.4563582590731137
 20
4.127489008686923
 10
0.4561901365600385
 20
4.145730357604713
 10
0.4552916905073541
 20
4.163950356053424
 10
0.4536643674097258
 20
4.182119794319211
 10
0.4513107871274864
 20
4.200209545120248
 10
0.4482347384564769
 20
4.218190611071618
 10
0.4444411727253363
 20
4.236034171907251
 10
0.4399361954354799
 20
4.253711631371262
 10
0.4347270559635905
 20
4.271194663692288
 10
0.4288221353508426
 20
4.288455259555919
 10
0.4222309322073892
 20
4.305465771492203
 10
0.4149640467646936
 20
4.322198958597254
 10
0.4070331631122104
 20
4.338628030510363
 10
0.3984510296585737
 20
4.354726690570594
 10
0.3892314378608439
 20
4.370469178079617
 10
0.3793891992686131
 20
4.385830309600467
 10
0.3689401209325964
 20
4.400785519225044
 10
0.3579009792300225
 20
4.415310897746383
 10
0.3462894921615167
 20
4.429383230674996
 10
0.3341242901762198
 20
4.442980035042018
 10
0.3214248855837398
 20
4.456079594935227
 10
0.3082116406130957
 20
4.46866099571748
 10
0.2945057341801018
 20
4.480704156880475
 10
0.2803291274257094
 20
4.492189863490079
 10
0.265704528088633
 20
4.503099796182827
 10
0.2506553537762659
 20
4.513416559676332
 10
0.2352056941981953
 20
4.523123709759506
 10
0.2193802724270142
 20
4.532205778731496
 10
0.2032044052510525
 20
4.540648299261079
 10
0.1867039626837561
 20
4.548437826641046
 10
0.169905326694132
 20
4.555561959414701
 10
0.1528353492225192
 20
4.562009358354032
 10
0.1355213095455568
 20
4.56776976377148
 10
0.1179908710538642
 20
4.572834011149363
 10
0.10027203750551
 20
4.577194045073083
 10
0.0823931088179262
 20
4.580842931456123
 10
0.0643826364605269
 20
4.583774868046655
 10
0.046269378509839
 20
4.585985193207217
 10
0.0280822544286202
 20
4.587470392960525
 10
0.0098502996301389
 20
4.588228106295942
 10
0.0000000000010634
 20
4.588334311740087
  0
ELLIPSE
  5
4B2
330
47C
100
AcDbEntity
  8
7052814
100
AcDbEllipse
 10
0.0000000000010528
 20
4.138588755448985
 30
0.0
 11
0.3445875731936467
 21
0.0
 31
0.0
210
0.0
220
0.0
230
1.0
 40
0.9986295347545722
 41
1.570796326794889
 42
4.712388980384673
  0
ELLIPSE
  5
4B3
330
47C
100
AcDbEntity
  8
7052814
100
AcDbEllipse
 10
0.0000000000010528
 20
4.138588755448985
 30
0.0
 11
0.3445875731936471
 21
0.0
 31
0.0
210
0.0
220
0.0
230
1.0
 40
0.9986295347545752
 41
4.712388980384672
 42
7.853981633974468
  0
ELLIPSE
  5
4B4
330
47C
100
AcDbEntity
  8
7052814
100
AcDbEllipse
 10
0.0000000000010529
 20
4.145261998895452
 30
0.0
 11
0.2256846117494876
 21
0.0
 31
0.0
210
0.0
220
0.0
230
1.0
 40
0.9986295347545731
 41
1.570796326794889
 42
4.712388980384673
  0
ELLIPSE
  5
4B5
330
47C
100
AcDbEntity
  8
7052814
100
AcDbEllipse
 10
0.0000000000010529
 20
4.145261998895452
 30
0.0
 11
0.2256846117494888
 21
0.0
 31
0.0
210
0.0
220
0.0
230
1.0
 40
0.9986295347545736
 41
4.712388980384672
 42
7.853981633974468
  0
LINE
  5
4B6
330
47C
100
AcDbEntity
  8
7052814
100
AcDbLine
 10
0.1992608584591146
 20
3.55967612301948
 30
0.0
 11
-0.1992608584570197
 21
3.559676123019486
 31
0.0
  0
LINE
  5
4B7
330
47C
100
AcDbEntity
  8
7052814
100
AcDbLine
 10
-0.1992608584570169
 20
3.734495118799318
 30
0.0
 11
-0.1992608584570209
 21
3.485179785363681
 31
0.0
  0
LINE
  5
4B8
330
47C
100
AcDbEntity
  8
7052814
100
AcDbLine
 10
0.1992608584591105
 20
3.485179785363675
 30
0.0
 11
0.1992608584591185
 21
3.734197215409656
 31
0.0
  0
LWPOLYLINE
  5
4B9
330
47C
100
AcDbEntity
  8
7052814
100
AcDbPolyline
 90
       41
 70
   128
 43
0.0
 10
-0.3045633413632932
 20
3.379877302457396
 10
-0.3003523651836711
 20
3.379961533212055
 10
-0.2961481256676427
 20
3.380214090724794
 10
-0.2919573487015771
 20
3.380634570957468
 10
-0.2877867386346354
 20
3.381222301231401
 10
-0.2836429675532425
 20
3.381976341303531
 10
-0.2795326646071699
 20
3.3828954848706
 10
-0.2754624054043134
 20
3.383978261498968
 10
-0.2714387014911242
 20
3.385222938977014
 10
-0.2674679899355184
 20
3.386627526086289
 10
-0.2635566230289409
 20
3.388189775787047
 10
-0.2597108581240676
 20
3.389907188813028
 10
-0.2559368476243558
 20
3.391777017669754
 10
-0.2522406291415296
 20
3.393796271029927
 10
-0.2486281158366724
 20
3.395961718518928
 10
-0.2451050869604488
 20
3.398269895882706
 10
-0.2416771786075179
 20
3.400717110529867
 10
-0.2383498746999947
 20
3.403299447439019
 10
-0.2351284982143494
 20
3.406012775421975
 10
-0.2320182026657648
 20
3.408852753732777
 10
-0.2290239638636252
 20
3.411814839011957
 10
-0.2261505719512781
 20
3.414894292554945
 10
-0.2234026237428234
 20
3.41808618789299
 10
-0.220784515369199
 20
3.42138541867445
 10
-0.2183004352453027
 20
3.424786706833874
 10
-0.2159543573694234
 20
3.428284611035775
 10
-0.2137500349656914
 20
3.431873535379612
 10
-0.2116909944797248
 20
3.435547738352028
 10
-0.20978052993706
 20
3.43930134201206
 10
-0.2080216976734227
 20
3.443128341394574
 10
-0.2064173114452382
 20
3.447022614116941
 10
-0.2049699379282171
 20
3.450977930173542
 10
-0.2036818926112348
 20
3.454987961902441
 10
-0.2025552360920276
 20
3.459046294108298
 10
-0.2015917707806848
 20
3.463146434325316
 10
-0.2007930380161787
 20
3.467281823203799
 10
-0.200160315600543
 20
3.471445845003708
 10
-0.1996946157546701
 20
3.475631838178443
 10
-0.1993966834989679
 20
3.479833106031887
 10
-0.1992669954614935
 20
3.484042927431699
 10
-0.1992608584570049
 20
3.485179785363681
  0
LWPOLYLINE
  5
4BA
330
47C
100
AcDbEntity
  8
7052814
100
AcDbPolyline
 90
       41
 70
   128
 43
0.0
 10
0.1992608584590958
 20
3.485179785363675
 10
0.1993450892137549
 20
3.480968809184054
 10
0.1995976467264928
 20
3.476764569668026
 10
0.2000181269591666
 20
3.47257379270196
 10
0.2006058572331007
 20
3.468403182635019
 10
0.2013598973052318
 20
3.464259411553625
 10
0.2022790408722986
 20
3.460149108607553
 10
0.2033618175006689
 20
3.456078849404697
 10
0.2046064949787139
 20
3.452055145491508
 10
0.2060110820879862
 20
3.448084433935901
 10
0.2075733317887461
 20
3.444173067029324
 10
0.2092907448147264
 20
3.44032730212445
 10
0.2111605736714511
 20
3.436553291624739
 10
0.2131798270316263
 20
3.432857073141912
 10
0.2153452745206271
 20
3.429244559837056
 10
0.2176534518844043
 20
3.425721530960831
 10
0.2201006665315653
 20
3.4222936226079
 10
0.2226830034407164
 20
3.41896631870038
 10
0.2253963314236727
 20
3.415744942214732
 10
0.2282363097344755
 20
3.412634646666147
 10
0.231198395013655
 20
3.409640407864008
 10
0.2342778485566448
 20
3.40676701595166
 10
0.2374697438946883
 20
3.404019067743206
 10
0.2407689746761477
 20
3.401400959369583
 10
0.2441702628355718
 20
3.398916879245686
 10
0.2476681670374717
 20
3.396570801369806
 10
0.2512570913813084
 20
3.394366478966075
 10
0.2549312943537252
 20
3.392307438480107
 10
0.2586848980137575
 20
3.390396973937442
 10
0.2625118973962708
 20
3.388638141673806
 10
0.2664061701186389
 20
3.387033755445621
 10
0.2703614861752397
 20
3.3855863819286
 10
0.2743715179041375
 20
3.384298336611617
 10
0.278429850109996
 20
3.383171680092409
 10
0.2825299903270129
 20
3.382208214781067
 10
0.2866653792054954
 20
3.38140948201656
 10
0.2908294010054064
 20
3.380776759600924
 10
0.295015394180141
 20
3.380311059755051
 10
0.2992166620335854
 20
3.380013127499351
 10
0.3034264834333971
 20
3.379883439461876
 10
0.3045633413653801
 20
3.379877302457387
  0
LINE
  5
4BB
330
47C
100
AcDbEntity
  8
7052814
100
AcDbLine
 10
-0.3464562786905892
 20
3.379877302457396
 30
0.0
 11
-0.4804807030326687
 21
3.286032390228857
 31
0.0
  0
LINE
  5
4BC
330
47C
100
AcDbEntity
  8
7052814
100
AcDbLine
 10
0.4804807030347542
 20
3.286032390228844
 30
0.0
 11
0.3464562786926761
 21
3.379877302457387
 31
0.0
  0
LINE
  5
4BD
330
47C
100
AcDbEntity
  8
7052814
100
AcDbLine
 10
-0.481289263720695
 20
3.095745014282335
 30
0.0
 11
-0.4185482798511285
 21
3.05181330442217
 31
0.0
  0
LINE
  5
4BE
330
47C
100
AcDbEntity
  8
7052814
100
AcDbLine
 10
0.4185482798532061
 20
3.051813304422158
 30
0.0
 11
0.4812892637227739
 21
3.095745014282321
 31
0.0
  0
LWPOLYLINE
  5
4BF
330
47C
100
AcDbEntity
  8
7052814
100
AcDbPolyline
 90
       32
 70
   128
 43
0.0
 10
-0.4075824936602409
 20
3.022142739313899
 10
-0.4073272068062154
 20
3.023223773858601
 10
-0.4071153540061193
 20
3.02431415244229
 10
-0.4069472741792401
 20
3.025412130691836
 10
-0.406823236217445
 20
3.026515952076261
 10
-0.4067434385550138
 20
3.027623850716818
 10
-0.4067080088511831
 20
3.028734054212022
 10
-0.4067170037859228
 20
3.029844786473113
 10
-0.4067704089692544
 20
3.030954270565414
 10
-0.4068681389642764
 20
3.032060731551058
 10
-0.4070100374238456
 20
3.033162399328499
 10
-0.4071958773406982
 20
3.034257511464301
 10
-0.4074253614106077
 20
3.035344316012661
 10
-0.4076981225080189
 20
3.036421074318139
 10
-0.4080137242733618
 20
3.037486063797144
 10
-0.4083716618111365
 20
3.038537580693694
 10
-0.4087713624976371
 20
3.039573942805067
 10
-0.4092121868970301
 20
3.040593492172963
 10
-0.409693429784317
 20
3.041594597735886
 10
-0.4102143212735349
 20
3.042575657938493
 10
-0.4107740280494189
 20
3.04353510329374
 10
-0.4113716547005267
 20
3.044471398893732
 10
-0.412006245151702
 20
3.04538304686524
 10
-0.4126767841935949
 20
3.046268588765985
 10
-0.4133821991067813
 20
3.047126607917831
 10
-0.4141213613778786
 20
3.047955731673168
 10
-0.414893088504933
 20
3.048754633610859
 10
-0.4156961458891667
 20
3.049522035658227
 10
-0.4165292488100764
 20
3.0502567101357
 10
-0.4173910644807065
 20
3.050957481720835
 10
-0.4182802141798293
 20
3.051623229328589
 10
-0.4185482798511299
 20
3.05181330442217
  0
LWPOLYLINE
  5
4C0
330
47C
100
AcDbEntity
  8
7052814
100
AcDbPolyline
 90
       32
 70
   128
 43
0.0
 10
0.4185482798532061
 20
3.051813304422158
 10
0.4176513147537018
 20
3.051158124542319
 10
0.4167812673377715
 20
3.050467599699382
 10
0.4159395294956825
 20
3.049742834585793
 10
0.4151274478284226
 20
3.048984988671129
 10
0.4143463214934202
 20
3.048195274347182
 10
0.4135974001261824
 20
3.047374954988412
 10
0.4128818818411355
 20
3.046525342930798
 10
0.412200911314901
 20
3.045647797372392
 10
0.4115555779550537
 20
3.044743722198889
 10
0.4109469141573052
 20
3.043814563737706
 10
0.4103758936538904
 20
3.042861808444172
 10
0.4098434299558027
 20
3.041886980523512
 10
0.4093503748913754
 20
3.040891639492447
 10
0.4088975172435301
 20
3.0398773776843
 10
0.4084855814879009
 20
3.038845817701598
 10
0.408115226633819
 20
3.03779860982026
 10
0.4077870451700492
 20
3.036737429349503
 10
0.4075015621169224
 20
3.035663973951709
 10
0.4072592341864258
 20
3.034579960926519
 10
0.407060449051553
 20
3.033487124463534
 10
0.4069055247261166
 20
3.032387212867964
 10
0.4067947090559858
 20
3.031281985763731
 10
0.4067281793225941
 20
3.030173211278431
 10
0.4067060419593236
 20
3.029062663214713
 10
0.4067283323812345
 20
3.027952118212578
 10
0.4067950149284025
 20
3.026843352907123
 10
0.4069059829229824
 20
3.025738141086313
 10
0.4070610588398502
 20
3.024638250853296
 10
0.4072599945906228
 20
3.023545441797815
 10
0.4075024719205349
 20
3.022461462181236
 10
0.4075824936623171
 20
3.022142739313887
  0
LWPOLYLINE
  5
4C1
330
47C
100
AcDbEntity
  8
7052814
100
AcDbPolyline
 90
        4
 70
   128
 43
0.0
 10
-0.5264755836419416
 20
2.427597503608414
 10
-0.4904097509679081
 20
2.647119949859967
 10
-0.445594210648575
 20
2.865024552933476
 10
-0.4075824936602316
 20
3.022142739313934
  0
LWPOLYLINE
  5
4C2
330
47C
100
AcDbEntity
  8
7052814
100
AcDbPolyline
 90
        4
 70
   128
 43
0.0
 10
0.4075824936623078
 20
3.022142739313923
 10
0.4587114909628249
 20
2.805632521703341
 10
0.5011414910721197
 20
2.587250874613979
 10
0.5264755836440019
 20
2.427597503608399
  0
LWPOLYLINE
  5
4C3
330
47C
100
AcDbEntity
  8
7052814
100
AcDbPolyline
 90
        4
 70
   128
 43
0.0
 10
-0.5803251998153015
 20
1.812093574263141
 10
-0.5688298855203661
 20
2.034261768284085
 10
-0.5484594080944217
 20
2.255792561481569
 10
-0.5264755836419309
 20
2.427597503608487
  0
LWPOLYLINE
  5
4C4
330
47C
100
AcDbEntity
  8
7052814
100
AcDbPolyline
 90
        4
 70
   128
 43
0.0
 10
0.5264755836439898
 20
2.427597503608472
 10
0.5537340110303053
 20
2.206808403284901
 10
0.5721414254645138
 20
1.985105864329853
 10
0.5803251998173457
 20
1.812093574263125
  0
LWPOLYLINE
  5
4C5
330
47C
100
AcDbEntity
  8
7052814
100
AcDbPolyline
 90
       12
 70
   128
 43
0.0
 10
-0.7690648803760945
 20
1.033709222679398
 10
-0.736871837282108
 20
1.105016590503296
 10
-0.7075560793507335
 20
1.17755429839742
 10
-0.6811645055409673
 20
1.251206301503024
 10
-0.6577393367410031
 20
1.325854772326727
 10
-0.6373180482238176
 20
1.40138028923937
 10
-0.6199333096947305
 20
1.477662027525144
 10
-0.6056129330268384
 20
1.554577952675361
 10
-0.5943798277679627
 20
1.632005015617636
 10
-0.5862519644902472
 20
1.709819349568155
 10
-0.5812423460410879
 20
1.787896468192103
 10
-0.5803251998153015
 20
1.812093574263117
  0
LWPOLYLINE
  5
4C6
330
47C
100
AcDbEntity
  8
7052814
100
AcDbPolyline
 90
       12
 70
   128
 43
0.0
 10
0.5803251998173457
 20
1.812093574263101
 10
0.5843679257246387
 20
1.733960424468264
 10
0.5915319105206055
 20
1.656051438776835
 10
0.6018056933578097
 20
1.578491254946225
 10
0.6151728383753349
 20
1.501403952725271
 10
0.6316119609926588
 20
1.424912855353116
 10
0.6510967621204206
 20
1.34914033226832
 10
0.6735960702333485
 20
1.274207603343881
 10
0.699073891238062
 20
1.200234544961278
 10
0.7274894660559289
 20
1.127339498233848
 10
0.7587973358289089
 20
1.055639079686239
 10
0.7690648803781162
 20
1.033709222679376
  0
LINE
  5
4C7
330
47C
100
AcDbEntity
  8
7052814
100
AcDbLine
 10
-0.7800715017303541
 20
0.9849554939152037
 30
0.0
 11
-0.7800715017303541
 21
0.8888554846980174
 31
0.0
  0
LINE
  5
4C8
330
47C
100
AcDbEntity
  8
7052814
100
AcDbLine
 10
0.780071501732372
 20
0.8888554847246449
 30
0.0
 11
0.7800715017323759
 21
0.9849554939151811
 31
0.0
  0
LWPOLYLINE
  5
4C9
330
47C
100
AcDbEntity
  8
7052814
100
AcDbPolyline
 90
       17
 70
   128
 43
0.0
 10
-0.7948443114923261
 20
0.8413198438294294
 10
-0.7929986600490633
 20
0.8441208581314915
 10
-0.7912664956270837
 20
0.8469934382932292
 10
-0.7896505893199537
 20
0.8499329887991653
 10
-0.7881535262330539
 20
0.8529348069955636
 10
-0.7867777013479694
 20
0.8559940906136606
 10
-0.7855253156910225
 20
0.8591059454522824
 10
-0.784398372812102
 20
0.8622653932075145
 10
-0.7833986755794134
 20
0.8654673794369218
 10
-0.7825278232952697
 20
0.8687067816455998
 10
-0.7817872091375562
 20
0.871978417481047
 10
-0.7811780179309338
 20
0.8752770530238361
 10
-0.7807012242513825
 20
0.8785974111607727
 10
-0.7803575908670748
 20
0.8819341800271406
 10
-0.7801476675181243
 20
0.8852820215045632
 10
-0.780071790037106
 20
0.8886355797608402
 10
-0.7800715017303168
 20
0.8888554847264705
  0
LWPOLYLINE
  5
4CA
330
47C
100
AcDbEntity
  8
7052814
100
AcDbPolyline
 90
       17
 70
   128
 43
0.0
 10
0.7800715017323359
 20
0.8888554847264492
 10
0.7801385855908081
 20
0.8855017390404565
 10
0.7803397298463624
 20
0.8821533586321354
 10
0.7806746127110998
 20
0.8788157001958538
 10
0.7811426984438742
 20
0.8754941032731139
 10
0.7817432382073653
 20
0.8721938817104241
 10
0.7824752712660594
 20
0.8689203151582743
 10
0.7833376265232238
 20
0.8656786406248226
 10
0.7843289243944021
 20
0.8624740440978039
 10
0.7854475790144699
 20
0.8593116522480515
 10
0.7866918007746675
 20
0.8561965242279161
 10
0.7880595991855975
 20
0.8531336435777056
 10
0.7895487860615857
 20
0.8501279102530801
 10
0.7911569790213042
 20
0.8471841327861696
 10
0.7928816052990817
 20
0.8443070205929497
 10
0.7947199058607757
 20
0.8415011764391785
 10
0.7948443114943425
 20
0.8413198438294068
  0
LWPOLYLINE
  5
4CB
330
47C
100
AcDbEntity
  8
7052814
100
AcDbPolyline
 90
       11
 70
   128
 43
0.0
 10
-0.9506654872064604
 20
0.6869582270477875
 10
-0.931419214577739
 20
0.700502011531548
 10
-0.9127299438381673
 20
0.7148046080603124
 10
-0.8946275738340956
 20
0.7298431355306915
 10
-0.8771410644958979
 20
0.7455935355067803
 10
-0.8602983905082615
 20
0.7620306107085245
 10
-0.8441264965566519
 20
0.7791280653219898
 10
-0.828651254221571
 20
0.7968585470670578
 10
-0.8138974205895479
 20
0.8151936909552373
 10
-0.7998885986470783
 20
0.8341041646675961
 10
-0.7948443114923234
 20
0.8413198438294308
  0
LWPOLYLINE
  5
4CC
330
47C
100
AcDbEntity
  8
7052814
100
AcDbPolyline
 90
       11
 70
   128
 43
0.0
 10
0.7948443114943398
 20
0.8413198438294095
 10
0.8085686181231192
 20
0.8222018806585881
 10
0.8230464613886498
 20
0.8036480357034202
 10
0.8382546798301476
 20
0.7856879911578939
 10
0.8541689435423538
 20
0.768350479262007
 10
0.8707637930981901
 20
0.7516632363363237
 10
0.8880126802784149
 20
0.7356529584097676
 10
0.9058880105431017
 20
0.7203452585116789
 10
0.9243611871770321
 20
0.7057646256964244
 10
0.9434026570383242
 20
0.6919343858661421
 10
0.9506654872084727
 20
0.6869582270477622
  0
LWPOLYLINE
  5
4CD
330
47C
100
AcDbEntity
  8
7052814
100
AcDbPolyline
 90
       26
 70
   128
 43
0.0
 10
-0.9686516180994102
 20
0.6531394236277969
 10
-0.968618992589009
 20
0.6547704816387251
 10
-0.968521168251657
 20
0.6563989303047732
 10
-0.9683583015854303
 20
0.6580221644554644
 10
-0.9681306531422485
 20
0.6596375872624251
 10
-0.9678385871110606
 20
0.6612426143937734
 10
-0.9674825707352114
 20
0.6628346781484843
 10
-0.9670631735649561
 20
0.6644112315641727
 10
-0.9665810665463014
 20
0.6659697524916865
 10
-0.9660370209476312
 20
0.6675077476300092
 10
-0.9654319071258479
 20
0.6690227565150085
 10
-0.9647666931339827
 20
0.6705123554556513
 10
-0.9640424431725179
 20
0.6719741614113951
 10
-0.9632603158868903
 20
0.6734058358045513
 10
-0.9624215625139171
 20
0.6748050882614943
 10
-0.9615275248800667
 20
0.6761696802767833
 10
-0.9605796332548353
 20
0.6774974287942955
 10
-0.9595794040626209
 20
0.6787862096996374
 10
-0.958528437456756
 20
0.6800339612182899
 10
-0.9574284147596179
 20
0.6812386872139899
 10
-0.9562810957728631
 20
0.6823984603821428
 10
-0.9550883159621204
 20
0.6835114253330842
 10
-0.9538519835206425
 20
0.6845758015603117
 10
-0.9525740763165998
 20
0.6855898862889164
 10
-0.9512566387289108
 20
0.6865520571996592
 10
-0.9506654872064643
 20
0.6869582270477862
  0
LWPOLYLINE
  5
4CE
330
47C
100
AcDbEntity
  8
7052814
100
AcDbPolyline
 90
       26
 70
   128
 43
0.0
 10
0.9506654872084753
 20
0.6869582270477596
 10
0.9519996401161233
 20
0.6860193710002461
 10
0.9532951816155097
 20
0.6850279140509518
 10
0.9545500391166045
 20
0.6839854423194948
 10
0.9557622051150918
 20
0.6828936235382647
 10
0.9569297404039575
 20
0.6817542043844031
 10
0.9580507771758
 20
0.6805690076854895
 10
0.9591235220109261
 20
0.6793399295034181
 10
0.9601462587464403
 20
0.678068936101088
 10
0.9611173512217369
 20
0.6767580607968117
 10
0.9620352458960105
 20
0.6754094007114407
 10
0.9628984743335921
 20
0.6740251134134111
 10
0.9637056555531245
 20
0.6726074134670986
 10
0.9644554982368454
 20
0.6711585688899945
 10
0.9651468027964209
 20
0.6696808975243488
 10
0.9657784632920247
 20
0.6681767633291301
 10
0.966349469201612
 20
0.6666485725981827
 10
0.9668589070375334
 20
0.6650987701106815
 10
0.9673059618079282
 20
0.6635298352199973
 10
0.9676899183205309
 20
0.6619442778872703
 10
0.9680101623268242
 20
0.6603446346659957
 10
0.9682661815047167
 20
0.6587334646440885
 10
0.9684575662781364
 20
0.6571133453498887
 10
0.9685840104722702
 20
0.6554868686286574
 10
0.9686453118033869
 20
0.6538566364961881
 10
0.9686516181014226
 20
0.6531394236277702
  0
LINE
  5
4CF
330
47C
100
AcDbEntity
  8
7052814
100
AcDbLine
 10
-0.9686516180994528
 20
0.6531394236277969
 30
0.0
 11
-0.9686516180994541
 21
0.5480588666228191
 31
0.0
  0
LINE
  5
4D0
330
47C
100
AcDbEntity
  8
7052814
100
AcDbLine
 10
0.9686516181014626
 20
0.5480588666227925
 30
0.0
 11
0.9686516181014626
 21
0.6531394236277702
 31
0.0
  0
LWPOLYLINE
  5
4D1
330
47C
100
AcDbEntity
  8
7052814
100
AcDbPolyline
 90
       25
 70
   128
 43
0.0
 10
-0.9839795929195682
 20
0.5180808847397681
 10
-0.9827981118906677
 20
0.5189706738110714
 10
-0.9816531579931
 20
0.5199069977857215
 10
-0.980546562908858
 20
0.5208883587451011
 10
-0.9794800969540155
 20
0.5219131867210188
 10
-0.978455466246598
 20
0.5229798422073319
 10
-0.9774743099771633
 20
0.5240866187828052
 10
-0.9765381977864397
 20
0.525231745841012
 10
-0.9756486272542392
 20
0.5264133914229464
 10
-0.9748070215036479
 20
0.527629665147746
 10
-0.9740147269243335
 20
0.5288786212369071
 10
-0.9732730110186098
 20
0.5301582616271176
 10
-0.9725830603737012
 20
0.5314665391667305
 10
-0.971945978763459
 20
0.5328013608907633
 10
-0.9713627853825542
 20
0.5341605913692084
 10
-0.9708344132159894
 20
0.5355420561232515
 10
-0.9703617075465178
 20
0.536943545103982
 10
-0.9699454246023728
 20
0.5383628162280024
 10
-0.9695862303474598
 20
0.5397975989642748
 10
-0.9692846994159669
 20
0.5412455979664889
 10
-0.969041314193058
 20
0.5427044967451337
 10
-0.968856464043171
 20
0.5441719613733788
 10
-0.9687304446871142
 20
0.5456456442208607
 10
-0.9686634577289749
 20
0.5471231877093922
 10
-0.9686516180994114
 20
0.5480588666228178
  0
LWPOLYLINE
  5
4D2
330
47C
100
AcDbEntity
  8
7052814
100
AcDbPolyline
 90
       25
 70
   128
 43
0.0
 10
0.9686516181014212
 20
0.5480588666227911
 10
0.9686811973532412
 20
0.5465801012320256
 10
0.9687698877882093
 20
0.5451037015504327
 10
0.9689175475205519
 20
0.5436320295025549
 10
0.9691239403261915
 20
0.5421674394497261
 10
0.9693887360206707
 20
0.5407122744236058
 10
0.9697115109873653
 20
0.5392688623778131
 10
0.9700917488551798
 20
0.5378395124637115
 10
0.9705288413246424
 20
0.5364265113362518
 10
0.9710220891410415
 20
0.5350321194958127
 10
0.9715707032130927
 20
0.5336585676718874
 10
0.972173805875313
 20
0.5323080532543833
 10
0.9728304322920953
 20
0.5309827367782726
 10
0.9735395320012461
 20
0.5296847384672027
 10
0.9742999705944981
 20
0.5284161348415731
 10
0.9751105315323222
 20
0.5271789553965706
 10
0.9759699180901241
 20
0.5259751793553856
 10
0.9768767554327409
 20
0.5248067325028926
 10
0.9778295928138705
 20
0.5236754841048003
 10
0.9788269058969653
 20
0.5225832439172283
 10
0.9798670991938401
 20
0.5215317592914738
 10
0.9809485086171186
 20
0.5205227123786337
 10
0.9820694041424092
 20
0.5195577174385205
 10
0.9832279925759836
 20
0.5186383182571787
 10
0.9839795929215753
 20
0.5180808847397415
  0
LWPOLYLINE
  5
4D3
330
47C
100
AcDbEntity
  8
7052814
100
AcDbPolyline
 90
       20
 70
   128
 43
0.0
 10
-1.088397151426109
 20
0.357345846077832
 10
-1.086007384872095
 20
0.3676958751667552
 10
-1.08320563910435
 20
0.3779420601629948
 10
-1.079996396318428
 20
0.3880680093562938
 10
-1.076384790618189
 20
0.3980575233880296
 10
-1.072376599802315
 20
0.4078946211667349
 10
-1.067978236121074
 20
0.4175635654344314
 10
-1.063196736018094
 20
0.4270488879428889
 10
-1.058039748873538
 20
0.4363354141995221
 10
-1.052515524766739
 20
0.4454082877433405
 10
-1.046632901277829
 20
0.4542529939121171
 10
-1.040401289349498
 20
0.4628553830627509
 10
-1.033830658231492
 20
0.4712016932076788
 10
-1.026931519531939
 20
0.4792785720311239
 10
-1.019714910401021
 20
0.48707309824994
 10
-1.012192375873888
 20
0.4945728022849234
 10
-1.004375950401059
 20
0.5017656862094669
 10
-0.9962781385958754
 20
0.5086402429436939
 10
-0.9879118952297872
 20
0.5151854746633223
 10
-0.983979592919567
 20
0.5180808847397694
  0
LWPOLYLINE
  5
4D4
330
47C
100
AcDbEntity
  8
7052814
100
AcDbPolyline
 90
       20
 70
   128
 43
0.0
 10
0.9839795929215753
 20
0.5180808847397428
 10
0.9924647672312437
 20
0.5116905871520851
 10
1.000687610560716
 20
0.5049660846498033
 10
1.008634968114778
 20
0.4979181350024129
 10
1.01629412581669
 20
0.4905580134258705
 10
1.023652830647995
 20
0.4828974945446209
 10
1.030699310250737
 20
0.4749488335547169
 10
1.03742229176072
 20
0.4667247466181219
 10
1.043811019841688
 20
0.4582383905195522
 10
1.049855273891565
 20
0.4495033416184417
 10
1.055545384393245
 20
0.4405335741296545
 10
1.060872248383753
 20
0.4313434377677219
 10
1.065827344017037
 20
0.421947634790367
 10
1.070402744197118
 20
0.4123611964780236
 10
1.074591129259739
 20
0.4025994590869899
 10
1.078385798682275
 20
0.3926780393147037
 10
1.081780681803137
 20
0.3826128093163407
 10
1.084770347533533
 20
0.3724198713127642
 10
1.087350013046057
 20
0.3621155318304019
 10
1.088397151428112
 20
0.3573458460778001
  0
LWPOLYLINE
  5
4D5
330
47C
100
AcDbEntity
  8
7052814
100
AcDbPolyline
 90
       17
 70
   128
 43
0.0
 10
-1.229746388414655
 20
0.1125217860025842
 10
-1.216469282242015
 20
0.124903511842976
 10
-1.203697933310603
 20
0.1378062762591126
 10
-1.1914527730543
 20
0.1512094375803692
 10
-1.179753391117354
 20
0.1650915536078215
 10
-1.16861850401513
 20
0.1794304159171871
 10
-1.158065925191674
 20
0.194203085387562
 10
-1.14811253652201
 20
0.2093859288991304
 10
-1.138774261304729
 20
0.2249546571411083
 10
-1.130066038788123
 20
0.2408843634694564
 10
-1.122001800270561
 20
0.2571495637522088
 10
-1.114594446813394
 20
0.2737242371386379
 10
-1.107855828602
 20
0.2905818676870655
 10
-1.101796725988024
 20
0.3076954867847166
 10
-1.09642683224311
 20
0.3250377162917479
 10
-1.091754738051729
 20
0.342580812340423
 10
-1.088397151426109
 20
0.357345846077832
  0
LWPOLYLINE
  5
4D6
330
47C
100
AcDbEntity
  8
7052814
100
AcDbPolyline
 90
       17
 70
   128
 43
0.0
 10
1.088397151428112
 20
0.3573458460778014
 10
1.092481487462267
 20
0.339656671923356
 10
1.097269934759981
 20
0.3221449771000902
 10
1.102754832827059
 20
0.3048387765840921
 10
1.108927406996643
 20
0.2877657566043925
 10
1.115777782466808
 20
0.2709532303509132
 10
1.123295000098135
 20
0.2544280942791757
 10
1.131467033946005
 20
0.2382167850817216
 10
1.140280810499533
 20
0.2223452373950374
 10
1.149722229596407
 20
0.2068388423096745
 10
1.159776186980132
 20
0.191722406749913
 10
1.170426598463625
 20
0.1770201137879803
 10
1.181656425660479
 20
0.1627554839562955
 10
1.193447703242747
 20
0.1489513376196296
 10
1.205781567681638
 20
0.1356297584673947
 10
1.218638287425131
 20
0.1228120581844474
 10
1.229746388416652
 20
0.1125217860025496
  0
LWPOLYLINE
  5
4D7
330
47C
100
AcDbEntity
  8
7052814
100
AcDbPolyline
 90
       41
 70
   128
 43
0.0
 10
-1.286840152489725
 20
0.0887216853104895
 10
-1.286821114947713
 20
0.0896734354907405
 10
-1.286764032777685
 20
0.0906236630737338
 10
-1.286668997298934
 20
0.0915708478980382
 10
-1.286536160547954
 20
0.092513474669991
 10
-1.286365735035209
 20
0.0934500353878434
 10
-1.286157993405164
 20
0.0943790317542293
 10
-1.285913268000113
 20
0.0952989775731437
 10
-1.285631950328495
 20
0.0962084011275184
 10
-1.285314490438576
 20
0.0971058475336666
 10
-1.284961396198459
 20
0.0979898810687836
 10
-1.284573232483605
 20
0.0988590874677977
 10
-1.284150620273154
 20
0.0997120761858896
 10
-1.283694235656489
 20
0.1005474826230717
 10
-1.283204808751641
 20
0.1013639703072575
 10
-1.282683122537252
 20
0.1021602330323252
 10
-1.282130011599978
 20
0.1029349969477737
 10
-1.281546360799329
 20
0.1036870225966167
 10
-1.280933103852077
 20
0.1044151068982348
 10
-1.28029122183852
 20
0.1051180850730635
 10
-1.279621741632951
 20
0.1057948325059856
 10
-1.278925734260884
 20
0.1064442665454728
 10
-1.27820431318564
 20
0.107065348235597
 10
-1.277458632527045
 20
0.1076570839781505
 10
-1.276689885215083
 20
0.1082185271221692
 10
-1.275899301081463
 20
0.1087487794783939
 10
-1.275088144892148
 20
0.1092469927561697
 10
-1.274257714324005
 20
0.1097123699205291
 10
-1.273409337888793
 20
0.1101441664672886
 10
-1.272544372807833
 20
0.1105416916140822
 10
-1.271664202840736
 20
0.1109043094054776
 10
-1.27077023607169
 20
0.1112314397303609
 10
-1.269863902656825
 20
0.1115225592499958
 10
-1.268946652536262
 20
0.1117772022352563
 10
-1.268019953114525
 20
0.1119949613116844
 10
-1.267085286913003
 20
0.1121754881112122
 10
-1.266144149198233
 20
0.1123184938294701
 10
-1.265198045589797
 20
0.1124237496878127
 10
-1.264248489651639
 20
0.1124910872993261
 10
-1.2632970004707
 20
0.1125203989381889
 10
-1.26304005179763
 20
0.1125217860025842
  0
LWPOLYLINE
  5
4D8
330
47C
100
AcDbEntity
  8
7052814
100
AcDbPolyline
 90
       41
 70
   128
 43
0.0
 10
1.263040051799627
 20
0.1125217860025496
 10
1.263991801979878
 20
0.1125027484605374
 10
1.26494202956287
 20
0.112445666290508
 10
1.265889214387176
 20
0.1123506308117574
 10
1.266831841159128
 20
0.1122177940607771
 10
1.267768401876979
 20
0.1120473685480323
 10
1.268697398243367
 20
0.1118396269179873
 10
1.269617344062281
 20
0.1115949015129372
 10
1.270526767616656
 20
0.1113135838413195
 10
1.271424214022804
 20
0.110996123951401
 10
1.27230824755792
 20
0.1106430297112826
 10
1.273177453956934
 20
0.1102548659964293
 10
1.274030442675027
 20
0.1098322537859773
 10
1.274865849112209
 20
0.1093758691693136
 10
1.275682336796395
 20
0.1088864422644657
 10
1.276478599521461
 20
0.1083647560500769
 10
1.277253363436911
 20
0.1078116451128028
 10
1.278005389085753
 20
0.1072279943121519
 10
1.278733473387371
 20
0.1066147373649
 10
1.279436451562201
 20
0.1059728553513428
 10
1.280113198995123
 20
0.1053033751457739
 10
1.280762633034609
 20
0.1046073677737069
 10
1.281383714724734
 20
0.1038859466984634
 10
1.281975450467285
 20
0.1031402660398684
 10
1.282536893611304
 20
0.1023715187279059
 10
1.283067145967531
 20
0.1015809345942846
 10
1.283565359245306
 20
0.1007697784049724
 10
1.284030736409668
 20
0.0999393478368285
 10
1.284462532956426
 20
0.0990909714016175
 10
1.28486005810322
 20
0.0982260063206575
 10
1.285222675894615
 20
0.0973458363535593
 10
1.285549806219498
 20
0.0964518695845149
 10
1.285840925739133
 20
0.0955455361696498
 10
1.286095568724394
 20
0.0946282860490853
 10
1.286313327800822
 20
0.0937015866273485
 10
1.28649385460035
 20
0.0927669204258266
 10
1.286636860318606
 20
0.091825782711058
 10
1.28674211617695
 20
0.0908796791026199
 10
1.286809453788461
 20
0.0899301231644623
 10
1.286838765427325
 20
0.0889786339835228
 10
1.286840152491722
 20
0.0887216853104536
  0
LINE
  5
4D9
330
47C
100
AcDbEntity
  8
7052814
100
AcDbLine
 10
-1.286840152489777
 20
0.0887216853104895
 30
0.0
 11
-1.286840152489778
 21
0.0000000000034699
 31
0.0
  0
LINE
  5
4DA
330
47C
100
AcDbEntity
  8
7052814
100
AcDbLine
 10
1.286840152491771
 20
0.0000000000034339
 30
0.0
 11
1.286840152491774
 21
0.0887216853104522
 31
0.0
  0
LWPOLYLINE
  5
4DB
330
47C
100
AcDbEntity
  8
7052814
100
AcDbPolyline
 90
       13
 70
   128
 43
0.0
 10
-0.7800715017303168
 20
0.9849554939152037
 10
-0.7799807295071908
 20
0.9894934999072148
 10
-0.7797085580540051
 20
0.9940242460576952
 10
-0.7792554227870268
 20
0.9985404841393133
 10
-0.7786220486260174
 20
1.003034989134546
 10
-0.777809448834522
 20
1.007500570794183
 10
-0.7768189233988645
 20
1.011930085140172
 10
-0.7756520569484367
 20
1.016316445894476
 10
-0.7743107162206444
 20
1.020652635815591
 10
-0.7727970470745129
 20
1.02493171792465
 10
-0.7711134710577765
 20
1.029146846603101
 10
-0.7692626815329203
 20
1.033291278544236
 10
-0.7690648803760998
 20
1.033709222679388
  0
LWPOLYLINE
  5
4DC
330
47C
100
AcDbEntity
  8
7052814
100
AcDbPolyline
 90
       13
 70
   128
 43
0.0
 10
0.7690648803781216
 20
1.033709222679366
 10
0.7709325414304969
 20
1.029572366364064
 10
0.7726332784235625
 20
1.025364132570602
 10
0.7741643705409345
 20
1.021091253575341
 10
0.7755233683618384
 20
1.016760565073175
 10
0.7767080977796674
 20
1.012378995241874
 10
0.7777166634800804
 20
1.007953553658488
 10
0.7785474519731047
 20
1.003491320085502
 10
0.7791991341743805
 20
0.9989994331447423
 10
0.779670667531401
 20
0.994485078897097
 10
0.779961297691383
 20
0.9899554793463504
 10
0.780070559708072
 20
0.9854178808855214
 10
0.7800715017323372
 20
0.9849554939151838
  0
LWPOLYLINE
  5
4DD
330
47C
100
AcDbEntity
  8
7052814
100
AcDbPolyline
 90
       25
 70
   128
 43
0.0
 10
-0.5021350246242179
 20
3.244434825479805
 10
-0.5020944050405959
 20
3.24646553385647
 10
-0.5019726112723971
 20
3.248492993532928
 10
-0.5017698381636718
 20
3.250513961006197
 10
-0.5014864101081372
 20
3.252525203159434
 10
-0.501122780530218
 20
3.254523502434242
 10
-0.5006795311596718
 20
3.256505661978059
 10
-0.5001573711009365
 20
3.258468510758453
 10
-0.4995571356987162
 20
3.260408908636093
 10
-0.4988797852016128
 20
3.262323751388307
 10
-0.4981264032259271
 20
3.264209975675167
 10
-0.4972981950221064
 20
3.266064563940188
 10
-0.4963964855466033
 20
3.267884549237771
 10
-0.4954227173422231
 20
3.269667019979682
 10
-0.4943784482303683
 20
3.271409124592976
 10
-0.4932653488188496
 20
3.273108076081897
 10
-0.4920851998292798
 20
3.27476115648649
 10
-0.4908398892482887
 20
3.276365721230743
 10
-0.4895314093071536
 20
3.277919203353357
 10
-0.488161853294654
 20
3.279419117614326
 10
-0.4867334122082535
 20
3.280863064470798
 10
-0.4852483712489711
 20
3.282248733915825
 10
-0.4837091061655513
 20
3.283573909173894
 10
-0.482118079453768
 20
3.284836470247278
 10
-0.4804807030326687
 20
3.286032390228855
  0
LWPOLYLINE
  5
4DE
330
47C
100
AcDbEntity
  8
7052814
100
AcDbPolyline
 90
       25
 70
   128
 43
0.0
 10
0.4804807030347542
 20
3.286032390228843
 10
0.4821208635168326
 20
3.284834350139925
 10
0.4837118032199836
 20
3.283571679429656
 10
0.4852509769800626
 20
3.282246398101817
 10
0.4867359224473919
 20
3.280860626323823
 10
0.4881642640259971
 20
3.279416581034901
 10
0.489533716674049
 20
3.277916572399467
 10
0.4908420895594439
 20
3.276363000111353
 10
0.4920872895646691
 20
3.27475834955481
 10
0.4932673246353485
 20
3.273105187828421
 10
0.494380306967092
 20
3.271406159638289
 10
0.4954244560255956
 20
3.269663983067084
 10
0.4963981013951042
 20
3.267881445225672
 10
0.4972996854507248
 20
3.266061397794345
 10
0.4981277658502996
 20
3.264206752460737
 10
0.4988810178418339
 20
3.262320476261746
 10
0.4995582363828286
 20
3.260405586836906
 10
0.5001583380680835
 20
3.258465147600809
 10
0.5006803628629159
 20
3.256502262842293
 10
0.5011234756390131
 20
3.254520072758248
 10
0.5014869675104635
 20
3.252521748429961
 10
0.5017702569678065
 20
3.250510486750072
 10
0.5019728908083455
 20
3.248489505308223
 10
0.5020945448611636
 20
3.246462037243601
 10
0.5021350246263009
 20
3.244434825479792
  0
LINE
  5
4DF
330
47C
100
AcDbEntity
  8
7052814
100
AcDbLine
 10
-0.5021350246242339
 20
3.244434825479806
 30
0.0
 11
-0.5021350246242352
 21
3.135789348401119
 31
0.0
  0
LINE
  5
4E0
330
47C
100
AcDbEntity
  8
7052814
100
AcDbLine
 10
0.5021350246263142
 20
3.135789348401105
 30
0.0
 11
0.5021350246263168
 21
3.244434825479792
 31
0.0
  0
LWPOLYLINE
  5
4E1
330
47C
100
AcDbEntity
  8
7052814
100
AcDbPolyline
 90
       25
 70
   128
 43
0.0
 10
-0.481289263720695
 20
3.095745014282335
 10
-0.4828681814950656
 20
3.096898320200547
 10
-0.4843997163678432
 20
3.098113843467572
 10
-0.4858814182099415
 20
3.099389639505477
 10
-0.487310916614491
 20
3.100723667312757
 10
-0.4886859246889911
 20
3.1021137927295
 10
-0.4900042427138379
 20
3.103557791851582
 10
-0.4912637616614203
 20
3.105053354588445
 10
-0.4924624665701046
 20
3.106598088358745
 10
-0.4935984397677472
 20
3.108189521917977
 10
-0.49466986393956
 20
3.109825109311932
 10
-0.4956750250354253
 20
3.111502233949689
 10
-0.4966123150120138
 20
3.113218212789592
 10
-0.4974802344053072
 20
3.114970300631555
 10
-0.4982773947294234
 20
3.11675569450879
 10
-0.4990025206978938
 20
3.118571538171956
 10
-0.4996544522638559
 20
3.120414926658552
 10
-0.5002321464758725
 20
3.122282910940234
 10
-0.5007346791464437
 20
3.124172502640635
 10
-0.5011612463304937
 20
3.126080678816121
 10
-0.5015111656115271
 20
3.128004386791874
 10
-0.5017838771933386
 20
3.129940549045497
 10
-0.5019789447955724
 20
3.131886068130413
 10
-0.5020960563516771
 20
3.133837831631106
 10
-0.5021350246242179
 20
3.135789348401119
  0
LWPOLYLINE
  5
4E2
330
47C
100
AcDbEntity
  8
7052814
100
AcDbPolyline
 90
       25
 70
   128
 43
0.0
 10
0.5021350246262982
 20
3.135789348401105
 10
0.502095921756019
 20
3.133834465579873
 10
0.5019786757014313
 20
3.131882710154136
 10
0.5017834740312102
 20
3.129937204516223
 10
0.5015106290263887
 20
3.128001061060134
 10
0.501160577180772
 20
3.126077377202378
 10
0.5007338785026356
 20
3.124169230426764
 10
0.500231215618843
 20
3.122279673361082
 10
0.4996533926827789
 20
3.120411728893554
 10
0.4990013340878774
 20
3.118568385336853
 10
0.4982760829887944
 20
3.116752591647447
 10
0.4974787996325738
 20
3.114967252707889
 10
0.4966107595025091
 20
3.113215224679629
 10
0.4956733512776374
 20
3.111499310433766
 10
0.4946680746111458
 20
3.109822255067054
 10
0.4935965377312554
 20
3.108186741510325
 10
0.4924604548683906
 20
3.106595386236379
 10
0.4912616435127817
 20
3.105050735074184
 10
0.4900020215068614
 20
3.10355525913609
 10
0.4886836039771396
 20
3.102111350864581
 10
0.4873085001104134
 20
3.100721320204875
 10
0.485878909779528
 20
3.099387390909503
 10
0.4843971200240544
 20
3.098111696980779
 10
0.4828655013914991
 20
3.096896279256859
 10
0.4812892637227739
 20
3.095745014282321
  0
LINE
  5
4E3
330
47C
100
AcDbEntity
  8
7052814
100
AcDbLine
 10
1.28684015249177
 20
0.0000000000034341
 30
0.0
 11
-1.286840152489778
 21
0.0000000000034697
 31
0.0
  0
LINE
  5
4E4
330
47C
100
AcDbEntity
  8
7052814
100
AcDbLine
 10
-0.3411928293342354
 20
3.379877302457392
 30
0.0
 11
0.3411928293363206
 21
3.379877302457384
 31
0.0
  0
LWPOLYLINE
  5
4E5
330
47C
100
AcDbEntity
  8
7052814
100
AcDbPolyline
 90
        3
 70
   128
 43
0.0
 10
-0.9962661449463737
 20
1.841184385253136
 10
-0.9188077161775808
 20
2.749195471323703
 10
-0.8040556931999709
 20
3.596681348367981
1001
REVIT
1002
{
1070
     2
1000
-2001160
1002
}
  0
LWPOLYLINE
  5
4E6
330
47C
100
AcDbEntity
  8
7052814
100
AcDbPolyline
 90
        4
 70
   128
 43
0.0
 10
1.073431298457941
 20
7.193171971334772
 10
0.4179173111291527
 20
6.662512625716956
 10
-0.0500125253740964
 20
5.950666777093977
 10
-0.3898948458189757
 20
5.168622924990251
1001
REVIT
1002
{
1070
     2
1000
-2001160
1002
}
  0
LINE
  5
4E7
330
47C
100
AcDbEntity
  8
7052814
100
AcDbLine
 10
1.263040051799627
 20
0.1125217860025496
 30
0.0
 11
-1.263040051797629
 21
0.1125217860025842
 31
0.0
  0
ENDBLK
  5
47E
330
47C
100
AcDbEntity
  8
0
100
AcDbBlockEnd
  0
BLOCK
  5
4EA
330
4E9
100
AcDbEntity
  8
0
100
AcDbBlockBegin
  2
AMSTN_Delancey_7052814_Front View
 70
     0
 10
0.0
 20
0.0
 30
0.0
  3
AMSTN_Delancey_7052814_Front View
  1

  0
LINE
  5
4EC
330
4E9
100
AcDbEntity
  8
7052814
100
AcDbLine
 10
-1.286840152490141
 20
0.0870078373153315
 30
0.0
 11
-1.286840152490141
 21
0.0000000000000123
 31
0.0
1001
REVIT
1002
{
1070
     2
1000
-2001160
1002
}
  0
LINE
  5
4ED
330
4E9
100
AcDbEntity
  8
7052814
100
AcDbLine
 10
1.286840152490141
 20
-0.0000000000000143
 30
0.0
 11
1.286840152490141
 21
0.0870078373153035
 31
0.0
1001
REVIT
1002
{
1070
     2
1000
-2001160
1002
}
  0
LWPOLYLINE
  5
4EE
330
4E9
100
AcDbEntity
  8
7052814
100
AcDbPolyline
 90
       24
 70
   128
 43
0.0
 10
-1.286840152490112
 20
0.0870078373153315
 10
-1.286800195826506
 20
0.0890054041108107
 10
-1.286680389757822
 20
0.0909997752255446
 10
-1.286480925948218
 20
0.0929877600911903
 10
-1.286202123497234
 20
0.0949661783560444
 10
-1.285844428429321
 20
0.09693186497292
 10
-1.285408412980279
 20
0.0988816752625573
 10
-1.284894774681822
 20
0.1008124899444279
 10
-1.28430433524565
 20
0.1027212201269293
 10
-1.283638039248911
 20
0.1046048122489401
 10
-1.282896952623064
 20
0.1064602529648807
 10
-1.282082260948616
 20
0.1082845739654087
 10
-1.281195267558461
 20
0.1100748567260899
 10
-1.280237391452804
 20
0.1118282371764171
 10
-1.279210165029079
 20
0.1135419102817015
 10
-1.278115231630433
 20
0.1152131345305415
 10
-1.276954342916734
 20
0.1168392363206453
 10
-1.275729356062278
 20
0.1184176142360343
 10
-1.274442230784714
 20
0.1199457432087446
 10
-1.273095026209919
 20
0.1214211785584033
 10
-1.271689897577818
 20
0.122841559903195
 10
-1.270229092794483
 20
0.1242046149359653
 10
-1.268714948835944
 20
0.1255081630594329
 10
-1.267218402701553
 20
0.1266978541360245
1001
REVIT
1002
{
1070
     2
1000
-2001160
1002
}
  0
LWPOLYLINE
  5
4EF
330
4E9
100
AcDbEntity
  8
7052814
100
AcDbPolyline
 90
       24
 70
   128
 43
0.0
 10
1.267218402701557
 20
0.1266978541359992
 10
1.268781318691422
 20
0.1254532002700584
 10
1.270293211635804
 20
0.1241470420246283
 10
1.271751662828515
 20
0.1227814689742742
 10
1.273154339058761
 20
0.1213586657445645
 10
1.274498996343806
 20
0.1198809085171558
 10
1.275783483518827
 20
0.1183505613883707
 10
1.27700574567836
 20
0.1167700725871595
 10
1.278163827463684
 20
0.115141970558453
 10
1.279255876190982
 20
0.1134688599181846
 10
1.280280144815256
 20
0.1117534172864681
 10
1.281234994725201
 20
0.1099983870055742
 10
1.282118898364652
 20
0.1082065767495653
 10
1.282930441676343
 20
0.1063808530326183
 10
1.283668326364098
 20
0.1045241366232122
 10
1.284331371969818
 20
0.1026393978715248
 10
1.284918517761981
 20
0.1007296519575032
 10
1.285428824432566
 20
0.0987979540672183
 10
1.285861475599764
 20
0.0968473945052207
 10
1.286215779113996
 20
0.0948810937507124
 10
1.286491168165229
 20
0.092902197465447
 10
1.286687202189719
 20
0.0909138714613386
 10
1.286803567574851
 20
0.0889192966358378
 10
1.286840152490112
 20
0.0870078373153035
1001
REVIT
1002
{
1070
     2
1000
-2001160
1002
}
  0
LWPOLYLINE
  5
4F0
330
4E9
100
AcDbEntity
  8
7052814
100
AcDbPolyline
 90
       16
 70
   128
 43
0.0
 10
-1.267218402701553
 20
0.1266978541360245
 10
-1.253126052474614
 20
0.137920529125528
 10
-1.239493761925377
 20
0.1496977708747601
 10
-1.226343339810652
 20
0.1620107383092696
 10
-1.21369582400055
 20
0.174839733307785
 10
-1.201571447822374
 20
0.1881642322150151
 10
-1.189989607691613
 20
0.201962918675118
 10
-1.178968832081816
 20
0.2162137177333191
 10
-1.168526751882986
 20
0.2308938311511345
 10
-1.158680072195913
 20
0.2459797738786847
 10
-1.149444545607586
 20
0.2614474116257688
 10
-1.140834946990405
 20
0.2772719994715798
 10
-1.132865049865547
 20
0.2934282214512945
 10
-1.125547604368247
 20
0.3098902310562249
 10
-1.118894316850335
 20
0.3266316925827091
 10
-1.113091337730846
 20
0.3430942508910209
1001
REVIT
1002
{
1070
     2
1000
-2001160
1002
}
  0
LWPOLYLINE
  5
4F1
330
4E9
100
AcDbEntity
  8
7052814
100
AcDbPolyline
 90
       16
 70
   128
 43
0.0
 10
1.113091337730852
 20
0.3430942508909969
 10
1.11909094026735
 20
0.3261075638024933
 10
1.125765030068448
 20
0.3093743843626629
 10
1.133102930014194
 20
0.2929214820890523
 10
1.14109290103001
 20
0.2767751781155392
 10
1.149722160866708
 20
0.2609613030841145
 10
1.15897690454936
 20
0.2455051558213877
 10
1.168842326462312
 20
0.2304314628658382
 10
1.179302644035017
 20
0.2157643389106484
 10
1.190341122990771
 20
0.2015272482253255
 10
1.201940104117996
 20
0.1877429671178839
 10
1.214081031521208
 20
0.1744335474976023
 10
1.226744482306484
 20
0.1616202815966859
 10
1.23991019765396
 20
0.1493236679072213
 10
1.253557115227623
 20
0.1375633783879782
 10
1.267218402701557
 20
0.1266978541359965
1001
REVIT
1002
{
1070
     2
1000
-2001160
1002
}
  0
LWPOLYLINE
  5
4F2
330
4E9
100
AcDbEntity
  8
7052814
100
AcDbPolyline
 90
       11
 70
   128
 43
0.0
 10
-1.113091337730846
 20
0.3430942508910209
 10
-1.105951424554328
 20
0.3633095018565305
 10
-1.098008828120274
 20
0.3832230624033664
 10
-1.089276254888648
 20
0.4028030750826538
 10
-1.079767675113773
 20
0.4220182160509521
 10
-1.069498300494897
 20
0.4408377451817252
 10
-1.058484559840731
 20
0.4592315552429776
 10
-1.046744072786847
 20
0.4771702200624225
 10
-1.034295621608029
 20
0.494625041603053
 10
-1.021159121170629
 20
0.5115680958739056
 10
-1.007479469943724
 20
0.5278308434729857
1001
REVIT
1002
{
1070
     2
1000
-2001160
1002
}
  0
LWPOLYLINE
  5
4F3
330
4E9
100
AcDbEntity
  8
7052814
100
AcDbPolyline
 90
       11
 70
   128
 43
0.0
 10
1.007479469943735
 20
0.5278308434729658
 10
1.021277249091561
 20
0.5114218208831043
 10
1.034407805599732
 20
0.4944741597597363
 10
1.046850133378869
 20
0.4770149727453526
 10
1.058584327358749
 20
0.4590721908147465
 10
1.069591615332164
 20
0.4406745185914159
 10
1.079854387986454
 20
0.4218513884262961
 10
1.089356227074647
 20
0.4026329133122582
 10
1.098081931681152
 20
0.3830498387097665
 10
1.106017542539984
 20
0.3631334933606818
 10
1.113091337730852
 20
0.3430942508909969
1001
REVIT
1002
{
1070
     2
1000
-2001160
1002
}
  0
LWPOLYLINE
  5
4F4
330
4E9
100
AcDbEntity
  8
7052814
100
AcDbPolyline
 90
       19
 70
   128
 43
0.0
 10
-1.007479469943724
 20
0.5278308434729857
 10
-1.00584682878018
 20
0.5297724636023372
 10
-1.004293137651641
 20
0.5317778188757762
 10
-1.00282088213248
 20
0.5338437011526514
 10
-1.001432417517461
 20
0.5359668054620175
 10
-1.000129965053782
 20
0.5381437352898859
 10
-0.9989156083875396
 20
0.5403710080129177
 10
-0.9977912902303511
 20
0.5426450604698826
 10
-0.9967588092514265
 20
0.5449622546619518
 10
-0.9958198172000827
 20
0.5473188835727328
 10
-0.9949758162632935
 20
0.5497111770986816
 10
-0.9942281566625119
 20
0.5521353080804927
 10
-0.9935780344936109
 20
0.5545873984257098
 10
-0.9930264898133707
 20
0.5570635253128675
 10
-0.9925744049756275
 20
0.5595597274671594
 10
-0.9922225032196791
 20
0.5620720114976326
 10
-0.9919713475132674
 20
0.5645963582857612
 10
-0.9918213396519455
 20
0.567128729415188
 10
-0.9917726976109353
 20
0.5696122403439733
1001
REVIT
1002
{
1070
     2
1000
-2001160
1002
}
  0
LWPOLYLINE
  5
4F5
330
4E9
100
AcDbEntity
  8
7052814
100
AcDbPolyline
 90
       19
 70
   128
 43
0.0
 10
0.9917726976109442
 20
0.5696122403439519
 10
0.9918234304322233
 20
0.5670759375078449
 10
0.9919755477343681
 20
0.5645436922152232
 10
0.9922288061621458
 20
0.5620195555183776
 10
0.9925828005560948
 20
0.5595075654975651
 10
0.9930369646007033
 20
0.5570117408009584
 10
0.9935905717303814
 20
0.5545360742156572
 10
0.9942427362918184
 20
0.5520845262800841
 10
0.9949924149608389
 20
0.5496610189479674
 10
0.9958384084114904
 20
0.54726942931405
 10
0.9967793632347241
 20
0.5449135834115671
 10
0.9978137741035499
 20
0.5425972500914116
 10
0.9989399861812398
 20
0.540324134992771
 10
1.000156197768713
 20
0.5380978746148938
 10
1.001460463186877
 20
0.5359220304994786
 10
1.002850695889289
 20
0.5338000835329526
 10
1.004324671800194
 20
0.5317354283778045
 10
1.005880032872566
 20
0.5297313680418466
 10
1.007479469943735
 20
0.5278308434729658
1001
REVIT
1002
{
1070
     2
1000
-2001160
1002
}
  0
LINE
  5
4F6
330
4E9
100
AcDbEntity
  8
7052814
100
AcDbLine
 10
-0.9917726976109584
 20
0.6713114365847702
 30
0.0
 11
-0.9917726976109584
 21
0.5696122403439733
 31
0.0
1001
REVIT
1002
{
1070
     2
1000
-2001160
1002
}
  0
LINE
  5
4F7
330
4E9
100
AcDbEntity
  8
7052814
100
AcDbLine
 10
0.991772697610969
 20
0.5696122403439519
 30
0.0
 11
0.991772697610969
 21
0.6713114365847501
 31
0.0
1001
REVIT
1002
{
1070
     2
1000
-2001160
1002
}
  0
LWPOLYLINE
  5
4F8
330
4E9
100
AcDbEntity
  8
7052814
100
AcDbPolyline
 90
       25
 70
   128
 43
0.0
 10
-0.9917726976109353
 20
0.6713114365847702
 10
-0.9917402118070466
 20
0.672935510201506
 10
-0.9916428063657303
 20
0.6745569856469052
 10
-0.9914806371149165
 20
0.6761732689061527
 10
-0.9912539634908128
 20
0.6777817742708211
 10
-0.9909631481228604
 20
0.6793799284754576
 10
-0.9906086562536149
 20
0.6809651748142541
 10
-0.9901910549944421
 20
0.6825349772312384
 10
-0.9897110124182777
 20
0.6840868243774166
 10
-0.989169296490834
 20
0.6856182336283958
 10
-0.9885667738420398
 20
0.6871267550560586
 10
-0.9879044083796006
 20
0.688609975347924
 10
-0.9871832597469616
 20
0.6900655216679248
 10
-0.9864044816280923
 20
0.6914910654524535
 10
-0.9855693199018578
 20
0.6928843261355489
 10
-0.984679110648857
 20
0.6942430747973355
 10
-0.9837352780139987
 20
0.6955651377298022
 10
-0.9827393319281547
 20
0.6968483999142851
 10
-0.981692865692608
 20
0.6980908084050361
 10
-0.9805975534300976
 20
0.6992903756135027
 10
-0.9794551474065915
 20
0.7004451824880461
 10
-0.9782674752280282
 20
0.7015533815840087
 10
-0.9770364369165349
 20
0.7026132000192471
 10
-0.9757640018708038
 20
0.7036229423103409
 10
-0.9751858714144727
 20
0.7040551043801815
1001
REVIT
1002
{
1070
     2
1000
-2001160
1002
}
  0
LWPOLYLINE
  5
4F9
330
4E9
100
AcDbEntity
  8
7052814
100
AcDbPolyline
 90
       25
 70
   128
 43
0.0
 10
0.9751858714144869
 20
0.7040551043801616
 10
0.9764760507763519
 20
0.7030681354575269
 10
0.9777257299022625
 20
0.7020303625910963
 10
0.9789329095721974
 20
0.7009434459960778
 10
0.9800956585562037
 20
0.6998091245071596
 10
0.9812121167039471
 20
0.6986292127967476
 10
0.9822804979205592
 20
0.6974055984718789
 10
0.9832990930239979
 20
0.6961402390544473
 10
0.9842662724793882
 20
0.6948351588495941
 10
0.9851804890059217
 20
0.6934924457072425
 10
0.9860402800521796
 20
0.6921142476819908
 10
0.986844270135899
 20
0.6907027695966822
 10
0.9875911730444553
 20
0.6892602695151482
 10
0.9882797938925271
 20
0.6877890551298077
 10
0.9889090310336534
 20
0.6862914800698333
 10
0.9894778778226385
 20
0.6847699401358537
 10
0.9899854242259671
 20
0.6832268694671868
 10
0.9904308582776657
 20
0.6816647366477316
 10
0.990813467378274
 20
0.6800860407567633
 10
0.9911326394348467
 20
0.6784933073709338
 10
0.9913878638401811
 20
0.676889084523898
 10
0.9915787322896747
 20
0.6752759386299941
 10
0.9917049394345234
 20
0.6736564503785337
 10
0.9917662833702163
 20
0.6720332106052453
 10
0.9917726976109495
 20
0.6713114365847501
1001
REVIT
1002
{
1070
     2
1000
-2001160
1002
}
  0
LWPOLYLINE
  5
4FA
330
4E9
100
AcDbEntity
  8
7052814
100
AcDbPolyline
 90
       18
 70
   128
 43
0.0
 10
-0.9751858714144727
 20
0.7040551043801815
 10
-0.9584894141630311
 20
0.7168276574935952
 10
-0.9423170781913974
 20
0.730257674135615
 10
-0.9266947357872137
 20
0.7443236691445259
 10
-0.9116473793657373
 20
0.7590031399289029
 10
-0.8971990814873134
 20
0.77427260246694
 10
-0.8833729563464043
 20
0.7901076288758942
 10
-0.870191122793825
 20
0.8064828864914657
 10
-0.8576746689512777
 20
0.8233721783946712
 10
-0.8458436184748823
 20
0.8407484853213247
 10
-0.8347168985215773
 20
0.8585840088870916
 10
-0.8243123094697111
 20
0.8768502160589719
 10
-0.8146464964422435
 20
0.8955178848020761
 10
-0.8057349226780825
 20
0.9145571508286389
 10
-0.7975918447942246
 20
0.9339375553745121
 10
-0.7902302899781795
 20
0.9536280939266841
 10
-0.7836620351472732
 20
0.9735972658239006
 10
-0.781038339922425
 20
0.9824211349327971
1001
REVIT
1002
{
1070
     2
1000
-2001160
1002
}
  0
LWPOLYLINE
  5
4FB
330
4E9
100
AcDbEntity
  8
7052814
100
AcDbPolyline
 90
       18
 70
   128
 43
0.0
 10
0.7810383399224428
 20
0.9824211349327798
 10
0.7872558327790689
 20
0.9623399850562888
 10
0.7942713841178329
 20
0.9425235313574702
 10
0.8020737705531679
 20
0.9230034759349583
 10
0.8106505099311984
 20
0.9038110467133712
 10
0.8199878812985232
 20
0.8849769474852974
 10
0.8300709468528264
 20
0.8665313087917752
 10
0.840883575840154
 20
0.8485036397198555
 10
0.8524084703607019
 20
0.8309227806943548
 10
0.8646271930417483
 20
0.8138168573393322
 10
0.8775201965335241
 20
0.797213235483082
 10
0.8910668547808064
 20
0.7811384773786621
 10
0.9052454960201981
 20
0.7656182992099393
 10
0.920033437450332
 20
0.7506775299511885
 10
0.9354070215195093
 20
0.7363400716460291
 10
0.9513416537727454
 20
0.7226288611692551
 10
0.9678118421976424
 20
0.7095658335327267
 10
0.9751858714144869
 20
0.7040551043801616
1001
REVIT
1002
{
1070
     2
1000
-2001160
1002
}
  0
LWPOLYLINE
  5
4FC
330
4E9
100
AcDbEntity
  8
7052814
100
AcDbPolyline
 90
       29
 70
   128
 43
0.0
 10
-0.781038339922425
 20
0.9824211349327971
 10
-0.778678783242782
 20
0.9912817475156197
 10
-0.7766754439544865
 20
1.00022962965405
 10
-0.7750315269730362
 20
1.009250466645452
 10
-0.7737496622149234
 20
1.018329827074977
 10
-0.7728319003903082
 20
1.027453185902766
 10
-0.7722797097223335
 20
1.036605947700907
 10
-0.7720939735982722
 20
1.045773470003009
 10
-0.7722749891562995
 20
1.054941086729023
 10
-0.7728224668101423
 20
1.064094131647838
 10
-0.7737355307123384
 20
1.073217961840133
 10
-0.7750127201554254
 20
1.082297981123911
 10
-0.7766519919087412
 20
1.091319663405287
 10
-0.7786507234871785
 20
1.100268575917133
 10
-0.781005717346579
 20
1.10913040230843
 10
-0.7837132059991472
 20
1.117890965547375
 10
-0.7867688580406007
 20
1.126536250601603
 10
-0.7901677850795146
 20
1.13505242685926
 10
-0.793904549557686
 20
1.143425870255019
 10
-0.7979731734490887
 20
1.151643185065686
 10
-0.8023671478234231
 20
1.1596912253405
 10
-0.8070794432590204
 20
1.167557115931841
 10
-0.8121025210884234
 20
1.175228273092733
 10
-0.8174283454586284
 20
1.182692424608144
 10
-0.8230483961867669
 20
1.189937629427919
 10
-0.8289536823905532
 20
1.196952296769903
 10
-0.8351347568717848
 20
1.203725204662735
 10
-0.8415817312298532
 20
1.210245517898595
 10
-0.8422594262672618
 20
1.210901339666298
1001
REVIT
1002
{
1070
     2
1000
-2001160
1002
}
  0
LWPOLYLINE
  5
4FD
330
4E9
100
AcDbEntity
  8
7052814
100
AcDbPolyline
 90
       29
 70
   128
 43
0.0
 10
0.8422594262672848
 20
1.210901339666281
 10
0.8357856839496342
 20
1.204407602416285
 10
0.8295768001643519
 20
1.197660178818483
 10
0.8236427078010049
 20
1.190669863311255
 10
0.8179929001414993
 20
1.183447838908228
 10
0.8126364156728662
 20
1.17600565930783
 10
0.8075818236275971
 20
1.168355230409839
 10
0.8028372102747063
 20
1.160508791268488
 10
0.7984101659834338
 20
1.152478894512588
 10
0.7943077730802575
 20
1.144278386263992
 10
0.7905365945186916
 20
1.135920385586551
 10
0.7871026633799599
 20
1.127418263498404
 10
0.7840114732213515
 20
1.118785621581202
 10
0.7812679692876987
 20
1.11003627022048
 10
0.7788765406000504
 20
1.101184206511989
 10
0.7768410129341597
 20
1.092243591869319
 10
0.7751646427000694
 20
1.083228729368672
 10
0.7738501117325481
 20
1.074154040866979
 10
0.7728995230007261
 20
1.065034043930015
 10
0.7723143972437932
 20
1.05588332860738
 10
0.7720956705381373
 20
1.046716534091545
 10
0.7722436927998331
 20
1.037548325298254
 10
0.7727582272248342
 20
1.028393369405799
 10
0.7736384506678231
 20
1.019266312390653
 10
0.7748829549590593
 20
1.010181755597039
 10
0.7764897491571628
 20
1.001154232377892
 10
0.7784562627341778
 20
0.9921981848445915
 10
0.780779349687883
 20
0.9833279407626706
 10
0.7810383399224428
 20
0.9824211349327798
1001
REVIT
1002
{
1070
     2
1000
-2001160
1002
}
  0
LWPOLYLINE
  5
4FE
330
4E9
100
AcDbEntity
  8
7052814
100
AcDbPolyline
 90
       49
 70
   128
 43
0.0
 10
-0.8422594262672582
 20
1.210901339666298
 10
-0.844471837022878
 20
1.213120583718828
 10
-0.8465937319938117
 20
1.215426525445887
 10
-0.8486217166007552
 20
1.217815475832621
 10
-0.8505525465009498
 20
1.220283613068025
 10
-0.8523831327784403
 20
1.22282698865903
 10
-0.8541105468856944
 20
1.225441533747251
 10
-0.8557320253286277
 20
1.228123065618284
 10
-0.8572449740876351
 20
1.230867294393166
 10
-0.8586469727674419
 20
1.233669829891262
 10
-0.8599357784692429
 20
1.236526188653616
 10
-0.8611093293788414
 20
1.239431801115533
 10
-0.862165748065129
 20
1.242382018916906
 10
-0.8631033444835622
 20
1.245372122338596
 10
-0.8639206186798844
 20
1.248397327852986
 10
-0.8646162631897205
 20
1.251452795776596
 10
-0.865189165130257
 20
1.254533638012544
 10
-0.8656384079805956
 20
1.257634925870465
 10
-0.8659632730480097
 20
1.26075169795136
 10
-0.8661632406176948
 20
1.263878968084774
 10
-0.8662379907841977
 20
1.26701173330561
 10
-0.8661874039631953
 20
1.270144981857802
 10
-0.8660115610828089
 20
1.273273701212057
 10
-0.8657107434541391
 20
1.276392886084831
 10
-0.8652854323212189
 20
1.279497546445722
 10
-0.8647363080911336
 20
1.282582715500441
 10
-0.8640642492455121
 20
1.285643457636639
 10
-0.8632703309351388
 20
1.288674876319818
 10
-0.8623558232599535
 20
1.291672121926753
 10
-0.8613221892371516
 20
1.294630399503854
 10
-0.8601710824606705
 20
1.297544976438061
 10
-0.8589043444557979
 20
1.300411190028023
 10
-0.85752400173312
 20
1.303224454943424
 10
-0.8560322625465328
 20
1.305980270560527
 10
-0.8544315133605167
 20
1.308674228162223
 10
-0.852724315032292
 20
1.311302017991029
 10
-0.8509133987150026
 20
1.313859436143784
 10
-0.8490016614884474
 20
1.316342391296999
 10
-0.8469921617243709
 20
1.318746911252094
 10
-0.8448881141937309
 20
1.321069149290081
 10
-0.842692884923732
 20
1.323305390325482
 10
-0.8404099858129168
 20
1.325452056849682
 10
-0.8380430690128726
 20
1.327505714654169
 10
-0.835595921085563
 20
1.329463078324549
 10
-0.8330724569456382
 20
1.331321016496498
 10
-0.8304767135974131
 20
1.33307655686528
 10
-0.8278128436765186
 20
1.334726890940799
 10
-0.8250851088065651
 20
1.336269378540589
 10
-0.8228439058759686
 20
1.337432013627938
1001
REVIT
1002
{
1070
     2
1000
-2001160
1002
}
  0
LWPOLYLINE
  5
4FF
330
4E9
100
AcDbEntity
  8
7052814
100
AcDbPolyline
 90
       49
 70
   128
 43
0.0
 10
0.8228439058759953
 20
1.337432013627921
 10
0.8256199264722905
 20
1.335978220257042
 10
0.8283355903192557
 20
1.334414578550462
 10
0.8309865529340463
 20
1.332743590001353
 10
0.8335685733419868
 20
1.330967927834936
 10
0.8360775208612256
 20
1.329090432731885
 10
0.8385093817109474
 20
1.327114108283861
 10
0.8408602654325605
 20
1.325042116188382
 10
0.8431264111136052
 20
1.322877771190801
 10
0.8453041934044112
 20
1.320624535781414
 10
0.8473901283178815
 20
1.318286014656208
 10
0.8493808788031316
 20
1.315865948950126
 10
0.8512732600840546
 20
1.313368210252046
 10
0.8530642447542877
 20
1.310796794411064
 10
0.8547509676204132
 20
1.308155815143982
 10
0.8563307302856628
 20
1.30544949745425
 10
0.8578010054667704
 20
1.302682170872855
 10
0.8591594410370859
 20
1.299858262531998
 10
0.8604038637894841
 20
1.296982290082618
 10
0.8615322829130196
 20
1.29405885446713
 10
0.8625428931778138
 20
1.291092632558884
 10
0.8634340778230296
 20
1.288088369680173
 10
0.8642044111433424
 20
1.285050872010727
 10
0.8648526607697686
 20
1.281984998898854
 10
0.8653777896411938
 20
1.278895655087512
 10
0.8657789576634407
 20
1.275787782867779
 10
0.8660555230532551
 20
1.272666354172226
 10
0.8662070433650104
 20
1.269536362620895
 10
0.8662332761985318
 20
1.266402815532575
 10
0.8661341795868793
 20
1.263270725914154
 10
0.8659099120634898
 20
1.260145104440874
 10
0.8655608324085655
 20
1.257030951440332
 10
0.865087499075086
 20
1.25393324889301
 10
0.8644906692954084
 20
1.250856952462176
 10
0.8637712978698672
 20
1.247806983565877
 10
0.8629305356392844
 20
1.244788221503724
 10
0.8619697276438778
 20
1.241805495651046
 10
0.8608904109714767
 20
1.238863577732929
 10
0.8596943122985134
 20
1.235967174190464
 10
0.8583833451277147
 20
1.233120918651452
 10
0.8569596067268925
 20
1.230329364517586
 10
0.8554253747737732
 20
1.227596977679985
 10
0.8537831037121996
 20
1.224928129374707
 10
0.8520354208255351
 20
1.222327089189717
 10
0.8501851220335794
 20
1.219798018234454
 10
0.8482351674196912
 20
1.217344962482938
 10
0.8461886764952843
 20
1.21497184630108
 10
0.8440489232092769
 20
1.212682466168536
 10
0.8422594262672831
 20
1.210901339666281
1001
REVIT
1002
{
1070
     2
1000
-2001160
1002
}
  0
LWPOLYLINE
  5
500
330
4E9
100
AcDbEntity
  8
7052814
100
AcDbPolyline
 90
       30
 70
   128
 43
0.0
 10
-0.8228439058759686
 20
1.337432013627938
 10
-0.8218271501316909
 20
1.337964485455708
 10
-0.8208325008774242
 20
1.338537190748054
 10
-0.819861549339798
 20
1.33914921329868
 10
-0.8189158488341448
 20
1.339799574002059
 10
-0.817996912279538
 20
1.340487232419805
 10
-0.81710620977843
 20
1.341211088445143
 10
-0.8162451662648226
 20
1.341969984062844
 10
-0.8154151592246545
 20
1.342762705201811
 10
-0.8146175164921327
 20
1.343587983677325
 10
-0.8138535141254727
 20
1.344444499219878
 10
-0.8131243743654881
 20
1.345330881587313
 10
-0.8124312636802439
 20
1.346245712756926
 10
-0.8117752908989892
 20
1.347187529194002
 10
-0.8111575054382367
 20
1.348154824193149
 10
-0.8105788956229371
 20
1.349146050288715
 10
-0.8100403871053636
 20
1.350159621730398
 10
-0.8095428413842711
 20
1.351193917020107
 10
-0.8090870544266746
 20
1.352247281506018
 10
-0.8086737553944782
 20
1.353318030029659
 10
-0.8083036054779633
 20
1.354404449621804
 10
-0.807977196838042
 20
1.355504802242865
 10
-0.8076950516589018
 20
1.356617327563378
 10
-0.8074576213126452
 20
1.357740245780155
 10
-0.8072652856371735
 20
1.358871760463592
 10
-0.8071183523285441
 20
1.360010061431574
 10
-0.8070170564487
 20
1.361153327645375
 10
-0.8069615600494461
 20
1.362299730122938
 10
-0.8069519519131773
 20
1.363447434864852
 10
-0.806967135688037
 20
1.364104948447794
1001
REVIT
1002
{
1070
     2
1000
-2001160
1002
}
  0
LWPOLYLINE
  5
501
330
4E9
100
AcDbEntity
  8
7052814
100
AcDbPolyline
 90
       30
 70
   128
 43
0.0
 10
0.8069671356880636
 20
1.364104948447776
 10
0.8069504381485295
 20
1.362957324954175
 10
0.8069796466646526
 20
1.361809951713472
 10
0.8070547145090394
 20
1.360664664278097
 10
0.807175521589146
 20
1.359523294863626
 10
0.8073418746394231
 20
1.358387669417645
 10
0.8075535075304713
 20
1.357259604698616
 10
0.8078100816948143
 20
1.356140905369447
 10
0.8081111866685208
 20
1.355033361110421
 10
0.8084563407478668
 20
1.353938743756089
 10
0.8088449917599511
 20
1.352858804460711
 10
0.8092765179460634
 20
1.351795270896788
 10
0.8097502289563607
 20
1.350749844491145
 10
0.8102653669542796
 20
1.349724197703018
 10
0.8108211078289127
 20
1.348719971348477
 10
0.8114165625134113
 20
1.347738771975465
 10
0.8120507784073076
 20
1.346782169293667
 10
0.81272274090046
 20
1.345851693663308
 10
0.8134313749962238
 20
1.344948833646909
 10
0.8141755470312155
 20
1.344075033627895
 10
0.8149540664889247
 20
1.343231691499895
 10
0.8157656879042978
 20
1.34242015643041
 10
0.816609112856204
 20
1.341641726702434
 10
0.817482992044642
 20
1.340897647637477
 10
0.8183859274493272
 20
1.340189109603312
 10
0.8193164745662286
 20
1.339517246109648
 10
0.8202731447184667
 20
1.338883131994751
 10
0.8212544074378751
 20
1.338287781705935
 10
0.8222586929134259
 20
1.337732147676662
 10
0.8228439058759953
 20
1.337432013627921
1001
REVIT
1002
{
1070
     2
1000
-2001160
1002
}
  0
LWPOLYLINE
  5
502
330
4E9
100
AcDbEntity
  8
7052814
100
AcDbPolyline
 90
       22
 70
   128
 43
0.0
 10
-0.8069671356880387
 20
1.364104948447794
 10
-0.8078718021685329
 20
1.380673079246447
 10
-0.8094382935316897
 20
1.397191780297419
 10
-0.8116641037254961
 20
1.41363462520283
 10
-0.8145456719284567
 20
1.429975308918451
 10
-0.8180783882461497
 20
1.446187689836161
 10
-0.8222566010860674
 20
1.462245831604951
 10
-0.8270736261989775
 20
1.478124044623546
 10
-0.8325217573722696
 20
1.493796927138286
 10
-0.8385922787582771
 20
1.509239405880516
 10
-0.8452754788177561
 20
1.524426776178471
 10
-0.852560665856286
 20
1.539334741479475
 10
-0.8604361851286963
 20
1.553939452219237
 10
-0.8688894374841691
 20
1.568217543976083
 10
-0.8779068995222019
 20
1.582146174849033
 10
-0.8874741452271557
 20
1.595703061999971
 10
-0.8975758690468076
 20
1.608866517301439
 10
-0.9081959103779642
 20
1.621615482033006
 10
-0.9193172794199835
 20
1.63392956057074
 10
-0.9309221843548325
 20
1.645789053015838
 10
-0.9429920598101944
 20
1.657174986710283
 10
-0.9472225706242305
 20
1.660956442728652
1001
REVIT
1002
{
1070
     2
1000
-2001160
1002
}
  0
LWPOLYLINE
  5
503
330
4E9
100
AcDbEntity
  8
7052814
100
AcDbPolyline
 90
       22
 70
   128
 43
0.0
 10
0.9472225706242625
 20
1.660956442728632
 10
0.9349980933030508
 20
1.64973665958343
 10
0.9232320659175119
 20
1.638037002359176
 10
0.9119433116015205
 20
1.625876188011633
 10
0.9011498899538334
 20
1.613273671249593
 10
0.8908690681466211
 20
1.600249613411478
 10
0.881117293301644
 20
1.586824850211513
 10
0.8719101661783881
 20
1.573020858407023
 10
0.8632624162161715
 20
1.558859721440196
 10
0.8551878779701755
 20
1.544364094109302
 10
0.8476994689791172
 20
1.529557166325832
 10
0.8408091690999413
 20
1.514462626015598
 10
0.834528001342603
 20
1.499104621223099
 10
0.8288660142356025
 20
1.483507721479803
 10
0.8238322657504859
 20
1.46769687849814
 10
0.8194348088110157
 20
1.451697386254079
 10
0.8156806784102261
 20
1.435534840522169
 10
0.8125758803559186
 20
1.419235097927753
 10
0.8101253816626563
 20
1.402824234581892
 10
0.8083331026056068
 20
1.386328504365138
 10
0.8072019104489243
 20
1.36977429692694
 10
0.8069671356880654
 20
1.364104948447776
1001
REVIT
1002
{
1070
     2
1000
-2001160
1002
}
  0
LWPOLYLINE
  5
504
330
4E9
100
AcDbEntity
  8
7052814
100
AcDbPolyline
 90
       11
 70
   128
 43
0.0
 10
-0.9472225706242305
 20
1.660956442728652
 10
-0.950846445684224
 20
1.664024744498761
 10
-0.9545901213755669
 20
1.666945675603897
 10
-0.95844760861576
 20
1.669714563177391
 10
-0.9624127362481065
 20
1.67232697758979
 10
-0.9664791609142433
 20
1.67477873953532
 10
-0.9706403772021587
 20
1.67706592671788
 10
-0.974889728053478
 20
1.679184880125889
 10
-0.9792204154133123
 20
1.68113220988591
 10
-0.9836255111057194
 20
1.682904800685737
 10
-0.9877816735474276
 20
1.684393602958246
1001
REVIT
1002
{
1070
     2
1000
-2001160
1002
}
  0
LWPOLYLINE
  5
505
330
4E9
100
AcDbEntity
  8
7052814
100
AcDbPolyline
 90
       11
 70
   128
 43
0.0
 10
0.9877816735474613
 20
1.684393602958226
 10
0.9833137171567862
 20
1.682786023444192
 10
0.978913620689088
 20
1.681001059221067
 10
0.974588423360073
 20
1.679041565850833
 10
0.9703450445628103
 20
1.676910678104881
 10
0.9661902727981708
 20
1.674611804949039
 10
0.9621307548146713
 20
1.672148624089956
 10
0.9581729849751035
 20
1.669525076091557
 10
0.9543232948669295
 20
1.666745358070977
 10
0.9505878431731016
 20
1.663813916984076
 10
0.9472225706242625
 20
1.660956442728632
1001
REVIT
1002
{
1070
     2
1000
-2001160
1002
}
  0
LWPOLYLINE
  5
506
330
4E9
100
AcDbEntity
  8
7052814
100
AcDbPolyline
 90
       60
 70
   128
 43
0.0
 10
-0.9877816735474276
 20
1.684393602958246
 10
-0.9909945945937952
 20
1.685549618282194
 10
-0.9941587173629073
 20
1.686833191490622
 10
-0.9972689799333043
 20
1.688242269140212
 10
-1.000320406548366
 20
1.689774597007313
 10
-1.003308115576443
 20
1.691427723694215
 10
-1.006227327320436
 20
1.693199004550867
 10
-1.009073371664282
 20
1.695085605905753
 10
-1.011841695544159
 20
1.697084509599158
 10
-1.0145278702324
 20
1.699192517811582
 10
-1.017127598422526
 20
1.701406258179572
 10
-1.019636721104012
 20
1.703722189190773
 10
-1.022051224215818
 20
1.706136605849613
 10
-1.024367245068033
 20
1.708645645604481
 10
-1.026581078521349
 20
1.711245294527006
 10
-1.028689182914501
 20
1.713931393733471
 10
-1.030688185730166
 20
1.71669964603815
 10
-1.032574888990268
 20
1.719545622827886
 10
-1.034346274372071
 20
1.722464771146925
 10
-1.035999508036832
 20
1.725452420980673
 10
-1.037531945163362
 20
1.728503792726729
 10
-1.038941134179163
 20
1.731614004841224
 10
-1.040224820682418
 20
1.734778081648248
 10
-1.041380951048562
 20
1.737990961299882
 10
-1.042407675715637
 20
1.741247503874058
 10
-1.043303352143199
 20
1.744542499597351
 10
-1.04406654744003
 20
1.747870677179496
 10
-1.044696040656459
 20
1.751226712246336
 10
-1.04519082473763
 20
1.754605235857683
 10
-1.045550108134557
 20
1.758000843096468
 10
-1.04577331607045
 20
1.761408101715469
 10
-1.045860091460228
 20
1.764821560827738
 10
-1.045810295481775
 20
1.768235759626859
 10
-1.045624007798037
 20
1.771645236123081
 10
-1.045301526429566
 20
1.775044535881324
 10
-1.044843367277763
 20
1.77842822074712
 10
-1.044250263299531
 20
1.781790877546499
 10
-1.043523163334716
 20
1.785127126745909
 10
-1.042663230588154
 20
1.788431631058327
 10
-1.041671840768799
 20
1.791699103981778
 10
-1.040550579888876
 20
1.794924318256604
 10
-1.039301241726599
 20
1.798102114227979
 10
-1.037925824956522
 20
1.80122740810024
 10
-1.036426529952068
 20
1.804295200069885
 10
-1.034805755265411
 20
1.807300582324191
 10
-1.033066093790306
 20
1.810238746892664
 10
-1.031210328614003
 20
1.813104993338771
 10
-1.029241428564908
 20
1.81589473627963
 10
-1.02716254346309
 20
1.81860351272165
 10
-1.024976999081243
 20
1.821226989200364
 10
-1.022688291824149
 20
1.823760968713055
 10
-1.020300083135191
 20
1.82620139743305
 10
-1.017816193638813
 20
1.828544371194998
 10
-1.015240597028338
 20
1.830786141740689
 10
-1.012577413708916
 20
1.832923122715465
 10
-1.009830904205744
 20
1.834951895405632
 10
-1.007005462348129
 20
1.836869214207671
 10
-1.004105608240323
 20
1.838672011820502
 10
-1.001135981030287
 20
1.840357404152521
 10
-0.9995698945341562
 20
1.841184385253151
1001
REVIT
1002
{
1070
     2
1000
-2001160
1002
}
  0
LWPOLYLINE
  5
507
330
4E9
100
AcDbEntity
  8
7052814
100
AcDbPolyline
 90
       60
 70
   128
 43
0.0
 10
0.9995698945341935
 20
1.841184385253131
 10
1.002573844869983
 20
1.839560958180697
 10
1.00551047259818
 20
1.837818703702908
 10
1.008375079740869
 20
1.835960409055264
 10
1.011163083537704
 20
1.833989047112788
 10
1.013870023777354
 20
1.831907771634056
 10
1.016491569932879
 20
1.829719912215848
 10
1.019023528089672
 20
1.827428968966516
 10
1.021461847654798
 20
1.825038606906552
 10
1.023802627837103
 20
1.822552650105332
 10
1.026042123887634
 20
1.819975075563433
 10
1.028176753090447
 20
1.817310006850266
 10
1.030203100494176
 20
1.814561707507254
 10
1.032117924375242
 20
1.811734574227074
 10
1.033918161423908
 20
1.808833129819885
 10
1.03560093164493
 20
1.805862015977798
 10
1.03716354296492
 20
1.802825985849153
 10
1.038603495539112
 20
1.799729896434507
 10
1.039918485750556
 20
1.79657870081646
 10
1.04110640989543
 20
1.793377440235779
 10
1.042165367548514
 20
1.790131236026494
 10
1.043093664603462
 20
1.786845281422855
 10
1.043889815983014
 20
1.783524833251262
 10
1.044552548014795
 20
1.780175203520463
 10
1.045080800468934
 20
1.776801750923479
 10
1.04547372825419
 20
1.773409872264832
 10
1.045730702769926
 20
1.770004993826818
 10
1.045851312911736
 20
1.766592562688598
 10
1.045835365729121
 20
1.763178038012049
 10
1.045682886734173
 20
1.759766882308259
 10
1.045394119860755
 20
1.756364552698679
 10
1.044969527074265
 20
1.752976492184896
 10
1.044409787632586
 20
1.749608120940981
 10
1.043715796999423
 20
1.746264827642379
 10
1.042888665411743
 20
1.742951960845168
 10
1.04192971610364
 20
1.739674820429517
 10
1.040840483189441
 20
1.736438649121007
 10
1.039622709209455
 20
1.733248624103383
 10
1.038278342342271
 20
1.730109848736171
 10
1.036809533288092
 20
1.727027344390389
 10
1.035218631828078
 20
1.724006042415424
 10
1.033508183065189
 20
1.721050776249928
 10
1.031680923352569
 20
1.718166273689339
 10
1.029739775915965
 20
1.71535714932243
 10
1.027687846177183
 20
1.712627897148939
 10
1.025528416786087
 20
1.709982883390132
 10
1.023264942369051
 20
1.707426339503787
 10
1.020901044002288
 20
1.704962355414752
 10
1.018440503418915
 20
1.70259487297195
 10
1.015887256958979
 20
1.700327679642251
 10
1.013245389272153
 20
1.698164402451344
 10
1.010519126783167
 20
1.696108502181257
 10
1.007712830930431
 20
1.694163267833854
 10
1.004830991188665
 20
1.692331811369129
 10
1.001878217886696
 20
1.690617062726738
 10
0.9988592348319187
 20
1.689021765138714
 10
0.9957788717532007
 20
1.687548470740885
 10
0.9926420565743594
 20
1.686199536490002
 10
0.9894538075305341
 20
1.68497712039311
 10
0.9877816735474613
 20
1.684393602958226
1001
REVIT
1002
{
1070
     2
1000
-2001160
1002
}
  0
LWPOLYLINE
  5
508
330
4E9
100
AcDbEntity
  8
7052814
100
AcDbPolyline
 90
       31
 70
   128
 43
0.0
 10
-0.7691574980941134
 20
5.300659350095878
 10
-0.7773053688070828
 20
5.323100639716971
 10
-0.7823788609810816
 20
5.347479783896945
 10
-0.7837492157101825
 20
5.372884227004873
 10
-0.7812271697400082
 20
5.3981013687606
 10
-0.7751544414385503
 20
5.421976017800148
 10
-0.7662421656680323
 20
5.443730560583114
 10
-0.7552894137690807
 20
5.463064744346966
 10
-0.7429673670287294
 20
5.480052803477946
 10
-0.7297388394505529
 20
5.494971599496009
 10
-0.7158749462109136
 20
5.508161039586212
 10
-0.7015082721119903
 20
5.519944472473243
 10
-0.6866852802290495
 20
5.530596030705148
 10
-0.6714051213088723
 20
5.540334432722136
 10
-0.6556445526745538
 20
5.549328421529387
 10
-0.639372539931733
 20
5.55770576113487
 10
-0.6225581899391841
 20
5.565562169568188
 10
-0.6051747000953949
 20
5.572968905817238
 10
-0.5872010541623194
 20
5.579978778656933
 10
-0.5686225036949058
 20
5.586630743784838
 10
-0.5494304321377346
 20
5.592953362036571
 10
-0.5296219333115424
 20
5.598967382736564
 10
-0.5091992825431415
 20
5.604687671368131
 10
-0.4881693921523791
 20
5.610124651571898
 10
-0.4665432952522384
 20
5.615285388953433
 10
-0.4443356760861086
 20
5.620174410671117
 10
-0.4215644517165416
 20
5.624794329533662
 10
-0.398250403265429
 20
5.6291463227576
 10
-0.3744168519719189
 20
5.63323050201612
 10
-0.3500893743427138
 20
5.637046201620198
 10
-0.335850434160152
 20
5.639123545087395
1001
REVIT
1002
{
1070
     2
1000
-2001160
1002
}
  0
LWPOLYLINE
  5
509
330
4E9
100
AcDbEntity
  8
7052814
100
AcDbPolyline
 90
       31
 70
   128
 43
0.0
 10
0.7691574980942218
 20
5.300659350095863
 10
0.777305368807193
 20
5.323100639716956
 10
0.7823788609811917
 20
5.34747978389693
 10
0.7837492157102926
 20
5.372884227004857
 10
0.7812271697401201
 20
5.398101368760584
 10
0.7751544414386605
 20
5.421976017800133
 10
0.7662421656681424
 20
5.443730560583099
 10
0.7552894137691944
 20
5.463064744346951
 10
0.7429673670288413
 20
5.480052803477931
 10
0.7297388394506666
 20
5.494971599495994
 10
0.7158749462110237
 20
5.508161039586199
 10
0.701508272112104
 20
5.519944472473229
 10
0.6866852802291632
 20
5.530596030705135
 10
0.671405121308986
 20
5.540334432722125
 10
0.6556445526746693
 20
5.549328421529374
 10
0.6393725399318467
 20
5.557705761134857
 10
0.6225581899392978
 20
5.565562169568177
 10
0.6051747000955086
 20
5.572968905817227
 10
0.5872010541624349
 20
5.579978778656922
 10
0.5686225036950212
 20
5.586630743784828
 10
0.5494304321378518
 20
5.59295336203656
 10
0.5296219333116561
 20
5.598967382736554
 10
0.5091992825432552
 20
5.604687671368122
 10
0.4881693921524946
 20
5.610124651571889
 10
0.4665432952523539
 20
5.615285388953424
 10
0.4443356760862223
 20
5.620174410671109
 10
0.4215644517166571
 20
5.624794329533654
 10
0.3982504032655427
 20
5.629146322757592
 10
0.3744168519720343
 20
5.633230502016114
 10
0.3500893743428293
 20
5.637046201620192
 10
0.3358504341602657
 20
5.63912354508739
1001
REVIT
1002
{
1070
     2
1000
-2001160
1002
}
  0
LWPOLYLINE
  5
50A
330
4E9
100
AcDbEntity
  8
7052814
100
AcDbPolyline
 90
        7
 70
   128
 43
0.0
 10
-0.7114488979622511
 20
5.585731490805541
 10
-0.7120721168361844
 20
5.574681625475314
 10
-0.7109942908659282
 20
5.563668794171783
 10
-0.7082874594482665
 20
5.5529486945616
 10
-0.7041045136932898
 20
5.542697373129703
 10
-0.6986193375933212
 20
5.532989177951344
 10
-0.6933960942313622
 20
5.525773750109327
1001
REVIT
1002
{
1070
     2
1000
-2001160
1002
}
  0
LWPOLYLINE
  5
50B
330
4E9
100
AcDbEntity
  8
7052814
100
AcDbPolyline
 90
        7
 70
   128
 43
0.0
 10
0.7114488979623648
 20
5.585731490805526
 10
0.712072116836298
 20
5.574681625475298
 10
0.7109942908660401
 20
5.563668794171769
 10
0.7082874594483802
 20
5.552948694561586
 10
0.7041045136934017
 20
5.54269737312969
 10
0.6986193375934313
 20
5.53298917795133
 10
0.6933960942314741
 20
5.525773750109315
1001
REVIT
1002
{
1070
     2
1000
-2001160
1002
}
  0
LWPOLYLINE
  5
50C
330
4E9
100
AcDbEntity
  8
7052814
100
AcDbPolyline
 90
       40
 70
   128
 43
0.0
 10
-0.71144889796226
 20
5.585731490805546
 10
-0.7075287495962801
 20
5.604351462279198
 10
-0.7012169204465799
 20
5.621617204188822
 10
-0.6930693992357267
 20
5.637226819452775
 10
-0.6835871863978778
 20
5.651167079106237
 10
-0.6731345053471927
 20
5.663598619804262
 10
-0.6619357879089201
 20
5.674749026618115
 10
-0.6501088226178027
 20
5.684846163147175
 10
-0.637702681370433
 20
5.694087828492023
 10
-0.6247275134839399
 20
5.702633536483968
 10
-0.6111743177242808
 20
5.710606745124359
 10
-0.5970267967450358
 20
5.7181007476919
 10
-0.5822679332148138
 20
5.725185014153945
 10
-0.5668833525080022
 20
5.731910749904285
 10
-0.5508628413889447
 20
5.738315365690576
 10
-0.5342008586560337
 20
5.744425924049065
 10
-0.5168965233960919
 20
5.750261741962996
 10
-0.4989533531529702
 20
5.755836338387688
 10
-0.4803788998124095
 20
5.761158888114324
 10
-0.4611843603398765
 20
5.7662353090574
 10
-0.4413842002728235
 20
5.771069078968974
 10
-0.4209958065717938
 20
5.775661852607264
 10
-0.4000391752143529
 20
5.780013931387291
 10
-0.3785366332755622
 20
5.7841246234854
 10
-0.3565125926387598
 20
5.78799252211704
 10
-0.3339933314980499
 20
5.79161572227619
 10
-0.3110067996606904
 20
5.794991990847387
 10
-0.2875824439012025
 20
5.798118901104235
 10
-0.2637510500271887
 20
5.800993939774715
 10
-0.2395445987684788
 20
5.803614592783483
 10
-0.2149961330361148
 20
5.805978414260531
 10
-0.1901396344895207
 20
5.808083082281321
 10
-0.1650099076894467
 20
5.80992644396637
 10
-0.1396424704009842
 20
5.81150655194039
 10
-0.1140734488486963
 20
5.812821693675777
 10
-0.0883394769201704
 20
5.813870414881946
 10
-0.062477598470597
 20
5.814651537820755
 10
-0.0365251720043567
 20
5.815164175207049
 10
-0.01051977710455
 20
5.815407740175756
 10
0.0000000000000568
 20
5.815429755214027
1001
REVIT
1002
{
1070
     2
1000
-2001160
1002
}
  0
LWPOLYLINE
  5
50D
330
4E9
100
AcDbEntity
  8
7052814
100
AcDbPolyline
 90
        7
 70
   128
 43
0.0
 10
0.7114488979623755
 20
5.585731490805533
 10
0.7075287495963938
 20
5.604351462279185
 10
0.7012169204466954
 20
5.621617204188808
 10
0.6930693992358421
 20
5.637226819452761
 10
0.6835871863979932
 20
5.651167079106223
 10
0.6731345053473082
 20
5.663598619804249
 10
0.6619375000000006
 20
5.674747321912999
1001
REVIT
1002
{
1070
     2
1000
-2001160
1002
}
  0
LWPOLYLINE
  5
50E
330
4E9
100
AcDbEntity
  8
7052814
100
AcDbPolyline
 90
       34
 70
   128
 43
0.0
 10
0.6619357879090356
 20
5.674749026618101
 10
0.65010882261792
 20
5.684846163147161
 10
0.6377026813705467
 20
5.694087828492012
 10
0.6247275134840571
 20
5.702633536483956
 10
0.611174317724398
 20
5.710606745124347
 10
0.5970267967451531
 20
5.718100747691888
 10
0.5822679332149292
 20
5.725185014153933
 10
0.5668833525081176
 20
5.731910749904274
 10
0.550862841389062
 20
5.738315365690564
 10
0.5342008586561527
 20
5.744425924049055
 10
0.5168965233962091
 20
5.750261741962988
 10
0.4989533531530892
 20
5.75583633838768
 10
0.4803788998125267
 20
5.761158888114316
 10
0.4611843603399955
 20
5.766235309057392
 10
0.4413842002729407
 20
5.771069078968966
 10
0.4209958065719129
 20
5.775661852607257
 10
0.4000391752144719
 20
5.780013931387283
 10
0.3785366332756794
 20
5.784124623485392
 10
0.356512592638877
 20
5.787992522117033
 10
0.3339933314981689
 20
5.791615722276183
 10
0.3110067996608095
 20
5.794991990847383
 10
0.2875824439013215
 20
5.79811890110423
 10
0.2637510500273077
 20
5.80099393977471
 10
0.2395445987685978
 20
5.803614592783478
 10
0.2149961330362338
 20
5.805978414260528
 10
0.1901396344896398
 20
5.808083082281318
 10
0.1650099076895657
 20
5.809926443966368
 10
0.1396424704011032
 20
5.811506551940389
 10
0.1140734488488135
 20
5.812821693675776
 10
0.0883394769202894
 20
5.813870414881945
 10
0.062477598470716
 20
5.814651537820754
 10
0.0365251720044757
 20
5.815164175207049
 10
0.010519777104669
 20
5.815407740175758
 10
0.0000000000000568
 20
5.815429755214028
1001
REVIT
1002
{
1070
     2
1000
-2001160
1002
}
  0
LINE
  5
50F
330
4E9
100
AcDbEntity
  8
7052814
100
AcDbLine
 10
-1.286840152490141
 20
0.0000000000000132
 30
0.0
 11
1.286840152490141
 21
-0.0000000000000132
 31
0.0
1001
REVIT
1002
{
1070
     2
1000
-2001160
1002
}
  0
LINE
  5
510
330
4E9
100
AcDbEntity
  8
7052814
100
AcDbLine
 10
0.9995698945341988
 20
1.841184385253128
 30
0.0
 11
-0.9995698945344795
 21
1.84118438525298
 31
0.0
1001
REVIT
1002
{
1070
     2
1000
-2001160
1002
}
  0
ELLIPSE
  5
511
330
4E9
100
AcDbEntity
  8
7052814
100
AcDbEllipse
 10
0.0000000000000551
 20
5.323455821643729
 30
0.0
 11
-0.7741841720922821
 21
0.0000000000000083
 31
0.0
210
0.0
220
0.0
230
1.0
 40
0.2588190451025234
 41
4.712388980384681
 42
7.853981633974478
1001
REVIT
1002
{
1070
     2
1000
-2001160
1002
}
  0
ELLIPSE
  5
512
330
4E9
100
AcDbEntity
  8
7052814
100
AcDbEllipse
 10
0.0000000000000551
 20
5.323455821643729
 30
0.0
 11
-0.7741841720922831
 21
0.000000000000008
 31
0.0
210
0.0
220
0.0
230
1.0
 40
0.258819045102523
 41
1.570796326794892
 42
4.712388980384681
1001
REVIT
1002
{
1070
     2
1000
-2001160
1002
}
  0
LWPOLYLINE
  5
513
330
4E9
100
AcDbEntity
  8
7052814
100
AcDbPolyline
 90
        3
 70
   128
 43
0.0
 10
-0.6236051399890315
 20
5.885566896853974
 10
-0.6317906321430425
 20
5.813544208460661
 10
-0.6441392007817939
 20
5.689293093594254
1001
REVIT
1002
{
1070
     2
1000
-2001160
1002
}
  0
LWPOLYLINE
  5
514
330
4E9
100
AcDbEntity
  8
7052814
100
AcDbPolyline
 90
        4
 70
   128
 43
0.0
 10
-0.6892856541159152
 20
5.235030148379311
 10
-0.7163979754682046
 20
4.962226372234244
 10
-0.8680585828712814
 20
3.409806812194337
 10
-0.9972173156917563
 20
1.84118438525298
1001
REVIT
1002
{
1070
     2
1000
-2001160
1002
}
  0
LWPOLYLINE
  5
515
330
4E9
100
AcDbEntity
  8
7052814
100
AcDbPolyline
 90
        3
 70
   128
 43
0.0
 10
0.6237843632757088
 20
5.883989943058545
 10
0.6317906321431633
 20
5.813544208460727
 10
0.6441392007819236
 20
5.689293093594232
1001
REVIT
1002
{
1070
     2
1000
-2001160
1002
}
  0
LWPOLYLINE
  5
516
330
4E9
100
AcDbEntity
  8
7052814
100
AcDbPolyline
 90
        4
 70
   128
 43
0.0
 10
0.6892856541160324
 20
5.235030148379304
 10
0.7163979754683041
 20
4.96222637223438
 10
0.868058582871356
 20
3.409806812194406
 10
0.9972173156917918
 20
1.841184385253128
1001
REVIT
1002
{
1070
     2
1000
-2001160
1002
}
  0
LWPOLYLINE
  5
517
330
4E9
100
AcDbEntity
  8
7052814
100
AcDbPolyline
 90
       18
 70
   128
 43
0.0
 10
0.0000000000000835
 20
7.782310917728084
 10
-0.0914996461667137
 20
7.774403166454487
 10
-0.1802348179036812
 20
7.750932482334006
 10
-0.2636802646833267
 20
7.712578643407793
 10
-0.3393271102313893
 20
7.660493846547876
 10
-0.4048796390401162
 20
7.596333967068309
 10
-0.4582634383872986
 20
7.52248945682765
 10
-0.479991617961991
 20
7.482729291873059
 10
-0.4981326377069859
 20
7.441962312373493
 10
-0.5126589912514366
 20
7.401043900634474
 10
-0.5240068711145618
 20
7.36008244644823
 10
-0.5394857903589064
 20
7.278573115472163
 10
-0.5575430383492641
 20
7.118081022440412
 10
-0.5788496121836691
 20
6.838922482319863
 10
-0.5931469034357342
 20
6.616843384362035
 10
-0.611708354902202
 20
6.267511651852171
 10
-0.6268053272544645
 20
5.786833113380865
 10
-0.6285110567874331
 20
5.700141618342378
1001
REVIT
1002
{
1070
     2
1000
-2001160
1002
}
  0
LWPOLYLINE
  5
518
330
4E9
100
AcDbEntity
  8
7052814
100
AcDbPolyline
 90
       18
 70
   128
 43
0.0
 10
0.0000000000000835
 20
7.782310917728084
 10
0.0914996461670121
 20
7.774403166454463
 10
0.1802348179039921
 20
7.750932482333952
 10
0.2636802646836287
 20
7.71257864340771
 10
0.3393271102316735
 20
7.660493846547776
 10
0.4048796390403773
 20
7.596333967068189
 10
0.4582634383875366
 20
7.522489456827519
 10
0.4799916179622166
 20
7.48272929187292
 10
0.4981326377071973
 20
7.441962312373349
 10
0.5126589912516391
 20
7.401043900634327
 10
0.5240068711147537
 20
7.36008244644809
 10
0.5394857903590929
 20
7.278573115471968
 10
0.5575430383494613
 20
7.118081022439938
 10
0.5788496121838449
 20
6.838922482319463
 10
0.5931469034358941
 20
6.616843384361741
 10
0.6117083549023459
 20
6.267511651852005
 10
0.6268053272545924
 20
5.786833113380767
 10
0.6285110567875556
 20
5.700141618342361
1001
REVIT
1002
{
1070
     2
1000
-2001160
1002
}
  0
LINE
  5
519
330
4E9
100
AcDbEntity
  8
7052814
100
AcDbLine
 10
-4.316360233693162
 20
4.199779817516956
 30
0.0
 11
-4.639818319319955
 21
4.216731537475794
 31
0.0
  0
LINE
  5
51A
330
4E9
100
AcDbEntity
  8
7052814
100
AcDbLine
 10
-4.660675334458344
 20
3.818755980722253
 30
0.0
 11
-4.337217248831555
 21
3.801804260763403
 31
0.0
  0
LWPOLYLINE
  5
51B
330
4E9
100
AcDbEntity
  8
7052814
100
AcDbPolyline
 90
       66
 70
   128
 43
0.0
 10
-4.656537295330105
 20
3.78503182553471
 10
-4.656820326804263
 20
3.781127212488875
 10
-4.65725927475939
 20
3.777237040957212
 10
-4.657853436972393
 20
3.773367534384312
 10
-4.658601862910481
 20
3.769524883155244
 10
-4.659503355251809
 20
3.765715234692249
 10
-4.660556471800939
 20
3.761944683620188
 10
-4.661759527796043
 20
3.758219262016434
 10
-4.66311059860417
 20
3.754544929760839
 10
-4.664607522800237
 20
3.750927565001199
 10
-4.66624790562486
 20
3.747372954749462
 10
-4.668029122815449
 20
3.743886785623756
 10
-4.669948324804469
 20
3.740474634751006
 10
-4.672002441278147
 20
3.737141960844722
 10
-4.674188186088317
 20
3.733894095472219
 10
-4.676502062509543
 20
3.730736234525256
 10
-4.678940368833156
 20
3.727673429907705
 10
-4.681499204289183
 20
3.72471058145359
 10
-4.68417447528675
 20
3.721852429088397
 10
-4.686961901962952
 20
3.719103545246206
 10
-4.689857025029729
 20
3.716468327554764
 10
-4.692855212907767
 20
3.71395099180023
 10
-4.695951669136041
 20
3.711555565182806
 10
-4.699141440045124
 20
3.709285879874086
 10
-4.702419422682016
 20
3.707145566886388
 10
-4.705780372973761
 20
3.705138050263915
 10
-4.709218914116853
 20
3.70326654160502
 10
-4.712729545178984
 20
3.701534034924319
 10
-4.716306649899348
 20
3.699943301862922
 10
-4.719944505673467
 20
3.698496887254388
 10
-4.723637292708136
 20
3.697197105053539
 10
-4.727379103331854
 20
3.696046034634623
 10
-4.731163951445832
 20
3.695045517464764
 10
-4.73498578210048
 20
3.694197154158
 10
-4.738838481182032
 20
3.693502301914648
 10
-4.742715885193819
 20
3.692962072350069
 10
-4.746611791116558
 20
3.692577329716325
 10
-4.750519966331861
 20
3.692348689519555
 10
-4.754434158593076
 20
3.6922765175353
 10
-4.758348106027572
 20
3.692360929223337
 10
-4.762255547154381
 20
3.692601789542977
 10
-4.766150230901248
 20
3.692998713169084
 10
-4.770025926604999
 20
3.693551065108533
 10
-4.773876433979273
 20
3.694257961716046
 10
-4.777695593033676
 20
3.69511827210785
 10
-4.781477293928427
 20
3.696130619970841
 10
-4.785215486748818
 20
3.697293385764393
 10
-4.788904191183773
 20
3.698604709311281
 10
-4.792537506093076
 20
3.700062492773564
 10
-4.796109618947939
 20
3.701664404008678
 10
-4.799614815129805
 20
3.703407880300372
 10
-4.80304748707252
 20
3.7052901324585
 10
-4.806402143233237
 20
3.707308149281133
 10
-4.809673416877721
 20
3.709458702371846
 10
-4.812856074665978
 20
3.71173835130445
 10
-4.815945025024474
 20
3.714143449126954
 10
-4.818935326291578
 20
3.716670148195902
 10
-4.821822194623159
 20
3.719314406331785
 10
-4.82460101164572
 20
3.722071993285661
 10
-4.827267331844806
 20
3.724938497506661
 10
-4.829816889676889
 20
3.727909333199518
 10
-4.832245606393303
 20
3.730979747660868
 10
-4.834549596565411
 20
3.734144828882559
 10
-4.836725174300424
 20
3.737399513409819
 10
-4.838768859138065
 20
3.7407385944417
 10
-4.839879447385067
 20
3.742688347823612
  0
LWPOLYLINE
  5
51C
330
4E9
100
AcDbEntity
  8
7052814
100
AcDbPolyline
 90
       66
 70
   128
 43
0.0
 10
-4.810089500594324
 20
4.311114394457805
 10
-4.807779835689604
 20
4.314275337019918
 10
-4.805345614281998
 20
4.317341389203397
 10
-4.802790730606481
 20
4.320307645978805
 10
-4.800119271931922
 20
4.323169361968067
 10
-4.797335512022323
 20
4.325921959036069
 10
-4.794443904299699
 20
4.32856103361469
 10
-4.791449074719563
 20
4.331082363747578
 10
-4.78835581437038
 20
4.333481915844376
 10
-4.78516907180885
 20
4.335755851133605
 10
-4.781893945143266
 20
4.337900531803883
 10
-4.778535673877643
 20
4.339912526823644
 10
-4.775099630529606
 20
4.341788617430062
 10
-4.771591312035532
 20
4.343525802278374
 10
-4.768016330956609
 20
4.345121302243406
 10
-4.764380406499943
 20
4.346572564865567
 10
-4.76068935536904
 20
4.34787726843425
 10
-4.756949082458328
 20
4.349033325702063
 10
-4.753165571406581
 20
4.350038887223993
 10
-4.749344875024378
 20
4.350892344316114
 10
-4.745493105610892
 20
4.351592331629136
 10
-4.741616425175516
 20
4.352137729332685
 10
-4.737721035579964
 20
4.352527664906777
 10
-4.733813168616618
 20
4.352761514537679
 10
-4.729899076038989
 20
4.352838904115863
 10
-4.725985019560235
 20
4.352759709834516
 10
-4.722077260835771
 20
4.352524058387592
 10
-4.718182051445943
 20
4.352132326767138
 10
-4.714305622894841
 20
4.351585141660182
 10
-4.710454176641222
 20
4.350883378446165
 10
-4.706633874177489
 20
4.350028159796532
 10
-4.702850827172635
 20
4.349020853878684
 10
-4.699111087694859
 20
4.34786307216721
 10
-4.695420638529554
 20
4.346556666865867
 10
-4.691785383608136
 20
4.345103727944452
 10
-4.688211138562992
 20
4.343506579795296
 10
-4.684703621423738
 20
4.34176777751473
 10
-4.68126844346956
 20
4.339890102815481
 10
-4.677911100252389
 20
4.337876559576516
 10
-4.674636962805175
 20
4.335730369037484
 10
-4.671451269049391
 20
4.33345496464542
 10
-4.668359115415466
 20
4.331053986561955
 10
-4.665365448689591
 20
4.328531275839844
 10
-4.662475058099911
 20
4.325890868278092
 10
-4.659692567654788
 20
4.323136987965539
 10
-4.657022428745365
 20
4.320274040523224
 10
-4.654468913024301
 20
4.317306606056323
 10
-4.652036105572024
 20
4.314239431826966
 10
-4.649727898361494
 20
4.311077424659625
 10
-4.64754798403185
 20
4.307825643091242
 10
-4.645499849980998
 20
4.304489289278648
 10
-4.643586772786507
 20
4.301073700676226
 10
-4.641811812963787
 20
4.297584341497122
 10
-4.64017781006992
 20
4.294026793971664
 10
-4.638687378160959
 20
4.290406749416989
 10
-4.637342901610024
 20
4.28672999913215
 10
-4.636146531292789
 20
4.283002425133273
 10
-4.635100181146546
 20
4.279229990743582
 10
-4.634205525108322
 20
4.275418731053355
 10
-4.633463994436931
 20
4.271574743265075
 10
-4.632876775423257
 20
4.267704176939192
 10
-4.63244480749246
 20
4.263813224156154
 10
-4.632168781701075
 20
4.259908109610387
 10
-4.632049139631492
 20
4.255995080652119
 10
-4.632086072685497
 20
4.252080397292944
 10
-4.632177814686274
 20
4.249838405341586
  0
LWPOLYLINE
  5
51D
330
4E9
100
AcDbEntity
  8
7052814
100
AcDbPolyline
 90
        2
 70
   128
 43
0.0
 10
-4.632180653933398
 20
4.249784229279155
 10
-4.632177814686274
 20
4.249838405341588
  0
LWPOLYLINE
  5
51E
330
4E9
100
AcDbEntity
  8
7052814
100
AcDbPolyline
 90
        7
 70
   128
 43
0.0
 10
-4.839879447385062
 20
3.742688347823679
 10
-5.173583594500696
 20
3.774217584282926
 10
-5.508281647065269
 20
3.792376994057472
 10
-5.843438159593118
 20
3.797137525965475
 10
-6.178516953160437
 20
3.788491564171415
 10
-6.512981973177192
 20
3.766452940369785
 10
-6.749835216947401
 20
3.74268834782373
  0
LWPOLYLINE
  5
51F
330
4E9
100
AcDbEntity
  8
7052814
100
AcDbPolyline
 90
        7
 70
   128
 43
0.0
 10
-6.709582332609032
 20
4.510759135959276
 10
-6.381001954362423
 20
4.444521038272278
 10
-6.050035587947414
 20
4.391475634551291
 10
-5.717212708947878
 20
4.351707786126505
 10
-5.383065762971785
 20
4.325281113072055
 10
-5.048129313851818
 20
4.312237892427434
 10
-4.810089500594324
 20
4.311114394457739
  0
LWPOLYLINE
  5
520
330
4E9
100
AcDbEntity
  8
7052814
100
AcDbPolyline
 90
       69
 70
   128
 43
0.0
 10
-6.749835216947419
 20
3.742688347823664
 10
-6.751998706449688
 20
3.7384858400425
 10
-6.754328520879196
 20
3.734373210324032
 10
-6.756820933029862
 20
3.730357037998496
 10
-6.759471955573923
 20
3.726443748084875
 10
-6.762277347440839
 20
3.722639601012242
 10
-6.765232620602068
 20
3.718950682604402
 10
-6.768333047250978
 20
3.715382894343882
 10
-6.771573667366322
 20
3.711941943930812
 10
-6.774949296647209
 20
3.708633336151822
 10
-6.778454534806884
 20
3.705462364073558
 10
-6.782083774212038
 20
3.702434100574908
 10
-6.785831208853819
 20
3.699553390231477
 10
-6.789690843636213
 20
3.696824841565294
 10
-6.793656503966905
 20
3.694252819672165
 10
-6.797721845635336
 20
3.691841439238452
 10
-6.801880364962062
 20
3.689594557958446
 10
-6.806125409203259
 20
3.687515770362888
 10
-6.810450187193707
 20
3.685608402068481
 10
-6.814847780211191
 20
3.683875504457608
 10
-6.819311153044983
 20
3.682319849796786
 10
-6.823833165250686
 20
3.680943926801615
 10
-6.828406582573416
 20
3.679749936655371
 10
-6.833024088521069
 20
3.678739789487587
 10
-6.837678296069139
 20
3.677915101318243
 10
-6.842361759478398
 20
3.677277191472486
 10
-6.847066986206475
 20
3.676827080469989
 10
-6.851786448894332
 20
3.676565488392339
 10
-6.856512597408437
 20
3.676492833731054
 10
-6.861237870919357
 20
3.676609232718096
 10
-6.865954709997478
 20
3.676914499139914
 10
-6.870655568706481
 20
3.677408144635355
 10
-6.875332926675227
 20
3.67808937947693
 10
-6.879979301128751
 20
3.678957113834217
 10
-6.884587258859101
 20
3.680009959517348
 10
-6.889149428116885
 20
3.681246232197828
 10
-6.893658510404504
 20
3.68266395410309
 10
-6.898107292152182
 20
3.684260857180519
 10
-6.902488656258148
 20
3.686034386725846
 10
-6.906795593474471
 20
3.687981705470127
 10
-6.911021213620368
 20
3.690099698118781
 10
-6.915158756605027
 20
3.692384976335384
 10
-6.919201603242299
 20
3.694833884162289
 10
-6.923143285839993
 20
3.697442503869378
 10
-6.9269774985468
 20
3.700206662221597
 10
-6.930698107440311
 20
3.703121937155235
 10
-6.934299160339983
 20
3.706183664852294
 10
-6.937774896329361
 20
3.70938694720159
 10
-6.941119754972314
 20
3.712726659634697
 10
-6.944328385208543
 20
3.716197459324154
 10
-6.947395653914142
 20
3.719793793730856
 10
-6.950316654113498
 20
3.72350990948693
 10
-6.953086712829406
 20
3.727339861599894
 10
-6.955701398558834
 20
3.731277522963382
 10
-6.958156528362383
 20
3.735316594159201
 10
-6.960448174556105
 20
3.73945061353506
 10
-6.962572670994946
 20
3.743672967541836
 10
-6.964526618937805
 20
3.747976901313838
 10
-6.966306892484793
 20
3.752355529475154
 10
-6.967910643578008
 20
3.756801847154783
 10
-6.969335306557815
 20
3.761308741192937
 10
-6.97057860226736
 20
3.765869001520572
 10
-6.971638541698728
 20
3.770475332693969
 10
-6.972513429174938
 20
3.775120365565881
 10
-6.973201865062659
 20
3.779796669074602
 10
-6.973702748011332
 20
3.784496762132075
 10
-6.974015276715087
 20
3.789213125592042
 10
-6.974138951194667
 20
3.793938214279069
 10
-6.97414104042314
 20
3.794473427548441
  0
LWPOLYLINE
  5
521
330
4E9
100
AcDbEntity
  8
7052814
100
AcDbPolyline
 90
       69
 70
   128
 43
0.0
 10
-6.938072400118083
 20
4.48270408334957
 10
-6.937476727311294
 20
4.487393105889975
 10
-6.93669402008984
 20
4.492054557153548
 10
-6.935725530618304
 20
4.496680979812655
 10
-6.934572808273242
 20
4.501264972577961
 10
-6.933237697164504
 20
4.505799202038906
 10
-6.931722333185057
 20
4.510276414395604
 10
-6.930029140594006
 20
4.514689447063372
 10
-6.928160828138303
 20
4.519031240131338
 10
-6.926120384719324
 20
4.523294847656795
 10
-6.92391107461127
 20
4.52747344877722
 10
-6.921536432239015
 20
4.531560358622209
 10
-6.919000256523796
 20
4.535549039007841
 10
-6.916306604805734
 20
4.539433108896366
 10
-6.913459786352961
 20
4.543206354604524
 10
-6.910464355467714
 20
4.546862739744096
 10
-6.90732510420042
 20
4.550396414878848
 10
-6.904047054683432
 20
4.553801726882374
 10
-6.900635451096699
 20
4.557073227981896
 10
-6.89709575127819
 20
4.560205684473536
 10
-6.89343361799252
 20
4.563194085095132
 10
-6.889654909871729
 20
4.56603364904318
 10
-6.885765672042732
 20
4.568719833621104
 10
-6.881772126456395
 20
4.571248341506601
 10
-6.877680661933745
 20
4.573615127626442
 10
-6.873497823945218
 20
4.575816405627722
 10
-6.869230304139306
 20
4.577848653935219
 10
-6.864884929637343
 20
4.579708621385166
 10
-6.860468652111566
 20
4.581393332426412
 10
-6.85598853666393
 20
4.58290009188068
 10
-6.851451750523441
 20
4.584226489254267
 10
-6.846865551580132
 20
4.585370402594324
 10
-6.842237276773973
 20
4.58633000188353
 10
-6.837574330357339
 20
4.587103751967725
 10
-6.832884172049793
 20
4.587690415011832
 10
-6.828174305104111
 20
4.58808905248013
 10
-6.823452264302686
 20
4.588299026637707
 10
-6.818725603903482
 20
4.588320001570703
 10
-6.814001885554848
 20
4.588151943723699
 10
-6.809288666198463
 20
4.5877951219534
 10
-6.804593485979859
 20
4.587250107098521
 10
-6.799923856185811
 20
4.586517771066565
 10
-6.795287247227848
 20
4.585599285438961
 10
-6.790691076691212
 20
4.584496119596781
 10
-6.786142697468303
 20
4.583210038370041
 10
-6.781649385995605
 20
4.581743099214356
 10
-6.777218330612951
 20
4.580097648919443
 10
-6.772856620063711
 20
4.578276319854766
 10
-6.76857123215432
 20
4.576282025758295
 10
-6.764369022591262
 20
4.574117957075161
 10
-6.760256714013415
 20
4.571787575853612
 10
-6.756240885237261
 20
4.569294610206481
 10
-6.752327960732172
 20
4.566643048347
 10
-6.748524200342645
 20
4.563837132208507
 10
-6.744835689273882
 20
4.56088135065826
 10
-6.741268328356746
 20
4.557780432316208
 10
-6.737827824607713
 20
4.554539337990203
 10
-6.734519682098843
 20
4.551163252739769
 10
-6.731349193152455
 20
4.547657577581116
 10
-6.728321429874526
 20
4.544027920846657
 10
-6.725441236040412
 20
4.540280089212886
 10
-6.722713219345836
 20
4.536420078410918
 10
-6.720141744035569
 20
4.532454063634614
 10
-6.717730923921553
 20
4.528388389661577
 10
-6.71548461580169
 20
4.524229560702866
 10
-6.713406413289783
 20
4.519984229997646
 10
-6.711499641066525
 20
4.515659189169424
 10
-6.709767349560722
 20
4.511261357360896
 10
-6.709582332609043
 20
4.510759135959343
  0
LWPOLYLINE
  5
522
330
4E9
100
AcDbEntity
  8
7052814
100
AcDbPolyline
 90
       32
 70
   128
 43
0.0
 10
-6.974141040423154
 20
3.794473427548428
 10
-6.980107477079046
 20
3.795777962241019
 10
-6.986016973748219
 20
3.797320047274335
 10
-6.99186007649663
 20
3.799097215641283
 10
-6.997627437606339
 20
3.801106624251585
 10
-7.003309830529878
 20
3.803345058480116
 10
-7.008898164650749
 20
3.805808937309616
 10
-7.014383499826473
 20
3.808494319059559
 10
-7.019757060690909
 20
3.811396907691995
 10
-7.025010250692975
 20
3.814512059684299
 10
-7.030134665849287
 20
3.817834791457811
 10
-7.035122108188747
 20
3.821359787350508
 10
-7.039964598867539
 20
3.825081408120919
 10
-7.04465439093359
 20
3.828993699969716
 10
-7.049183981720028
 20
3.833090404064517
 10
-7.053546124847857
 20
3.837364966552689
 10
-7.057733841818613
 20
3.841810549046108
 10
-7.061740433178476
 20
3.846420039561125
 10
-7.065559489235961
 20
3.851186063896221
 10
-7.069184900316067
 20
3.856100997429159
 10
-7.072610866534446
 20
3.861156977314748
 10
-7.075831907075982
 20
3.866345915063724
 10
-7.078842868962925
 20
3.871659509482601
 10
-7.081638935298562
 20
3.877089259953816
 10
-7.084215632973219
 20
3.882626480034902
 10
-7.086568839820281
 20
3.888262311354937
 10
-7.088694791210786
 20
3.893987737786057
 10
-7.090590086076018
 20
3.899793599867332
 10
-7.092251692348503
 20
3.905670609457947
 10
-7.093676951812661
 20
3.911609364596255
 10
-7.09486358435739
 20
3.9176003645409
 10
-7.095251210588348
 20
3.91988668006283
  0
LWPOLYLINE
  5
523
330
4E9
100
AcDbEntity
  8
7052814
100
AcDbPolyline
 90
       32
 70
   128
 43
0.0
 10
-7.071628370657889
 20
4.370637317728117
 10
-7.069910816164311
 20
4.376498220704156
 10
-7.067960261923387
 20
4.382285751722316
 10
-7.065779828405807
 20
4.387990651967577
 10
-7.063373003840065
 20
4.393603794816524
 10
-7.060743638632037
 20
4.399116200438007
 10
-7.057895939205156
 20
4.404519050158951
 10
-7.054834461271026
 20
4.409803700572345
 10
-7.051564102541263
 20
4.414961697364862
 10
-7.048090094892194
 20
4.419984788841946
 10
-7.044417995994977
 20
4.424864939128773
 10
-7.040553680424507
 20
4.429594341025923
 10
-7.036503330261353
 20
4.434165428499248
 10
-7.032273425201748
 20
4.438570888783904
 10
-7.027870732191456
 20
4.442803674083218
 10
-7.023302294600102
 20
4.446857012843654
 10
-7.018575420953284
 20
4.450724420587864
 10
-7.013697673240494
 20
4.45439971028846
 10
-7.008676854817537
 20
4.457877002265941
 10
-7.003520997922839
 20
4.461150733594923
 10
-6.998238350827579
 20
4.464215667003643
 10
-6.992837364640201
 20
4.467066899252462
 10
-6.987326679786456
 20
4.469699868978012
 10
-6.981715112186561
 20
4.472110363990402
 10
-6.976011639151606
 20
4.474294528011827
 10
-6.970225385021769
 20
4.47624886684578
 10
-6.964365606569322
 20
4.477970253967031
 10
-6.958441678189773
 20
4.479455935523395
 10
-6.952463076904822
 20
4.48070353474131
 10
-6.94643936720116
 20
4.48171105572817
 10
-6.940380185729323
 20
4.482476886665319
 10
-6.938072400118094
 20
4.482704083349585
  0
LWPOLYLINE
  5
524
330
4E9
100
AcDbEntity
  8
7052814
100
AcDbPolyline
 90
       25
 70
   128
 43
0.0
 10
-7.095251210588338
 20
3.919886680062815
 10
-7.103763303883889
 20
3.927313903345903
 10
-7.111971578698765
 20
3.935075578585983
 10
-7.119862903544269
 20
3.943159288758406
 10
-7.127424653984039
 20
3.95155210165133
 10
-7.13464473283046
 20
3.960240590554498
 10
-7.14151158949758
 20
3.969210855739109
 10
-7.148014238479581
 20
3.978448546694422
 10
-7.15414227692525
 20
3.987938885085512
 10
-7.15988590128032
 20
3.997666688395451
 10
-7.165235922971064
 20
4.007616394214095
 10
-7.170183783104055
 20
4.017772085134627
 10
-7.174721566158562
 20
4.028117514218005
 10
-7.178842012649712
 20
4.038636130984604
 10
-7.1825385307421
 20
4.049311107891448
 10
-7.185805206795325
 20
4.060125367252694
 10
-7.188636814824558
 20
4.071061608560281
 10
-7.191028824860993
 20
4.08210233616106
 10
-7.192977410198843
 20
4.093229887246097
 10
-7.194479453517243
 20
4.10442646010741
 10
-7.195532551867302
 20
4.115674142616891
 10
-7.196135020516308
 20
4.126954940881907
 10
-7.19628589564294
 20
4.138250808031672
 10
-7.195984935879187
 20
4.149543673088406
 10
-7.195905054554375
 20
4.1511560536245
  0
LWPOLYLINE
  5
525
330
4E9
100
AcDbEntity
  8
7052814
100
AcDbPolyline
 90
       25
 70
   128
 43
0.0
 10
-7.195905054554366
 20
4.151156053624684
 10
-7.195088327244088
 20
4.162423366279868
 10
-7.193821680897396
 20
4.173649005905359
 10
-7.192107141878233
 20
4.184815013872433
 10
-7.189947453083286
 20
4.195903526950299
 10
-7.187346069553917
 20
4.206896805883453
 10
-7.184307152948842
 20
4.217777263770711
 10
-7.180835564886359
 20
4.228527494200494
 10
-7.176936859166803
 20
4.239130299097374
 10
-7.172617272887646
 20
4.249568716235327
 10
-7.167883716465473
 20
4.259826046373677
 10
-7.162743762580785
 20
4.269885879972315
 10
-7.157205634063335
 20
4.279732123443468
 10
-7.151278190737346
 20
4.289349024898001
 10
-7.144970915247686
 20
4.298721199345084
 10
-7.138293897889657
 20
4.307833653304889
 10
-7.13125782046668
 20
4.31667180879497
 10
-7.123873939201679
 20
4.325221526651915
 10
-7.116154066729534
 20
4.333469129150995
 10
-7.108110553199385
 20
4.341401421887607
 10
-7.09975626651702
 20
4.349005714885504
 10
-7.091104571758979
 20
4.356269842898052
 10
-7.082169309791276
 20
4.363182184870028
 10
-7.072964775126975
 20
4.369731682528833
 10
-7.071628370657879
 20
4.37063731772813
  0
LWPOLYLINE
  5
526
330
4E9
100
AcDbEntity
  8
7052814
100
AcDbPolyline
 90
       39
 70
   128
 43
0.0
 10
-3.800739141541932
 20
3.656428558432269
 10
-3.80117436104803
 20
3.678186632196435
 10
-3.802479323307956
 20
3.699909897684053
 10
-3.804651940660473
 20
3.721563602304392
 10
-3.807688737381281
 20
3.74311310474927
 10
-3.811584855243447
 20
3.764523930411759
 10
-3.816334061289515
 20
3.785761826538196
 10
-3.82192875780292
 20
3.806792817025289
 10
-3.828359994462717
 20
3.827583256774632
 10
-3.83561748266217
 20
3.848099885517682
 10
-3.843689611968345
 20
3.868309881025098
 10
-3.852563468696311
 20
3.888180911615302
 10
-3.862224856568294
 20
3.90768118787828
 10
-3.872658319424685
 20
3.926779513531847
 10
-3.8838471659506
 20
3.945445335329049
 10
-3.895773496378422
 20
3.963648791936839
 10
-3.908418231123619
 20
3.981360761707844
 10
-3.921761141307996
 20
3.998552909268781
 10
-3.935780881121591
 20
4.015197730851014
 10
-3.950455021971425
 20
4.03126859829072
 10
-3.965760088362452
 20
4.046739801628263
 10
-3.981671595453354
 20
4.06158659023865
 10
-3.99816408822706
 20
4.07578521242725
 10
-4.015211182213343
 20
4.089312953427441
 10
-4.032785605698341
 20
4.102148171739385
 10
-4.050859243353492
 20
4.114270333751816
 10
-4.069403181214051
 20
4.125660046591441
 10
-4.08838775293527
 20
4.136299089147388
 10
-4.10778258725222
 20
4.146170441221111
 10
-4.127556656567337
 20
4.15525831075507
 10
-4.147678326587964
 20
4.16354815909665
 10
-4.168115406934457
 20
4.171026724256912
 10
-4.188835202637944
 20
4.177682042126943
 10
-4.209804566445285
 20
4.183503465617874
 10
-4.230989951847613
 20
4.188481681693958
 10
-4.252357466747591
 20
4.192608726271436
 10
-4.273872927679542
 20
4.195877996959374
 10
-4.295501914495696
 20
4.198284263622078
 10
-4.316360233693163
 20
4.199779817516919
  0
LWPOLYLINE
  5
527
330
4E9
100
AcDbEntity
  8
7052814
100
AcDbPolyline
 90
       39
 70
   128
 43
0.0
 10
-4.337217248831558
 20
3.801804260763367
 10
-4.331409865529968
 20
3.801383304259468
 10
-4.325623961285915
 20
3.800730451084277
 10
-4.31986879231192
 20
3.799846745663605
 10
-4.314153565650643
 20
3.79873360173761
 10
-4.308487424445559
 20
3.797392800099117
 10
-4.302879433313881
 20
3.795826485744724
 10
-4.297338563845114
 20
3.794037164443271
 10
-4.291873680248421
 20
3.792027698727137
 10
-4.286493525171772
 20
3.789801303312804
 10
-4.28120670571559
 20
3.787361539957999
 10
-4.276021679663204
 20
3.78471231176363
 10
-4.270946741950222
 20
3.781857856929674
 10
-4.265990011394391
 20
3.778802741974945
 10
-4.261159417707213
 20
3.775551854431647
 10
-4.256462688808126
 20
3.772110395026365
 10
-4.251907338461444
 20
3.76848386936001
 10
-4.247500654255974
 20
3.764678079100026
 10
-4.243249685946393
 20
3.760699112698974
 10
-4.239161234175179
 20
3.756553335654294
 10
-4.235241839593006
 20
3.752247380324873
 10
-4.231497772395114
 20
3.747788135320681
 10
-4.227935022290326
 20
3.743182734482471
 10
-4.224559288918801
 20
3.738438545469152
 10
-4.221375972733808
 20
3.733563157971104
 10
-4.218390166362182
 20
3.728564371568299
 10
-4.215606646457169
 20
3.723450183252628
 10
-4.213029866056835
 20
3.718228774634428
 10
-4.210663947460139
 20
3.712908498853649
 10
-4.208512675632134
 20
3.707497867216607
 10
-4.206579492148826
 20
3.702005535579714
 10
-4.204867489691402
 20
3.696440290501955
 10
-4.203379407098585
 20
3.690811035188267
 10
-4.202117624985083
 20
3.685126775246306
 10
-4.201084161933112
 20
3.679396604279401
 10
-4.200280671263094
 20
3.67362968933873
 10
-4.199708438388698
 20
3.667835256257987
 10
-4.199368378760457
 20
3.662022574894022
 10
-4.199260858458067
 20
3.656428558432276
  0
LINE
  5
528
330
4E9
100
AcDbEntity
  8
7052814
100
AcDbLine
 10
-4.639818319319948
 20
4.216731537475858
 30
0.0
 11
-4.641215474410662
 21
4.190072230215988
 31
0.0
  0
LINE
  5
529
330
4E9
100
AcDbEntity
  8
7052814
100
AcDbLine
 10
-4.650246826889146
 20
4.017743759099016
 30
0.0
 11
-4.660675334458344
 21
3.818755980722182
 31
0.0
  0
LINE
  5
52A
330
4E9
100
AcDbEntity
  8
7052814
100
AcDbLine
 10
-4.810089500594317
 20
4.311114394457734
 30
0.0
 11
-4.839879447385056
 21
3.742688347823675
 31
0.0
  0
LINE
  5
52B
330
4E9
100
AcDbEntity
  8
7052814
100
AcDbLine
 10
-6.709582332609034
 20
4.510759135959339
 30
0.0
 11
-6.749835216947412
 21
3.74268834782366
 31
0.0
  0
LINE
  5
52C
330
4E9
100
AcDbEntity
  8
7052814
100
AcDbLine
 10
-6.938072400118086
 20
4.482704083349582
 30
0.0
 11
-6.974141040423146
 21
3.794473427548423
 31
0.0
  0
LINE
  5
52D
330
4E9
100
AcDbEntity
  8
7052814
100
AcDbLine
 10
-7.071628370657871
 20
4.370637317728127
 30
0.0
 11
-7.09525121058833
 21
3.919886680062811
 31
0.0
  0
LINE
  5
52E
330
4E9
100
AcDbEntity
  8
7052814
100
AcDbLine
 10
-4.19926085845803
 20
3.656428558432277
 30
0.0
 11
-4.199260858458034
 21
3.485179785363697
 31
0.0
  0
LINE
  5
52F
330
4E9
100
AcDbEntity
  8
7052814
100
AcDbLine
 10
-3.800739141541903
 20
3.485179785363694
 30
0.0
 11
-3.800739141541894
 21
3.656428558432276
 31
0.0
  0
LWPOLYLINE
  5
530
330
4E9
100
AcDbEntity
  8
7052814
100
AcDbPolyline
 90
       41
 70
   128
 43
0.0
 10
-3.800739141541917
 20
3.485179785363694
 10
-3.800654910787258
 20
3.480968809184072
 10
-3.80040235327452
 20
3.476764569668043
 10
-3.799981873041847
 20
3.472573792701979
 10
-3.799394142767912
 20
3.468403182635037
 10
-3.798640102695781
 20
3.464259411553644
 10
-3.797720959128715
 20
3.460149108607572
 10
-3.796638182500347
 20
3.456078849404715
 10
-3.7953935050223
 20
3.452055145491526
 10
-3.793988917913026
 20
3.448084433935919
 10
-3.792426668212268
 20
3.444173067029344
 10
-3.790709255186287
 20
3.440327302124468
 10
-3.788839426329561
 20
3.436553291624758
 10
-3.786820172969386
 20
3.432857073141931
 10
-3.784654725480386
 20
3.429244559837074
 10
-3.782346548116608
 20
3.425721530960849
 10
-3.779899333469447
 20
3.422293622607918
 10
-3.777316996560296
 20
3.418966318700396
 10
-3.77460366857734
 20
3.41574494221475
 10
-3.771763690266537
 20
3.412634646666165
 10
-3.768801604987357
 20
3.409640407864027
 10
-3.76572215144437
 20
3.406767015951679
 10
-3.762530256106325
 20
3.404019067743225
 10
-3.759231025324865
 20
3.4014009593696
 10
-3.755829737165441
 20
3.398916879245703
 10
-3.752331832963539
 20
3.396570801369823
 10
-3.748742908619705
 20
3.394366478966092
 10
-3.745068705647286
 20
3.392307438480126
 10
-3.741315101987256
 20
3.39039697393746
 10
-3.737488102604743
 20
3.388638141673824
 10
-3.733593829882375
 20
3.387033755445639
 10
-3.729638513825774
 20
3.38558638192862
 10
-3.725628482096876
 20
3.384298336611636
 10
-3.721570149891016
 20
3.383171680092427
 10
-3.717470009673998
 20
3.382208214781086
 10
-3.713334620795516
 20
3.381409482016579
 10
-3.709170598995607
 20
3.380776759600942
 10
-3.704984605820872
 20
3.380311059755069
 10
-3.700783337967427
 20
3.380013127499368
 10
-3.696573516567616
 20
3.379883439461895
 10
-3.695436658635633
 20
3.379877302457405
  0
LWPOLYLINE
  5
531
330
4E9
100
AcDbEntity
  8
7052814
100
AcDbPolyline
 90
       41
 70
   128
 43
0.0
 10
-4.304563341364305
 20
3.379877302457412
 10
-4.300352365184684
 20
3.379961533212071
 10
-4.296148125668656
 20
3.38021409072481
 10
-4.29195734870259
 20
3.380634570957484
 10
-4.287786738635649
 20
3.381222301231418
 10
-4.283642967554255
 20
3.381976341303548
 10
-4.279532664608185
 20
3.382895484870616
 10
-4.275462405405326
 20
3.383978261498985
 10
-4.271438701492138
 20
3.385222938977031
 10
-4.26746798993653
 20
3.386627526086306
 10
-4.263556623029954
 20
3.388189775787062
 10
-4.25971085812508
 20
3.389907188813045
 10
-4.255936847625369
 20
3.391777017669771
 10
-4.252240629142542
 20
3.393796271029945
 10
-4.248628115837687
 20
3.395961718518945
 10
-4.24510508696146
 20
3.398269895882723
 10
-4.241677178608531
 20
3.400717110529883
 10
-4.238349874701009
 20
3.403299447439035
 10
-4.235128498215363
 20
3.406012775421991
 10
-4.232018202666777
 20
3.408852753732794
 10
-4.229023963864639
 20
3.411814839011974
 10
-4.22615057195229
 20
3.414894292554963
 10
-4.223402623743837
 20
3.418086187893006
 10
-4.220784515370214
 20
3.421385418674467
 10
-4.218300435246316
 20
3.424786706833889
 10
-4.215954357370437
 20
3.428284611035792
 10
-4.213750034966706
 20
3.431873535379628
 10
-4.211690994480738
 20
3.435547738352045
 10
-4.209780529938074
 20
3.439301342012075
 10
-4.208021697674437
 20
3.443128341394591
 10
-4.206417311446251
 20
3.447022614116959
 10
-4.204969937929231
 20
3.450977930173559
 10
-4.203681892612248
 20
3.454987961902457
 10
-4.202555236093042
 20
3.459046294108314
 10
-4.2015917707817
 20
3.463146434325334
 10
-4.20079303801719
 20
3.467281823203815
 10
-4.200160315601555
 20
3.471445845003725
 10
-4.199694615755683
 20
3.475631838178459
 10
-4.199396683499982
 20
3.479833106031904
 10
-4.199266995462506
 20
3.484042927431715
 10
-4.199260858458019
 20
3.485179785363699
  0
LINE
  5
532
330
4E9
100
AcDbEntity
  8
7052814
100
AcDbLine
 10
-4.346456278691603
 20
3.379877302457412
 30
0.0
 11
-4.480480703033682
 21
3.286032390228871
 31
0.0
  0
LINE
  5
533
330
4E9
100
AcDbEntity
  8
7052814
100
AcDbLine
 10
-3.51951929696626
 20
3.286032390228863
 30
0.0
 11
-3.653543721308336
 21
3.379877302457405
 31
0.0
  0
LINE
  5
534
330
4E9
100
AcDbEntity
  8
7052814
100
AcDbLine
 10
-4.481289263721706
 20
3.09574501428235
 30
0.0
 11
-4.41854827985214
 21
3.051813304422186
 31
0.0
  0
LINE
  5
535
330
4E9
100
AcDbEntity
  8
7052814
100
AcDbLine
 10
-3.581451720147805
 20
3.051813304422176
 30
0.0
 11
-3.518710736278238
 21
3.09574501428234
 31
0.0
  0
LWPOLYLINE
  5
536
330
4E9
100
AcDbEntity
  8
7052814
100
AcDbPolyline
 90
       32
 70
   128
 43
0.0
 10
-3.581451720147805
 20
3.051813304422176
 10
-3.58234868524731
 20
3.051158124542337
 10
-3.58321873266324
 20
3.0504675996994
 10
-3.584060470505329
 20
3.049742834585812
 10
-3.584872552172591
 20
3.048984988671147
 10
-3.585653678507592
 20
3.0481952743472
 10
-3.586402599874828
 20
3.04737495498843
 10
-3.587118118159875
 20
3.046525342930816
 10
-3.587799088686111
 20
3.045647797372411
 10
-3.588444422045958
 20
3.044743722198907
 10
-3.589053085843708
 20
3.043814563737724
 10
-3.589624106347121
 20
3.042861808444191
 10
-3.590156570045209
 20
3.04188698052353
 10
-3.590649625109636
 20
3.040891639492466
 10
-3.591102482757483
 20
3.039877377684318
 10
-3.591514418513112
 20
3.038845817701616
 10
-3.591884773367192
 20
3.037798609820279
 10
-3.592212954830962
 20
3.036737429349522
 10
-3.59249843788409
 20
3.035663973951727
 10
-3.592740765814586
 20
3.034579960926538
 10
-3.592939550949459
 20
3.033487124463551
 10
-3.593094475274895
 20
3.032387212867984
 10
-3.593205290945027
 20
3.03128198576375
 10
-3.593271820678417
 20
3.03017321127845
 10
-3.593293958041687
 20
3.029062663214733
 10
-3.593271667619777
 20
3.027952118212597
 10
-3.593204985072608
 20
3.026843352907141
 10
-3.59309401707803
 20
3.025738141086332
 10
-3.592938941161161
 20
3.024638250853315
 10
-3.592740005410389
 20
3.023545441797833
 10
-3.592497528080476
 20
3.022461462181255
 10
-3.592417506338694
 20
3.022142739313906
  0
LWPOLYLINE
  5
537
330
4E9
100
AcDbEntity
  8
7052814
100
AcDbPolyline
 90
       32
 70
   128
 43
0.0
 10
-4.407582493661251
 20
3.022142739313915
 10
-4.407327206807227
 20
3.023223773858617
 10
-4.407115354007132
 20
3.024314152442307
 10
-4.406947274180252
 20
3.025412130691853
 10
-4.406823236218457
 20
3.026515952076276
 10
-4.406743438556025
 20
3.027623850716833
 10
-4.406708008852195
 20
3.028734054212038
 10
-4.406717003786935
 20
3.029844786473129
 10
-4.406770408970265
 20
3.03095427056543
 10
-4.406868138965288
 20
3.032060731551073
 10
-4.407010037424859
 20
3.033162399328515
 10
-4.407195877341711
 20
3.034257511464317
 10
-4.40742536141162
 20
3.035344316012677
 10
-4.407698122509033
 20
3.036421074318156
 10
-4.408013724274374
 20
3.03748606379716
 10
-4.408371661812148
 20
3.038537580693711
 10
-4.408771362498649
 20
3.039573942805083
 10
-4.409212186898043
 20
3.040593492172979
 10
-4.409693429785329
 20
3.041594597735902
 10
-4.410214321274546
 20
3.042575657938509
 10
-4.410774028050431
 20
3.043535103293756
 10
-4.411371654701538
 20
3.044471398893748
 10
-4.412006245152715
 20
3.045383046865256
 10
-4.412676784194607
 20
3.046268588766002
 10
-4.413382199107793
 20
3.047126607917847
 10
-4.41412136137889
 20
3.047955731673184
 10
-4.414893088505946
 20
3.048754633610875
 10
-4.415696145890178
 20
3.049522035658243
 10
-4.416529248811089
 20
3.050256710135715
 10
-4.417391064481721
 20
3.050957481720852
 10
-4.418280214180843
 20
3.051623229328604
 10
-4.41854827985214
 20
3.051813304422186
  0
LWPOLYLINE
  5
538
330
4E9
100
AcDbEntity
  8
7052814
100
AcDbPolyline
 90
        4
 70
   128
 43
0.0
 10
-3.592417506338703
 20
3.02214273931394
 10
-3.541288509038185
 20
2.80563252170336
 10
-3.498858508928892
 20
2.587250874613999
 10
-3.473524416357006
 20
2.427597503608418
  0
LWPOLYLINE
  5
539
330
4E9
100
AcDbEntity
  8
7052814
100
AcDbPolyline
 90
        4
 70
   128
 43
0.0
 10
-4.526475583642952
 20
2.427597503608429
 10
-4.49040975096892
 20
2.647119949859982
 10
-4.445594210649586
 20
2.865024552933492
 10
-4.407582493661243
 20
3.02214273931395
  0
LWPOLYLINE
  5
53A
330
4E9
100
AcDbEntity
  8
7052814
100
AcDbPolyline
 90
        4
 70
   128
 43
0.0
 10
-3.473524416357017
 20
2.427597503608491
 10
-3.446265988970703
 20
2.20680840328492
 10
-3.427858574536495
 20
1.985105864329872
 10
-3.419674800183662
 20
1.812093574263144
  0
LWPOLYLINE
  5
53B
330
4E9
100
AcDbEntity
  8
7052814
100
AcDbPolyline
 90
        4
 70
   128
 43
0.0
 10
-4.580325199816309
 20
1.812093574263156
 10
-4.568829885521374
 20
2.0342617682841
 10
-4.54845940809543
 20
2.255792561481584
 10
-4.526475583642939
 20
2.427597503608502
  0
LWPOLYLINE
  5
53C
330
4E9
100
AcDbEntity
  8
7052814
100
AcDbPolyline
 90
       12
 70
   128
 43
0.0
 10
-3.419674800183662
 20
1.81209357426312
 10
-3.415632074276368
 20
1.733960424468283
 10
-3.4084680894804
 20
1.656051438776855
 10
-3.398194306643196
 20
1.578491254946243
 10
-3.38482716162567
 20
1.501403952725291
 10
-3.368388039008346
 20
1.424912855353135
 10
-3.348903237880584
 20
1.34914033226834
 10
-3.326403929767657
 20
1.274207603343901
 10
-3.300926108762945
 20
1.200234544961298
 10
-3.272510533945077
 20
1.127339498233868
 10
-3.241202664172096
 20
1.055639079686259
 10
-3.230935119622888
 20
1.033709222679397
  0
LWPOLYLINE
  5
53D
330
4E9
100
AcDbEntity
  8
7052814
100
AcDbPolyline
 90
       12
 70
   128
 43
0.0
 10
-4.769064880377099
 20
1.033709222679413
 10
-4.736871837283112
 20
1.105016590503311
 10
-4.707556079351739
 20
1.177554298397435
 10
-4.681164505541973
 20
1.251206301503039
 10
-4.657739336742009
 20
1.32585477232674
 10
-4.637318048224823
 20
1.401380289239384
 10
-4.619933309695737
 20
1.477662027525159
 10
-4.605612933027844
 20
1.554577952675376
 10
-4.594379827768969
 20
1.632005015617651
 10
-4.586251964491255
 20
1.70981934956817
 10
-4.581242346042094
 20
1.787896468192118
 10
-4.580325199816309
 20
1.812093574263132
  0
LINE
  5
53E
330
4E9
100
AcDbEntity
  8
7052814
100
AcDbLine
 10
-4.780071501731358
 20
0.9849554939152174
 30
0.0
 11
-4.780071501731363
 21
0.8888554846940886
 31
0.0
  0
LINE
  5
53F
330
4E9
100
AcDbEntity
  8
7052814
100
AcDbLine
 10
-3.219928498268629
 20
0.8888554847244256
 30
0.0
 11
-3.219928498268629
 21
0.9849554939152014
 31
0.0
  0
LWPOLYLINE
  5
540
330
4E9
100
AcDbEntity
  8
7052814
100
AcDbPolyline
 90
       17
 70
   128
 43
0.0
 10
-3.21992849826867
 20
0.8888554847264682
 10
-3.219861414410198
 20
0.8855017390404782
 10
-3.219660270154642
 20
0.8821533586321557
 10
-3.219325387289904
 20
0.8788157001958726
 10
-3.218857301557131
 20
0.8754941032731329
 10
-3.218256761793638
 20
0.872193881710443
 10
-3.217524728734945
 20
0.8689203151582933
 10
-3.216662373477779
 20
0.8656786406248414
 10
-3.2156710756066
 20
0.8624740440978255
 10
-3.214552420986533
 20
0.8593116522480732
 10
-3.213308199226336
 20
0.8561965242279377
 10
-3.211940400815405
 20
0.8531336435777273
 10
-3.210451213939418
 20
0.8501279102531004
 10
-3.208843020979699
 20
0.8471841327861913
 10
-3.20711839470192
 20
0.84430702059297
 10
-3.205280094140228
 20
0.8415011764391975
 10
-3.205155688506662
 20
0.8413198438294271
  0
LWPOLYLINE
  5
541
330
4E9
100
AcDbEntity
  8
7052814
100
AcDbPolyline
 90
       17
 70
   128
 43
0.0
 10
-4.79484431149333
 20
0.8413198438294418
 10
-4.792998660050068
 20
0.8441208581315065
 10
-4.791266495628088
 20
0.8469934382932429
 10
-4.789650589320956
 20
0.8499329887991802
 10
-4.788153526234058
 20
0.8529348069955787
 10
-4.786777701348972
 20
0.8559940906136755
 10
-4.785525315692026
 20
0.8591059454522973
 10
-4.784398372813106
 20
0.862265393207528
 10
-4.783398675580416
 20
0.8654673794369379
 10
-4.782527823296275
 20
0.8687067816456162
 10
-4.781787209138562
 20
0.8719784174810619
 10
-4.781178017931939
 20
0.875277053023851
 10
-4.780701224252387
 20
0.8785974111607863
 10
-4.78035759086808
 20
0.8819341800271542
 10
-4.780147667519129
 20
0.8852820215045781
 10
-4.780071790038109
 20
0.8886355797608551
 10
-4.78007150173132
 20
0.8888554847264856
  0
LWPOLYLINE
  5
542
330
4E9
100
AcDbEntity
  8
7052814
100
AcDbPolyline
 90
       11
 70
   128
 43
0.0
 10
-3.205155688506664
 20
0.8413198438294283
 10
-3.191431381877885
 20
0.8222018806586085
 10
-3.176953538612353
 20
0.8036480357034406
 10
-3.161745320170856
 20
0.7856879911579143
 10
-3.14583105645865
 20
0.7683504792620273
 10
-3.129236206902811
 20
0.7516632363363427
 10
-3.111987319722588
 20
0.735652958409788
 10
-3.094111989457902
 20
0.7203452585116992
 10
-3.075638812823971
 20
0.7057646256964448
 10
-3.056597342962678
 20
0.6919343858661611
 10
-3.04933451279253
 20
0.6869582270477826
  0
LWPOLYLINE
  5
543
330
4E9
100
AcDbEntity
  8
7052814
100
AcDbPolyline
 90
       11
 70
   128
 43
0.0
 10
-4.950665487207464
 20
0.6869582270478026
 10
-4.931419214578744
 20
0.700502011531563
 10
-4.91272994383917
 20
0.7148046080603248
 10
-4.8946275738351
 20
0.7298431355307052
 10
-4.877141064496901
 20
0.7455935355067953
 10
-4.860298390509266
 20
0.7620306107085395
 10
-4.844126496557654
 20
0.7791280653220048
 10
-4.828651254222576
 20
0.7968585470670742
 10
-4.813897420590553
 20
0.8151936909552537
 10
-4.799888598648083
 20
0.834104164667611
 10
-4.794844311493326
 20
0.8413198438294458
  0
LWPOLYLINE
  5
544
330
4E9
100
AcDbEntity
  8
7052814
100
AcDbPolyline
 90
       26
 70
   128
 43
0.0
 10
-3.049334512792526
 20
0.6869582270477786
 10
-3.048000359884879
 20
0.6860193710002678
 10
-3.046704818385492
 20
0.6850279140509721
 10
-3.045449960884401
 20
0.6839854423195165
 10
-3.044237794885912
 20
0.6828936235382863
 10
-3.043070259597046
 20
0.6817542043844221
 10
-3.041949222825204
 20
0.6805690076855098
 10
-3.040876477990076
 20
0.6793399295034384
 10
-3.039853741254564
 20
0.6780689361011083
 10
-3.038882648779265
 20
0.6767580607968334
 10
-3.037964754104992
 20
0.6754094007114611
 10
-3.037101525667411
 20
0.6740251134134314
 10
-3.036294344447879
 20
0.6726074134671203
 10
-3.035544501764158
 20
0.6711585688900148
 10
-3.034853197204581
 20
0.6696808975243691
 10
-3.034221536708978
 20
0.6681767633291505
 10
-3.033650530799389
 20
0.666648572598203
 10
-3.03314109296347
 20
0.6650987701107005
 10
-3.032694038193072
 20
0.6635298352200177
 10
-3.032310081680472
 20
0.6619442778872906
 10
-3.031989837674178
 20
0.6603446346660147
 10
-3.031733818496286
 20
0.6587334646441088
 10
-3.031542433722867
 20
0.6571133453499103
 10
-3.031415989528731
 20
0.655486868628679
 10
-3.031354688197618
 20
0.6538566364962071
 10
-3.031348381899581
 20
0.6531394236277906
  0
LWPOLYLINE
  5
545
330
4E9
100
AcDbEntity
  8
7052814
100
AcDbPolyline
 90
       26
 70
   128
 43
0.0
 10
-4.968651618100414
 20
0.6531394236278106
 10
-4.968618992590011
 20
0.6547704816387375
 10
-4.96852116825266
 20
0.6563989303047868
 10
-4.968358301586434
 20
0.658022164455478
 10
-4.968130653143253
 20
0.6596375872624401
 10
-4.967838587112064
 20
0.6612426143937858
 10
-4.967482570736214
 20
0.662834678148498
 10
-4.967063173565959
 20
0.6644112315641877
 10
-4.966581066547304
 20
0.6659697524917001
 10
-4.966037020948634
 20
0.6675077476300229
 10
-4.965431907126852
 20
0.6690227565150209
 10
-4.964766693134986
 20
0.6705123554556636
 10
-4.96404244317352
 20
0.6719741614114101
 10
-4.963260315887895
 20
0.673405835804565
 10
-4.96242156251492
 20
0.6748050882615067
 10
-4.96152752488107
 20
0.6761696802767983
 10
-4.960579633255839
 20
0.6774974287943106
 10
-4.959579404063623
 20
0.6787862096996525
 10
-4.95852843745776
 20
0.6800339612183035
 10
-4.957428414760622
 20
0.6812386872140049
 10
-4.956281095773865
 20
0.6823984603821565
 10
-4.955088315963125
 20
0.6835114253330992
 10
-4.953851983521646
 20
0.6845758015603268
 10
-4.952574076317603
 20
0.6855898862889314
 10
-4.951256638729914
 20
0.6865520571996742
 10
-4.950665487207468
 20
0.6869582270477986
  0
LINE
  5
546
330
4E9
100
AcDbEntity
  8
7052814
100
AcDbLine
 10
-4.968651618100455
 20
0.6531394236278092
 30
0.0
 11
-4.968651618100457
 21
0.5480588666228328
 31
0.0
  0
LINE
  5
547
330
4E9
100
AcDbEntity
  8
7052814
100
AcDbLine
 10
-3.031348381899542
 20
0.5480588666228115
 30
0.0
 11
-3.031348381899539
 21
0.6531394236277892
 31
0.0
  0
LWPOLYLINE
  5
548
330
4E9
100
AcDbEntity
  8
7052814
100
AcDbPolyline
 90
       25
 70
   128
 43
0.0
 10
-3.031348381899583
 20
0.5480588666228115
 10
-3.031318802647762
 20
0.5465801012320473
 10
-3.031230112212794
 20
0.545103701550453
 10
-3.031082452480452
 20
0.5436320295025752
 10
-3.030876059674811
 20
0.5421674394497465
 10
-3.030611263980331
 20
0.5407122744236248
 10
-3.030288489013639
 20
0.5392688623778322
 10
-3.029908251145824
 20
0.5378395124637319
 10
-3.02947115867636
 20
0.5364265113362708
 10
-3.028977910859961
 20
0.535032119495833
 10
-3.028429296787908
 20
0.5336585676719077
 10
-3.02782619412569
 20
0.5323080532544023
 10
-3.027169567708908
 20
0.5309827367782943
 10
-3.026460467999758
 20
0.5296847384672217
 10
-3.025700029406504
 20
0.5284161348415948
 10
-3.024889468468682
 20
0.5271789553965909
 10
-3.024030081910879
 20
0.5259751793554046
 10
-3.023123244568262
 20
0.5248067325029142
 10
-3.022170407187132
 20
0.5236754841048219
 10
-3.021173094104039
 20
0.5225832439172487
 10
-3.020132900807162
 20
0.5215317592914941
 10
-3.019051491383885
 20
0.5205227123786567
 10
-3.017930595858594
 20
0.5195577174385409
 10
-3.01677200742502
 20
0.5186383182572003
 10
-3.016020407079427
 20
0.5180808847397605
  0
LWPOLYLINE
  5
549
330
4E9
100
AcDbEntity
  8
7052814
100
AcDbPolyline
 90
       25
 70
   128
 43
0.0
 10
-4.983979592920571
 20
0.5180808847397805
 10
-4.982798111891671
 20
0.5189706738110838
 10
-4.981653157994102
 20
0.5199069977857365
 10
-4.980546562909859
 20
0.5208883587451161
 10
-4.979480096955017
 20
0.5219131867210339
 10
-4.9784554662476
 20
0.5229798422073469
 10
-4.977474309978166
 20
0.5240866187828175
 10
-4.976538197787442
 20
0.525231745841027
 10
-4.975648627255241
 20
0.5264133914229601
 10
-4.97480702150465
 20
0.5276296651477597
 10
-4.974014726925336
 20
0.5288786212369195
 10
-4.973273011019612
 20
0.5301582616271299
 10
-4.972583060374704
 20
0.5314665391667442
 10
-4.971945978764461
 20
0.5328013608907783
 10
-4.971362785383558
 20
0.534160591369222
 10
-4.970834413216993
 20
0.5355420561232651
 10
-4.970361707547521
 20
0.536943545103997
 10
-4.969945424603375
 20
0.5383628162280161
 10
-4.969586230348463
 20
0.5397975989642885
 10
-4.969284699416968
 20
0.5412455979665026
 10
-4.969041314194061
 20
0.5427044967451487
 10
-4.968856464044174
 20
0.5441719613733924
 10
-4.968730444688118
 20
0.5456456442208744
 10
-4.968663457729977
 20
0.5471231877094059
 10
-4.968651618100414
 20
0.5480588666228328
  0
LWPOLYLINE
  5
54A
330
4E9
100
AcDbEntity
  8
7052814
100
AcDbPolyline
 90
       20
 70
   128
 43
0.0
 10
-3.016020407079427
 20
0.5180808847397618
 10
-3.007535232769759
 20
0.5116905871521067
 10
-2.999312389440287
 20
0.5049660846498237
 10
-2.991365031886225
 20
0.4979181350024332
 10
-2.983705874184312
 20
0.4905580134258908
 10
-2.976347169353006
 20
0.4828974945446413
 10
-2.969300689750264
 20
0.4749488335547373
 10
-2.962577708240283
 20
0.4667247466181422
 10
-2.956188980159314
 20
0.4582383905195738
 10
-2.950144726109437
 20
0.4495033416184634
 10
-2.944454615607757
 20
0.4405335741296735
 10
-2.939127751617249
 20
0.4313434377677435
 10
-2.934172655983966
 20
0.4219476347903887
 10
-2.929597255803885
 20
0.4123611964780426
 10
-2.925408870741263
 20
0.4025994590870116
 10
-2.921614201318728
 20
0.3926780393147254
 10
-2.918219318197865
 20
0.382612809316361
 10
-2.915229652467472
 20
0.3724198713127845
 10
-2.912649986954946
 20
0.3621155318304222
 10
-2.91160284857289
 20
0.3573458460778217
  0
LWPOLYLINE
  5
54B
330
4E9
100
AcDbEntity
  8
7052814
100
AcDbPolyline
 90
       20
 70
   128
 43
0.0
 10
-5.088397151427111
 20
0.3573458460778443
 10
-5.086007384873097
 20
0.3676958751667675
 10
-5.083205639105353
 20
0.3779420601630084
 10
-5.079996396319431
 20
0.3880680093563087
 10
-5.076384790619192
 20
0.3980575233880433
 10
-5.072376599803316
 20
0.4078946211667486
 10
-5.067978236122078
 20
0.4175635654344451
 10
-5.063196736019097
 20
0.4270488879429025
 10
-5.058039748874541
 20
0.4363354141995358
 10
-5.052515524767741
 20
0.4454082877433542
 10
-5.046632901278831
 20
0.4542529939121295
 10
-5.040401289350501
 20
0.4628553830627645
 10
-5.033830658232494
 20
0.4712016932076938
 10
-5.026931519532942
 20
0.4792785720311376
 10
-5.019714910402024
 20
0.4870730982499537
 10
-5.01219237587489
 20
0.4945728022849357
 10
-5.004375950402062
 20
0.5017656862094793
 10
-4.996278138596879
 20
0.5086402429437063
 10
-4.987911895230789
 20
0.515185474663336
 10
-4.983979592920571
 20
0.5180808847397818
  0
LWPOLYLINE
  5
54C
330
4E9
100
AcDbEntity
  8
7052814
100
AcDbPolyline
 90
       17
 70
   128
 43
0.0
 10
-2.91160284857289
 20
0.357345846077823
 10
-2.907518512538736
 20
0.3396566719233763
 10
-2.902730065241021
 20
0.3221449771001118
 10
-2.897245167173943
 20
0.3048387765841137
 10
-2.891072593004359
 20
0.2877657566044142
 10
-2.884222217534194
 20
0.2709532303509335
 10
-2.876704999902864
 20
0.254428094279196
 10
-2.868532966054997
 20
0.2382167850817432
 10
-2.859719189501468
 20
0.222345237395059
 10
-2.850277770404597
 20
0.2068388423096948
 10
-2.840223813020871
 20
0.1917224067499333
 10
-2.829573401537377
 20
0.177020113788002
 10
-2.818343574340524
 20
0.1627554839563171
 10
-2.806552296758255
 20
0.1489513376196513
 10
-2.794218432319363
 20
0.1356297584674163
 10
-2.78136171257587
 20
0.122812058184469
 10
-2.770253611584349
 20
0.1125217860025726
  0
LWPOLYLINE
  5
54D
330
4E9
100
AcDbEntity
  8
7052814
100
AcDbPolyline
 90
       17
 70
   128
 43
0.0
 10
-5.229746388415657
 20
0.1125217860025979
 10
-5.216469282243018
 20
0.1249035118429883
 10
-5.203697933311605
 20
0.1378062762591249
 10
-5.191452773055301
 20
0.1512094375803815
 10
-5.179753391118357
 20
0.1650915536078364
 10
-5.168618504016132
 20
0.1794304159171994
 10
-5.158065925192678
 20
0.1942030853875757
 10
-5.148112536523013
 20
0.2093859288991441
 10
-5.138774261305732
 20
0.2249546571411219
 10
-5.130066038789125
 20
0.24088436346947
 10
-5.122001800271563
 20
0.2571495637522224
 10
-5.114594446814395
 20
0.2737242371386515
 10
-5.107855828603002
 20
0.2905818676870791
 10
-5.101796725989027
 20
0.3076954867847315
 10
-5.096426832244111
 20
0.3250377162917616
 10
-5.091754738052731
 20
0.3425808123404367
 10
-5.088397151427111
 20
0.3573458460778457
  0
LWPOLYLINE
  5
54E
330
4E9
100
AcDbEntity
  8
7052814
100
AcDbPolyline
 90
       41
 70
   128
 43
0.0
 10
-2.736959948201375
 20
0.1125217860025726
 10
-2.736008198021123
 20
0.1125027484605591
 10
-2.735057970438131
 20
0.1124456662905296
 10
-2.734110785613825
 20
0.1123506308117791
 10
-2.733168158841872
 20
0.1122177940607988
 10
-2.732231598124021
 20
0.112047368548054
 10
-2.731302601757633
 20
0.111839626918009
 10
-2.73038265593872
 20
0.1115949015129575
 10
-2.729473232384345
 20
0.1113135838413412
 10
-2.728575785978195
 20
0.1109961239514213
 10
-2.72769175244308
 20
0.1106430297113056
 10
-2.726822546044067
 20
0.110254865996451
 10
-2.725969557325976
 20
0.1098322537859989
 10
-2.725134150888793
 20
0.1093758691693353
 10
-2.724317663204608
 20
0.1088864422644874
 10
-2.723521400479539
 20
0.1083647560500985
 10
-2.722746636564091
 20
0.1078116451128231
 10
-2.721994610915247
 20
0.1072279943121749
 10
-2.72126652661363
 20
0.1066147373649217
 10
-2.7205635484388
 20
0.1059728553513658
 10
-2.719886801005879
 20
0.1053033751457956
 10
-2.719237366966392
 20
0.1046073677737299
 10
-2.718616285276267
 20
0.103885946698485
 10
-2.718024549533716
 20
0.10314026603989
 10
-2.717463106389695
 20
0.1023715187279289
 10
-2.716932854033471
 20
0.1015809345943076
 10
-2.716434640755695
 20
0.1007697784049927
 10
-2.715969263591334
 20
0.0999393478368514
 10
-2.715537467044574
 20
0.0990909714016392
 10
-2.715139941897781
 20
0.0982260063206791
 10
-2.714777324106387
 20
0.0973458363535823
 10
-2.714450193781503
 20
0.0964518695845366
 10
-2.714159074261866
 20
0.0955455361696714
 10
-2.713904431276608
 20
0.0946282860491082
 10
-2.71368667220018
 20
0.0937015866273702
 10
-2.713506145400652
 20
0.0927669204258483
 10
-2.713363139682394
 20
0.0918257827110797
 10
-2.71325788382405
 20
0.0908796791026415
 10
-2.713190546212539
 20
0.0899301231644826
 10
-2.713161234573675
 20
0.0889786339835458
 10
-2.713159847509281
 20
0.0887216853104752
  0
LWPOLYLINE
  5
54F
330
4E9
100
AcDbEntity
  8
7052814
100
AcDbPolyline
 90
       41
 70
   128
 43
0.0
 10
-5.286840152490727
 20
0.0887216853105019
 10
-5.286821114948716
 20
0.0896734354907542
 10
-5.286764032778686
 20
0.0906236630737462
 10
-5.286668997299935
 20
0.0915708478980518
 10
-5.286536160548955
 20
0.092513474670006
 10
-5.286365735036211
 20
0.0934500353878557
 10
-5.286157993406165
 20
0.0943790317542429
 10
-5.285913268001115
 20
0.095298977573156
 10
-5.285631950329497
 20
0.0962084011275321
 10
-5.285314490439578
 20
0.0971058475336803
 10
-5.284961396199461
 20
0.0979898810687973
 10
-5.284573232484607
 20
0.0988590874678114
 10
-5.284150620274155
 20
0.099712076185902
 10
-5.283694235657492
 20
0.100547482623084
 10
-5.283204808752643
 20
0.1013639703072698
 10
-5.282683122538253
 20
0.1021602330323376
 10
-5.28213001160098
 20
0.1029349969477874
 10
-5.28154636080033
 20
0.1036870225966276
 10
-5.28093310385308
 20
0.1044151068982472
 10
-5.280291221839521
 20
0.1051180850730772
 10
-5.279621741633951
 20
0.1057948325059993
 10
-5.278925734261884
 20
0.1064442665454838
 10
-5.278204313186643
 20
0.1070653482356106
 10
-5.277458632528047
 20
0.1076570839781615
 10
-5.276689885216084
 20
0.1082185271221802
 10
-5.275899301082464
 20
0.1087487794784062
 10
-5.27508814489315
 20
0.109246992756182
 10
-5.274257714325008
 20
0.1097123699205441
 10
-5.273409337889797
 20
0.1101441664673036
 10
-5.272544372808836
 20
0.1105416916140959
 10
-5.271664202841739
 20
0.1109043094054899
 10
-5.270770236072694
 20
0.1112314397303732
 10
-5.269863902657826
 20
0.1115225592500094
 10
-5.268946652537264
 20
0.11177720223527
 10
-5.268019953115528
 20
0.1119949613116981
 10
-5.267085286914005
 20
0.1121754881112259
 10
-5.266144149199236
 20
0.1123184938294824
 10
-5.265198045590798
 20
0.1124237496878263
 10
-5.26424848965264
 20
0.1124910872993384
 10
-5.263297000471702
 20
0.1125203989382012
 10
-5.263040051798631
 20
0.1125217860025979
  0
LWPOLYLINE
  5
550
330
4E9
100
AcDbEntity
  8
7052814
100
AcDbPolyline
 90
        2
 70
   128
 43
0.0
 10
-2.736959948201375
 20
0.1125217860025726
 10
-5.263040051798631
 20
0.1125217860025979
  0
LINE
  5
551
330
4E9
100
AcDbEntity
  8
7052814
100
AcDbLine
 10
-5.28684015249078
 20
0.0887216853105005
 30
0.0
 11
-5.28684015249078
 21
0.0000000000034822
 31
0.0
  0
LINE
  5
552
330
4E9
100
AcDbEntity
  8
7052814
100
AcDbLine
 10
-2.71315984750923
 20
0.0000000000034556
 30
0.0
 11
-2.71315984750923
 21
0.0887216853104739
 31
0.0
  0
LWPOLYLINE
  5
553
330
4E9
100
AcDbEntity
  8
7052814
100
AcDbPolyline
 90
       13
 70
   128
 43
0.0
 10
-3.230935119622882
 20
1.033709222679386
 10
-3.229067458570506
 20
1.029572366364083
 10
-3.227366721577441
 20
1.025364132570621
 10
-3.225835629460071
 20
1.02109125357536
 10
-3.224476631639165
 20
1.016760565073194
 10
-3.223291902221339
 20
1.012378995241895
 10
-3.222283336520925
 20
1.007953553658508
 10
-3.221452548027899
 20
1.003491320085522
 10
-3.220800865826623
 20
0.9989994331447626
 10
-3.220329332469605
 20
0.9944850788971187
 10
-3.22003870230962
 20
0.9899554793463707
 10
-3.219929440292933
 20
0.9854178808855404
 10
-3.219928498268668
 20
0.9849554939152028
  0
LWPOLYLINE
  5
554
330
4E9
100
AcDbEntity
  8
7052814
100
AcDbPolyline
 90
       13
 70
   128
 43
0.0
 10
-4.78007150173132
 20
0.9849554939152174
 10
-4.779980729508196
 20
0.9894934999072312
 10
-4.779708558055011
 20
0.9940242460577103
 10
-4.779255422788031
 20
0.9985404841393258
 10
-4.778622048627022
 20
1.00303498913456
 10
-4.777809448835528
 20
1.007500570794198
 10
-4.776818923399869
 20
1.011930085140187
 10
-4.775652056949441
 20
1.01631644589449
 10
-4.774310716221648
 20
1.020652635815606
 10
-4.772797047075517
 20
1.024931717924665
 10
-4.771113471058781
 20
1.029146846603115
 10
-4.769262681533925
 20
1.033291278544251
 10
-4.769064880377102
 20
1.033709222679402
  0
LWPOLYLINE
  5
555
330
4E9
100
AcDbEntity
  8
7052814
100
AcDbPolyline
 90
       25
 70
   128
 43
0.0
 10
-3.51951929696626
 20
3.286032390228862
 10
-3.517879136484179
 20
3.284834350139944
 10
-3.516288196781029
 20
3.283571679429675
 10
-3.51474902302095
 20
3.282246398101837
 10
-3.513264077553619
 20
3.280860626323842
 10
-3.511835735975015
 20
3.27941658103492
 10
-3.510466283326964
 20
3.277916572399485
 10
-3.509157910441567
 20
3.276363000111372
 10
-3.507912710436343
 20
3.27475834955483
 10
-3.506732675365663
 20
3.27310518782844
 10
-3.505619693033919
 20
3.271406159638308
 10
-3.504575543975418
 20
3.269663983067104
 10
-3.503601898605909
 20
3.26788144522569
 10
-3.502700314550287
 20
3.266061397794363
 10
-3.501872234150713
 20
3.264206752460756
 10
-3.501118982159178
 20
3.262320476261765
 10
-3.500441763618184
 20
3.260405586836927
 10
-3.499841661932928
 20
3.258465147600828
 10
-3.499319637138096
 20
3.256502262842313
 10
-3.498876524361998
 20
3.254520072758267
 10
-3.498513032490549
 20
3.25252174842998
 10
-3.498229743033206
 20
3.250510486750093
 10
-3.498027109192667
 20
3.248489505308243
 10
-3.497905455139848
 20
3.246462037243619
 10
-3.497864975374712
 20
3.244434825479811
  0
LWPOLYLINE
  5
556
330
4E9
100
AcDbEntity
  8
7052814
100
AcDbPolyline
 90
       25
 70
   128
 43
0.0
 10
-4.50213502462523
 20
3.244434825479822
 10
-4.502094405041608
 20
3.246465533856486
 10
-4.50197261127341
 20
3.248492993532943
 10
-4.501769838164683
 20
3.250513961006211
 10
-4.50148641010915
 20
3.252525203159451
 10
-4.501122780531231
 20
3.254523502434257
 10
-4.500679531160685
 20
3.256505661978073
 10
-4.50015737110195
 20
3.258468510758467
 10
-4.499557135699729
 20
3.260408908636108
 10
-4.498879785202625
 20
3.262323751388322
 10
-4.498126403226939
 20
3.264209975675182
 10
-4.497298195023118
 20
3.266064563940203
 10
-4.496396485547617
 20
3.267884549237787
 10
-4.495422717343236
 20
3.269667019979698
 10
-4.494378448231381
 20
3.271409124592991
 10
-4.493265348819862
 20
3.273108076081912
 10
-4.492085199830292
 20
3.274761156486506
 10
-4.490839889249301
 20
3.276365721230758
 10
-4.489531409308167
 20
3.277919203353373
 10
-4.488161853295666
 20
3.279419117614341
 10
-4.486733412209266
 20
3.280863064470813
 10
-4.485248371249985
 20
3.282248733915841
 10
-4.483709106166562
 20
3.283573909173909
 10
-4.482118079454782
 20
3.284836470247293
 10
-4.480480703033682
 20
3.286032390228871
  0
LINE
  5
557
330
4E9
100
AcDbEntity
  8
7052814
100
AcDbLine
 10
-4.502135024625244
 20
3.244434825479822
 30
0.0
 11
-4.502135024625248
 21
3.135789348401134
 31
0.0
  0
LINE
  5
558
330
4E9
100
AcDbEntity
  8
7052814
100
AcDbLine
 10
-3.497864975374696
 20
3.135789348401123
 30
0.0
 11
-3.497864975374696
 21
3.244434825479812
 31
0.0
  0
LWPOLYLINE
  5
559
330
4E9
100
AcDbEntity
  8
7052814
100
AcDbPolyline
 90
       25
 70
   128
 43
0.0
 10
-3.497864975374714
 20
3.135789348401123
 10
-3.497904078244992
 20
3.133834465579892
 10
-3.498021324299582
 20
3.131882710154155
 10
-3.498216525969802
 20
3.129937204516242
 10
-3.498489370974622
 20
3.128001061060152
 10
-3.498839422820241
 20
3.126077377202397
 10
-3.499266121498378
 20
3.124169230426782
 10
-3.499768784382171
 20
3.1222796733611
 10
-3.500346607318233
 20
3.120411728893572
 10
-3.500998665913135
 20
3.118568385336873
 10
-3.501723917012217
 20
3.116752591647466
 10
-3.502521200368438
 20
3.114967252707909
 10
-3.503389240498503
 20
3.113215224679648
 10
-3.504326648723374
 20
3.111499310433786
 10
-3.505331925389866
 20
3.109822255067073
 10
-3.506403462269757
 20
3.108186741510345
 10
-3.507539545132621
 20
3.106595386236398
 10
-3.508738356488231
 20
3.105050735074203
 10
-3.509997978494149
 20
3.103555259136108
 10
-3.511316396023872
 20
3.1021113508646
 10
-3.5126914998906
 20
3.100721320204894
 10
-3.514121090221483
 20
3.099387390909521
 10
-3.515602879976958
 20
3.098111696980799
 10
-3.517134498609513
 20
3.096896279256878
 10
-3.518710736278238
 20
3.09574501428234
  0
LWPOLYLINE
  5
55A
330
4E9
100
AcDbEntity
  8
7052814
100
AcDbPolyline
 90
       25
 70
   128
 43
0.0
 10
-4.481289263721707
 20
3.09574501428235
 10
-4.482868181496078
 20
3.096898320200562
 10
-4.484399716368857
 20
3.098113843467587
 10
-4.485881418210952
 20
3.099389639505493
 10
-4.487310916615504
 20
3.100723667312772
 10
-4.488685924690004
 20
3.102113792729516
 10
-4.490004242714851
 20
3.103557791851598
 10
-4.491263761662432
 20
3.105053354588459
 10
-4.492462466571117
 20
3.10659808835876
 10
-4.493598439768758
 20
3.108189521917992
 10
-4.49466986394057
 20
3.109825109311948
 10
-4.495675025036439
 20
3.111502233949704
 10
-4.496612315013026
 20
3.113218212789607
 10
-4.497480234406319
 20
3.114970300631572
 10
-4.498277394730434
 20
3.116755694508805
 10
-4.499002520698907
 20
3.118571538171972
 10
-4.499654452264866
 20
3.120414926658567
 10
-4.500232146476886
 20
3.122282910940249
 10
-4.500734679147456
 20
3.124172502640649
 10
-4.501161246331507
 20
3.126080678816137
 10
-4.501511165612539
 20
3.12800438679189
 10
-4.50178387719435
 20
3.129940549045513
 10
-4.501978944796585
 20
3.131886068130429
 10
-4.502096056352689
 20
3.133837831631121
 10
-4.50213502462523
 20
3.135789348401134
  0
LINE
  5
55B
330
4E9
100
AcDbEntity
  8
7052814
100
AcDbLine
 10
-2.713159847509226
 20
0.0000000000034564
 30
0.0
 11
-5.286840152490773
 21
0.0000000000034828
 31
0.0
  0
LINE
  5
55C
330
4E9
100
AcDbEntity
  8
7052814
100
AcDbLine
 10
-4.346456278691597
 20
3.37987730245741
 30
0.0
 11
-3.653543721308333
 21
3.379877302457404
 31
0.0
  0
LWPOLYLINE
  5
55D
330
4E9
100
AcDbEntity
  8
7052814
100
AcDbPolyline
 90
       66
 70
   128
 43
0.0
 10
4.839879447385063
 20
3.742688347823592
 10
4.837912843534853
 20
3.739303295512416
 10
4.835812446769852
 20
3.735999594060614
 10
4.833581617276822
 20
3.732782528685757
 10
4.831223923907069
 20
3.729657246006176
 10
4.828743138467034
 20
3.726628745807466
 10
4.826143229684221
 20
3.723701873043898
 10
4.823428356858061
 20
3.720881310087528
 10
4.820602863205936
 20
3.718171569237399
 10
4.817671268914944
 20
3.715576985500824
 10
4.814638263910582
 20
3.713101709658299
 10
4.811508700353849
 20
3.710749701623143
 10
4.808287584878831
 20
3.708524724106475
 10
4.804980070583157
 20
3.706430336597686
 10
4.801591448784131
 20
3.704469889670012
 10
4.798127140553761
 20
3.70264651962033
 10
4.794592688046206
 20
3.700963143451756
 10
4.790993745631505
 20
3.699422454207056
 10
4.787336070849784
 20
3.698026916660361
 10
4.783625515200435
 20
3.696778763374048
 10
4.779868014780946
 20
3.695679991127113
 10
4.776069580790442
 20
3.69473235772076
 10
4.772236289913012
 20
3.693937379166289
 10
4.768374274596331
 20
3.693296327259802
 10
4.76448971324106
 20
3.692810227547596
 10
4.760588820316703
 20
3.692479857685518
 10
4.756677836419795
 20
3.69230574619487
 10
4.752763018290268
 20
3.692288171616895
 10
4.748850628802012
 20
3.692427162067169
 10
4.74494692694361
 20
3.692722495190623
 10
4.7410581578053
 20
3.693173698517258
 10
4.737190542588132
 20
3.693780050218005
 10
4.733350268651408
 20
3.694540580259491
 10
4.729543479614216
 20
3.695454071955885
 10
4.72577626552694
 20
3.696519063915342
 10
4.722054653128493
 20
3.697733852377914
 10
4.718384596204815
 20
3.6990964939412
 10
4.714771966064068
 20
3.700604808669382
 10
4.711222542143831
 20
3.702256383580651
 10
4.707742002765209
 20
3.704048576507466
 10
4.704335916048728
 20
3.705978520323458
 10
4.701009731006541
 20
3.70804312753022
 10
4.697768768825172
 20
3.710239095196649
 10
4.694618214352738
 20
3.712562910242925
 10
4.691563107804315
 20
3.715010855060698
 10
4.688608336698662
 20
3.717579013460455
 10
4.685758628039222
 20
3.720263276936605
 10
4.68301854075195
 20
3.723059351240196
 10
4.680392458391986
 20
3.725962763248809
 10
4.677884582130902
 20
3.728968868122589
 10
4.675498924035734
 20
3.732072856735008
 10
4.673239300650516
 20
3.735269763366432
 10
4.671109326890642
 20
3.738554473648226
 10
4.669112410259758
 20
3.741921732744636
 10
4.667251745398482
 20
3.74536615375942
 10
4.665530308973673
 20
3.748882226353725
 10
4.663950854916391
 20
3.752464325561453
 10
4.662515910016205
 20
3.756106720788015
 10
4.661227769878832
 20
3.759803584978052
 10
4.660088495253718
 20
3.763549003937479
 10
4.65909990873722
 20
3.767336985794943
 10
4.658263591856888
 20
3.771161470587531
 10
4.657580882541319
 20
3.775016339955421
 10
4.657052872979777
 20
3.778895426929956
 10
4.656680407874938
 20
3.782792525799466
 10
4.656537295330105
 20
3.785031825534689
  0
LWPOLYLINE
  5
55E
330
4E9
100
AcDbEntity
  8
7052814
100
AcDbPolyline
 90
       66
 70
   128
 43
0.0
 10
4.632177814686274
 20
4.249838405341571
 10
4.632051152483063
 20
4.253751213353645
 10
4.632081062183312
 20
4.257665956673826
 10
4.632267495937876
 20
4.261576372547903
 10
4.632610155492516
 20
4.265476205144653
 10
4.633108492665046
 20
4.269359215563844
 10
4.633761710222296
 20
4.273219191817136
 10
4.634568763155519
 20
4.277049958765939
 10
4.635528360352177
 20
4.280845388000325
 10
4.636638966661474
 20
4.284599407643165
 10
4.637898805350216
 20
4.288306012063848
 10
4.639305860945258
 20
4.291959271485997
 10
4.64085788245781
 20
4.295553341473859
 10
4.642552386984521
 20
4.299082472282147
 10
4.644386663679634
 20
4.302541018054411
 10
4.646357778091728
 20
4.305923445855197
 10
4.648462576858213
 20
4.30922434452157
 10
4.650697692750069
 20
4.312438433319819
 10
4.653059550058673
 20
4.315560570393501
 10
4.655544370316169
 20
4.318585760989321
 10
4.6581481783402
 20
4.321509165447661
 10
4.660866808593384
 20
4.324326106945019
 10
4.663695911847264
 20
4.327032078975911
 10
4.666630962140134
 20
4.329622752562332
 10
4.669667264017641
 20
4.332093983179192
 10
4.672799960044494
 20
4.334441817384671
 10
4.676024038575322
 20
4.336662499144884
 10
4.679334341772234
 20
4.338752475842737
 10
4.682725573856282
 20
4.34070840396135
 10
4.686192309579562
 20
4.342527154432976
 10
4.689729002904437
 20
4.34420581764484
 10
4.693329995876043
 20
4.345741708093897
 10
4.696989527673798
 20
4.347132368683069
 10
4.700701743827485
 20
4.348375574652072
 10
4.704460705583157
 20
4.34946933713656
 10
4.70826039940387
 20
4.350411906349878
 10
4.712094746590073
 20
4.351201774382358
 10
4.715957613004215
 20
4.351837677613644
 10
4.719842818884069
 20
4.352318598734218
 10
4.723744148729027
 20
4.352643768372876
 10
4.727655361243579
 20
4.352812666327564
 10
4.731570199322044
 20
4.352825022397586
 10
4.73548240005862
 20
4.352680816815861
 10
4.739385704766691
 20
4.352380280280561
 10
4.743273868991375
 20
4.35192389358603
 10
4.74714067249935
 20
4.351312386853623
 10
4.750979929229876
 20
4.350546738363663
 10
4.75478549719118
 20
4.349628172990406
 10
4.758551288286342
 20
4.348558160242498
 10
4.76227127805293
 20
4.347338411912077
 10
4.765939515300873
 20
4.345970879336275
 10
4.769550131633087
 20
4.344457750275487
 10
4.773097350833667
 20
4.342801445413427
 10
4.7765754981086
 20
4.341004614484548
 10
4.779979009164202
 20
4.339070132035033
 10
4.783302439108824
 20
4.337001092824134
 10
4.786540471163521
 20
4.334800806873215
 10
4.789687925167756
 20
4.332472794170432
 10
4.792739765866526
 20
4.33002077903949
 10
4.795691110965757
 20
4.32744868418153
 10
4.798537238942857
 20
4.324760624399641
 10
4.801273596600223
 20
4.321960900016054
 10
4.803895806349318
 20
4.319053989992537
 10
4.806399673213919
 20
4.316044544765021
 10
4.808781191541173
 20
4.312937378803888
 10
4.810089500594324
 20
4.311114394457789
  0
LWPOLYLINE
  5
55F
330
4E9
100
AcDbEntity
  8
7052814
100
AcDbPolyline
 90
        2
 70
   128
 43
0.0
 10
4.656537295330105
 20
3.785031825534689
 10
4.656527552836946
 20
3.785217723378249
  0
LWPOLYLINE
  5
560
330
4E9
100
AcDbEntity
  8
7052814
100
AcDbPolyline
 90
        2
 70
   128
 43
0.0
 10
4.632177814686274
 20
4.249838405341573
 10
4.656534456082981
 20
3.785086001597121
  0
LWPOLYLINE
  5
561
330
4E9
100
AcDbEntity
  8
7052814
100
AcDbPolyline
 90
        7
 70
   128
 43
0.0
 10
6.749835216947397
 20
3.742688347823713
 10
6.416131069831758
 20
3.774217584282943
 10
6.081433017267185
 20
3.792376994057467
 10
5.746276504739336
 20
3.797137525965457
 10
5.411197711172016
 20
3.788491564171377
 10
5.076732691155266
 20
3.766452940369727
 10
4.83987944738506
 20
3.742688347823661
  0
LWPOLYLINE
  5
562
330
4E9
100
AcDbEntity
  8
7052814
100
AcDbPolyline
 90
        7
 70
   128
 43
0.0
 10
4.810089500594324
 20
4.31111439445772
 10
5.145261284111102
 20
4.314639460138804
 10
5.480024000921273
 20
4.331565002604314
 10
5.813842102090164
 20
4.361863944596895
 10
6.146181549866648
 20
4.405487814272787
 10
6.476510672029577
 20
4.462366822746437
 10
6.709582332609029
 20
4.510759135959258
  0
LWPOLYLINE
  5
563
330
4E9
100
AcDbEntity
  8
7052814
100
AcDbPolyline
 90
       69
 70
   128
 43
0.0
 10
6.974141040423136
 20
3.79447342754842
 10
6.974038767094684
 20
3.789747827201007
 10
6.973747601962466
 20
3.785030096672146
 10
6.973268010828574
 20
3.780327783324285
 10
6.972600760936513
 20
3.775648409855675
 10
6.971746919743781
 20
3.770999462265654
 10
6.970707853214138
 20
3.766388377878642
 10
6.969485223632377
 20
3.761822533446012
 10
6.968080986945013
 20
3.757309233344862
 10
6.966497389631188
 20
3.752855697892568
 10
6.964736965108793
 20
3.748469051795819
 10
6.962802529681527
 20
3.744156312752598
 10
6.960697178033418
 20
3.739924380225375
 10
6.958424278277982
 20
3.735780024403427
 10
6.955987466569967
 20
3.73172987537199
 10
6.953390641288281
 20
3.727780412505525
 10
6.950637956799416
 20
3.723937954102115
 10
6.947733816811345
 20
3.720208647275523
 10
6.944682867328536
 20
3.716598458121128
 10
6.941489989219322
 20
3.713113162171444
 10
6.938160290407568
 20
3.709758335156503
 10
6.934699097701075
 20
3.706539344083867
 10
6.931111948269824
 20
3.703461338652574
 10
6.927404580787692
 20
3.700529243014706
 10
6.923582926251787
 20
3.697747747897804
 10
6.919653098494118
 20
3.6951213031007
 10
6.915621384400781
 20
3.692654110374792
 10
6.911494233854272
 20
3.690350116702136
 10
6.907278249415059
 20
3.688213007981115
 10
6.902980175758875
 20
3.686246203129789
 10
6.898606888886698
 20
3.684452848616359
 10
6.89416538512461
 20
3.682835813425484
 10
6.889662769931158
 20
3.68139768446852
 10
6.88510624653014
 20
3.680140762445015
 10
6.880503104387001
 20
3.679067058162076
 10
6.875860707547206
 20
3.678178289317513
 10
6.871186482855383
 20
3.677475877751881
 10
6.866487908073922
 20
3.676960947173847
 10
6.861772499920165
 20
3.676634321362488
 10
6.857047802041252
 20
3.676496522849429
 10
6.852321372945917
 20
3.676547772082892
 10
6.847600773912455
 20
3.676787987075037
 10
6.842893556892315
 20
3.67721678353312
 10
6.838207252428572
 20
3.67783347547428
 10
6.83354935760868
 20
3.678637076322966
 10
6.828927324070724
 20
3.679626300489244
 10
6.82434854608237
 20
3.680799565425471
 10
6.81982034871166
 20
3.682154994158034
 10
6.815349976108416
 20
3.683690418290103
 10
6.810944579915174
 20
3.685403381470606
 10
6.806611207826078
 20
3.687291143323867
 10
6.802356792312069
 20
3.689350683833621
 10
6.798188139530404
 20
3.691578708174399
 10
6.794111918436273
 20
3.693971651982542
 10
6.790134650113872
 20
3.696525687058424
 10
6.78626269734409
 20
3.699236727490756
 10
6.782502254425379
 20
3.702100436193169
 10
6.77885933726422
 20
3.705112231842631
 10
6.775339773750962
 20
3.708267296208588
 10
6.771949194436428
 20
3.711560581861097
 10
6.76869302352423
 20
3.714986820245644
 10
6.765576470193222
 20
3.718540530111706
 10
6.7626045202639
 20
3.722216026281582
 10
6.759781928222166
 20
3.726007428745464
 10
6.757113209613171
 20
3.729908672068198
 10
6.754602633817389
 20
3.73391351509269
 10
6.75225421722054
 20
3.738015550924421
 10
6.7500717167882
 20
3.742208217181115
 10
6.749835216947415
 20
3.742688347823644
  0
LWPOLYLINE
  5
564
330
4E9
100
AcDbEntity
  8
7052814
100
AcDbPolyline
 90
       69
 70
   128
 43
0.0
 10
6.70958233260904
 20
4.510759135959328
 10
6.711294688609209
 20
4.51516476819612
 10
6.713181853207041
 20
4.519498400420693
 10
6.715240807341752
 20
4.52375309974595
 10
6.717468257125945
 20
4.527922059560588
 10
6.719860639115134
 20
4.531998610418235
 10
6.722414126008482
 20
4.535976230707139
 10
6.725124632771668
 20
4.539848557083349
 10
6.727987823172091
 20
4.543609394650715
 10
6.730999116715883
 20
4.547252726871398
 10
6.734153695975757
 20
4.550772725191052
 10
6.737446514297831
 20
4.554163758363253
 10
6.740872303875226
 20
4.557420401458312
 10
6.744425584175411
 20
4.560537444541988
 10
6.7481006707079
 20
4.563509901010278
 10
6.751891684118218
 20
4.56633301556693
 10
6.755792559593617
 20
4.569002271830878
 10
6.759797056565469
 20
4.571513399561517
 10
6.763898768692881
 20
4.573862381490153
 10
6.768091134111417
 20
4.57604545974679
 10
6.772367445930745
 20
4.578059141871917
 10
6.776720862964181
 20
4.579900206403696
 10
6.781144420673152
 20
4.581565708031615
 10
6.785631042308958
 20
4.583052982308358
 10
6.790173550234088
 20
4.58435964991235
 10
6.794764677404872
 20
4.585483620454167
 10
6.799397078997225
 20
4.586423095820708
 10
6.804063344156793
 20
4.587176573051797
 10
6.808756007854741
 20
4.5877428467446
 10
6.813467562830192
 20
4.588121010982003
 10
6.818190471600273
 20
4.588310460781902
 10
6.822917178518446
 20
4.588310893065027
 10
6.827640121861955
 20
4.588122307139818
 10
6.832351745928958
 20
4.587745004703527
 10
6.837044513126036
 20
4.587179589359563
 10
6.84171091602675
 20
4.586426965651865
 10
6.846343489381903
 20
4.585488337617809
 10
6.850934822062354
 20
4.584365206862024
 10
6.855477568915249
 20
4.583059370154128
 10
6.859964462514691
 20
4.58157291655429
 10
6.864388324788068
 20
4.579908224071179
 10
6.868742078499463
 20
4.578067955857649
 10
6.873018758571676
 20
4.576055055950275
 10
6.877211523228906
 20
4.573872744559512
 10
6.88131366494211
 20
4.57152451291805
 10
6.885318621159628
 20
4.569014117695586
 10
6.889219984805849
 20
4.566345574988954
 10
6.893011514531186
 20
4.563523153897225
 10
6.896687144696906
 20
4.560551369692062
 10
6.900240995078823
 20
4.557434976594247
 10
6.90366738027445
 20
4.554178960167941
 10
6.90696081879839
 20
4.550788529344847
 10
6.910116041851575
 20
4.547269108091027
 10
6.913128001750189
 20
4.543626326729718
 10
6.915991880000918
 20
4.539866012934012
 10
6.918703095009492
 20
4.535994182403826
 10
6.921257309410249
 20
4.532017029242061
 10
6.923650437005024
 20
4.527940916045364
 10
6.925878649300175
 20
4.523772363725321
 10
6.927938381631348
 20
4.519518041076405
 10
6.929826338866208
 20
4.51518475410731
 10
6.931539500675915
 20
4.510779435152802
 10
6.933075126367031
 20
4.50630913178346
 10
6.934430759266033
 20
4.501780995531057
 10
6.935604230649468
 20
4.497202270447648
 10
6.936593663213455
 20
4.492580281516626
 10
6.93739747407695
 20
4.487922422934305
 10
6.938014377314052
 20
4.483236146280796
 10
6.938072400118082
 20
4.482704083349555
  0
LWPOLYLINE
  5
565
330
4E9
100
AcDbEntity
  8
7052814
100
AcDbPolyline
 90
       32
 70
   128
 43
0.0
 10
7.095251210588346
 20
3.919886680062808
 10
7.09415569621944
 20
3.913878350394717
 10
7.09282078904218
 20
3.907918635639709
 10
7.091248624623284
 20
3.902017070070057
 10
7.089441718090446
 20
3.896183094931736
 10
7.087402960108667
 20
3.890426043340455
 10
7.085135612255802
 20
3.884755125350654
 10
7.082643301804742
 20
3.879179413221383
 10
7.079930015920544
 20
3.87370782690263
 10
7.077000095281823
 20
3.868349119765293
 10
7.073858227136577
 20
3.863111864597664
 10
7.070509437803616
 20
3.858004439890788
 10
7.0669590846315
 20
3.853035016434673
 10
7.063212847427935
 20
3.848211544246758
 10
7.059276719373295
 20
3.843541739853593
 10
7.055156997432801
 20
3.839033073946036
 10
7.050860272282735
 20
3.83469275942774
 10
7.046393417766745
 20
3.830527739876051
 10
7.041763579899187
 20
3.82654467843376
 10
7.036978165432996
 20
3.822749947149502
 10
7.032044830010486
 20
3.819149616783833
 10
7.026971465915943
 20
3.815749447097306
 10
7.021766189449666
 20
3.81255487763609
 10
7.016437327943593
 20
3.80957101902985
 10
7.01099340643937
 20
3.806802644815836
 10
7.005443134050098
 20
3.804254183802233
 10
6.999795390027605
 20
3.801929712983022
 10
6.994059209557542
 20
3.799832951015651
 10
6.988243769305006
 20
3.797967252271984
 10
6.982358372733839
 20
3.796335601472015
 10
6.976412435223066
 20
3.794940608908959
 10
6.97414104042315
 20
3.794473427548407
  0
LWPOLYLINE
  5
566
330
4E9
100
AcDbEntity
  8
7052814
100
AcDbPolyline
 90
       32
 70
   128
 43
0.0
 10
6.938072400118093
 20
4.48270408334957
 10
6.9441425130164
 20
4.482030357489345
 10
6.950180828623262
 20
4.481114430764707
 10
6.956177686921803
 20
4.479957768463027
 10
6.962123494218021
 20
4.478562220997247
 10
6.968008738488601
 20
4.476930020945612
 10
6.973824004598165
 20
4.475063779480021
 10
6.979559989361463
 20
4.472966482188707
 10
6.985207516426486
 20
4.470641484299937
 10
6.99075755095467
 20
4.468092505314361
 10
6.996201214074718
 20
4.465323623054601
 10
7.001529797086883
 20
4.462339267141611
 10
7.006734775395058
 20
4.459144211908221
 10
7.011807822144279
 20
4.455743568761232
 10
7.016740821541938
 20
4.452142778004245
 10
7.021525881841329
 20
4.448347600134344
 10
7.026155347966719
 20
4.444364106626527
 10
7.030621813759873
 20
4.440198670220637
 10
7.034918133828329
 20
4.435857954726349
 10
7.039037434976465
 20
4.431348904362479
 10
7.042973127201184
 20
4.426678732647733
 10
7.046718914234501
 20
4.421854910860604
 10
7.050268803616221
 20
4.416885156086924
 10
7.0536171162806
 20
4.411777418874172
 10
7.056758495641643
 20
4.406539870512297
 10
7.059687916162493
 20
4.401180889961394
 10
7.062400691395238
 20
4.395709050447155
 10
7.064892481478191
 20
4.390133105745542
 10
7.067159300078772
 20
4.384461976178604
 10
7.069197520770787
 20
4.378704734343873
 10
7.071003882835926
 20
4.372870590600136
 10
7.071628370657885
 20
4.370637317728101
  0
LWPOLYLINE
  5
567
330
4E9
100
AcDbEntity
  8
7052814
100
AcDbPolyline
 90
       25
 70
   128
 43
0.0
 10
7.195905054554371
 20
4.15115605362448
 10
7.19627055623876
 20
4.139865093236288
 10
7.196184247572533
 20
4.128568548243099
 10
7.195646266631149
 20
4.117284490707102
 10
7.194657474069343
 20
4.106030972713216
 10
7.193219451744292
 20
4.094825997489608
 10
7.191334500184948
 20
4.08368749060637
 10
7.18900563491171
 20
4.072633271298427
 10
7.186236581612211
 20
4.061681023958564
 10
7.183031770181036
 20
4.050848269846169
 10
7.179396327632813
 20
4.040152339056959
 10
7.175336069900103
 20
4.029610342798518
 10
7.170857492529131
 20
4.019239146016023
 10
7.165967760288323
 20
4.009055340411919
 10
7.160674695706164
 20
3.999075217902746
 10
7.154986766556872
 20
3.989314744555536
 10
7.148913072313712
 20
3.979789535045526
 10
7.142463329591825
 20
3.970514827675991
 10
7.135647856603698
 20
3.961505460000225
 10
7.128477556652223
 20
3.952775845084615
 10
7.120963900687732
 20
3.944339948450806
 10
7.113118908956947
 20
3.93621126573385
 10
7.104955131773129
 20
3.928402801092068
 10
7.096485629438257
 20
3.92092704640317
 10
7.095251210588335
 20
3.919886680062795
  0
LWPOLYLINE
  5
568
330
4E9
100
AcDbEntity
  8
7052814
100
AcDbPolyline
 90
       25
 70
   128
 43
0.0
 10
7.071628370657874
 20
4.370637317728115
 10
7.080870190051845
 20
4.364140537582671
 10
7.089844815063669
 20
4.357279379964151
 10
7.098537888207809
 20
4.350064821261111
 10
7.106935502421661
 20
4.342508403228451
 10
7.115024223313882
 20
4.334622214523076
 10
7.122791110656537
 20
4.326418871364614
 10
7.130223739086732
 20
4.317911497352167
 10
7.137310217984522
 20
4.309113702469344
 10
7.144039210495366
 20
4.300039561311198
 10
7.150399951666694
 20
4.290703590567865
 10
7.156382265669515
 20
4.281120725800966
 10
7.161976582077587
 20
4.271306297549896
 10
7.167173951178044
 20
4.261276006806223
 10
7.171966058289038
 20
4.251045899895455
 10
7.176345237061456
 20
4.240632342806343
 10
7.180304481743435
 20
4.230051995008786
 10
7.183837458388074
 20
4.219321782802246
 10
7.18693851498641
 20
4.208458872237258
 10
7.189602690509408
 20
4.197480641653432
 10
7.191825722844557
 20
4.186404653877802
 10
7.193604055614342
 20
4.17524862812806
 10
7.194934843865686
 20
4.164030411665578
 10
7.195815958621276
 20
4.152767951243606
 10
7.19590505455436
 20
4.151156053624669
  0
LINE
  5
569
330
4E9
100
AcDbEntity
  8
7052814
100
AcDbLine
 10
4.639818319319951
 20
4.216731537475776
 30
0.0
 11
4.316360233693155
 21
4.199779817516938
 31
0.0
  0
LINE
  5
56A
330
4E9
100
AcDbEntity
  8
7052814
100
AcDbLine
 10
4.337217248831551
 20
3.801804260763386
 30
0.0
 11
4.660675334458341
 21
3.818755980722236
 31
0.0
  0
LWPOLYLINE
  5
56B
330
4E9
100
AcDbEntity
  8
7052814
100
AcDbPolyline
 90
       39
 70
   128
 43
0.0
 10
4.316360233693158
 20
4.199779817516901
 10
4.29465475624192
 20
4.198206464867558
 10
4.273029558182409
 20
4.19576638314104
 10
4.251519235218379
 20
4.192463475947588
 10
4.230158199277957
 20
4.188303027234129
 10
4.208980623461867
 20
4.183291692831089
 10
4.188020387373773
 20
4.177437489804486
 10
4.167311022920136
 20
4.17074978363033
 10
4.146885660666322
 20
4.163239273211867
 10
4.12677697683476
 20
4.154917973763611
 10
4.107017141029951
 20
4.14579919758956
 10
4.087637764773985
 20
4.13589753278636
 10
4.068669850934815
 20
4.125228819905452
 10
4.050143744128318
 20
4.113810126611577
 10
4.032089082173355
 20
4.101659720378147
 10
4.014534748677602
 20
4.088797039263183
 10
3.997508826829923
 20
4.07524266081258
 10
3.981038554473277
 20
4.061018269140413
 10
3.965150280529959
 20
4.046146620238981
 10
3.949869422848967
 20
4.030651505574079
 10
3.935220427542839
 20
4.014557714023718
 10
3.921226729879121
 20
3.997890992221225
 10
3.907910716788903
 20
3.980678003366104
 10
3.895293691052538
 20
3.962946284568613
 10
3.883395837219714
 20
3.944724202796266
 10
3.872236189318494
 20
3.926040909492726
 10
3.861832600404914
 20
3.906926293941724
 10
3.852201714001926
 20
3.887410935450573
 10
3.843358937473295
 20
3.867526054429808
 10
3.835318417375111
 20
3.847303462447174
 10
3.828093016824306
 20
3.826775511335926
 10
3.821694294920432
 20
3.805975041438777
 10
3.816132488253542
 20
3.784935329070365
 10
3.811416494527849
 20
3.763690033282249
 10
3.807553858327283
 20
3.742273142015601
 10
3.804550759045794
 20
3.720718917727752
 10
3.802412001001593
 20
3.699061842579576
 10
3.801141005751313
 20
3.677336563271381
 10
3.80073914154193
 20
3.656428558432258
  0
LWPOLYLINE
  5
56C
330
4E9
100
AcDbEntity
  8
7052814
100
AcDbPolyline
 90
       39
 70
   128
 43
0.0
 10
4.199260858458062
 20
3.65642855843226
 10
4.199377303097344
 20
3.662250014078035
 10
4.199726450728606
 20
3.668062156636621
 10
4.200307742790117
 20
3.673855687919782
 10
4.201120249338588
 20
3.679621339513352
 10
4.202162670536859
 20
3.685349887604722
 10
4.203433338733384
 20
3.691032167738971
 10
4.204930221130117
 20
3.696659089480037
 10
4.206650923034539
 20
3.702221650953484
 10
4.208592691690659
 20
3.707710953247568
 10
4.210752420682853
 20
3.713118214649609
 10
4.21312665490546
 20
3.718434784694852
 10
4.215711596090189
 20
3.723652158005362
 10
4.218503108882574
 20
3.728761987896825
 10
4.221496727457639
 20
3.733756099731453
 10
4.224687662664264
 20
3.738626503995666
 10
4.228070809686817
 20
3.743365409081604
 10
4.231640756211762
 20
3.747965233752042
 10
4.235391791086209
 20
3.75241861926875
 10
4.239317913454533
 20
3.756718441164908
 10
4.243412842358479
 20
3.760857820642727
 10
4.24767002678533
 20
3.764830135578064
 10
4.252082656148163
 20
3.768629031114405
 10
4.256643671181299
 20
3.772248429829278
 10
4.261345775233658
 20
3.775682541456837
 10
4.266181445941812
 20
3.778925872151051
 10
4.271142947264189
 20
3.78197323327468
 10
4.276222341857065
 20
3.784819749699998
 10
4.281411503772639
 20
3.787460867607946
 10
4.286702131458811
 20
3.789892361773282
 10
4.292085761039887
 20
3.792110342324032
 10
4.297553779856984
 20
3.794111260964459
 10
4.303097440246444
 20
3.795891916651578
 10
4.308707873534229
 20
3.797449460716142
 10
4.314376104223908
 20
3.798781401419907
 10
4.32009306435553
 20
3.799885607941878
 10
4.325849608012442
 20
3.800760313787172
 10
4.331636525952793
 20
3.801404119613032
 10
4.337217248831551
 20
3.801804260763348
  0
LINE
  5
56D
330
4E9
100
AcDbEntity
  8
7052814
100
AcDbLine
 10
4.660675334458344
 20
3.818755980722162
 30
0.0
 11
4.650246826889146
 21
4.017743759098998
 31
0.0
  0
LINE
  5
56E
330
4E9
100
AcDbEntity
  8
7052814
100
AcDbLine
 10
4.641215474410659
 20
4.190072230215971
 30
0.0
 11
4.639818319319944
 21
4.216731537475842
 31
0.0
  0
LINE
  5
56F
330
4E9
100
AcDbEntity
  8
7052814
100
AcDbLine
 10
4.839879447385053
 20
3.742688347823657
 30
0.0
 11
4.810089500594317
 21
4.311114394457717
 31
0.0
  0
LINE
  5
570
330
4E9
100
AcDbEntity
  8
7052814
100
AcDbLine
 10
6.749835216947412
 20
3.74268834782364
 30
0.0
 11
6.709582332609032
 21
4.510759135959323
 31
0.0
  0
LINE
  5
571
330
4E9
100
AcDbEntity
  8
7052814
100
AcDbLine
 10
6.974141040423143
 20
3.794473427548403
 30
0.0
 11
6.938072400118086
 21
4.482704083349566
 31
0.0
  0
LINE
  5
572
330
4E9
100
AcDbEntity
  8
7052814
100
AcDbLine
 10
7.095251210588328
 20
3.919886680062791
 30
0.0
 11
7.071628370657871
 21
4.370637317728111
 31
0.0
  0
LINE
  5
573
330
4E9
100
AcDbEntity
  8
7052814
100
AcDbLine
 10
4.199260858458027
 20
3.485179785363679
 30
0.0
 11
4.199260858458027
 21
3.656428558432259
 31
0.0
  0
LINE
  5
574
330
4E9
100
AcDbEntity
  8
7052814
100
AcDbLine
 10
3.800739141541891
 20
3.656428558432258
 30
0.0
 11
3.800739141541901
 21
3.485179785363676
 31
0.0
  0
LWPOLYLINE
  5
575
330
4E9
100
AcDbEntity
  8
7052814
100
AcDbPolyline
 90
       41
 70
   128
 43
0.0
 10
3.69543665863563
 20
3.379877302457388
 10
3.699647634815251
 20
3.379961533212047
 10
3.703851874331283
 20
3.380214090724787
 10
3.708042651297345
 20
3.38063457095746
 10
3.712213261364288
 20
3.381222301231394
 10
3.71635703244568
 20
3.381976341303525
 10
3.720467335391754
 20
3.382895484870592
 10
3.724537594594609
 20
3.383978261498962
 10
3.728561298507797
 20
3.385222938977007
 10
3.732532010063406
 20
3.386627526086282
 10
3.736443376969981
 20
3.38818977578704
 10
3.740289141874855
 20
3.389907188813021
 10
3.744063152374566
 20
3.391777017669747
 10
3.747759370857393
 20
3.393796271029922
 10
3.751371884162251
 20
3.395961718518922
 10
3.754894913038475
 20
3.3982698958827
 10
3.758322821391404
 20
3.40071711052986
 10
3.761650125298926
 20
3.403299447439012
 10
3.76487150178457
 20
3.406012775421969
 10
3.767981797333158
 20
3.40885275373277
 10
3.770976036135296
 20
3.411814839011951
 10
3.773849428047645
 20
3.414894292554941
 10
3.7765973762561
 20
3.418086187892984
 10
3.779215484629721
 20
3.421385418674445
 10
3.781699564753621
 20
3.424786706833868
 10
3.784045642629498
 20
3.42828461103577
 10
3.786249965033229
 20
3.431873535379606
 10
3.788309005519197
 20
3.435547738352023
 10
3.790219470061861
 20
3.439301342012055
 10
3.791978302325498
 20
3.443128341394568
 10
3.793582688553682
 20
3.447022614116936
 10
3.795030062070702
 20
3.450977930173537
 10
3.796318107387685
 20
3.454987961902435
 10
3.797444763906893
 20
3.459046294108292
 10
3.798408229218233
 20
3.46314643432531
 10
3.799206961982742
 20
3.467281823203793
 10
3.79983968439838
 20
3.471445845003704
 10
3.800305384244252
 20
3.475631838178439
 10
3.80060331649995
 20
3.479833106031883
 10
3.800733004537425
 20
3.484042927431693
 10
3.800739141541912
 20
3.485179785363676
  0
LWPOLYLINE
  5
576
330
4E9
100
AcDbEntity
  8
7052814
100
AcDbPolyline
 90
       41
 70
   128
 43
0.0
 10
4.199260858458016
 20
3.485179785363681
 10
4.199345089212675
 20
3.480968809184059
 10
4.199597646725417
 20
3.476764569668031
 10
4.200018126958086
 20
3.472573792701965
 10
4.200605857232021
 20
3.468403182635023
 10
4.201359897304152
 20
3.46425941155363
 10
4.20227904087122
 20
3.460149108607557
 10
4.203361817499589
 20
3.456078849404703
 10
4.204606494977634
 20
3.452055145491513
 10
4.206011082086908
 20
3.448084433935904
 10
4.207573331787665
 20
3.44417306702933
 10
4.209290744813648
 20
3.440327302124455
 10
4.211160573670374
 20
3.436553291624745
 10
4.213179827030549
 20
3.432857073141918
 10
4.215345274519547
 20
3.429244559837062
 10
4.217653451883327
 20
3.425721530960837
 10
4.220100666530486
 20
3.422293622607905
 10
4.222683003439636
 20
3.418966318700384
 10
4.225396331422595
 20
3.415744942214737
 10
4.228236309733398
 20
3.412634646666153
 10
4.231198395012578
 20
3.409640407864014
 10
4.234277848555565
 20
3.406767015951665
 10
4.23746974389361
 20
3.404019067743212
 10
4.240768974675068
 20
3.401400959369587
 10
4.244170262834495
 20
3.398916879245691
 10
4.247668167036396
 20
3.396570801369811
 10
4.251257091380233
 20
3.39436647896608
 10
4.254931294352649
 20
3.392307438480113
 10
4.258684898012679
 20
3.390396973937448
 10
4.26251189739519
 20
3.388638141673811
 10
4.266406170117564
 20
3.387033755445626
 10
4.270361486174161
 20
3.385586381928607
 10
4.274371517903061
 20
3.384298336611623
 10
4.278429850108919
 20
3.383171680092416
 10
4.282529990325935
 20
3.382208214781073
 10
4.28666537920442
 20
3.381409482016567
 10
4.290829401004328
 20
3.380776759600931
 10
4.295015394179065
 20
3.380311059755058
 10
4.299216662032508
 20
3.380013127499358
 10
4.303426483432319
 20
3.379883439461882
 10
4.304563341364302
 20
3.379877302457395
  0
LINE
  5
577
330
4E9
100
AcDbEntity
  8
7052814
100
AcDbLine
 10
4.480480703033679
 20
3.286032390228854
 30
0.0
 11
4.346456278691599
 21
3.379877302457395
 31
0.0
  0
LINE
  5
578
330
4E9
100
AcDbEntity
  8
7052814
100
AcDbLine
 10
3.653543721308333
 20
3.379877302457388
 30
0.0
 11
3.519519296966256
 21
3.286032390228845
 31
0.0
  0
LINE
  5
579
330
4E9
100
AcDbEntity
  8
7052814
100
AcDbLine
 10
4.418548279852137
 20
3.051813304422168
 30
0.0
 11
4.4812892637217
 21
3.095745014282333
 31
0.0
  0
LINE
  5
57A
330
4E9
100
AcDbEntity
  8
7052814
100
AcDbLine
 10
3.518710736278235
 20
3.095745014282322
 30
0.0
 11
3.581451720147802
 21
3.051813304422159
 31
0.0
  0
LWPOLYLINE
  5
57B
330
4E9
100
AcDbEntity
  8
7052814
100
AcDbPolyline
 90
       32
 70
   128
 43
0.0
 10
3.592417506338689
 20
3.022142739313888
 10
3.592672793192717
 20
3.023223773858591
 10
3.592884645992812
 20
3.024314152442281
 10
3.59305272581969
 20
3.025412130691826
 10
3.593176763781487
 20
3.026515952076249
 10
3.593256561443917
 20
3.027623850716808
 10
3.593291991147749
 20
3.028734054212011
 10
3.593282996213011
 20
3.029844786473103
 10
3.593229591029677
 20
3.030954270565404
 10
3.593131861034658
 20
3.032060731551049
 10
3.592989962575083
 20
3.033162399328488
 10
3.592804122658234
 20
3.034257511464291
 10
3.592574638588322
 20
3.035344316012651
 10
3.592301877490909
 20
3.036421074318129
 10
3.591986275725568
 20
3.037486063797134
 10
3.591628338187794
 20
3.038537580693684
 10
3.591228637501293
 20
3.039573942805056
 10
3.590787813101899
 20
3.040593492172952
 10
3.590306570214613
 20
3.041594597735875
 10
3.589785678725396
 20
3.042575657938482
 10
3.589225971949511
 20
3.04353510329373
 10
3.588628345298404
 20
3.044471398893722
 10
3.587993754847227
 20
3.04538304686523
 10
3.587323215805335
 20
3.046268588765975
 10
3.586617800892151
 20
3.04712660791782
 10
3.585878638621052
 20
3.047955731673157
 10
3.585106911493996
 20
3.048754633610849
 10
3.584303854109764
 20
3.049522035658217
 10
3.583470751188857
 20
3.05025671013569
 10
3.582608935518221
 20
3.050957481720824
 10
3.581719785819101
 20
3.051623229328578
 10
3.581451720147802
 20
3.051813304422159
  0
LWPOLYLINE
  5
57C
330
4E9
100
AcDbEntity
  8
7052814
100
AcDbPolyline
 90
       32
 70
   128
 43
0.0
 10
4.41854827985214
 20
3.051813304422168
 10
4.417651314752633
 20
3.051158124542328
 10
4.416781267336704
 20
3.050467599699391
 10
4.415939529494613
 20
3.049742834585804
 10
4.415127447827353
 20
3.048984988671137
 10
4.414346321492351
 20
3.048195274347192
 10
4.413597400125114
 20
3.047374954988422
 10
4.412881881840066
 20
3.046525342930808
 10
4.412200911313833
 20
3.045647797372402
 10
4.411555577953985
 20
3.044743722198898
 10
4.410946914156236
 20
3.043814563737716
 10
4.410375893652821
 20
3.042861808444182
 10
4.409843429954735
 20
3.041886980523522
 10
4.409350374890307
 20
3.040891639492456
 10
4.40889751724246
 20
3.039877377684309
 10
4.40848558148683
 20
3.038845817701608
 10
4.40811522663275
 20
3.037798609820269
 10
4.407787045168978
 20
3.036737429349512
 10
4.407501562115855
 20
3.035663973951717
 10
4.407259234185355
 20
3.034579960926529
 10
4.407060449050485
 20
3.033487124463543
 10
4.406905524725045
 20
3.032387212867974
 10
4.406794709054915
 20
3.031281985763741
 10
4.406728179321527
 20
3.03017321127844
 10
4.406706041958253
 20
3.029062663214723
 10
4.406728332380167
 20
3.027952118212587
 10
4.406795014927334
 20
3.026843352907132
 10
4.406905982921914
 20
3.025738141086323
 10
4.407061058838779
 20
3.024638250853306
 10
4.407259994589553
 20
3.023545441797825
 10
4.407502471919466
 20
3.022461462181246
 10
4.407582493661246
 20
3.022142739313898
  0
LWPOLYLINE
  5
57D
330
4E9
100
AcDbEntity
  8
7052814
100
AcDbPolyline
 90
        4
 70
   128
 43
0.0
 10
3.473524416357003
 20
2.427597503608399
 10
3.509590249031033
 20
2.647119949859953
 10
3.55440578935036
 20
2.865024552933464
 10
3.5924175063387
 20
3.022142739313923
  0
LWPOLYLINE
  5
57E
330
4E9
100
AcDbEntity
  8
7052814
100
AcDbPolyline
 90
        4
 70
   128
 43
0.0
 10
4.407582493661239
 20
3.022142739313933
 10
4.458711490961762
 20
2.805632521703352
 10
4.501141491071061
 20
2.58725087461399
 10
4.526475583642946
 20
2.42759750360841
  0
LWPOLYLINE
  5
57F
330
4E9
100
AcDbEntity
  8
7052814
100
AcDbPolyline
 90
        4
 70
   128
 43
0.0
 10
3.419674800183658
 20
1.812093574263126
 10
3.431170114478588
 20
2.03426176828407
 10
3.45154059190453
 20
2.255792561481553
 10
3.473524416357017
 20
2.427597503608473
  0
LWPOLYLINE
  5
580
330
4E9
100
AcDbEntity
  8
7052814
100
AcDbPolyline
 90
        4
 70
   128
 43
0.0
 10
4.526475583642936
 20
2.427597503608483
 10
4.553734011029257
 20
2.206808403284914
 10
4.572141425463472
 20
1.985105864329866
 10
4.580325199816302
 20
1.812093574263138
  0
LWPOLYLINE
  5
581
330
4E9
100
AcDbEntity
  8
7052814
100
AcDbPolyline
 90
       12
 70
   128
 43
0.0
 10
3.230935119622882
 20
1.033709222679378
 10
3.263128162716869
 20
1.105016590503278
 10
3.29244392064824
 20
1.177554298397402
 10
3.318835494458008
 20
1.251206301503006
 10
3.342260663257969
 20
1.32585477232671
 10
3.362681951775153
 20
1.401380289239353
 10
3.380066690304238
 20
1.477662027525129
 10
3.39438706697213
 20
1.554577952675346
 10
3.405620172231001
 20
1.632005015617622
 10
3.413748035508715
 20
1.709819349568141
 10
3.418757653957873
 20
1.787896468192087
 10
3.419674800183658
 20
1.812093574263103
  0
LWPOLYLINE
  5
582
330
4E9
100
AcDbEntity
  8
7052814
100
AcDbPolyline
 90
       12
 70
   128
 43
0.0
 10
4.580325199816302
 20
1.812093574263114
 10
4.584367925723599
 20
1.733960424468276
 10
4.591531910519568
 20
1.656051438776848
 10
4.601805693356775
 20
1.578491254946238
 10
4.6151728383743
 20
1.501403952725286
 10
4.631611960991628
 20
1.42491285535313
 10
4.651096762119392
 20
1.349140332268335
 10
4.673596070232322
 20
1.274207603343896
 10
4.699073891237036
 20
1.200234544961295
 10
4.727489466054906
 20
1.127339498233864
 10
4.758797335827887
 20
1.055639079686257
 10
4.769064880377095
 20
1.033709222679394
  0
LINE
  5
583
330
4E9
100
AcDbEntity
  8
7052814
100
AcDbLine
 10
4.780071501731354
 20
0.8888554847246911
 30
0.0
 11
4.780071501731354
 21
0.9849554939152003
 31
0.0
  0
LINE
  5
584
330
4E9
100
AcDbEntity
  8
7052814
100
AcDbLine
 10
3.219928498268627
 20
0.9849554939151843
 30
0.0
 11
3.219928498268627
 21
0.8888554846966432
 31
0.0
  0
LWPOLYLINE
  5
585
330
4E9
100
AcDbEntity
  8
7052814
100
AcDbPolyline
 90
       17
 70
   128
 43
0.0
 10
3.205155688506659
 20
0.8413198438294088
 10
3.20700133994992
 20
0.8441208581314722
 10
3.208733504371901
 20
0.8469934382932098
 10
3.210349410679031
 20
0.8499329887991459
 10
3.211846473765929
 20
0.852934806995543
 10
3.213222298651013
 20
0.8559940906136425
 10
3.21447468430796
 20
0.859105945452263
 10
3.215601627186883
 20
0.8622653932074952
 10
3.216601324419569
 20
0.8654673794369037
 10
3.217472176703713
 20
0.8687067816455805
 10
3.218212790861427
 20
0.8719784174810264
 10
3.218821982068048
 20
0.8752770530238167
 10
3.219298775747601
 20
0.878597411160752
 10
3.219642409131909
 20
0.8819341800271212
 10
3.21985233248086
 20
0.8852820215045426
 10
3.219928209961876
 20
0.8886355797608208
 10
3.219928498268666
 20
0.8888554847264511
  0
LWPOLYLINE
  5
586
330
4E9
100
AcDbEntity
  8
7052814
100
AcDbPolyline
 90
       17
 70
   128
 43
0.0
 10
4.780071501731319
 20
0.8888554847264671
 10
4.78013858558979
 20
0.8855017390404745
 10
4.780339729845346
 20
0.8821533586321519
 10
4.780674612710081
 20
0.8788157001958717
 10
4.781142698442858
 20
0.8754941032731318
 10
4.781743238206347
 20
0.8721938817104406
 10
4.782475271265044
 20
0.868920315158291
 10
4.783337626522206
 20
0.8656786406248405
 10
4.784328924393387
 20
0.8624740440978218
 10
4.785447579013451
 20
0.8593116522480695
 10
4.786691800773647
 20
0.856196524227934
 10
4.788059599184583
 20
0.8531336435777236
 10
4.789548786060565
 20
0.8501279102530995
 10
4.791156979020287
 20
0.8471841327861875
 10
4.792881605298065
 20
0.8443070205929677
 10
4.794719905859759
 20
0.8415011764391964
 10
4.794844311493323
 20
0.8413198438294248
  0
LWPOLYLINE
  5
587
330
4E9
100
AcDbEntity
  8
7052814
100
AcDbPolyline
 90
       11
 70
   128
 43
0.0
 10
3.049334512792524
 20
0.6869582270477644
 10
3.068580785421248
 20
0.7005020115315262
 10
3.08727005616082
 20
0.7148046080602879
 10
3.105372426164892
 20
0.729843135530667
 10
3.122858935503087
 20
0.7455935355067585
 10
3.139701609490726
 20
0.7620306107085039
 10
3.155873503442334
 20
0.7791280653219705
 10
3.171348745777413
 20
0.7968585470670372
 10
3.186102579409434
 20
0.8151936909552167
 10
3.200111401351906
 20
0.8341041646675753
 10
3.205155688506659
 20
0.8413198438294115
  0
LWPOLYLINE
  5
588
330
4E9
100
AcDbEntity
  8
7052814
100
AcDbPolyline
 90
       11
 70
   128
 43
0.0
 10
4.794844311493323
 20
0.841319843829426
 10
4.808568618122103
 20
0.822201880658606
 10
4.823046461387635
 20
0.8036480357034381
 10
4.838254679829132
 20
0.7856879911579119
 10
4.85416894354134
 20
0.768350479262025
 10
4.870763793097177
 20
0.7516632363363431
 10
4.8880126802774
 20
0.7356529584097884
 10
4.905888010542087
 20
0.7203452585116997
 10
4.924361187176019
 20
0.7057646256964452
 10
4.943402657037312
 20
0.6919343858661629
 10
4.95066548720746
 20
0.6869582270477843
  0
LWPOLYLINE
  5
589
330
4E9
100
AcDbEntity
  8
7052814
100
AcDbPolyline
 90
       26
 70
   128
 43
0.0
 10
3.031348381899578
 20
0.6531394236277724
 10
3.031381007409981
 20
0.6547704816386993
 10
3.03147883174733
 20
0.6563989303047486
 10
3.03164169841356
 20
0.6580221644554399
 10
3.031869346856739
 20
0.6596375872624019
 10
3.032161412887928
 20
0.6612426143937502
 10
3.032517429263775
 20
0.6628346781484611
 10
3.032936826434029
 20
0.6644112315641482
 10
3.033418933452688
 20
0.6659697524916619
 10
3.033962979051358
 20
0.667507747629986
 10
3.034568092873138
 20
0.669022756514984
 10
3.035233306865007
 20
0.6705123554556267
 10
3.035957556826472
 20
0.6719741614113719
 10
3.036739684112097
 20
0.6734058358045268
 10
3.037578437485072
 20
0.6748050882614685
 10
3.03847247511892
 20
0.6761696802767601
 10
3.039420366744151
 20
0.6774974287942724
 10
3.040420595936369
 20
0.6787862096996143
 10
3.041471562542232
 20
0.6800339612182654
 10
3.04257158523937
 20
0.6812386872139667
 10
3.043718904226123
 20
0.6823984603821183
 10
3.044911684036867
 20
0.683511425333061
 10
3.046148016478342
 20
0.6845758015602886
 10
3.047425923682387
 20
0.6855898862888932
 10
3.048743361270075
 20
0.686552057199636
 10
3.049334512792524
 20
0.686958227047763
  0
LWPOLYLINE
  5
58A
330
4E9
100
AcDbEntity
  8
7052814
100
AcDbPolyline
 90
       26
 70
   128
 43
0.0
 10
4.950665487207464
 20
0.686958227047783
 10
4.95199964011511
 20
0.6860193710002696
 10
4.953295181614498
 20
0.6850279140509739
 10
4.954550039115593
 20
0.6839854423195182
 10
4.955762205114078
 20
0.6828936235382881
 10
4.956929740402946
 20
0.6817542043844238
 10
4.958050777174788
 20
0.6805690076855116
 10
4.959123522009916
 20
0.6793399295034402
 10
4.96014625874543
 20
0.6780689361011101
 10
4.961117351220723
 20
0.6767580607968351
 10
4.962035245895
 20
0.6754094007114629
 10
4.962898474332581
 20
0.6740251134134332
 10
4.963705655552113
 20
0.6726074134671208
 10
4.964455498235833
 20
0.6711585688900179
 10
4.965146802795407
 20
0.6696808975243722
 10
4.965778463291014
 20
0.6681767633291523
 10
4.966349469200602
 20
0.6666485725982048
 10
4.966858907036522
 20
0.6650987701107037
 10
4.967305961806916
 20
0.6635298352200208
 10
4.96768991831952
 20
0.6619442778872924
 10
4.968010162325812
 20
0.6603446346660178
 10
4.968266181503706
 20
0.6587334646441106
 10
4.968457566277121
 20
0.6571133453499121
 10
4.968584010471262
 20
0.6554868686286808
 10
4.968645311802374
 20
0.6538566364962102
 10
4.968651618100411
 20
0.6531394236277937
  0
LINE
  5
58B
330
4E9
100
AcDbEntity
  8
7052814
100
AcDbLine
 10
4.96865161810045
 20
0.5480588666228146
 30
0.0
 11
4.96865161810045
 21
0.653139423627791
 31
0.0
  0
LINE
  5
58C
330
4E9
100
AcDbEntity
  8
7052814
100
AcDbLine
 10
3.031348381899535
 20
0.653139423627771
 30
0.0
 11
3.031348381899539
 21
0.5480588666227946
 31
0.0
  0
LWPOLYLINE
  5
58D
330
4E9
100
AcDbEntity
  8
7052814
100
AcDbPolyline
 90
       25
 70
   128
 43
0.0
 10
3.016020407079425
 20
0.5180808847397423
 10
3.017201888108322
 20
0.5189706738110469
 10
3.018346842005891
 20
0.5199069977856983
 10
3.019453437090133
 20
0.5208883587450779
 10
3.020519903044975
 20
0.5219131867209957
 10
3.021544533752392
 20
0.5229798422073087
 10
3.022525690021828
 20
0.5240866187827793
 10
3.023461802212553
 20
0.5252317458409888
 10
3.024351372744751
 20
0.5264133914229232
 10
3.025192978495345
 20
0.5276296651477215
 10
3.025985273074658
 20
0.5288786212368813
 10
3.02672698898038
 20
0.5301582616270944
 10
3.027416939625291
 20
0.531466539166706
 10
3.028054021235531
 20
0.5328013608907401
 10
3.028637214616436
 20
0.5341605913691839
 10
3.029165586782999
 20
0.5355420561232283
 10
3.029638292452473
 20
0.5369435451039588
 10
3.030054575396617
 20
0.5383628162279779
 10
3.030413769651529
 20
0.5397975989642503
 10
3.030715300583024
 20
0.5412455979664644
 10
3.030958685805932
 20
0.5427044967451105
 10
3.031143535955822
 20
0.5441719613733543
 10
3.031269555311878
 20
0.5456456442208362
 10
3.031336542270016
 20
0.547123187709369
 10
3.031348381899581
 20
0.5480588666227946
  0
LWPOLYLINE
  5
58E
330
4E9
100
AcDbEntity
  8
7052814
100
AcDbPolyline
 90
       25
 70
   128
 43
0.0
 10
4.968651618100411
 20
0.5480588666228146
 10
4.96868119735223
 20
0.5465801012320491
 10
4.968769887787201
 20
0.5451037015504574
 10
4.96891754751954
 20
0.543632029502577
 10
4.969123940325184
 20
0.5421674394497483
 10
4.969388736019661
 20
0.5407122744236279
 10
4.969711510986355
 20
0.5392688623778353
 10
4.970091748854171
 20
0.5378395124637337
 10
4.970528841323632
 20
0.5364265113362725
 10
4.971022089140033
 20
0.5350321194958361
 10
4.971570703212085
 20
0.5336585676719095
 10
4.972173805874303
 20
0.5323080532544054
 10
4.972830432291088
 20
0.530982736778296
 10
4.973539532000236
 20
0.5296847384672248
 10
4.97429997059349
 20
0.5284161348415966
 10
4.975110531531315
 20
0.5271789553965927
 10
4.975969918089115
 20
0.5259751793554078
 10
4.97687675543173
 20
0.524806732502916
 10
4.977829592812861
 20
0.5236754841048237
 10
4.978826905895955
 20
0.5225832439172491
 10
4.979867099192832
 20
0.5215317592914959
 10
4.98094850861611
 20
0.5205227123786571
 10
4.9820694041414
 20
0.5195577174385427
 10
4.983227992574976
 20
0.5186383182572021
 10
4.983979592920563
 20
0.5180808847397623
  0
LWPOLYLINE
  5
58F
330
4E9
100
AcDbEntity
  8
7052814
100
AcDbPolyline
 90
       20
 70
   128
 43
0.0
 10
2.911602848572885
 20
0.3573458460778034
 10
2.913992615126899
 20
0.3676958751667279
 10
2.916794360894646
 20
0.3779420601629675
 10
2.920003603680564
 20
0.3880680093562665
 10
2.923615209380807
 20
0.3980575233880024
 10
2.927623400196678
 20
0.4078946211667076
 10
2.932021763877918
 20
0.4175635654344055
 10
2.936803263980896
 20
0.4270488879428629
 10
2.941960251125456
 20
0.4363354141994962
 10
2.947484475232252
 20
0.4454082877433146
 10
2.953367098721164
 20
0.4542529939120912
 10
2.959598710649496
 20
0.4628553830627249
 10
2.966169341767502
 20
0.4712016932076542
 10
2.973068480467054
 20
0.479278572031098
 10
2.980285089597972
 20
0.4870730982499141
 10
2.987807624125105
 20
0.4945728022848975
 10
2.995624049597934
 20
0.5017656862094411
 10
3.003721861403116
 20
0.5086402429436681
 10
3.012088104769203
 20
0.5151854746632978
 10
3.016020407079425
 20
0.5180808847397449
  0
LWPOLYLINE
  5
590
330
4E9
100
AcDbEntity
  8
7052814
100
AcDbPolyline
 90
       20
 70
   128
 43
0.0
 10
4.983979592920563
 20
0.5180808847397649
 10
4.992464767230233
 20
0.5116905871521085
 10
5.000687610559706
 20
0.5049660846498254
 10
5.008634968113769
 20
0.4979181350024376
 10
5.016294125815681
 20
0.4905580134258938
 10
5.023652830646989
 20
0.4828974945446443
 10
5.030699310249728
 20
0.4749488335547416
 10
5.037422291759712
 20
0.4667247466181466
 10
5.043811019840683
 20
0.4582383905195769
 10
5.049855273890559
 20
0.4495033416184664
 10
5.055545384392241
 20
0.4405335741296779
 10
5.060872248382745
 20
0.4313434377677452
 10
5.065827344016033
 20
0.4219476347903917
 10
5.07040274419611
 20
0.4123611964780483
 10
5.074591129258736
 20
0.4025994590870159
 10
5.078385798681269
 20
0.3926780393147284
 10
5.081780681802131
 20
0.3826128093163667
 10
5.084770347532527
 20
0.3724198713127902
 10
5.087350013045051
 20
0.3621155318304279
 10
5.088397151427111
 20
0.3573458460778261
  0
LWPOLYLINE
  5
591
330
4E9
100
AcDbEntity
  8
7052814
100
AcDbPolyline
 90
       17
 70
   128
 43
0.0
 10
2.770253611584346
 20
0.1125217860025543
 10
2.783530717756987
 20
0.1249035118429461
 10
2.796302066688395
 20
0.1378062762590826
 10
2.808547226944698
 20
0.1512094375803406
 10
2.820246608881644
 20
0.1650915536077929
 10
2.831381495983867
 20
0.1794304159171585
 10
2.841934074807324
 20
0.1942030853875334
 10
2.851887463476989
 20
0.2093859288991032
 10
2.861225738694267
 20
0.2249546571410784
 10
2.869933961210877
 20
0.2408843634694291
 10
2.877998199728436
 20
0.2571495637521815
 10
2.885405553185604
 20
0.2737242371386106
 10
2.892144171396994
 20
0.2905818676870382
 10
2.898203274010972
 20
0.3076954867846893
 10
2.903573167755885
 20
0.3250377162917207
 10
2.908245261947266
 20
0.3425808123403958
 10
2.911602848572885
 20
0.3573458460778048
  0
LWPOLYLINE
  5
592
330
4E9
100
AcDbEntity
  8
7052814
100
AcDbPolyline
 90
       17
 70
   128
 43
0.0
 10
5.088397151427111
 20
0.3573458460778287
 10
5.092481487461261
 20
0.339656671923382
 10
5.097269934758978
 20
0.3221449771001162
 10
5.102754832826056
 20
0.3048387765841168
 10
5.108927406995642
 20
0.2877657566044185
 10
5.115777782465807
 20
0.2709532303509393
 10
5.123295000097135
 20
0.2544280942792017
 10
5.131467033945002
 20
0.2382167850817463
 10
5.140280810498529
 20
0.2223452373950634
 10
5.149722229595406
 20
0.2068388423097005
 10
5.159776186979131
 20
0.1917224067499404
 10
5.170426598462624
 20
0.1770201137880077
 10
5.181656425659481
 20
0.1627554839563241
 10
5.193447703241746
 20
0.1489513376196583
 10
5.20578156768064
 20
0.1356297584674234
 10
5.218638287424136
 20
0.1228120581844761
 10
5.229746388415653
 20
0.1125217860025796
  0
LWPOLYLINE
  5
593
330
4E9
100
AcDbEntity
  8
7052814
100
AcDbPolyline
 90
       41
 70
   128
 43
0.0
 10
2.713159847509276
 20
0.0887216853104583
 10
2.713178885051286
 20
0.0896734354907092
 10
2.713235967221317
 20
0.0906236630737013
 10
2.713331002700067
 20
0.0915708478980069
 10
2.713463839451049
 20
0.092513474669961
 10
2.713634264963795
 20
0.0934500353878108
 10
2.713842006593838
 20
0.094379031754198
 10
2.714086731998888
 20
0.0952989775731111
 10
2.714368049670506
 20
0.0962084011274872
 10
2.714685509560423
 20
0.0971058475336354
 10
2.715038603800541
 20
0.0979898810687524
 10
2.715426767515397
 20
0.0988590874677665
 10
2.715849379725847
 20
0.0997120761858584
 10
2.716305764342513
 20
0.1005474826230391
 10
2.716795191247362
 20
0.1013639703072249
 10
2.717316877461749
 20
0.1021602330322927
 10
2.717869988399025
 20
0.1029349969477425
 10
2.718453639199674
 20
0.1036870225965841
 10
2.719066896146925
 20
0.1044151068982023
 10
2.719708778160482
 20
0.1051180850730323
 10
2.720378258366052
 20
0.1057948325059544
 10
2.721074265738115
 20
0.1064442665454389
 10
2.72179568681336
 20
0.1070653482355657
 10
2.722541367471956
 20
0.1076570839781166
 10
2.723310114783918
 20
0.1082185271221353
 10
2.72410069891754
 20
0.1087487794783613
 10
2.724911855106851
 20
0.1092469927561371
 10
2.725742285674995
 20
0.1097123699204992
 10
2.726590662110206
 20
0.1101441664672587
 10
2.727455627191167
 20
0.110541691614051
 10
2.728335797158264
 20
0.110904309405445
 10
2.729229763927309
 20
0.1112314397303296
 10
2.730136097342176
 20
0.1115225592499645
 10
2.731053347462738
 20
0.1117772022352251
 10
2.731980046884475
 20
0.1119949613116545
 10
2.732914713085998
 20
0.112175488111181
 10
2.733855850800766
 20
0.1123184938294375
 10
2.734801954409205
 20
0.1124237496877827
 10
2.735751510347361
 20
0.1124910872992935
 10
2.736702999528299
 20
0.1125203989381576
 10
2.736959948201372
 20
0.1125217860025543
  0
LWPOLYLINE
  5
594
330
4E9
100
AcDbEntity
  8
7052814
100
AcDbPolyline
 90
       41
 70
   128
 43
0.0
 10
5.263040051798627
 20
0.1125217860025796
 10
5.263991801978876
 20
0.1125027484605661
 10
5.264942029561874
 20
0.112445666290538
 10
5.265889214386175
 20
0.1123506308117875
 10
5.266831841158131
 20
0.1122177940608072
 10
5.267768401875985
 20
0.1120473685480624
 10
5.268697398242368
 20
0.1118396269180187
 10
5.269617344061282
 20
0.1115949015129659
 10
5.270526767615658
 20
0.1113135838413495
 10
5.271424214021804
 20
0.1109961239514297
 10
5.272308247556923
 20
0.110643029711314
 10
5.273177453955936
 20
0.1102548659964593
 10
5.274030442674026
 20
0.1098322537860086
 10
5.274865849111209
 20
0.1093758691693437
 10
5.275682336795396
 20
0.1088864422644958
 10
5.27647859952046
 20
0.1083647560501069
 10
5.277253363435912
 20
0.1078116451128329
 10
5.278005389084755
 20
0.1072279943121833
 10
5.278733473386372
 20
0.1066147373649314
 10
5.279436451561201
 20
0.1059728553513742
 10
5.280113198994124
 20
0.1053033751458053
 10
5.280762633033612
 20
0.104607367773737
 10
5.281383714723732
 20
0.1038859466984934
 10
5.281975450466285
 20
0.1031402660398984
 10
5.282536893610307
 20
0.1023715187279373
 10
5.283067145966535
 20
0.101580934594316
 10
5.283565359244308
 20
0.1007697784050011
 10
5.284030736408668
 20
0.0999393478368599
 10
5.284462532955428
 20
0.0990909714016476
 10
5.284860058102223
 20
0.0982260063206875
 10
5.285222675893615
 20
0.0973458363535907
 10
5.285549806218499
 20
0.096451869584545
 10
5.285840925738137
 20
0.0955455361696798
 10
5.286095568723395
 20
0.0946282860491166
 10
5.286313327799826
 20
0.0937015866273786
 10
5.286493854599351
 20
0.0927669204258566
 10
5.286636860317605
 20
0.0918257827110881
 10
5.286742116175952
 20
0.0908796791026499
 10
5.286809453787464
 20
0.0899301231644923
 10
5.286838765426329
 20
0.0889786339835542
 10
5.286840152490723
 20
0.0887216853104849
  0
LWPOLYLINE
  5
595
330
4E9
100
AcDbEntity
  8
7052814
100
AcDbPolyline
 90
        2
 70
   128
 43
0.0
 10
5.263040051798627
 20
0.1125217860025796
 10
2.736959948201372
 20
0.1125217860025543
  0
LINE
  5
596
330
4E9
100
AcDbEntity
  8
7052814
100
AcDbLine
 10
5.286840152490777
 20
0.000000000003464
 30
0.0
 11
5.286840152490777
 21
0.0887216853104823
 31
0.0
  0
LINE
  5
597
330
4E9
100
AcDbEntity
  8
7052814
100
AcDbLine
 10
2.713159847509226
 20
0.0887216853104556
 30
0.0
 11
2.713159847509226
 21
0.0000000000034373
 31
0.0
  0
LWPOLYLINE
  5
598
330
4E9
100
AcDbEntity
  8
7052814
100
AcDbPolyline
 90
       13
 70
   128
 43
0.0
 10
3.219928498268663
 20
0.9849554939151843
 10
3.220019270491791
 20
0.9894934999071967
 10
3.220291441944974
 20
0.9940242460576772
 10
3.220744577211954
 20
0.9985404841392927
 10
3.221377951372963
 20
1.003034989134527
 10
3.222190551164457
 20
1.007500570794162
 10
3.223181076600114
 20
1.011930085140153
 10
3.224347943050544
 20
1.016316445894457
 10
3.225689283778335
 20
1.020652635815572
 10
3.227202952924466
 20
1.024931717924631
 10
3.228886528941204
 20
1.029146846603081
 10
3.23073731846606
 20
1.033291278544217
 10
3.230935119622882
 20
1.033709222679369
  0
LWPOLYLINE
  5
599
330
4E9
100
AcDbEntity
  8
7052814
100
AcDbPolyline
 90
       13
 70
   128
 43
0.0
 10
4.769064880377102
 20
1.033709222679385
 10
4.770932541429475
 20
1.029572366364081
 10
4.77263327842254
 20
1.02536413257062
 10
4.774164370539915
 20
1.021091253575359
 10
4.775523368360817
 20
1.016760565073193
 10
4.776708097778646
 20
1.012378995241892
 10
4.777716663479059
 20
1.007953553658506
 10
4.778547451972082
 20
1.00349132008552
 10
4.779199134173358
 20
0.9989994331447617
 10
4.779670667530377
 20
0.994485078897115
 10
4.779961297690364
 20
0.9899554793463684
 10
4.78007055970705
 20
0.9854178808855381
 10
4.780071501731319
 20
0.9849554939152003
  0
LWPOLYLINE
  5
59A
330
4E9
100
AcDbEntity
  8
7052814
100
AcDbPolyline
 90
       25
 70
   128
 43
0.0
 10
3.497864975374708
 20
3.244434825479793
 10
3.49790559495833
 20
3.246465533856458
 10
3.498027388726528
 20
3.248492993532916
 10
3.498230161835257
 20
3.250513961006184
 10
3.498513589890789
 20
3.252525203159422
 10
3.498877219468708
 20
3.25452350243423
 10
3.499320468839256
 20
3.256505661978047
 10
3.499842628897988
 20
3.25846851075844
 10
3.500442864300209
 20
3.260408908636081
 10
3.501120214797312
 20
3.262323751388294
 10
3.501873596772997
 20
3.264209975675155
 10
3.502701804976817
 20
3.266064563940176
 10
3.50360351445232
 20
3.267884549237759
 10
3.504577282656702
 20
3.26966701997967
 10
3.505621551768557
 20
3.271409124592964
 10
3.506734651180076
 20
3.273108076081884
 10
3.507914800169645
 20
3.274761156486477
 10
3.509160110750636
 20
3.276365721230732
 10
3.51046859069177
 20
3.277919203353345
 10
3.511838146704272
 20
3.279419117614314
 10
3.513266587790672
 20
3.280863064470785
 10
3.514751628749953
 20
3.282248733915813
 10
3.516290893833373
 20
3.283573909173882
 10
3.517881920545155
 20
3.284836470247265
 10
3.519519296966256
 20
3.286032390228844
  0
LWPOLYLINE
  5
59B
330
4E9
100
AcDbEntity
  8
7052814
100
AcDbPolyline
 90
       25
 70
   128
 43
0.0
 10
4.480480703033679
 20
3.286032390228854
 10
4.482120863515758
 20
3.284834350139936
 10
4.483711803218907
 20
3.283571679429667
 10
4.485250976978987
 20
3.282246398101829
 10
4.486735922446316
 20
3.280860626323834
 10
4.488164264024922
 20
3.279416581034912
 10
4.489533716672974
 20
3.277916572399479
 10
4.490842089558368
 20
3.276363000111364
 10
4.492087289563594
 20
3.27475834955482
 10
4.493267324634272
 20
3.273105187828432
 10
4.494380306966016
 20
3.271406159638301
 10
4.495424456024521
 20
3.269663983067096
 10
4.496398101394026
 20
3.267881445225683
 10
4.497299685449648
 20
3.266061397794357
 10
4.498127765849224
 20
3.264206752460749
 10
4.49888101784076
 20
3.262320476261758
 10
4.499558236381753
 20
3.260405586836918
 10
4.500158338067011
 20
3.25846514760082
 10
4.500680362861844
 20
3.256502262842306
 10
4.501123475637941
 20
3.25452007275826
 10
4.501486967509388
 20
3.252521748429972
 10
4.501770256966731
 20
3.250510486750084
 10
4.501972890807271
 20
3.248489505308235
 10
4.50209454486009
 20
3.246462037243612
 10
4.502135024625227
 20
3.244434825479804
  0
LINE
  5
59C
330
4E9
100
AcDbEntity
  8
7052814
100
AcDbLine
 10
4.502135024625241
 20
3.135789348401116
 30
0.0
 11
4.502135024625241
 21
3.244434825479804
 31
0.0
  0
LINE
  5
59D
330
4E9
100
AcDbEntity
  8
7052814
100
AcDbLine
 10
3.497864975374694
 20
3.244434825479794
 30
0.0
 11
3.497864975374694
 21
3.135789348401106
 31
0.0
  0
LWPOLYLINE
  5
59E
330
4E9
100
AcDbEntity
  8
7052814
100
AcDbPolyline
 90
       25
 70
   128
 43
0.0
 10
3.518710736278235
 20
3.095745014282322
 10
3.517131818503861
 20
3.096898320200535
 10
3.515600283631085
 20
3.098113843467559
 10
3.514118581788986
 20
3.099389639505464
 10
3.512689083384438
 20
3.100723667312746
 10
3.511314075309938
 20
3.102113792729487
 10
3.509995757285091
 20
3.10355779185157
 10
3.50873623833751
 20
3.105053354588433
 10
3.507537533428822
 20
3.106598088358734
 10
3.50640156023118
 20
3.108189521917965
 10
3.505330136059368
 20
3.10982510931192
 10
3.504324974963504
 20
3.111502233949676
 10
3.503387684986916
 20
3.113218212789579
 10
3.502519765593623
 20
3.114970300631542
 10
3.501722605269504
 20
3.116755694508777
 10
3.500997479301036
 20
3.118571538171944
 10
3.500345547735074
 20
3.12041492665854
 10
3.499767853523055
 20
3.122282910940221
 10
3.499265320852485
 20
3.124172502640621
 10
3.498838753668435
 20
3.12608067881611
 10
3.498488834387403
 20
3.128004386791862
 10
3.498216122805592
 20
3.129940549045485
 10
3.498021055203354
 20
3.131886068130401
 10
3.497903943647253
 20
3.133837831631093
 10
3.497864975374708
 20
3.135789348401106
  0
LWPOLYLINE
  5
59F
330
4E9
100
AcDbEntity
  8
7052814
100
AcDbPolyline
 90
       25
 70
   128
 43
0.0
 10
4.502135024625227
 20
3.135789348401116
 10
4.502095921754944
 20
3.133834465579885
 10
4.501978675700359
 20
3.131882710154147
 10
4.501783474030139
 20
3.129937204516234
 10
4.501510629025316
 20
3.128001061060145
 10
4.501160577179698
 20
3.12607737720239
 10
4.500733878501565
 20
3.124169230426776
 10
4.500231215617771
 20
3.122279673361093
 10
4.499653392681709
 20
3.120411728893566
 10
4.499001334086804
 20
3.118568385336865
 10
4.498276082987723
 20
3.116752591647459
 10
4.497478799631503
 20
3.114967252707899
 10
4.496610759501441
 20
3.11321522467964
 10
4.495673351276566
 20
3.111499310433778
 10
4.494668074610073
 20
3.109822255067065
 10
4.493596537730182
 20
3.108186741510336
 10
4.492460454867318
 20
3.10659538623639
 10
4.491261643511707
 20
3.105050735074195
 10
4.490002021505793
 20
3.103555259136101
 10
4.488683603976065
 20
3.102111350864593
 10
4.487308500109341
 20
3.100721320204887
 10
4.485878909778458
 20
3.099387390909514
 10
4.484397120022984
 20
3.098111696980791
 10
4.482865501390429
 20
3.09689627925687
 10
4.4812892637217
 20
3.095745014282333
  0
LINE
  5
5A0
330
4E9
100
AcDbEntity
  8
7052814
100
AcDbLine
 10
5.286840152490773
 20
0.0000000000034645
 30
0.0
 11
2.713159847509222
 21
0.0000000000034381
 31
0.0
  0
LINE
  5
5A1
330
4E9
100
AcDbEntity
  8
7052814
100
AcDbLine
 10
3.653543721308329
 20
3.379877302457384
 30
0.0
 11
4.346456278691595
 21
3.379877302457391
 31
0.0
  0
LINE
  5
5A2
330
4E9
100
AcDbEntity
  8
7052814
100
AcDbLine
 10
-4.656537295330105
 20
3.785031825534709
 30
0.0
 11
-4.632177814686274
 21
4.249838405341587
 31
0.0
  0
ARC
  5
5A3
330
4E9
100
AcDbEntity
  8
0
100
AcDbCircle
 10
0.0000000000000462
 20
3.79257195086417
 30
0.0
 40
1.876845306426166
100
AcDbArc
 50
79.69173609593693
 51
100.3082639040624
  0
ENDBLK
  5
4EB
330
4E9
100
AcDbEntity
  8
0
100
AcDbBlockEnd
  0
BLOCK
  5
5A6
330
5A5
100
AcDbEntity
  8
0
100
AcDbBlockBegin
  2
AMSTN_Delancey_7052814_Plan View
 70
     0
 10
0.0
 20
0.0
 30
0.0
  3
AMSTN_Delancey_7052814_Plan View
  1

  0
ARC
  5
5A8
330
5A5
100
AcDbEntity
  8
7052814
100
AcDbCircle
 10
-3.784246246648152
 20
0.0000000000006573
 30
0.0
 40
0.8764290878106793
100
AcDbArc
 50
166.9105897823557
 51
193.0894102176434
  0
ARC
  5
5A9
330
5A5
100
AcDbEntity
  8
7052814
100
AcDbCircle
 10
-1.822470145630639
 20
0.0000000000006537
 30
0.0
 40
3.01740930175491
100
AcDbArc
 50
174.5940016285473
 51
185.4059983714519
  0
ARC
  5
5AA
330
5A5
100
AcDbEntity
  8
7052814
100
AcDbCircle
 10
-5.436718219223692
 20
-0.0010320183765309
 30
0.0
 40
1.658533312450622
100
AcDbArc
 50
172.2047473967193
 51
187.7952526032794
  0
ARC
  5
5AB
330
5A5
100
AcDbEntity
  8
7052814
100
AcDbCircle
 10
-2.8388411196591
 20
0.0000000000005826
 30
0.0
 40
4.135299920764506
100
AcDbArc
 50
175.2276953880738
 51
184.7723046119246
  0
ARC
  5
5AC
330
5A5
100
AcDbEntity
  8
7052814
100
AcDbCircle
 10
-2.429927366482436
 20
0.0000000000005933
 30
0.0
 40
4.31990785046545
100
AcDbArc
 50
174.9541491325705
 51
185.045850867428
  0
ARC
  5
5AD
330
5A5
100
AcDbEntity
  8
7052814
100
AcDbCircle
 10
-4.000000000000488
 20
0.0000000000006608
 30
0.0
 40
1.229746388415649
100
AcDbArc
 50
193.3638711727706
 51
166.7410652358083
  0
ARC
  5
5AE
330
5A5
100
AcDbEntity
  8
7052814
100
AcDbCircle
 10
-3.997531363400058
 20
0.0000000000006608
 30
0.0
 40
0.9674169830762464
100
AcDbArc
 50
197.4826321591322
 51
162.6496369998179
  0
ARC
  5
5AF
330
5A5
100
AcDbEntity
  8
7052814
100
AcDbCircle
 10
-4.000000000000492
 20
0.0000000000006573
 30
0.0
 40
1.286840152490766
100
AcDbArc
 50
192.7420764366677
 51
167.3509848919843
  0
ARC
  5
5B0
330
5A5
100
AcDbEntity
  8
7052814
100
AcDbCircle
 10
-4.73607193731823
 20
0.2223520632190521
 30
0.0
 40
0.1095650335004208
100
AcDbArc
 50
79.96012744917051
 51
145.584089915444
  0
ARC
  5
5B1
330
5A5
100
AcDbEntity
  8
7052814
100
AcDbCircle
 10
-5.370769129721775
 20
8.483274557526073
 30
0.0
 40
8.217044613909679
100
AcDbArc
 50
260.4567210524209
 51
273.7981495389828
  0
ARC
  5
5B2
330
5A5
100
AcDbEntity
  8
7052814
100
AcDbCircle
 10
-6.843568303021536
 20
0.3438044575825678
 30
0.0
 40
0.1162366818237083
100
AcDbArc
 50
18.11661977826149
 51
179.8833802217496
  0
ARC
  5
5B3
330
5A5
100
AcDbEntity
  8
7052814
100
AcDbCircle
 10
-6.959804744069787
 20
0.223920627942551
 30
0.0
 40
0.1201204175146251
100
AcDbArc
 50
89.99999999999991
 51
180.0
  0
ARC
  5
5B4
330
5A5
100
AcDbEntity
  8
7052814
100
AcDbCircle
 10
-6.91272614298847
 20
-0.0010320183765309
 30
0.0
 40
0.2802841502928857
100
AcDbArc
 50
126.6220631973049
 51
233.3779368026941
  0
ARC
  5
5B5
330
5A5
100
AcDbEntity
  8
7052814
100
AcDbCircle
 10
-6.959804744069788
 20
-0.2259846646956163
 30
0.0
 40
0.1201204175146258
100
AcDbArc
 50
179.999999999999
 51
269.9999999999986
  0
ARC
  5
5B6
330
5A5
100
AcDbEntity
  8
7052814
100
AcDbCircle
 10
-6.843568303021537
 20
-0.3458684943356314
 30
0.0
 40
0.1162366818237085
100
AcDbArc
 50
180.1166197782493
 51
341.8833802217376
  0
ARC
  5
5B7
330
5A5
100
AcDbEntity
  8
7052814
100
AcDbCircle
 10
-5.370769129721832
 20
-8.485338594279223
 30
0.0
 40
8.217044613909751
100
AcDbArc
 50
86.20185046101687
 51
99.54327894757874
  0
ARC
  5
5B8
330
5A5
100
AcDbEntity
  8
7052814
100
AcDbCircle
 10
-4.736071937318232
 20
-0.2244160999721316
 30
0.0
 40
0.1095650335004205
100
AcDbArc
 50
214.415910084555
 51
280.0398725508285
  0
ARC
  5
5B9
330
5A5
100
AcDbEntity
  8
7052814
100
AcDbCircle
 10
-4.764475848223506
 20
-0.2141935420216221
 30
0.0
 40
0.1273052399650999
100
AcDbArc
 50
291.9104120690359
 51
7.087483693309594
  0
LINE
  5
5BA
330
5A5
100
AcDbEntity
  8
7052814
100
AcDbLine
 10
-4.638143358412241
 20
-0.1984860234187842
 30
0.0
 11
-3.988309011216879
 21
-0.1984860234187842
 31
0.0
  0
ARC
  5
5BB
330
5A5
100
AcDbEntity
  8
7052814
100
AcDbCircle
 10
-3.988309011216879
 20
0.0000000000006573
 30
0.0
 40
0.1984860234194437
100
AcDbArc
 50
269.9999999999994
 51
89.99999999999948
  0
LINE
  5
5BC
330
5A5
100
AcDbEntity
  8
7052814
100
AcDbLine
 10
-3.98830901121688
 20
0.1984860234201022
 30
0.0
 11
-4.637903815271423
 21
0.1984860234201058
 31
0.0
  0
ARC
  5
5BD
330
5A5
100
AcDbEntity
  8
7052814
100
AcDbCircle
 10
-4.764475848223504
 20
0.2121295052685461
 30
0.0
 40
0.1273052399651
100
AcDbArc
 50
353.8477148387507
 51
68.08958793096296
  0
ARC
  5
5BE
330
5A5
100
AcDbEntity
  8
7052814
100
AcDbCircle
 10
3.784246246647164
 20
0.0000000000006573
 30
0.0
 40
0.8764290878106793
100
AcDbArc
 50
346.9105897823563
 51
13.08941021764385
  0
ARC
  5
5BF
330
5A5
100
AcDbEntity
  8
7052814
100
AcDbCircle
 10
1.822470145629651
 20
0.0000000000006573
 30
0.0
 40
3.01740930175491
100
AcDbArc
 50
354.5940016285477
 51
5.405998371452305
  0
ARC
  5
5C0
330
5A5
100
AcDbEntity
  8
7052814
100
AcDbCircle
 10
5.436718219222704
 20
-0.0010320183765309
 30
0.0
 40
1.658533312450622
100
AcDbArc
 50
352.2047473967202
 51
7.79525260328026
  0
ARC
  5
5C1
330
5A5
100
AcDbEntity
  8
7052814
100
AcDbCircle
 10
2.838841119658113
 20
0.0000000000005826
 30
0.0
 40
4.135299920764506
100
AcDbArc
 50
355.227695388075
 51
4.772304611925807
  0
ARC
  5
5C2
330
5A5
100
AcDbEntity
  8
7052814
100
AcDbCircle
 10
2.429927366481447
 20
0.0000000000005933
 30
0.0
 40
4.31990785046545
100
AcDbArc
 50
354.9541491325718
 51
5.045850867429055
  0
ARC
  5
5C3
330
5A5
100
AcDbEntity
  8
7052814
100
AcDbCircle
 10
3.999999999999502
 20
0.0000000000006608
 30
0.0
 40
1.229746388415649
100
AcDbArc
 50
13.25893476419045
 51
346.6361288272283
  0
ARC
  5
5C4
330
5A5
100
AcDbEntity
  8
7052814
100
AcDbCircle
 10
3.997531363399069
 20
0.0000000000006608
 30
0.0
 40
0.9674169830762467
100
AcDbArc
 50
17.35037282907257
 51
342.5173784928589
  0
ARC
  5
5C5
330
5A5
100
AcDbEntity
  8
7052814
100
AcDbCircle
 10
3.999999999999502
 20
0.0000000000006573
 30
0.0
 40
1.286840152490766
100
AcDbArc
 50
12.64901924717342
 51
347.2579166982121
  0
ARC
  5
5C6
330
5A5
100
AcDbEntity
  8
7052814
100
AcDbCircle
 10
4.764475848222517
 20
0.2121295052685461
 30
0.0
 40
0.1273052399651
100
AcDbArc
 50
111.9104120690369
 51
186.1522851612493
  0
LINE
  5
5C7
330
5A5
100
AcDbEntity
  8
7052814
100
AcDbLine
 10
3.988309011215893
 20
0.1984860234201022
 30
0.0
 11
4.637903815270433
 21
0.1984860234201058
 31
0.0
  0
ARC
  5
5C8
330
5A5
100
AcDbEntity
  8
7052814
100
AcDbCircle
 10
3.988309011215893
 20
0.0000000000006573
 30
0.0
 40
0.198486023419444
100
AcDbArc
 50
90.00000000000019
 51
270.0000000000002
  0
LINE
  5
5C9
330
5A5
100
AcDbEntity
  8
7052814
100
AcDbLine
 10
4.638143358411255
 20
-0.1984860234187842
 30
0.0
 11
3.988309011215893
 21
-0.1984860234187842
 31
0.0
  0
ARC
  5
5CA
330
5A5
100
AcDbEntity
  8
7052814
100
AcDbCircle
 10
4.764475848222517
 20
-0.2141935420216221
 30
0.0
 40
0.1273052399651
100
AcDbArc
 50
172.9125163066902
 51
248.0895879309641
  0
ARC
  5
5CB
330
5A5
100
AcDbEntity
  8
7052814
100
AcDbCircle
 10
4.736071937317245
 20
-0.2244160999721316
 30
0.0
 40
0.1095650335004205
100
AcDbArc
 50
259.9601274491714
 51
325.584089915445
  0
ARC
  5
5CC
330
5A5
100
AcDbEntity
  8
7052814
100
AcDbCircle
 10
5.370769129720844
 20
-8.485338594279223
 30
0.0
 40
8.217044613909751
100
AcDbArc
 50
80.45672105242063
 51
93.79814953898231
  0
ARC
  5
5CD
330
5A5
100
AcDbEntity
  8
7052814
100
AcDbCircle
 10
6.84356830302055
 20
-0.3458684943356314
 30
0.0
 40
0.1162366818237085
100
AcDbArc
 50
198.1166197782623
 51
359.8833802217507
  0
ARC
  5
5CE
330
5A5
100
AcDbEntity
  8
7052814
100
AcDbCircle
 10
6.959804744068801
 20
-0.2259846646956163
 30
0.0
 40
0.1201204175146255
100
AcDbArc
 50
270.0000000000012
 51
0.0000000000014249
  0
ARC
  5
5CF
330
5A5
100
AcDbEntity
  8
7052814
100
AcDbCircle
 10
6.91272614298748
 20
-0.0010320183765344
 30
0.0
 40
0.2802841502928859
100
AcDbArc
 50
306.6220631973059
 51
53.3779368026951
  0
ARC
  5
5D0
330
5A5
100
AcDbEntity
  8
7052814
100
AcDbCircle
 10
6.959804744068801
 20
0.223920627942551
 30
0.0
 40
0.1201204175146255
100
AcDbArc
 50
0.0000000000004071
 51
90.0
  0
ARC
  5
5D1
330
5A5
100
AcDbEntity
  8
7052814
100
AcDbCircle
 10
6.843568303020546
 20
0.3438044575825678
 30
0.0
 40
0.1162366818237082
100
AcDbArc
 50
0.1166197782503872
 51
161.8833802217385
  0
ARC
  5
5D2
330
5A5
100
AcDbEntity
  8
7052814
100
AcDbCircle
 10
5.370769129720788
 20
8.483274557526073
 30
0.0
 40
8.217044613909679
100
AcDbArc
 50
266.2018504610164
 51
279.5432789475784
  0
ARC
  5
5D3
330
5A5
100
AcDbEntity
  8
7052814
100
AcDbCircle
 10
4.736071937317241
 20
0.2223520632190521
 30
0.0
 40
0.1095650335004207
100
AcDbArc
 50
34.41591008455602
 51
100.0398725508296
  0
ARC
  5
5D4
330
5A5
100
AcDbEntity
  8
7052814
100
AcDbCircle
 10
-31.04469977265509
 20
-2.037879036496851
 30
0.0
 40
30.53137966854479
100
AcDbArc
 50
355.7474359375468
 51
1.620186403641294
1001
REVIT
1002
{
1070
     1
1000
129673
1002
}
1002
{
1070
     2
1000
-2001160
1002
}
  0
ARC
  5
5D5
330
5A5
100
AcDbEntity
  8
7052814
100
AcDbCircle
 10
-0.0000000000004903
 20
-4.782208835220401
 30
0.0
 40
0.7665369570314205
100
AcDbArc
 50
141.1982919611322
 51
38.80170803888002
1001
REVIT
1002
{
1070
     1
1000
129673
1002
}
1002
{
1070
     2
1000
-2001160
1002
}
  0
ARC
  5
5D6
330
5A5
100
AcDbEntity
  8
7052814
100
AcDbCircle
 10
31.04469977265547
 20
-2.037879036496773
 30
0.0
 40
30.53137966854615
100
AcDbArc
 50
178.3798135963599
 51
184.2525640624528
1001
REVIT
1002
{
1070
     1
1000
129673
1002
}
1002
{
1070
     2
1000
-2001160
1002
}
  0
ARC
  5
5D7
330
5A5
100
AcDbEntity
  8
7052814
100
AcDbCircle
 10
-0.0000000000000036
 20
-0.0000000000000036
 30
0.0
 40
1.28684015249061
100
AcDbArc
 50
294.1034162844721
 51
245.8965837154783
1001
REVIT
1002
{
1070
     1
1000
129673
1002
}
1002
{
1070
     2
1000
-2001160
1002
}
  0
ARC
  5
5D8
330
5A5
100
AcDbEntity
  8
7052814
100
AcDbCircle
 10
0.0
 20
0.0
 30
0.0
 40
0.9995698945348539
100
AcDbArc
 50
306.2055082445454
 51
233.7944917553671
1001
REVIT
1002
{
1070
     1
1000
129878
1002
}
1002
{
1070
     2
1000
-2001160
1002
}
  0
ARC
  5
5D9
330
5A5
100
AcDbEntity
  8
7052814
100
AcDbCircle
 10
-2.829142019240121
 20
-1.391065967025694
 30
0.0
 40
2.313760248641873
100
AcDbArc
 50
5.367206573084654
 51
14.63279342691495
1001
REVIT
1002
{
1070
     1
1000
129901
1002
}
1002
{
1070
     2
1000
-2001160
1002
}
  0
ARC
  5
5DA
330
5A5
100
AcDbEntity
  8
7052814
100
AcDbCircle
 10
2.829142019239135
 20
-1.391065967025694
 30
0.0
 40
2.313760248641873
100
AcDbArc
 50
165.3672065731079
 51
174.6327934269151
1001
REVIT
1002
{
1070
     1
1000
129924
1002
}
1002
{
1070
     2
1000
-2001160
1002
}
  0
ARC
  5
5DB
330
5A5
100
AcDbEntity
  8
7052814
100
AcDbCircle
 10
-10.20435873101163
 20
-3.236515773428095
 30
0.0
 40
9.916266608716359
100
AcDbArc
 50
14.18465846339207
 51
15.81534153660688
1001
REVIT
1002
{
1070
     1
1000
129970
1002
}
1002
{
1070
     2
1000
-2001160
1002
}
  0
ARC
  5
5DC
330
5A5
100
AcDbEntity
  8
7052814
100
AcDbCircle
 10
10.20435873101065
 20
-3.236515773428095
 30
0.0
 40
9.916266608716361
100
AcDbArc
 50
164.1846584633929
 51
165.8153415366077
1001
REVIT
1002
{
1070
     1
1000
130023
1002
}
1002
{
1070
     2
1000
-2001160
1002
}
  0
ARC
  5
5DD
330
5A5
100
AcDbEntity
  8
7052814
100
AcDbCircle
 10
-0.000000000000739
 20
0.001058703847221
 30
0.0
 40
0.8677613029885545
100
AcDbArc
 50
318.840114737467
 51
221.1598852626066
1001
REVIT
1002
{
1070
     1
1000
130067
1002
}
1002
{
1070
     2
1000
-2001160
1002
}
  0
ARC
  5
5DE
330
5A5
100
AcDbEntity
  8
7052814
100
AcDbCircle
 10
-4.098429280874977
 20
-4.183625666902704
 30
0.0
 40
3.503048671256256
100
AcDbArc
 50
351.9344678812678
 51
358.0655321187314
1001
REVIT
1002
{
1070
     1
1000
130120
1002
}
1002
{
1070
     2
1000
-2001160
1002
}
  0
ARC
  5
5DF
330
5A5
100
AcDbEntity
  8
7052814
100
AcDbCircle
 10
4.098429280873993
 20
-4.183625666902708
 30
0.0
 40
3.503048671256257
100
AcDbArc
 50
181.9344678812679
 51
188.0655321187318
1001
REVIT
1002
{
1070
     1
1000
130167
1002
}
1002
{
1070
     2
1000
-2001160
1002
}
  0
ARC
  5
5E0
330
5A5
100
AcDbEntity
  8
7052814
100
AcDbCircle
 10
-0.0000000000004921
 20
-4.67512311768451
 30
0.0
 40
0.6300319205558606
100
AcDbArc
 50
180.0000000000008
 51
359.9999999999978
1001
REVIT
1002
{
1070
     1
1000
130226
1002
}
1002
{
1070
     2
1000
-2001160
1002
}
  0
ARC
  5
5E1
330
5A5
100
AcDbEntity
  8
7052814
100
AcDbCircle
 10
-0.0000000000004938
 20
-4.735233145491942
 30
0.0
 40
0.7007179091652641
100
AcDbArc
 50
148.9900979795515
 51
15.41009858616988
1001
REVIT
1002
{
1070
     1
1000
130296
1002
}
1002
{
1070
     2
1000
-2001160
1002
}
  0
ARC
  5
5E2
330
5A5
100
AcDbEntity
  8
7052814
100
AcDbCircle
 10
-0.0000000000004938
 20
-4.735233145491942
 30
0.0
 40
0.7007179091652633
100
AcDbArc
 50
15.41063774813581
 51
31.00990202044787
1001
REVIT
1002
{
1070
     1
1000
130296
1002
}
1002
{
1070
     2
1000
-2001160
1002
}
  0
ENDBLK
  5
5A7
330
5A5
100
AcDbEntity
  8
0
100
AcDbBlockEnd
  0
ENDSEC
  0
SECTION
  2
ENTITIES
  0
INSERT
  5
4E8
330
70
100
AcDbEntity
  8
7052814
100
AcDbBlockReference
  2
AMSTN_Delancey_7052814_Side View
 10
0.0000000000009958
 20
0.0000000000034519
 30
0.0
  0
INSERT
  5
5A4
330
70
100
AcDbEntity
  8
7052814
100
AcDbBlockReference
  2
AMSTN_Delancey_7052814_Front View
 10
14.84508330587087
 20
-0.000000008393235
 30
0.0
  0
INSERT
  5
5E3
330
70
100
AcDbEntity
  8
7052814
100
AcDbBlockReference
  2
AMSTN_Delancey_7052814_Plan View
 10
14.80337582786416
 20
16.28062760088207
 30
0.0
  0
ENDSEC
  0
SECTION
  2
OBJECTS
  0
DICTIONARY
  5
C
330
0
100
AcDbDictionary
281
     1
  3
ACAD_CIP_PREVIOUS_PRODUCT_INFO
350
79
  3
ACAD_COLOR
350
63
  3
ACAD_DETAILVIEWSTYLE
350
6A
  3
ACAD_GROUP
350
D
  3
ACAD_IMAGE_VARS
350
7A
  3
ACAD_LAYOUT
350
62
  3
ACAD_MATERIAL
350
10
  3
ACAD_MLEADERSTYLE
350
66
  3
ACAD_MLINESTYLE
350
5F
  3
ACAD_PLOTSETTINGS
350
61
  3
ACAD_PLOTSTYLENAME
350
E
  3
ACAD_SCALELIST
350
42
  3
ACAD_SECTIONVIEWSTYLE
350
68
  3
ACAD_TABLESTYLE
350
64
  3
ACAD_VISUALSTYLE
350
29
  3
ACDB_RECOMPOSE_DATA
350
797
  3
AcDbVariableDictionary
350
147
  3
REVIT_DICTIONARY
350
13B
  0
DICTIONARY
  5
13F
330
70
100
AcDbDictionary
280
     1
281
     1
  3
ACAD_SORTENTS
360
140
  0
DICTIONARY
  5
6B9
330
47C
100
AcDbDictionary
280
     1
281
     1
  3
ACAD_SORTENTS
360
78F
  0
XRECORD
  5
79
102
{ACAD_REACTORS
330
C
102
}
330
C
100
AcDbXrecord
280
     1
300
ACD
300
2014
300
86071BDSPRM_2014_0F
  0
DICTIONARY
  5
63
102
{ACAD_REACTORS
330
C
102
}
330
C
100
AcDbDictionary
281
     1
  0
DICTIONARY
  5
6A
102
{ACAD_REACTORS
330
C
102
}
330
C
100
AcDbDictionary
281
     1
  3
Imperial24
350
6B
  0
DICTIONARY
  5
D
102
{ACAD_REACTORS
330
C
102
}
330
C
100
AcDbDictionary
281
     1
  0
RASTERVARIABLES
  5
7A
102
{ACAD_REACTORS
330
C
102
}
330
C
100
AcDbRasterVariables
 90
        0
 70
     0
 71
     1
 72
     5
  0
DICTIONARY
  5
62
102
{ACAD_REACTORS
330
C
102
}
330
C
100
AcDbDictionary
281
     1
  3
Layout1
350
6F
  3
Layout2
350
77
  3
Model
350
73
  0
DICTIONARY
  5
10
102
{ACAD_REACTORS
330
C
102
}
330
C
100
AcDbDictionary
281
     1
  3
ByBlock
350
19
  3
ByLayer
350
11
  3
Global
350
21
  0
DICTIONARY
  5
66
102
{ACAD_REACTORS
330
C
102
}
330
C
100
AcDbDictionary
281
     1
  3
Standard
350
67
  0
DICTIONARY
  5
5F
102
{ACAD_REACTORS
330
C
102
}
330
C
100
AcDbDictionary
281
     1
  3
Standard
350
60
  0
DICTIONARY
  5
61
102
{ACAD_REACTORS
330
C
102
}
330
C
100
AcDbDictionary
281
     1
  0
ACDBDICTIONARYWDFLT
  5
E
102
{ACAD_REACTORS
330
C
102
}
330
C
100
AcDbDictionary
281
     1
  3
Normal
350
F
100
AcDbDictionaryWithDefault
340
F
  0
DICTIONARY
  5
42
102
{ACAD_REACTORS
330
C
102
}
330
C
100
AcDbDictionary
281
     1
  3
A0
350
43
  3
A1
350
44
  3
A2
350
45
  3
A3
350
46
  3
A4
350
47
  3
A5
350
48
  3
A6
350
49
  3
A7
350
4A
  3
A8
350
4B
  3
A9
350
4C
  3
B0
350
4D
  3
B1
350
4E
  3
B2
350
4F
  3
B3
350
50
  3
B4
350
51
  3
B5
350
52
  3
B6
350
53
  0
DICTIONARY
  5
68
102
{ACAD_REACTORS
330
C
102
}
330
C
100
AcDbDictionary
281
     1
  3
Imperial24
350
69
  0
DICTIONARY
  5
64
102
{ACAD_REACTORS
330
C
102
}
330
C
100
AcDbDictionary
281
     1
  3
Standard
350
65
  0
DICTIONARY
  5
29
102
{ACAD_REACTORS
330
C
102
}
330
C
100
AcDbDictionary
281
     1
  3
2dWireframe
350
2F
  3
Basic
350
2E
  3
Brighten
350
35
  3
ColorChange
350
39
  3
Conceptual
350
32
  3
Dim
350
34
  3
EdgeColorOff
350
41
  3
Facepattern
350
38
  3
Flat
350
2A
  3
FlatWithEdges
350
2B
  3
Gouraud
350
2C
  3
GouraudWithEdges
350
2D
  3
Hidden
350
31
  3
JitterOff
350
3F
  3
Linepattern
350
37
  3
OverhangOff
350
40
  3
Realistic
350
33
  3
Shaded
350
3E
  3
Shaded with edges
350
3D
  3
Shades of Gray
350
3A
  3
Sketchy
350
3B
  3
Thicken
350
36
  3
Wireframe
350
30
  3
X-Ray
350
3C
  0
XRECORD
  5
797
102
{ACAD_REACTORS
330
C
102
}
330
C
100
AcDbXrecord
280
     1
 90
        1
330
65
330
69
330
6B
  0
DICTIONARY
  5
147
102
{ACAD_REACTORS
330
C
102
}
330
C
100
AcDbDictionary
281
     1
  3
CANNOSCALE
350
14C
  3
CMLEADERSTYLE
350
149
  3
CTABLESTYLE
350
148
  3
CVIEWDETAILSTYLE
350
14A
  3
CVIEWSECTIONSTYLE
350
14B
  0
DICTIONARY
  5
13B
102
{ACAD_REACTORS
330
C
102
}
330
C
100
AcDbDictionary
281
     1
  3
DRAWING_TOOL
350
13E
  3
REVIT_CATEGORY_MAPPING
350
13D
  3
REVIT_TYPE_MAPPING
350
13C
  0
SORTENTSTABLE
  5
140
102
{ACAD_REACTORS
330
13F
102
}
330
13F
100
AcDbSortentsTable
330
70
  0
SORTENTSTABLE
  5
78F
102
{ACAD_REACTORS
330
6B9
102
}
330
6B9
100
AcDbSortentsTable
330
47C
  0
ACDBDETAILVIEWSTYLE
  5
6B
102
{ACAD_XDICTIONARY
360
144
102
}
102
{ACAD_REACTORS
330
6A
102
}
330
6A
100
AcDbModelDocViewStyle
 70
     0
  3
Imperial24
290
     0
100
AcDbDetailViewStyle
 70
     0
 71
     0
 90
        3
 71
     1
340
55
 62
   256
 40
0.24
340
0
 62
   256
 40
0.24
300

 40
0.36
280
     3
 71
     2
340
5D
 90
       25
 62
   256
 71
     3
340
55
 62
   256
 40
0.24
 90
        1
 40
0.75
 90
        1
300
%<\AcVar ViewType \f "%tc1">% %<\AcVar ViewDetailId>%\PSCALE %<\AcVar ViewScale \f "%sn">%
 71
     4
340
5D
 90
       25
 62
   256
340
5D
 90
       25
 62
   256
280
     0
  0
LAYOUT
  5
6F
102
{ACAD_REACTORS
330
62
102
}
330
62
100
AcDbPlotSettings
  1

  2

  4

  6

 40
0.0
 41
0.0
 42
0.0
 43
0.0
 44
0.0
 45
0.0
 46
0.0
 47
0.0
 48
0.0
 49
0.0
140
0.0
141
0.0
142
1.0
143
1.0
 70
   688
 72
     0
 73
     0
 74
     5
  7

 75
    16
147
1.0
 76
     0
 77
     2
 78
   300
148
0.0
149
0.0
100
AcDbLayout
  1
Layout1
 70
     1
 71
     1
 10
0.0
 20
0.0
 11
12.0
 21
9.0
 12
0.0
 22
0.0
 32
0.0
 14
1.000000000000000E+20
 24
1.000000000000000E+20
 34
1.000000000000000E+20
 15
-1.000000000000000E+20
 25
-1.000000000000000E+20
 35
-1.000000000000000E+20
146
0.0
 13
0.0
 23
0.0
 33
0.0
 16
1.0
 26
0.0
 36
0.0
 17
0.0
 27
1.0
 37
0.0
 76
     0
330
6C
  0
LAYOUT
  5
77
102
{ACAD_REACTORS
330
62
102
}
330
62
100
AcDbPlotSettings
  1

  2

  4

  6

 40
0.0
 41
0.0
 42
0.0
 43
0.0
 44
0.0
 45
0.0
 46
0.0
 47
0.0
 48
0.0
 49
0.0
140
0.0
141
0.0
142
1.0
143
1.0
 70
   688
 72
     0
 73
     0
 74
     5
  7

 75
    16
147
1.0
 76
     0
 77
     2
 78
   300
148
0.0
149
0.0
100
AcDbLayout
  1
Layout2
 70
     1
 71
     2
 10
0.0
 20
0.0
 11
12.0
 21
9.0
 12
0.0
 22
0.0
 32
0.0
 14
0.0
 24
0.0
 34
0.0
 15
0.0
 25
0.0
 35
0.0
146
0.0
 13
0.0
 23
0.0
 33
0.0
 16
1.0
 26
0.0
 36
0.0
 17
0.0
 27
1.0
 37
0.0
 76
     0
330
74
  0
LAYOUT
  5
73
102
{ACAD_REACTORS
330
62
102
}
330
62
100
AcDbPlotSettings
  1

  2

  4

  6

 40
0.0
 41
0.0
 42
0.0
 43
0.0
 44
0.0
 45
0.0
 46
0.0
 47
0.0
 48
0.0
 49
0.0
140
0.0
141
0.0
142
1.0
143
1.0
 70
  1712
 72
     0
 73
     0
 74
     0
  7

 75
     0
147
1.0
 76
     0
 77
     2
 78
   300
148
0.0
149
0.0
100
AcDbLayout
  1
Model
 70
     1
 71
     0
 10
0.0
 20
0.0
 11
12.0
 21
9.0
 12
0.0
 22
0.0
 32
0.0
 14
0.0
 24
0.0
 34
0.0
 15
0.0
 25
0.0
 35
0.0
146
0.0
 13
0.0
 23
0.0
 33
0.0
 16
1.0
 26
0.0
 36
0.0
 17
0.0
 27
1.0
 37
0.0
 76
     0
330
70
331
57
  0
MATERIAL
  5
19
102
{ACAD_XDICTIONARY
360
1A
102
}
102
{ACAD_REACTORS
330
10
102
}
330
10
100
AcDbMaterial
  1
ByBlock
 72
     0
 43
0.0208333333333333
 43
0.0
 43
0.0
 43
0.0
 43
0.0
 43
0.0208333333333333
 43
0.0
 43
0.0
 43
0.0
 43
0.0
 43
1.0
 43
0.0
 43
0.0
 43
0.0
 43
0.0
 43
1.0
 77
     0
 47
0.0208333333333333
 47
0.0
 47
0.0
 47
0.0
 47
0.0
 47
0.0208333333333333
 47
0.0
 47
0.0
 47
0.0
 47
0.0
 47
1.0
 47
0.0
 47
0.0
 47
0.0
 47
0.0
 47
1.0
171
     0
 49
0.0208333333333333
 49
0.0
 49
0.0
 49
0.0
 49
0.0
 49
0.0208333333333333
 49
0.0
 49
0.0
 49
0.0
 49
0.0
 49
1.0
 49
0.0
 49
0.0
 49
0.0
 49
0.0
 49
1.0
175
     0
142
0.0208333333333333
142
0.0
142
0.0
142
0.0
142
0.0
142
0.0208333333333333
142
0.0
142
0.0
142
0.0
142
0.0
142
1.0
142
0.0
142
0.0
142
0.0
142
0.0
142
1.0
179
     0
144
0.0208333333333333
144
0.0
144
0.0
144
0.0
144
0.0
144
0.0208333333333333
144
0.0
144
0.0
144
0.0
144
0.0
144
1.0
144
0.0
144
0.0
144
0.0
144
0.0
144
1.0
147
0.0208333333333333
147
0.0
147
0.0
147
0.0
147
0.0
147
0.0208333333333333
147
0.0
147
0.0
147
0.0
147
0.0
147
1.0
147
0.0
147
0.0
147
0.0
147
0.0
147
1.0
  0
MATERIAL
  5
11
102
{ACAD_XDICTIONARY
360
12
102
}
102
{ACAD_REACTORS
330
10
102
}
330
10
100
AcDbMaterial
  1
ByLayer
 72
     0
 43
0.0208333333333333
 43
0.0
 43
0.0
 43
0.0
 43
0.0
 43
0.0208333333333333
 43
0.0
 43
0.0
 43
0.0
 43
0.0
 43
1.0
 43
0.0
 43
0.0
 43
0.0
 43
0.0
 43
1.0
 77
     0
 47
0.0208333333333333
 47
0.0
 47
0.0
 47
0.0
 47
0.0
 47
0.0208333333333333
 47
0.0
 47
0.0
 47
0.0
 47
0.0
 47
1.0
 47
0.0
 47
0.0
 47
0.0
 47
0.0
 47
1.0
171
     0
 49
0.0208333333333333
 49
0.0
 49
0.0
 49
0.0
 49
0.0
 49
0.0208333333333333
 49
0.0
 49
0.0
 49
0.0
 49
0.0
 49
1.0
 49
0.0
 49
0.0
 49
0.0
 49
0.0
 49
1.0
175
     0
142
0.0208333333333333
142
0.0
142
0.0
142
0.0
142
0.0
142
0.0208333333333333
142
0.0
142
0.0
142
0.0
142
0.0
142
1.0
142
0.0
142
0.0
142
0.0
142
0.0
142
1.0
179
     0
144
0.0208333333333333
144
0.0
144
0.0
144
0.0
144
0.0
144
0.0208333333333333
144
0.0
144
0.0
144
0.0
144
0.0
144
1.0
144
0.0
144
0.0
144
0.0
144
0.0
144
1.0
147
0.0208333333333333
147
0.0
147
0.0
147
0.0
147
0.0
147
0.0208333333333333
147
0.0
147
0.0
147
0.0
147
0.0
147
1.0
147
0.0
147
0.0
147
0.0
147
0.0
147
1.0
  0
MATERIAL
  5
21
102
{ACAD_XDICTIONARY
360
22
102
}
102
{ACAD_REACTORS
330
10
102
}
330
10
100
AcDbMaterial
  1
Global
 72
     0
 43
0.0208333333333333
 43
0.0
 43
0.0
 43
0.0
 43
0.0
 43
0.0208333333333333
 43
0.0
 43
0.0
 43
0.0
 43
0.0
 43
1.0
 43
0.0
 43
0.0
 43
0.0
 43
0.0
 43
1.0
 77
     0
 47
0.0208333333333333
 47
0.0
 47
0.0
 47
0.0
 47
0.0
 47
0.0208333333333333
 47
0.0
 47
0.0
 47
0.0
 47
0.0
 47
1.0
 47
0.0
 47
0.0
 47
0.0
 47
0.0
 47
1.0
171
     0
 49
0.0208333333333333
 49
0.0
 49
0.0
 49
0.0
 49
0.0
 49
0.0208333333333333
 49
0.0
 49
0.0
 49
0.0
 49
0.0
 49
1.0
 49
0.0
 49
0.0
 49
0.0
 49
0.0
 49
1.0
175
     0
142
0.0208333333333333
142
0.0
142
0.0
142
0.0
142
0.0
142
0.0208333333333333
142
0.0
142
0.0
142
0.0
142
0.0
142
1.0
142
0.0
142
0.0
142
0.0
142
0.0
142
1.0
179
     0
144
0.0208333333333333
144
0.0
144
0.0
144
0.0
144
0.0
144
0.0208333333333333
144
0.0
144
0.0
144
0.0
144
0.0
144
1.0
144
0.0
144
0.0
144
0.0
144
0.0
144
1.0
147
0.0208333333333333
147
0.0
147
0.0
147
0.0
147
0.0
147
0.0208333333333333
147
0.0
147
0.0
147
0.0
147
0.0
147
1.0
147
0.0
147
0.0
147
0.0
147
0.0
147
1.0
  0
MLEADERSTYLE
  5
67
102
{ACAD_REACTORS
330
66
102
}
330
66
100
AcDbMLeaderStyle
179
     2
170
     2
171
     1
172
     0
 90
        2
 40
0.0
 41
0.0
173
     1
 91
-1056964608
340
5B
 92
       -2
290
     1
 42
0.09
291
     1
 43
0.36
  3
Standard
 44
0.18
300

342
55
174
     1
178
     6
175
     1
176
     0
 93
-1056964608
 45
0.18
292
     0
297
     0
 46
0.18
 94
-1056964608
 47
1.0
 49
1.0
140
1.0
293
     1
141
0.0
294
     1
177
     0
142
1.0
295
     1
296
     0
143
0.125
271
     0
272
     9
273
     9
298
     1
  0
MLINESTYLE
  5
60
102
{ACAD_REACTORS
330
5F
102
}
330
5F
100
AcDbMlineStyle
  2
STANDARD
 70
     0
  3

 62
   256
 51
90.0
 52
90.0
 71
     2
 49
0.5
 62
   256
  6
BYLAYER
 49
-0.5
 62
   256
  6
BYLAYER
  0
ACDBPLACEHOLDER
  5
F
102
{ACAD_REACTORS
330
E
102
}
330
E
  0
SCALE
  5
43
102
{ACAD_REACTORS
330
42
102
}
330
42
100
AcDbScale
 70
     0
300
1:1
140
1.0
141
1.0
290
     1
  0
SCALE
  5
44
102
{ACAD_REACTORS
330
42
102
}
330
42
100
AcDbScale
 70
     0
300
1/128" = 1'-0"
140
0.0078125
141
12.0
290
     0
  0
SCALE
  5
45
102
{ACAD_REACTORS
330
42
102
}
330
42
100
AcDbScale
 70
     0
300
1/64" = 1'-0"
140
0.015625
141
12.0
290
     0
  0
SCALE
  5
46
102
{ACAD_REACTORS
330
42
102
}
330
42
100
AcDbScale
 70
     0
300
1/32" = 1'-0"
140
0.03125
141
12.0
290
     0
  0
SCALE
  5
47
102
{ACAD_REACTORS
330
42
102
}
330
42
100
AcDbScale
 70
     0
300
1/16" = 1'-0"
140
0.0625
141
12.0
290
     0
  0
SCALE
  5
48
102
{ACAD_REACTORS
330
42
102
}
330
42
100
AcDbScale
 70
     0
300
3/32" = 1'-0"
140
0.09375
141
12.0
290
     0
  0
SCALE
  5
49
102
{ACAD_REACTORS
330
42
102
}
330
42
100
AcDbScale
 70
     0
300
1/8" = 1'-0"
140
0.125
141
12.0
290
     0
  0
SCALE
  5
4A
102
{ACAD_REACTORS
330
42
102
}
330
42
100
AcDbScale
 70
     0
300
3/16" = 1'-0"
140
0.1875
141
12.0
290
     0
  0
SCALE
  5
4B
102
{ACAD_REACTORS
330
42
102
}
330
42
100
AcDbScale
 70
     0
300
1/4" = 1'-0"
140
0.25
141
12.0
290
     0
  0
SCALE
  5
4C
102
{ACAD_REACTORS
330
42
102
}
330
42
100
AcDbScale
 70
     0
300
3/8" = 1'-0"
140
0.375
141
12.0
290
     0
  0
SCALE
  5
4D
102
{ACAD_REACTORS
330
42
102
}
330
42
100
AcDbScale
 70
     0
300
1/2" = 1'-0"
140
0.5
141
12.0
290
     0
  0
SCALE
  5
4E
102
{ACAD_REACTORS
330
42
102
}
330
42
100
AcDbScale
 70
     0
300
3/4" = 1'-0"
140
0.75
141
12.0
290
     0
  0
SCALE
  5
4F
102
{ACAD_REACTORS
330
42
102
}
330
42
100
AcDbScale
 70
     0
300
1" = 1'-0"
140
1.0
141
12.0
290
     0
  0
SCALE
  5
50
102
{ACAD_REACTORS
330
42
102
}
330
42
100
AcDbScale
 70
     0
300
1-1/2" = 1'-0"
140
1.5
141
12.0
290
     0
  0
SCALE
  5
51
102
{ACAD_REACTORS
330
42
102
}
330
42
100
AcDbScale
 70
     0
300
3" = 1'-0"
140
3.0
141
12.0
290
     0
  0
SCALE
  5
52
102
{ACAD_REACTORS
330
42
102
}
330
42
100
AcDbScale
 70
     0
300
6" = 1'-0"
140
6.0
141
12.0
290
     0
  0
SCALE
  5
53
102
{ACAD_REACTORS
330
42
102
}
330
42
100
AcDbScale
 70
     0
300
1'-0" = 1'-0"
140
12.0
141
12.0
290
     0
  0
ACDBSECTIONVIEWSTYLE
  5
69
102
{ACAD_XDICTIONARY
360
142
102
}
102
{ACAD_REACTORS
330
68
102
}
330
68
100
AcDbModelDocViewStyle
 70
     0
  3
Imperial24
290
     0
100
AcDbSectionViewStyle
 70
     0
 71
     0
 90
       78
 71
     1
340
55
 62
   256
 40
0.24
340
0
340
0
 62
   256
 40
0.24
300
I, O, Q, S, X, Z
 40
0.48
 90
        3
 40
0.18
 90
        1
 71
     2
340
5D
 90
       25
 62
   256
340
5D
 90
       50
 62
   256
 40
0.24
 40
0.0
 40
0.24
 71
     3
340
55
 62
   256
 40
0.24
 90
        1
 40
0.75
 90
        1
300
%<\AcVar ViewType \f "%tc1">% %<\AcVar ViewSectionStartId>%-%<\AcVar ViewSectionEndId>%\PSCALE %<\AcVar ViewScale \f "%sn">%
 71
     4
 62
   256
 62
   257
300
ANSI31
 40
1.0
 90
        0
290
     0
290
     0
 90
        6
 40
0.0
 40
1.570796326794896
 40
0.2617993877991494
 40
1.308996938995747
 40
-0.2617993877991494
 40
1.832595714594046
  0
TABLESTYLE
  5
65
102
{ACAD_XDICTIONARY
360
793
102
}
102
{ACAD_REACTORS
330
64
102
}
330
64
100
AcDbTableStyle
280
     0
  3
Standard
 70
     0
 71
     0
 40
0.06
 41
0.06
280
     0
281
     0
  7
Standard
140
0.18
170
     2
 62
     0
 63
     7
283
     0
 90
      512
 91
        0
  1

274
    -2
284
     1
 64
     0
275
    -2
285
     1
 65
     0
276
    -2
286
     1
 66
     0
277
    -2
287
     1
 67
     0
278
    -2
288
     1
 68
     0
279
    -2
289
     1
 69
     0
  7
Standard
140
0.25
170
     5
 62
     0
 63
     7
283
     0
 90
      512
 91
        0
  1

274
    -2
284
     1
 64
     0
275
    -2
285
     1
 65
     0
276
    -2
286
     1
 66
     0
277
    -2
287
     1
 67
     0
278
    -2
288
     1
 68
     0
279
    -2
289
     1
 69
     0
  7
Standard
140
0.18
170
     5
 62
     0
 63
     7
283
     0
 90
      512
 91
        0
  1

274
    -2
284
     1
 64
     0
275
    -2
285
     1
 65
     0
276
    -2
286
     1
 66
     0
277
    -2
287
     1
 67
     0
278
    -2
288
     1
 68
     0
279
    -2
289
     1
 69
     0
  0
VISUALSTYLE
  5
2F
102
{ACAD_REACTORS
330
29
102
}
330
29
100
AcDbVisualStyle
  2
2dWireframe
 70
     4
177
     3
291
     0
 70
    58
 90
        0
176
     1
 90
        2
176
     1
 90
        0
176
     1
 90
        0
176
     1
 40
0.6
176
     1
 40
30.0
176
     1
 62
     7
420
 16777215
176
     1
 90
        1
176
     1
 90
        4
176
     1
 62
     7
176
     1
 62
   257
176
     1
 90
        1
176
     1
 90
        1
176
     1
 40
1.0
176
     1
 90
        0
176
     1
 62
   257
176
     1
 40
1.0
176
     1
 90
        1
176
     1
 90
        6
176
     1
 90
        2
176
     1
 62
     7
176
     1
 90
        5
176
     1
 90
        0
176
     1
 90
        0
176
     1
290
     0
176
     1
 90
        1
176
     1
 40
0.0
176
     1
 90
        0
176
     1
290
     1
176
     1
290
     1
176
     1
290
     0
176
     1
290
     0
176
     1
290
     0
176
     1
290
     0
176
     1
290
     0
176
     1
290
     0
176
     1
290
     0
176
     1
 90
       50
176
     1
 40
0.0
176
     1
 40
1.0
176
     1
 90
        0
176
     1
 62
    18
420
        0
176
     1
 90
       50
176
     1
 90
        3
176
     1
 62
     5
420
      255
176
     1
290
     0
176
     1
 90
       50
176
     1
 90
       50
176
     1
 90
       50
176
     1
290
     0
176
     1
 90
       50
176
     1
 62
   256
176
     0
 40
1.0
176
     0
 90
        2
176
     1
  1
strokes_ogs.tif
176
     1
290
     0
176
     1
 40
1.0
176
     1
 40
1.0
176
     1
  0
VISUALSTYLE
  5
2E
102
{ACAD_REACTORS
330
29
102
}
330
29
100
AcDbVisualStyle
  2
Basic
 70
     7
177
     3
291
     1
 70
    58
 90
        1
176
     1
 90
        0
176
     1
 90
        1
176
     1
 90
        0
176
     1
 40
0.6
176
     1
 40
30.0
176
     1
 62
     7
420
 16777215
176
     1
 90
        0
176
     1
 90
        4
176
     1
 62
     7
176
     1
 62
   257
176
     1
 90
        1
176
     1
 90
        1
176
     1
 40
1.0
176
     1
 90
        8
176
     1
 62
     7
176
     1
 40
1.0
176
     1
 90
        1
176
     1
 90
        6
176
     1
 90
        2
176
     1
 62
     7
176
     1
 90
        5
176
     1
 90
        0
176
     1
 90
        0
176
     1
290
     0
176
     1
 90
        1
176
     1
 40
0.0
176
     1
 90
        0
176
     1
290
     0
176
     1
290
     1
176
     1
290
     1
176
     1
290
     0
176
     1
290
     0
176
     1
290
     0
176
     1
290
     0
176
     1
290
     0
176
     1
290
     0
176
     1
 90
       50
176
     1
 40
0.0
176
     1
 40
1.0
176
     1
 90
        0
176
     1
 62
    18
420
        0
176
     1
 90
       50
176
     1
 90
        3
176
     1
 62
     5
420
      255
176
     1
290
     0
176
     1
 90
       50
176
     1
 90
       50
176
     1
 90
       50
176
     1
290
     0
176
     1
 90
       50
176
     1
 62
   256
176
     0
 40
1.0
176
     0
 90
        2
176
     1
  1
strokes_ogs.tif
176
     1
290
     0
176
     1
 40
1.0
176
     1
 40
1.0
176
     1
  0
VISUALSTYLE
  5
35
102
{ACAD_REACTORS
330
29
102
}
330
29
100
AcDbVisualStyle
  2
Brighten
 70
    12
177
     3
291
     1
 70
    58
 90
        2
176
     1
 90
        2
176
     1
 90
        0
176
     1
 90
        0
176
     1
 40
0.6
176
     1
 40
30.0
176
     1
 62
     7
420
 16777215
176
     1
 90
        1
176
     1
 90
        4
176
     1
 62
     7
176
     1
 62
   257
176
     1
 90
        1
176
     1
 90
        1
176
     1
 40
1.0
176
     1
 90
        8
176
     1
 62
     7
176
     1
 40
1.0
176
     1
 90
        1
176
     1
 90
        6
176
     1
 90
        2
176
     1
 62
     7
176
     1
 90
        5
176
     1
 90
        0
176
     1
 90
        0
176
     1
290
     0
176
     1
 90
        1
176
     1
 40
50.0
176
     1
 90
        0
176
     1
290
     0
176
     1
290
     1
176
     1
290
     1
176
     1
290
     0
176
     1
290
     0
176
     1
290
     0
176
     1
290
     0
176
     1
290
     0
176
     1
290
     0
176
     1
 90
       50
176
     1
 40
0.0
176
     1
 40
1.0
176
     1
 90
        0
176
     1
 62
    18
420
        0
176
     1
 90
       50
176
     1
 90
        3
176
     1
 62
     5
420
      255
176
     1
290
     0
176
     1
 90
       50
176
     1
 90
       50
176
     1
 90
       50
176
     1
290
     0
176
     1
 90
       50
176
     1
 62
   256
176
     0
 40
1.0
176
     0
 90
        2
176
     1
  1
strokes_ogs.tif
176
     1
290
     0
176
     1
 40
1.0
176
     1
 40
1.0
176
     1
  0
VISUALSTYLE
  5
39
102
{ACAD_REACTORS
330
29
102
}
330
29
100
AcDbVisualStyle
  2
ColorChange
 70
    16
177
     3
291
     1
 70
    58
 90
        2
176
     1
 90
        2
176
     1
 90
        3
176
     1
 90
        0
176
     1
 40
0.6
176
     1
 40
30.0
176
     1
 62
     8
420
  8421504
176
     1
 90
        1
176
     1
 90
        4
176
     1
 62
     7
176
     1
 62
   257
176
     1
 90
        1
176
     1
 90
        1
176
     1
 40
1.0
176
     1
 90
        8
176
     1
 62
     8
420
  8421504
176
     1
 40
1.0
176
     1
 90
        1
176
     1
 90
        6
176
     1
 90
        2
176
     1
 62
     7
176
     1
 90
        5
176
     1
 90
        0
176
     1
 90
        0
176
     1
290
     0
176
     1
 90
        1
176
     1
 40
0.0
176
     1
 90
        0
176
     1
290
     0
176
     1
290
     1
176
     1
290
     1
176
     1
290
     0
176
     1
290
     0
176
     1
290
     0
176
     1
290
     0
176
     1
290
     0
176
     1
290
     0
176
     1
 90
       50
176
     1
 40
0.0
176
     1
 40
1.0
176
     1
 90
        0
176
     1
 62
    18
420
        0
176
     1
 90
       50
176
     1
 90
        3
176
     1
 62
     5
420
      255
176
     1
290
     0
176
     1
 90
       50
176
     1
 90
       50
176
     1
 90
       50
176
     1
290
     0
176
     1
 90
       50
176
     1
 62
   256
176
     0
 40
1.0
176
     0
 90
        2
176
     1
  1
strokes_ogs.tif
176
     1
290
     0
176
     1
 40
1.0
176
     1
 40
1.0
176
     1
  0
VISUALSTYLE
  5
32
102
{ACAD_REACTORS
330
29
102
}
330
29
100
AcDbVisualStyle
  2
Conceptual
 70
     9
177
     3
291
     0
 70
    58
 90
        3
176
     1
 90
        2
176
     1
 90
        0
176
     1
 90
        0
176
     1
 40
0.6
176
     1
 40
30.0
176
     1
 62
     7
420
 16777215
176
     1
 90
        2
176
     1
 90
        2
176
     1
 62
     7
176
     1
 62
   257
176
     1
 90
        1
176
     1
 90
        1
176
     1
 40
179.0
176
     1
 90
        8
176
     1
 62
     7
176
     1
 40
1.0
176
     1
 90
        1
176
     1
 90
        6
176
     1
 90
        2
176
     1
 62
     7
176
     1
 90
        3
176
     1
 90
        0
176
     1
 90
        0
176
     1
290
     0
176
     1
 90
        1
176
     1
 40
0.0
176
     1
 90
        0
176
     1
290
     0
176
     1
290
     1
176
     1
290
     1
176
     1
290
     0
176
     1
290
     0
176
     1
290
     0
176
     1
290
     0
176
     1
290
     0
176
     1
290
     0
176
     1
 90
       50
176
     1
 40
0.0
176
     1
 40
1.0
176
     1
 90
        0
176
     1
 62
    18
420
        0
176
     1
 90
       50
176
     1
 90
        3
176
     1
 62
     5
420
      255
176
     1
290
     0
176
     1
 90
       50
176
     1
 90
       50
176
     1
 90
       50
176
     1
290
     0
176
     1
 90
       50
176
     1
 62
   256
176
     0
 40
1.0
176
     0
 90
        2
176
     1
  1
strokes_ogs.tif
176
     1
290
     0
176
     1
 40
1.0
176
     1
 40
1.0
176
     1
  0
VISUALSTYLE
  5
34
102
{ACAD_REACTORS
330
29
102
}
330
29
100
AcDbVisualStyle
  2
Dim
 70
    11
177
     3
291
     1
 70
    58
 90
        2
176
     1
 90
        2
176
     1
 90
        0
176
     1
 90
        0
176
     1
 40
0.6
176
     1
 40
30.0
176
     1
 62
     7
420
 16777215
176
     1
 90
        1
176
     1
 90
        4
176
     1
 62
     7
176
     1
 62
   257
176
     1
 90
        1
176
     1
 90
        1
176
     1
 40
1.0
176
     1
 90
        8
176
     1
 62
     7
176
     1
 40
1.0
176
     1
 90
        1
176
     1
 90
        6
176
     1
 90
        2
176
     1
 62
     7
176
     1
 90
        5
176
     1
 90
        0
176
     1
 90
        0
176
     1
290
     0
176
     1
 90
        1
176
     1
 40
-50.0
176
     1
 90
        0
176
     1
290
     0
176
     1
290
     1
176
     1
290
     1
176
     1
290
     0
176
     1
290
     0
176
     1
290
     0
176
     1
290
     0
176
     1
290
     0
176
     1
290
     0
176
     1
 90
       50
176
     1
 40
0.0
176
     1
 40
1.0
176
     1
 90
        0
176
     1
 62
    18
420
        0
176
     1
 90
       50
176
     1
 90
        3
176
     1
 62
     5
420
      255
176
     1
290
     0
176
     1
 90
       50
176
     1
 90
       50
176
     1
 90
       50
176
     1
290
     0
176
     1
 90
       50
176
     1
 62
   256
176
     0
 40
1.0
176
     0
 90
        2
176
     1
  1
strokes_ogs.tif
176
     1
290
     0
176
     1
 40
1.0
176
     1
 40
1.0
176
     1
  0
VISUALSTYLE
  5
41
102
{ACAD_REACTORS
330
29
102
}
330
29
100
AcDbVisualStyle
  2
EdgeColorOff
 70
    22
177
     3
291
     1
 70
    58
 90
        2
176
     0
 90
        2
176
     0
 90
        0
176
     0
 90
        0
176
     0
 40
0.6
176
     0
 40
30.0
176
     0
 62
     7
420
 16777215
176
     0
 90
        1
176
     0
 90
        4
176
     0
 62
     7
176
     0
 62
   257
176
     0
 90
        1
176
     0
 90
        1
176
     0
 40
1.0
176
     0
 90
        8
176
     2
 62
     7
176
     0
 40
1.0
176
     0
 90
        1
176
     0
 90
        6
176
     0
 90
        2
176
     0
 62
     7
176
     0
 90
        5
176
     0
 90
        0
176
     0
 90
        0
176
     0
290
     0
176
     0
 90
        1
176
     0
 40
0.0
176
     0
 90
        0
176
     0
290
     0
176
     0
290
     1
176
     0
290
     1
176
     0
290
     0
176
     0
290
     0
176
     0
290
     0
176
     0
290
     0
176
     0
290
     0
176
     0
290
     0
176
     0
 90
       50
176
     0
 40
0.0
176
     0
 40
1.0
176
     0
 90
        0
176
     0
 62
    18
420
        0
176
     0
 90
       50
176
     0
 90
        3
176
     0
 62
     5
420
      255
176
     0
290
     0
176
     0
 90
       50
176
     0
 90
       50
176
     0
 90
       50
176
     0
290
     0
176
     0
 90
       50
176
     0
 62
   256
176
     0
 40
1.0
176
     0
 90
        2
176
     0
  1
strokes_ogs.tif
176
     0
290
     0
176
     0
 40
1.0
176
     0
 40
1.0
176
     0
  0
VISUALSTYLE
  5
38
102
{ACAD_REACTORS
330
29
102
}
330
29
100
AcDbVisualStyle
  2
Facepattern
 70
    15
177
     3
291
     1
 70
    58
 90
        2
176
     1
 90
        2
176
     1
 90
        0
176
     1
 90
        0
176
     1
 40
0.6
176
     1
 40
30.0
176
     1
 62
     7
420
 16777215
176
     1
 90
        1
176
     1
 90
        4
176
     1
 62
     7
176
     1
 62
   257
176
     1
 90
        1
176
     1
 90
        1
176
     1
 40
1.0
176
     1
 90
        8
176
     1
 62
     7
176
     1
 40
1.0
176
     1
 90
        1
176
     1
 90
        6
176
     1
 90
        2
176
     1
 62
     7
176
     1
 90
        5
176
     1
 90
        0
176
     1
 90
        0
176
     1
290
     0
176
     1
 90
        1
176
     1
 40
0.0
176
     1
 90
        0
176
     1
290
     0
176
     1
290
     1
176
     1
290
     1
176
     1
290
     0
176
     1
290
     0
176
     1
290
     0
176
     1
290
     0
176
     1
290
     0
176
     1
290
     0
176
     1
 90
       50
176
     1
 40
0.0
176
     1
 40
1.0
176
     1
 90
        0
176
     1
 62
    18
420
        0
176
     1
 90
       50
176
     1
 90
        3
176
     1
 62
     5
420
      255
176
     1
290
     0
176
     1
 90
       50
176
     1
 90
       50
176
     1
 90
       50
176
     1
290
     0
176
     1
 90
       50
176
     1
 62
   256
176
     0
 40
1.0
176
     0
 90
        2
176
     1
  1
strokes_ogs.tif
176
     1
290
     0
176
     1
 40
1.0
176
     1
 40
1.0
176
     1
  0
VISUALSTYLE
  5
2A
102
{ACAD_REACTORS
330
29
102
}
330
29
100
AcDbVisualStyle
  2
Flat
 70
     0
177
     3
291
     1
 70
    58
 90
        2
176
     1
 90
        1
176
     1
 90
        1
176
     1
 90
        2
176
     1
 40
0.6
176
     1
 40
30.0
176
     1
 62
     7
420
 16777215
176
     1
 90
        0
176
     1
 90
        0
176
     1
 62
     7
176
     1
 62
   257
176
     1
 90
        1
176
     1
 90
        1
176
     1
 40
1.0
176
     1
 90
        8
176
     1
 62
     7
176
     1
 40
1.0
176
     1
 90
        1
176
     1
 90
        6
176
     1
 90
        2
176
     1
 62
     7
176
     1
 90
        5
176
     1
 90
        0
176
     1
 90
        0
176
     1
290
     0
176
     1
 90
       13
176
     1
 40
0.0
176
     1
 90
        0
176
     1
290
     0
176
     1
290
     1
176
     1
290
     1
176
     1
290
     0
176
     1
290
     0
176
     1
290
     0
176
     1
290
     0
176
     1
290
     0
176
     1
290
     0
176
     1
 90
       50
176
     1
 40
0.0
176
     1
 40
1.0
176
     1
 90
        0
176
     1
 62
    18
420
        0
176
     1
 90
       50
176
     1
 90
        3
176
     1
 62
     5
420
      255
176
     1
290
     0
176
     1
 90
       50
176
     1
 90
       50
176
     1
 90
       50
176
     1
290
     0
176
     1
 90
       50
176
     1
 62
   256
176
     0
 40
1.0
176
     0
 90
        2
176
     1
  1
strokes_ogs.tif
176
     1
290
     0
176
     1
 40
1.0
176
     1
 40
1.0
176
     1
  0
VISUALSTYLE
  5
2B
102
{ACAD_REACTORS
330
29
102
}
330
29
100
AcDbVisualStyle
  2
FlatWithEdges
 70
     1
177
     3
291
     1
 70
    58
 90
        2
176
     1
 90
        1
176
     1
 90
        1
176
     1
 90
        2
176
     1
 40
0.6
176
     1
 40
30.0
176
     1
 62
     7
420
 16777215
176
     1
 90
        1
176
     1
 90
        0
176
     1
 62
     7
176
     1
 62
   257
176
     1
 90
        1
176
     1
 90
        1
176
     1
 40
1.0
176
     1
 90
        0
176
     1
 62
   257
176
     1
 40
1.0
176
     1
 90
        1
176
     1
 90
        6
176
     1
 90
        2
176
     1
 62
     7
176
     1
 90
        5
176
     1
 90
        0
176
     1
 90
        0
176
     1
290
     0
176
     1
 90
       13
176
     1
 40
0.0
176
     1
 90
        0
176
     1
290
     0
176
     1
290
     1
176
     1
290
     1
176
     1
290
     0
176
     1
290
     0
176
     1
290
     0
176
     1
290
     0
176
     1
290
     0
176
     1
290
     0
176
     1
 90
       50
176
     1
 40
0.0
176
     1
 40
1.0
176
     1
 90
        0
176
     1
 62
    18
420
        0
176
     1
 90
       50
176
     1
 90
        3
176
     1
 62
     5
420
      255
176
     1
290
     0
176
     1
 90
       50
176
     1
 90
       50
176
     1
 90
       50
176
     1
290
     0
176
     1
 90
       50
176
     1
 62
   256
176
     0
 40
1.0
176
     0
 90
        2
176
     1
  1
strokes_ogs.tif
176
     1
290
     0
176
     1
 40
1.0
176
     1
 40
1.0
176
     1
  0
VISUALSTYLE
  5
2C
102
{ACAD_REACTORS
330
29
102
}
330
29
100
AcDbVisualStyle
  2
Gouraud
 70
     2
177
     3
291
     1
 70
    58
 90
        2
176
     1
 90
        2
176
     1
 90
        1
176
     1
 90
        2
176
     1
 40
0.6
176
     1
 40
30.0
176
     1
 62
     7
420
 16777215
176
     1
 90
        0
176
     1
 90
        0
176
     1
 62
     7
176
     1
 62
   257
176
     1
 90
        1
176
     1
 90
        1
176
     1
 40
1.0
176
     1
 90
        0
176
     1
 62
     7
176
     1
 40
1.0
176
     1
 90
        1
176
     1
 90
        6
176
     1
 90
        2
176
     1
 62
     7
176
     1
 90
        5
176
     1
 90
        0
176
     1
 90
        0
176
     1
290
     0
176
     1
 90
       13
176
     1
 40
0.0
176
     1
 90
        0
176
     1
290
     0
176
     1
290
     1
176
     1
290
     1
176
     1
290
     0
176
     1
290
     0
176
     1
290
     0
176
     1
290
     0
176
     1
290
     0
176
     1
290
     0
176
     1
 90
       50
176
     1
 40
0.0
176
     1
 40
1.0
176
     1
 90
        0
176
     1
 62
    18
420
        0
176
     1
 90
       50
176
     1
 90
        3
176
     1
 62
     5
420
      255
176
     1
290
     0
176
     1
 90
       50
176
     1
 90
       50
176
     1
 90
       50
176
     1
290
     0
176
     1
 90
       50
176
     1
 62
   256
176
     0
 40
1.0
176
     0
 90
        2
176
     1
  1
strokes_ogs.tif
176
     1
290
     0
176
     1
 40
1.0
176
     1
 40
1.0
176
     1
  0
VISUALSTYLE
  5
2D
102
{ACAD_REACTORS
330
29
102
}
330
29
100
AcDbVisualStyle
  2
GouraudWithEdges
 70
     3
177
     3
291
     1
 70
    58
 90
        2
176
     1
 90
        2
176
     1
 90
        1
176
     1
 90
        2
176
     1
 40
0.6
176
     1
 40
30.0
176
     1
 62
     7
420
 16777215
176
     1
 90
        1
176
     1
 90
        0
176
     1
 62
     7
176
     1
 62
   257
176
     1
 90
        1
176
     1
 90
        1
176
     1
 40
1.0
176
     1
 90
        0
176
     1
 62
   257
176
     1
 40
1.0
176
     1
 90
        1
176
     1
 90
        6
176
     1
 90
        2
176
     1
 62
     7
176
     1
 90
        5
176
     1
 90
        0
176
     1
 90
        0
176
     1
290
     0
176
     1
 90
       13
176
     1
 40
0.0
176
     1
 90
        0
176
     1
290
     0
176
     1
290
     1
176
     1
290
     1
176
     1
290
     0
176
     1
290
     0
176
     1
290
     0
176
     1
290
     0
176
     1
290
     0
176
     1
290
     0
176
     1
 90
       50
176
     1
 40
0.0
176
     1
 40
1.0
176
     1
 90
        0
176
     1
 62
    18
420
        0
176
     1
 90
       50
176
     1
 90
        3
176
     1
 62
     5
420
      255
176
     1
290
     0
176
     1
 90
       50
176
     1
 90
       50
176
     1
 90
       50
176
     1
290
     0
176
     1
 90
       50
176
     1
 62
   256
176
     0
 40
1.0
176
     0
 90
        2
176
     1
  1
strokes_ogs.tif
176
     1
290
     0
176
     1
 40
1.0
176
     1
 40
1.0
176
     1
  0
VISUALSTYLE
  5
31
102
{ACAD_REACTORS
330
29
102
}
330
29
100
AcDbVisualStyle
  2
Hidden
 70
     6
177
     3
291
     0
 70
    58
 90
        1
176
     1
 90
        2
176
     1
 90
        2
176
     1
 90
        0
176
     1
 40
0.6
176
     1
 40
30.0
176
     1
 62
     7
420
 16777215
176
     1
 90
        2
176
     1
 90
        2
176
     1
 62
     7
176
     1
 62
   257
176
     1
 90
        2
176
     1
 90
        1
176
     1
 40
40.0
176
     1
 90
        0
176
     1
 62
   257
176
     1
 40
1.0
176
     1
 90
        1
176
     1
 90
        6
176
     1
 90
        2
176
     1
 62
     7
176
     1
 90
        3
176
     1
 90
        0
176
     1
 90
        0
176
     1
290
     0
176
     1
 90
        1
176
     1
 40
0.0
176
     1
 90
        0
176
     1
290
     0
176
     1
290
     1
176
     1
290
     1
176
     1
290
     0
176
     1
290
     0
176
     1
290
     0
176
     1
290
     0
176
     1
290
     0
176
     1
290
     0
176
     1
 90
       50
176
     1
 40
0.0
176
     1
 40
1.0
176
     1
 90
        0
176
     1
 62
    18
420
        0
176
     1
 90
       50
176
     1
 90
        3
176
     1
 62
     5
420
      255
176
     1
290
     0
176
     1
 90
       50
176
     1
 90
       50
176
     1
 90
       50
176
     1
290
     0
176
     1
 90
       50
176
     1
 62
   256
176
     0
 40
1.0
176
     0
 90
        2
176
     1
  1
strokes_ogs.tif
176
     1
290
     0
176
     1
 40
1.0
176
     1
 40
1.0
176
     1
  0
VISUALSTYLE
  5
3F
102
{ACAD_REACTORS
330
29
102
}
330
29
100
AcDbVisualStyle
  2
JitterOff
 70
    20
177
     3
291
     1
 70
    58
 90
        2
176
     0
 90
        2
176
     0
 90
        0
176
     0
 90
        0
176
     0
 40
0.6
176
     0
 40
30.0
176
     0
 62
     7
420
 16777215
176
     0
 90
        1
176
     0
 90
        4
176
     0
 62
     7
176
     0
 62
   257
176
     0
 90
        1
176
     0
 90
        1
176
     0
 40
1.0
176
     0
 90
       10
176
     2
 62
     7
176
     0
 40
1.0
176
     0
 90
        1
176
     0
 90
        6
176
     0
 90
        2
176
     0
 62
     7
176
     0
 90
        5
176
     0
 90
        0
176
     0
 90
        0
176
     0
290
     0
176
     0
 90
        1
176
     0
 40
0.0
176
     0
 90
        0
176
     0
290
     0
176
     0
290
     1
176
     0
290
     1
176
     0
290
     0
176
     0
290
     0
176
     0
290
     0
176
     0
290
     0
176
     0
290
     0
176
     0
290
     0
176
     0
 90
       50
176
     0
 40
0.0
176
     0
 40
1.0
176
     0
 90
        0
176
     0
 62
    18
420
        0
176
     0
 90
       50
176
     0
 90
        3
176
     0
 62
     5
420
      255
176
     0
290
     0
176
     0
 90
       50
176
     0
 90
       50
176
     0
 90
       50
176
     0
290
     0
176
     0
 90
       50
176
     0
 62
   256
176
     0
 40
1.0
176
     0
 90
        2
176
     0
  1
strokes_ogs.tif
176
     0
290
     0
176
     0
 40
1.0
176
     0
 40
1.0
176
     0
  0
VISUALSTYLE
  5
37
102
{ACAD_REACTORS
330
29
102
}
330
29
100
AcDbVisualStyle
  2
Linepattern
 70
    14
177
     3
291
     1
 70
    58
 90
        2
176
     1
 90
        2
176
     1
 90
        0
176
     1
 90
        0
176
     1
 40
0.6
176
     1
 40
30.0
176
     1
 62
     7
420
 16777215
176
     1
 90
        1
176
     1
 90
        4
176
     1
 62
     7
176
     1
 62
   257
176
     1
 90
        7
176
     1
 90
        7
176
     1
 40
1.0
176
     1
 90
        8
176
     1
 62
     7
176
     1
 40
1.0
176
     1
 90
        1
176
     1
 90
        6
176
     1
 90
        2
176
     1
 62
     7
176
     1
 90
        5
176
     1
 90
        0
176
     1
 90
        0
176
     1
290
     0
176
     1
 90
        1
176
     1
 40
0.0
176
     1
 90
        0
176
     1
290
     0
176
     1
290
     1
176
     1
290
     1
176
     1
290
     0
176
     1
290
     0
176
     1
290
     0
176
     1
290
     0
176
     1
290
     0
176
     1
290
     0
176
     1
 90
       50
176
     1
 40
0.0
176
     1
 40
1.0
176
     1
 90
        0
176
     1
 62
    18
420
        0
176
     1
 90
       50
176
     1
 90
        3
176
     1
 62
     5
420
      255
176
     1
290
     0
176
     1
 90
       50
176
     1
 90
       50
176
     1
 90
       50
176
     1
290
     0
176
     1
 90
       50
176
     1
 62
   256
176
     0
 40
1.0
176
     0
 90
        2
176
     1
  1
strokes_ogs.tif
176
     1
290
     0
176
     1
 40
1.0
176
     1
 40
1.0
176
     1
  0
VISUALSTYLE
  5
40
102
{ACAD_REACTORS
330
29
102
}
330
29
100
AcDbVisualStyle
  2
OverhangOff
 70
    21
177
     3
291
     1
 70
    58
 90
        2
176
     0
 90
        2
176
     0
 90
        0
176
     0
 90
        0
176
     0
 40
0.6
176
     0
 40
30.0
176
     0
 62
     7
420
 16777215
176
     0
 90
        1
176
     0
 90
        4
176
     0
 62
     7
176
     0
 62
   257
176
     0
 90
        1
176
     0
 90
        1
176
     0
 40
1.0
176
     0
 90
        9
176
     2
 62
     7
176
     0
 40
1.0
176
     0
 90
        1
176
     0
 90
        6
176
     0
 90
        2
176
     0
 62
     7
176
     0
 90
        5
176
     0
 90
        0
176
     0
 90
        0
176
     0
290
     0
176
     0
 90
        1
176
     0
 40
0.0
176
     0
 90
        0
176
     0
290
     0
176
     0
290
     1
176
     0
290
     1
176
     0
290
     0
176
     0
290
     0
176
     0
290
     0
176
     0
290
     0
176
     0
290
     0
176
     0
290
     0
176
     0
 90
       50
176
     0
 40
0.0
176
     0
 40
1.0
176
     0
 90
        0
176
     0
 62
    18
420
        0
176
     0
 90
       50
176
     0
 90
        3
176
     0
 62
     5
420
      255
176
     0
290
     0
176
     0
 90
       50
176
     0
 90
       50
176
     0
 90
       50
176
     0
290
     0
176
     0
 90
       50
176
     0
 62
   256
176
     0
 40
1.0
176
     0
 90
        2
176
     0
  1
strokes_ogs.tif
176
     0
290
     0
176
     0
 40
1.0
176
     0
 40
1.0
176
     0
  0
VISUALSTYLE
  5
33
102
{ACAD_REACTORS
330
29
102
}
330
29
100
AcDbVisualStyle
  2
Realistic
 70
     8
177
     3
291
     0
 70
    58
 90
        2
176
     1
 90
        3
176
     1
 90
        0
176
     1
 90
        2
176
     1
 40
0.6
176
     1
 40
30.0
176
     1
 62
     7
420
 16777215
176
     1
 90
        0
176
     1
 90
        0
176
     1
 62
     7
176
     1
 62
   257
176
     1
 90
        1
176
     1
 90
        1
176
     1
 40
1.0
176
     1
 90
        8
176
     1
 62
   257
176
     1
 40
1.0
176
     1
 90
        1
176
     1
 90
        6
176
     1
 90
        2
176
     1
 62
     7
176
     1
 90
        3
176
     1
 90
        0
176
     1
 90
        0
176
     1
290
     0
176
     1
 90
       13
176
     1
 40
0.0
176
     1
 90
        0
176
     1
290
     0
176
     1
290
     1
176
     1
290
     1
176
     1
290
     0
176
     1
290
     0
176
     1
290
     0
176
     1
290
     0
176
     1
290
     0
176
     1
290
     0
176
     1
 90
       50
176
     1
 40
0.0
176
     1
 40
1.0
176
     1
 90
        0
176
     1
 62
    18
420
        0
176
     1
 90
       50
176
     1
 90
        3
176
     1
 62
     5
420
      255
176
     1
290
     0
176
     1
 90
       50
176
     1
 90
       50
176
     1
 90
       50
176
     1
290
     0
176
     1
 90
       50
176
     1
 62
   256
176
     0
 40
1.0
176
     0
 90
        2
176
     1
  1
strokes_ogs.tif
176
     1
290
     0
176
     1
 40
1.0
176
     1
 40
1.0
176
     1
  0
VISUALSTYLE
  5
3E
102
{ACAD_REACTORS
330
29
102
}
330
29
100
AcDbVisualStyle
  2
Shaded
 70
    27
177
     3
291
     0
 70
    58
 90
        2
176
     1
 90
        2
176
     1
 90
        1
176
     1
 90
        2
176
     1
 40
0.6
176
     1
 40
30.0
176
     1
 62
     7
420
 16777215
176
     1
 90
        0
176
     1
 90
        4
176
     1
 62
     7
176
     1
 62
   257
176
     1
 90
        1
176
     1
 90
        1
176
     1
 40
1.0
176
     1
 90
        8
176
     1
 62
   257
176
     1
 40
1.0
176
     1
 90
        1
176
     1
 90
        6
176
     1
 90
        2
176
     1
 62
     8
420
  7895160
176
     1
 90
        3
176
     1
 90
        0
176
     1
 90
        0
176
     1
290
     0
176
     1
 90
        5
176
     1
 40
0.0
176
     1
 90
        0
176
     1
290
     0
176
     1
290
     1
176
     1
290
     1
176
     1
290
     0
176
     1
290
     0
176
     1
290
     0
176
     1
290
     0
176
     1
290
     0
176
     1
290
     0
176
     1
 90
       50
176
     1
 40
0.0
176
     1
 40
1.0
176
     1
 90
        0
176
     1
 62
    18
420
        0
176
     1
 90
       50
176
     1
 90
        3
176
     1
 62
     5
420
      255
176
     1
290
     0
176
     1
 90
       50
176
     1
 90
       50
176
     1
 90
       50
176
     1
290
     0
176
     1
 90
       50
176
     1
 62
   256
176
     0
 40
1.0
176
     0
 90
        2
176
     1
  1
strokes_ogs.tif
176
     1
290
     0
176
     1
 40
1.0
176
     1
 40
1.0
176
     1
  0
VISUALSTYLE
  5
3D
102
{ACAD_REACTORS
330
29
102
}
330
29
100
AcDbVisualStyle
  2
Shaded with edges
 70
    26
177
     3
291
     0
 70
    58
 90
        2
176
     1
 90
        2
176
     1
 90
        1
176
     1
 90
        2
176
     1
 40
0.6
176
     1
 40
30.0
176
     1
 62
     7
420
 16777215
176
     1
 90
        1
176
     1
 90
       10
176
     1
 62
     7
176
     1
 62
   257
176
     1
 90
        2
176
     1
 90
        1
176
     1
 40
1.0
176
     1
 90
        8
176
     1
 62
   257
176
     1
 40
1.0
176
     1
 90
        1
176
     1
 90
        6
176
     1
 90
        2
176
     1
 62
     7
176
     1
 90
        3
176
     1
 90
        0
176
     1
 90
        0
176
     1
290
     0
176
     1
 90
        5
176
     1
 40
0.0
176
     1
 90
        0
176
     1
290
     0
176
     1
290
     1
176
     1
290
     1
176
     1
290
     0
176
     1
290
     0
176
     1
290
     0
176
     1
290
     0
176
     1
290
     0
176
     1
290
     0
176
     1
 90
       50
176
     1
 40
0.0
176
     1
 40
1.0
176
     1
 90
        0
176
     1
 62
    18
420
        0
176
     1
 90
       50
176
     1
 90
        3
176
     1
 62
     5
420
      255
176
     1
290
     0
176
     1
 90
       50
176
     1
 90
       50
176
     1
 90
       50
176
     1
290
     0
176
     1
 90
       50
176
     1
 62
   256
176
     0
 40
1.0
176
     0
 90
        2
176
     1
  1
strokes_ogs.tif
176
     1
290
     0
176
     1
 40
1.0
176
     1
 40
1.0
176
     1
  0
VISUALSTYLE
  5
3A
102
{ACAD_REACTORS
330
29
102
}
330
29
100
AcDbVisualStyle
  2
Shades of Gray
 70
    23
177
     3
291
     0
 70
    58
 90
        2
176
     1
 90
        2
176
     1
 90
        3
176
     1
 90
        0
176
     1
 40
0.6
176
     1
 40
30.0
176
     1
 62
     7
420
 16777215
176
     1
 90
        2
176
     1
 90
        2
176
     1
 62
     7
176
     1
 62
     7
176
     1
 90
        1
176
     1
 90
        1
176
     1
 40
40.0
176
     1
 90
        8
176
     1
 62
     7
176
     1
 40
1.0
176
     1
 90
        1
176
     1
 90
        6
176
     1
 90
        2
176
     1
 62
     7
176
     1
 90
        3
176
     1
 90
        0
176
     1
 90
        0
176
     1
290
     0
176
     1
 90
        1
176
     1
 40
0.0
176
     1
 90
        0
176
     1
290
     0
176
     1
290
     1
176
     1
290
     1
176
     1
290
     0
176
     1
290
     0
176
     1
290
     0
176
     1
290
     0
176
     1
290
     0
176
     1
290
     0
176
     1
 90
       50
176
     1
 40
0.0
176
     1
 40
1.0
176
     1
 90
        0
176
     1
 62
    18
420
        0
176
     1
 90
       50
176
     1
 90
        3
176
     1
 62
     5
420
      255
176
     1
290
     0
176
     1
 90
       50
176
     1
 90
       50
176
     1
 90
       50
176
     1
290
     0
176
     1
 90
       50
176
     1
 62
   256
176
     0
 40
1.0
176
     0
 90
        2
176
     1
  1
strokes_ogs.tif
176
     1
290
     0
176
     1
 40
1.0
176
     1
 40
1.0
176
     1
  0
VISUALSTYLE
  5
3B
102
{ACAD_REACTORS
330
29
102
}
330
29
100
AcDbVisualStyle
  2
Sketchy
 70
    24
177
     3
291
     0
 70
    58
 90
        1
176
     1
 90
        2
176
     1
 90
        2
176
     1
 90
        0
176
     1
 40
0.6
176
     1
 40
30.0
176
     1
 62
     7
420
 16777215
176
     1
 90
        2
176
     1
 90
        2
176
     1
 62
     7
176
     1
 62
     7
176
     1
 90
        1
176
     1
 90
        1
176
     1
 40
40.0
176
     1
 90
       11
176
     1
 62
     7
176
     1
 40
1.0
176
     1
 90
        1
176
     1
 90
        6
176
     1
 90
        2
176
     1
 62
     7
176
     1
 90
        6
176
     1
 90
        0
176
     1
 90
        0
176
     1
290
     0
176
     1
 90
        1
176
     1
 40
0.0
176
     1
 90
        0
176
     1
290
     0
176
     1
290
     1
176
     1
290
     1
176
     1
290
     0
176
     1
290
     0
176
     1
290
     0
176
     1
290
     0
176
     1
290
     0
176
     1
290
     0
176
     1
 90
       50
176
     1
 40
0.0
176
     1
 40
1.0
176
     1
 90
        0
176
     1
 62
    18
420
        0
176
     1
 90
       50
176
     1
 90
        3
176
     1
 62
     5
420
      255
176
     1
290
     0
176
     1
 90
       50
176
     1
 90
       50
176
     1
 90
       50
176
     1
290
     0
176
     1
 90
       50
176
     1
 62
   256
176
     0
 40
1.0
176
     0
 90
        2
176
     1
  1
strokes_ogs.tif
176
     1
290
     0
176
     1
 40
1.0
176
     1
 40
1.0
176
     1
  0
VISUALSTYLE
  5
36
102
{ACAD_REACTORS
330
29
102
}
330
29
100
AcDbVisualStyle
  2
Thicken
 70
    13
177
     3
291
     1
 70
    58
 90
        2
176
     1
 90
        2
176
     1
 90
        0
176
     1
 90
        0
176
     1
 40
0.6
176
     1
 40
30.0
176
     1
 62
     7
420
 16777215
176
     1
 90
        1
176
     1
 90
        4
176
     1
 62
     7
176
     1
 62
   257
176
     1
 90
        1
176
     1
 90
        1
176
     1
 40
1.0
176
     1
 90
       12
176
     1
 62
     7
176
     1
 40
1.0
176
     1
 90
        1
176
     1
 90
        6
176
     1
 90
        2
176
     1
 62
     7
176
     1
 90
        5
176
     1
 90
        0
176
     1
 90
        0
176
     1
290
     0
176
     1
 90
        1
176
     1
 40
0.0
176
     1
 90
        0
176
     1
290
     0
176
     1
290
     1
176
     1
290
     1
176
     1
290
     0
176
     1
290
     0
176
     1
290
     0
176
     1
290
     0
176
     1
290
     0
176
     1
290
     0
176
     1
 90
       50
176
     1
 40
0.0
176
     1
 40
1.0
176
     1
 90
        0
176
     1
 62
    18
420
        0
176
     1
 90
       50
176
     1
 90
        3
176
     1
 62
     5
420
      255
176
     1
290
     0
176
     1
 90
       50
176
     1
 90
       50
176
     1
 90
       50
176
     1
290
     0
176
     1
 90
       50
176
     1
 62
   256
176
     0
 40
1.0
176
     0
 90
        2
176
     1
  1
strokes_ogs.tif
176
     1
290
     0
176
     1
 40
1.0
176
     1
 40
1.0
176
     1
  0
VISUALSTYLE
  5
30
102
{ACAD_REACTORS
330
29
102
}
330
29
100
AcDbVisualStyle
  2
Wireframe
 70
     5
177
     3
291
     0
 70
    58
 90
        0
176
     1
 90
        2
176
     1
 90
        0
176
     1
 90
        0
176
     1
 40
0.6
176
     1
 40
30.0
176
     1
 62
     7
420
 16777215
176
     1
 90
        1
176
     1
 90
        4
176
     1
 62
     7
176
     1
 62
   257
176
     1
 90
        1
176
     1
 90
        1
176
     1
 40
1.0
176
     1
 90
        0
176
     1
 62
   257
176
     1
 40
1.0
176
     1
 90
        1
176
     1
 90
        6
176
     1
 90
        2
176
     1
 62
     7
176
     1
 90
        3
176
     1
 90
        0
176
     1
 90
        0
176
     1
290
     0
176
     1
 90
        1
176
     1
 40
0.0
176
     1
 90
        0
176
     1
290
     0
176
     1
290
     1
176
     1
290
     1
176
     1
290
     0
176
     1
290
     0
176
     1
290
     0
176
     1
290
     0
176
     1
290
     0
176
     1
290
     0
176
     1
 90
       50
176
     1
 40
0.0
176
     1
 40
1.0
176
     1
 90
        0
176
     1
 62
    18
420
        0
176
     1
 90
       50
176
     1
 90
        3
176
     1
 62
     5
420
      255
176
     1
290
     0
176
     1
 90
       50
176
     1
 90
       50
176
     1
 90
       50
176
     1
290
     0
176
     1
 90
       50
176
     1
 62
   256
176
     0
 40
1.0
176
     0
 90
        2
176
     1
  1
strokes_ogs.tif
176
     1
290
     0
176
     1
 40
1.0
176
     1
 40
1.0
176
     1
  0
VISUALSTYLE
  5
3C
102
{ACAD_REACTORS
330
29
102
}
330
29
100
AcDbVisualStyle
  2
X-Ray
 70
    25
177
     3
291
     0
 70
    58
 90
        2
176
     1
 90
        2
176
     1
 90
        1
176
     1
 90
        1
176
     1
 40
0.5
176
     1
 40
30.0
176
     1
 62
     7
420
 16777215
176
     1
 90
        1
176
     1
 90
        0
176
     1
 62
     7
176
     1
 62
   257
176
     1
 90
        1
176
     1
 90
        1
176
     1
 40
1.0
176
     1
 90
        8
176
     1
 62
     7
176
     1
 40
1.0
176
     1
 90
        1
176
     1
 90
        6
176
     1
 90
        2
176
     1
 62
     7
176
     1
 90
        3
176
     1
 90
        0
176
     1
 90
        0
176
     1
290
     0
176
     1
 90
       13
176
     1
 40
0.0
176
     1
 90
        0
176
     1
290
     0
176
     1
290
     1
176
     1
290
     1
176
     1
290
     0
176
     1
290
     0
176
     1
290
     0
176
     1
290
     0
176
     1
290
     0
176
     1
290
     0
176
     1
 90
       50
176
     1
 40
0.0
176
     1
 40
1.0
176
     1
 90
        0
176
     1
 62
    18
420
        0
176
     1
 90
       50
176
     1
 90
        3
176
     1
 62
     5
420
      255
176
     1
290
     0
176
     1
 90
       50
176
     1
 90
       50
176
     1
 90
       50
176
     1
290
     0
176
     1
 90
       50
176
     1
 62
   256
176
     0
 40
1.0
176
     0
 90
        2
176
     1
  1
strokes_ogs.tif
176
     1
290
     0
176
     1
 40
1.0
176
     1
 40
1.0
176
     1
  0
DICTIONARYVAR
  5
14C
102
{ACAD_REACTORS
330
147
102
}
330
147
100
DictionaryVariables
280
     0
  1
1:1
  0
DICTIONARYVAR
  5
149
102
{ACAD_REACTORS
330
147
102
}
330
147
100
DictionaryVariables
280
     0
  1
STANDARD
  0
DICTIONARYVAR
  5
148
102
{ACAD_REACTORS
330
147
102
}
330
147
100
DictionaryVariables
280
     0
  1
STANDARD
  0
DICTIONARYVAR
  5
14A
102
{ACAD_REACTORS
330
147
102
}
330
147
100
DictionaryVariables
280
     0
  1
Imperial24
  0
DICTIONARYVAR
  5
14B
102
{ACAD_REACTORS
330
147
102
}
330
147
100
DictionaryVariables
280
     0
  1
Imperial24
  0
XRECORD
  5
13E
102
{ACAD_REACTORS
330
13B
102
}
330
13B
100
AcDbXrecord
280
     1
  1
BUILDING_ID
  1
Faucet-Widespread-American_Standard-Delancey-70528XX_Series
  1
FLOOR_ID
  1
39
  0
XRECORD
  5
13D
102
{ACAD_REACTORS
330
13B
102
}
330
13B
100
AcDbXrecord
280
     1
  1
-2000151
  1
Generic Models
  1
-2001160
  1
Plumbing Fixtures
  1
-2007000
  1
Connector Element
  0
XRECORD
  5
13C
102
{ACAD_REACTORS
330
13B
102
}
330
13B
100
AcDbXrecord
280
     1
  1
127044
  1
Handle : 002 Lever
  0
DICTIONARY
  5
144
330
6B
100
AcDbDictionary
280
     1
281
     1
  3
ACAD_XREC_ROUNDTRIP
360
796
  0
DICTIONARY
  5
1A
330
19
100
AcDbDictionary
280
     1
281
     1
  3
BUMPTILE
360
1C
  3
DIFFUSETILE
360
1B
  3
OPACITYTILE
360
1F
  3
REFLECTIONTILE
360
1E
  3
REFRACTIONTILE
360
20
  3
SPECULARTILE
360
1D
  0
DICTIONARY
  5
12
330
11
100
AcDbDictionary
280
     1
281
     1
  3
BUMPTILE
360
14
  3
DIFFUSETILE
360
13
  3
OPACITYTILE
360
17
  3
REFLECTIONTILE
360
16
  3
REFRACTIONTILE
360
18
  3
SPECULARTILE
360
15
  0
DICTIONARY
  5
22
330
21
100
AcDbDictionary
280
     1
281
     1
  3
BUMPTILE
360
24
  3
DIFFUSETILE
360
23
  3
OPACITYTILE
360
27
  3
REFLECTIONTILE
360
26
  3
REFRACTIONTILE
360
28
  3
SPECULARTILE
360
25
  0
DICTIONARY
  5
142
330
69
100
AcDbDictionary
280
     1
281
     1
  3
ACAD_XREC_ROUNDTRIP
360
795
  0
DICTIONARY
  5
793
330
65
100
AcDbDictionary
280
     1
281
     1
  3
ACAD_ROUNDTRIP_2008_TABLESTYLE_CELLSTYLEMAP
360
794
  0
XRECORD
  5
796
102
{ACAD_REACTORS
330
144
102
}
330
144
100
AcDbXrecord
280
     1
102
DISPLAYNAME
  1
Imperial24
102
FLAGS
 90
        0
  0
XRECORD
  5
1C
102
{ACAD_REACTORS
330
1A
102
}
330
1A
100
AcDbXrecord
280
     1
270
     1
271
     1
  0
XRECORD
  5
1B
102
{ACAD_REACTORS
330
1A
102
}
330
1A
100
AcDbXrecord
280
     1
270
     1
271
     1
  0
XRECORD
  5
1F
102
{ACAD_REACTORS
330
1A
102
}
330
1A
100
AcDbXrecord
280
     1
270
     1
271
     1
  0
XRECORD
  5
1E
102
{ACAD_REACTORS
330
1A
102
}
330
1A
100
AcDbXrecord
280
     1
270
     1
271
     1
  0
XRECORD
  5
20
102
{ACAD_REACTORS
330
1A
102
}
330
1A
100
AcDbXrecord
280
     1
270
     1
271
     1
  0
XRECORD
  5
1D
102
{ACAD_REACTORS
330
1A
102
}
330
1A
100
AcDbXrecord
280
     1
270
     1
271
     1
  0
XRECORD
  5
14
102
{ACAD_REACTORS
330
12
102
}
330
12
100
AcDbXrecord
280
     1
270
     1
271
     1
  0
XRECORD
  5
13
102
{ACAD_REACTORS
330
12
102
}
330
12
100
AcDbXrecord
280
     1
270
     1
271
     1
  0
XRECORD
  5
17
102
{ACAD_REACTORS
330
12
102
}
330
12
100
AcDbXrecord
280
     1
270
     1
271
     1
  0
XRECORD
  5
16
102
{ACAD_REACTORS
330
12
102
}
330
12
100
AcDbXrecord
280
     1
270
     1
271
     1
  0
XRECORD
  5
18
102
{ACAD_REACTORS
330
12
102
}
330
12
100
AcDbXrecord
280
     1
270
     1
271
     1
  0
XRECORD
  5
15
102
{ACAD_REACTORS
330
12
102
}
330
12
100
AcDbXrecord
280
     1
270
     1
271
     1
  0
XRECORD
  5
24
102
{ACAD_REACTORS
330
22
102
}
330
22
100
AcDbXrecord
280
     1
270
     1
271
     1
  0
XRECORD
  5
23
102
{ACAD_REACTORS
330
22
102
}
330
22
100
AcDbXrecord
280
     1
270
     1
271
     1
  0
XRECORD
  5
27
102
{ACAD_REACTORS
330
22
102
}
330
22
100
AcDbXrecord
280
     1
270
     1
271
     1
  0
XRECORD
  5
26
102
{ACAD_REACTORS
330
22
102
}
330
22
100
AcDbXrecord
280
     1
270
     1
271
     1
  0
XRECORD
  5
28
102
{ACAD_REACTORS
330
22
102
}
330
22
100
AcDbXrecord
280
     1
270
     1
271
     1
  0
XRECORD
  5
25
102
{ACAD_REACTORS
330
22
102
}
330
22
100
AcDbXrecord
280
     1
270
     1
271
     1
  0
XRECORD
  5
795
102
{ACAD_REACTORS
330
142
102
}
330
142
100
AcDbXrecord
280
     1
102
DISPLAYNAME
  1
Imperial24
102
FLAGS
 90
        0
  0
CELLSTYLEMAP
  5
794
102
{ACAD_REACTORS
330
793
102
}
330
793
100
AcDbCellStyleMap
 90
        3
300
CELLSTYLE
  1
TABLEFORMAT_BEGIN
 90
        5
170
     1
 91
        0
 92
    32768
 62
   257
 93
        1
300
CONTENTFORMAT
  1
CONTENTFORMAT_BEGIN
 90
        0
 91
        0
 92
      512
 93
        0
300

 40
0.0
140
1.0
 94
        5
 62
     0
340
55
144
0.25
309
CONTENTFORMAT_END
171
     0
 94
        0
309
TABLEFORMAT_END
  1
CELLSTYLE_BEGIN
 90
        1
 91
        1
300
_TITLE
309
CELLSTYLE_END
300
CELLSTYLE
  1
TABLEFORMAT_BEGIN
 90
        5
170
     1
 91
        0
 92
        0
 62
   257
 93
        1
300
CONTENTFORMAT
  1
CONTENTFORMAT_BEGIN
 90
        0
 91
        0
 92
      512
 93
        0
300

 40
0.0
140
1.0
 94
        5
 62
     0
340
55
144
0.18
309
CONTENTFORMAT_END
171
     0
 94
        0
309
TABLEFORMAT_END
  1
CELLSTYLE_BEGIN
 90
        2
 91
        1
300
_HEADER
309
CELLSTYLE_END
300
CELLSTYLE
  1
TABLEFORMAT_BEGIN
 90
        5
170
     1
 91
        0
 92
        0
 62
   257
 93
        1
300
CONTENTFORMAT
  1
CONTENTFORMAT_BEGIN
 90
        0
 91
        0
 92
      512
 93
        0
300

 40
0.0
140
1.0
 94
        2
 62
     0
340
55
144
0.18
309
CONTENTFORMAT_END
171
     0
 94
        0
309
TABLEFORMAT_END
  1
CELLSTYLE_BEGIN
 90
        3
 91
        2
300
_DATA
309
CELLSTYLE_END
  0
ENDSEC
  0
EOF
