  0
SECTION
  2
HEADER
  9
$ACADVER
  1
AC1015
  9
$ACADMAINTVER
 70
     6
  9
$DWGCODEPAGE
  3
ANSI_1252
  9
$INSBASE
 10
0.0
 20
0.0
 30
0.0
  9
$EXTMIN
 10
0.0
 20
0.0
 30
0.0
  9
$EXTMAX
 10
1682.0
 20
2378.0
 30
0.0
  9
$LIMMIN
 10
0.0
 20
0.0
  9
$LIMMAX
 10
1682.0
 20
2378.0
  9
$ORTHOMODE
 70
     0
  9
$REGENMODE
 70
     1
  9
$FILLMODE
 70
     1
  9
$QTEXTMODE
 70
     0
  9
$MIRRTEXT
 70
     1
  9
$LTSCALE
 40
1.0
  9
$ATTMODE
 70
     1
  9
$TEXTSIZE
 40
2.5
  9
$TRACEWID
 40
1.0
  9
$TEXTSTYLE
  7
Standard
  9
$CLAYER
  8
0
  9
$CELTYPE
  6
ByLayer
  9
$CECOLOR
 62
   256
  9
$CELTSCALE
 40
1.0
  9
$DISPSILH
 70
     0
  9
$DIMSCALE
 40
1.0
  9
$DIMASZ
 40
2.5
  9
$DIMEXO
 40
0.625
  9
$DIMDLI
 40
3.75
  9
$DIMRND
 40
0.0
  9
$DIMDLE
 40
0.0
  9
$DIMEXE
 40
1.25
  9
$DIMTP
 40
0.0
  9
$DIMTM
 40
0.0
  9
$DIMTXT
 40
2.5
  9
$DIMCEN
 40
2.5
  9
$DIMTSZ
 40
0.0
  9
$DIMTOL
 70
     0
  9
$DIMLIM
 70
     0
  9
$DIMTIH
 70
     0
  9
$DIMTOH
 70
     0
  9
$DIMSE1
 70
     0
  9
$DIMSE2
 70
     0
  9
$DIMTAD
 70
     1
  9
$DIMZIN
 70
     8
  9
$DIMBLK
  1

  9
$DIMASO
 70
     1
  9
$DIMSHO
 70
     1
  9
$DIMPOST
  1

  9
$DIMAPOST
  1

  9
$DIMALT
 70
     0
  9
$DIMALTD
 70
     3
  9
$DIMALTF
 40
0.0393700787
  9
$DIMLFAC
 40
1.0
  9
$DIMTOFL
 70
     1
  9
$DIMTVP
 40
0.0
  9
$DIMTIX
 70
     0
  9
$DIMSOXD
 70
     0
  9
$DIMSAH
 70
     0
  9
$DIMBLK1
  1

  9
$DIMBLK2
  1

  9
$DIMSTYLE
  2
ISO-25
  9
$DIMCLRD
 70
     0
  9
$DIMCLRE
 70
     0
  9
$DIMCLRT
 70
     0
  9
$DIMTFAC
 40
1.0
  9
$DIMGAP
 40
0.625
  9
$DIMJUST
 70
     0
  9
$DIMSD1
 70
     0
  9
$DIMSD2
 70
     0
  9
$DIMTOLJ
 70
     0
  9
$DIMTZIN
 70
     8
  9
$DIMALTZ
 70
     0
  9
$DIMALTTZ
 70
     0
  9
$DIMUPT
 70
     0
  9
$DIMDEC
 70
     2
  9
$DIMTDEC
 70
     2
  9
$DIMALTU
 70
     2
  9
$DIMALTTD
 70
     3
  9
$DIMTXSTY
  7
Standard
  9
$DIMAUNIT
 70
     0
  9
$DIMADEC
 70
     0
  9
$DIMALTRND
 40
0.0
  9
$DIMAZIN
 70
     0
  9
$DIMDSEP
 70
    44
  9
$DIMATFIT
 70
     3
  9
$DIMFRAC
 70
     0
  9
$DIMLDRBLK
  1

  9
$DIMLUNIT
 70
     2
  9
$DIMLWD
 70
    -2
  9
$DIMLWE
 70
    -2
  9
$DIMTMOVE
 70
     0
  9
$LUNITS
 70
     2
  9
$LUPREC
 70
     4
  9
$SKETCHINC
 40
1.0
  9
$FILLETRAD
 40
10.0
  9
$AUNITS
 70
     0
  9
$AUPREC
 70
     0
  9
$MENU
  1
.
  9
$ELEVATION
 40
0.0
  9
$PELEVATION
 40
0.0
  9
$THICKNESS
 40
0.0
  9
$LIMCHECK
 70
     0
  9
$CHAMFERA
 40
10.0
  9
$CHAMFERB
 40
10.0
  9
$CHAMFERC
 40
20.0
  9
$CHAMFERD
 40
0.0
  9
$SKPOLY
 70
     0
  9
$TDCREATE
 40
2455463.463705984
  9
$TDUCREATE
 40
2455463.38037265
  9
$TDUPDATE
 40
2455463.463705996
  9
$TDUUPDATE
 40
2455463.380372662
  9
$TDINDWG
 40
0.0000000116
  9
$TDUSRTIMER
 40
0.0000000116
  9
$USRTIMER
 70
     1
  9
$ANGBASE
 50
0.0
  9
$ANGDIR
 70
     0
  9
$PDMODE
 70
     0
  9
$PDSIZE
 40
0.0
  9
$PLINEWID
 40
0.0
  9
$SPLFRAME
 70
     0
  9
$SPLINETYPE
 70
     6
  9
$SPLINESEGS
 70
     8
  9
$HANDSEED
  5
180
  9
$SURFTAB1
 70
     6
  9
$SURFTAB2
 70
     6
  9
$SURFTYPE
 70
     6
  9
$SURFU
 70
     6
  9
$SURFV
 70
     6
  9
$UCSBASE
  2

  9
$UCSNAME
  2

  9
$UCSORG
 10
0.0
 20
0.0
 30
0.0
  9
$UCSXDIR
 10
1.0
 20
0.0
 30
0.0
  9
$UCSYDIR
 10
0.0
 20
1.0
 30
0.0
  9
$UCSORTHOREF
  2

  9
$UCSORTHOVIEW
 70
     0
  9
$UCSORGTOP
 10
0.0
 20
0.0
 30
0.0
  9
$UCSORGBOTTOM
 10
0.0
 20
0.0
 30
0.0
  9
$UCSORGLEFT
 10
0.0
 20
0.0
 30
0.0
  9
$UCSORGRIGHT
 10
0.0
 20
0.0
 30
0.0
  9
$UCSORGFRONT
 10
0.0
 20
0.0
 30
0.0
  9
$UCSORGBACK
 10
0.0
 20
0.0
 30
0.0
  9
$PUCSBASE
  2

  9
$PUCSNAME
  2

  9
$PUCSORG
 10
0.0
 20
0.0
 30
0.0
  9
$PUCSXDIR
 10
1.0
 20
0.0
 30
0.0
  9
$PUCSYDIR
 10
0.0
 20
1.0
 30
0.0
  9
$PUCSORTHOREF
  2

  9
$PUCSORTHOVIEW
 70
     0
  9
$PUCSORGTOP
 10
0.0
 20
0.0
 30
0.0
  9
$PUCSORGBOTTOM
 10
0.0
 20
0.0
 30
0.0
  9
$PUCSORGLEFT
 10
0.0
 20
0.0
 30
0.0
  9
$PUCSORGRIGHT
 10
0.0
 20
0.0
 30
0.0
  9
$PUCSORGFRONT
 10
0.0
 20
0.0
 30
0.0
  9
$PUCSORGBACK
 10
0.0
 20
0.0
 30
0.0
  9
$USERI1
 70
     0
  9
$USERI2
 70
     0
  9
$USERI3
 70
     0
  9
$USERI4
 70
     0
  9
$USERI5
 70
     0
  9
$USERR1
 40
0.0
  9
$USERR2
 40
0.0
  9
$USERR3
 40
0.0
  9
$USERR4
 40
0.0
  9
$USERR5
 40
0.0
  9
$WORLDVIEW
 70
     1
  9
$SHADEDGE
 70
     3
  9
$SHADEDIF
 70
    70
  9
$TILEMODE
 70
     1
  9
$MAXACTVP
 70
    64
  9
$PINSBASE
 10
0.0
 20
0.0
 30
0.0
  9
$PLIMCHECK
 70
     0
  9
$PEXTMIN
 10
0.0
 20
0.0
 30
0.0
  9
$PEXTMAX
 10
1682.0
 20
2378.0
 30
0.0
  9
$PLIMMIN
 10
0.0
 20
0.0
  9
$PLIMMAX
 10
1682.0
 20
2378.0
  9
$UNITMODE
 70
     0
  9
$VISRETAIN
 70
     1
  9
$PLINEGEN
 70
     0
  9
$PSLTSCALE
 70
     1
  9
$TREEDEPTH
 70
  3020
  9
$CMLSTYLE
  2
Standard
  9
$CMLJUST
 70
     0
  9
$CMLSCALE
 40
20.0
  9
$PROXYGRAPHICS
 70
     1
  9
$MEASUREMENT
 70
     1
  9
$CELWEIGHT
370
    -1
  9
$ENDCAPS
280
     0
  9
$JOINSTYLE
280
     0
  9
$LWDISPLAY
290
     0
  9
$INSUNITS
 70
     4
  9
$HYPERLINKBASE
  1

  9
$STYLESHEET
  1

  9
$XEDIT
290
     1
  9
$CEPSNTYPE
380
     0
  9
$PSTYLEMODE
290
     1
  9
$FINGERPRINTGUID
  2
{1B0103E7-3C09-4AA7-A0AF-A85EBBF34736}
  9
$VERSIONGUID
  2
{FAEB1C32-E019-11D5-929B-00C0DF256EC4}
  9
$EXTNAMES
290
     1
  9
$PSVPSCALE
 40
0.0
  9
$OLESTARTUP
290
     0
  0
ENDSEC
  0
SECTION
  2
CLASSES
  0
CLASS
  1
ACDBDICTIONARYWDFLT
  2
AcDbDictionaryWithDefault
  3
ObjectDBX Classes
 90
        0
280
     0
281
     0
  0
CLASS
  1
VISUALSTYLE
  2
AcDbVisualStyle
  3
ObjectDBX Classes
 90
     4095
280
     0
281
     0
  0
CLASS
  1
SCALE
  2
AcDbScale
  3
ObjectDBX Classes
 90
     1153
280
     0
281
     0
  0
CLASS
  1
DICTIONARYVAR
  2
AcDbDictionaryVar
  3
ObjectDBX Classes
 90
        0
280
     0
281
     0
  0
CLASS
  1
ACDBPLACEHOLDER
  2
AcDbPlaceHolder
  3
ObjectDBX Classes
 90
        0
280
     0
281
     0
  0
CLASS
  1
LAYOUT
  2
AcDbLayout
  3
ObjectDBX Classes
 90
        0
280
     0
281
     0
  0
ENDSEC
  0
SECTION
  2
TABLES
  0
TABLE
  2
VPORT
  5
8
330
0
100
AcDbSymbolTable
 70
     1
  0
VPORT
  5
29
330
8
100
AcDbSymbolTableRecord
100
AcDbViewportTableRecord
  2
*Active
 70
     0
 10
0.0
 20
0.0
 11
1.0
 21
1.0
 12
344.1869158879
 22
148.5
 13
0.0
 23
0.0
 14
10.0
 24
10.0
 15
10.0
 25
10.0
 16
0.0
 26
0.0
 36
1.0
 17
0.0
 27
0.0
 37
0.0
 40
297.0
 41
1.9729729729
 42
50.0
 43
0.0
 44
0.0
 50
0.0
 51
0.0
 71
     0
 72
   100
 73
     1
 74
     3
 75
     0
 76
     0
 77
     0
 78
     0
281
     0
 65
     1
110
0.0
120
0.0
130
0.0
111
1.0
121
0.0
131
0.0
112
0.0
122
1.0
132
0.0
 79
     0
146
0.0
  0
ENDTAB
  0
TABLE
  2
LTYPE
  5
5
330
0
100
AcDbSymbolTable
 70
     2
  0
LTYPE
  5
14
330
5
100
AcDbSymbolTableRecord
100
AcDbLinetypeTableRecord
  2
ByBlock
 70
     0
  3

 72
    65
 73
     0
 40
0.0
  0
LTYPE
  5
15
330
5
100
AcDbSymbolTableRecord
100
AcDbLinetypeTableRecord
  2
ByLayer
 70
     0
  3

 72
    65
 73
     0
 40
0.0
  0
LTYPE
  5
16
330
5
100
AcDbSymbolTableRecord
100
AcDbLinetypeTableRecord
  2
Continuous
 70
     0
  3
Solid line
 72
    65
 73
     0
 40
0.0
  0
LTYPE
  5
60
330
5
100
AcDbSymbolTableRecord
100
AcDbLinetypeTableRecord
  2
CENTER2
 70
     0
  3
Center (.5x) ___ _ ___ _ ___ _ ___ _ ___ _ ___
 72
    65
 73
     4
 40
28.575
 49
19.05
 74
     4
 75
     0
340
0
 46
0.0
 50
0.0
 44
0.0
 45
0.0
 49
-3.175
 74
     4
 75
     0
340
0
 46
0.0
 50
0.0
 44
0.0
 45
0.0
 49
3.175
 74
     4
 75
     0
340
0
 46
0.0
 50
0.0
 44
0.0
 45
0.0
 49
-3.175
 74
     4
 75
     0
340
0
 46
0.0
 50
0.0
 44
0.0
 45
0.0
  0
ENDTAB
  0
TABLE
  2
LAYER
  5
2
330
0
100
AcDbSymbolTable
 70
    12
  0
LAYER
  5
10
330
2
100
AcDbSymbolTableRecord
100
AcDbLayerTableRecord
  2
0
 70
     0
 62
     7
  6
Continuous
370
    -3
390
F
  0
LAYER
  5
5D
330
2
100
AcDbSymbolTableRecord
100
AcDbLayerTableRecord
  2
Default
 70
     0
 62
     7
  6
Continuous
370
    -3
390
F
  0
LAYER
  5
77
330
2
100
AcDbSymbolTableRecord
100
AcDbLayerTableRecord
  2
$DDT_AUDIT_GENERATED_(77)
 70
     0
 62
     7
  6
Continuous
370
    -3
390
F
  0
LAYER
  5
85
330
2
100
AcDbSymbolTableRecord
100
AcDbLayerTableRecord
  2
$DDT_AUDIT_GENERATED_(85)
 70
     0
 62
     7
  6
Continuous
370
    -3
390
F
  0
LAYER
  5
89
330
2
100
AcDbSymbolTableRecord
100
AcDbLayerTableRecord
  2
$DDT_AUDIT_GENERATED_(89)
 70
     0
 62
     7
  6
Continuous
370
    -3
390
F
  0
LAYER
  5
A6
330
2
100
AcDbSymbolTableRecord
100
AcDbLayerTableRecord
  2
$DDT_AUDIT_GENERATED_(A6)
 70
     0
 62
     7
  6
Continuous
370
    -3
390
F
  0
LAYER
  5
B1
330
2
100
AcDbSymbolTableRecord
100
AcDbLayerTableRecord
  2
$DDT_AUDIT_GENERATED_(B1)
 70
     0
 62
     7
  6
Continuous
370
    -3
390
F
  0
LAYER
  5
B3
330
2
100
AcDbSymbolTableRecord
100
AcDbLayerTableRecord
  2
$DDT_AUDIT_GENERATED_(B3)
 70
     0
 62
     7
  6
Continuous
370
    -3
390
F
  0
LAYER
  5
CA
330
2
100
AcDbSymbolTableRecord
100
AcDbLayerTableRecord
  2
$DDT_AUDIT_GENERATED_(CA)
 70
     0
 62
     7
  6
Continuous
370
    -3
390
F
  0
LAYER
  5
CC
330
2
100
AcDbSymbolTableRecord
100
AcDbLayerTableRecord
  2
$DDT_AUDIT_GENERATED_(CC)
 70
     0
 62
     7
  6
Continuous
370
    -3
390
F
  0
LAYER
  5
10B
330
2
100
AcDbSymbolTableRecord
100
AcDbLayerTableRecord
  2
$DDT_AUDIT_GENERATED_(10B)
 70
     0
 62
     7
  6
Continuous
370
    -3
390
F
  0
LAYER
  5
12B
330
2
100
AcDbSymbolTableRecord
100
AcDbLayerTableRecord
  2
$DDT_AUDIT_GENERATED_(12B)
 70
     0
 62
     7
  6
Continuous
370
    -3
390
F
  0
ENDTAB
  0
TABLE
  2
STYLE
  5
3
330
0
100
AcDbSymbolTable
 70
     2
  0
STYLE
  5
11
330
3
100
AcDbSymbolTableRecord
100
AcDbTextStyleTableRecord
  2
Standard
 70
     0
 40
0.0
 41
1.0
 50
0.0
 71
     0
 42
2.5
  3
txt
  4

  0
STYLE
  5
16F
330
3
100
AcDbSymbolTableRecord
100
AcDbTextStyleTableRecord
  2
SEACAD_seiso_ttf
 70
     0
 40
0.0
 41
1.0
 50
0.0
 71
     0
 42
0.2
  3
seiso.ttf
  4

  0
ENDTAB
  0
TABLE
  2
VIEW
  5
6
330
0
100
AcDbSymbolTable
 70
     0
  0
ENDTAB
  0
TABLE
  2
UCS
  5
7
330
0
100
AcDbSymbolTable
 70
     0
  0
ENDTAB
  0
TABLE
  2
APPID
  5
9
330
0
100
AcDbSymbolTable
 70
     1
  0
APPID
  5
12
330
9
100
AcDbSymbolTableRecord
100
AcDbRegAppTableRecord
  2
ACAD
 70
     0
  0
ENDTAB
  0
TABLE
  2
DIMSTYLE
  5
A
330
0
100
AcDbSymbolTable
 70
     1
100
AcDbDimStyleTable
  0
DIMSTYLE
105
27
330
A
100
AcDbSymbolTableRecord
100
AcDbDimStyleTableRecord
  2
ISO-25
 70
     0
 41
2.5
 42
0.625
 43
3.75
 44
1.25
 73
     0
 74
     0
 77
     1
 78
     8
140
2.5
141
2.5
143
0.0393700787
147
0.625
171
     3
172
     1
271
     2
272
     2
274
     3
278
    44
283
     0
284
     8
340
11
  0
ENDTAB
  0
TABLE
  2
BLOCK_RECORD
  5
1
330
0
100
AcDbSymbolTable
 70
     7
  0
BLOCK_RECORD
  5
1F
330
1
100
AcDbSymbolTableRecord
100
AcDbBlockTableRecord
  2
*Model_Space
340
22
  0
BLOCK_RECORD
  5
1B
330
1
100
AcDbSymbolTableRecord
100
AcDbBlockTableRecord
  2
*Paper_Space
340
1E
  0
BLOCK_RECORD
  5
5E
330
1
100
AcDbSymbolTableRecord
100
AcDbBlockTableRecord
  2
SEANNOT_GROUP
340
0
102
{BLKREFS
331
5F
102
}
  0
BLOCK_RECORD
  5
65
330
1
100
AcDbSymbolTableRecord
100
AcDbBlockTableRecord
  2
SEANNOT_GROUP1
340
0
102
{BLKREFS
331
66
102
}
  0
BLOCK_RECORD
  5
6B
330
1
100
AcDbSymbolTableRecord
100
AcDbBlockTableRecord
  2
SEANNOT_GROUP2
340
0
102
{BLKREFS
331
6C
102
}
  0
BLOCK_RECORD
  5
75
330
1
100
AcDbSymbolTableRecord
100
AcDbBlockTableRecord
  2
SE
340
0
102
{BLKREFS
331
76
102
}
  0
BLOCK_RECORD
  5
EE
330
1
100
AcDbSymbolTableRecord
100
AcDbBlockTableRecord
  2
SE1
340
0
102
{BLKREFS
331
EF
102
}
  0
BLOCK_RECORD
  5
123
330
1
100
AcDbSymbolTableRecord
100
AcDbBlockTableRecord
  2
SE2
340
0
102
{BLKREFS
331
124
102
}
  0
ENDTAB
  0
ENDSEC
  0
SECTION
  2
BLOCKS
  0
BLOCK
  5
20
330
1F
100
AcDbEntity
  8
0
100
AcDbBlockBegin
  2
*Model_Space
 70
     0
 10
0.0
 20
0.0
 30
0.0
  3
*Model_Space
  1

  0
ENDBLK
  5
21
330
1F
100
AcDbEntity
  8
0
100
AcDbBlockEnd
  0
BLOCK
  5
1C
330
1B
100
AcDbEntity
 67
     1
  8
0
100
AcDbBlockBegin
  2
*Paper_Space
 70
     0
 10
0.0
 20
0.0
 30
0.0
  3
*Paper_Space
  1

  0
ENDBLK
  5
1D
330
1B
100
AcDbEntity
 67
     1
  8
0
100
AcDbBlockEnd
  0
BLOCK
  5
63
330
5E
100
AcDbEntity
  8
0
100
AcDbBlockBegin
  2
SEANNOT_GROUP
 70
     0
 10
0.0
 20
0.0
 30
0.0
  3
SEANNOT_GROUP
  1

  0
LINE
  5
61
330
5E
100
AcDbEntity
  8
Default
  6
CENTER2
 62
     7
100
AcDbLine
 10
69.2749033895
 20
367.5871270862
 30
0.0
 11
29.2749042836
 21
367.5871270862
 31
0.0
  0
LINE
  5
62
330
5E
100
AcDbEntity
  8
Default
  6
CENTER2
 62
     7
100
AcDbLine
 10
49.2749038365
 20
387.5871266392
 30
0.0
 11
49.2749038365
 21
347.5871275333
 31
0.0
  0
ENDBLK
  5
64
330
5E
100
AcDbEntity
  8
0
100
AcDbBlockEnd
  0
BLOCK
  5
69
330
65
100
AcDbEntity
  8
0
100
AcDbBlockBegin
  2
SEANNOT_GROUP1
 70
     0
 10
0.0
 20
0.0
 30
0.0
  3
SEANNOT_GROUP1
  1

  0
LINE
  5
67
330
65
100
AcDbEntity
  8
Default
  6
CENTER2
 62
     7
100
AcDbLine
 10
236.8836849527
 20
367.5871270862
 30
0.0
 11
196.8836858468
 21
367.5871270862
 31
0.0
  0
LINE
  5
68
330
65
100
AcDbEntity
  8
Default
  6
CENTER2
 62
     7
100
AcDbLine
 10
216.8836853997
 20
387.5871266392
 30
0.0
 11
216.8836853997
 21
347.5871275333
 31
0.0
  0
ENDBLK
  5
6A
330
65
100
AcDbEntity
  8
0
100
AcDbBlockEnd
  0
BLOCK
  5
73
330
6B
100
AcDbEntity
  8
0
100
AcDbBlockBegin
  2
SEANNOT_GROUP2
 70
     0
 10
0.0
 20
0.0
 30
0.0
  3
SEANNOT_GROUP2
  1

  0
LINE
  5
6D
330
6B
100
AcDbEntity
  8
Default
  6
CENTER2
 62
     7
100
AcDbLine
 10
69.2749033895
 20
252.6758376367
 30
0.0
 11
29.2749042836
 21
252.6758376367
 31
0.0
  0
LINE
  5
6E
330
6B
100
AcDbEntity
  8
Default
  6
CENTER2
 62
     7
100
AcDbLine
 10
49.2749038365
 20
272.6758371896
 30
0.0
 11
49.2749038365
 21
232.6758380837
 31
0.0
  0
LINE
  5
6F
330
6B
100
AcDbEntity
  8
Default
  6
CENTER2
 62
     7
100
AcDbLine
 10
74.2749032777
 20
252.6758376367
 30
0.0
 11
72.7749038365
 21
252.6758376367
 31
0.0
  0
LINE
  5
70
330
6B
100
AcDbEntity
  8
Default
  6
CENTER2
 62
     7
100
AcDbLine
 10
49.2749038365
 20
277.6758370779
 30
0.0
 11
49.2749038365
 21
276.1758376367
 31
0.0
  0
LINE
  5
71
330
6B
100
AcDbEntity
  8
Default
  6
CENTER2
 62
     7
100
AcDbLine
 10
24.2749043953
 20
252.6758376367
 30
0.0
 11
25.7749038365
 21
252.6758376367
 31
0.0
  0
LINE
  5
72
330
6B
100
AcDbEntity
  8
Default
  6
CENTER2
 62
     7
100
AcDbLine
 10
49.2749038365
 20
227.6758381955
 30
0.0
 11
49.2749038365
 21
229.1758376367
 31
0.0
  0
ENDBLK
  5
74
330
6B
100
AcDbEntity
  8
0
100
AcDbBlockEnd
  0
BLOCK
  5
EC
330
75
100
AcDbEntity
  8
0
100
AcDbBlockBegin
  2
SE
 70
     0
 10
0.0
 20
0.0
 30
0.0
  3
SE
  1

  0
LINE
  5
78
330
75
100
AcDbEntity
  8
$DDT_AUDIT_GENERATED_(77)
  6
Continuous
 62
     7
100
AcDbLine
 10
69.2749038365
 20
479.5871270862
 30
0.0
 11
29.2749038365
 21
479.5871270862
 31
0.0
  0
LINE
  5
79
330
75
100
AcDbEntity
  8
$DDT_AUDIT_GENERATED_(77)
  6
Continuous
 62
     7
100
AcDbLine
 10
97.2749038365
 20
465.2871270862
 30
0.0
 11
97.2749038365
 21
425.2871270862
 31
0.0
  0
ARC
  5
7A
330
75
100
AcDbEntity
  8
$DDT_AUDIT_GENERATED_(77)
  6
Continuous
 62
     7
100
AcDbCircle
 10
-68.1736023384
 20
559.7459325738
 30
0.0
 40
163.9968589831923
100
AcDbArc
 50
315.7386043215
 51
326.9417788282
  0
ARC
  5
7B
330
75
100
AcDbEntity
  8
$DDT_AUDIT_GENERATED_(77)
  6
Continuous
 62
     7
100
AcDbCircle
 10
163.7337685594
 20
327.838546867
 30
0.0
 40
163.9969533532978
100
AcDbArc
 50
123.0582244055
 51
134.2613924448
  0
ARC
  5
7C
330
75
100
AcDbEntity
  8
$DDT_AUDIT_GENERATED_(77)
  6
Continuous
 62
     7
100
AcDbCircle
 10
-68.1736786935
 20
330.8282605089
 30
0.0
 40
163.9969563025018
100
AcDbArc
 50
33.0582245085
 51
44.2613923454
  0
ARC
  5
7D
330
75
100
AcDbEntity
  8
$DDT_AUDIT_GENERATED_(77)
  6
Continuous
 62
     7
100
AcDbCircle
 10
163.7337070027
 20
562.7356303523
 30
0.0
 40
163.9968552797787
100
AcDbArc
 50
225.738604193
 51
236.9417789531
  0
LINE
  5
7E
330
75
100
AcDbEntity
  8
$DDT_AUDIT_GENERATED_(77)
  6
Continuous
 62
     7
100
AcDbLine
 10
74.2749036819
 20
425.2871270862
 30
0.0
 11
97.2749038365
 21
425.2871270862
 31
0.0
  0
LINE
  5
7F
330
75
100
AcDbEntity
  8
$DDT_AUDIT_GENERATED_(77)
  6
Continuous
 62
     7
100
AcDbLine
 10
97.2749038365
 20
465.2871270862
 30
0.0
 11
74.2749036835
 21
465.2871270862
 31
0.0
  0
ARC
  5
80
330
75
100
AcDbEntity
  8
$DDT_AUDIT_GENERATED_(77)
  6
Continuous
 62
     7
100
AcDbCircle
 10
74.2749036934
 20
470.2871269431
 30
0.0
 40
4.999999856872477
100
AcDbArc
 50
180.0000001133
 51
269.9999998867
  0
ARC
  5
81
330
75
100
AcDbEntity
  8
$DDT_AUDIT_GENERATED_(77)
  6
Continuous
 62
     7
100
AcDbCircle
 10
74.2749036919
 20
420.2871272309
 30
0.0
 40
4.9999998553675
100
AcDbArc
 50
90.0000001145
 51
179.9999998855
  0
LINE
  5
82
330
75
100
AcDbEntity
  8
$DDT_AUDIT_GENERATED_(77)
  6
Continuous
 62
     7
100
AcDbLine
 10
69.2749038365
 20
470.2871269332
 30
0.0
 11
69.2749038365
 21
479.5871270862
 31
0.0
  0
LINE
  5
83
330
75
100
AcDbEntity
  8
$DDT_AUDIT_GENERATED_(77)
  6
Continuous
 62
     7
100
AcDbLine
 10
69.2749038365
 20
375.5871270862
 30
0.0
 11
69.2749038365
 21
420.2871272409
 31
0.0
  0
LINE
  5
84
330
75
100
AcDbEntity
  8
$DDT_AUDIT_GENERATED_(77)
  6
Continuous
 62
     7
100
AcDbLine
 10
29.2749038365
 20
479.5871270862
 30
0.0
 11
29.2749038365
 21
375.5871270862
 31
0.0
  0
LINE
  5
86
330
75
100
AcDbEntity
  8
$DDT_AUDIT_GENERATED_(85)
  6
Continuous
 62
     7
100
AcDbLine
 10
104.9122820512
 20
433.3371270862
 30
0.0
 11
104.9122820512
 21
433.6559302686
 31
0.0
  0
ARC
  5
87
330
75
100
AcDbEntity
  8
$DDT_AUDIT_GENERATED_(85)
  6
Continuous
 62
     7
100
AcDbCircle
 10
88.8749038365
 20
445.2871270862
 30
0.0
 40
20.0
100
AcDbArc
 50
294.8345874897
 51
323.308942622
  0
ARC
  5
88
330
75
100
AcDbEntity
  8
$DDT_AUDIT_GENERATED_(85)
  6
Continuous
 62
     7
100
AcDbCircle
 10
88.8749038365
 20
445.2871270862
 30
0.0
 40
20.0
100
AcDbArc
 50
61.9995194887
 51
65.1654125103
  0
ELLIPSE
  5
8A
330
75
100
AcDbEntity
  8
$DDT_AUDIT_GENERATED_(89)
  6
Continuous
 62
     7
100
AcDbEllipse
 10
100.219192994
 20
445.5965804076
 30
0.0
 11
-10.08806667287562
 21
19.72626727180785
 31
0.0
210
0.0
220
0.0
230
0.9999999999999998
 40
0.0577020563
 41
-3.173008474243396
 42
-3.169148246769711
  0
ELLIPSE
  5
8B
330
75
100
AcDbEntity
  8
$DDT_AUDIT_GENERATED_(89)
  6
Continuous
 62
     7
100
AcDbEllipse
 10
99.9532548787
 20
445.4590967729
 30
0.0
 11
-10.08066140687232
 21
19.42610676942111
 31
0.0
210
0.0
220
0.0
230
1.0
 40
0.0582016124
 41
1.591265143765858
 42
2.931384914326287
  0
ELLIPSE
  5
8C
330
75
100
AcDbEntity
  8
$DDT_AUDIT_GENERATED_(89)
  6
Continuous
 62
     7
100
AcDbEllipse
 10
98.7711957568
 20
445.5573255065
 30
0.0
 11
0.5338667192814686
 21
-19.69276482178273
 31
0.0
210
0.0
220
0.0
230
0.9999999999999997
 40
0.0038179123
 41
3.165001360863131
 42
4.700540836486804
  0
ARC
  5
8D
330
75
100
AcDbEntity
  8
$DDT_AUDIT_GENERATED_(89)
  6
Continuous
 62
     7
100
AcDbCircle
 10
101.7072276264
 20
445.8677023192
 30
0.0
 40
3.018573525662584
100
AcDbArc
 50
181.5015309749
 51
207.4780235776
  0
SPLINE
  5
8E
330
75
100
AcDbEntity
  8
$DDT_AUDIT_GENERATED_(89)
  6
Continuous
 62
     7
100
AcDbSpline
210
0.0
220
0.0
230
1.0
 70
     8
 71
     3
 72
     8
 73
     4
 74
     0
 42
0.0000000005165904
 43
0.0000000001
 40
0.9212398093290324
 40
0.9212398093290324
 40
0.9212398093290324
 40
0.9212398093290324
 40
0.9938825045167989
 40
0.9938825045167989
 40
0.9938825045167989
 40
0.9938825045167989
 10
123.6578722771906
 20
426.2239439643511
 30
0.0
 10
123.2315148022589
 20
426.2121283490347
 30
0.0
 10
122.7498527629647
 20
426.2040183960692
 30
0.0
 10
122.252061546517
 20
426.1916999564696
 30
0.0
  0
ELLIPSE
  5
8F
330
75
100
AcDbEntity
  8
$DDT_AUDIT_GENERATED_(89)
  6
Continuous
 62
     7
100
AcDbEllipse
 10
128.2929078855
 20
446.3576529235
 30
0.0
 11
0.5239431136390693
 21
-19.3267123501792
 31
0.0
210
0.0
220
0.0
230
0.9999999999999997
 40
0.0038179123
 41
-3.220621900687171
 42
-3.176198137365113
  0
ELLIPSE
  5
90
330
75
100
AcDbEntity
  8
$DDT_AUDIT_GENERATED_(89)
  6
Continuous
 62
     7
100
AcDbEllipse
 10
128.2929078855
 20
446.3576529235
 30
0.0
 11
0.5239431136390693
 21
-19.3267123501792
 31
0.0
210
0.0
220
0.0
230
0.9999999999999997
 40
0.0038179123
 41
3.192108791464966
 42
6.231483756424272
  0
LINE
  5
91
330
75
100
AcDbEntity
  8
$DDT_AUDIT_GENERATED_(89)
  6
Continuous
 62
     7
100
AcDbLine
 10
118.586869092
 20
463.4608463468
 30
0.0
 11
123.7055503786
 21
463.5996127216
 31
0.0
  0
LINE
  5
92
330
75
100
AcDbEntity
  8
$DDT_AUDIT_GENERATED_(89)
  6
Continuous
 62
     7
100
AcDbLine
 10
118.2153957113
 20
464.843033506
 30
0.0
 11
116.8507334637
 21
514.201699625
 31
0.0
  0
ELLIPSE
  5
93
330
75
100
AcDbEntity
  8
$DDT_AUDIT_GENERATED_(89)
  6
Continuous
 62
     7
100
AcDbEllipse
 10
117.5504712762
 20
514.2206693702
 30
0.0
 11
0.7000000000000062
 21
-5.551115123125783E-14
 31
0.0
210
0.0
220
0.0
230
1.0
 40
0.9902211442
 41
3.141592653590037
 42
3.168963327344478
  0
ELLIPSE
  5
94
330
75
100
AcDbEntity
  8
$DDT_AUDIT_GENERATED_(89)
  6
Continuous
 62
     7
100
AcDbEllipse
 10
124.7614573656
 20
446.2619160414
 30
0.0
 11
0.5690965027873446
 21
-20.99228737347426
 31
0.0
210
0.0
220
0.0
230
1.0
 40
0.0038179123
 41
3.226677681809077
 42
3.662051206466805
  0
ELLIPSE
  5
95
330
75
100
AcDbEntity
  8
$DDT_AUDIT_GENERATED_(89)
  6
Continuous
 62
     7
100
AcDbEllipse
 10
124.7614573656
 20
446.2619160414
 30
0.0
 11
0.5690965027873446
 21
-20.99228737347426
 31
0.0
210
0.0
220
0.0
230
1.0
 40
0.0038179123
 41
-3.253854132313628
 42
-3.17287462869883
  0
LINE
  5
96
330
75
100
AcDbEntity
  8
$DDT_AUDIT_GENERATED_(89)
  6
Continuous
 62
     7
100
AcDbLine
 10
124.2163199559
 20
467.0672211358
 30
0.0
 11
122.8484861426
 21
516.5406000703
 31
0.0
  0
LINE
  5
97
330
75
100
AcDbEntity
  8
$DDT_AUDIT_GENERATED_(89)
  6
Continuous
 62
     7
100
AcDbLine
 10
123.6532363895
 20
426.2245243461
 30
0.0
 11
128.1359835714
 21
426.346050681
 31
0.0
  0
LINE
  5
98
330
75
100
AcDbEntity
  8
$DDT_AUDIT_GENERATED_(89)
  6
Continuous
 62
     7
100
AcDbLine
 10
110.272068841
 20
425.8617637036
 30
0.0
 11
120.3501629121
 21
426.1349787177
 31
0.0
  0
LINE
  5
99
330
75
100
AcDbEntity
  8
$DDT_AUDIT_GENERATED_(89)
  6
Continuous
 62
     7
100
AcDbLine
 10
116.7222698476
 20
466.0513234131
 30
0.0
 11
98.5290867214
 21
465.5581100387
 31
0.0
  0
LINE
  5
9A
330
75
100
AcDbEntity
  8
$DDT_AUDIT_GENERATED_(89)
  6
Continuous
 62
     7
100
AcDbLine
 10
127.0519902328
 20
466.3313599638
 30
0.0
 11
125.2190861428
 21
466.2816703188
 31
0.0
  0
SPLINE
  5
9B
330
75
100
AcDbEntity
  8
$DDT_AUDIT_GENERATED_(89)
  6
Continuous
 62
     7
100
AcDbSpline
210
0.0
220
0.0
230
1.0
 70
     8
 71
     3
 72
    12
 73
     8
 74
     0
 42
0.0000000127697013
 43
0.0000000001
 40
0.0
 40
0.0
 40
0.0
 40
0.0
 40
0.2548073133442567
 40
0.6147419723808868
 40
0.8140122657835204
 40
0.9786363662174565
 40
1.0
 40
1.0
 40
1.0
 40
1.0
 10
109.6197883297858
 20
426.2777350346766
 30
0.0
 10
109.6766789356639
 20
426.2158912954672
 30
0.0
 10
109.7940377180602
 20
426.0916673600883
 30
0.0
 10
109.9409323818611
 20
425.968830228399
 30
0.0
 10
110.086088266502
 20
425.8967474667062
 30
0.0
 10
110.1852098329091
 20
425.8562721620761
 30
0.0
 10
110.2442623679057
 20
425.8641922430593
 30
0.0
 10
110.2521682710523
 20
425.8652484010988
 30
0.0
  0
SPLINE
  5
9C
330
75
100
AcDbEntity
  8
$DDT_AUDIT_GENERATED_(89)
  6
Continuous
 62
     7
100
AcDbSpline
210
0.0
220
0.0
230
1.0
 70
     8
 71
     3
 72
    15
 73
    11
 74
     0
 42
0.0000000229350801
 43
0.0000000001
 40
0.0
 40
0.0
 40
0.0
 40
0.0
 40
0.0215249016053738
 40
0.1875361984248315
 40
0.3198079227343696
 40
0.4341290994907365
 40
0.5355710967533458
 40
0.6360927921782246
 40
0.7723180981651588
 40
1.0
 40
1.0
 40
1.0
 40
1.0
 10
98.53232874732441
 20
465.5558065219756
 30
0.0
 10
98.52700685913182
 20
465.5565734904578
 30
0.0
 10
98.48704577115267
 20
465.5622242129098
 30
0.0
 10
98.41184538597335
 20
465.5355407025772
 30
0.0
 10
98.33561857854052
 20
465.4856578916084
 30
0.0
 10
98.28781660874877
 20
465.4291107963131
 30
0.0
 10
98.26189822570797
 20
465.380688020176
 30
0.0
 10
98.24840854221462
 20
465.3431096341653
 30
0.0
 10
98.24100213711074
 20
465.3117470415256
 30
0.0
 10
98.2391739636815
 20
465.3006021735821
 30
0.0
 10
98.23852666266431
 20
465.2936593674299
 30
0.0
  0
LINE
  5
9D
330
75
100
AcDbEntity
  8
$DDT_AUDIT_GENERATED_(89)
  6
Continuous
 62
     7
100
AcDbLine
 10
122.1297784467
 20
517.2213732376
 30
0.0
 11
117.5315013928
 21
517.0967149122
 31
0.0
  0
ARC
  5
9E
330
75
100
AcDbEntity
  8
$DDT_AUDIT_GENERATED_(89)
  6
Continuous
 62
     7
100
AcDbCircle
 10
-271.3401258073
 20
435.523685294
 30
0.0
 40
400.2499999999954
100
AcDbArc
 50
358.7928321909
 51
4.312960204
  0
SPLINE
  5
9F
330
75
100
AcDbEntity
  8
$DDT_AUDIT_GENERATED_(89)
  6
Continuous
 62
     7
100
AcDbSpline
210
0.0
220
0.0
230
1.0
 70
     8
 71
     3
 72
    19
 73
    15
 74
     0
 42
0.0000000087531659
 43
0.0000000001
 40
0.0
 40
0.0
 40
0.0
 40
0.0
 40
0.0181749836516331
 40
0.1156656102873733
 40
0.1969357962604813
 40
0.2676517278243792
 40
0.3296406018956815
 40
0.3834466767317155
 40
0.4282597463303797
 40
0.4761766945128015
 40
0.5512193052712988
 40
0.6639097616555935
 40
0.8613585919854853
 40
1.0
 40
1.0
 40
1.0
 40
1.0
 10
128.1352487225237
 20
426.3513276648516
 30
0.0
 10
128.1504014550721
 20
426.3498577854427
 30
0.0
 10
128.2333969649763
 20
426.3421436136513
 30
0.0
 10
128.3866251667079
 20
426.3914313328847
 30
0.0
 10
128.5495711153497
 20
426.4858383035225
 30
0.0
 10
128.6648747035735
 20
426.6014885345776
 30
0.0
 10
128.7395232532522
 20
426.7172089472282
 30
0.0
 10
128.7810591745882
 20
426.8175635103805
 30
0.0
 10
128.8007231259718
 20
426.8897544560533
 30
0.0
 10
128.8108438967112
 20
426.9437525209185
 30
0.0
 10
128.8159814670974
 20
426.9866424174381
 30
0.0
 10
128.818956072538
 20
427.0268475339736
 30
0.0
 10
128.8203803758687
 20
427.0585913872682
 30
0.0
 10
128.8207423214794
 20
427.0857106917847
 30
0.0
 10
128.820863952003
 20
427.0985008499555
 30
0.0
  0
ARC
  5
A0
330
75
100
AcDbEntity
  8
$DDT_AUDIT_GENERATED_(89)
  6
Continuous
 62
     7
100
AcDbCircle
 10
127.0849592636
 20
465.6379014021
 30
0.0
 40
0.6865753341719281
100
AcDbArc
 50
6.6177769055
 51
92.6553055906
  0
ARC
  5
A1
330
75
100
AcDbEntity
  8
$DDT_AUDIT_GENERATED_(89)
  6
Continuous
 62
     7
100
AcDbCircle
 10
125.1756930121
 20
467.2702461996
 30
0.0
 40
0.9809427700978816
100
AcDbArc
 50
188.70134297
 51
272.5581042485
  0
ARC
  5
A2
330
75
100
AcDbEntity
  8
$DDT_AUDIT_GENERATED_(89)
  6
Continuous
 62
     7
100
AcDbCircle
 10
116.6978838828
 20
467.5407629991
 30
0.0
 40
1.481276641250052
100
AcDbArc
 50
270.9006938928
 51
348.72843256
  0
ARC
  5
A3
330
75
100
AcDbEntity
  8
$DDT_AUDIT_GENERATED_(89)
  6
Continuous
 62
     7
100
AcDbCircle
 10
117.5504712762
 20
516.3969719997
 30
0.0
 40
0.7000000000000143
100
AcDbArc
 50
91.5528961974
 51
180.0
  0
LINE
  5
A4
330
75
100
AcDbEntity
  8
$DDT_AUDIT_GENERATED_(89)
  6
Continuous
 62
     7
100
AcDbLine
 10
116.8504712762
 20
516.3969719997
 30
0.0
 11
116.8504712762
 21
514.2206693702
 31
0.0
  0
ARC
  5
A5
330
75
100
AcDbEntity
  8
$DDT_AUDIT_GENERATED_(89)
  6
Continuous
 62
     7
100
AcDbCircle
 10
122.1487483301
 20
516.5216303251
 30
0.0
 40
0.7000000000000116
100
AcDbArc
 50
1.5837031213
 51
91.5528961974
  0
LINE
  5
A7
330
75
100
AcDbEntity
  8
$DDT_AUDIT_GENERATED_(A6)
  6
Continuous
 62
     7
100
AcDbLine
 10
73.6749038365
 20
375.5871270862
 30
0.0
 11
74.7749038365
 21
375.5871270862
 31
0.0
  0
LINE
  5
A8
330
75
100
AcDbEntity
  8
$DDT_AUDIT_GENERATED_(A6)
  6
Continuous
 62
     7
100
AcDbLine
 10
23.7749038365
 20
375.5871270862
 30
0.0
 11
24.8749038365
 21
375.5871270862
 31
0.0
  0
LINE
  5
A9
330
75
100
AcDbEntity
  8
$DDT_AUDIT_GENERATED_(A6)
  6
Continuous
 62
     7
100
AcDbLine
 10
24.8749038365
 20
375.5871270862
 30
0.0
 11
73.6749038365
 21
375.5871270862
 31
0.0
  0
LINE
  5
AA
330
75
100
AcDbEntity
  8
$DDT_AUDIT_GENERATED_(A6)
  6
Continuous
 62
     7
100
AcDbLine
 10
23.2749038365
 20
375.0871270862
 30
0.0
 11
23.2749038365
 21
367.5871270862
 31
0.0
  0
LINE
  5
AB
330
75
100
AcDbEntity
  8
$DDT_AUDIT_GENERATED_(A6)
  6
Continuous
 62
     7
100
AcDbLine
 10
75.2749038365
 20
375.0871270862
 30
0.0
 11
75.2749038365
 21
367.5871270862
 31
0.0
  0
ARC
  5
AC
330
75
100
AcDbEntity
  8
$DDT_AUDIT_GENERATED_(A6)
  6
Continuous
 62
     7
100
AcDbCircle
 10
23.7749038365
 20
375.0871270862
 30
0.0
 40
0.5000000000000004
100
AcDbArc
 50
90.0
 51
180.0
  0
ARC
  5
AD
330
75
100
AcDbEntity
  8
$DDT_AUDIT_GENERATED_(A6)
  6
Continuous
 62
     7
100
AcDbCircle
 10
74.7749038365
 20
375.0871270862
 30
0.0
 40
0.499999999999997
100
AcDbArc
 50
0.0
 51
90.0
  0
LINE
  5
AE
330
75
100
AcDbEntity
  8
$DDT_AUDIT_GENERATED_(A6)
  6
Continuous
 62
     7
100
AcDbLine
 10
24.8749038365
 20
367.5871270862
 30
0.0
 11
23.2749038365
 21
367.5871270862
 31
0.0
  0
LINE
  5
AF
330
75
100
AcDbEntity
  8
$DDT_AUDIT_GENERATED_(A6)
  6
Continuous
 62
     7
100
AcDbLine
 10
75.2749038365
 20
367.5871270862
 30
0.0
 11
73.6749038365
 21
367.5871270862
 31
0.0
  0
LINE
  5
B0
330
75
100
AcDbEntity
  8
$DDT_AUDIT_GENERATED_(A6)
  6
Continuous
 62
     7
100
AcDbLine
 10
73.6749038365
 20
367.5871270862
 30
0.0
 11
24.8749038365
 21
367.5871270862
 31
0.0
  0
ELLIPSE
  5
B2
330
75
100
AcDbEntity
  8
$DDT_AUDIT_GENERATED_(B1)
  6
Continuous
 62
     7
100
AcDbEllipse
 10
121.9942637564
 20
426.627647664
 30
0.0
 11
-3.330859641330925
 21
-0.3575948122565703
 31
0.0
210
0.0
220
0.0
230
1.0
 40
0.138724885
 41
0.4696903420988817
 42
1.633753799824044
  0
LINE
  5
B4
330
75
100
AcDbEntity
  8
$DDT_AUDIT_GENERATED_(B3)
  6
Continuous
 62
     7
100
AcDbLine
 10
64.2749038365
 20
556.0515170721
 30
0.0
 11
64.2749038365
 21
479.5871270862
 31
0.0
  0
LINE
  5
B5
330
75
100
AcDbEntity
  8
$DDT_AUDIT_GENERATED_(B3)
  6
Continuous
 62
     7
100
AcDbLine
 10
34.2749038365
 20
479.5871270862
 30
0.0
 11
34.2749038365
 21
556.0515170721
 31
0.0
  0
LINE
  5
B6
330
75
100
AcDbEntity
  8
$DDT_AUDIT_GENERATED_(B3)
  6
Continuous
 62
     7
100
AcDbLine
 10
34.2749038365
 20
566.7725819264
 30
0.0
 11
34.2749038365
 21
598.5871270862
 31
0.0
  0
LINE
  5
B7
330
75
100
AcDbEntity
  8
$DDT_AUDIT_GENERATED_(B3)
  6
Continuous
 62
     7
100
AcDbLine
 10
34.7749038365
 20
599.0871270862
 30
0.0
 11
63.7749038365
 21
599.0871270862
 31
0.0
  0
ARC
  5
B8
330
75
100
AcDbEntity
  8
$DDT_AUDIT_GENERATED_(B3)
  6
Continuous
 62
     7
100
AcDbCircle
 10
34.7749038365
 20
598.5871270862
 30
0.0
 40
0.5000000000000004
100
AcDbArc
 50
90.0
 51
180.0
  0
LINE
  5
B9
330
75
100
AcDbEntity
  8
$DDT_AUDIT_GENERATED_(B3)
  6
Continuous
 62
     7
100
AcDbLine
 10
64.2749038365
 20
566.7725819264
 30
0.0
 11
64.2749038365
 21
558.2047544752
 31
0.0
  0
LINE
  5
BA
330
75
100
AcDbEntity
  8
$DDT_AUDIT_GENERATED_(B3)
  6
Continuous
 62
     7
100
AcDbLine
 10
64.2749038365
 20
598.5871270862
 30
0.0
 11
64.2749038365
 21
566.7725819264
 31
0.0
  0
ARC
  5
BB
330
75
100
AcDbEntity
  8
$DDT_AUDIT_GENERATED_(B3)
  6
Continuous
 62
     7
100
AcDbCircle
 10
63.7749038365
 20
598.5871270862
 30
0.0
 40
0.5000000000000004
100
AcDbArc
 50
0.0
 51
90.0
  0
LINE
  5
BC
330
75
100
AcDbEntity
  8
$DDT_AUDIT_GENERATED_(B3)
  6
Continuous
 62
     7
100
AcDbLine
 10
64.2749038365
 20
558.2047544752
 30
0.0
 11
64.2749038365
 21
556.0515170721
 31
0.0
  0
LINE
  5
BD
330
75
100
AcDbEntity
  8
$DDT_AUDIT_GENERATED_(B3)
  6
Continuous
 62
     7
100
AcDbLine
 10
34.2749038365
 20
558.2047544752
 30
0.0
 11
34.2749038365
 21
566.7725819264
 31
0.0
  0
LINE
  5
BE
330
75
100
AcDbEntity
  8
$DDT_AUDIT_GENERATED_(B3)
  6
Continuous
 62
     7
100
AcDbLine
 10
34.2749038365
 20
556.0515170721
 30
0.0
 11
34.2749038365
 21
558.2047544752
 31
0.0
  0
LINE
  5
BF
330
75
100
AcDbEntity
  8
$DDT_AUDIT_GENERATED_(B3)
  6
Continuous
 62
     7
100
AcDbLine
 10
34.7749038365
 20
558.2915785641
 30
0.0
 11
63.7749038365
 21
558.2915785641
 31
0.0
  0
LINE
  5
C0
330
75
100
AcDbEntity
  8
$DDT_AUDIT_GENERATED_(B3)
  6
Continuous
 62
     7
100
AcDbLine
 10
37.0249038365
 20
557.3205544201
 30
0.0
 11
37.0249038365
 21
557.1658396868
 31
0.0
  0
LINE
  5
C1
330
75
100
AcDbEntity
  8
$DDT_AUDIT_GENERATED_(B3)
  6
Continuous
 62
     7
100
AcDbLine
 10
61.5249038365
 20
557.1658396868
 30
0.0
 11
61.5249038365
 21
557.3195840129
 31
0.0
  0
ARC
  5
C2
330
75
100
AcDbEntity
  8
$DDT_AUDIT_GENERATED_(B3)
  6
Continuous
 62
     7
100
AcDbCircle
 10
63.7749038365
 20
556.0515170721
 30
0.0
 40
0.5000000000000004
100
AcDbArc
 50
270.0
 51
360.0
  0
ARC
  5
C3
330
75
100
AcDbEntity
  8
$DDT_AUDIT_GENERATED_(B3)
  6
Continuous
 62
     7
100
AcDbCircle
 10
34.7749038365
 20
556.0515170721
 30
0.0
 40
0.5000000000000004
100
AcDbArc
 50
180.0
 51
270.0
  0
LINE
  5
C4
330
75
100
AcDbEntity
  8
$DDT_AUDIT_GENERATED_(B3)
  6
Continuous
 62
     7
100
AcDbLine
 10
34.7749038365
 20
555.5515170721
 30
0.0
 11
63.7749038365
 21
555.5515170721
 31
0.0
  0
SPLINE
  5
C5
330
75
100
AcDbEntity
  8
$DDT_AUDIT_GENERATED_(B3)
  6
Continuous
 62
     7
100
AcDbSpline
210
0.0
220
0.0
230
1.0
 70
     8
 71
     3
 72
    16
 73
    12
 74
     0
 42
0.0000000034502992
 43
0.0000000001
 40
0.0
 40
0.0
 40
0.0
 40
0.0
 40
0.075017150734721
 40
0.1852089168405716
 40
0.2946252362938004
 40
0.4027543477158443
 40
0.5087397486973934
 40
0.6006623888084007
 40
0.6841644694449011
 40
0.7567834016407874
 40
0.7802773915238936
 40
0.7802773915238936
 40
0.7802773915238936
 40
0.7802773915238936
 10
59.45182953700851
 20
557.6018979894637
 30
0.0
 10
59.57361977346786
 20
557.5961363559425
 30
0.0
 10
59.82833331717462
 20
557.5837293207803
 30
0.0
 10
60.24329064977245
 20
557.5487190608529
 30
0.0
 10
60.65484497647537
 20
557.5014348776882
 30
0.0
 10
61.01520351612797
 20
557.4452702420332
 30
0.0
 10
61.29948622352241
 20
557.3861988790081
 30
0.0
 10
61.50300854337802
 20
557.3301035507633
 30
0.0
 10
61.62685865152545
 20
557.2844717621879
 30
0.0
 10
61.67127925506252
 20
557.2613813897244
 30
0.0
 10
61.67588090265644
 20
557.2582257618174
 30
0.0
 10
61.67584751811764
 20
557.2582333948035
 30
0.0
  0
ARC
  5
C6
330
75
100
AcDbEntity
  8
$DDT_AUDIT_GENERATED_(B3)
  6
Continuous
 62
     7
100
AcDbCircle
 10
58.5808713261
 20
541.3294492242
 30
0.0
 40
16.29574045639751
100
AcDbArc
 50
86.9362534565
 51
90.1967819293
  0
LINE
  5
C7
330
75
100
AcDbEntity
  8
$DDT_AUDIT_GENERATED_(B3)
  6
Continuous
 62
     7
100
AcDbLine
 10
40.0249038365
 20
557.6250935706
 30
0.0
 11
58.5249038365
 21
557.6250935706
 31
0.0
  0
ARC
  5
C8
330
75
100
AcDbEntity
  8
$DDT_AUDIT_GENERATED_(B3)
  6
Continuous
 62
     7
100
AcDbCircle
 10
40.0170623473
 20
538.5107866215
 30
0.0
 40
19.1143085575379
100
AcDbArc
 50
89.9764948729
 51
92.90509898
  0
SPLINE
  5
C9
330
75
100
AcDbEntity
  8
$DDT_AUDIT_GENERATED_(B3)
  6
Continuous
 62
     7
100
AcDbSpline
210
0.0
220
0.0
230
1.0
 70
     8
 71
     3
 72
    16
 73
    12
 74
     0
 42
0.0000000035169332
 43
0.0000000001
 40
0.2221467806752108
 40
0.2221467806752108
 40
0.2221467806752108
 40
0.2221467806752108
 40
0.2421024803905802
 40
0.3097131840603798
 40
0.3882361482145604
 40
0.4775590600055631
 40
0.5754652338675349
 40
0.6792025665890131
 40
0.7865536545352949
 40
0.896060391991857
 40
1.0
 40
1.0
 40
1.0
 40
1.0
 10
36.87394194231452
 20
557.2582445939082
 30
0.0
 10
36.87391268692008
 20
557.2582370603614
 30
0.0
 10
36.87738283022689
 20
557.2606058535283
 30
0.0
 10
36.91378284656398
 20
557.2801168638662
 30
0.0
 10
37.02149066784337
 20
557.3216299519129
 30
0.0
 10
37.20104626880604
 20
557.3737761712496
 30
0.0
 10
37.45516102073388
 20
557.4300873393827
 30
0.0
 10
37.78048766519684
 20
557.4851048151854
 30
0.0
 10
38.16447696470389
 20
557.534004529742
 30
0.0
 10
38.5990565956568
 20
557.5748186786005
 30
0.0
 10
38.88381389979639
 20
557.5913111557005
 30
0.0
 10
39.0483144035061
 20
557.6005304399405
 30
0.0
  0
LINE
  5
CB
330
75
100
AcDbEntity
  8
$DDT_AUDIT_GENERATED_(CA)
  6
Continuous
 62
     7
100
AcDbLine
 10
54.2749038365
 20
439.6048400961
 30
0.0
 11
54.2749038365
 21
441.0901718124
 31
0.0
  0
LINE
  5
CD
330
75
100
AcDbEntity
  8
$DDT_AUDIT_GENERATED_(CC)
  6
Continuous
 62
     7
100
AcDbLine
 10
56.8320835135
 20
557.3687497926
 30
0.0
 11
41.7177241596
 21
557.3687497926
 31
0.0
  0
ELLIPSE
  5
CE
330
75
100
AcDbEntity
  8
$DDT_AUDIT_GENERATED_(CC)
  6
Continuous
 62
     7
100
AcDbEllipse
 10
58.0249038365
 20
557.559762788
 30
0.0
 11
2.749999999999996
 21
2.775557561562892E-14
 31
0.0
210
0.0
220
0.0
230
1.0
 40
0.1736481777
 41
4.712388980384688
 42
6.136075844902106
  0
ELLIPSE
  5
CF
330
75
100
AcDbEntity
  8
$DDT_AUDIT_GENERATED_(CC)
  6
Continuous
 62
     7
100
AcDbEllipse
 10
58.0249038365
 20
557.559762788
 30
0.0
 11
3.049999999999999
 21
0.0
 31
0.0
210
0.0
220
0.0
230
1.0
 40
0.1736481777
 41
4.71238898038469
 42
6.071904355968241
  0
LINE
  5
D0
330
75
100
AcDbEntity
  8
$DDT_AUDIT_GENERATED_(CC)
  6
Continuous
 62
     7
100
AcDbLine
 10
57.2922115288
 20
557.5750409688
 30
0.0
 11
57.1257952524
 21
557.6250935706
 31
0.0
  0
LINE
  5
D1
330
75
100
AcDbEntity
  8
$DDT_AUDIT_GENERATED_(CC)
  6
Continuous
 62
     7
100
AcDbLine
 10
58.8767701357
 20
557.573179172
 30
0.0
 11
58.8767701357
 21
557.6211042195
 31
0.0
  0
LINE
  5
D2
330
75
100
AcDbEntity
  8
$DDT_AUDIT_GENERATED_(CC)
  6
Continuous
 62
     7
100
AcDbLine
 10
58.6230375374
 20
557.561122454
 30
0.0
 11
58.6230375374
 21
557.6244412635
 31
0.0
  0
LINE
  5
D3
330
75
100
AcDbEntity
  8
$DDT_AUDIT_GENERATED_(CC)
  6
Continuous
 62
     7
100
AcDbLine
 10
57.7847114577
 20
557.0822302994
 30
0.0
 11
56.8320835135
 21
557.3687497926
 31
0.0
  0
LINE
  5
D4
330
75
100
AcDbEntity
  8
$DDT_AUDIT_GENERATED_(CC)
  6
Continuous
 62
     7
100
AcDbLine
 10
42.0641343211
 20
557.264560886
 30
0.0
 11
56.485673352
 21
557.264560886
 31
0.0
  0
LINE
  5
D5
330
75
100
AcDbEntity
  8
$DDT_AUDIT_GENERATED_(CC)
  6
Continuous
 62
     7
100
AcDbLine
 10
41.4240124206
 20
557.6250935706
 30
0.0
 11
41.2575961442
 21
557.5750409688
 31
0.0
  0
ELLIPSE
  5
D6
330
75
100
AcDbEntity
  8
$DDT_AUDIT_GENERATED_(CC)
  6
Continuous
 62
     7
100
AcDbEllipse
 10
41.2575961442
 20
557.6999989154
 30
0.0
 11
0.09826517420549392
 21
0.1086094382236336
 31
0.0
210
0.0
220
0.0
230
1.0
 40
0.7391071595
 41
2.474077460631909
 42
4.027420495051826
  0
ELLIPSE
  5
D7
330
75
100
AcDbEntity
  8
$DDT_AUDIT_GENERATED_(CC)
  6
Continuous
 62
     7
100
AcDbEllipse
 10
40.5249038365
 20
557.559762788
 30
0.0
 11
2.750000000000004
 21
0.0
 31
0.0
210
0.0
220
0.0
230
1.0
 40
0.1736481777
 41
3.141592653589793
 42
4.712388980384692
  0
ELLIPSE
  5
D8
330
75
100
AcDbEntity
  8
$DDT_AUDIT_GENERATED_(CC)
  6
Continuous
 62
     7
100
AcDbEllipse
 10
40.5249038365
 20
557.559762788
 30
0.0
 11
-3.049999999999999
 21
0.0
 31
0.0
210
0.0
220
0.0
230
1.0
 40
0.1736481777
 41
0.2128730927576425
 42
1.570796326794899
  0
LINE
  5
D9
330
75
100
AcDbEntity
  8
$DDT_AUDIT_GENERATED_(CC)
  6
Continuous
 62
     7
100
AcDbLine
 10
40.5249038365
 20
557.0301358461
 30
0.0
 11
41.2847114577
 21
557.0301358461
 31
0.0
  0
LINE
  5
DA
330
75
100
AcDbEntity
  8
$DDT_AUDIT_GENERATED_(CC)
  6
Continuous
 62
     7
100
AcDbLine
 10
41.7177241596
 20
557.3687497926
 30
0.0
 11
40.7650962154
 21
557.0822302994
 31
0.0
  0
LINE
  5
DB
330
75
100
AcDbEntity
  8
$DDT_AUDIT_GENERATED_(CC)
  6
Continuous
 62
     7
100
AcDbLine
 10
40.7650962154
 20
557.0822302994
 30
0.0
 11
40.5249038365
 21
557.0822302994
 31
0.0
  0
LINE
  5
DC
330
75
100
AcDbEntity
  8
$DDT_AUDIT_GENERATED_(CC)
  6
Continuous
 62
     7
100
AcDbLine
 10
39.9267701357
 20
557.561122454
 30
0.0
 11
39.9267701357
 21
557.623989454
 31
0.0
  0
ARC
  5
DD
330
75
100
AcDbEntity
  8
$DDT_AUDIT_GENERATED_(CC)
  6
Continuous
 62
     7
100
AcDbCircle
 10
39.8072514368
 20
557.563116387
 30
0.0
 40
0.119535330159057
100
AcDbArc
 50
266.475920237
 51
359.0442219322
  0
LINE
  5
DE
330
75
100
AcDbEntity
  8
$DDT_AUDIT_GENERATED_(CC)
  6
Continuous
 62
     7
100
AcDbLine
 10
40.7650962154
 20
557.0822302994
 30
0.0
 11
40.7650962154
 21
557.6250935706
 31
0.0
  0
LINE
  5
DF
330
75
100
AcDbEntity
  8
$DDT_AUDIT_GENERATED_(CC)
  6
Continuous
 62
     7
100
AcDbLine
 10
39.6730375374
 20
557.573179172
 30
0.0
 11
39.6730375374
 21
557.6211346714
 31
0.0
  0
LINE
  5
E0
330
75
100
AcDbEntity
  8
$DDT_AUDIT_GENERATED_(CC)
  6
Continuous
 62
     7
100
AcDbLine
 10
39.9267701357
 20
557.5611224553
 30
0.0
 11
39.9288983856
 21
557.6811163976
 31
0.0
  0
ARC
  5
E1
330
75
100
AcDbEntity
  8
$DDT_AUDIT_GENERATED_(CC)
  6
Continuous
 62
     7
100
AcDbCircle
 10
39.8068528404
 20
557.577512068
 30
0.0
 40
0.1338854334778947
100
AcDbArc
 50
181.8545707534
 51
267.0248625304
  0
LINE
  5
E2
330
75
100
AcDbEntity
  8
$DDT_AUDIT_GENERATED_(CC)
  6
Continuous
 62
     7
100
AcDbLine
 10
42.0641343211
 20
557.264560886
 30
0.0
 11
41.2847114577
 21
557.0301358461
 31
0.0
  0
LINE
  5
E3
330
75
100
AcDbEntity
  8
$DDT_AUDIT_GENERATED_(CC)
  6
Continuous
 62
     7
100
AcDbLine
 10
58.0249038365
 20
557.0301358461
 30
0.0
 11
57.2650962154
 21
557.0301358461
 31
0.0
  0
LINE
  5
E4
330
75
100
AcDbEntity
  8
$DDT_AUDIT_GENERATED_(CC)
  6
Continuous
 62
     7
100
AcDbLine
 10
58.0249038365
 20
557.0822302994
 30
0.0
 11
57.7847114577
 21
557.0822302994
 31
0.0
  0
LINE
  5
E5
330
75
100
AcDbEntity
  8
$DDT_AUDIT_GENERATED_(CC)
  6
Continuous
 62
     7
100
AcDbLine
 10
57.7847114577
 20
557.6250935706
 30
0.0
 11
57.7847114577
 21
557.0822302994
 31
0.0
  0
ELLIPSE
  5
E6
330
75
100
AcDbEntity
  8
$DDT_AUDIT_GENERATED_(CC)
  6
Continuous
 62
     7
100
AcDbEllipse
 10
57.2922115288
 20
557.6999989154
 30
0.0
 11
-0.09826517420549567
 21
0.1086094382236336
 31
0.0
210
0.0
220
0.0
230
1.0
 40
0.7391071595
 41
2.255764812074736
 42
3.809107846546699
  0
LINE
  5
E7
330
75
100
AcDbEntity
  8
$DDT_AUDIT_GENERATED_(CC)
  6
Continuous
 62
     7
100
AcDbLine
 10
58.6209092875
 20
557.6811163976
 30
0.0
 11
58.6230375374
 21
557.5611224559
 31
0.0
  0
SPLINE
  5
E8
330
75
100
AcDbEntity
  8
$DDT_AUDIT_GENERATED_(CC)
  6
Continuous
 62
     7
100
AcDbSpline
210
0.0
220
0.0
230
1.0
 70
     8
 71
     3
 72
    35
 73
    31
 74
     0
 42
0.0000000253892666
 43
0.0000000001
 40
0.0
 40
0.0
 40
0.0
 40
0.0
 40
0.1046847765140872
 40
0.1046847765140872
 40
0.1046847765140872
 40
0.2093071473766229
 40
0.2093071473766229
 40
0.2093071473766229
 40
0.3149115124464854
 40
0.3149115124464854
 40
0.3149115124464854
 40
0.4230228469561366
 40
0.4230228469561366
 40
0.4230228469561366
 40
0.4983686516439949
 40
0.4983686516439949
 40
0.4983686516439949
 40
0.61294954872734
 40
0.61294954872734
 40
0.61294954872734
 40
0.727600219724805
 40
0.727600219724805
 40
0.727600219724805
 40
0.8409049636571091
 40
0.8409049636571091
 40
0.8409049636571091
 40
0.949619529573423
 40
0.949619529573423
 40
0.949619529573423
 40
1.0
 40
1.0
 40
1.0
 40
1.0
 10
58.62303753739629
 20
557.5611224539848
 30
0.0
 10
58.62328085057231
 20
557.547404237468
 30
0.0
 10
58.62589333267641
 20
557.5336307429184
 30
0.0
 10
58.6306377179211
 20
557.5209495922085
 30
0.0
 10
58.63538052712988
 20
557.508272654046
 30
0.0
 10
58.64237968740566
 20
557.4963412217087
 30
0.0
 10
58.65102092973463
 20
557.4861088752187
 30
0.0
 10
58.6597448319844
 20
557.4757786487114
 30
0.0
 10
58.67037121410097
 20
557.4669017671001
 30
0.0
 10
58.68200896729514
 20
557.4601397865334
 30
0.0
 10
58.69392170861541
 20
557.4532180273278
 30
0.0
 10
58.70720662393781
 20
557.4483252241037
 30
0.0
 10
58.72079185594691
 20
557.4457885648877
 30
0.0
 10
58.73032624596419
 20
557.4440082862519
 30
0.0
 10
58.74015327663174
 20
557.4433443402769
 30
0.0
 10
58.74990383652909
 20
557.4438070918171
 30
0.0
 10
58.76461435609094
 20
557.4445052379396
 30
0.0
 10
58.779491657936
 20
557.447819700476
 30
0.0
 10
58.79331397123028
 20
557.4534743177102
 30
0.0
 10
58.80714048472439
 20
557.4591306532186
 30
0.0
 10
58.8203025034881
 20
557.4672919987692
 30
0.0
 10
58.8316599317027
 20
557.4773208847444
 30
0.0
 10
58.84287857649449
 20
557.4872272215739
 30
0.0
 10
58.85265848277464
 20
557.4992544127186
 30
0.0
 10
58.86004746376548
 20
557.5123864222894
 30
0.0
 10
58.86713935783044
 20
557.5249904364086
 30
0.0
 10
58.87222892386698
 20
557.5389864327988
 30
0.0
 10
58.87478512664325
 20
557.5531252494652
 30
0.0
 10
58.8759844625515
 20
557.5597589917826
 30
0.0
 10
58.87665171304462
 20
557.5664911158481
 30
0.0
 10
58.87677013566184
 20
557.5731791719642
 30
0.0
  0
LINE
  5
E9
330
75
100
AcDbEntity
  8
$DDT_AUDIT_GENERATED_(CC)
  6
Continuous
 62
     7
100
AcDbLine
 10
57.2650962154
 20
557.0301358461
 30
0.0
 11
56.485673352
 21
557.264560886
 31
0.0
  0
LINE
  5
EA
330
75
100
AcDbEntity
  8
$DDT_AUDIT_GENERATED_(CC)
  6
Continuous
 62
     7
100
AcDbLine
 10
41.7177241596
 20
557.6250935706
 30
0.0
 11
41.7177241596
 21
557.3687497926
 31
0.0
  0
LINE
  5
EB
330
75
100
AcDbEntity
  8
$DDT_AUDIT_GENERATED_(CC)
  6
Continuous
 62
     7
100
AcDbLine
 10
56.8320835135
 20
557.6250935706
 30
0.0
 11
56.8320835135
 21
557.3687497926
 31
0.0
  0
ENDBLK
  5
ED
330
75
100
AcDbEntity
  8
0
100
AcDbBlockEnd
  0
BLOCK
  5
121
330
EE
100
AcDbEntity
  8
0
100
AcDbBlockBegin
  2
SE1
 70
     0
 10
0.0
 20
0.0
 30
0.0
  3
SE1
  1

  0
LINE
  5
F0
330
EE
100
AcDbEntity
  8
$DDT_AUDIT_GENERATED_(77)
  6
Continuous
 62
     7
100
AcDbLine
 10
196.8836853997
 20
479.5871270862
 30
0.0
 11
236.8836853997
 21
479.5871270862
 31
0.0
  0
ARC
  5
F1
330
EE
100
AcDbEntity
  8
$DDT_AUDIT_GENERATED_(77)
  6
Continuous
 62
     7
100
AcDbCircle
 10
-13.0895555139
 20
397.7085435993
 30
0.0
 40
210.1290403237226
100
AcDbArc
 50
357.7936239537
 51
2.2065020421
  0
ARC
  5
F2
330
EE
100
AcDbEntity
  8
$DDT_AUDIT_GENERATED_(77)
  6
Continuous
 62
     7
100
AcDbCircle
 10
177.1398265889
 20
472.5871270878
 30
0.0
 40
20.00955923385708
100
AcDbArc
 50
350.6524735071
 51
9.3475271988
  0
LINE
  5
F3
330
EE
100
AcDbEntity
  8
$DDT_AUDIT_GENERATED_(77)
  6
Continuous
 62
     7
100
AcDbLine
 10
236.8836853997
 20
445.2871270862
 30
0.0
 11
236.8836853997
 21
479.5871270862
 31
0.0
  0
LINE
  5
F4
330
EE
100
AcDbEntity
  8
$DDT_AUDIT_GENERATED_(77)
  6
Continuous
 62
     7
100
AcDbLine
 10
236.8836853997
 20
375.5871270862
 30
0.0
 11
236.8836853997
 21
445.2871270862
 31
0.0
  0
LINE
  5
F5
330
EE
100
AcDbEntity
  8
$DDT_AUDIT_GENERATED_(77)
  6
Continuous
 62
     7
100
AcDbLine
 10
196.8836853997
 20
389.6335734743
 30
0.0
 11
196.8836853997
 21
375.5871270862
 31
0.0
  0
LINE
  5
F6
330
EE
100
AcDbEntity
  8
$DDT_AUDIT_GENERATED_(77)
  6
Continuous
 62
     7
100
AcDbLine
 10
196.8836853997
 20
445.2871270862
 30
0.0
 11
196.8836853997
 21
405.7987653274
 31
0.0
  0
LINE
  5
F7
330
EE
100
AcDbEntity
  8
$DDT_AUDIT_GENERATED_(77)
  6
Continuous
 62
     7
100
AcDbLine
 10
196.8836853997
 20
469.2371270862
 30
0.0
 11
196.8836853997
 21
445.2871270862
 31
0.0
  0
LINE
  5
F8
330
EE
100
AcDbEntity
  8
$DDT_AUDIT_GENERATED_(77)
  6
Continuous
 62
     7
100
AcDbLine
 10
196.8836853997
 20
479.5871270862
 30
0.0
 11
196.8836853997
 21
475.9371270862
 31
0.0
  0
ELLIPSE
  5
F9
330
EE
100
AcDbEntity
  8
$DDT_AUDIT_GENERATED_(89)
  6
Continuous
 62
     7
100
AcDbEllipse
 10
216.9259578777
 20
445.5654553973
 30
0.0
 11
-19.80442288442137
 21
2.790131576642554
 31
0.0
210
0.0
220
0.0
230
0.9999999999999999
 40
0.9996254465
 41
3.293352158688909
 42
3.346420743964219
  0
ELLIPSE
  5
FA
330
EE
100
AcDbEntity
  8
$DDT_AUDIT_GENERATED_(89)
  6
Continuous
 62
     7
100
AcDbEllipse
 10
216.9303429019
 20
445.5965804076
 30
0.0
 11
-19.80442288446112
 21
2.790131576365235
 31
0.0
210
0.0
220
0.0
230
0.9999999999999998
 40
0.9864777622
 41
3.215302385270688
 42
3.232815444158289
  0
ELLIPSE
  5
FB
330
EE
100
AcDbEntity
  8
$DDT_AUDIT_GENERATED_(89)
  6
Continuous
 62
     7
100
AcDbEllipse
 10
217.0348966256
 20
446.3387053224
 30
0.0
 11
-19.80442288424177
 21
2.79013157791741
 31
0.0
210
0.0
220
0.0
230
0.9999999999999997
 40
0.9996254465
 41
3.158517380753155
 42
3.404490648955362
  0
LINE
  5
FC
330
EE
100
AcDbEntity
  8
$DDT_AUDIT_GENERATED_(89)
  6
Continuous
 62
     7
100
AcDbLine
 10
235.1685804119
 20
514.123014765
 30
0.0
 11
230.3030172348
 21
479.5871270862
 31
0.0
  0
LINE
  5
FD
330
EE
100
AcDbEntity
  8
$DDT_AUDIT_GENERATED_(89)
  6
Continuous
 62
     7
100
AcDbLine
 10
235.1861428086
 20
514.2476730904
 30
0.0
 11
235.1685804119
 21
514.123014765
 31
0.0
  0
ELLIPSE
  5
FE
330
EE
100
AcDbEntity
  8
$DDT_AUDIT_GENERATED_(89)
  6
Continuous
 62
     7
100
AcDbEllipse
 10
234.4929880076
 20
514.3453276956
 30
0.0
 11
0.6931548009582524
 21
-0.09765460515506752
 31
0.0
210
0.0
220
0.0
230
0.9999999999999999
 40
0.9996254465
 41
0.0
 42
1.570796326769516
  0
LINE
  5
FF
330
EE
100
AcDbEntity
  8
$DDT_AUDIT_GENERATED_(89)
  6
Continuous
 62
     7
100
AcDbLine
 10
234.5906426128
 20
515.0384824965
 30
0.0
 11
234.5906060359
 21
515.038222873
 31
0.0
  0
LINE
  5
100
330
EE
100
AcDbEntity
  8
$DDT_AUDIT_GENERATED_(89)
  6
Continuous
 62
     7
100
AcDbLine
 10
234.5906426128
 20
515.0384824965
 30
0.0
 11
223.3836853997
 21
516.6173664346
 31
0.0
  0
LINE
  5
101
330
EE
100
AcDbEntity
  8
$DDT_AUDIT_GENERATED_(A6)
  6
Continuous
 62
     7
100
AcDbLine
 10
191.3836853997
 20
375.5871270862
 30
0.0
 11
192.4836853997
 21
375.5871270862
 31
0.0
  0
LINE
  5
102
330
EE
100
AcDbEntity
  8
$DDT_AUDIT_GENERATED_(A6)
  6
Continuous
 62
     7
100
AcDbLine
 10
192.4836853997
 20
375.5871270862
 30
0.0
 11
241.2836853997
 21
375.5871270862
 31
0.0
  0
LINE
  5
103
330
EE
100
AcDbEntity
  8
$DDT_AUDIT_GENERATED_(A6)
  6
Continuous
 62
     7
100
AcDbLine
 10
241.2836853997
 20
375.5871270862
 30
0.0
 11
242.3836853997
 21
375.5871270862
 31
0.0
  0
LINE
  5
104
330
EE
100
AcDbEntity
  8
$DDT_AUDIT_GENERATED_(A6)
  6
Continuous
 62
     7
100
AcDbLine
 10
242.8836853997
 20
375.0871270862
 30
0.0
 11
242.8836853997
 21
367.5871270862
 31
0.0
  0
LINE
  5
105
330
EE
100
AcDbEntity
  8
$DDT_AUDIT_GENERATED_(A6)
  6
Continuous
 62
     7
100
AcDbLine
 10
190.8836853997
 20
375.0871270862
 30
0.0
 11
190.8836853997
 21
367.5871270862
 31
0.0
  0
ARC
  5
106
330
EE
100
AcDbEntity
  8
$DDT_AUDIT_GENERATED_(A6)
  6
Continuous
 62
     7
100
AcDbCircle
 10
191.3836853997
 20
375.0871270862
 30
0.0
 40
0.5000000000000004
100
AcDbArc
 50
90.0
 51
180.0
  0
ARC
  5
107
330
EE
100
AcDbEntity
  8
$DDT_AUDIT_GENERATED_(A6)
  6
Continuous
 62
     7
100
AcDbCircle
 10
242.3836853997
 20
375.0871270862
 30
0.0
 40
0.5000000000000004
100
AcDbArc
 50
0.0
 51
90.0
  0
LINE
  5
108
330
EE
100
AcDbEntity
  8
$DDT_AUDIT_GENERATED_(A6)
  6
Continuous
 62
     7
100
AcDbLine
 10
242.8836853997
 20
367.5871270862
 30
0.0
 11
241.2836853997
 21
367.5871270862
 31
0.0
  0
LINE
  5
109
330
EE
100
AcDbEntity
  8
$DDT_AUDIT_GENERATED_(A6)
  6
Continuous
 62
     7
100
AcDbLine
 10
241.2836853997
 20
367.5871270862
 30
0.0
 11
192.4836853997
 21
367.5871270862
 31
0.0
  0
LINE
  5
10A
330
EE
100
AcDbEntity
  8
$DDT_AUDIT_GENERATED_(A6)
  6
Continuous
 62
     7
100
AcDbLine
 10
192.4836853997
 20
367.5871270862
 30
0.0
 11
190.8836853997
 21
367.5871270862
 31
0.0
  0
LINE
  5
10C
330
EE
100
AcDbEntity
  8
$DDT_AUDIT_GENERATED_(10B)
  6
Continuous
 62
     7
100
AcDbLine
 10
174.8836853997
 20
415.2613806708
 30
0.0
 11
174.8836853997
 21
419.2613806708
 31
0.0
  0
LINE
  5
10D
330
EE
100
AcDbEntity
  8
$DDT_AUDIT_GENERATED_(10B)
  6
Continuous
 62
     7
100
AcDbLine
 10
188.3509727597
 20
419.2613806708
 30
0.0
 11
174.8836853997
 21
419.2613806708
 31
0.0
  0
LINE
  5
10E
330
EE
100
AcDbEntity
  8
$DDT_AUDIT_GENERATED_(10B)
  6
Continuous
 62
     7
100
AcDbLine
 10
174.8836853997
 20
415.2613806708
 30
0.0
 11
188.3509727597
 21
415.2613806708
 31
0.0
  0
ARC
  5
10F
330
EE
100
AcDbEntity
  8
$DDT_AUDIT_GENERATED_(10B)
  6
Continuous
 62
     7
100
AcDbCircle
 10
188.3509727597
 20
414.2613806708
 30
0.0
 40
0.9999999999999454
100
AcDbArc
 50
18.0
 51
90.0
  0
ARC
  5
110
330
EE
100
AcDbEntity
  8
$DDT_AUDIT_GENERATED_(10B)
  6
Continuous
 62
     7
100
AcDbCircle
 10
188.3509727597
 20
414.2613806708
 30
0.0
 40
4.999999999999967
100
AcDbArc
 50
18.0
 51
90.0
  0
LINE
  5
111
330
EE
100
AcDbEntity
  8
$DDT_AUDIT_GENERATED_(10B)
  6
Continuous
 62
     7
100
AcDbLine
 10
196.9396879836
 20
404.0083731083
 30
0.0
 11
193.1062553412
 21
415.8064656427
 31
0.0
  0
LINE
  5
112
330
EE
100
AcDbEntity
  8
$DDT_AUDIT_GENERATED_(10B)
  6
Continuous
 62
     7
100
AcDbLine
 10
189.302029276
 20
414.5703976652
 30
0.0
 11
196.9387828372
 21
391.0668869523
 31
0.0
  0
ARC
  5
113
330
EE
100
AcDbEntity
  8
$DDT_AUDIT_GENERATED_(B3)
  6
Continuous
 62
     7
100
AcDbCircle
 10
323.2836853997
 20
560.5711824113
 30
0.0
 40
25.51594467490883
100
AcDbArc
 50
10.0
 51
90.0
  0
LINE
  5
114
330
EE
100
AcDbEntity
  8
$DDT_AUDIT_GENERATED_(B3)
  6
Continuous
 62
     7
100
AcDbLine
 10
323.2836853997
 20
586.0871270862
 30
0.0
 11
248.8836853997
 21
586.0871270862
 31
0.0
  0
ARC
  5
115
330
EE
100
AcDbEntity
  8
$DDT_AUDIT_GENERATED_(B3)
  6
Continuous
 62
     7
100
AcDbCircle
 10
248.8836853997
 20
560.5871270862
 30
0.0
 40
25.5
100
AcDbArc
 50
90.0
 51
180.0
  0
LINE
  5
116
330
EE
100
AcDbEntity
  8
$DDT_AUDIT_GENERATED_(B3)
  6
Continuous
 62
     7
100
AcDbLine
 10
223.3836853997
 20
560.5871270862
 30
0.0
 11
223.3836853997
 21
479.5871270862
 31
0.0
  0
LINE
  5
117
330
EE
100
AcDbEntity
  8
$DDT_AUDIT_GENERATED_(B3)
  6
Continuous
 62
     7
100
AcDbLine
 10
361.6911877672
 20
566.8594060153
 30
0.0
 11
363.2019269129
 21
558.2915785641
 31
0.0
  0
ARC
  5
118
330
EE
100
AcDbEntity
  8
$DDT_AUDIT_GENERATED_(B3)
  6
Continuous
 62
     7
100
AcDbCircle
 10
323.2836853997
 20
560.0871270862
 30
0.0
 40
39.00000000000001
100
AcDbArc
 50
10.0
 51
90.0
  0
LINE
  5
119
330
EE
100
AcDbEntity
  8
$DDT_AUDIT_GENERATED_(B3)
  6
Continuous
 62
     7
100
AcDbLine
 10
248.8836853997
 20
599.0871270862
 30
0.0
 11
323.2836853997
 21
599.0871270862
 31
0.0
  0
ARC
  5
11A
330
EE
100
AcDbEntity
  8
$DDT_AUDIT_GENERATED_(B3)
  6
Continuous
 62
     7
100
AcDbCircle
 10
248.8836853997
 20
560.5871270862
 30
0.0
 40
38.50000000000001
100
AcDbArc
 50
90.0
 51
180.0
  0
LINE
  5
11B
330
EE
100
AcDbEntity
  8
$DDT_AUDIT_GENERATED_(B3)
  6
Continuous
 62
     7
100
AcDbLine
 10
210.3836853997
 20
479.5871270862
 30
0.0
 11
210.3836853997
 21
560.5871270862
 31
0.0
  0
LINE
  5
11C
330
EE
100
AcDbEntity
  8
$DDT_AUDIT_GENERATED_(B3)
  6
Continuous
 62
     7
100
AcDbLine
 10
350.0055030225
 20
555.9646929833
 30
0.0
 11
348.411985541
 21
565.0019797056
 31
0.0
  0
LINE
  5
11D
330
EE
100
AcDbEntity
  8
$DDT_AUDIT_GENERATED_(B3)
  6
Continuous
 62
     7
100
AcDbLine
 10
362.7963471252
 20
557.7123505987
 30
0.0
 11
350.5847309879
 21
555.5591131956
 31
0.0
  0
ARC
  5
11E
330
EE
100
AcDbEntity
  8
$DDT_AUDIT_GENERATED_(B3)
  6
Continuous
 62
     7
100
AcDbCircle
 10
362.7095230364
 20
558.2047544752
 30
0.0
 40
0.4999999999999865
100
AcDbArc
 50
280.0
 51
10.0
  0
ARC
  5
11F
330
EE
100
AcDbEntity
  8
$DDT_AUDIT_GENERATED_(B3)
  6
Continuous
 62
     7
100
AcDbCircle
 10
350.497906899
 20
556.0515170721
 30
0.0
 40
0.4999999999999865
100
AcDbArc
 50
190.0
 51
280.0
  0
LINE
  5
120
330
EE
100
AcDbEntity
  8
$DDT_AUDIT_GENERATED_(B1)
  6
Continuous
 62
     7
100
AcDbLine
 10
196.8836853997
 20
475.9371270862
 30
0.0
 11
196.8836853997
 21
469.2371270862
 31
0.0
  0
ENDBLK
  5
122
330
EE
100
AcDbEntity
  8
0
100
AcDbBlockEnd
  0
BLOCK
  5
16D
330
123
100
AcDbEntity
  8
0
100
AcDbBlockBegin
  2
SE2
 70
     0
 10
0.0
 20
0.0
 30
0.0
  3
SE2
  1

  0
ARC
  5
125
330
123
100
AcDbEntity
  8
$DDT_AUDIT_GENERATED_(77)
  6
Continuous
 62
     7
100
AcDbCircle
 10
49.2749038365
 20
252.6758376367
 30
0.0
 40
20.0
100
AcDbArc
 50
318.5903778907
 51
0.0
  0
ARC
  5
126
330
123
100
AcDbEntity
  8
$DDT_AUDIT_GENERATED_(77)
  6
Continuous
 62
     7
100
AcDbCircle
 10
49.2749038365
 20
252.6758376367
 30
0.0
 40
20.0
100
AcDbArc
 50
0.0
 51
221.4096221093
  0
LINE
  5
127
330
123
100
AcDbEntity
  8
$DDT_AUDIT_GENERATED_(77)
  6
Continuous
 62
     7
100
AcDbLine
 10
97.2749038365
 20
232.6758376367
 30
0.0
 11
97.2749038365
 21
272.6758376367
 31
0.0
  0
SPLINE
  5
128
330
123
100
AcDbEntity
  8
$DDT_AUDIT_GENERATED_(77)
  6
Continuous
 62
     7
100
AcDbSpline
210
0.0
220
0.0
230
1.0
 70
     8
 71
     3
 72
    22
 73
    18
 74
     0
 42
0.0000000001359264
 43
0.0000000001
 40
0.0567020148124296
 40
0.0567020148124296
 40
0.0567020148124296
 40
0.0567020148124296
 40
0.0674449265250022
 40
0.1008938358914923
 40
0.1340444008661739
 40
0.1668207611493154
 40
0.1991779411750517
 40
0.2625101565117978
 40
0.3241074007173927
 40
0.3841719208786169
 40
0.4427466060648573
 40
0.5000018647817837
 40
0.5572569086335001
 40
0.615831801943552
 40
0.6758971986281073
 40
0.7374955403596103
 40
0.7503215395800541
 40
0.7503215395800541
 40
0.7503215395800541
 40
0.7503215395800541
 10
52.62475079865267
 20
272.4141151452824
 30
0.0
 10
52.83920096185213
 20
272.3817228205391
 30
0.0
 10
53.72318138271346
 20
272.2367293985048
 30
0.0
 10
55.2829322441688
 20
271.8964453430614
 30
0.0
 10
57.2989591768841
 20
271.3015817994179
 30
0.0
 10
59.29542436874271
 20
270.5614934468856
 30
0.0
 10
61.89230743695066
 20
269.3982967973131
 30
0.0
 10
65.02477761212033
 20
267.6140955950963
 30
0.0
 10
68.50724334836966
 20
264.8973304367651
 30
0.0
 10
71.50492791536313
 20
261.537305482707
 30
0.0
 10
73.69879873097388
 20
257.4382974084052
 30
0.0
 10
74.559557626894
 20
252.6758621519622
 30
0.0
 10
73.69927124170198
 20
247.9133086921662
 30
0.0
 10
71.50549886176361
 20
243.814209320498
 30
0.0
 10
68.50776005438208
 20
240.4541780839083
 30
0.0
 10
65.97596139756054
 20
238.4791553401087
 30
0.0
 10
64.52654010935552
 20
237.5343990466029
 30
0.0
 10
64.27550282172022
 20
237.3758899261077
 30
0.0
  0
LINE
  5
129
330
123
100
AcDbEntity
  8
$DDT_AUDIT_GENERATED_(77)
  6
Continuous
 62
     7
100
AcDbLine
 10
64.2749038365
 20
232.6758376367
 30
0.0
 11
97.2749038365
 21
232.6758376367
 31
0.0
  0
LINE
  5
12A
330
123
100
AcDbEntity
  8
$DDT_AUDIT_GENERATED_(77)
  6
Continuous
 62
     7
100
AcDbLine
 10
97.2749038365
 20
272.6758376367
 30
0.0
 11
52.6249038365
 21
272.6758376367
 31
0.0
  0
SPLINE
  5
12C
330
123
100
AcDbEntity
  8
$DDT_AUDIT_GENERATED_(12B)
  6
Continuous
 62
     7
100
AcDbSpline
210
0.0
220
0.0
230
1.0
 70
     8
 71
     3
 72
     8
 73
     4
 74
     0
 42
0.0000000142904303
 43
0.0000000001
 40
0.5467634880285447
 40
0.5467634880285447
 40
0.5467634880285447
 40
0.5467634880285447
 40
1.0
 40
1.0
 40
1.0
 40
1.0
 10
67.65408164480584
 20
260.5520824205756
 30
0.0
 10
67.73076173594657
 20
260.4767283036356
 30
0.0
 10
67.77490383652909
 20
260.3779018692842
 30
0.0
 10
67.77490383652908
 20
260.276486247093
 30
0.0
  0
ARC
  5
12D
330
123
100
AcDbEntity
  8
$DDT_AUDIT_GENERATED_(85)
  6
Continuous
 62
     7
100
AcDbCircle
 10
88.8749038365
 20
252.6758376367
 30
0.0
 40
20.0
100
AcDbArc
 50
60.9249356598
 51
65.1654125103
  0
ARC
  5
12E
330
123
100
AcDbEntity
  8
$DDT_AUDIT_GENERATED_(85)
  6
Continuous
 62
     7
100
AcDbCircle
 10
88.8749038365
 20
252.6758376367
 30
0.0
 40
20.0
100
AcDbArc
 50
294.8345874897
 51
298.6362872463
  0
ARC
  5
12F
330
123
100
AcDbEntity
  8
$DDT_AUDIT_GENERATED_(89)
  6
Continuous
 62
     7
100
AcDbCircle
 10
98.9749807799
 20
235.0414188717
 30
0.0
 40
2.406341256283294
100
AcDbArc
 50
270.3180186324
 51
270.7055945523
  0
ELLIPSE
  5
130
330
123
100
AcDbEntity
  8
$DDT_AUDIT_GENERATED_(89)
  6
Continuous
 62
     7
100
AcDbEllipse
 10
100.219192994
 20
252.6291801345
 30
0.0
 11
-1.864466494602313
 21
-19.97305855304563
 31
0.0
210
0.0
220
0.0
230
0.9999999999999998
 40
0.4996431404
 41
3.186279856163299
 42
3.322040086385394
  0
ELLIPSE
  5
131
330
123
100
AcDbEntity
  8
$DDT_AUDIT_GENERATED_(89)
  6
Continuous
 62
     7
100
AcDbEllipse
 10
98.7711957568
 20
252.6347105324
 30
0.0
 11
-0.07524050559318263
 21
-19.69985631588004
 31
0.0
210
0.0
220
0.0
230
1.0
 40
0.027099636
 41
3.433367022662743
 42
6.159421216758007
  0
ELLIPSE
  5
132
330
123
100
AcDbEntity
  8
$DDT_AUDIT_GENERATED_(89)
  6
Continuous
 62
     7
100
AcDbEllipse
 10
98.9895782369
 20
232.9350914394
 30
0.0
 11
0.1203498131961203
 21
0.2748016056425065
 31
0.0
210
0.0
220
0.0
230
1.0
 40
0.9995637952
 41
3.128641037043121
 42
3.550403618611011
  0
ELLIPSE
  5
133
330
123
100
AcDbEntity
  8
$DDT_AUDIT_GENERATED_(89)
  6
Continuous
 62
     7
100
AcDbEllipse
 10
128.2929078855
 20
252.5219569919
 30
0.0
 11
0.0
 21
18.8992106469324
 31
0.0
210
0.0
220
0.0
230
1.0
 40
1.0
 41
0.0020278652874832
 42
3.1313237998342
  0
ELLIPSE
  5
134
330
123
100
AcDbEntity
  8
$DDT_AUDIT_GENERATED_(89)
  6
Continuous
 62
     7
100
AcDbEllipse
 10
128.2929078855
 20
252.5219569919
 30
0.0
 11
0.0
 21
19.02607979474506
 31
0.0
210
0.0
220
0.0
230
1.0
 40
1.0
 41
3.142668877240673
 42
3.156115793425672
  0
ELLIPSE
  5
135
330
123
100
AcDbEntity
  8
$DDT_AUDIT_GENERATED_(89)
  6
Continuous
 62
     7
100
AcDbEllipse
 10
128.2929078855
 20
252.5219569919
 30
0.0
 11
0.0
 21
16.01316558511959
 31
0.0
210
0.0
220
0.0
230
1.0
 40
1.0
 41
-0.0221617884164542
 42
-0.0094865456059277
  0
ELLIPSE
  5
136
330
123
100
AcDbEntity
  8
$DDT_AUDIT_GENERATED_(89)
  6
Continuous
 62
     7
100
AcDbEllipse
 10
117.5504712762
 20
250.5315472753
 30
0.0
 11
0.6999999999999923
 21
-4.336808689942000E-16
 31
0.0
210
0.0
220
0.0
230
1.0
 40
0.1395065788
 41
3.114221979835173
 42
3.141592653589798
  0
ELLIPSE
  5
137
330
123
100
AcDbEntity
  8
$DDT_AUDIT_GENERATED_(89)
  6
Continuous
 62
     7
100
AcDbEllipse
 10
117.5504712762
 20
235.0840974254
 30
0.0
 11
0.6999999999999923
 21
-8.497694209043069E-31
 31
0.0
210
0.0
220
0.0
230
1.0
 40
0.1395065788
 41
3.114221979835173
 42
3.141592653589793
  0
LINE
  5
138
330
123
100
AcDbEntity
  8
$DDT_AUDIT_GENERATED_(89)
  6
Continuous
 62
     7
100
AcDbLine
 10
123.7055503786
 20
258.3426544755
 30
0.0
 11
118.586869092
 21
258.3622044744
 31
0.0
  0
ELLIPSE
  5
139
330
123
100
AcDbEntity
  8
$DDT_AUDIT_GENERATED_(89)
  6
Continuous
 62
     7
100
AcDbEllipse
 10
124.7614573656
 20
252.5354448123
 30
0.0
 11
-0.08020561509931856
 21
-20.99984683418694
 31
0.0
210
0.0
220
0.0
230
1.0
 40
0.027099636
 41
4.471856652682769
 42
5.232951036062437
  0
ELLIPSE
  5
13A
330
123
100
AcDbEntity
  8
$DDT_AUDIT_GENERATED_(89)
  6
Continuous
 62
     7
100
AcDbEllipse
 10
123.5281212121
 20
242.0953549029
 30
0.0
 11
-0.6868979728360675
 21
0.1348005004208324
 31
0.0
210
0.0
220
0.0
230
0.9999999999999998
 40
0.9898502534
 41
3.141592653589793
 42
3.333456639862367
  0
LINE
  5
13B
330
123
100
AcDbEntity
  8
$DDT_AUDIT_GENERATED_(89)
  6
Continuous
 62
     7
100
AcDbLine
 10
99.0340263373
 20
232.6335608191
 30
0.0
 11
127.517600602
 21
232.524772283
 31
0.0
  0
LINE
  5
13C
330
123
100
AcDbEntity
  8
$DDT_AUDIT_GENERATED_(89)
  6
Continuous
 62
     7
100
AcDbLine
 10
127.6703732022
 20
272.5244805386
 30
0.0
 11
101.6359950423
 21
272.623914755
 31
0.0
  0
ARC
  5
13D
330
123
100
AcDbEntity
  8
$DDT_AUDIT_GENERATED_(89)
  6
Continuous
 62
     7
100
AcDbCircle
 10
101.7638932669
 20
266.2747228934
 30
0.0
 40
6.35950047455786
100
AcDbArc
 50
104.3550725596
 51
114.0361743367
  0
SPLINE
  5
13E
330
123
100
AcDbEntity
  8
$DDT_AUDIT_GENERATED_(89)
  6
Continuous
 62
     7
100
AcDbSpline
210
0.0
220
0.0
230
1.0
 70
     8
 71
     3
 72
    11
 73
     7
 74
     0
 42
0.0000000221393307
 43
0.0000000001
 40
0.0
 40
0.0
 40
0.0
 40
0.0
 40
0.5443690602229727
 40
0.7671195526711871
 40
0.9126314618623431
 40
1.0
 40
1.0
 40
1.0
 40
1.0
 10
98.63829774753619
 20
233.0227257853325
 30
0.0
 10
98.64813152487201
 20
232.9641171651614
 30
0.0
 10
98.66803373828499
 20
232.889077783441
 30
0.0
 10
98.71860276067478
 20
232.786844993243
 30
0.0
 10
98.78162544643449
 20
232.7084087834414
 30
0.0
 10
98.84222149569824
 20
232.6751590368445
 30
0.0
 10
98.86922842362242
 20
232.6602898338135
 30
0.0
  0
ARC
  5
13F
330
123
100
AcDbEntity
  8
$DDT_AUDIT_GENERATED_(89)
  6
Continuous
 62
     7
100
AcDbCircle
 10
99.3648431539
 20
271.4214748122
 30
0.0
 40
0.6817371740395588
100
AcDbArc
 50
105.6414184303
 51
170.8889065602
  0
LINE
  5
140
330
123
100
AcDbEntity
  8
$DDT_AUDIT_GENERATED_(89)
  6
Continuous
 62
     7
100
AcDbLine
 10
117.5477977557
 20
234.3841025309
 30
0.0
 11
122.1460748096
 21
234.3665401343
 31
0.0
  0
ARC
  5
141
330
123
100
AcDbEntity
  8
$DDT_AUDIT_GENERATED_(89)
  6
Continuous
 62
     7
100
AcDbCircle
 10
-271.3401258073
 20
254.0482925664
 30
0.0
 40
400.2499999999953
100
AcDbArc
 50
357.4886584582
 51
2.073679217
  0
SPLINE
  5
142
330
123
100
AcDbEntity
  8
$DDT_AUDIT_GENERATED_(89)
  6
Continuous
 62
     7
100
AcDbSpline
210
0.0
220
0.0
230
1.0
 70
     8
 71
     3
 72
    16
 73
    12
 74
     0
 42
0.0000000074810417
 43
0.0000000001
 40
0.0
 40
0.0
 40
0.0
 40
0.0
 40
0.0539014903520463
 40
0.1247615324768001
 40
0.1916598640974936
 40
0.260067541225473
 40
0.3363976826236643
 40
0.4307852767822506
 40
0.5596798340716698
 40
0.7572682484460079
 40
1.0
 40
1.0
 40
1.0
 40
1.0
 10
127.51871820824
 20
232.5338786565046
 30
0.0
 10
127.5796107196902
 20
232.5335620575575
 30
0.0
 10
127.6987205617576
 20
232.5339802997995
 30
0.0
 10
127.878229155543
 20
232.6120151489281
 30
0.0
 10
128.0175352483269
 20
232.7174885179401
 30
0.0
 10
128.1100871440223
 20
232.8263801181684
 30
0.0
 10
128.1703726718977
 20
232.92636722238
 30
0.0
 10
128.2130105818761
 20
233.0225483247096
 30
0.0
 10
128.2476210416135
 20
233.1287370009938
 30
0.0
 10
128.2784541378657
 20
233.2551998255681
 30
0.0
 10
128.2949506748867
 20
233.3630021892183
 30
0.0
 10
128.3049682049749
 20
233.4327429016729
 30
0.0
  0
SPLINE
  5
143
330
123
100
AcDbEntity
  8
$DDT_AUDIT_GENERATED_(89)
  6
Continuous
 62
     7
100
AcDbSpline
210
0.0
220
0.0
230
1.0
 70
     8
 71
     3
 72
    17
 73
    13
 74
     0
 42
0.0000000068563599
 43
0.0000000001
 40
0.0
 40
0.0
 40
0.0
 40
0.0
 40
0.048328671433592
 40
0.3527077955081382
 40
0.5301488659253601
 40
0.6598542866064563
 40
0.73668685497738
 40
0.8038310960081912
 40
0.8669418495813853
 40
0.9298722339789733
 40
0.9935011093401027
 40
1.0
 40
1.0
 40
1.0
 40
1.0
 10
128.4674387874915
 20
271.4986203545164
 30
0.0
 10
128.4653440747209
 20
271.5175927213973
 30
0.0
 10
128.4521002032437
 20
271.636449123307
 30
0.0
 10
128.4276015691923
 20
271.7777879607811
 30
0.0
 10
128.3905877610861
 20
271.9353323242873
 30
0.0
 10
128.3514846099797
 20
272.0509458227153
 30
0.0
 10
128.2949563117734
 20
272.1648218150104
 30
0.0
 10
128.2168881062695
 20
272.2766351012659
 30
0.0
 10
128.0898134605049
 20
272.3976077060025
 30
0.0
 10
127.9107171282838
 20
272.4898839650314
 30
0.0
 10
127.7491517613496
 20
272.5337638534406
 30
0.0
 10
127.6735883321847
 20
272.5223936609126
 30
0.0
 10
127.6654456384163
 20
272.5211571470775
 30
0.0
  0
LINE
  5
144
330
123
100
AcDbEntity
  8
$DDT_AUDIT_GENERATED_(89)
  6
Continuous
 62
     7
100
AcDbLine
 10
118.2282355511
 20
257.6202072095
 30
0.0
 11
116.8635733034
 21
250.6663477757
 31
0.0
  0
ARC
  5
145
330
123
100
AcDbEntity
  8
$DDT_AUDIT_GENERATED_(89)
  6
Continuous
 62
     7
100
AcDbCircle
 10
117.5504712762
 20
250.5315472753
 30
0.0
 40
0.7000000000000011
100
AcDbArc
 50
168.8970702514
 51
180.0
  0
LINE
  5
146
330
123
100
AcDbEntity
  8
$DDT_AUDIT_GENERATED_(89)
  6
Continuous
 62
     7
100
AcDbLine
 10
116.8504712762
 20
250.5315472753
 30
0.0
 11
116.8504712762
 21
235.0840974254
 31
0.0
  0
ARC
  5
147
330
123
100
AcDbEntity
  8
$DDT_AUDIT_GENERATED_(89)
  6
Continuous
 62
     7
100
AcDbCircle
 10
117.5504712762
 20
235.0840974254
 30
0.0
 40
0.7000000000000062
100
AcDbArc
 50
180.0
 51
269.7811688376
  0
LINE
  5
148
330
123
100
AcDbEntity
  8
$DDT_AUDIT_GENERATED_(89)
  6
Continuous
 62
     7
100
AcDbLine
 10
122.8356463029
 20
234.9317345284
 30
0.0
 11
124.2150191849
 21
241.9605544025
 31
0.0
  0
ARC
  5
149
330
123
100
AcDbEntity
  8
$DDT_AUDIT_GENERATED_(89)
  6
Continuous
 62
     7
100
AcDbCircle
 10
122.1487483301
 20
235.0665350288
 30
0.0
 40
0.6999999999999997
100
AcDbArc
 50
269.7811688376
 51
348.8970702514
  0
LINE
  5
14A
330
123
100
AcDbEntity
  8
$DDT_AUDIT_GENERATED_(A6)
  6
Continuous
 62
     7
100
AcDbLine
 10
73.6749038365
 20
226.6758376367
 30
0.0
 11
64.2749038365
 21
226.6758376367
 31
0.0
  0
LINE
  5
14B
330
123
100
AcDbEntity
  8
$DDT_AUDIT_GENERATED_(A6)
  6
Continuous
 62
     7
100
AcDbLine
 10
34.2749038365
 20
226.6758376367
 30
0.0
 11
24.8749038365
 21
226.6758376367
 31
0.0
  0
ARC
  5
14C
330
123
100
AcDbEntity
  8
$DDT_AUDIT_GENERATED_(A6)
  6
Continuous
 62
     7
100
AcDbCircle
 10
24.8749038365
 20
228.2758376367
 30
0.0
 40
1.600000000000001
100
AcDbArc
 50
180.0
 51
270.0
  0
ARC
  5
14D
330
123
100
AcDbEntity
  8
$DDT_AUDIT_GENERATED_(A6)
  6
Continuous
 62
     7
100
AcDbCircle
 10
73.6749038365
 20
228.2758376367
 30
0.0
 40
1.600000000000001
100
AcDbArc
 50
270.0
 51
0.0
  0
LINE
  5
14E
330
123
100
AcDbEntity
  8
$DDT_AUDIT_GENERATED_(A6)
  6
Continuous
 62
     7
100
AcDbLine
 10
23.2749038365
 20
228.2758376367
 30
0.0
 11
23.2749038365
 21
277.0758376367
 31
0.0
  0
LINE
  5
14F
330
123
100
AcDbEntity
  8
$DDT_AUDIT_GENERATED_(A6)
  6
Continuous
 62
     7
100
AcDbLine
 10
75.2749038365
 20
277.0758376367
 30
0.0
 11
75.2749038365
 21
272.6758376367
 31
0.0
  0
LINE
  5
150
330
123
100
AcDbEntity
  8
$DDT_AUDIT_GENERATED_(A6)
  6
Continuous
 62
     7
100
AcDbLine
 10
75.2749038365
 20
232.6758376367
 30
0.0
 11
75.2749038365
 21
228.2758376367
 31
0.0
  0
ARC
  5
151
330
123
100
AcDbEntity
  8
$DDT_AUDIT_GENERATED_(A6)
  6
Continuous
 62
     7
100
AcDbCircle
 10
24.8749038365
 20
277.0758376367
 30
0.0
 40
1.599999999999997
100
AcDbArc
 50
90.0
 51
180.0
  0
ARC
  5
152
330
123
100
AcDbEntity
  8
$DDT_AUDIT_GENERATED_(A6)
  6
Continuous
 62
     7
100
AcDbCircle
 10
73.6749038365
 20
277.0758376367
 30
0.0
 40
1.600000000000001
100
AcDbArc
 50
0.0
 51
90.0
  0
LINE
  5
153
330
123
100
AcDbEntity
  8
$DDT_AUDIT_GENERATED_(A6)
  6
Continuous
 62
     7
100
AcDbLine
 10
24.8749038365
 20
278.6758376367
 30
0.0
 11
47.2749038365
 21
278.6758376367
 31
0.0
  0
LINE
  5
154
330
123
100
AcDbEntity
  8
$DDT_AUDIT_GENERATED_(A6)
  6
Continuous
 62
     7
100
AcDbLine
 10
51.2749038365
 20
278.6758376367
 30
0.0
 11
73.6749038365
 21
278.6758376367
 31
0.0
  0
LINE
  5
155
330
123
100
AcDbEntity
  8
$DDT_AUDIT_GENERATED_(10B)
  6
Continuous
 62
     7
100
AcDbLine
 10
47.2749038365
 20
294.6758376367
 30
0.0
 11
51.2749038365
 21
294.6758376367
 31
0.0
  0
LINE
  5
156
330
123
100
AcDbEntity
  8
$DDT_AUDIT_GENERATED_(10B)
  6
Continuous
 62
     7
100
AcDbLine
 10
51.2749038365
 20
281.2085502767
 30
0.0
 11
51.2749038365
 21
294.6758376367
 31
0.0
  0
LINE
  5
157
330
123
100
AcDbEntity
  8
$DDT_AUDIT_GENERATED_(10B)
  6
Continuous
 62
     7
100
AcDbLine
 10
47.2749038365
 20
294.6758376367
 30
0.0
 11
47.2749038365
 21
281.2085502767
 31
0.0
  0
LINE
  5
158
330
123
100
AcDbEntity
  8
$DDT_AUDIT_GENERATED_(10B)
  6
Continuous
 62
     7
100
AcDbLine
 10
47.2749038365
 20
281.2085502767
 30
0.0
 11
47.2749038365
 21
278.3553807278
 31
0.0
  0
LINE
  5
159
330
123
100
AcDbEntity
  8
$DDT_AUDIT_GENERATED_(10B)
  6
Continuous
 62
     7
100
AcDbLine
 10
51.2749038365
 20
278.3553807278
 30
0.0
 11
51.2749038365
 21
281.2085502767
 31
0.0
  0
LINE
  5
15A
330
123
100
AcDbEntity
  8
$DDT_AUDIT_GENERATED_(10B)
  6
Continuous
 62
     7
100
AcDbLine
 10
51.2749038365
 20
272.6758376367
 30
0.0
 11
51.2749038365
 21
278.3553807278
 31
0.0
  0
LINE
  5
15B
330
123
100
AcDbEntity
  8
$DDT_AUDIT_GENERATED_(10B)
  6
Continuous
 62
     7
100
AcDbLine
 10
47.2749038365
 20
278.3553807278
 30
0.0
 11
47.2749038365
 21
272.6758376367
 31
0.0
  0
LINE
  5
15C
330
123
100
AcDbEntity
  8
$DDT_AUDIT_GENERATED_(B3)
  6
Continuous
 62
     7
100
AcDbLine
 10
34.2749038365
 20
220.6758376367
 30
0.0
 11
34.2749038365
 21
258.6758376367
 31
0.0
  0
LINE
  5
15D
330
123
100
AcDbEntity
  8
$DDT_AUDIT_GENERATED_(B3)
  6
Continuous
 62
     7
100
AcDbLine
 10
34.2749038365
 20
146.2758376367
 30
0.0
 11
34.2749038365
 21
220.6758376367
 31
0.0
  0
LINE
  5
15E
330
123
100
AcDbEntity
  8
$DDT_AUDIT_GENERATED_(B3)
  6
Continuous
 62
     7
100
AcDbLine
 10
34.2749038365
 20
108.3607391457
 30
0.0
 11
34.2749038365
 21
146.2758376367
 31
0.0
  0
LINE
  5
15F
330
123
100
AcDbEntity
  8
$DDT_AUDIT_GENERATED_(B3)
  6
Continuous
 62
     7
100
AcDbLine
 10
34.7749038365
 20
259.1758376367
 30
0.0
 11
63.7749038365
 21
259.1758376367
 31
0.0
  0
ARC
  5
160
330
123
100
AcDbEntity
  8
$DDT_AUDIT_GENERATED_(B3)
  6
Continuous
 62
     7
100
AcDbCircle
 10
34.7749038365
 20
258.6758376367
 30
0.0
 40
0.5000000000000004
100
AcDbArc
 50
90.0
 51
180.0
  0
LINE
  5
161
330
123
100
AcDbEntity
  8
$DDT_AUDIT_GENERATED_(B3)
  6
Continuous
 62
     7
100
AcDbLine
 10
64.2749038365
 20
108.3607391457
 30
0.0
 11
64.2749038365
 21
106.85
 31
0.0
  0
LINE
  5
162
330
123
100
AcDbEntity
  8
$DDT_AUDIT_GENERATED_(B3)
  6
Continuous
 62
     7
100
AcDbLine
 10
64.2749038365
 20
146.2758376367
 30
0.0
 11
64.2749038365
 21
108.3607391457
 31
0.0
  0
LINE
  5
163
330
123
100
AcDbEntity
  8
$DDT_AUDIT_GENERATED_(B3)
  6
Continuous
 62
     7
100
AcDbLine
 10
64.2749038365
 20
220.6758376367
 30
0.0
 11
64.2749038365
 21
146.2758376367
 31
0.0
  0
LINE
  5
164
330
123
100
AcDbEntity
  8
$DDT_AUDIT_GENERATED_(B3)
  6
Continuous
 62
     7
100
AcDbLine
 10
64.2749038365
 20
258.6758376367
 30
0.0
 11
64.2749038365
 21
220.6758376367
 31
0.0
  0
ARC
  5
165
330
123
100
AcDbEntity
  8
$DDT_AUDIT_GENERATED_(B3)
  6
Continuous
 62
     7
100
AcDbCircle
 10
63.7749038365
 20
258.6758376367
 30
0.0
 40
0.5000000000000004
100
AcDbArc
 50
0.0
 51
90.0
  0
LINE
  5
166
330
123
100
AcDbEntity
  8
$DDT_AUDIT_GENERATED_(B3)
  6
Continuous
 62
     7
100
AcDbLine
 10
34.2749038365
 20
106.85
 30
0.0
 11
34.2749038365
 21
108.3607391457
 31
0.0
  0
LINE
  5
167
330
123
100
AcDbEntity
  8
$DDT_AUDIT_GENERATED_(B3)
  6
Continuous
 62
     7
100
AcDbLine
 10
34.7749038365
 20
106.35
 30
0.0
 11
63.7749038365
 21
106.35
 31
0.0
  0
ARC
  5
168
330
123
100
AcDbEntity
  8
$DDT_AUDIT_GENERATED_(B3)
  6
Continuous
 62
     7
100
AcDbCircle
 10
63.7749038365
 20
106.85
 30
0.0
 40
0.5000000000000004
100
AcDbArc
 50
270.0
 51
0.0
  0
ARC
  5
169
330
123
100
AcDbEntity
  8
$DDT_AUDIT_GENERATED_(B3)
  6
Continuous
 62
     7
100
AcDbCircle
 10
34.7749038365
 20
106.85
 30
0.0
 40
0.5000000000000004
100
AcDbArc
 50
180.0
 51
270.0
  0
LINE
  5
16A
330
123
100
AcDbEntity
  8
$DDT_AUDIT_GENERATED_(B1)
  6
Continuous
 62
     7
100
AcDbLine
 10
52.6249038365
 20
272.6758376367
 30
0.0
 11
45.9249038365
 21
272.6758376367
 31
0.0
  0
LINE
  5
16B
330
123
100
AcDbEntity
  8
$DDT_AUDIT_GENERATED_(B1)
  6
Continuous
 62
     7
100
AcDbLine
 10
45.9249038365
 20
272.6758376367
 30
0.0
 11
45.9249038365
 21
272.3932791543
 31
0.0
  0
LINE
  5
16C
330
123
100
AcDbEntity
  8
$DDT_AUDIT_GENERATED_(B1)
  6
Continuous
 62
     7
100
AcDbLine
 10
52.6249038365
 20
272.3932791543
 30
0.0
 11
52.6249038365
 21
272.6758376367
 31
0.0
  0
ENDBLK
  5
16E
330
123
100
AcDbEntity
  8
0
100
AcDbBlockEnd
  0
ENDSEC
  0
SECTION
  2
ENTITIES
  0
INSERT
  5
5F
330
1F
100
AcDbEntity
  8
Default
100
AcDbBlockReference
  2
SEANNOT_GROUP
 10
0.0
 20
0.0
 30
0.0
  0
INSERT
  5
66
330
1F
100
AcDbEntity
  8
Default
100
AcDbBlockReference
  2
SEANNOT_GROUP1
 10
0.0
 20
0.0
 30
0.0
  0
INSERT
  5
6C
330
1F
100
AcDbEntity
  8
Default
100
AcDbBlockReference
  2
SEANNOT_GROUP2
 10
0.0
 20
0.0
 30
0.0
  0
INSERT
  5
76
330
1F
100
AcDbEntity
  8
Default
100
AcDbBlockReference
  2
SE
 10
0.0
 20
0.0
 30
0.0
  0
INSERT
  5
EF
330
1F
100
AcDbEntity
  8
Default
100
AcDbBlockReference
  2
SE1
 10
0.0
 20
0.0
 30
0.0
  0
INSERT
  5
124
330
1F
100
AcDbEntity
  8
Default
100
AcDbBlockReference
  2
SE2
 10
0.0
 20
0.0
 30
0.0
  0
TEXT
  5
170
330
1F
100
AcDbEntity
  8
Default
  6
Continuous
 62
     7
100
AcDbText
 10
5.9362635081
 20
53.4225120485
 30
0.0
 40
10.0
  1
Grohe AG^J
  7
SEACAD_seiso_ttf
 11
5.9362635081
 21
63.4225120485
 31
0.0
100
AcDbText
 73
     3
  0
TEXT
  5
171
330
1F
100
AcDbEntity
  8
Default
  6
Continuous
 62
     7
100
AcDbText
 10
5.9362635081
 20
37.0588756849
 30
0.0
 40
10.0
  1
 
  7
SEACAD_seiso_ttf
 11
5.9362635081
 21
47.0588756849
 31
0.0
100
AcDbText
 73
     3
  0
TEXT
  5
172
330
1F
100
AcDbEntity
  8
Default
  6
Continuous
 62
     7
100
AcDbText
 10
5.9362635081
 20
20.6952393213
 30
0.0
 40
10.0
  1
ecn: 
  7
SEACAD_seiso_ttf
 11
5.9362635081
 21
30.6952393213
 31
0.0
100
AcDbText
 73
     3
  0
TEXT
  5
173
330
1F
100
AcDbEntity
  8
Default
  6
Continuous
 62
     7
100
AcDbText
 10
5.9362635081
 20
4.3316029576
 30
0.0
 40
10.0
  1
unit: mm
  7
SEACAD_seiso_ttf
 11
5.9362635081
 21
14.3316029576
 31
0.0
100
AcDbText
 73
     3
  0
LINE
  5
174
330
1F
100
AcDbEntity
  8
Default
  6
Continuous
 62
     7
100
AcDbLine
 10
0.0
 20
0.0
 30
0.0
 11
100.0
 21
0.0
 31
0.0
  0
LINE
  5
175
330
1F
100
AcDbEntity
  8
Default
  6
Continuous
 62
     7
100
AcDbLine
 10
0.0
 20
0.0
 30
0.0
 11
0.0
 21
100.0
 31
0.0
  0
TEXT
  5
176
330
1F
100
AcDbEntity
  8
Default
  6
Continuous
 62
     7
100
AcDbText
 10
24.3923665681
 20
-18.2375342018
 30
0.0
 40
10.0
  1
100 mm
  7
SEACAD_seiso_ttf
 11
24.3923665681
 21
-8.2375342018
 31
0.0
100
AcDbText
 73
     3
  0
TEXT
  5
177
330
1F
100
AcDbEntity
  8
Default
  6
Continuous
 62
     7
100
AcDbText
 10
-7.6150308803
 20
24.6231930421
 30
0.0
 40
10.0
  1
100 mm
 50
90.0
  7
SEACAD_seiso_ttf
 11
-17.6150308803
 21
24.6231930421
 31
0.0
100
AcDbText
 73
     3
  0
TEXT
  5
178
330
1F
100
AcDbEntity
  8
Default
  6
Continuous
 62
     7
100
AcDbText
 10
28.4878128572
 20
20.0907663715
 30
0.0
 40
10.0
  1
215171
  7
SEACAD_seiso_ttf
 11
28.4878128572
 21
30.0907663715
 31
0.0
100
AcDbText
 73
     3
  0
TEXT
  5
179
330
1F
100
AcDbEntity
  8
Default
  6
Continuous
 62
     7
100
AcDbText
 10
5.9012241913
 20
36.7242780188
 30
0.0
 40
10.0
  1
32128000
  7
SEACAD_seiso_ttf
 11
5.9012241913
 21
46.7242780188
 31
0.0
100
AcDbText
 73
     3
  0
ENDSEC
  0
SECTION
  2
OBJECTS
  0
DICTIONARY
  5
C
330
0
100
AcDbDictionary
281
     1
  3
ACAD_GROUP
350
D
  3
ACAD_LAYOUT
350
1A
  3
ACAD_MLEADERSTYLE
350
17D
  3
ACAD_MLINESTYLE
350
17
  3
ACAD_PLOTSETTINGS
350
19
  3
ACAD_PLOTSTYLENAME
350
E
  3
ACAD_SCALELIST
350
3B
  3
ACAD_TABLESTYLE
350
17C
  3
ACAD_VISUALSTYLE
350
2A
  3
AcDbVariableDictionary
350
17A
  0
DICTIONARY
  5
D
102
{ACAD_REACTORS
330
C
102
}
330
C
100
AcDbDictionary
281
     1
  0
DICTIONARY
  5
1A
102
{ACAD_REACTORS
330
C
102
}
330
C
100
AcDbDictionary
281
     1
  3
Layout1
350
1E
  3
Model
350
22
  0
DICTIONARY
  5
17D
102
{ACAD_REACTORS
330
C
102
}
330
C
100
AcDbDictionary
281
     1
  0
DICTIONARY
  5
17
102
{ACAD_REACTORS
330
C
102
}
330
C
100
AcDbDictionary
281
     1
  3
Standard
350
18
  0
DICTIONARY
  5
19
102
{ACAD_REACTORS
330
C
102
}
330
C
100
AcDbDictionary
281
     1
  0
ACDBDICTIONARYWDFLT
  5
E
102
{ACAD_REACTORS
330
C
102
}
330
C
100
AcDbDictionary
281
     1
  3
Normal
350
F
100
AcDbDictionaryWithDefault
340
F
  0
DICTIONARY
  5
3B
102
{ACAD_REACTORS
330
C
102
}
330
C
100
AcDbDictionary
281
     1
  3
A0
350
3C
  3
A1
350
3D
  3
A2
350
3E
  3
A3
350
3F
  3
A4
350
40
  3
A5
350
41
  3
A6
350
42
  3
A7
350
43
  3
A8
350
44
  3
A9
350
45
  3
B0
350
46
  3
B1
350
47
  3
B2
350
48
  3
B3
350
49
  3
B4
350
4A
  3
B5
350
4B
  3
B6
350
4C
  3
B7
350
4D
  3
B8
350
4E
  3
B9
350
4F
  3
C0
350
50
  3
C1
350
51
  3
C2
350
52
  3
C3
350
53
  3
C4
350
54
  3
C5
350
55
  3
C6
350
56
  3
C7
350
57
  3
C8
350
58
  3
C9
350
59
  3
D0
350
5A
  3
D1
350
5B
  3
D2
350
5C
  0
DICTIONARY
  5
17C
102
{ACAD_REACTORS
330
C
102
}
330
C
100
AcDbDictionary
281
     1
  0
DICTIONARY
  5
2A
102
{ACAD_REACTORS
330
C
102
}
330
C
100
AcDbDictionary
281
     1
  3
2dWireframe
350
2F
  3
3D Hidden
350
31
  3
3dWireframe
350
30
  3
Basic
350
32
  3
Brighten
350
36
  3
ColorChange
350
3A
  3
Conceptual
350
34
  3
Dim
350
35
  3
Facepattern
350
39
  3
Flat
350
2B
  3
FlatWithEdges
350
2C
  3
Gouraud
350
2D
  3
GouraudWithEdges
350
2E
  3
Linepattern
350
38
  3
Realistic
350
33
  3
Thicken
350
37
  0
DICTIONARY
  5
17A
102
{ACAD_REACTORS
330
C
102
}
330
C
100
AcDbDictionary
281
     1
  3
CANNOSCALE
350
17B
  3
PSOLHEIGHT
350
17F
  3
PSOLWIDTH
350
17E
  0
LAYOUT
  5
1E
102
{ACAD_REACTORS
330
1A
102
}
330
1A
100
AcDbPlotSettings
  1

  2
none_device
  4

  6

 40
0.0
 41
0.0
 42
0.0
 43
0.0
 44
0.0
 45
0.0
 46
0.0
 47
0.0
 48
0.0
 49
0.0
140
0.0
141
0.0
142
1.0
143
1.0
 70
   688
 72
     0
 73
     0
 74
     5
  7

 75
    16
147
1.0
148
0.0
149
0.0
100
AcDbLayout
  1
Layout1
 70
     1
 71
     1
 10
0.0
 20
0.0
 11
1682.0
 21
2378.0
 12
0.0
 22
0.0
 32
0.0
 14
0.0
 24
0.0
 34
0.0
 15
1682.0
 25
2378.0
 35
0.0
146
0.0
 13
0.0
 23
0.0
 33
0.0
 16
1.0
 26
0.0
 36
0.0
 17
0.0
 27
1.0
 37
0.0
 76
     0
330
1B
  0
LAYOUT
  5
22
102
{ACAD_REACTORS
330
1A
102
}
330
1A
100
AcDbPlotSettings
  1

  2
none_device
  4

  6

 40
0.0
 41
0.0
 42
0.0
 43
0.0
 44
0.0
 45
0.0
 46
0.0
 47
0.0
 48
0.0
 49
0.0
140
0.0
141
0.0
142
1.0
143
1.0
 70
  1712
 72
     0
 73
     0
 74
     0
  7

 75
     0
147
1.0
148
0.0
149
0.0
100
AcDbLayout
  1
Model
 70
     1
 71
     0
 10
0.0
 20
0.0
 11
1682.0
 21
2378.0
 12
0.0
 22
0.0
 32
0.0
 14
0.0
 24
0.0
 34
0.0
 15
1682.0
 25
2378.0
 35
0.0
146
0.0
 13
0.0
 23
0.0
 33
0.0
 16
1.0
 26
0.0
 36
0.0
 17
0.0
 27
1.0
 37
0.0
 76
     0
330
1F
331
29
  0
MLINESTYLE
  5
18
102
{ACAD_REACTORS
330
17
102
}
330
17
100
AcDbMlineStyle
  2
Standard
 70
     0
  3

 62
   256
 51
90.0
 52
90.0
 71
     2
 49
0.5
 62
   256
  6
BYLAYER
 49
-0.5
 62
   256
  6
BYLAYER
  0
ACDBPLACEHOLDER
  5
F
102
{ACAD_REACTORS
330
E
102
}
330
E
  0
SCALE
  5
3C
102
{ACAD_REACTORS
330
3B
102
}
330
3B
100
AcDbScale
 70
     0
300
1:1
140
1.0
141
1.0
290
     1
  0
SCALE
  5
3D
102
{ACAD_REACTORS
330
3B
102
}
330
3B
100
AcDbScale
 70
     0
300
1:2
140
1.0
141
2.0
290
     0
  0
SCALE
  5
3E
102
{ACAD_REACTORS
330
3B
102
}
330
3B
100
AcDbScale
 70
     0
300
1:4
140
1.0
141
4.0
290
     0
  0
SCALE
  5
3F
102
{ACAD_REACTORS
330
3B
102
}
330
3B
100
AcDbScale
 70
     0
300
1:5
140
1.0
141
5.0
290
     0
  0
SCALE
  5
40
102
{ACAD_REACTORS
330
3B
102
}
330
3B
100
AcDbScale
 70
     0
300
1:8
140
1.0
141
8.0
290
     0
  0
SCALE
  5
41
102
{ACAD_REACTORS
330
3B
102
}
330
3B
100
AcDbScale
 70
     0
300
1:10
140
1.0
141
10.0
290
     0
  0
SCALE
  5
42
102
{ACAD_REACTORS
330
3B
102
}
330
3B
100
AcDbScale
 70
     0
300
1:16
140
1.0
141
16.0
290
     0
  0
SCALE
  5
43
102
{ACAD_REACTORS
330
3B
102
}
330
3B
100
AcDbScale
 70
     0
300
1:20
140
1.0
141
20.0
290
     0
  0
SCALE
  5
44
102
{ACAD_REACTORS
330
3B
102
}
330
3B
100
AcDbScale
 70
     0
300
1:30
140
1.0
141
30.0
290
     0
  0
SCALE
  5
45
102
{ACAD_REACTORS
330
3B
102
}
330
3B
100
AcDbScale
 70
     0
300
1:40
140
1.0
141
40.0
290
     0
  0
SCALE
  5
46
102
{ACAD_REACTORS
330
3B
102
}
330
3B
100
AcDbScale
 70
     0
300
1:50
140
1.0
141
50.0
290
     0
  0
SCALE
  5
47
102
{ACAD_REACTORS
330
3B
102
}
330
3B
100
AcDbScale
 70
     0
300
1:100
140
1.0
141
100.0
290
     0
  0
SCALE
  5
48
102
{ACAD_REACTORS
330
3B
102
}
330
3B
100
AcDbScale
 70
     0
300
2:1
140
2.0
141
1.0
290
     0
  0
SCALE
  5
49
102
{ACAD_REACTORS
330
3B
102
}
330
3B
100
AcDbScale
 70
     0
300
4:1
140
4.0
141
1.0
290
     0
  0
SCALE
  5
4A
102
{ACAD_REACTORS
330
3B
102
}
330
3B
100
AcDbScale
 70
     0
300
8:1
140
8.0
141
1.0
290
     0
  0
SCALE
  5
4B
102
{ACAD_REACTORS
330
3B
102
}
330
3B
100
AcDbScale
 70
     0
300
10:1
140
10.0
141
1.0
290
     0
  0
SCALE
  5
4C
102
{ACAD_REACTORS
330
3B
102
}
330
3B
100
AcDbScale
 70
     0
300
100:1
140
100.0
141
1.0
290
     0
  0
SCALE
  5
4D
102
{ACAD_REACTORS
330
3B
102
}
330
3B
100
AcDbScale
 70
     0
300
1/128" = 1'-0"
140
0.0078125
141
12.0
290
     0
  0
SCALE
  5
4E
102
{ACAD_REACTORS
330
3B
102
}
330
3B
100
AcDbScale
 70
     0
300
1/64" = 1'-0"
140
0.015625
141
12.0
290
     0
  0
SCALE
  5
4F
102
{ACAD_REACTORS
330
3B
102
}
330
3B
100
AcDbScale
 70
     0
300
1/32" = 1'-0"
140
0.03125
141
12.0
290
     0
  0
SCALE
  5
50
102
{ACAD_REACTORS
330
3B
102
}
330
3B
100
AcDbScale
 70
     0
300
1/16" = 1'-0"
140
0.0625
141
12.0
290
     0
  0
SCALE
  5
51
102
{ACAD_REACTORS
330
3B
102
}
330
3B
100
AcDbScale
 70
     0
300
3/32" = 1'-0"
140
0.09375
141
12.0
290
     0
  0
SCALE
  5
52
102
{ACAD_REACTORS
330
3B
102
}
330
3B
100
AcDbScale
 70
     0
300
1/8" = 1'-0"
140
0.125
141
12.0
290
     0
  0
SCALE
  5
53
102
{ACAD_REACTORS
330
3B
102
}
330
3B
100
AcDbScale
 70
     0
300
3/16" = 1'-0"
140
0.1875
141
12.0
290
     0
  0
SCALE
  5
54
102
{ACAD_REACTORS
330
3B
102
}
330
3B
100
AcDbScale
 70
     0
300
1/4" = 1'-0"
140
0.25
141
12.0
290
     0
  0
SCALE
  5
55
102
{ACAD_REACTORS
330
3B
102
}
330
3B
100
AcDbScale
 70
     0
300
3/8" = 1'-0"
140
0.375
141
12.0
290
     0
  0
SCALE
  5
56
102
{ACAD_REACTORS
330
3B
102
}
330
3B
100
AcDbScale
 70
     0
300
1/2" = 1'-0"
140
0.5
141
12.0
290
     0
  0
SCALE
  5
57
102
{ACAD_REACTORS
330
3B
102
}
330
3B
100
AcDbScale
 70
     0
300
3/4" = 1'-0"
140
0.75
141
12.0
290
     0
  0
SCALE
  5
58
102
{ACAD_REACTORS
330
3B
102
}
330
3B
100
AcDbScale
 70
     0
300
1" = 1'-0"
140
1.0
141
12.0
290
     0
  0
SCALE
  5
59
102
{ACAD_REACTORS
330
3B
102
}
330
3B
100
AcDbScale
 70
     0
300
1-1/2" = 1'-0"
140
1.5
141
12.0
290
     0
  0
SCALE
  5
5A
102
{ACAD_REACTORS
330
3B
102
}
330
3B
100
AcDbScale
 70
     0
300
3" = 1'-0"
140
3.0
141
12.0
290
     0
  0
SCALE
  5
5B
102
{ACAD_REACTORS
330
3B
102
}
330
3B
100
AcDbScale
 70
     0
300
6" = 1'-0"
140
6.0
141
12.0
290
     0
  0
SCALE
  5
5C
102
{ACAD_REACTORS
330
3B
102
}
330
3B
100
AcDbScale
 70
     0
300
1'-0" = 1'-0"
140
12.0
141
12.0
290
     0
  0
VISUALSTYLE
  5
2F
102
{ACAD_REACTORS
330
2A
102
}
330
2A
100
AcDbVisualStyle
  2
2dWireframe
 70
     4
 71
     0
 72
     2
 73
     0
 90
        0
 40
-0.6
 41
-30.0
 62
     5
 63
     7
 74
     1
 91
        4
 64
     7
 65
   257
 75
     1
175
     1
 42
1.0
 92
        0
 66
   257
 43
1.0
 76
     1
 77
     6
 78
     2
 67
     7
 79
     5
170
     0
171
     0
290
     0
174
     0
 93
        1
 44
0.0
173
     0
291
     0
 45
0.0
1001
ACAD
1000
AcDbSavedByObjectVersion
1070
     0
  0
VISUALSTYLE
  5
31
102
{ACAD_REACTORS
330
2A
102
}
330
2A
100
AcDbVisualStyle
  2
3D Hidden
 70
     6
 71
     1
 72
     2
 73
     2
 90
        0
 40
-0.6
 41
-30.0
 62
     5
 63
     7
 74
     2
 91
        2
 64
     7
 65
   257
 75
     2
175
     1
 42
40.0
 92
        0
 66
   257
 43
1.0
 76
     1
 77
     6
 78
     2
 67
     7
 79
     3
170
     0
171
     0
290
     0
174
     0
 93
        1
 44
0.0
173
     0
291
     0
 45
0.0
1001
ACAD
1000
AcDbSavedByObjectVersion
1070
     0
  0
VISUALSTYLE
  5
30
102
{ACAD_REACTORS
330
2A
102
}
330
2A
100
AcDbVisualStyle
  2
3dWireframe
 70
     5
 71
     0
 72
     2
 73
     0
 90
        0
 40
-0.6
 41
-30.0
 62
     5
 63
     7
 74
     1
 91
        4
 64
     7
 65
   257
 75
     1
175
     1
 42
1.0
 92
        0
 66
   257
 43
1.0
 76
     1
 77
     6
 78
     2
 67
     7
 79
     5
170
     0
171
     0
290
     0
174
     0
 93
        1
 44
0.0
173
     0
291
     0
 45
0.0
1001
ACAD
1000
AcDbSavedByObjectVersion
1070
     0
  0
VISUALSTYLE
  5
32
102
{ACAD_REACTORS
330
2A
102
}
330
2A
100
AcDbVisualStyle
  2
Basic
 70
     7
 71
     1
 72
     0
 73
     1
 90
        0
 40
-0.6
 41
-30.0
 62
     5
 63
     7
 74
     0
 91
        4
 64
     7
 65
   257
 75
     1
175
     1
 42
1.0
 92
        8
 66
     7
 43
1.0
 76
     1
 77
     6
 78
     2
 67
     7
 79
     5
170
     0
171
     0
290
     0
174
     0
 93
        1
 44
0.0
173
     0
291
     1
 45
0.0
1001
ACAD
1000
AcDbSavedByObjectVersion
1070
     0
  0
VISUALSTYLE
  5
36
102
{ACAD_REACTORS
330
2A
102
}
330
2A
100
AcDbVisualStyle
  2
Brighten
 70
    12
 71
     2
 72
     2
 73
     0
 90
        0
 40
-0.6
 41
-30.0
 62
     5
 63
     7
 74
     1
 91
        4
 64
     7
 65
   257
 75
     1
175
     1
 42
1.0
 92
        8
 66
     7
 43
1.0
 76
     1
 77
     6
 78
     2
 67
     7
 79
     5
170
     0
171
     0
290
     0
174
     0
 93
        1
 44
50.0
173
     0
291
     1
 45
0.0
1001
ACAD
1000
AcDbSavedByObjectVersion
1070
     0
  0
VISUALSTYLE
  5
3A
102
{ACAD_REACTORS
330
2A
102
}
330
2A
100
AcDbVisualStyle
  2
ColorChange
 70
    16
 71
     2
 72
     2
 73
     3
 90
        0
 40
-0.6
 41
-30.0
 62
     5
 63
     8
 74
     1
 91
        4
 64
     7
 65
   257
 75
     1
175
     1
 42
1.0
 92
        8
 66
     8
 43
1.0
 76
     1
 77
     6
 78
     2
 67
     7
 79
     5
170
     0
171
     0
290
     0
174
     0
 93
        1
 44
0.0
173
     0
291
     1
 45
0.0
1001
ACAD
1000
AcDbSavedByObjectVersion
1070
     0
  0
VISUALSTYLE
  5
34
102
{ACAD_REACTORS
330
2A
102
}
330
2A
100
AcDbVisualStyle
  2
Conceptual
 70
     9
 71
     3
 72
     2
 73
     0
 90
        0
 40
-0.6
 41
-30.0
 62
     5
 63
     7
 74
     2
 91
        2
 64
     7
 65
   257
 75
     1
175
     1
 42
40.0
 92
        8
 66
     7
 43
1.0
 76
     1
 77
     6
 78
     2
 67
     7
 79
     3
170
     0
171
     0
290
     0
174
     0
 93
        1
 44
0.0
173
     0
291
     0
 45
0.0
1001
ACAD
1000
AcDbSavedByObjectVersion
1070
     0
  0
VISUALSTYLE
  5
35
102
{ACAD_REACTORS
330
2A
102
}
330
2A
100
AcDbVisualStyle
  2
Dim
 70
    11
 71
     2
 72
     2
 73
     0
 90
        0
 40
-0.6
 41
-30.0
 62
     5
 63
     7
 74
     1
 91
        4
 64
     7
 65
   257
 75
     1
175
     1
 42
1.0
 92
        8
 66
     7
 43
1.0
 76
     1
 77
     6
 78
     2
 67
     7
 79
     5
170
     0
171
     0
290
     0
174
     0
 93
        1
 44
-50.0
173
     0
291
     1
 45
0.0
1001
ACAD
1000
AcDbSavedByObjectVersion
1070
     0
  0
VISUALSTYLE
  5
39
102
{ACAD_REACTORS
330
2A
102
}
330
2A
100
AcDbVisualStyle
  2
Facepattern
 70
    15
 71
     2
 72
     2
 73
     0
 90
        0
 40
-0.6
 41
-30.0
 62
     5
 63
     7
 74
     1
 91
        4
 64
     7
 65
   257
 75
     1
175
     1
 42
1.0
 92
        8
 66
     7
 43
1.0
 76
     1
 77
     6
 78
     2
 67
     7
 79
     5
170
     0
171
     0
290
     0
174
     0
 93
        1
 44
0.0
173
     0
291
     1
 45
0.0
1001
ACAD
1000
AcDbSavedByObjectVersion
1070
     0
  0
VISUALSTYLE
  5
2B
102
{ACAD_REACTORS
330
2A
102
}
330
2A
100
AcDbVisualStyle
  2
Flat
 70
     0
 71
     2
 72
     1
 73
     1
 90
        2
 40
-0.6
 41
30.0
 62
     5
 63
     7
 74
     0
 91
        4
 64
     7
 65
   257
 75
     1
175
     1
 42
1.0
 92
        8
 66
     7
 43
1.0
 76
     1
 77
     6
 78
     2
 67
     7
 79
     5
170
     0
171
     0
290
     0
174
     0
 93
       13
 44
0.0
173
     0
291
     1
 45
0.0
1001
ACAD
1000
AcDbSavedByObjectVersion
1070
     0
  0
VISUALSTYLE
  5
2C
102
{ACAD_REACTORS
330
2A
102
}
330
2A
100
AcDbVisualStyle
  2
FlatWithEdges
 70
     1
 71
     2
 72
     1
 73
     1
 90
        2
 40
-0.6
 41
30.0
 62
     5
 63
     7
 74
     1
 91
        4
 64
     7
 65
   257
 75
     1
175
     1
 42
1.0
 92
        0
 66
   257
 43
1.0
 76
     1
 77
     6
 78
     2
 67
     7
 79
     5
170
     0
171
     0
290
     0
174
     0
 93
       13
 44
0.0
173
     0
291
     1
 45
0.0
1001
ACAD
1000
AcDbSavedByObjectVersion
1070
     0
  0
VISUALSTYLE
  5
2D
102
{ACAD_REACTORS
330
2A
102
}
330
2A
100
AcDbVisualStyle
  2
Gouraud
 70
     2
 71
     2
 72
     2
 73
     1
 90
        2
 40
-0.6
 41
30.0
 62
     5
 63
     7
 74
     0
 91
        4
 64
     7
 65
   257
 75
     1
175
     1
 42
1.0
 92
        0
 66
     7
 43
1.0
 76
     1
 77
     6
 78
     2
 67
     7
 79
     5
170
     0
171
     0
290
     0
174
     0
 93
       13
 44
0.0
173
     0
291
     1
 45
0.0
1001
ACAD
1000
AcDbSavedByObjectVersion
1070
     0
  0
VISUALSTYLE
  5
2E
102
{ACAD_REACTORS
330
2A
102
}
330
2A
100
AcDbVisualStyle
  2
GouraudWithEdges
 70
     3
 71
     2
 72
     2
 73
     1
 90
        2
 40
-0.6
 41
30.0
 62
     5
 63
     7
 74
     1
 91
        4
 64
     7
 65
   257
 75
     1
175
     1
 42
1.0
 92
        0
 66
   257
 43
1.0
 76
     1
 77
     6
 78
     2
 67
     7
 79
     5
170
     0
171
     0
290
     0
174
     0
 93
       13
 44
0.0
173
     0
291
     1
 45
0.0
1001
ACAD
1000
AcDbSavedByObjectVersion
1070
     0
  0
VISUALSTYLE
  5
38
102
{ACAD_REACTORS
330
2A
102
}
330
2A
100
AcDbVisualStyle
  2
Linepattern
 70
    14
 71
     2
 72
     2
 73
     0
 90
        0
 40
-0.6
 41
-30.0
 62
     5
 63
     7
 74
     1
 91
        4
 64
     7
 65
   257
 75
     7
175
     7
 42
1.0
 92
        8
 66
     7
 43
1.0
 76
     1
 77
     6
 78
     2
 67
     7
 79
     5
170
     0
171
     0
290
     0
174
     0
 93
        1
 44
0.0
173
     0
291
     1
 45
0.0
1001
ACAD
1000
AcDbSavedByObjectVersion
1070
     0
  0
VISUALSTYLE
  5
33
102
{ACAD_REACTORS
330
2A
102
}
330
2A
100
AcDbVisualStyle
  2
Realistic
 70
     8
 71
     2
 72
     2
 73
     0
 90
        0
 40
-0.6
 41
-30.0
 62
     5
 63
     7
 74
     1
 91
        0
 64
     7
 65
   257
 75
     1
175
     1
 42
1.0
 92
        8
 66
     8
 43
1.0
 76
     1
 77
     6
 78
     2
 67
     7
 79
     5
170
     0
171
     0
290
     0
174
     0
 93
       13
 44
0.0
173
     0
291
     0
 45
0.0
1001
ACAD
1000
AcDbSavedByObjectVersion
1070
     0
  0
VISUALSTYLE
  5
37
102
{ACAD_REACTORS
330
2A
102
}
330
2A
100
AcDbVisualStyle
  2
Thicken
 70
    13
 71
     2
 72
     2
 73
     0
 90
        0
 40
-0.6
 41
-30.0
 62
     5
 63
     7
 74
     1
 91
        4
 64
     7
 65
   257
 75
     1
175
     1
 42
1.0
 92
       12
 66
     7
 43
1.0
 76
     1
 77
     6
 78
     2
 67
     7
 79
     5
170
     0
171
     0
290
     0
174
     0
 93
        1
 44
0.0
173
     0
291
     1
 45
0.0
1001
ACAD
1000
AcDbSavedByObjectVersion
1070
     0
  0
DICTIONARYVAR
  5
17B
102
{ACAD_REACTORS
330
17A
102
}
330
17A
100
DictionaryVariables
280
     0
  1
1:1
  0
DICTIONARYVAR
  5
17F
102
{ACAD_REACTORS
330
17A
102
}
330
17A
100
DictionaryVariables
280
     0
  1
80.000000
  0
DICTIONARYVAR
  5
17E
102
{ACAD_REACTORS
330
17A
102
}
330
17A
100
DictionaryVariables
280
     0
  1
5.000000
  0
ENDSEC
  0
EOF
