  0
SECTION
  2
HEADER
  9
$ACADVER
  1
AC1024
  9
$ACADMAINTVER
 70
   226
  9
$DWGCODEPAGE
  3
ANSI_1252
  9
$LASTSAVEDBY
  1
donat
  9
$INSBASE
 10
0.0
 20
0.0
 30
0.0
  9
$EXTMIN
 10
-15.87013547828314
 20
-0.9159999999988214
 30
0.0
  9
$EXTMAX
 10
7.499999999999699
 20
25.6008182407969
 30
0.0
  9
$LIMMIN
 10
0.0
 20
0.0
  9
$LIMMAX
 10
12.0
 20
9.0
  9
$ORTHOMODE
 70
     1
  9
$REGENMODE
 70
     1
  9
$FILLMODE
 70
     1
  9
$QTEXTMODE
 70
     0
  9
$MIRRTEXT
 70
     0
  9
$LTSCALE
 40
1.0
  9
$ATTMODE
 70
     1
  9
$TEXTSIZE
 40
0.2
  9
$TRACEWID
 40
0.05
  9
$TEXTSTYLE
  7
Standard
  9
$CLAYER
  8
0
  9
$CELTYPE
  6
ByLayer
  9
$CECOLOR
 62
   256
  9
$CELTSCALE
 40
1.0
  9
$DISPSILH
 70
     0
  9
$DIMSCALE
 40
1.0
  9
$DIMASZ
 40
0.18
  9
$DIMEXO
 40
0.0625
  9
$DIMDLI
 40
0.38
  9
$DIMRND
 40
0.0
  9
$DIMDLE
 40
0.0
  9
$DIMEXE
 40
0.18
  9
$DIMTP
 40
0.0
  9
$DIMTM
 40
0.0
  9
$DIMTXT
 40
0.18
  9
$DIMCEN
 40
0.09
  9
$DIMTSZ
 40
0.0
  9
$DIMTOL
 70
     0
  9
$DIMLIM
 70
     0
  9
$DIMTIH
 70
     1
  9
$DIMTOH
 70
     1
  9
$DIMSE1
 70
     0
  9
$DIMSE2
 70
     0
  9
$DIMTAD
 70
     0
  9
$DIMZIN
 70
     0
  9
$DIMBLK
  1

  9
$DIMASO
 70
     1
  9
$DIMSHO
 70
     1
  9
$DIMPOST
  1

  9
$DIMAPOST
  1

  9
$DIMALT
 70
     0
  9
$DIMALTD
 70
     2
  9
$DIMALTF
 40
25.4
  9
$DIMLFAC
 40
1.0
  9
$DIMTOFL
 70
     0
  9
$DIMTVP
 40
0.0
  9
$DIMTIX
 70
     0
  9
$DIMSOXD
 70
     0
  9
$DIMSAH
 70
     0
  9
$DIMBLK1
  1

  9
$DIMBLK2
  1

  9
$DIMSTYLE
  2
Standard
  9
$DIMCLRD
 70
     0
  9
$DIMCLRE
 70
     0
  9
$DIMCLRT
 70
     0
  9
$DIMTFAC
 40
1.0
  9
$DIMGAP
 40
0.09
  9
$DIMJUST
 70
     0
  9
$DIMSD1
 70
     0
  9
$DIMSD2
 70
     0
  9
$DIMTOLJ
 70
     1
  9
$DIMTZIN
 70
     0
  9
$DIMALTZ
 70
     0
  9
$DIMALTTZ
 70
     0
  9
$DIMUPT
 70
     0
  9
$DIMDEC
 70
     4
  9
$DIMTDEC
 70
     4
  9
$DIMALTU
 70
     4
  9
$DIMALTTD
 70
     2
  9
$DIMTXSTY
  7
Standard
  9
$DIMAUNIT
 70
     0
  9
$DIMADEC
 70
     0
  9
$DIMALTRND
 40
0.0
  9
$DIMAZIN
 70
     0
  9
$DIMDSEP
 70
    46
  9
$DIMATFIT
 70
     3
  9
$DIMFRAC
 70
     0
  9
$DIMLDRBLK
  1

  9
$DIMLUNIT
 70
     4
  9
$DIMLWD
 70
    -2
  9
$DIMLWE
 70
    -2
  9
$DIMTMOVE
 70
     0
  9
$DIMFXL
 40
1.0
  9
$DIMFXLON
 70
     0
  9
$DIMJOGANG
 40
0.7853981633974483
  9
$DIMTFILL
 70
     0
  9
$DIMTFILLCLR
 70
     0
  9
$DIMARCSYM
 70
     0
  9
$DIMLTYPE
  6

  9
$DIMLTEX1
  6

  9
$DIMLTEX2
  6

  9
$DIMTXTDIRECTION
 70
     0
  9
$LUNITS
 70
     4
  9
$LUPREC
 70
     4
  9
$SKETCHINC
 40
0.1
  9
$FILLETRAD
 40
0.0
  9
$AUNITS
 70
     0
  9
$AUPREC
 70
     0
  9
$MENU
  1
.
  9
$ELEVATION
 40
0.0
  9
$PELEVATION
 40
0.0
  9
$THICKNESS
 40
0.0
  9
$LIMCHECK
 70
     0
  9
$CHAMFERA
 40
0.0
  9
$CHAMFERB
 40
0.0
  9
$CHAMFERC
 40
0.0
  9
$CHAMFERD
 40
0.0
  9
$SKPOLY
 70
     0
  9
$TDCREATE
 40
2459727.938518518
  9
$TDUCREATE
 40
2459728.105185185
  9
$TDUPDATE
 40
2459727.974201389
  9
$TDUUPDATE
 40
2459728.140868056
  9
$TDINDWG
 40
0.0159722222
  9
$TDUSRTIMER
 40
0.0159722222
  9
$USRTIMER
 70
     1
  9
$ANGBASE
 50
0.0
  9
$ANGDIR
 70
     0
  9
$PDMODE
 70
     0
  9
$PDSIZE
 40
0.0
  9
$PLINEWID
 40
0.0
  9
$SPLFRAME
 70
     0
  9
$SPLINETYPE
 70
     6
  9
$SPLINESEGS
 70
     8
  9
$HANDSEED
  5
117E
  9
$SURFTAB1
 70
     6
  9
$SURFTAB2
 70
     6
  9
$SURFTYPE
 70
     6
  9
$SURFU
 70
     6
  9
$SURFV
 70
     6
  9
$UCSBASE
  2

  9
$UCSNAME
  2

  9
$UCSORG
 10
0.0
 20
0.0
 30
0.0
  9
$UCSXDIR
 10
1.0
 20
0.0
 30
0.0
  9
$UCSYDIR
 10
0.0
 20
1.0
 30
0.0
  9
$UCSORTHOREF
  2

  9
$UCSORTHOVIEW
 70
     0
  9
$UCSORGTOP
 10
0.0
 20
0.0
 30
0.0
  9
$UCSORGBOTTOM
 10
0.0
 20
0.0
 30
0.0
  9
$UCSORGLEFT
 10
0.0
 20
0.0
 30
0.0
  9
$UCSORGRIGHT
 10
0.0
 20
0.0
 30
0.0
  9
$UCSORGFRONT
 10
0.0
 20
0.0
 30
0.0
  9
$UCSORGBACK
 10
0.0
 20
0.0
 30
0.0
  9
$PUCSBASE
  2

  9
$PUCSNAME
  2

  9
$PUCSORG
 10
0.0
 20
0.0
 30
0.0
  9
$PUCSXDIR
 10
1.0
 20
0.0
 30
0.0
  9
$PUCSYDIR
 10
0.0
 20
1.0
 30
0.0
  9
$PUCSORTHOREF
  2

  9
$PUCSORTHOVIEW
 70
     0
  9
$PUCSORGTOP
 10
0.0
 20
0.0
 30
0.0
  9
$PUCSORGBOTTOM
 10
0.0
 20
0.0
 30
0.0
  9
$PUCSORGLEFT
 10
0.0
 20
0.0
 30
0.0
  9
$PUCSORGRIGHT
 10
0.0
 20
0.0
 30
0.0
  9
$PUCSORGFRONT
 10
0.0
 20
0.0
 30
0.0
  9
$PUCSORGBACK
 10
0.0
 20
0.0
 30
0.0
  9
$USERI1
 70
     0
  9
$USERI2
 70
     0
  9
$USERI3
 70
     0
  9
$USERI4
 70
     0
  9
$USERI5
 70
     0
  9
$USERR1
 40
0.0
  9
$USERR2
 40
0.0
  9
$USERR3
 40
0.0
  9
$USERR4
 40
0.0
  9
$USERR5
 40
0.0
  9
$WORLDVIEW
 70
     1
  9
$SHADEDGE
 70
     3
  9
$SHADEDIF
 70
    70
  9
$TILEMODE
 70
     1
  9
$MAXACTVP
 70
    64
  9
$PINSBASE
 10
0.0
 20
0.0
 30
0.0
  9
$PLIMCHECK
 70
     0
  9
$PEXTMIN
 10
1.000000000000000E+20
 20
1.000000000000000E+20
 30
1.000000000000000E+20
  9
$PEXTMAX
 10
-1.000000000000000E+20
 20
-1.000000000000000E+20
 30
-1.000000000000000E+20
  9
$PLIMMIN
 10
0.0
 20
0.0
  9
$PLIMMAX
 10
12.0
 20
9.0
  9
$UNITMODE
 70
     0
  9
$VISRETAIN
 70
     1
  9
$PLINEGEN
 70
     0
  9
$PSLTSCALE
 70
     1
  9
$TREEDEPTH
 70
  3020
  9
$CMLSTYLE
  2
Standard
  9
$CMLJUST
 70
     0
  9
$CMLSCALE
 40
1.0
  9
$PROXYGRAPHICS
 70
     1
  9
$MEASUREMENT
 70
     0
  9
$CELWEIGHT
370
    -1
  9
$ENDCAPS
280
     0
  9
$JOINSTYLE
280
     0
  9
$LWDISPLAY
290
     0
  9
$INSUNITS
 70
     1
  9
$HYPERLINKBASE
  1

  9
$STYLESHEET
  1

  9
$XEDIT
290
     1
  9
$CEPSNTYPE
380
     0
  9
$PSTYLEMODE
290
     1
  9
$FINGERPRINTGUID
  2
{74A627D6-9508-CB40-A846-928450D8BFB4}
  9
$VERSIONGUID
  2
{B326FE3B-837E-FB45-B605-1CD2EBD85C40}
  9
$EXTNAMES
290
     1
  9
$PSVPSCALE
 40
0.0
  9
$OLESTARTUP
290
     0
  9
$SORTENTS
280
   127
  9
$INDEXCTL
280
     0
  9
$HIDETEXT
280
     1
  9
$XCLIPFRAME
280
     2
  9
$HALOGAP
280
     0
  9
$OBSCOLOR
 70
   257
  9
$OBSLTYPE
280
     0
  9
$INTERSECTIONDISPLAY
280
     0
  9
$INTERSECTIONCOLOR
 70
   257
  9
$DIMASSOC
280
     2
  9
$PROJECTNAME
  1

  9
$CAMERADISPLAY
290
     0
  9
$LENSLENGTH
 40
50.0
  9
$CAMERAHEIGHT
 40
0.0
  9
$STEPSPERSEC
 40
2.0
  9
$STEPSIZE
 40
6.0
  9
$3DDWFPREC
 40
2.0
  9
$PSOLWIDTH
 40
0.25
  9
$PSOLHEIGHT
 40
4.0
  9
$LOFTANG1
 40
1.570796326794896
  9
$LOFTANG2
 40
1.570796326794896
  9
$LOFTMAG1
 40
0.0
  9
$LOFTMAG2
 40
0.0
  9
$LOFTPARAM
 70
     7
  9
$LOFTNORMALS
280
     1
  9
$LATITUDE
 40
0.0
  9
$LONGITUDE
 40
0.0
  9
$NORTHDIRECTION
 40
0.0
  9
$TIMEZONE
 70
     0
  9
$LIGHTGLYPHDISPLAY
280
     1
  9
$TILEMODELIGHTSYNCH
280
     1
  9
$CMATERIAL
347
11
  9
$SOLIDHIST
280
     0
  9
$SHOWHIST
280
     1
  9
$DWFFRAME
280
     2
  9
$DGNFRAME
280
     0
  9
$REALWORLDSCALE
290
     1
  9
$INTERFERECOLOR
 62
     1
  9
$INTERFEREOBJVS
345
33
  9
$INTERFEREVPVS
346
30
  9
$CSHADOW
280
     0
  9
$SHADOWPLANELOCATION
 40
0.0
  0
ENDSEC
  0
SECTION
  2
CLASSES
  0
CLASS
  1
ACDBDICTIONARYWDFLT
  2
AcDbDictionaryWithDefault
  3
ObjectDBX Classes
 90
        0
 91
        1
280
     0
281
     0
  0
CLASS
  1
MATERIAL
  2
AcDbMaterial
  3
ObjectDBX Classes
 90
     1153
 91
        3
280
     0
281
     0
  0
CLASS
  1
VISUALSTYLE
  2
AcDbVisualStyle
  3
ObjectDBX Classes
 90
     4095
 91
       24
280
     0
281
     0
  0
CLASS
  1
SCALE
  2
AcDbScale
  3
ObjectDBX Classes
 90
     1153
 91
       17
280
     0
281
     0
  0
CLASS
  1
TABLESTYLE
  2
AcDbTableStyle
  3
ObjectDBX Classes
 90
     4095
 91
        1
280
     0
281
     0
  0
CLASS
  1
MLEADERSTYLE
  2
AcDbMLeaderStyle
  3
ACDB_MLEADERSTYLE_CLASS
 90
     4095
 91
        1
280
     0
281
     0
  0
CLASS
  1
ACDBSECTIONVIEWSTYLE
  2
AcDbSectionViewStyle
  3
ObjectDBX Classes
 90
     1025
 91
        1
280
     0
281
     0
  0
CLASS
  1
ACDBDETAILVIEWSTYLE
  2
AcDbDetailViewStyle
  3
ObjectDBX Classes
 90
     1025
 91
        1
280
     0
281
     0
  0
CLASS
  1
RASTERVARIABLES
  2
AcDbRasterVariables
  3
ISM
 90
        0
 91
        1
280
     0
281
     0
  0
CLASS
  1
DICTIONARYVAR
  2
AcDbDictionaryVar
  3
ObjectDBX Classes
 90
        0
 91
        5
280
     0
281
     0
  0
CLASS
  1
SORTENTSTABLE
  2
AcDbSortentsTable
  3
ObjectDBX Classes
 90
        0
 91
        2
280
     0
281
     0
  0
CLASS
  1
CELLSTYLEMAP
  2
AcDbCellStyleMap
  3
ObjectDBX Classes
 90
     1152
 91
        2
280
     0
281
     0
  0
ENDSEC
  0
SECTION
  2
TABLES
  0
TABLE
  2
VPORT
  5
8
330
0
100
AcDbSymbolTable
 70
     1
  0
VPORT
  5
57
330
8
100
AcDbSymbolTableRecord
100
AcDbViewportTableRecord
  2
*Active
 70
     0
 10
0.0
 20
0.0
 11
1.0
 21
1.0
 12
7.045569446551255
 22
7.742098894277411
 13
0.0
 23
0.0
 14
1.0
 24
1.0
 15
0.0
 25
0.0
 16
0.0
 26
0.0
 36
1.0
 17
0.0
 27
0.0
 37
0.0
 40
49.33705532575934
 41
1.987515605493133
 42
50.0
 43
0.0
 44
0.0
 50
0.0
 51
0.0
 71
     0
 72
  1000
 73
     1
 74
     0
 75
     0
 76
     0
 77
     0
 78
     0
281
     0
 65
     1
110
0.0
120
0.0
130
0.0
111
1.0
121
0.0
131
0.0
112
0.0
122
1.0
132
0.0
 79
     0
146
0.0
348
2F
 60
     3
 61
     5
292
     1
282
     1
141
0.0
142
0.0
 63
   250
421
  3355443
1001
ACAD_NAV_VCDISPLAY
1070
     3
  0
ENDTAB
  0
TABLE
  2
LTYPE
  5
5
330
0
100
AcDbSymbolTable
 70
     1
  0
LTYPE
  5
5B
330
5
100
AcDbSymbolTableRecord
100
AcDbLinetypeTableRecord
  2
ByBlock
 70
     0
  3

 72
    65
 73
     0
 40
0.0
  0
LTYPE
  5
5C
330
5
100
AcDbSymbolTableRecord
100
AcDbLinetypeTableRecord
  2
ByLayer
 70
     0
  3

 72
    65
 73
     0
 40
0.0
  0
LTYPE
  5
5D
330
5
100
AcDbSymbolTableRecord
100
AcDbLinetypeTableRecord
  2
Continuous
 70
     0
  3
Solid line
 72
    65
 73
     0
 40
0.0
  0
ENDTAB
  0
TABLE
  2
LAYER
  5
2
102
{ACAD_XDICTIONARY
360
2E2
102
}
330
0
100
AcDbSymbolTable
 70
     1
  0
LAYER
  5
54
330
2
100
AcDbSymbolTableRecord
100
AcDbLayerTableRecord
  2
0
 70
     0
 62
     7
  6
Continuous
370
    -3
390
F
347
21
  0
ENDTAB
  0
TABLE
  2
STYLE
  5
3
330
0
100
AcDbSymbolTable
 70
     1
  0
STYLE
  5
55
330
3
100
AcDbSymbolTableRecord
100
AcDbTextStyleTableRecord
  2
Standard
 70
     0
 40
0.0
 41
1.0
 50
0.0
 71
     0
 42
0.2
  3
txt
  4

  0
ENDTAB
  0
TABLE
  2
VIEW
  5
6
330
0
100
AcDbSymbolTable
 70
     0
  0
ENDTAB
  0
TABLE
  2
UCS
  5
7
330
0
100
AcDbSymbolTable
 70
     0
  0
ENDTAB
  0
TABLE
  2
APPID
  5
9
330
0
100
AcDbSymbolTable
 70
     4
  0
APPID
  5
56
330
9
100
AcDbSymbolTableRecord
100
AcDbRegAppTableRecord
  2
ACAD
 70
     0
  0
APPID
  5
5E
330
9
100
AcDbSymbolTableRecord
100
AcDbRegAppTableRecord
  2
AcadAnnotative
 70
     0
  0
APPID
  5
78
330
9
100
AcDbSymbolTableRecord
100
AcDbRegAppTableRecord
  2
REVIT
 70
     0
  0
APPID
  5
18B
330
9
100
AcDbSymbolTableRecord
100
AcDbRegAppTableRecord
  2
ACAD_NAV_VCDISPLAY
 70
     0
  0
ENDTAB
  0
TABLE
  2
DIMSTYLE
  5
A
330
0
100
AcDbSymbolTable
 70
     1
100
AcDbDimStyleTable
 71
     0
  0
DIMSTYLE
105
58
330
A
100
AcDbSymbolTableRecord
100
AcDbDimStyleTableRecord
  2
Standard
 70
     0
340
55
  0
ENDTAB
  0
TABLE
  2
BLOCK_RECORD
  5
1
330
0
100
AcDbSymbolTable
 70
     4
  0
BLOCK_RECORD
  5
70
102
{ACAD_XDICTIONARY
360
134
102
}
330
1
100
AcDbSymbolTableRecord
100
AcDbBlockTableRecord
  2
*Model_Space
340
73
 70
     0
280
     1
281
     0
  0
BLOCK_RECORD
  5
6C
330
1
100
AcDbSymbolTableRecord
100
AcDbBlockTableRecord
  2
*Paper_Space
340
6F
 70
     0
280
     1
281
     0
  0
BLOCK_RECORD
  5
74
330
1
100
AcDbSymbolTableRecord
100
AcDbBlockTableRecord
  2
*Paper_Space0
340
77
 70
     0
280
     1
281
     0
  0
BLOCK_RECORD
  5
D99
330
1
100
AcDbSymbolTableRecord
100
AcDbBlockTableRecord
  2
Flush_Valve-Urinal_Exposed-American_Standard-Ultima_Selectronic_6245-XXX-Top_View
340
0
310
28000000280000002800000001002000000000000019000001000000010000000000000000000000000000FF000000FF000000FF000000FF000000FF000000FF000000FF000000FF000000FF000000FF000000FF000000FF000000FF000000FF000000FF000000FF000000FF000000FF000000FF000000FF000000FF000000
310
FF000000FF000000FF000000FF000000FF000000FF000000FF000000FF000000FF000000FF000000FF000000FF000000FF000000FF000000FF000000FF000000FF000000FF000000FF000000FF000000FF000000FF000000FF000000FF000000FF000000FF000000FF000000FF000000FF000000FF000000FF000000FF0000
310
00FF000000FF000000FF000000FF000000FF000000FF000000FF000000FF000000FF000000FF000000FF000000FF000000FF000000FF000000FF000000FF000000FF000000FF000000FF000000FF000000FF000000FF000000FF000000FF000000FF000000FF000000FF000000FF000000FF000000FF000000FF000000FF00
310
0000FF000000FF000000FF000000FF000000FF000000FF000000FF000000FF000000FF000000FF000000FF000000FF000000FF000000FF000000FF000000FF000000FF000000FF000000FF000000FF000000FF000000FF000000FF000000FF000000FF000000FF000000FF000000FF000000FF000000FF000000FF000000FF
310
000000FF000000FF000000FF000000FF000000FF000000FF000000FF000000FF000000FF000000FF000000FF000000FF000000FF000000FF000000FF000000FF000000FF000000FF000000FF000000FF000000FF000000FF000000FF000000FF000000FF000000FF000000FF000000FF000000FF000000FF000000FF000000
310
FF000000FF000000FF000000FF000000FF000000FF000000FF000000FF000000FF000000FF000000FF000000FF000000FF000000FF000000FF000000FF000000FF000000FF000000FF000000FF000000FF000000FF000000FF000000FF000000FF000000FF000000FF000000FF000000FF000000FF000000FF000000FF0000
310
00FF000000FF000000FF000000FF000000FF000000FF000000FF000000FF000000FF000000FF000000FF000000FF000000FF000000FF000000FF000000FF000000FF000000FF000000FF000000FF000000FF000000FF000000FF000000FF000000FF000000FF000000FF000000FF000000FF000000FF000000FF000000FF00
310
0000FF000000FF000000FF000000FF000000FF000000FF000000FF000000FF000000FF000000FF000000FF000000FF000000FF000000FF000000FF000000FF000000FF000000FF000000FF000000FF000000FF000000FF000000FF000000FF000000FF000000FF000000FF000000FF000000FF000000FF000000FF000000FF
310
000000FF000000FF000000FF000000FF000000FF000000FF000000FF000000FF000000FF000000FF000000FF000000FF000000FF000000FF000000FF000000FF000000FF000000FF000000FF000000FF000000FF000000FF000000FF000000FF000000FF000000FF000000FF000000FF000000FF000000FF000000FF000000
310
FF000000FF000000FF000000FF000000FF000000FF000000FF000000FF000000FF000000FF000000FF000000FF000000FF000000FF000000FF000000FF000000FF000000FF000000FF000000FF000000FF000000FF000000FF000000FF000000FF000000FF000000FF000000FF000000FF000000FF000000FF000000FF0000
310
00FF000000FF000000FF000000FF000000FF000000FF000000FF000000FF000000FF000000FF000000FF000000FF000000FF000000FF000000FF000000FF000000FF000000FF000000FF000000FF000000FF000000FF000000FF000000FF000000FF000000FF000000FF000000FF000000FF000000FF000000FF000000FF00
310
0000FF000000FF000000FF000000FF000000FF000000FF000000FF000000FF000000FF000000FF000000FF000000FF000000FF000000FF000000FF000000FF000000FF000000FF000000FF000000FF000000FF000000FF000000FF000000FF000000FF000000FF000000FF000000FF000000FF000000FF000000FF000000FF
310
000000FF000000FF000000FF000000FF000000FF000000FF000000FF000000FF000000FF000000FF000000FF000000FF000000FF000000FF000000FF000000FF000000FF000000FF000000FF000000FF000000FF000000FF000000FF000000FF000000FF000000FF000000FF000000FF000000FF000000FF000000FF000000
310
FF000000FF000000FF000000FF000000FF000000FF000000FF000000FF000000FF000000FF000000FF000000FF000000FF000000FF000000FF000000FF000000FF000000FF000000FF000000FF000000FF000000FF000000FF000000FF000000FF000000FF000000FF000000FF000000FF000000FF000000FF000000FF0000
310
00FF000000FF000000FF000000FF000000FF000000FF000000FF000000FF000000FF000000FF000000FF000000FF000000FF000000FF000000FF000000FF000000FF000000FF000000FF000000FF000000FF000000FF000000FF000000FF000000FF000000FF000000FF000000FF000000FF000000FF000000FF000000FF00
310
0000FF000000FF000000FF000000FF000000FF000000FF000000FF000000FF000000FF000000FF000000FF000000FF000000FF000000FF000000FF000000FF000000FF000000FF000000FF000000FFFFFFFFFFFFFFFFFFFFFFFFFFFFFFFFFFFFFFFFFFFFFFFFFF000000FF000000FF000000FF000000FF000000FF000000FF
310
000000FF000000FF000000FF000000FF000000FF000000FF000000FF000000FF000000FF000000FF000000FF000000FF000000FF000000FF000000FF000000FF000000FF000000FF000000FF000000FF000000FF000000FF000000FF000000FF000000FF000000FFFFFFFFFFFFFFFFFFFFFFFFFFFFFFFFFFFFFFFFFF000000
310
FFFFFFFFFFFFFFFFFFFFFFFFFFFFFFFFFF000000FF000000FF000000FF000000FF000000FF000000FF000000FF000000FF000000FF000000FF000000FF000000FF000000FF000000FF000000FFFFFFFFFFFFFFFFFFFFFFFFFFFFFFFFFFFFFFFFFFFFFFFFFFFFFFFFFFFFFFFFFF000000FF000000FF000000FF000000FF0000
310
00FF000000FFFFFFFFFFFFFFFFFF000000FF000000FFFFFFFFFFFFFFFFFFFFFFFFFFFFFFFFFFFFFFFFFF000000FFFFFFFFFFFFFFFFFF000000FF000000FF000000FF000000FF000000FF000000FF000000FF000000FF000000FF000000FF000000FF000000FF000000FFFFFFFFFFFFFFFFFF000000FF000000FF000000FF00
310
0000FF000000FFFFFFFFFFFFFFFFFF000000FF000000FF000000FF000000FF000000FF000000FFFFFFFFFF000000FF000000FFFFFFFFFF000000FF000000FF000000FF000000FF000000FFFFFFFFFF000000FFFFFFFFFFFFFFFFFFFFFFFFFF000000FF000000FFFFFFFFFFFFFFFFFFFFFFFFFF000000FF000000FF000000FF
310
000000FF000000FF000000FFFFFFFFFFFFFFFFFFFFFFFFFFFFFFFFFFFFFFFFFFFFFFFFFFFFFFFFFFFFFFFFFFFFFFFFFF000000FF000000FF000000FF000000FF000000FFFFFFFFFFFFFFFFFF000000FFFFFFFFFF000000FF000000FF000000FF000000FF000000FF000000FF000000FFFFFFFFFF000000FFFFFFFFFFFFFFFF
310
FFFFFFFFFFFFFFFFFFFFFFFFFF000000FFFFFFFFFFFFFFFFFFFFFFFFFFFFFFFFFFFFFFFFFFFFFFFFFFFFFFFFFFFFFFFFFFFFFFFFFF000000FF000000FF000000FF000000FF000000FFFFFFFFFFFFFFFFFF000000FF000000FF000000FF000000FF000000FFFFFFFFFFFFFFFFFFFFFFFFFFFFFFFFFF000000FF000000FF0000
310
00FF000000FF000000FF000000FF000000FFFFFFFFFF000000FFFFFFFFFFFFFFFFFF000000FF000000FFFFFFFFFF000000FFFFFFFFFF000000FFFFFFFFFF000000FF000000FF000000FF000000FF000000FF000000FF000000FF000000FF000000FF000000FF000000FF000000FFFFFFFFFF000000FF000000FF000000FF00
310
0000FF000000FFFFFFFFFFFFFFFFFFFFFFFFFF000000FF000000FF000000FF000000FF000000FF000000FF000000FF000000FFFFFFFFFF000000FFFFFFFFFFFFFFFFFF000000FF000000FFFFFFFFFF000000FFFFFFFFFF000000FFFFFFFFFF000000FF000000FF000000FF000000FF000000FF000000FF000000FF000000FF
310
000000FF000000FF000000FF000000FFFFFFFFFF000000FF000000FF000000FF000000FF000000FFFFFFFFFF000000FFFFFFFFFF000000FF000000FF000000FF000000FF000000FF000000FF000000FF000000FF000000FFFFFFFFFFFFFFFFFFFFFFFFFF000000FF000000FFFFFFFFFF000000FFFFFFFFFF000000FFFFFFFF
310
FF000000FF000000FF000000FF000000FF000000FF000000FF000000FF000000FF000000FF000000FF000000FF000000FFFFFFFFFF000000FF000000FF000000FF000000FF000000FFFFFFFFFFFFFFFFFFFFFFFFFF000000FF000000FFFFFFFFFFFFFFFFFFFFFFFFFFFFFFFFFF000000FF000000FFFFFFFFFF000000FFFFFF
310
FFFFFFFFFFFF000000FF000000FFFFFFFFFF000000FFFFFFFFFF000000FFFFFFFFFF000000FF000000FF000000FF000000FF000000FF000000FF000000FF000000FF000000FF000000FF000000FF000000FFFFFFFFFF000000FF000000FF000000FF000000FF000000FFFFFFFFFFFFFFFFFF000000FFFFFFFFFF000000FFFF
310
FFFFFF000000FF000000FFFFFFFFFFFFFFFFFF000000FFFFFFFFFF000000FFFFFFFFFFFFFFFFFFFFFFFFFFFFFFFFFFFFFFFFFF000000FFFFFFFFFF000000FFFFFFFFFF000000FF000000FF000000FF000000FF000000FF000000FF000000FF000000FF000000FF000000FF000000FF000000FFFFFFFFFF000000FF000000FF
310
000000FF000000FF000000FF000000FFFFFFFFFF000000FFFFFFFFFFFFFFFFFFFFFFFFFF000000FF000000FFFFFFFFFF000000FFFFFFFFFF000000FFFFFFFFFFFFFFFFFFFFFFFFFF000000FF000000FFFFFFFFFFFFFFFFFFFFFFFFFFFFFFFFFFFFFFFFFFFFFFFFFFFFFFFFFFFFFFFFFFFFFFFFFFFFFFFFFFFFFFFFFF000000
310
FF000000FF000000FF000000FF000000FFFFFFFFFF000000FF000000FF000000FF000000FF000000FF000000FF000000FF000000FFFFFFFFFF000000FFFFFFFFFFFFFFFFFFFFFFFFFFFFFFFFFFFFFFFFFFFFFFFFFFFFFFFFFFFFFFFFFFFFFFFFFF000000FF000000FF000000FF000000FF000000FF000000FF000000FF0000
310
00FF000000FF000000FF000000FF000000FF000000FF000000FFFFFFFFFF000000FF000000FF000000FF000000FF000000FFFFFFFFFF000000FF000000FF000000FF000000FF000000FF000000FF000000FF000000FFFFFFFFFFFFFFFFFFFFFFFFFFFFFFFFFF000000FF000000FF000000FFFFFFFFFFFFFFFFFFFFFFFFFF00
310
0000FF000000FF000000FF000000FF000000FF000000FF000000FF000000FF000000FF000000FF000000FF000000FF000000FF000000FF000000FFFFFFFFFF000000FF000000FF000000FF000000FF000000FFFFFFFFFF000000FF000000FF000000FF000000FF000000FF000000FF000000FF000000FF000000FF000000FF
310
FFFFFFFFFFFFFFFFFFFFFFFFFFFFFFFFFFFFFFFFFFFFFFFFFFFFFFFF000000FF000000FF000000FF000000FF000000FF000000FF000000FF000000FF000000FF000000FF000000FF000000FF000000FF000000FF000000FF000000FFFFFFFFFFFFFFFFFFFFFFFFFFFFFFFFFFFFFFFFFFFFFFFFFFFFFFFFFF000000FF000000
310
FF000000FF000000FF000000FF000000FF000000FF000000FF000000FFFFFFFFFFFFFFFFFFFFFFFFFFFFFFFFFFFFFFFFFFFFFFFFFFFFFFFFFFFFFFFFFFFFFFFFFF000000FF000000FF000000FF000000FF000000FF000000FF000000FF000000FF000000FF000000FF000000FF000000FF000000FFFFFFFFFFFFFFFFFFFFFF
310
FFFFFFFFFFFFFFFFFFFFFFFFFFFFFFFFFFFFFFFFFFFFFFFFFFFFFFFFFFFFFFFFFFFF000000FF000000FF000000FF000000FF000000FF000000FF000000FFFFFFFFFFFFFFFFFFFFFFFFFFFFFFFFFFFFFFFFFFFFFFFFFFFFFFFFFFFFFFFFFFFFFFFFFF000000FF000000FF000000FF000000FF000000FF000000FF000000FF00
310
0000FF000000FF000000FF000000FF000000FF000000FFFFFFFFFFFFFFFFFFFFFFFFFFFFFFFFFFFFFFFFFFFFFFFFFFFFFFFFFFFFFFFFFFFFFFFFFFFFFFFFFFFFFFFFFF000000FF000000FF000000FF000000FF000000FF000000FF000000FF000000FF000000FF000000FF000000FF000000FF000000FF000000FF000000FF
310
000000FF000000FF000000FF000000FF000000FF000000FF000000FF000000FF000000FF000000FF000000FF000000FF000000FF000000FF000000FF000000FF000000FF000000FF000000FF000000FF000000FF000000FF000000FF000000FF000000FF000000FF000000FF000000FF000000FF000000FF000000FF000000
310
FF000000FF000000FF000000FF000000FF000000FF000000FF000000FF000000FF000000FF000000FF000000FF000000FF000000FF000000FF000000FF000000FF000000FF000000FF000000FF000000FF000000FF000000FF000000FF000000FF000000FF000000FF000000FF000000FF000000FF000000FF000000FF0000
310
00FF000000FF000000FF000000FF000000FF000000FF000000FF000000FF000000FF000000FF000000FF000000FF000000FF000000FF000000FF000000FF000000FF000000FF000000FF000000FF000000FF000000FF000000FF000000FF000000FF000000FF000000FF000000FF000000FF000000FF000000FF000000FF00
310
0000FF000000FF000000FF000000FF000000FF000000FF000000FF000000FF000000FF000000FF000000FF000000FF000000FF000000FF000000FF000000FF000000FF000000FF000000FF000000FF000000FF000000FF000000FF000000FF000000FF000000FF000000FF000000FF000000FF000000FF000000FF000000FF
310
000000FF000000FF000000FF000000FF000000FF000000FF000000FF000000FF000000FF000000FF000000FF000000FF000000FF000000FF000000FF000000FF000000FF000000FF000000FF000000FF000000FF000000FF000000FF000000FF000000FF000000FF000000FF000000FF000000FF000000FF000000FF000000
310
FF000000FF000000FF000000FF000000FF000000FF000000FF000000FF000000FF000000FF000000FF000000FF000000FF000000FF000000FF000000FF000000FF000000FF000000FF000000FF000000FF000000FF000000FF000000FF000000FF000000FF000000FF000000FF000000FF000000FF000000FF000000FF0000
310
00FF000000FF000000FF000000FF000000FF000000FF000000FF000000FF000000FF000000FF000000FF000000FF000000FF000000FF000000FF000000FF000000FF000000FF000000FF000000FF000000FF000000FF000000FF000000FF000000FF000000FF000000FF000000FF000000FF000000FF000000FF000000FF00
310
0000FF000000FF000000FF000000FF000000FF000000FF000000FF000000FF000000FF000000FF000000FF000000FF000000FF000000FF000000FF000000FF000000FF000000FF000000FF000000FF000000FF000000FF000000FF000000FF000000FF000000FF000000FF000000FF000000FF000000FF000000FF000000FF
310
000000FF000000FF000000FF000000FF000000FF000000FF000000FF000000FF000000FF000000FF000000FF000000FF000000FF000000FF000000FF000000FF000000FF000000FF000000FF000000FF000000FF000000FF000000FF000000FF000000FF000000FF000000FF000000FF000000FF000000FF000000FF000000
310
FF000000FF000000FF000000FF000000FF000000FF000000FF000000FF000000FF000000FF000000FF000000FF000000FF000000FF000000FF000000FF000000FF000000FF000000FF000000FF000000FF000000FF000000FF000000FF000000FF000000FF000000FF000000FF000000FF000000FF000000FF000000FF0000
310
00FF000000FF000000FF000000FF000000FF000000FF000000FF000000FF000000FF000000FF000000FF000000FF000000FF000000FF000000FF000000FF000000FF000000FF000000FF000000FF000000FF000000FF000000FF000000FF000000FF000000FF000000FF000000FF000000FF000000FF000000FF000000FF00
310
0000FF000000FF000000FF000000FF000000FF000000FF000000FF000000FF000000FF000000FF000000FF000000FF000000FF000000FF000000FF000000FF000000FF000000FF000000FF000000FF000000FF000000FF000000FF000000FF000000FF000000FF000000FF000000FF000000FF000000FF000000FF000000FF
310
000000FF000000FF000000FF000000FF000000FF000000FF000000FF000000FF000000FF000000FF000000FF000000FF000000FF000000FF000000FF000000FF000000FF000000FF000000FF000000FF000000FF000000FF000000FF000000FF000000FF000000FF000000FF000000FF000000FF000000FF000000FF000000
310
FF000000FF000000FF000000FF000000FF000000FF000000FF000000FF000000FF000000FF000000FF000000FF000000FF000000FF000000FF000000FF000000FF000000FF000000FF000000FF000000FF000000FF000000FF000000FF000000FF000000FF000000FF000000FF000000FF000000FF000000FF000000FF0000
310
00FF000000FF000000FF000000FF000000FF000000FF000000FF000000FF000000FF000000FF000000FF000000FF000000FF000000FF000000FF000000FF000000FF000000FF000000FF000000FF000000FF000000FF000000FF
102
{BLKREFS
331
DC0
102
}
 70
     1
280
     1
281
     0
  0
BLOCK_RECORD
  5
DC1
330
1
100
AcDbSymbolTableRecord
100
AcDbBlockTableRecord
  2
Flush_Valve-Urinal_Exposed-American_Standard-Ultima_Selectronic_6245-XXX-Side_View
340
0
310
28000000280000002800000001002000000000000019000001000000010000000000000000000000000000FF000000FF000000FF000000FF000000FF000000FF000000FF000000FF000000FF000000FF000000FF000000FF000000FF000000FF000000FF000000FF000000FF000000FF000000FF000000FF000000FF000000
310
FF000000FF000000FF000000FF000000FF000000FF000000FF000000FF000000FF000000FF000000FF000000FF000000FF000000FF000000FF000000FF000000FF000000FF000000FF000000FF000000FF000000FF000000FF000000FF000000FF000000FF000000FF000000FF000000FF000000FF000000FF000000FF0000
310
00FF000000FF000000FF000000FF000000FF000000FF000000FF000000FF000000FF000000FF000000FF000000FF000000FF000000FF000000FF000000FF000000FF000000FF000000FF000000FF000000FF000000FF000000FF000000FF000000FF000000FF000000FF000000FF000000FF000000FF000000FF000000FF00
310
0000FF000000FF000000FF000000FF000000FF000000FF000000FF000000FF000000FF000000FF000000FF000000FF000000FF000000FFFFFFFFFFFFFFFFFFFFFFFFFF000000FF000000FF000000FF000000FF000000FF000000FF000000FF000000FF000000FF000000FF000000FF000000FF000000FF000000FF000000FF
310
000000FF000000FF000000FF000000FF000000FF000000FF000000FF000000FF000000FF000000FF000000FF000000FF000000FF000000FF000000FF000000FF000000FF000000FF000000FF000000FFFFFFFFFFFFFFFFFFFFFFFFFFFFFFFFFFFFFFFFFFFFFFFFFFFFFFFFFF000000FF000000FF000000FF000000FF000000
310
FF000000FF000000FF000000FF000000FF000000FF000000FF000000FF000000FF000000FF000000FF000000FF000000FF000000FF000000FF000000FF000000FF000000FF000000FF000000FF000000FF000000FF000000FF000000FF000000FF000000FF000000FF000000FF000000FFFFFFFFFF000000FF000000FF0000
310
00FF000000FF000000FFFFFFFFFF000000FF000000FF000000FF000000FF000000FF000000FF000000FF000000FF000000FF000000FF000000FF000000FF000000FF000000FF000000FF000000FF000000FF000000FF000000FF000000FF000000FF000000FF000000FF000000FF000000FF000000FF000000FF000000FF00
310
0000FF000000FF000000FF000000FF000000FFFFFFFFFFFFFFFFFFFFFFFFFFFFFFFFFFFFFFFFFFFFFFFFFFFFFFFFFF000000FF000000FF000000FF000000FF000000FF000000FF000000FF000000FF000000FF000000FF000000FF000000FF000000FF000000FF000000FF000000FF000000FF000000FF000000FF000000FF
310
000000FF000000FF000000FF000000FF000000FF000000FF000000FF000000FF000000FF000000FF000000FF000000FF000000FF000000FF000000FFFFFFFFFF000000FFFFFFFFFF000000FF000000FF000000FF000000FF000000FF000000FF000000FF000000FF000000FF000000FF000000FF000000FF000000FF000000
310
FF000000FF000000FF000000FF000000FF000000FF000000FF000000FF000000FF000000FF000000FF000000FF000000FF000000FF000000FF000000FF000000FF000000FF000000FF000000FF000000FF000000FF000000FF000000FFFFFFFFFF000000FFFFFFFFFF000000FF000000FF000000FF000000FF000000FF0000
310
00FF000000FF000000FF000000FF000000FF000000FF000000FF000000FF000000FF000000FF000000FF000000FF000000FF000000FF000000FF000000FF000000FF000000FF000000FF000000FF000000FF000000FF000000FF000000FF000000FF000000FF000000FF000000FF000000FF000000FF000000FF000000FFFF
310
FFFFFF000000FFFFFFFFFF000000FF000000FF000000FF000000FF000000FF000000FF000000FF000000FF000000FF000000FF000000FF000000FF000000FF000000FF000000FF000000FF000000FF000000FF000000FF000000FF000000FF000000FF000000FF000000FF000000FF000000FF000000FF000000FF000000FF
310
000000FF000000FF000000FF000000FF000000FF000000FF000000FF000000FFFFFFFFFF000000FFFFFFFFFF000000FF000000FF000000FF000000FF000000FF000000FF000000FF000000FF000000FF000000FF000000FF000000FF000000FF000000FF000000FF000000FF000000FF000000FF000000FF000000FF000000
310
FF000000FF000000FF000000FF000000FF000000FF000000FF000000FF000000FF000000FF000000FF000000FF000000FF000000FF000000FF000000FF000000FFFFFFFFFF000000FFFFFFFFFF000000FF000000FF000000FF000000FF000000FF000000FF000000FF000000FF000000FF000000FF000000FF000000FF0000
310
00FF000000FF000000FF000000FF000000FF000000FF000000FF000000FF000000FF000000FF000000FF000000FF000000FF000000FF000000FF000000FF000000FF000000FF000000FF000000FF000000FF000000FF000000FF000000FF000000FFFFFFFFFF000000FFFFFFFFFF000000FF000000FF000000FF000000FF00
310
0000FF000000FF000000FF000000FF000000FF000000FF000000FF000000FF000000FF000000FF000000FF000000FF000000FF000000FF000000FF000000FF000000FF000000FF000000FF000000FF000000FF000000FF000000FF000000FF000000FF000000FF000000FF000000FF000000FF000000FF000000FF000000FF
310
000000FFFFFFFFFF000000FFFFFFFFFF000000FF000000FF000000FF000000FF000000FF000000FF000000FF000000FF000000FF000000FF000000FF000000FF000000FF000000FF000000FF000000FF000000FF000000FF000000FF000000FF000000FF000000FF000000FF000000FF000000FF000000FF000000FF000000
310
FF000000FF000000FF000000FF000000FF000000FF000000FF000000FF000000FF000000FFFFFFFFFF000000FFFFFFFFFF000000FF000000FF000000FF000000FF000000FF000000FF000000FF000000FF000000FF000000FF000000FF000000FF000000FF000000FF000000FF000000FF000000FF000000FF000000FF0000
310
00FF000000FF000000FF000000FF000000FF000000FF000000FF000000FF000000FF000000FF000000FF000000FF000000FF000000FF000000FF000000FF000000FF000000FFFFFFFFFF000000FFFFFFFFFF000000FF000000FF000000FF000000FF000000FF000000FF000000FF000000FF000000FF000000FF000000FF00
310
0000FF000000FF000000FF000000FF000000FF000000FF000000FF000000FF000000FF000000FF000000FF000000FF000000FF000000FF000000FF000000FF000000FF000000FF000000FF000000FF000000FF000000FF000000FF000000FF000000FF000000FFFFFFFFFFFFFFFFFFFFFFFFFF000000FF000000FF000000FF
310
000000FF000000FF000000FF000000FF000000FF000000FF000000FF000000FF000000FF000000FF000000FF000000FF000000FF000000FF000000FF000000FF000000FF000000FF000000FF000000FF000000FF000000FF000000FF000000FF000000FF000000FF000000FF000000FF000000FF000000FF000000FF000000
310
FF000000FFFFFFFFFFFFFFFFFFFFFFFFFFFFFFFFFFFFFFFFFF000000FF000000FF000000FF000000FF000000FF000000FF000000FF000000FF000000FF000000FF000000FF000000FF000000FF000000FF000000FF000000FF000000FF000000FF000000FF000000FF000000FF000000FF000000FF000000FF000000FF0000
310
00FF000000FF000000FF000000FF000000FF000000FF000000FF000000FF000000FF000000FFFFFFFFFF000000FF000000FF000000FFFFFFFFFF000000FF000000FF000000FF000000FF000000FF000000FF000000FF000000FF000000FF000000FF000000FF000000FF000000FF000000FF000000FF000000FF000000FF00
310
0000FF000000FF000000FF000000FF000000FF000000FF000000FF000000FF000000FF000000FF000000FF000000FF000000FF000000FF000000FF000000FF000000FF000000FFFFFFFFFF000000FF000000FF000000FFFFFFFFFF000000FF000000FF000000FF000000FF000000FF000000FF000000FF000000FF000000FF
310
000000FF000000FF000000FF000000FF000000FF000000FF000000FF000000FF000000FF000000FF000000FF000000FF000000FF000000FF000000FF000000FF000000FF000000FF000000FF000000FF000000FF000000FF000000FF000000FF000000FF000000FFFFFFFFFF000000FF000000FF000000FFFFFFFFFF000000
310
FF000000FF000000FF000000FF000000FF000000FF000000FF000000FF000000FF000000FF000000FF000000FF000000FF000000FF000000FF000000FF000000FF000000FF000000FF000000FF000000FF000000FF000000FF000000FF000000FF000000FF000000FF000000FF000000FF000000FF000000FF000000FF0000
310
00FF000000FF000000FFFFFFFFFF000000FF000000FF000000FFFFFFFFFF000000FF000000FF000000FF000000FF000000FF000000FF000000FF000000FF000000FF000000FF000000FF000000FF000000FF000000FF000000FF000000FF000000FF000000FF000000FF000000FF000000FF000000FF000000FF000000FF00
310
0000FF000000FF000000FF000000FF000000FF000000FF000000FF000000FF000000FF000000FF000000FFFFFFFFFFFFFFFFFFFFFFFFFFFFFFFFFFFFFFFFFF000000FF000000FF000000FF000000FF000000FF000000FF000000FF000000FF000000FF000000FF000000FF000000FF000000FF000000FF000000FF000000FF
310
000000FF000000FF000000FF000000FF000000FF000000FF000000FF000000FF000000FF000000FF000000FF000000FF000000FF000000FF000000FF000000FF000000FF000000FF000000FFFFFFFFFFFFFFFFFFFFFFFFFFFFFFFFFFFFFFFFFF000000FF000000FF000000FF000000FF000000FF000000FF000000FF000000
310
FF000000FF000000FF000000FF000000FF000000FF000000FF000000FF000000FF000000FF000000FF000000FF000000FF000000FF000000FF000000FF000000FF000000FF000000FF000000FF000000FF000000FF000000FF000000FF000000FF000000FF000000FF000000FFFFFFFFFF000000FF000000FF000000FFFFFF
310
FFFF000000FF000000FF000000FF000000FF000000FF000000FF000000FF000000FF000000FF000000FF000000FF000000FF000000FF000000FF000000FF000000FF000000FF000000FF000000FF000000FF000000FF000000FF000000FF000000FF000000FF000000FF000000FF000000FF000000FF000000FF000000FF00
310
0000FF000000FF000000FF000000FFFFFFFFFFFFFFFFFFFFFFFFFFFFFFFFFFFFFFFFFF000000FF000000FF000000FF000000FF000000FF000000FF000000FF000000FF000000FF000000FF000000FF000000FF000000FF000000FF000000FF000000FF000000FF000000FF000000FF000000FF000000FF000000FF000000FF
310
000000FF000000FF000000FF000000FF000000FF000000FF000000FF000000FF000000FFFFFFFFFFFFFFFFFF000000FFFFFFFFFFFFFFFFFFFFFFFFFFFFFFFFFFFFFFFFFF000000FF000000FF000000FF000000FF000000FF000000FF000000FF000000FF000000FF000000FF000000FF000000FF000000FF000000FF000000
310
FF000000FF000000FF000000FF000000FF000000FF000000FF000000FF000000FF000000FF000000FF000000FF000000FF000000FF000000FF000000FF000000FF000000FFFFFFFFFFFFFFFFFFFFFFFFFFFFFFFFFF000000FF000000FF000000FFFFFFFFFFFFFFFFFF000000FF000000FF000000FF000000FF000000FF0000
310
00FF000000FF000000FF000000FF000000FF000000FF000000FF000000FF000000FF000000FF000000FF000000FF000000FF000000FF000000FF000000FF000000FF000000FF000000FF000000FF000000FF000000FF000000FF000000FF000000FF000000FFFFFFFFFFFFFFFFFFFFFFFFFFFFFFFFFF000000FF000000FF00
310
0000FFFFFFFFFFFFFFFFFF000000FF000000FF000000FF000000FF000000FF000000FF000000FF000000FF000000FF000000FF000000FF000000FF000000FF000000FF000000FF000000FF000000FF000000FF000000FF000000FF000000FF000000FF000000FF000000FF000000FF000000FF000000FF000000FF000000FF
310
000000FF000000FFFFFFFFFFFFFFFFFFFFFFFFFF000000FF000000FF000000FF000000FF000000FFFFFFFFFF000000FF000000FF000000FF000000FF000000FF000000FF000000FF000000FF000000FF000000FF000000FF000000FF000000FF000000FF000000FF000000FF000000FF000000FF000000FF000000FF000000
310
FF000000FF000000FF000000FF000000FF000000FF000000FF000000FF000000FF000000FF000000FFFFFFFFFFFFFFFFFFFFFFFFFFFFFFFFFFFFFFFFFFFFFFFFFFFFFFFFFFFFFFFFFFFFFFFFFFFFFFFFFF000000FF000000FF000000FF000000FF000000FF000000FF000000FF000000FF000000FF000000FF000000FF0000
310
00FF000000FF000000FF000000FF000000FF000000FF000000FF000000FF000000FF000000FF000000FF000000FF000000FF000000FF000000FF000000FF000000FF000000FF000000FFFFFFFFFFFFFFFFFF000000FF000000FF000000FF000000FF000000FF000000FF000000FFFFFFFFFF000000FF000000FF000000FF00
310
0000FF000000FF000000FF000000FF000000FF000000FF000000FF000000FF000000FF000000FF000000FF000000FF000000FF000000FF000000FF000000FF000000FF000000FF000000FF000000FF000000FF000000FF000000FF000000FF000000FF000000FF000000FFFFFFFFFFFFFFFFFFFFFFFFFFFFFFFFFFFFFFFFFF
310
FFFFFFFFFFFFFFFFFFFFFFFFFFFFFFFFFFFFFFFF000000FF000000FF000000FF000000FF000000FF000000FF000000FF000000FF000000FF000000FF000000FF000000FF000000FF000000FF000000FF000000FF000000FF000000FF000000FF000000FF000000FF000000FF000000FF000000FF000000FF000000FF000000
310
FF000000FF000000FF000000FFFFFFFFFFFFFFFFFF000000FF000000FF000000FF000000FF000000FF000000FF000000FFFFFFFFFF000000FF000000FF000000FF000000FF000000FF000000FF000000FF000000FF000000FF000000FF000000FF000000FF000000FF000000FF000000FF000000FF000000FF000000FF0000
310
00FF000000FF000000FF000000FF000000FF000000FF000000FF000000FF000000FF000000FF000000FF000000FFFFFFFFFFFFFFFFFF000000FF000000FF000000FF000000FF000000FF000000FF000000FFFFFFFFFF000000FF000000FF000000FF000000FF000000FF000000FF000000FF000000FF000000FF000000FF00
310
0000FF000000FF000000FF000000FF000000FF000000FF000000FF000000FF000000FF000000FF000000FF000000FF000000FF000000FF000000FF000000FF000000FF000000FF000000FF000000FFFFFFFFFFFFFFFFFF000000FF000000FF000000FF000000FF000000FF000000FF000000FFFFFFFFFF000000FF000000FF
310
000000FF000000FF000000FF000000FF000000FF000000FF000000FF000000FF000000FF000000FF000000FF000000FF000000FF000000FF000000FF000000FF000000FF000000FF000000FF000000FF000000FF000000FF000000FF000000FF000000FF000000FF000000FF000000FFFFFFFFFFFFFFFFFF000000FF000000
310
FF000000FF000000FF000000FFFFFFFFFFFFFFFFFFFFFFFFFF000000FF000000FF000000FF000000FF000000FF000000FF000000FF000000FF000000FF000000FF000000FF000000FF000000FF000000FF000000FF000000FF000000FF000000FF000000FF000000FF000000FF000000FF000000FF000000FF000000FF0000
310
00FF000000FF000000FF000000FF000000FF000000FFFFFFFFFF000000FFFFFFFFFFFFFFFFFFFFFFFFFFFFFFFFFFFFFFFFFFFFFFFFFF000000FF000000FF000000FF000000FF000000FF000000FF000000FF000000FF000000FF000000FF000000FF000000FF000000FF000000FF000000FF000000FF000000FF000000FF00
310
0000FF000000FF000000FF000000FF000000FF000000FF000000FF000000FF000000FF000000FF000000FF000000FF000000FF000000FFFFFFFFFFFFFFFFFFFFFFFFFFFFFFFFFF000000FF000000FF000000FF000000FF000000FF000000FF000000FF000000FF000000FF000000FF000000FF000000FF000000FF000000FF
310
000000FF000000FF000000FF000000FF000000FF000000FF000000FF000000FF000000FF000000FF000000FF000000FF000000FF000000FF000000FF000000FF000000FF000000FF000000FF000000FF000000FF000000FF000000FF000000FF000000FF000000FF000000FF000000FF000000FF000000FF000000FF000000
310
FF000000FF000000FF000000FF000000FF000000FF000000FF000000FF000000FF000000FF000000FF000000FF000000FF000000FF000000FF000000FF000000FF000000FF000000FF000000FF000000FF000000FF000000FF000000FF000000FF000000FF000000FF000000FF000000FF000000FF000000FF000000FF0000
310
00FF000000FF000000FF000000FF000000FF000000FF000000FF000000FF000000FF000000FF000000FF000000FF000000FF000000FF000000FF000000FF000000FF000000FF000000FF000000FF000000FF000000FF000000FF
102
{BLKREFS
331
DF4
102
}
 70
     1
280
     1
281
     0
  0
BLOCK_RECORD
  5
DF5
102
{ACAD_XDICTIONARY
360
10BA
102
}
330
1
100
AcDbSymbolTableRecord
100
AcDbBlockTableRecord
  2
Flush_Valve-Urinal_Exposed-American_Standard-Ultima_Selectronic_6245-XXX-Front_View
340
0
310
28000000280000002800000001002000000000000019000001000000010000000000000000000000000000FF000000FF000000FF000000FF000000FF000000FF000000FF000000FF000000FF000000FF000000FF000000FF000000FF000000FF000000FF000000FF000000FF000000FF000000FF000000FF000000FF000000
310
FF000000FF000000FF000000FF000000FF000000FF000000FF000000FF000000FF000000FF000000FF000000FF000000FF000000FF000000FF000000FF000000FF000000FF000000FF000000FF000000FF000000FF000000FF000000FF000000FF000000FF000000FF000000FF000000FF000000FF000000FF000000FF0000
310
00FF000000FF000000FF000000FF000000FF000000FF000000FF000000FF000000FF000000FF000000FF000000FF000000FF000000FF000000FF000000FF000000FF000000FF000000FF000000FF000000FF000000FF000000FF000000FF000000FF000000FF000000FF000000FF000000FF000000FF000000FF000000FF00
310
0000FF000000FF000000FF000000FF000000FF000000FF000000FF000000FFFFFFFFFFFFFFFFFF000000FF000000FF000000FF000000FF000000FF000000FF000000FF000000FF000000FF000000FF000000FF000000FF000000FF000000FF000000FF000000FF000000FF000000FF000000FF000000FF000000FF000000FF
310
000000FF000000FF000000FF000000FF000000FF000000FF000000FF000000FF000000FF000000FF000000FF000000FF000000FF000000FFFFFFFFFFFFFFFFFFFFFFFFFFFFFFFFFFFFFFFFFFFFFFFFFF000000FF000000FF000000FF000000FF000000FF000000FF000000FF000000FF000000FF000000FF000000FF000000
310
FF000000FF000000FF000000FF000000FF000000FF000000FF000000FF000000FF000000FF000000FF000000FF000000FF000000FF000000FF000000FF000000FF000000FF000000FF000000FF000000FF000000FF000000FFFFFFFFFF000000FF000000FF000000FF000000FFFFFFFFFF000000FF000000FF000000FF0000
310
00FF000000FF000000FF000000FF000000FF000000FF000000FF000000FF000000FF000000FF000000FF000000FF000000FF000000FF000000FF000000FF000000FF000000FF000000FF000000FF000000FF000000FF000000FF000000FF000000FF000000FF000000FF000000FF000000FF000000FF000000FFFFFFFFFFFF
310
FFFFFFFFFFFFFFFFFFFFFFFFFFFFFFFFFFFFFF000000FF000000FF000000FF000000FF000000FF000000FF000000FF000000FF000000FF000000FF000000FF000000FF000000FF000000FF000000FF000000FF000000FF000000FF000000FF000000FF000000FF000000FF000000FF000000FF000000FF000000FF000000FF
310
000000FF000000FF000000FF000000FF000000FF000000FF000000FF000000FF000000FFFFFFFFFFFFFFFFFF000000FF000000FF000000FF000000FF000000FF000000FF000000FF000000FF000000FF000000FF000000FF000000FF000000FF000000FF000000FF000000FF000000FF000000FF000000FF000000FF000000
310
FF000000FF000000FF000000FF000000FF000000FF000000FF000000FF000000FF000000FF000000FF000000FF000000FF000000FF000000FF000000FF000000FF000000FFFFFFFFFFFFFFFFFF000000FF000000FF000000FF000000FF000000FF000000FF000000FF000000FF000000FF000000FF000000FF000000FF0000
310
00FF000000FF000000FF000000FF000000FF000000FF000000FF000000FF000000FF000000FF000000FF000000FF000000FF000000FF000000FF000000FF000000FF000000FF000000FF000000FF000000FF000000FF000000FF000000FF000000FF000000FFFFFFFFFFFFFFFFFF000000FF000000FF000000FF000000FF00
310
0000FF000000FF000000FF000000FF000000FF000000FF000000FF000000FF000000FF000000FF000000FF000000FF000000FF000000FF000000FF000000FF000000FF000000FF000000FF000000FF000000FF000000FF000000FF000000FF000000FF000000FF000000FF000000FF000000FF000000FF000000FF000000FF
310
000000FF000000FFFFFFFFFFFFFFFFFF000000FF000000FF000000FF000000FF000000FF000000FF000000FF000000FF000000FF000000FF000000FF000000FF000000FF000000FF000000FF000000FF000000FF000000FF000000FF000000FF000000FF000000FF000000FF000000FF000000FF000000FF000000FF000000
310
FF000000FF000000FF000000FF000000FF000000FF000000FF000000FF000000FF000000FF000000FFFFFFFFFFFFFFFFFF000000FF000000FF000000FF000000FF000000FF000000FF000000FF000000FF000000FF000000FF000000FF000000FF000000FF000000FF000000FF000000FF000000FF000000FF000000FF0000
310
00FF000000FF000000FF000000FF000000FF000000FF000000FF000000FF000000FF000000FF000000FF000000FF000000FF000000FF000000FF000000FF000000FF000000FF000000FFFFFFFFFFFFFFFFFF000000FF000000FF000000FF000000FF000000FF000000FF000000FF000000FF000000FF000000FF000000FF00
310
0000FF000000FF000000FF000000FF000000FF000000FF000000FF000000FF000000FF000000FF000000FF000000FF000000FF000000FF000000FF000000FF000000FF000000FF000000FF000000FF000000FF000000FF000000FF000000FF000000FF000000FF000000FFFFFFFFFFFFFFFFFF000000FF000000FF000000FF
310
000000FF000000FF000000FF000000FF000000FF000000FF000000FF000000FF000000FF000000FF000000FF000000FF000000FF000000FF000000FF000000FF000000FF000000FF000000FF000000FF000000FF000000FF000000FF000000FF000000FF000000FF000000FF000000FF000000FF000000FF000000FF000000
310
FF000000FF000000FF000000FFFFFFFFFFFFFFFFFF000000FF000000FF000000FF000000FF000000FF000000FF000000FF000000FF000000FF000000FF000000FF000000FF000000FF000000FF000000FF000000FF000000FF000000FF000000FF000000FF000000FF000000FF000000FF000000FF000000FF000000FF0000
310
00FF000000FF000000FF000000FF000000FF000000FF000000FF000000FF000000FF000000FF000000FF000000FFFFFFFFFFFFFFFFFF000000FF000000FF000000FF000000FF000000FF000000FF000000FF000000FF000000FF000000FF000000FF000000FF000000FF000000FF000000FF000000FF000000FF000000FF00
310
0000FF000000FF000000FF000000FF000000FF000000FF000000FF000000FF000000FF000000FF000000FF000000FF000000FF000000FF000000FF000000FF000000FF000000FF000000FF000000FFFFFFFFFFFFFFFFFF000000FF000000FF000000FF000000FF000000FF000000FF000000FF000000FF000000FF000000FF
310
000000FF000000FF000000FF000000FF000000FF000000FF000000FF000000FF000000FF000000FF000000FF000000FF000000FF000000FF000000FF000000FF000000FF000000FF000000FF000000FF000000FF000000FF000000FF000000FF000000FF000000FF000000FFFFFFFFFFFFFFFFFFFFFFFFFFFFFFFFFF000000
310
FF000000FF000000FF000000FF000000FF000000FF000000FF000000FF000000FF000000FF000000FF000000FF000000FF000000FF000000FF000000FF000000FF000000FF000000FF000000FF000000FF000000FF000000FF000000FF000000FF000000FF000000FF000000FF000000FF000000FF000000FF000000FF0000
310
00FF000000FF000000FF000000FFFFFFFFFF000000FF000000FFFFFFFFFF000000FF000000FF000000FF000000FF000000FF000000FF000000FF000000FF000000FF000000FF000000FF000000FF000000FF000000FF000000FF000000FF000000FF000000FF000000FF000000FF000000FF000000FF000000FF000000FF00
310
0000FF000000FF000000FF000000FF000000FF000000FF000000FF000000FF000000FF000000FF000000FF000000FFFFFFFFFF000000FF000000FFFFFFFFFF000000FF000000FF000000FF000000FF000000FF000000FF000000FF000000FF000000FF000000FF000000FF000000FF000000FF000000FF000000FF000000FF
310
000000FF000000FF000000FF000000FF000000FF000000FF000000FF000000FF000000FF000000FF000000FF000000FF000000FF000000FF000000FF000000FF000000FF000000FF000000FF000000FFFFFFFFFF000000FF000000FFFFFFFFFF000000FF000000FF000000FF000000FF000000FF000000FF000000FF000000
310
FF000000FF000000FF000000FF000000FF000000FF000000FF000000FF000000FF000000FF000000FF000000FF000000FF000000FF000000FF000000FF000000FF000000FF000000FF000000FF000000FF000000FF000000FF000000FF000000FF000000FF000000FF000000FF000000FFFFFFFFFF000000FF000000FFFFFF
310
FFFF000000FF000000FF000000FF000000FF000000FF000000FF000000FF000000FF000000FF000000FF000000FF000000FF000000FF000000FF000000FF000000FF000000FF000000FF000000FF000000FF000000FF000000FF000000FF000000FF000000FF000000FF000000FF000000FF000000FF000000FF000000FF00
310
0000FF000000FF000000FF000000FFFFFFFFFFFFFFFFFFFFFFFFFFFFFFFFFFFFFFFFFF000000FF000000FF000000FF000000FF000000FF000000FF000000FF000000FF000000FF000000FF000000FF000000FF000000FF000000FF000000FF000000FF000000FF000000FF000000FF000000FF000000FF000000FF000000FF
310
000000FF000000FF000000FF000000FF000000FF000000FF000000FF000000FF000000FF000000FF000000FF000000FFFFFFFFFFFFFFFFFFFFFFFFFFFFFFFFFFFFFFFFFFFFFFFFFF000000FF000000FF000000FF000000FF000000FF000000FF000000FF000000FF000000FF000000FF000000FF000000FF000000FF000000
310
FF000000FF000000FF000000FF000000FF000000FF000000FF000000FF000000FF000000FF000000FF000000FF000000FF000000FF000000FF000000FF000000FF000000FF000000FF000000FF000000FFFFFFFFFF000000FF000000FF000000FF000000FFFFFFFFFF000000FF000000FF000000FF000000FF000000FF0000
310
00FF000000FF000000FF000000FF000000FF000000FF000000FF000000FF000000FF000000FF000000FF000000FF000000FF000000FF000000FF000000FF000000FF000000FF000000FF000000FF000000FF000000FF000000FF000000FF000000FF000000FF000000FF000000FF000000FFFFFFFFFFFFFFFFFFFFFFFFFFFF
310
FFFFFFFFFFFFFFFFFFFFFF000000FF000000FF000000FF000000FF000000FF000000FF000000FF000000FF000000FF000000FF000000FF000000FF000000FF000000FF000000FF000000FF000000FF000000FF000000FF000000FF000000FF000000FF000000FF000000FF000000FF000000FF000000FF000000FF000000FF
310
000000FF000000FF000000FF000000FF000000FF000000FFFFFFFFFFFFFFFFFFFFFFFFFFFFFFFFFF000000FF000000FF000000FFFFFFFFFFFFFFFFFF000000FF000000FF000000FFFFFFFFFFFFFFFFFFFFFFFFFFFFFFFFFFFFFFFFFFFFFFFFFF000000FF000000FF000000FF000000FF000000FF000000FF000000FF000000
310
FF000000FF000000FF000000FF000000FF000000FF000000FF000000FF000000FF000000FF000000FF000000FF000000FF000000FFFFFFFFFF000000FF000000FF000000FFFFFFFFFFFFFFFFFFFFFFFFFFFFFFFFFFFFFFFFFFFFFFFFFFFFFFFFFFFFFFFFFFFFFFFFFFFFFFFFFFFFFFFFFFFFFFFFFFFFFFFFFFFFFFFFFFFFFF
310
FFFF000000FF000000FF000000FF000000FF000000FF000000FF000000FF000000FF000000FF000000FF000000FF000000FF000000FF000000FF000000FF000000FF000000FF000000FF000000FF000000FF000000FFFFFFFFFF000000FF000000FF000000FF000000FFFFFFFFFFFFFFFFFFFFFFFFFFFFFFFFFFFFFFFFFFFF
310
FFFFFFFFFFFFFF000000FFFFFFFFFFFFFFFFFF000000FF000000FFFFFFFFFFFFFFFFFFFFFFFFFF000000FF000000FF000000FF000000FF000000FF000000FF000000FF000000FF000000FF000000FF000000FF000000FF000000FF000000FF000000FF000000FF000000FF000000FF000000FFFFFFFFFFFFFFFFFF000000FF
310
000000FF000000FF000000FFFFFFFFFFFFFFFFFFFFFFFFFFFFFFFFFFFFFFFFFFFFFFFFFFFFFFFFFF000000FFFFFFFFFFFFFFFFFF000000FF000000FFFFFFFFFFFFFFFFFFFFFFFFFF000000FF000000FF000000FF000000FF000000FF000000FF000000FF000000FF000000FF000000FF000000FF000000FF000000FF000000
310
FF000000FF000000FF000000FF000000FFFFFFFFFFFFFFFFFFFFFFFFFFFFFFFFFFFFFFFFFFFFFFFFFFFFFFFFFFFFFFFFFFFFFFFFFFFFFFFFFFFFFFFFFFFFFFFFFFFFFFFFFFFFFFFFFFFFFFFFFFFFFFFFFFFFFFFFFFFFFFFFFFFFFFFFFFFFFFFFFFFFFFFFFF000000FF000000FF000000FF000000FF000000FF000000FF0000
310
00FF000000FF000000FF000000FF000000FF000000FF000000FF000000FF000000FF000000FF000000FF000000FF000000FFFFFFFFFF000000FF000000FF000000FF000000FF000000FF000000FF000000FFFFFFFFFF000000FFFFFFFFFFFFFFFFFF000000FF000000FF000000FFFFFFFFFFFFFFFFFFFFFFFFFFFFFFFFFFFF
310
FFFFFFFFFFFFFF000000FF000000FF000000FF000000FF000000FF000000FF000000FF000000FF000000FF000000FF000000FF000000FF000000FF000000FF000000FF000000FF000000FF000000FF000000FFFFFFFFFFFFFFFFFFFFFFFFFFFFFFFFFFFFFFFFFFFFFFFFFFFFFFFFFFFFFFFFFFFFFFFFFF000000FF000000FF
310
000000FF000000FF000000FF000000FF000000FF000000FF000000FF000000FF000000FF000000FF000000FF000000FF000000FF000000FF000000FF000000FF000000FF000000FF000000FF000000FF000000FF000000FF000000FF000000FF000000FF000000FF000000FF000000FF000000FFFFFFFFFF000000FF000000
310
FF000000FF000000FF000000FF000000FF000000FFFFFFFFFF000000FF000000FF000000FF000000FF000000FF000000FF000000FF000000FF000000FF000000FF000000FF000000FF000000FF000000FF000000FF000000FF000000FF000000FF000000FF000000FF000000FF000000FF000000FF000000FF000000FF0000
310
00FF000000FF000000FF000000FF000000FF000000FFFFFFFFFF000000FF000000FF000000FFFFFFFFFFFFFFFFFF000000FF000000FFFFFFFFFF000000FF000000FF000000FF000000FF000000FF000000FF000000FF000000FF000000FF000000FF000000FF000000FF000000FF000000FF000000FF000000FF000000FF00
310
0000FF000000FF000000FF000000FF000000FF000000FF000000FF000000FF000000FF000000FF000000FF000000FF000000FF000000FF000000FFFFFFFFFF000000FF000000FFFFFFFFFFFFFFFFFF000000FF000000FFFFFFFFFF000000FF000000FF000000FF000000FF000000FF000000FF000000FF000000FF000000FF
310
000000FF000000FF000000FF000000FF000000FF000000FF000000FF000000FF000000FF000000FF000000FF000000FF000000FF000000FF000000FF000000FF000000FF000000FF000000FF000000FF000000FF000000FF000000FFFFFFFFFFFFFFFFFFFFFFFFFFFFFFFFFFFFFFFFFFFFFFFFFFFFFFFFFFFFFFFFFF000000
310
FF000000FF000000FF000000FF000000FF000000FF000000FF000000FF000000FF000000FF000000FF000000FF000000FF000000FF000000FF000000FF000000FF000000FF000000FF000000FF000000FF000000FF000000FF000000FF000000FF000000FF000000FF000000FF000000FF000000FF000000FF000000FFFFFF
310
FFFF000000FF000000FF000000FF000000FF000000FF000000FFFFFFFFFF000000FF000000FF000000FF000000FF000000FF000000FF000000FF000000FF000000FF000000FF000000FF000000FF000000FF000000FF000000FF000000FF000000FF000000FF000000FF000000FF000000FF000000FF000000FF000000FF00
310
0000FF000000FF000000FF000000FF000000FF000000FF000000FF000000FFFFFFFFFFFFFFFFFFFFFFFFFFFFFFFFFFFFFFFFFFFFFFFFFFFFFFFFFFFFFFFFFF000000FF000000FF000000FF000000FF000000FF000000FF000000FF000000FF000000FF000000FF000000FF000000FF000000FF000000FF000000FF000000FF
310
000000FF000000FF000000FF000000FF000000FF000000FF000000FF000000FF000000FF000000FF000000FF000000FF000000FF000000FF000000FF000000FF000000FF000000FF000000FF000000FF000000FF000000FF000000FF000000FF000000FF000000FF000000FF000000FF000000FF000000FF000000FF000000
310
FF000000FF000000FF000000FF000000FF000000FF000000FF000000FF000000FF000000FF000000FF000000FF000000FF000000FF000000FF000000FF000000FF000000FF000000FF000000FF000000FF000000FF000000FF000000FF000000FF000000FF000000FF000000FF000000FF000000FF000000FF000000FF0000
310
00FF000000FF000000FF000000FF000000FF000000FF000000FF000000FF000000FF000000FF000000FF000000FF000000FF000000FF000000FF000000FF000000FF000000FF000000FF000000FF000000FF000000FF000000FF
102
{BLKREFS
331
E3F
102
}
 70
     1
280
     1
281
     0
  0
ENDTAB
  0
ENDSEC
  0
SECTION
  2
BLOCKS
  0
BLOCK
  5
71
330
70
100
AcDbEntity
  8
0
100
AcDbBlockBegin
  2
*Model_Space
 70
     0
 10
0.0
 20
0.0
 30
0.0
  3
*Model_Space
  1

  0
ENDBLK
  5
72
330
70
100
AcDbEntity
  8
0
100
AcDbBlockEnd
  0
BLOCK
  5
6D
330
6C
100
AcDbEntity
 67
     1
  8
0
100
AcDbBlockBegin
  2
*Paper_Space
 70
     0
 10
0.0
 20
0.0
 30
0.0
  3
*Paper_Space
  1

  0
ENDBLK
  5
6E
330
6C
100
AcDbEntity
 67
     1
  8
0
100
AcDbBlockEnd
  0
BLOCK
  5
75
330
74
100
AcDbEntity
 67
     1
  8
0
100
AcDbBlockBegin
  2
*Paper_Space0
 70
     0
 10
0.0
 20
0.0
 30
0.0
  3
*Paper_Space0
  1

  0
ENDBLK
  5
76
330
74
100
AcDbEntity
 67
     1
  8
0
100
AcDbBlockEnd
  0
BLOCK
  5
D9A
330
D99
100
AcDbEntity
  8
0
100
AcDbBlockBegin
  2
Flush_Valve-Urinal_Exposed-American_Standard-Ultima_Selectronic_6245-XXX-Top_View
 70
     0
 10
0.0
 20
0.0
 30
0.0
  3
Flush_Valve-Urinal_Exposed-American_Standard-Ultima_Selectronic_6245-XXX-Top_View
  1

  0
ELLIPSE
  5
D9C
330
D99
100
AcDbEntity
  8
0
100
AcDbEllipse
 10
37.85135309679218
 20
-0.1774806129895452
 30
0.0
 11
-1.686472340461772
 21
0.0000000000000334
 31
0.0
210
0.0
220
0.0
230
1.0
 40
0.9781476007338072
 41
0.0
 42
6.28318530717958
1001
REVIT
1002
{
1070
     1
1000
38292
1002
}
1002
{
1070
     2
1000
-2001160
1002
}
  0
ARC
  5
D9D
330
D99
100
AcDbEntity
  8
0
100
AcDbCircle
 10
37.85135309679214
 20
-0.1540423318707215
 30
0.0
 40
1.841913030799952
100
AcDbArc
 50
288.7981361757923
 51
180.2233984920704
  0
ARC
  5
D9E
330
D99
100
AcDbEntity
  8
0
100
AcDbCircle
 10
37.85135309679214
 20
-0.1540423318707215
 30
0.0
 40
1.841913030799954
100
AcDbArc
 50
273.6423678987155
 51
285.5562603885791
  0
ARC
  5
D9F
330
D99
100
AcDbEntity
  8
0
100
AcDbCircle
 10
37.85135309679214
 20
-0.1540423318707215
 30
0.0
 40
1.841913030799954
100
AcDbArc
 50
260.5116837094059
 51
269.6843903929572
  0
ARC
  5
DA0
330
D99
100
AcDbEntity
  8
0
100
AcDbCircle
 10
37.85135309679214
 20
-0.1540423318707215
 30
0.0
 40
1.841913030799955
100
AcDbArc
 50
246.0693194805364
 51
254.2107474165854
  0
ARC
  5
DA1
330
D99
100
AcDbEntity
  8
0
100
AcDbCircle
 10
37.85135309679214
 20
-0.1540423318707215
 30
0.0
 40
1.841913030799956
100
AcDbArc
 50
230.6944204067858
 51
240.284732574444
  0
ARC
  5
DA2
330
D99
100
AcDbEntity
  8
0
100
AcDbCircle
 10
37.85135309679214
 20
-0.1540423318707215
 30
0.0
 40
1.841913030799956
100
AcDbArc
 50
218.1653469112252
 51
224.1337908883585
  0
ARC
  5
DA3
330
D99
100
AcDbEntity
  8
0
100
AcDbCircle
 10
37.85135309679214
 20
-0.1540423318707215
 30
0.0
 40
1.841913030799956
100
AcDbArc
 50
203.1193827683831
 51
208.0514509491862
  0
ARC
  5
DA4
330
D99
100
AcDbEntity
  8
0
100
AcDbCircle
 10
37.85135309679214
 20
-0.1540423318707215
 30
0.0
 40
1.841913030799955
100
AcDbArc
 50
187.2271490402122
 51
192.2763425028306
  0
LWPOLYLINE
  5
DA5
330
D99
100
AcDbEntity
  8
0
100
AcDbPolyline
 90
       12
 70
   128
 43
0.0
 10
41.60090980339218
 20
-0.9546860714675695
 10
41.59792931921003
 20
-0.9523942536023954
 10
41.59485957082682
 20
-0.9502234565250644
 10
41.59170546918512
 20
-0.94817715304782
 10
41.58847206017472
 20
-0.9462586168197063
 10
41.58516451656026
 20
-0.9444709170894215
 10
41.58178812970596
 20
-0.942816913795179
 10
41.57834830111055
 20
-0.9412992529894136
 10
41.57485053376595
 20
-0.9399203626056639
 10
41.57130042335381
 20
-0.9386824485743975
 10
41.56770364929347
 20
-0.937587491293989
 10
41.5640659656561
 20
-0.9366372424625108
  0
LWPOLYLINE
  5
DA6
330
D99
100
AcDbEntity
  8
0
100
AcDbPolyline
 90
       13
 70
   128
 43
0.0
 10
41.56447580117674
 20
0.628651898492532
 10
41.56810918525763
 20
0.6296184569274104
 10
41.57170101099052
 20
0.6307295388288736
 10
41.57524553222045
 20
0.6319833667028969
 10
41.57873707846961
 20
0.6333779346923515
 10
41.58217006400881
 20
0.6349110117859464
 10
41.5855389967935
 20
0.6365801453873699
 10
41.58883848724991
 20
0.6383826652389237
 10
41.59206325689717
 20
0.640315687693362
 10
41.59520814679174
 20
0.6423761203271133
 10
41.59826812578065
 20
0.6445606668874996
 10
41.60123829855034
 20
0.6468658325660356
 10
41.60411391345792
 20
0.6492879295893786
  0
LINE
  5
DA7
330
D99
100
AcDbEntity
  8
0
100
AcDbLine
 10
37.97658263763417
 20
1.683608661961546
 30
0.0
 11
37.97658263763417
 21
1.845957668128733
 31
0.0
1001
REVIT
1002
{
1070
     1
1000
35589
1002
}
1002
{
1070
     2
1000
-2001160
1002
}
  0
LINE
  5
DA8
330
D99
100
AcDbEntity
  8
0
100
AcDbLine
 10
39.85135309679197
 20
-0.8115423318701356
 30
0.0
 11
40.4413530967926
 21
-0.8115423318701374
 31
0.0
1001
REVIT
1002
{
1070
     1
1000
35589
1002
}
1002
{
1070
     2
1000
-2001160
1002
}
  0
LINE
  5
DA9
330
D99
100
AcDbEntity
  8
0
100
AcDbLine
 10
40.44135309679261
 20
0.5034576681286134
 30
0.0
 11
39.85135309679197
 21
0.5034576681286153
 31
0.0
1001
REVIT
1002
{
1070
     1
1000
35589
1002
}
1002
{
1070
     2
1000
-2001160
1002
}
  0
CIRCLE
  5
DAA
330
D99
100
AcDbEntity
  8
0
100
AcDbCircle
 10
37.85135309679211
 20
-0.1540423318707431
 30
0.0
 40
1.250000000000099
1001
REVIT
1002
{
1070
     1
1000
38299
1002
}
1002
{
1070
     2
1000
-2001160
1002
}
  0
CIRCLE
  5
DAB
330
D99
100
AcDbEntity
  8
0
100
AcDbCircle
 10
37.85135309679178
 20
0.5453160453265538
 30
0.0
 40
0.4577832047998422
1001
REVIT
1002
{
1070
     1
1000
38309
1002
}
1002
{
1070
     2
1000
-2001160
1002
}
  0
LINE
  5
DAC
330
D99
100
AcDbEntity
  8
0
100
AcDbLine
 10
41.61305717951083
 20
-0.9596179161407331
 30
0.0
 11
41.61305717951083
 21
0.6582682520636875
 31
0.0
1001
REVIT
1002
{
1070
     1
1000
38339
1002
}
1002
{
1070
     2
1000
-2001160
1002
}
  0
LWPOLYLINE
  5
DAD
330
D99
100
AcDbEntity
  8
0
100
AcDbPolyline
 90
        4
 70
     1
 43
0.0
 10
38.85135309679215
 20
2.095957668128733
 10
36.85135309679218
 20
2.095957668128733
 10
36.85135309679218
 20
1.845957668128686
 10
38.85135309679215
 20
1.845957668128733
1001
REVIT
1002
{
1070
     1
1000
40187
1002
}
1002
{
1070
     2
1000
-2001160
1002
}
  0
LWPOLYLINE
  5
DAE
330
D99
100
AcDbEntity
  8
0
100
AcDbPolyline
 90
        4
 70
     1
 43
0.0
 10
43.09512854366789
 20
-1.652975632363238
 42
0.1600479553736574
 10
44.86063264019214
 20
-1.644116238364031
 42
0.1501660125731598
 10
44.87663290526478
 20
-1.092042331871247
 10
43.07607328831943
 20
-1.092042331871247
 42
0.1527149464925988
1001
REVIT
1002
{
1070
     1
1000
38372
1002
}
1002
{
1070
     2
1000
-2001160
1002
}
  0
LWPOLYLINE
  5
DAF
330
D99
100
AcDbEntity
  8
0
100
AcDbPolyline
 90
        8
 70
     1
 43
0.0
 10
40.4675768852871
 20
0.7209576680231243
 10
40.98041381019809
 20
0.7209576680231226
 10
41.0033530967923
 20
0.6980183814289079
 10
41.0033530967923
 20
-1.006103045171693
 10
40.98041381019807
 20
-1.029042331764649
 10
40.46757688528709
 20
-1.029042331764647
 10
40.4413530967926
 20
-1.002818543270139
 10
40.44135309679261
 20
0.6947338795286159
1001
REVIT
1002
{
1070
     1
1000
38330
1002
}
1002
{
1070
     2
1000
-2001160
1002
}
  0
LWPOLYLINE
  5
DB0
330
D99
100
AcDbEntity
  8
0
100
AcDbPolyline
 90
        8
 70
     0
 43
0.0
 10
37.72628437967999
 20
1.845957668128733
 10
37.72628437967999
 20
1.683628447506523
 42
1.707698670935706
 10
39.47518534570789
 20
-1.015024093186312
 10
39.72164284212631
 20
-1.015024093186312
 10
39.85135309679197
 20
-0.923573581870745
 10
39.85135309679197
 20
0.6154889181292083
 10
39.72164284212631
 20
0.7063130167197476
 10
39.47998205612673
 20
0.7063130167197476
1001
REVIT
1002
{
1070
     1
1000
38315
1002
}
1002
{
1070
     2
1000
-2001160
1002
}
  0
LWPOLYLINE
  5
DB1
330
D99
100
AcDbEntity
  8
0
100
AcDbPolyline
 90
       29
 70
     0
 43
0.0
 10
41.0033530967923
 20
-0.9655625416444003
 42
-0.165145507466527
 10
41.09416283636153
 20
-0.9347279475193616
 10
41.55274656985734
 20
-0.9347279475193635
 42
-0.216117717005218
 10
41.60764127372782
 20
-0.9596179161407556
 10
43.05500850996165
 20
-0.9596179161417975
 10
43.05607321968314
 20
-0.9600396598346506
 10
43.06067484157397
 20
-0.9619945876640926
 10
43.0651946063958
 20
-0.9641319675553765
 10
43.0696252834891
 20
-0.9664483801566291
 10
43.0739597847157
 20
-0.9689401197018288
 10
43.07819117579827
 20
-0.9716031999392471
 10
43.08231268741368
 20
-0.9744333605085955
 10
43.08631772602264
 20
-0.9774260737567006
 10
43.09019988441765
 20
-0.9805765519807756
 10
43.0939529519735
 20
-0.9838797550877291
 10
43.09757092458265
 20
-0.9873303986572338
 10
43.10104801426077
 20
-0.990922962395679
 10
43.1043786584061
 20
-0.9946516989674556
 10
43.10755752869847
 20
-0.9985106431894683
 10
43.11057953962359
 20
-1.002493621574159
 10
43.11343985660861
 20
-1.006594262205771
 10
43.11613390375653
 20
-1.010806004934053
 10
43.11865737116661
 20
-1.015122111869092
 10
43.1210062218293
 20
-1.019535678160512
 10
43.12317669808463
 20
-1.024039643043762
 10
43.12516532763358
 20
-1.028626801135819
 10
43.12696892908959
 20
-1.033289813963548
 10
43.14331291749748
 20
-1.078194553066055
 10
43.14331291749748
 20
-1.092042331871247
1001
REVIT
1002
{
1070
     1
1000
36400
1002
}
1002
{
1070
     2
1000
-2001160
1002
}
  0
LWPOLYLINE
  5
DB2
330
D99
100
AcDbEntity
  8
0
100
AcDbPolyline
 90
        5
 70
     0
 43
0.0
 10
42.60135309679275
 20
2.09595766812862
 42
0.0738682103655957
 10
42.64887607367088
 20
1.819136953068565
 42
0.1591065192206049
 10
43.19276254257689
 20
1.663180017733108
 10
43.41579590838286
 20
1.663180017733108
 10
43.41579590838286
 20
1.470957668128608
1001
REVIT
1002
{
1070
     1
1000
36400
1002
}
1002
{
1070
     2
1000
-2001160
1002
}
  0
LWPOLYLINE
  5
DB3
330
D99
100
AcDbEntity
  8
0
100
AcDbPolyline
 90
       48
 70
     0
 43
0.0
 10
41.0033530967923
 20
0.6574778779028725
 42
0.1651455074665233
 10
41.09416283636153
 20
0.6266432837778329
 10
41.55274656985734
 20
0.626643283777832
 42
0.2480799013473726
 10
41.61305717953335
 20
0.6585293696859909
 10
43.05770457253632
 20
0.6585293696858466
 10
43.06143242791104
 20
0.6590180509826933
 10
43.06513775935711
 20
0.65965541584061
 10
43.06881463913692
 20
0.6604404446120899
 10
43.07245718502719
 20
0.6613718814185634
 10
43.07605956973154
 20
0.6624482361598361
 10
43.07961603020291
 20
0.6636677868979315
 10
43.08312087686321
 20
0.6650285826118259
 10
43.08656850270544
 20
0.6665284463186662
 10
43.08995339226374
 20
0.6681649785564723
 10
43.09327013043684
 20
0.6699355612227742
 10
43.09651341115125
 20
0.6718373617630089
 10
43.09967804584963
 20
0.6738673377020091
 10
43.10275897179161
 20
0.6760222415113099
 10
43.10575126015286
 20
0.6782986258045041
 10
43.10865012391035
 20
0.6806928488523269
 10
43.11145092550044
 20
0.6832010804086412
 10
43.11414918423809
 20
0.6858193078380173
 10
43.11674058348489
 20
0.6885433425350948
 10
43.11922097755485
 20
0.6913688266254538
 10
43.1215863983466
 20
0.6942912399372876
 10
43.12383306169145
 20
0.6973059072327131
 10
43.12595737340731
 20
0.7004080056871507
 10
43.12795593504861
 20
0.7035925726048206
 10
43.12982554934307
 20
0.706854513357992
 10
43.13156322530661
 20
0.7101886095373035
 10
43.1331661830284
 20
0.7135895273001034
 10
43.13463185811804
 20
0.7170518259034631
 10
43.13595790580804
 20
0.7205699664082
 10
43.13714220470495
 20
0.7241383205400039
 10
43.1381828601832
 20
0.7277511796934723
 10
43.139078207416
 20
0.7314027640646616
 10
43.13982681403878
 20
0.7350872318975413
 10
43.14042748244064
 20
0.7387986888295563
 10
43.14087925168027
 20
0.7425311973213506
 10
43.14118139902327
 20
0.7462787861555631
 10
43.14133344109833
 20
0.7500354599895029
 10
43.14135309679236
 20
0.7519576681287222
 10
43.14331291749748
 20
1.405116539939975
 10
43.25735309679238
 20
1.470957668128608
 10
44.69535309679189
 20
1.470957668128604
 10
44.80939327608676
 20
1.405116539939971
 10
44.80939327608676
 20
0.8389405449456472
 42
-0.24352538073891
 10
44.83423871281883
 20
-1.092042331871274
1001
REVIT
1002
{
1070
     1
1000
35589
1002
}
1002
{
1070
     2
1000
-2001160
1002
}
  0
LWPOLYLINE
  5
DB4
330
D99
100
AcDbEntity
  8
0
100
AcDbPolyline
 90
       55
 70
     0
 43
0.0
 10
45.3513530967915
 20
2.09595766812861
 10
42.60135309679271
 20
2.09595766812861
 10
42.60151965236601
 20
2.079330746859274
 10
42.60284833012184
 20
2.04615955969442
 10
42.60550243876608
 20
2.013068038880032
 10
42.60947773229109
 20
1.980109123790263
 10
42.61476785107524
 20
1.947335541658397
 10
42.62136433205697
 20
1.91479972322452
 10
42.62925662227391
 20
1.882553718857524
 10
42.63843209574528
 20
1.850649115285614
 10
42.64887607367087
 20
1.819136953068555
 10
42.66516689887182
 20
1.808702557115206
 10
42.69947295894897
 20
1.788138488450973
 10
42.73457392125123
 20
1.768962745349337
 10
42.77041363172672
 20
1.751206004908659
 10
42.80693475448408
 20
1.734896674125737
 10
42.84407886351761
 20
1.720060844450688
 10
42.88178653617659
 20
1.706722250046182
 10
42.91999744822859
 20
1.694902229817851
 10
42.95865047036558
 20
1.684619693276593
 10
42.99768376599764
 20
1.67589109028738
 10
43.03703489017848
 20
1.668730384752995
 10
43.07664088950379
 20
1.663149032274755
 10
43.11643840282354
 20
1.659155961826003
 10
43.15636376260608
 20
1.656757561467643
 10
43.1963530967927
 20
1.655957668128622
 10
44.75635309679147
 20
1.655957668128622
 10
44.77569818881968
 20
1.656144801930943
 10
44.8156645656399
 20
1.65771814293287
 10
44.85553605676241
 20
1.660888454228701
 10
44.89524887630685
 20
1.665650663996663
 10
44.9347394922336
 20
1.671997153717009
 10
44.97394472798137
 20
1.679917770360031
 10
45.01280186353631
 20
1.689399842628743
 10
45.05124873577061
 20
1.700428201230249
 10
45.08922383789025
 20
1.712985203143379
 10
45.12666641783279
 20
1.727050759843753
 10
45.16351657545762
 20
1.742602369441144
 10
45.19971535837348
 20
1.759615152677699
 10
45.23520485624972
 20
1.778061892729434
 10
45.26992829346044
 20
1.797913078747364
 10
45.30383011991331
 20
1.819136953068555
 10
45.30921849379989
 20
1.834867422817233
 10
45.31902911058941
 20
1.866582479820396
 10
45.32756361591865
 20
1.898664488194089
 10
45.3348083563997
 20
1.931062123568709
 10
45.34075174199324
 20
1.963723556638785
 10
45.34538426455018
 20
1.996596536078806
 10
45.34869851302265
 20
2.029628472134196
 10
45.35068918532009
 20
2.062766520753704
 10
45.35135309679147
 20
2.09595766812861
 42
-0.0738682103656012
 10
45.30383011991335
 20
1.819136953068561
 42
-0.1591065192206062
 10
44.75994365100734
 20
1.663180017733117
 10
44.53691028520139
 20
1.663180017733106
 10
44.53691028520139
 20
1.470957668128606
1001
REVIT
1002
{
1070
     1
1000
12478
1002
}
  0
LWPOLYLINE
  5
DB5
330
D99
100
AcDbEntity
  8
0
100
AcDbPolyline
 90
       19
 70
     0
 43
0.0
 10
44.90745274337982
 20
-1.29997418202558
 10
44.91107206132292
 20
-1.349471650719104
 10
44.91321596846435
 20
-1.414431949047231
 10
44.91285989715228
 20
-1.475575512927928
 10
44.91244938851367
 20
-1.484765735879071
 10
44.91167169739067
 20
-1.493932191668148
 10
44.91052806787374
 20
-1.503060215920083
 10
44.90902032952617
 20
-1.512135205743284
 10
44.90715089440771
 20
-1.521142643089926
 10
44.9049227532157
 20
-1.53006811798174
 10
44.90233947050078
 20
-1.5388973515629
 10
44.8994051789642
 20
-1.547616218943145
 10
44.89612457284649
 20
-1.556210771794589
 10
44.89250290041757
 20
-1.56466726066608
 10
44.8885459555808
 20
-1.572972156979378
 10
44.88426006860379
 20
-1.581112174671995
 10
44.87965209599143
 20
-1.589074291452074
 10
44.87472940951691
 20
-1.596845769631255
 10
44.87000075808828
 20
-1.603689289331035
1001
REVIT
1002
{
1070
     1
1000
11666
1002
}
  0
LWPOLYLINE
  5
DB6
330
D99
100
AcDbEntity
  8
0
100
AcDbPolyline
 90
        4
 70
     0
 43
0.0
 10
44.87663290526477
 20
-1.092042331871247
 10
44.88909878711857
 20
-1.155831347276073
 10
44.89900381734206
 20
-1.220067840587758
 10
44.89983772324078
 20
-1.227416667611367
1001
REVIT
1002
{
1070
     1
1000
11666
1002
}
  0
LWPOLYLINE
  5
DB7
330
D99
100
AcDbEntity
  8
0
100
AcDbPolyline
 90
       20
 70
     0
 43
0.0
 10
43.08355693323045
 20
-1.604860543809484
 10
43.07902740532981
 20
-1.598419148440379
 10
43.07404096009936
 20
-1.59068842537074
 10
43.06936764996153
 20
-1.582764481430265
 10
43.06501495121572
 20
-1.57465999323891
 10
43.06098982725129
 20
-1.566387926248913
 10
43.05729871740799
 20
-1.557961514002848
 10
43.05394752667418
 20
-1.549394236962764
 10
43.05094161624015
 20
-1.540699800944343
 10
43.04828579492134
 20
-1.531892115190496
 10
43.04598431146534
 20
-1.52298527011956
 10
43.04404084775472
 20
-1.51399351478362
 10
43.04245851291685
 20
-1.504931234073076
 10
43.04123983834989
 20
-1.495812925703883
 10
43.04038677367318
 20
-1.486653177024292
 10
43.03990068360824
 20
-1.477466641678217
 10
43.03984629643188
 20
-1.475575512927928
 10
43.03954482834487
 20
-1.410580545325023
 10
43.04184270688007
 20
-1.345625511255694
 10
43.04512647723547
 20
-1.302134570311271
1001
REVIT
1002
{
1070
     1
1000
11666
1002
}
  0
LWPOLYLINE
  5
DB8
330
D99
100
AcDbEntity
  8
0
100
AcDbPolyline
 90
       34
 70
     0
 43
0.0
 10
44.82279994024063
 20
-1.652442224728051
 10
44.81771798392983
 20
-1.656274831572227
 10
44.81015753328261
 20
-1.661515852582204
 10
44.80239354524885
 20
-1.666450343946851
 10
44.7944384405532
 20
-1.671070411532625
 10
44.78630494566615
 20
-1.675368664216945
 10
44.77800607244449
 20
-1.679338225712429
 10
44.76955509731499
 20
-1.682972745567481
 10
44.76096554003515
 20
-1.686266409325655
 10
44.75225114206422
 20
-1.689213947827548
 10
44.74342584458
 20
-1.691810645640331
 10
44.7415985196342
 20
-1.692300757321383
 10
44.62498700684775
 20
-1.720582114927579
 10
44.50733781817303
 20
-1.744177633709381
 10
44.38883916721484
 20
-1.763049565870181
 10
44.26968062653629
 20
-1.777167720344317
 10
44.15005282438335
 20
-1.786509511096341
 10
44.03014713972022
 20
-1.791059993253865
 10
43.97635309679243
 20
-1.791542331871381
 10
43.85638509423253
 20
-1.78914265185433
 10
43.73660901488491
 20
-1.781947450779268
 10
43.61721647492567
 20
-1.76996823943302
 10
43.49839847694968
 20
-1.753224181998317
 10
43.38034510440722
 20
-1.731742065395174
 10
43.263245217511
 20
-1.705556256427549
 10
43.21110767395847
 20
-1.692300757286558
 10
43.20226131557078
 20
-1.689776740944997
 10
43.19352296705921
 20
-1.686900983565396
 10
43.1849066079173
 20
-1.6836780857461
 10
43.17642602248163
 20
-1.680113203436104
 10
43.16809477787979
 20
-1.676212039686636
 10
43.15992620232591
 20
-1.671980835527494
 10
43.15193336379834
 20
-1.667426359982719
 10
43.14579128078714
 20
-1.663593252854164
1001
REVIT
1002
{
1070
     1
1000
11666
1002
}
  0
LWPOLYLINE
  5
DB9
330
D99
100
AcDbEntity
  8
0
100
AcDbPolyline
 90
        6
 70
     0
 43
0.0
 10
44.88527738808263
 20
-0.9596179161417975
 10
44.89769768362255
 20
-0.9596179161417975
 10
44.89307834482803
 20
-0.9615306042883455
 10
44.88853918813735
 20
-0.9636264867711595
 10
44.88408747523286
 20
-0.9659022106253662
 10
44.87973032790562
 20
-0.9683541351782604
1001
REVIT
1002
{
1070
     1
1000
7233
1002
}
  0
LWPOLYLINE
  5
DBA
330
D99
100
AcDbEntity
  8
0
100
AcDbPolyline
 90
        5
 70
     0
 43
0.0
 10
44.88318745920686
 20
0.658529369686146
 10
44.89500162104554
 20
0.658529369686146
 10
44.92581752734089
 20
0.5739758364850172
 10
44.95322754470222
 20
0.4882576295167779
 10
44.97117078214142
 20
0.4232959637511633
1001
REVIT
1002
{
1070
     1
1000
7233
1002
}
  0
LWPOLYLINE
  5
DBB
330
D99
100
AcDbEntity
  8
0
100
AcDbPolyline
 90
        5
 70
     0
 43
0.0
 10
44.98734229460679
 20
-0.6681017391929456
 10
44.96503324345709
 20
-0.7552867510608025
 10
44.93925556659315
 20
-0.8415099001165904
 10
44.91005050279902
 20
-0.9266332477151133
 10
44.89769768362388
 20
-0.9596179161452456
1001
REVIT
1002
{
1070
     1
1000
7233
1002
}
  0
LWPOLYLINE
  5
DBC
330
D99
100
AcDbEntity
  8
0
100
AcDbPolyline
 90
        5
 70
     0
 43
0.0
 10
45.0453357734645
 20
-0.2319777190338592
 10
45.04126281968202
 20
-0.3125509934513719
 10
45.03312887545525
 20
-0.4021766538891839
 10
45.02141736702932
 20
-0.4914053523442666
 10
45.01129175070917
 20
-0.5502141852772857
1001
REVIT
1002
{
1070
     1
1000
7233
1002
}
  0
LWPOLYLINE
  5
DBD
330
D99
100
AcDbEntity
  8
0
100
AcDbPolyline
 90
        5
 70
     0
 43
0.0
 10
45.00114711928399
 20
0.2956959776414503
 10
45.01461141693122
 20
0.2254942717026083
 10
45.02801486289977
 20
0.1365040042922505
 10
45.03784892599832
 20
0.0470489247239439
 10
45.04180921386956
 20
-0.0098473582191634
1001
REVIT
1002
{
1070
     1
1000
7233
1002
}
  0
LWPOLYLINE
  5
DBE
330
D99
100
AcDbEntity
  8
0
100
AcDbPolyline
 90
        6
 70
     0
 43
0.0
 10
44.87840186708644
 20
0.6619041772615342
 10
44.8820246043365
 20
0.6608984487176044
 10
44.88568466219803
 20
0.660038395499802
 10
44.88937618535921
 20
0.6593253935098061
 10
44.89309326817045
 20
0.6587605833987027
 10
44.89500162104556
 20
0.6585293696861503
1001
REVIT
1002
{
1070
     1
1000
7233
1002
}
  0
LWPOLYLINE
  5
DBF
330
D99
100
AcDbEntity
  8
0
100
AcDbPolyline
 90
        4
 70
     0
 43
0.0
 10
43.05254462480053
 20
-1.230688683045653
 10
43.05421764683622
 20
-1.216250670384785
 10
43.06427491099309
 20
-1.152037835730105
 10
43.07607328831941
 20
-1.092042331871247
1001
REVIT
1002
{
1070
     1
1000
11666
1002
}
  0
ENDBLK
  5
D9B
330
D99
100
AcDbEntity
  8
0
100
AcDbBlockEnd
  0
BLOCK
  5
DC2
330
DC1
100
AcDbEntity
  8
0
100
AcDbBlockBegin
  2
Flush_Valve-Urinal_Exposed-American_Standard-Ultima_Selectronic_6245-XXX-Side_View
 70
     0
 10
0.0
 20
0.0
 30
0.0
  3
Flush_Valve-Urinal_Exposed-American_Standard-Ultima_Selectronic_6245-XXX-Side_View
  1

  0
LINE
  5
DC4
330
DC1
100
AcDbEntity
  8
0
100
AcDbLine
 10
21.10999999999948
 20
8.610682508028565
 30
0.0
 11
21.10999999999947
 21
8.61341219074824
 31
0.0
1001
REVIT
1002
{
1070
     2
1000
-2001160
1002
}
  0
LINE
  5
DC5
330
DC1
100
AcDbEntity
  8
0
100
AcDbLine
 10
19.38999999999955
 20
8.613412190748267
 30
0.0
 11
19.38999999999955
 21
8.610682508028542
 31
0.0
1001
REVIT
1002
{
1070
     2
1000
-2001160
1002
}
  0
LINE
  5
DC6
330
DC1
100
AcDbEntity
  8
0
100
AcDbLine
 10
21.10528883001619
 20
9.950532801664014
 30
0.0
 11
19.39471116998278
 21
9.950532801663992
 31
0.0
1001
REVIT
1002
{
1070
     2
1000
-2001160
1002
}
  0
LINE
  5
DC7
330
DC1
100
AcDbEntity
  8
0
100
AcDbLine
 10
22.0867626683907
 20
11.60440922048283
 30
0.0
 11
18.41323733160825
 21
11.60440922048278
 31
0.0
1001
REVIT
1002
{
1070
     2
1000
-2001160
1002
}
  0
LINE
  5
DC8
330
DC1
100
AcDbEntity
  8
0
100
AcDbLine
 10
22.08676266839068
 20
12.35440922048283
 30
0.0
 11
18.41323733160823
 21
12.35440922048278
 31
0.0
1001
REVIT
1002
{
1070
     2
1000
-2001160
1002
}
  0
LINE
  5
DC9
330
DC1
100
AcDbEntity
  8
0
100
AcDbLine
 10
19.87499999999926
 20
-0.5419999999999902
 30
0.0
 11
19.87499999999925
 21
-0.9999999999999875
 31
0.0
1001
REVIT
1002
{
1070
     2
1000
-2001160
1002
}
  0
LINE
  5
DCA
330
DC1
100
AcDbEntity
  8
0
100
AcDbLine
 10
20.62499999999943
 20
-0.9999999999999982
 30
0.0
 11
20.62499999999944
 21
-0.5420000000000008
 31
0.0
1001
REVIT
1002
{
1070
     2
1000
-2001160
1002
}
  0
LINE
  5
DCB
330
DC1
100
AcDbEntity
  8
0
100
AcDbLine
 10
19.49999999999938
 20
8.050741966080105
 30
0.0
 11
19.49999999999934
 21
5.455836328651219
 31
0.0
1001
REVIT
1002
{
1070
     2
1000
-2001160
1002
}
  0
LINE
  5
DCC
330
DC1
100
AcDbEntity
  8
0
100
AcDbLine
 10
20.99999999999952
 20
5.455836328651201
 30
0.0
 11
20.99999999999956
 21
8.050741966080082
 31
0.0
1001
REVIT
1002
{
1070
     2
1000
-2001160
1002
}
  0
LINE
  5
DCD
330
DC1
100
AcDbEntity
  8
0
100
AcDbLine
 10
19.29252898125124
 20
9.467200462067095
 30
0.0
 11
19.29252898125123
 21
9.157635928001225
 31
0.0
1001
REVIT
1002
{
1070
     2
1000
-2001160
1002
}
  0
LINE
  5
DCE
330
DC1
100
AcDbEntity
  8
0
100
AcDbLine
 10
21.20747101874773
 20
9.157635928001194
 30
0.0
 11
21.20747101874774
 21
9.467200462067069
 31
0.0
1001
REVIT
1002
{
1070
     2
1000
-2001160
1002
}
  0
LINE
  5
DCF
330
DC1
100
AcDbEntity
  8
0
100
AcDbLine
 10
19.200779400386
 20
9.157635928001212
 30
0.0
 11
21.29922059961296
 21
9.157635928001186
 31
0.0
1001
REVIT
1002
{
1070
     2
1000
-2001160
1002
}
  0
LINE
  5
DD0
330
DC1
100
AcDbEntity
  8
0
100
AcDbLine
 10
19.20077940038598
 20
8.613412190748269
 30
0.0
 11
21.29922059961296
 21
8.613412190748237
 31
0.0
1001
REVIT
1002
{
1070
     2
1000
-2001160
1002
}
  0
LINE
  5
DD1
330
DC1
100
AcDbEntity
  8
0
100
AcDbLine
 10
20.61930290737901
 20
-1.0
 30
0.0
 11
19.88069709261967
 21
-0.9999999999999895
 31
0.0
1001
REVIT
1002
{
1070
     2
1000
-2001160
1002
}
  0
LINE
  5
DD2
330
DC1
100
AcDbEntity
  8
0
100
AcDbLine
 10
21.20222589232518
 20
9.467200462067056
 30
0.0
 11
19.29777410767378
 21
9.467200462067085
 31
0.0
1001
REVIT
1002
{
1070
     2
1000
-2001160
1002
}
  0
LINE
  5
DD3
330
DC1
100
AcDbEntity
  8
0
100
AcDbLine
 10
20.61930290737914
 20
5.252062500000011
 30
0.0
 11
19.88069709261972
 21
5.252062500000021
 31
0.0
1001
REVIT
1002
{
1070
     2
1000
-2001160
1002
}
  0
LINE
  5
DD4
330
DC1
100
AcDbEntity
  8
0
100
AcDbLine
 10
21.17275955915683
 20
8.050741966080071
 30
0.0
 11
19.3272404408421
 21
8.050741966080098
 31
0.0
1001
REVIT
1002
{
1070
     2
1000
-2001160
1002
}
  0
LINE
  5
DD5
330
DC1
100
AcDbEntity
  8
0
100
AcDbLine
 10
21.49315236920979
 20
-0.5420000000000062
 30
0.0
 11
19.0068476307889
 21
-0.5419999999999716
 31
0.0
1001
REVIT
1002
{
1070
     2
1000
-2001160
1002
}
  0
LINE
  5
DD6
330
DC1
100
AcDbEntity
  8
0
100
AcDbLine
 10
19.92017995012161
 20
0.4232922669433211
 30
0.0
 11
19.92017995012161
 21
0.6180701355805903
 31
0.0
1001
REVIT
1002
{
1070
     2
1000
-2001160
1002
}
  0
LINE
  5
DD7
330
DC1
100
AcDbEntity
  8
0
100
AcDbLine
 10
19.76539097209966
 20
0.6180701355805917
 30
0.0
 11
19.76539097209966
 21
0.4232922669433224
 31
0.0
1001
REVIT
1002
{
1070
     2
1000
-2001160
1002
}
  0
LINE
  5
DD8
330
DC1
100
AcDbEntity
  8
0
100
AcDbLine
 10
19.43557092222186
 20
0.4232922669433211
 30
0.0
 11
19.43557092222186
 21
0.6180701355805903
 31
0.0
1001
REVIT
1002
{
1070
     2
1000
-2001160
1002
}
  0
LINE
  5
DD9
330
DC1
100
AcDbEntity
  8
0
100
AcDbLine
 10
21.06442907777688
 20
0.6180701355805677
 30
0.0
 11
21.06442907777688
 21
0.4232922669432984
 31
0.0
1001
REVIT
1002
{
1070
     2
1000
-2001160
1002
}
  0
LINE
  5
DDA
330
DC1
100
AcDbEntity
  8
0
100
AcDbLine
 10
20.73460902789888
 20
0.4232922669433092
 30
0.0
 11
20.73460902789888
 21
0.6180701355805783
 31
0.0
1001
REVIT
1002
{
1070
     2
1000
-2001160
1002
}
  0
LINE
  5
DDB
330
DC1
100
AcDbEntity
  8
0
100
AcDbLine
 10
20.57982004987709
 20
0.6180701355805811
 30
0.0
 11
20.57982004987709
 21
0.4232922669433119
 31
0.0
1001
REVIT
1002
{
1070
     2
1000
-2001160
1002
}
  0
LINE
  5
DDC
330
DC1
100
AcDbEntity
  8
0
100
AcDbLine
 10
21.16136746506901
 20
10.1203065500241
 30
0.0
 11
21.18799999999999
 21
10.13000000000031
 31
0.0
1001
REVIT
1002
{
1070
     1
1000
7233
1002
}
1002
{
1070
     2
1000
-2001160
1002
}
  0
LINE
  5
DDD
330
DC1
100
AcDbEntity
  8
0
100
AcDbLine
 10
18.69084112818876
 20
10.12952330196997
 30
0.0
 11
18.69084112818876
 21
11.54595200965203
 31
0.0
1001
REVIT
1002
{
1070
     1
1000
7233
1002
}
1002
{
1070
     2
1000
-2001160
1002
}
  0
LINE
  5
DDE
330
DC1
100
AcDbEntity
  8
0
100
AcDbLine
 10
21.18799999999999
 20
10.06265201851602
 30
0.0
 11
21.18799999999999
 21
10.19830208990748
 31
0.0
1001
REVIT
1002
{
1070
     1
1000
11666
1002
}
1002
{
1070
     2
1000
-2001160
1002
}
  0
LINE
  5
DDF
330
DC1
100
AcDbEntity
  8
0
100
AcDbLine
 10
18.44000000000012
 20
10.39550000000026
 30
0.0
 11
18.62500000000013
 21
10.39550000000026
 31
0.0
1001
REVIT
1002
{
1070
     1
1000
12478
1002
}
1002
{
1070
     2
1000
-2001160
1002
}
  0
LINE
  5
DE0
330
DC1
100
AcDbEntity
  8
0
100
AcDbLine
 10
18.62500000000013
 20
11.52049999999973
 30
0.0
 11
18.44000000000012
 21
11.52049999999973
 31
0.0
1001
REVIT
1002
{
1070
     1
1000
12478
1002
}
1002
{
1070
     2
1000
-2001160
1002
}
  0
LINE
  5
DE1
330
DC1
100
AcDbEntity
  8
0
100
AcDbLine
 10
18.25
 20
13.33319000694927
 30
0.0
 11
18.49405275072043
 21
13.33319000694927
 31
0.0
1001
REVIT
1002
{
1070
     1
1000
39169
1002
}
1002
{
1070
     2
1000
-2001160
1002
}
  0
LINE
  5
DE2
330
DC1
100
AcDbEntity
  8
0
100
AcDbLine
 10
18.51500861731001
 20
13.58280999305081
 30
0.0
 11
18.25
 21
13.58280999305081
 31
0.0
1001
REVIT
1002
{
1070
     1
1000
39169
1002
}
1002
{
1070
     2
1000
-2001160
1002
}
  0
LWPOLYLINE
  5
DE3
330
DC1
100
AcDbEntity
  8
0
100
AcDbPolyline
 90
        4
 70
     1
 43
0.0
 10
18.25000000000001
 20
12.45800000000003
 10
18.25
 20
14.45800000000001
 10
18.0
 20
14.45800000000003
 10
18.00000000000001
 20
12.45800000000003
1001
REVIT
1002
{
1070
     1
1000
39169
1002
}
1002
{
1070
     2
1000
-2001160
1002
}
  0
LWPOLYLINE
  5
DE4
330
DC1
100
AcDbEntity
  8
0
100
AcDbPolyline
 90
       80
 70
     0
 43
0.0
 10
20.00842482760202
 20
15.15161075146961
 10
20.00842482760202
 20
15.33164397672571
 10
20.00841746360203
 20
15.33300813114399
 10
20.00826184652417
 20
15.33805963872572
 10
20.00790434749854
 20
15.34310088261684
 10
20.00734553844732
 20
15.34812379790255
 10
20.00658631334578
 20
15.35312034898988
 10
20.00562788679214
 20
15.35808254246298
 10
20.00447179206442
 20
15.36300243987082
 10
20.00311987866756
 20
15.36787217042707
 10
20.00157430937461
 20
15.37268394360168
 10
19.99983755676674
 20
15.377430061584
 10
19.99791239927762
 20
15.38210293159774
 10
19.99580191674856
 20
15.38669507804767
 10
19.9935094855014
 20
15.39119915447911
 10
19.99103877293712
 20
15.39560795533056
 10
19.98839373166873
 20
15.39991442746117
 10
19.98557859319805
 20
15.40411168143419
 10
19.98259786114608
 20
15.40819300253863
 10
19.97945630404826
 20
15.41215186153135
 10
19.97615894772578
 20
15.41598192508248
 10
19.97271106724535
 20
15.41967706590738
 10
19.96911817848024
 20
15.42323137256898
 10
19.96538602928603
 20
15.42663915893483
 10
19.96152059030528
 20
15.42989497327371
 10
19.95752804541577
 20
15.4329936069772
 10
19.95341478183764
 20
15.4359301028924
 10
19.94918737991516
 20
15.43869976325224
 10
19.9448526025896
 20
15.44129815719099
 10
19.94041738457998
 20
15.44372112783264
 10
19.935888821289
 20
15.44596479894105
 10
19.93127415745186
 20
15.44802558112104
 10
19.9265807755463
 20
15.44990017756076
 10
19.92181618398219
 20
15.45158558930578
 10
19.91698800508961
 20
15.45307912005686
 10
19.91210396292485
 20
15.45437838048338
 10
19.90717187091349
 20
15.45548129204584
 10
19.90219961935062
 20
15.45638609032101
 10
19.89719516277807
 20
15.45709132782465
 10
19.89216650725878
 20
15.45759587632721
 10
19.88712169756886
 20
15.45789892865871
 10
19.88206880432765
 20
15.45800000000007
 10
19.2192144412767
 20
15.45800000000008
 10
19.21785028685842
 20
15.4579926360001
 10
19.21279877927669
 20
15.45783701892224
 10
19.20775753538556
 20
15.45747951989661
 10
19.20273462009985
 20
15.45692071084539
 10
19.19773806901252
 20
15.45616148574385
 10
19.19277587553943
 20
15.45520305919021
 10
19.18785597813159
 20
15.45404696446249
 10
19.18298624757533
 20
15.45269505106563
 10
19.17817447440073
 20
15.45114948177268
 10
19.1734283564184
 20
15.44941272916481
 10
19.16875548640467
 20
15.44748757167569
 10
19.16416333995473
 20
15.44537708914664
 10
19.1596592635233
 20
15.44308465789948
 10
19.15525046267184
 20
15.44061394533519
 10
19.15094399054123
 20
15.43796890406681
 10
19.14674673656822
 20
15.43515376559612
 10
19.14266541546378
 20
15.43217303354415
 10
19.13870655647106
 20
15.42903147644634
 10
19.13487649291992
 20
15.42573412012385
 10
19.13118135209503
 20
15.42228623964342
 10
19.12762704543343
 20
15.41869335087832
 10
19.12421925906757
 20
15.4149612016841
 10
19.12096344472869
 20
15.41109576270335
 10
19.1178648110252
 20
15.40710321781385
 10
19.11492831511001
 20
15.40298995423571
 10
19.11215865475017
 20
15.39876255231323
 10
19.10956026081141
 20
15.39442777498766
 10
19.10713729016976
 20
15.38999255697805
 10
19.10489361906136
 20
15.38546399368706
 10
19.10283283688136
 20
15.38084932984993
 10
19.10095824044165
 20
15.37615594794438
 10
19.09927282869663
 20
15.37139135638027
 10
19.09777929794555
 20
15.36656317748769
 10
19.09648003751902
 20
15.36167913532292
 10
19.09537712595657
 20
15.35674704331156
 10
19.0944723276814
 20
15.35177479174869
 10
19.09376709017776
 20
15.34677033517614
1001
REVIT
1002
{
1070
     1
1000
34894
1002
}
1002
{
1070
     2
1000
-2001160
1002
}
  0
LWPOLYLINE
  5
DE5
330
DC1
100
AcDbEntity
  8
0
100
AcDbPolyline
 90
        4
 70
     0
 43
0.0
 10
21.98876844670246
 20
13.63488354112255
 10
22.04676987274778
 20
13.63995800836984
 10
21.98593289525709
 20
14.33532784303034
 10
21.93272135921843
 20
14.33067243685817
1001
REVIT
1002
{
1070
     1
1000
32169
1002
}
1002
{
1070
     2
1000
-2001160
1002
}
  0
LWPOLYLINE
  5
DE6
330
DC1
100
AcDbEntity
  8
0
100
AcDbPolyline
 90
       76
 70
     1
 43
0.0
 10
18.63476146284101
 20
15.24481615014628
 10
18.63914306568315
 20
15.25380437710779
 10
18.64388059692208
 20
15.26261019706608
 10
18.64896647751842
 20
15.27121952258772
 10
18.65439257114816
 20
15.27961858058841
 10
18.66015019721899
 20
15.28779393436707
 10
18.66623014475743
 20
15.29573250510163
 10
18.6726226871444
 20
15.30342159277239
 10
18.67931759767575
 20
15.31084889647932
 10
18.6863041659228
 20
15.31800253412091
 10
18.69357121486675
 20
15.32487106140294
 10
18.7011071187795
 20
15.33144349014698
 10
18.70889982182237
 20
15.33770930586908
 10
18.71693685733285
 20
15.34365848460072
 10
18.7252053677686
 20
15.34928150892503
 10
18.73369212527677
 20
15.35456938320259
 10
18.74238355285576
 20
15.35951364796258
 10
18.75126574607552
 20
15.36410639343612
 10
18.76032449532166
 20
15.36834027221016
 10
18.76954530852781
 20
15.37220851098186
 10
18.77891343435987
 20
15.37570492139435
 10
18.7884138858149
 20
15.37882390993685
 10
18.79803146419726
 20
15.38156048689303
 10
18.80775078343315
 20
15.38391027432353
 10
18.81755629468515
 20
15.38586951306973
 10
18.82743231122699
 20
15.38743506876757
 10
18.83736303353897
 20
15.38860443686192
 10
18.84733257458384
 20
15.38937574661327
 10
18.85732498522263
 20
15.38974776409056
 10
18.86732427972994
 20
15.38971989414518
 10
18.87731446136762
 20
15.3892921813631
 10
18.88727954797617
 20
15.38846530999353
 10
18.8972035975428
 20
15.38724060285428
 10
18.90707073370521
 20
15.3856200192155
 10
18.91360589944853
 20
15.38432169848915
 10
21.72641969040224
 20
14.78643967046602
 10
21.73615698143049
 20
14.78416550450707
 10
21.74579554128198
 20
14.78150376985331
 10
21.75531995031706
 20
14.7784587247124
 10
21.76471497151304
 20
14.77503524050697
 10
21.77396557484018
 20
14.77123879408147
 10
21.7830569613065
 20
14.76707545894029
 10
21.79197458663305
 20
14.76255189553154
 10
21.80070418452164
 20
14.75767534059169
 10
21.80923178947785
 20
14.75245359556838
 10
21.81754375915289
 20
14.74689501413972
 10
21.8256267961684
 20
14.74100848885024
 10
21.83346796938943
 20
14.73480343688466
 10
21.84105473461155
 20
14.72828978500248
 10
21.8483749546288
 20
14.72147795365718
 10
21.85541691865073
 20
14.71437884032582
 10
21.86216936103711
 20
14.70700380207532
 10
21.86862147932057
 20
14.69936463739363
 10
21.87476295148822
 20
14.69147356731462
 10
21.88058395249472
 20
14.68334321586711
 10
21.8860751699802
 20
14.67498658987901
 10
21.89122781916807
 20
14.66641705816926
 10
21.89603365691882
 20
14.65764833016052
 10
21.90048499491723
 20
14.64869443394705
 10
21.90457471197207
 20
14.63956969385271
 10
21.90829626540848
 20
14.63028870751517
 10
21.91164370153486
 20
14.62086632253271
 10
21.91461166516747
 20
14.61131761271132
 10
21.91719540819764
 20
14.60165785394974
 10
21.91939079718771
 20
14.59190249980137
 10
21.92119431998358
 20
14.58206715675182
 10
21.92260309133355
 20
14.57216755925185
 10
21.92361485750395
 20
14.56221954454568
 10
21.92422799988475
 20
14.55223902733471
 10
21.92444153757894
 20
14.5422419743174
 10
21.92425512897176
 20
14.53224437864599
 10
21.92366907227722
 20
14.52226223434085
 10
21.9230571546449
 20
14.51562750866358
 10
18.62381940759167
 20
15.21690214030914
 10
18.62709350024306
 20
15.22635026100525
 10
18.6307427980255
 20
15.23565989542733
1001
REVIT
1002
{
1070
     1
1000
31633
1002
}
1002
{
1070
     2
1000
-2001160
1002
}
  0
LWPOLYLINE
  5
DE7
330
DC1
100
AcDbEntity
  8
0
100
AcDbPolyline
 90
       20
 70
     0
 43
0.0
 10
18.27682071506018
 20
9.630522976878769
 10
18.24530855284312
 20
9.620078998953184
 10
18.21340394927121
 20
9.610903525481816
 10
18.18115794490422
 20
9.603011235264887
 10
18.14862212647034
 20
9.596414754283147
 10
18.11584854433847
 20
9.591124635498996
 10
18.08288962924871
 20
9.587149341973983
 10
18.04979810843432
 20
9.584495233329739
 10
18.01662692126946
 20
9.583166555573912
 10
18.00000000000013
 20
9.583000000000613
 10
18.00000000000013
 20
12.33299999999936
 10
18.03319114737503
 20
12.33233608852799
 10
18.06632919599454
 20
12.33034541623055
 10
18.09936113204993
 20
12.32703116775809
 10
18.13223411148995
 20
12.32239864520115
 10
18.16489554456003
 20
12.31645525960761
 10
18.19729317993465
 20
12.30921051912656
 10
18.22937518830834
 20
12.30067601379732
 10
18.2610902453115
 20
12.2908653970078
 10
18.27682071506018
 20
12.28547702312123
1001
REVIT
1002
{
1070
     1
1000
12478
1002
}
1002
{
1070
     2
1000
-2001160
1002
}
  0
LWPOLYLINE
  5
DE8
330
DC1
100
AcDbEntity
  8
0
100
AcDbPolyline
 90
       27
 70
     0
 43
0.0
 10
18.41323733160825
 20
11.9670764300932
 10
18.40655782549999
 20
11.99444876674422
 10
18.39552946689849
 20
12.03289563897852
 10
18.38297246498536
 20
12.07087074109816
 10
18.36890690828498
 20
12.1083133210407
 10
18.35335529868759
 20
12.14516347866552
 10
18.33634251545104
 20
12.18136226158139
 10
18.3178957753993
 20
12.21685175945763
 10
18.29804458938137
 20
12.25157519666833
 10
18.27682071506018
 20
12.28547702312122
 10
18.27682071506018
 20
9.630522976878769
 10
18.28725511101353
 20
9.646813802079734
 10
18.30781917967776
 20
9.681119862156881
 10
18.3269949227794
 20
9.716220824459137
 10
18.34475166322008
 20
9.752060534934617
 10
18.361060994003
 20
9.788581657691965
 10
18.37589682367805
 20
9.825725766725527
 10
18.38923541808255
 20
9.863433439384499
 10
18.40105543831089
 20
9.901644351436504
 10
18.41133797485214
 20
9.940297373573482
 10
18.42006657784136
 20
9.979330669205557
 10
18.42722728337574
 20
10.01868179338637
 10
18.43280863585398
 20
10.0582877927117
 10
18.43680170630273
 20
10.09808530603144
 10
18.43920010666109
 20
10.13801066581398
 10
18.44000000000011
 20
10.17800000000061
 10
18.44000000000011
 20
11.60440922048278
1001
REVIT
1002
{
1070
     1
1000
12478
1002
}
1002
{
1070
     2
1000
-2001160
1002
}
  0
LWPOLYLINE
  5
DE9
330
DC1
100
AcDbEntity
  8
0
100
AcDbPolyline
 90
       53
 70
     0
 43
0.0
 10
21.82375197490357
 20
11.57067333096266
 10
21.84013530183812
 20
11.48898472138103
 10
21.85900723399893
 20
11.37048607042282
 10
21.87312538847306
 20
11.25132752974427
 10
21.88246717922508
 20
11.13169972759133
 10
21.88701766138261
 20
11.01179404292821
 10
21.88750000000013
 20
10.95800000000041
 10
21.88510031998307
 20
10.83803199744051
 10
21.87790511890801
 20
10.71825591809289
 10
21.86592590756176
 20
10.59886337813364
 10
21.84918185012706
 20
10.48004538015766
 10
21.82769973352391
 20
10.36199200761522
 10
21.80151392455629
 20
10.24489212071899
 10
21.7882584254153
 20
10.19275457716645
 10
21.78573440907374
 20
10.18390821877876
 10
21.78285865169414
 20
10.17516987026719
 10
21.77963575387484
 20
10.16655351112529
 10
21.77607087156484
 20
10.15807292568962
 10
21.77216970781538
 20
10.14974168108777
 10
21.76793850365623
 20
10.14157310553389
 10
21.76338402811146
 20
10.13358026700631
 10
21.75851356737036
 20
10.12577595234163
 10
21.75333491313114
 20
10.11817264677849
 10
21.74785635013586
 20
10.11078251398383
 10
21.74208664291662
 20
10.10361737659365
 10
21.73603502177416
 20
10.09668869729929
 10
21.72971116801138
 20
10.09000756050958
 10
21.72312519844526
 20
10.08358465461816
 10
21.71628764922219
 20
10.0774302549043
 10
21.70920945896233
 20
10.07155420709467
 10
21.70190195126014
 20
10.06596591161228
 10
21.69437681656912
 20
10.0606743085378
 10
21.68664609349948
 20
10.05568786330734
 10
21.67872214955901
 20
10.05101455316953
 10
21.67061766136765
 20
10.04666185442369
 10
21.66234559437766
 20
10.04263673045927
 10
21.65391918213159
 20
10.03894562061598
 10
21.6453519050915
 20
10.03559442988217
 10
21.63665746907309
 20
10.03258851944813
 10
21.62784978331924
 20
10.02993269812933
 10
21.6189429382483
 20
10.02763121467333
 10
21.60995118291236
 20
10.02568775096271
 10
21.60088890220182
 20
10.02410541612482
 10
21.59177059383262
 20
10.02288674155786
 10
21.58261084515304
 20
10.02203367688115
 10
21.57342430980696
 20
10.02154758681621
 10
21.57153318105667
 20
10.02149319963987
 10
21.50653821345376
 20
10.02119173155284
 10
21.44158317938444
 20
10.02348961008805
 10
21.37677199304686
 20
10.02838315913003
 10
21.31220833851353
 20
10.03586455004421
 10
21.24799550385885
 20
10.04592181420108
 10
21.18799999999999
 20
10.05772019152739
1001
REVIT
1002
{
1070
     1
1000
11666
1002
}
1002
{
1070
     2
1000
-2001160
1002
}
  0
LWPOLYLINE
  5
DEA
330
DC1
100
AcDbEntity
  8
0
100
AcDbPolyline
 90
        4
 70
     0
 43
0.0
 10
19.33773664318385
 20
10.12301879337031
 10
18.69084112818876
 20
10.12495982070538
 10
18.62500000000013
 20
10.23900000000025
 10
18.62500000000013
 20
11.60940713788604
1001
REVIT
1002
{
1070
     1
1000
7233
1002
}
1002
{
1070
     2
1000
-2001160
1002
}
  0
LWPOLYLINE
  5
DEB
330
DC1
100
AcDbEntity
  8
0
100
AcDbPolyline
 90
        4
 70
     0
 43
0.0
 10
21.06931756071795
 20
0.4232922669432984
 10
21.06931756071795
 20
0.6180701355805672
 10
19.43068243928077
 20
0.6180701355805897
 10
19.43068243928077
 20
0.4232922669433224
1001
REVIT
1002
{
1070
     2
1000
-2001160
1002
}
  0
LWPOLYLINE
  5
DEC
330
DC1
100
AcDbEntity
  8
0
100
AcDbPolyline
 90
        6
 70
     0
 43
0.0
 10
19.87499999999927
 20
0.6180701355805957
 10
19.8749999999993
 20
5.252062500000028
 10
19.49999999999934
 20
5.455836328651215
 10
20.99999999999952
 20
5.455836328651193
 10
20.62499999999956
 20
5.252062500000018
 10
20.62499999999945
 20
0.6180701355805797
1001
REVIT
1002
{
1070
     2
1000
-2001160
1002
}
  0
LWPOLYLINE
  5
DED
330
DC1
100
AcDbEntity
  8
0
100
AcDbPolyline
 90
       84
 70
     0
 43
0.0
 10
18.99999999999925
 20
-0.5419999999999689
 10
18.99999999999918
 20
0.2799692582159714
 10
19.00011464311919
 20
0.2857006499086008
 10
19.00045838907468
 20
0.2914228725971595
 10
19.00103068794546
 20
0.2971267719460113
 10
19.00183062417541
 20
0.3028032229329705
 10
19.00285691803721
 20
0.3084431444473707
 10
19.00410792767961
 20
0.3140375138179008
 10
19.00558165175405
 20
0.3195773812469802
 10
19.00727573261639
 20
0.3250538841284907
 10
19.00918746009864
 20
0.3304582612260771
 10
19.01131377584464
 20
0.3357818666892667
 10
19.01365127820277
 20
0.3410161838849512
 10
19.01619622766792
 20
0.3461528390222142
 10
19.01894455286383
 20
0.3511836145486009
 10
19.02189185705647
 20
0.3561004622964379
 10
19.02503342518784
 20
0.360895516358205
 10
19.02836423141911
 20
0.3655611056702914
 10
19.03187894717084
 20
0.3700897662850717
 10
19.0355719496476
 20
0.3744742533116241
 10
19.03943733083321
 20
0.3787075525060135
 10
19.04346890694237
 20
0.382782891492585
 10
19.0476602283133
 20
0.3866937505983212
 10
19.05200458972592
 20
0.3904338732829229
 10
19.05649504112872
 20
0.3939972761479413
 10
19.06112439875736
 20
0.3973782585089507
 10
19.06588525662719
 20
0.400571411515413
 10
19.0707699983812
 20
0.4035716268036785
 10
19.07577080947462
 20
0.4063741046693002
 10
19.08087968967647
 20
0.4089743617455336
 10
19.08608846586827
 20
0.4113682381757327
 10
19.09138880511925
 20
0.4135519042682886
 10
19.09677222801731
 20
0.4155218666232717
 10
19.1022301222342
 20
0.4172749737211488
 10
19.10775375630345
 20
0.4188084209645444
 10
19.11333429358888
 20
0.4201197551649791
 10
19.11896280642128
 20
0.4212068784674779
 10
19.12463029038081
 20
0.4220680517066587
 10
19.13032767870212
 20
0.4227018971890448
 10
19.13604585677928
 20
0.4231074008970834
 10
19.14177567674718
 20
0.4232839141113363
 10
19.14332300872654
 20
0.4232922669433252
 10
21.35667699127218
 20
0.4232922669432959
 10
21.36240838296481
 20
0.4231776238232879
 10
21.36813060565337
 20
0.4228338778677906
 10
21.37383450500222
 20
0.4222615789970172
 10
21.37951095598918
 20
0.4214616427670677
 10
21.38515087750358
 20
0.4204353489052721
 10
21.39074524687411
 20
0.4191843392628689
 10
21.39628511430319
 20
0.4177106151884276
 10
21.4017616171847
 20
0.4160165343260845
 10
21.40716599428229
 20
0.4141048068438362
 10
21.41248959974548
 20
0.4119784910978401
 10
21.41772391694116
 20
0.4096409887397046
 10
21.42286057207842
 20
0.4070960392745543
 10
21.42789134760481
 20
0.4043477140786463
 10
21.43280819535265
 20
0.4014004098860136
 10
21.43760324941442
 20
0.3982588417546375
 10
21.4422688387265
 20
0.3949280355233646
 10
21.44679749934128
 20
0.3914133197716312
 10
21.45118198636783
 20
0.3877203172948744
 10
21.45541528556222
 20
0.3838549361092561
 10
21.4594906245488
 20
0.3798233600001077
 10
21.46340148365453
 20
0.3756320386291783
 10
21.46714160633913
 20
0.3712876772165561
 10
21.47070500920415
 20
0.3667972258137542
 10
21.47408599156516
 20
0.3621678681851133
 10
21.47727914457162
 20
0.3574070103152855
 10
21.48027935985989
 20
0.3525222685612774
 10
21.48308183772551
 20
0.3475214574678602
 10
21.48568209480174
 20
0.3424125772660103
 10
21.48807597123195
 20
0.3372038010742082
 10
21.4902596373245
 20
0.3319034618232208
 10
21.49222959967948
 20
0.3265200389251672
 10
21.49398270677736
 20
0.321062144708282
 10
21.49551615402075
 20
0.3155385106390243
 10
21.49682748822119
 20
0.3099579733535929
 10
21.49791461152369
 20
0.304329460521189
 10
21.49877578476287
 20
0.2986619765616678
 10
21.49940963024526
 20
0.2929645882403571
 10
21.49981513395329
 20
0.2872464101631988
 10
21.49999164716755
 20
0.2815165901952985
 10
21.49999999999954
 20
0.2799692582159341
 10
21.49999999999945
 20
-0.5420000000000035
1001
REVIT
1002
{
1070
     2
1000
-2001160
1002
}
  0
LWPOLYLINE
  5
DEE
330
DC1
100
AcDbEntity
  8
0
100
AcDbPolyline
 90
        3
 70
     0
 43
0.0
 10
21.17784237677858
 20
8.050741966080082
 10
21.30499999999943
 20
8.613412190748249
 10
21.30499999999943
 20
9.157635928001194
1001
REVIT
1002
{
1070
     2
1000
-2001160
1002
}
  0
LWPOLYLINE
  5
DEF
330
DC1
100
AcDbEntity
  8
0
100
AcDbPolyline
 90
        3
 70
     0
 43
0.0
 10
19.19499999999953
 20
9.157635928001225
 10
19.19499999999952
 20
8.613412190748281
 10
19.32215762322035
 20
8.050741966080106
1001
REVIT
1002
{
1070
     2
1000
-2001160
1002
}
  0
LWPOLYLINE
  5
DF0
330
DC1
100
AcDbEntity
  8
0
100
AcDbPolyline
 90
       11
 70
     0
 43
0.0
 10
18.40808696919951
 20
11.60440922048278
 10
18.4080869691995
 20
12.35440922048279
 10
18.63017293136121
 20
15.11146499818007
 10
18.63168314503913
 20
15.1264596526715
 10
18.63379177695667
 20
15.14138192059923
 10
18.63649545375256
 20
15.15620792951781
 10
18.63978985012069
 20
15.17091396097569
 10
18.64366969572964
 20
15.18547648845966
 10
18.64812878365409
 20
15.19987221503224
 10
18.65315998030457
 20
15.21407811060185
 10
18.65573580203944
 20
15.2207224226722
1001
REVIT
1002
{
1070
     2
1000
-2001160
1002
}
  0
LWPOLYLINE
  5
DF1
330
DC1
100
AcDbEntity
  8
0
100
AcDbPolyline
 90
        3
 70
     0
 43
0.0
 10
22.09191303079943
 20
11.60440922048284
 10
22.09191303079942
 20
12.35440922048284
 10
21.91684758577205
 20
14.52773522447524
1001
REVIT
1002
{
1070
     2
1000
-2001160
1002
}
  0
LWPOLYLINE
  5
DF2
330
DC1
100
AcDbEntity
  8
0
100
AcDbPolyline
 90
       10
 70
     0
 43
0.0
 10
19.38999999999953
 20
9.467200462067085
 10
19.38999999999955
 20
9.950532801664003
 10
19.31635727972722
 20
10.1938633104579
 10
19.23304284074235
 20
10.43405425744726
 10
19.1401899683745
 20
10.67072138835489
 10
19.03794720741191
 20
10.90348608625762
 10
18.92647812446149
 20
11.13197597729266
 10
18.80596104627717
 20
11.35582552637624
 10
18.67658877447509
 20
11.57467662198185
 10
18.65808696919954
 20
11.60440922048276
1001
REVIT
1002
{
1070
     2
1000
-2001160
1002
}
  0
LWPOLYLINE
  5
DF3
330
DC1
100
AcDbEntity
  8
0
100
AcDbPolyline
 90
       10
 70
     0
 43
0.0
 10
21.8419130307994
 20
11.6044092204828
 10
21.71133697270884
 20
11.38627421684391
 10
21.5895884350957
 20
11.16309204831769
 10
21.47686218964853
 20
10.9352197587641
 10
21.37333857431305
 20
10.70302189523629
 10
21.27918320478995
 20
10.46686992478299
 10
21.19454670958505
 20
10.22714164018053
 10
21.11956448903586
 20
9.984220555544967
 10
21.10999999999944
 20
9.950532801664023
 10
21.10999999999946
 20
9.46720046206706
1001
REVIT
1002
{
1070
     2
1000
-2001160
1002
}
  0
ENDBLK
  5
DC3
330
DC1
100
AcDbEntity
  8
0
100
AcDbBlockEnd
  0
BLOCK
  5
DF6
330
DF5
100
AcDbEntity
  8
0
100
AcDbBlockBegin
  2
Flush_Valve-Urinal_Exposed-American_Standard-Ultima_Selectronic_6245-XXX-Front_View
 70
     0
 10
0.0
 20
0.0
 30
0.0
  3
Flush_Valve-Urinal_Exposed-American_Standard-Ultima_Selectronic_6245-XXX-Front_View
  1

  0
LINE
  5
DF8
330
DF5
100
AcDbEntity
  8
0
100
AcDbLine
 10
0.8600000000003429
 20
9.15268250802973
 30
0.0
 11
0.8600000000003433
 21
9.155412190749423
 31
0.0
1001
REVIT
1002
{
1070
     2
1000
-2001160
1002
}
  0
LINE
  5
DF9
330
DF5
100
AcDbEntity
  8
0
100
AcDbLine
 10
0.8600000000003419
 20
10.00920046206824
 30
0.0
 11
0.8600000000003412
 21
10.49253280166523
 31
0.0
1001
REVIT
1002
{
1070
     2
1000
-2001160
1002
}
  0
LINE
  5
DFA
330
DF5
100
AcDbEntity
  8
0
100
AcDbLine
 10
-0.8599999999995876
 20
10.49253280166523
 30
0.0
 11
-0.8599999999995869
 21
10.00920046206825
 31
0.0
1001
REVIT
1002
{
1070
     2
1000
-2001160
1002
}
  0
LINE
  5
DFB
330
DF5
100
AcDbEntity
  8
0
100
AcDbLine
 10
-0.8599999999995855
 20
9.155412190749439
 30
0.0
 11
-0.8599999999995855
 21
9.152682508029727
 31
0.0
1001
REVIT
1002
{
1070
     2
1000
-2001160
1002
}
  0
SPLINE
  5
DFC
330
DF5
100
AcDbEntity
  8
0
100
AcDbSpline
210
0.0
220
0.0
230
1.0
 70
    12
 71
     3
 72
    16
 73
    12
 74
     0
 42
0.000000001
 43
0.0000000001
 40
0.0
 40
0.0
 40
0.0
 40
0.0
 40
1.0
 40
1.0
 40
1.0
 40
1.5
 40
2.0
 40
2.0
 40
2.0
 40
2.5
 40
3.0
 40
3.0
 40
3.0
 40
3.0
 10
3.761704082730954
 20
12.31062508536566
 30
0.0
 41
1.0
 10
3.761704082726991
 20
12.07521209813266
 30
0.0
 41
1.0
 10
3.761704082723027
 20
11.83979911089965
 30
0.0
 41
1.0
 10
3.761704082719064
 20
11.60438612366664
 30
0.0
 41
1.0
 10
3.759636378467453
 20
11.5870496685598
 30
0.0
 41
1.0
 10
3.756489820468946
 20
11.55231552617559
 30
0.0
 41
1.0
 10
3.755320963479864
 20
11.5174589194503
 30
0.0
 41
1.0
 10
3.75523096023768
 20
11.50000000000239
 30
0.0
 41
1.0
 10
3.755320963479864
 20
11.48254108055448
 30
0.0
 41
1.0
 10
3.756489820468948
 20
11.4476844738292
 30
0.0
 41
1.0
 10
3.759636378467452
 20
11.41295033144499
 30
0.0
 41
1.0
 10
3.761704082719063
 20
11.39561387633815
 30
0.0
 41
1.0
1001
REVIT
1002
{
1070
     2
1000
-2001160
1002
}
  0
SPLINE
  5
DFD
330
DF5
100
AcDbEntity
  8
0
100
AcDbSpline
210
0.0
220
0.0
230
1.0
 70
    12
 71
     3
 72
    23
 73
    19
 74
     0
 42
0.000000001
 43
0.0000000001
 40
0.0
 40
0.0
 40
0.0
 40
0.0
 40
1.0
 40
1.0
 40
1.0
 40
1.5
 40
2.0
 40
2.0
 40
2.0
 40
3.0
 40
3.0
 40
3.0
 40
3.1
 40
3.2
 40
3.299999999999998
 40
3.399999999999999
 40
3.5
 40
3.500543698820776
 40
3.500543698820776
 40
3.500543698820776
 40
3.500543698820776
 10
3.761704082730953
 20
10.68937491463913
 30
0.0
 41
1.0
 10
3.76170408272699
 20
10.92478790187213
 30
0.0
 41
1.0
 10
3.761704082723027
 20
11.16020088910514
 30
0.0
 41
1.0
 10
3.761704082719063
 20
11.39561387633815
 30
0.0
 41
1.0
 10
3.781005157111691
 20
11.29067254221898
 30
0.0
 41
1.0
 10
3.841131122131444
 20
11.08900828023958
 30
0.0
 41
1.0
 10
3.944304719620195
 20
10.90378083077804
 30
0.0
 41
1.0
 10
4.006653426481818
 20
10.81527630917674
 30
0.0
 41
1.0
 10
4.006653426481818
 20
10.8100563275769
 30
0.0
 41
1.0
 10
4.006653426481818
 20
10.80483634597705
 30
0.0
 41
1.0
 10
4.006653426481818
 20
10.7996163643772
 30
0.0
 41
1.0
 10
3.981366609471717
 20
10.78170489710073
 30
0.0
 41
1.0
 10
3.934841808151544
 20
10.7486650021307
 30
0.0
 41
1.0
 10
3.878647429699562
 20
10.70849621731602
 30
0.0
 41
1.0
 10
3.831706898494712
 20
10.67845068611485
 30
0.0
 41
1.0
 10
3.800481428034919
 20
10.65992655687965
 30
0.0
 41
1.0
 10
3.794684920433461
 20
10.65562675791396
 30
0.0
 41
1.0
 10
3.794669750742408
 20
10.65561702256484
 30
0.0
 41
1.0
 10
3.79466975338353
 20
10.65561703265301
 30
0.0
 41
1.0
1001
REVIT
1002
{
1070
     2
1000
-2001160
1002
}
  0
SPLINE
  5
DFE
330
DF5
100
AcDbEntity
  8
0
100
AcDbSpline
210
0.0
220
0.0
230
1.0
 70
     8
 71
     3
 72
    13
 73
     9
 74
     0
 42
0.000000001
 43
0.0000000001
 40
0.0
 40
0.0
 40
0.0
 40
0.0
 40
0.4031741841020375
 40
0.9031741841020371
 40
0.9031741841020371
 40
0.9031741841020371
 40
1.403174184102037
 40
1.80634836820455
 40
1.80634836820455
 40
1.80634836820455
 40
1.80634836820455
 10
3.153289049718127
 20
11.41140393477786
 30
0.0
 10
3.154990480290118
 20
11.42452670132713
 30
0.0
 10
3.157983600112851
 20
11.45398401921856
 30
0.0
 10
3.159143475268253
 20
11.48357627828768
 30
0.0
 10
3.15922373956512
 20
11.50000000000239
 30
0.0
 10
3.159143475268254
 20
11.51642372171709
 30
0.0
 10
3.157983600112851
 20
11.54601598078622
 30
0.0
 10
3.154990480290115
 20
11.57547329867764
 30
0.0
 10
3.153289049718122
 20
11.58859606522693
 30
0.0
1001
REVIT
1002
{
1070
     2
1000
-2001160
1002
}
  0
SPLINE
  5
E00
330
DF5
100
AcDbEntity
  8
0
100
AcDbSpline
210
0.0
220
0.0
230
1.0
 70
     8
 71
     3
 72
     8
 73
     4
 74
     0
 42
0.000000001
 43
0.0000000001
 40
0.5005469567558686
 40
0.5005469567558686
 40
0.5005469567558686
 40
0.5005469567558686
 40
0.6
 40
0.6
 40
0.6
 40
0.6
 10
3.794669753440131
 20
10.65561703284112
 30
0.0
 10
3.794670422169769
 20
10.65561901568537
 30
0.0
 10
3.797594564081714
 20
10.65778682838816
 30
0.0
 10
3.804001281880086
 20
10.66179642782762
 30
0.0
1001
REVIT
1002
{
1070
     2
1000
-2001160
1002
}
  0
SPLINE
  5
E01
330
DF5
100
AcDbEntity
  8
0
100
AcDbSpline
210
0.0
220
0.0
230
1.0
 70
     8
 71
     3
 72
     9
 73
     5
 74
     0
 42
0.000000001
 43
0.0000000001
 40
0.5827745537747362
 40
0.5827745537747362
 40
0.5827745537747362
 40
0.5827745537747362
 40
0.5833333333333333
 40
0.6068631132508516
 40
0.6068631132508516
 40
0.6068631132508516
 40
0.6068631132508516
 10
3.814477647902963
 20
11.20192708185069
 30
0.0
 10
3.814433871546096
 20
11.20205427354082
 30
0.0
 10
3.812548007089663
 20
11.20753778086351
 30
0.0
 10
3.810710013833853
 20
11.21303484297966
 30
0.0
 10
3.808965448151069
 20
11.21841876197612
 30
0.0
1001
REVIT
1002
{
1070
     2
1000
-2001160
1002
}
  0
SPLINE
  5
E02
330
DF5
100
AcDbEntity
  8
0
100
AcDbSpline
210
0.0
220
0.0
230
1.0
 70
     8
 71
     3
 72
     9
 73
     5
 74
     0
 42
0.000000001
 43
0.0000000001
 40
0.3931279200981086
 40
0.3931279200981086
 40
0.3931279200981086
 40
0.3931279200981086
 40
0.4166666666666666
 40
0.4172281806118104
 40
0.4172281806118104
 40
0.4172281806118104
 40
0.4172281806118104
 10
3.808976914694886
 20
11.78157857449337
 30
0.0
 10
3.810715900293361
 20
11.78696619242883
 30
0.0
 10
3.812549360004873
 20
11.79246728896277
 30
0.0
 10
3.814435985467545
 20
11.79795326428261
 30
0.0
 10
3.814479970915343
 20
11.79808107427209
 30
0.0
1001
REVIT
1002
{
1070
     2
1000
-2001160
1002
}
  0
SPLINE
  5
E03
330
DF5
100
AcDbEntity
  8
0
100
AcDbSpline
210
0.0
220
0.0
230
1.0
 70
     8
 71
     3
 72
     9
 73
     5
 74
     0
 42
0.000000001
 43
0.0000000001
 40
0.4025127908145962
 40
0.4025127908145962
 40
0.4025127908145962
 40
0.4025127908145962
 40
0.5
 40
0.5005436988296622
 40
0.5005436988296622
 40
0.5005436988296622
 40
0.5005436988296622
 10
3.803746321431988
 20
12.33836785480707
 30
0.0
 10
3.79744757822173
 20
12.34232392560246
 30
0.0
 10
3.794652837315301
 20
12.34439602399473
 30
0.0
 10
3.794670104374582
 20
12.3443827260361
 30
0.0
 10
3.794670286727408
 20
12.34438258818957
 30
0.0
1001
REVIT
1002
{
1070
     2
1000
-2001160
1002
}
  0
SPLINE
  5
E04
330
DF5
100
AcDbEntity
  8
0
100
AcDbSpline
210
0.0
220
0.0
230
1.0
 70
    12
 71
     3
 72
    19
 73
    15
 74
     0
 42
0.000000001
 43
0.0000000001
 40
0.0
 40
0.0
 40
0.0
 40
0.0
 40
0.0994530432537997
 40
0.1994530432537996
 40
0.2994530432537997
 40
0.3994530432537997
 40
0.4994530432537997
 40
0.4994530432537997
 40
0.4994530432537997
 40
1.499453043253799
 40
1.499453043253799
 40
1.499453043253799
 40
1.999453043253799
 40
2.499453043253798
 40
2.499453043253798
 40
2.499453043253798
 40
2.499453043253798
 10
3.794669753437696
 20
12.34438296716121
 30
0.0
 41
1.0
 10
3.794670422165384
 20
12.34438098431697
 30
0.0
 41
1.0
 10
3.800353600216392
 20
12.34016744788369
 30
0.0
 41
1.0
 10
3.83100700732184
 20
12.32191261464964
 30
0.0
 41
1.0
 10
3.877616508409489
 20
12.29217931630426
 30
0.0
 41
1.0
 10
3.934123466771171
 20
12.25193758653297
 30
0.0
 41
1.0
 10
3.981078657912652
 20
12.21856643351599
 30
0.0
 41
1.0
 10
4.006653426482007
 20
12.20038363562393
 30
0.0
 41
1.0
 10
4.006653426481944
 20
12.1951636540253
 30
0.0
 41
1.0
 10
4.00665342648188
 20
12.18994367242667
 30
0.0
 41
1.0
 10
4.006653426481818
 20
12.18472369082805
 30
0.0
 41
1.0
 10
3.944304719620195
 20
12.09621916922675
 30
0.0
 41
1.0
 10
3.841131122131443
 20
11.91099171976521
 30
0.0
 41
1.0
 10
3.781005157111689
 20
11.7093274577858
 30
0.0
 41
1.0
 10
3.761704082719063
 20
11.60438612366664
 30
0.0
 41
1.0
1001
REVIT
1002
{
1070
     2
1000
-2001160
1002
}
  0
LINE
  5
E05
330
DF5
100
AcDbEntity
  8
0
100
AcDbLine
 10
3.79466969837864
 20
10.65561700120118
 30
0.0
 11
5.467259611309746
 21
10.65561700120118
 31
0.0
1001
REVIT
1002
{
1070
     2
1000
-2001160
1002
}
  0
LINE
  5
E06
330
DF5
100
AcDbEntity
  8
0
100
AcDbLine
 10
5.467191595355465
 20
12.34438299880118
 30
0.0
 11
3.794669698376206
 21
12.34438299880118
 31
0.0
1001
REVIT
1002
{
1070
     2
1000
-2001160
1002
}
  0
SPLINE
  5
E07
330
DF5
100
AcDbEntity
  8
0
100
AcDbSpline
210
0.0
220
0.0
230
1.0
 70
    12
 71
     3
 72
    22
 73
    18
 74
     0
 42
0.000000001
 43
0.0000000001
 40
0.0
 40
0.0
 40
0.0
 40
0.0
 40
1.0
 40
1.0
 40
1.0
 40
2.0
 40
2.0
 40
2.0
 40
3.0
 40
3.0
 40
3.0
 40
4.0
 40
4.0
 40
4.0
 40
4.333333333333333
 40
4.666666666666666
 40
5.0
 40
5.0
 40
5.0
 40
5.0
 10
3.019560713300833
 20
10.9678465043618
 30
0.0
 41
1.0
 10
3.019560713300833
 20
10.99481851450807
 30
0.0
 41
1.0
 10
3.019560713300833
 20
11.02179052465434
 30
0.0
 41
1.0
 10
3.019560713300833
 20
11.04876253480061
 30
0.0
 41
1.0
 10
2.921615071734163
 20
11.04876253480061
 30
0.0
 41
1.0
 10
2.823669430167491
 20
11.04876253480061
 30
0.0
 41
1.0
 10
2.72572378860082
 20
11.04876253480061
 30
0.0
 41
1.0
 10
2.72572378860082
 20
11.02179052465435
 30
0.0
 41
1.0
 10
2.72572378860082
 20
10.99481851450808
 30
0.0
 41
1.0
 10
2.72572378860082
 20
10.96784650436181
 30
0.0
 41
1.0
 10
2.823669430167493
 20
10.96784650436181
 30
0.0
 41
1.0
 10
2.921615071734163
 20
10.96784650436181
 30
0.0
 41
1.0
 10
3.019560713300833
 20
10.96784650436181
 30
0.0
 41
1.0
 10
3.067869892627521
 20
10.91872104312246
 30
0.0
 41
1.0
 10
3.132266786162271
 20
10.81971490226439
 30
0.0
 41
1.0
 10
3.130954740140736
 20
10.66241723182417
 30
0.0
 41
1.0
 10
3.067294433846147
 20
10.5647387534585
 30
0.0
 41
1.0
 10
3.019560713300835
 20
10.51660903908846
 30
0.0
 41
1.0
1001
REVIT
1002
{
1070
     2
1000
-2001160
1002
}
  0
SPLINE
  5
E08
330
DF5
100
AcDbEntity
  8
0
100
AcDbSpline
210
0.0
220
0.0
230
1.0
 70
     8
 71
     3
 72
    10
 73
     6
 74
     0
 42
0.000000001
 43
0.0000000001
 40
-1.0
 40
-1.0
 40
-1.0
 40
-1.0
 40
-0.6666666666666666
 40
-0.3333333333333333
 40
0.0
 40
0.0
 40
0.0
 40
0.0
 10
3.019560713300835
 20
12.48339096092764
 30
0.0
 10
3.067869892653007
 20
12.43426549968667
 30
0.0
 10
3.132266786221722
 20
12.33525935882438
 30
0.0
 10
3.130954740199276
 20
12.17796168836898
 30
0.0
 10
3.067294433871231
 20
12.08028320999932
 30
0.0
 10
3.019560713300833
 20
12.03215349562783
 30
0.0
1001
REVIT
1002
{
1070
     2
1000
-2001160
1002
}
  0
SPLINE
  5
E09
330
DF5
100
AcDbEntity
  8
0
100
AcDbSpline
210
0.0
220
0.0
230
1.0
 70
    12
 71
     3
 72
    25
 73
    21
 74
     0
 42
0.000000001
 43
0.0000000001
 40
0.0
 40
0.0
 40
0.0
 40
0.0
 40
1.0
 40
1.0
 40
1.0
 40
2.0
 40
2.0
 40
2.0
 40
3.0
 40
3.0
 40
3.0
 40
4.0
 40
4.0
 40
4.0
 40
4.5
 40
5.0
 40
5.0
 40
5.0
 40
5.5
 40
6.0
 40
6.0
 40
6.0
 40
6.0
 10
3.019560713300833
 20
11.95123746520419
 30
0.0
 41
1.0
 10
3.019560713300833
 20
11.9782094753454
 30
0.0
 41
1.0
 10
3.019560713300833
 20
12.00518148548662
 30
0.0
 41
1.0
 10
3.019560713300833
 20
12.03215349562783
 30
0.0
 41
1.0
 10
2.921615071734163
 20
12.03215349562783
 30
0.0
 41
1.0
 10
2.823669430167491
 20
12.03215349562783
 30
0.0
 41
1.0
 10
2.72572378860082
 20
12.03215349562783
 30
0.0
 41
1.0
 10
2.72572378860082
 20
12.00518148548662
 30
0.0
 41
1.0
 10
2.72572378860082
 20
11.97820947534541
 30
0.0
 41
1.0
 10
2.72572378860082
 20
11.9512374652042
 30
0.0
 41
1.0
 10
2.823669430167491
 20
11.95123746520418
 30
0.0
 41
1.0
 10
2.921615071734161
 20
11.95123746520418
 30
0.0
 41
1.0
 10
3.019560713300831
 20
11.95123746520418
 30
0.0
 41
1.0
 10
3.054208460963197
 20
11.88007496678262
 30
0.0
 41
1.0
 10
3.10710620862573
 20
11.73370622416076
 30
0.0
 41
1.0
 10
3.127208460963861
 20
11.57924998998143
 30
0.0
 41
1.0
 10
3.129060713301826
 20
11.50000000000239
 30
0.0
 41
1.0
 10
3.127208460963859
 20
11.42075001002337
 30
0.0
 41
1.0
 10
3.107106208625728
 20
11.26629377584404
 30
0.0
 41
1.0
 10
3.054208460963196
 20
11.11992503322217
 30
0.0
 41
1.0
 10
3.019560713300831
 20
11.0487625348006
 30
0.0
 41
1.0
1001
REVIT
1002
{
1070
     2
1000
-2001160
1002
}
  0
SPLINE
  5
E0A
330
DF5
100
AcDbEntity
  8
0
100
AcDbSpline
210
0.0
220
0.0
230
1.0
 70
     8
 71
     3
 72
    10
 73
     6
 74
     0
 42
0.000000001
 43
0.0000000001
 40
-1.0
 40
-1.0
 40
-1.0
 40
-1.0
 40
-0.6666666666666666
 40
-0.3333333333333333
 40
0.0
 40
0.0
 40
0.0
 40
0.0
 10
2.725723788600823
 20
10.51660903908846
 30
0.0
 10
2.677990068055509
 20
10.5647387534585
 30
0.0
 10
2.614329761760919
 20
10.66241723182417
 30
0.0
 10
2.613017715739383
 20
10.81971490226439
 30
0.0
 10
2.677414609274131
 20
10.91872104312246
 30
0.0
 10
2.72572378860082
 20
10.9678465043618
 30
0.0
1001
REVIT
1002
{
1070
     2
1000
-2001160
1002
}
  0
SPLINE
  5
E0B
330
DF5
100
AcDbEntity
  8
0
100
AcDbSpline
210
0.0
220
0.0
230
1.0
 70
     8
 71
     3
 72
    13
 73
     9
 74
     0
 42
0.000000001
 43
0.0000000001
 40
0.0
 40
0.0
 40
0.0
 40
0.0
 40
0.5
 40
1.0
 40
1.0
 40
1.0
 40
1.5
 40
2.0
 40
2.0
 40
2.0
 40
2.0
 10
2.72572378860082
 20
11.04876253480061
 30
0.0
 10
2.690531602890434
 20
11.12206594281166
 30
0.0
 10
2.63708941717988
 20
11.27057559502302
 30
0.0
 10
2.617531602889772
 20
11.42289091961286
 30
0.0
 10
2.61622378859983
 20
11.50000000000239
 30
0.0
 10
2.618076040937796
 20
11.57924998998142
 30
0.0
 10
2.638178293275926
 20
11.73370622416075
 30
0.0
 10
2.691076040938455
 20
11.88007496678262
 30
0.0
 10
2.72572378860082
 20
11.95123746520419
 30
0.0
1001
REVIT
1002
{
1070
     2
1000
-2001160
1002
}
  0
SPLINE
  5
E0C
330
DF5
100
AcDbEntity
  8
0
100
AcDbSpline
210
0.0
220
0.0
230
1.0
 70
     8
 71
     3
 72
    10
 73
     6
 74
     0
 42
0.000000001
 43
0.0000000001
 40
-1.0
 40
-1.0
 40
-1.0
 40
-1.0
 40
-0.6666666666666666
 40
-0.3333333333333333
 40
0.0
 40
0.0
 40
0.0
 40
0.0
 10
2.725723788600819
 20
12.03215349562783
 30
0.0
 10
2.677990068030426
 20
12.08028320999933
 30
0.0
 10
2.614329761702386
 20
12.17796168836898
 30
0.0
 10
2.613017715679937
 20
12.33525935882439
 30
0.0
 10
2.677414609248653
 20
12.43426549968667
 30
0.0
 10
2.725723788600824
 20
12.48339096092764
 30
0.0
1001
REVIT
1002
{
1070
     2
1000
-2001160
1002
}
  0
SPLINE
  5
E0D
330
DF5
100
AcDbEntity
  8
0
100
AcDbSpline
210
0.0
220
0.0
230
1.0
 70
    12
 71
     3
 72
    15
 73
    11
 74
     0
 42
0.000000001
 43
0.0000000001
 40
0.0
 40
0.0
 40
0.0
 40
0.0
 40
1.0
 40
1.0
 40
1.0
 40
2.0
 40
2.0
 40
2.0
 40
2.5
 40
3.0
 40
3.0
 40
3.0
 40
3.0
 10
0.9242126707540062
 20
10.7032651332992
 30
0.0
 41
1.0
 10
1.239571695614319
 20
10.70326513329919
 30
0.0
 41
1.0
 10
1.554930720474631
 20
10.70326513329919
 30
0.0
 41
1.0
 10
1.870289745334945
 20
10.70326513329918
 30
0.0
 41
1.0
 10
1.87028974533462
 20
10.96993196386655
 30
0.0
 41
1.0
 10
1.870289745334623
 20
11.23659879443392
 30
0.0
 41
1.0
 10
1.870289745334627
 20
11.50326562500128
 30
0.0
 41
1.0
 10
1.869705130394438
 20
11.55007748716502
 30
0.0
 41
1.0
 10
1.859281786895
 20
11.64186897407113
 30
0.0
 41
1.0
 10
1.830350216157875
 20
11.72999598613455
 30
0.0
 41
1.0
 10
1.811257373979892
 20
11.77314337345559
 30
0.0
 41
1.0
1001
REVIT
1002
{
1070
     2
1000
-2001160
1002
}
  0
SPLINE
  5
E0E
330
DF5
100
AcDbEntity
  8
0
100
AcDbSpline
210
0.0
220
0.0
230
1.0
 70
    12
 71
     3
 72
    15
 73
    11
 74
     0
 42
0.000000001
 43
0.0000000001
 40
0.0
 40
0.0
 40
0.0
 40
0.0
 40
1.0
 40
1.0
 40
1.0
 40
1.166666666666666
 40
1.333333333333333
 40
1.5
 40
1.666666666666666
 40
1.743341618827176
 40
1.743341618827176
 40
1.743341618827176
 40
1.743341618827176
 10
1.376711245457054
 20
11.77314337345559
 30
0.0
 41
1.0
 10
1.521559954964667
 20
11.77314337345559
 30
0.0
 41
1.0
 10
1.666408664472278
 20
11.77314337345559
 30
0.0
 41
1.0
 10
1.811257373979891
 20
11.77314337345559
 30
0.0
 41
1.0
 10
1.821554378172884
 20
11.80160190377128
 30
0.0
 41
1.0
 10
1.837025944603241
 20
11.85834516139052
 30
0.0
 41
1.0
 10
1.845522838099771
 20
11.9425149026316
 30
0.0
 41
1.0
 10
1.837338666293663
 20
12.02701070713891
 30
0.0
 41
1.0
 10
1.819439988571039
 20
12.0949589924659
 30
0.0
 41
1.0
 10
1.804815802431923
 20
12.13416039501597
 30
0.0
 41
1.0
 10
1.799797261371747
 20
12.14640922048398
 30
0.0
 41
1.0
1001
REVIT
1002
{
1070
     2
1000
-2001160
1002
}
  0
LINE
  5
E0F
330
DF5
100
AcDbEntity
  8
0
100
AcDbLine
 10
5.498354636849156
 20
12.19522758563501
 30
0.0
 11
5.497065392377144
 21
12.19522758563501
 31
0.0
1001
REVIT
1002
{
1070
     2
1000
-2001160
1002
}
  0
LINE
  5
E10
330
DF5
100
AcDbEntity
  8
0
100
AcDbLine
 10
5.311110042336629
 20
12.19522758563501
 30
0.0
 11
4.006653426481818
 21
12.19522758563502
 31
0.0
1001
REVIT
1002
{
1070
     2
1000
-2001160
1002
}
  0
LINE
  5
E11
330
DF5
100
AcDbEntity
  8
0
100
AcDbLine
 10
4.006653426481818
 20
10.80477241436731
 30
0.0
 11
5.311226897309441
 21
10.8047724143673
 31
0.0
1001
REVIT
1002
{
1070
     2
1000
-2001160
1002
}
  0
LINE
  5
E12
330
DF5
100
AcDbEntity
  8
0
100
AcDbLine
 10
5.496904813684579
 20
10.8047724143673
 30
0.0
 11
5.498354636849161
 21
10.8047724143673
 31
0.0
1001
REVIT
1002
{
1070
     2
1000
-2001160
1002
}
  0
LINE
  5
E13
330
DF5
100
AcDbEntity
  8
0
100
AcDbLine
 10
3.019560713300839
 20
10.51550000000241
 30
0.0
 11
3.152000000000537
 21
10.64793928670211
 31
0.0
1001
REVIT
1002
{
1070
     2
1000
-2001160
1002
}
  0
LINE
  5
E14
330
DF5
100
AcDbEntity
  8
0
100
AcDbLine
 10
3.152000000000537
 20
12.35206071330271
 30
0.0
 11
3.019560713300839
 21
12.48450000000241
 31
0.0
1001
REVIT
1002
{
1070
     2
1000
-2001160
1002
}
  0
LINE
  5
E15
330
DF5
100
AcDbEntity
  8
0
100
AcDbLine
 10
2.000000000000323
 20
10.84250000000241
 30
0.0
 11
2.590000000000836
 21
10.84250000000241
 31
0.0
1001
REVIT
1002
{
1070
     2
1000
-2001160
1002
}
  0
LINE
  5
E16
330
DF5
100
AcDbEntity
  8
0
100
AcDbLine
 10
2.590000000000836
 20
12.15750000000242
 30
0.0
 11
2.000000000000323
 21
12.15750000000242
 31
0.0
1001
REVIT
1002
{
1070
     2
1000
-2001160
1002
}
  0
LINE
  5
E17
330
DF5
100
AcDbEntity
  8
0
100
AcDbLine
 10
3.152000000000533
 20
12.34739303556265
 30
0.0
 11
3.152000000000533
 21
10.65260696444214
 31
0.0
1001
REVIT
1002
{
1070
     2
1000
-2001160
1002
}
  0
LINE
  5
E18
330
DF5
100
AcDbEntity
  8
0
100
AcDbLine
 10
2.590000000000832
 20
12.34412652650743
 30
0.0
 11
2.590000000000832
 21
10.65587347349736
 31
0.0
1001
REVIT
1002
{
1070
     2
1000
-2001160
1002
}
  0
LINE
  5
E19
330
DF5
100
AcDbEntity
  8
0
100
AcDbLine
 10
0.3750000000003347
 20
1.160070135581749
 30
0.0
 11
0.3750000000003826
 21
5.794062500001197
 31
0.0
1001
REVIT
1002
{
1070
     2
1000
-2001160
1002
}
  0
LINE
  5
E1A
330
DF5
100
AcDbEntity
  8
0
100
AcDbLine
 10
-0.3749999999997924
 20
5.794062500001204
 30
0.0
 11
-0.3749999999998397
 21
1.160070135581754
 31
0.0
1001
REVIT
1002
{
1070
     2
1000
-2001160
1002
}
  0
LINE
  5
E1B
330
DF5
100
AcDbEntity
  8
0
100
AcDbLine
 10
0.7500000000003853
 20
5.997836328652378
 30
0.0
 11
0.7500000000004121
 21
8.592741966081263
 31
0.0
1001
REVIT
1002
{
1070
     2
1000
-2001160
1002
}
  0
LINE
  5
E1C
330
DF5
100
AcDbEntity
  8
0
100
AcDbLine
 10
-0.7499999999997646
 20
8.592741966081277
 30
0.0
 11
-0.7499999999997911
 21
5.997836328652394
 31
0.0
1001
REVIT
1002
{
1070
     2
1000
-2001160
1002
}
  0
LINE
  5
E1D
330
DF5
100
AcDbEntity
  8
0
100
AcDbLine
 10
0.6606325418723383
 20
1.160070135581739
 30
0.0
 11
0.6606325418723365
 21
0.9652922669444714
 31
0.0
1001
REVIT
1002
{
1070
     2
1000
-2001160
1002
}
  0
LINE
  5
E1E
330
DF5
100
AcDbEntity
  8
0
100
AcDbLine
 10
0.0893674581282157
 20
0.9652922669444727
 30
0.0
 11
0.0893674581282177
 21
1.160070135581741
 31
0.0
1001
REVIT
1002
{
1070
     2
1000
-2001160
1002
}
  0
LINE
  5
E1F
330
DF5
100
AcDbEntity
  8
0
100
AcDbLine
 10
-0.0893674581280932
 20
1.160070135581742
 30
0.0
 11
-0.0893674581280952
 21
0.9652922669444739
 31
0.0
1001
REVIT
1002
{
1070
     2
1000
-2001160
1002
}
  0
LINE
  5
E20
330
DF5
100
AcDbEntity
  8
0
100
AcDbLine
 10
-0.6606325418716668
 20
0.9652922669444848
 30
0.0
 11
-0.6606325418716648
 21
1.160070135581754
 31
0.0
1001
REVIT
1002
{
1070
     2
1000
-2001160
1002
}
  0
ARC
  5
E21
330
DF5
100
AcDbEntity
  8
0
100
AcDbCircle
 10
6.125000000000325
 20
11.50000000000116
 30
0.0
 40
1.374999999999374
100
AcDbArc
 50
349.9999999999998
 51
9.999986685662976
1001
REVIT
1002
{
1070
     1
1000
12478
1002
}
1002
{
1070
     2
1000
-2001160
1002
}
  0
ARC
  5
E22
330
DF5
100
AcDbEntity
  8
0
100
AcDbCircle
 10
6.125000000000325
 20
11.50000000000116
 30
0.0
 40
1.374999999999374
100
AcDbArc
 50
329.9999999999998
 51
339.9999999999999
1001
REVIT
1002
{
1070
     1
1000
12478
1002
}
1002
{
1070
     2
1000
-2001160
1002
}
  0
ARC
  5
E23
330
DF5
100
AcDbEntity
  8
0
100
AcDbCircle
 10
6.125000000000325
 20
11.50000000000116
 30
0.0
 40
1.374999999999374
100
AcDbArc
 50
279.9999999999999
 51
319.9999999999999
1001
REVIT
1002
{
1070
     1
1000
12478
1002
}
1002
{
1070
     2
1000
-2001160
1002
}
  0
ARC
  5
E24
330
DF5
100
AcDbEntity
  8
0
100
AcDbCircle
 10
6.125000000000325
 20
11.50000000000116
 30
0.0
 40
1.374999999999375
100
AcDbArc
 50
217.8863161049409
 51
249.9999999999999
1001
REVIT
1002
{
1070
     1
1000
12478
1002
}
1002
{
1070
     2
1000
-2001160
1002
}
  0
ARC
  5
E25
330
DF5
100
AcDbEntity
  8
0
100
AcDbCircle
 10
6.125000000000325
 20
11.50000000000116
 30
0.0
 40
1.374999999999372
100
AcDbArc
 50
120.0000000000001
 51
140.0
1001
REVIT
1002
{
1070
     1
1000
12478
1002
}
1002
{
1070
     2
1000
-2001160
1002
}
  0
ARC
  5
E26
330
DF5
100
AcDbEntity
  8
0
100
AcDbCircle
 10
6.125000000000325
 20
11.50000000000116
 30
0.0
 40
1.374999999999374
100
AcDbArc
 50
100.0
 51
110.0000000000001
1001
REVIT
1002
{
1070
     1
1000
12478
1002
}
1002
{
1070
     2
1000
-2001160
1002
}
  0
ARC
  5
E27
330
DF5
100
AcDbEntity
  8
0
100
AcDbCircle
 10
6.125000000000325
 20
11.50000000000116
 30
0.0
 40
1.374999999999375
100
AcDbArc
 50
20.00000000000016
 51
70.00000000000013
1001
REVIT
1002
{
1070
     1
1000
12478
1002
}
1002
{
1070
     2
1000
-2001160
1002
}
  0
ARC
  5
E28
330
DF5
100
AcDbEntity
  8
0
100
AcDbCircle
 10
6.125000000000325
 20
11.50000000000116
 30
0.0
 40
1.327477023121228
100
AcDbArc
 50
219.5002112402416
 51
140.4997887597567
1001
REVIT
1002
{
1070
     1
1000
12478
1002
}
1002
{
1070
     2
1000
-2001160
1002
}
  0
LWPOLYLINE
  5
E29
330
DF5
100
AcDbEntity
  8
0
100
AcDbPolyline
 90
       84
 70
     1
 43
0.0
 10
-0.4576821334580619
 20
15.8786968699681
 10
-0.4577832047994323
 20
15.87364397672689
 10
-0.4577832047994339
 20
15.69141283606216
 10
0.4577832048002522
 20
15.69141283606215
 10
0.457783204800254
 20
15.87364397672688
 10
0.4577758408002668
 20
15.87500813114517
 10
0.4576202237224039
 20
15.88005963872689
 10
0.4572627246967735
 20
15.88510088261802
 10
0.4567039156455532
 20
15.89012379790373
 10
0.4559446905440196
 20
15.89512034899106
 10
0.4549862639903762
 20
15.90008254246416
 10
0.453830169262654
 20
15.90500243987199
 10
0.4524782558657975
 20
15.90987217042825
 10
0.4509326865728497
 20
15.91468394360286
 10
0.4491959339649745
 20
15.91943006158518
 10
0.4472707764758574
 20
15.92410293159892
 10
0.4451602939468027
 20
15.92869507804885
 10
0.4428678626996442
 20
15.93319915448029
 10
0.4403971501353522
 20
15.93760795533174
 10
0.4377521088669719
 20
15.94191442746235
 10
0.4349369703962867
 20
15.94611168143537
 10
0.4319562383443198
 20
15.9501930025398
 10
0.4288146812464986
 20
15.95415186153252
 10
0.4255173249240161
 20
15.95798192508366
 10
0.4220694444435902
 20
15.96167706590856
 10
0.4184765556784808
 20
15.96523137257016
 10
0.4147444064842697
 20
15.96863915893601
 10
0.4108789675035186
 20
15.97189497327489
 10
0.4068864226140139
 20
15.97499360697838
 10
0.402773159035881
 20
15.97793010289358
 10
0.3985457571133953
 20
15.98069976325342
 10
0.3942109797878357
 20
15.98329815719217
 10
0.3897757617782196
 20
15.98572112783383
 10
0.3852471984872327
 20
15.98796479894223
 10
0.3806325346500996
 20
15.99002558112222
 10
0.3759391527445496
 20
15.99190017756194
 10
0.3711745611804302
 20
15.99358558930696
 10
0.3663463822878527
 20
15.99507912005804
 10
0.3614623401230878
 20
15.99637838048456
 10
0.3565302481117267
 20
15.99748129204702
 10
0.3515579965488629
 20
15.99838609032218
 10
0.3465535399763075
 20
15.99909132782583
 10
0.3415248844570156
 20
15.99959587632838
 10
0.3364800747670959
 20
15.99989892865989
 10
0.3314271815258832
 20
16.00000000000125
 10
-0.3314271815250578
 20
16.00000000000125
 10
-0.3327913359433458
 20
15.99999263600128
 10
-0.33784284352507
 20
15.99983701892341
 10
-0.3428840874161955
 20
15.99947951989778
 10
-0.3479070027019046
 20
15.99892071084656
 10
-0.3529035537892393
 20
15.99816148574503
 10
-0.3578657472623323
 20
15.99720305919139
 10
-0.3627856446701721
 20
15.99604696446366
 10
-0.3676553752264284
 20
15.99469505106681
 10
-0.372467148401032
 20
15.99314948177386
 10
-0.3772132663833599
 20
15.99141272916599
 10
-0.3818861363970918
 20
15.98948757167687
 10
-0.3864782828470317
 20
15.98737708914781
 10
-0.3909823592784647
 20
15.98508465790065
 10
-0.3953911601299191
 20
15.98261394533636
 10
-0.3996976322605267
 20
15.97996890406798
 10
-0.4038948862335439
 20
15.9771537655973
 10
-0.4079762073379802
 20
15.97417303354533
 10
-0.4119350663307032
 20
15.97103147644751
 10
-0.4157651298818369
 20
15.96773412012503
 10
-0.4194602707067359
 20
15.9642862396446
 10
-0.4230145773683348
 20
15.96069335087949
 10
-0.4264223637341868
 20
15.95696120168527
 10
-0.4296781780730626
 20
15.95309576270453
 10
-0.4327768117765562
 20
15.94910321781503
 10
-0.4357133076917489
 20
15.94498995423689
 10
-0.4384829680515951
 20
15.94076255231441
 10
-0.4410813619903487
 20
15.93642777498884
 10
-0.4435043326320021
 20
15.93199255697923
 10
-0.4457480037404017
 20
15.92746399368824
 10
-0.4478087859203975
 20
15.92284932985111
 10
-0.4496833823601127
 20
15.91815594794556
 10
-0.4513687941051357
 20
15.91339135638144
 10
-0.4528623248562101
 20
15.90856317748886
 10
-0.4541615852827368
 20
15.9036791353241
 10
-0.4552644968451944
 20
15.89874704331273
 10
-0.4561692951203578
 20
15.89377479174987
 10
-0.4568745326240009
 20
15.88877033517731
 10
-0.4573790811265598
 20
15.88374167965802
  0
LWPOLYLINE
  5
E2A
330
DF5
100
AcDbEntity
  8
0
100
AcDbPolyline
 90
       33
 70
     0
 43
0.0
 10
1.686056076728604
 20
15.41605488814826
 10
1.674524870409496
 20
15.47318985541257
 10
1.654520432139381
 20
15.52395960462863
 10
1.62920714573887
 20
15.5670132504771
 10
1.601119176767596
 20
15.60283089751395
 10
1.57175259925563
 20
15.63269622796565
 10
1.541776100943771
 20
15.65797492115474
 10
1.511367756779676
 20
15.67981264231419
 10
1.480467311416274
 20
15.69907806998455
 10
1.448922480932112
 20
15.71640012988705
 10
1.416562344727013
 20
15.73222526028046
 10
1.38322984750996
 20
15.74686831772245
 10
1.348793717436546
 20
15.76055133563022
 10
1.313150831048169
 20
15.77343125420985
 10
1.276224556633064
 20
15.78561926209175
 10
1.23796169932035
 20
15.79719418314956
 10
1.198329220511078
 20
15.80821175601013
 10
1.157311208164218
 20
15.8187111088345
 10
1.114906252848915
 20
15.82871931937579
 10
1.07112524378232
 20
15.83825466126301
 10
1.025989543664306
 20
15.84732894157967
 10
0.9795294846002995
 20
15.85594920381966
 10
0.9317831276112194
 20
15.86411898296471
 10
0.8827952347964924
 20
15.87183924102837
 10
0.8326164114562882
 20
15.87910907212285
 10
0.7813023834115156
 20
15.88592623946031
 10
0.7289133816641773
 20
15.89228758846702
 10
0.6755136122607492
 20
15.89818936759091
 10
0.6211707938353985
 20
15.90362747959321
 10
0.565955748976169
 20
15.90859767992133
 10
0.5099420384458391
 20
15.91309573435313
 10
0.453205629554364
 20
15.91711754493588
 10
0.4499690539310218
 20
15.9173173147514
1001
REVIT
1002
{
1070
     1
1000
31633
1002
}
1002
{
1070
     2
1000
-2001160
1002
}
  0
LWPOLYLINE
  5
E2B
330
DF5
100
AcDbEntity
  8
0
100
AcDbPolyline
 90
       33
 70
     0
 43
0.0
 10
-1.686056076727795
 20
15.41605488814828
 10
-1.674524870408689
 20
15.4731898554126
 10
-1.654520432138574
 20
15.52395960462866
 10
-1.629207145738061
 20
15.56701325047713
 10
-1.601119176766786
 20
15.60283089751397
 10
-1.571752599254821
 20
15.63269622796568
 10
-1.541776100942961
 20
15.65797492115477
 10
-1.511367756778866
 20
15.67981264231422
 10
-1.480467311415465
 20
15.69907806998457
 10
-1.448922480931301
 20
15.71640012988708
 10
-1.416562344726201
 20
15.73222526028049
 10
-1.383229847509147
 20
15.74686831772248
 10
-1.348793717435735
 20
15.76055133563024
 10
-1.313150831047359
 20
15.77343125420988
 10
-1.276224556632252
 20
15.78561926209177
 10
-1.237961699319539
 20
15.79719418314958
 10
-1.198329220510265
 20
15.80821175601015
 10
-1.157311208163406
 20
15.81871110883452
 10
-1.114906252848103
 20
15.82871931937581
 10
-1.071125243781509
 20
15.83825466126303
 10
-1.025989543663494
 20
15.84732894157969
 10
-0.9795294845994876
 20
15.85594920381968
 10
-0.9317831276104072
 20
15.86411898296472
 10
-0.8827952347956808
 20
15.87183924102838
 10
-0.8326164114554771
 20
15.87910907212287
 10
-0.7813023834107046
 20
15.88592623946032
 10
-0.7289133816633658
 20
15.89228758846703
 10
-0.6755136122599375
 20
15.89818936759092
 10
-0.6211707938345873
 20
15.90362747959322
 10
-0.5659557489753576
 20
15.90859767992134
 10
-0.5099420384450279
 20
15.91309573435314
 10
-0.4532056295535533
 20
15.91711754493589
 10
-0.4499802830189536
 20
15.91731662166302
1001
REVIT
1002
{
1070
     1
1000
31633
1002
}
1002
{
1070
     2
1000
-2001160
1002
}
  0
LWPOLYLINE
  5
E2C
330
DF5
100
AcDbEntity
  8
0
100
AcDbPolyline
 90
      127
 70
     0
 43
0.0
 10
5.040154442142919
 20
10.65561700120118
 10
5.055837511718287
 20
10.63540959197617
 10
5.091267122432068
 20
10.59334607604081
 10
5.128350485232036
 20
10.55273301297459
 10
5.167028274648411
 20
10.51363537501478
 10
5.207238614468947
 20
10.47611571004171
 10
5.248917176727679
 20
10.44023404151557
 10
5.291997284615946
 20
10.40604777245167
 10
5.336410019151059
 20
10.37361159358781
 10
5.382084329431974
 20
10.34297739589084
 10
5.428947146305576
 20
10.31419418754212
 10
5.47692349926173
 20
10.28730801553492
 10
5.525936636370121
 20
10.26236189200904
 10
5.575908147066954
 20
10.23939572544056
 10
5.626758087595129
 20
10.21844625679682
 10
5.678405108897216
 20
10.19954700075865
 10
5.730766586756571
 20
10.18272819210409
 10
5.783758753978473
 20
10.16801673733916
 10
5.837296834399759
 20
10.15543617165322
 10
5.891295178512605
 20
10.14500662126766
 10
5.945667400485461
 20
10.13674477123823
 10
6.000326516361961
 20
10.13066383876254
 10
6.055185083216692
 20
10.12677355203537
 10
6.110155339045219
 20
10.1250801346856
 10
6.165149343164584
 20
10.12558629581973
 10
6.220079116899625
 20
10.12829122568793
 10
6.274856784330087
 20
10.13319059697944
 10
6.329394712873361
 20
10.14027657174533
 10
6.383605653477925
 20
10.14953781393756
 10
6.437402880203182
 20
10.16095950754426
 10
6.490700328962513
 20
10.17452338029216
 10
6.543412735207412
 20
10.19020773287833
 10
6.595455770332603
 20
10.20798747368444
 10
6.646746176583808
 20
10.22783415891802
 10
6.697201900252392
 20
10.24971603811643
 10
6.746742222943804
 20
10.27359810494083
 10
6.79528789070977
 20
10.29944215317889
 10
6.842761240837727
 20
10.3272068378665
 10
6.889086326094576
 20
10.35684774143101
 10
6.934189036226067
 20
10.38831744474974
 10
6.97799721651738
 20
10.42156560301059
 10
7.020440783225303
 20
10.45653902625288
 10
7.061451835697241
 20
10.49318176446004
 10
7.100964764997804
 20
10.53143519706762
 10
7.138916358869082
 20
10.57123812674376
 10
7.175245902856794
 20
10.61252687729182
 10
7.209895277440445
 20
10.65523539551871
 10
7.242809051012172
 20
10.69929535690593
 10
7.273934568555496
 20
10.74463627491422
 10
7.303222035882099
 20
10.79118561374698
 10
7.330624599291923
 20
10.83886890439209
 10
7.356098420529076
 20
10.88760986375638
 10
7.379602746913706
 20
10.93733051670241
 10
7.401099976537587
 20
10.98795132079196
 10
7.420555718419149
 20
11.03939129353702
 10
7.437938847521722
 20
11.09156814195447
 10
7.453221554546943
 20
11.14439839421731
 10
7.46637939042371
 20
11.19779753319178
 10
7.477391305421477
 20
11.25168013164672
 10
7.486239682825325
 20
11.30595998891894
 10
7.492910367118965
 20
11.36055026881591
 10
7.497392686630534
 20
11.41536363853508
 10
7.499679470604985
 20
11.47031240837781
 10
7.499999999999705
 20
11.50000000000117
 10
7.498900146658552
 20
11.55498533450777
 10
7.495602346165812
 20
11.60988270420873
 10
7.490111874298778
 20
11.66460428502336
 10
7.482437514641202
 20
11.71906253409566
 10
7.47259154453143
 20
11.77317032984426
 10
7.460589715421267
 20
11.82684111133833
 10
7.446451227677044
 20
11.87998901677665
 10
7.430198699863096
 20
11.93252902084814
 10
7.411858132556909
 20
11.9843770707542
 10
7.391458866753725
 20
12.03545022067532
 10
7.369033536927217
 20
12.08566676446666
 10
7.344618018821297
 20
12.13494636637042
 10
7.318251372056558
 20
12.183210189536
 10
7.289975777643251
 20
12.23038102214206
 10
7.259836470500625
 20
12.27638340091899
 10
7.227881667090738
 20
12.32114373187409
 10
7.194162488282374
 20
12.36459040802618
 10
7.158732877568594
 20
12.40665392396154
 10
7.121649514768625
 20
12.44726698702775
 10
7.082971725352252
 20
12.48636462498757
 10
7.042761385531715
 20
12.52388428996064
 10
7.001082823272982
 20
12.55976595848677
 10
6.958002715384718
 20
12.59395222755068
 10
6.913589980849602
 20
12.62638840641454
 10
6.867915670568693
 20
12.6570226041115
 10
6.821052853695087
 20
12.68580581246023
 10
6.773076500738931
 20
12.71269198446743
 10
6.724063363630541
 20
12.73763810799331
 10
6.674091852933709
 20
12.76060427456178
 10
6.623241912405535
 20
12.78155374320553
 10
6.571594891103448
 20
12.8004529992437
 10
6.519233413244092
 20
12.81727180789826
 10
6.466241246022192
 20
12.83198326266319
 10
6.412703165600905
 20
12.84456382834912
 10
6.358704821488057
 20
12.8549933787347
 10
6.304332599515202
 20
12.86325522876413
 10
6.249673483638702
 20
12.86933616123981
 10
6.194814916783974
 20
12.87322644796698
 10
6.139844660955446
 20
12.87491986531676
 10
6.084850656836079
 20
12.87441370418262
 10
6.02992088310104
 20
12.87170877431442
 10
5.975143215670579
 20
12.86680940302291
 10
5.9206052871273
 20
12.85972342825703
 10
5.866394346522739
 20
12.85046218606479
 10
5.812597119797478
 20
12.83904049245809
 10
5.75929967103815
 20
12.82547661971019
 10
5.706587264793252
 20
12.80979226712403
 10
5.654544229668061
 20
12.79201252631791
 10
5.603253823416856
 20
12.77216584108433
 10
5.552798099748271
 20
12.75028396188592
 10
5.503257777056861
 20
12.72640189506152
 10
5.454712109290891
 20
12.70055784682347
 10
5.407238759162936
 20
12.67279316213585
 10
5.360913673906084
 20
12.64315225857135
 10
5.315810963774596
 20
12.61168255525261
 10
5.272002783483284
 20
12.57843439699177
 10
5.229559216775361
 20
12.54346097374947
 10
5.18854816430342
 20
12.50681823554232
 10
5.149035235002855
 20
12.46856480293473
 10
5.111083641131579
 20
12.42876187325859
 10
5.074754097143869
 20
12.38747312271053
 10
5.040104722560218
 20
12.34476460448365
 10
5.03981965460666
 20
12.34438299880118
1001
REVIT
1002
{
1070
     1
1000
12478
1002
}
1002
{
1070
     2
1000
-2001160
1002
}
  0
LWPOLYLINE
  5
E2D
330
DF5
100
AcDbEntity
  8
0
100
AcDbPolyline
 90
      158
 70
     1
 43
0.0
 10
5.188749500058351
 20
11.46252999386834
 10
5.190996801194136
 20
11.42511993175207
 10
5.19473830820462
 20
11.38782966177145
 10
5.199968035476736
 20
11.35071884040359
 10
5.206677616562457
 20
11.31384683704614
 10
5.214856317563356
 20
11.27727263903886
 10
5.224491054302521
 20
11.24105475729649
 10
5.235566413256474
 20
11.20525113270374
 10
5.248064676213504
 20
11.16991904342226
 10
5.261965848619037
 20
11.13511501325779
 10
5.277247691562646
 20
11.10089472123413
 10
5.293885757355571
 20
11.06731291251858
 10
5.311853428641816
 20
11.03442331084134
 10
5.331121960980216
 20
11.00227853254904
 10
5.351660528829431
 20
10.97093000242973
 10
5.373436274862233
 20
10.9404278714443
 10
5.396414362530211
 20
10.91082093649554
 10
5.420558031794829
 20
10.88215656236355
 10
5.445828657935637
 20
10.85448060593222
 10
5.472185813341589
 20
10.82783734282793
 10
5.499587332186592
 20
10.80226939658808
 10
5.527989377885848
 20
10.77781767047242
 10
5.557346513225014
 20
10.75452128202666
 10
5.587611773050066
 20
10.73241750050269
 10
5.618736739401533
 20
10.71154168723571
 10
5.650671618972888
 20
10.69192723907369
 10
5.68336532276923
 20
10.67360553494949
 10
5.716765547838767
 20
10.65660588568129
 10
5.750818860946393
 20
10.64095548708152
 10
5.78547078405545
 20
10.62667937644936
 10
5.820665881480983
 20
10.61380039251643
 10
5.856347848574997
 20
10.60233913890963
 10
5.892459601801891
 20
10.59231395118982
 10
5.928943370059928
 20
10.58374086751873
 10
5.965740787102688
 20
10.57663360300143
 10
6.002792984912598
 20
10.57100352774501
 10
6.040040687877207
 20
10.56685964866884
 10
6.077424307617524
 20
10.56420859509549
 10
6.114884038316718
 20
10.56305460814513
 10
6.152359952396648
 20
10.56339953395072
 10
6.189792096389219
 20
10.56524282070455
 10
6.22712058684915
 20
10.56858151954102
 10
6.264285706154681
 20
10.57341028925421
 10
6.301227998043068
 20
10.57972140484268
 10
6.337888362727887
 20
10.58750476986776
 10
6.374208151446103
 20
10.59674793260579
 10
6.410129260283577
 20
10.60743610596816
 10
6.445594223128925
 20
10.6195521911575
 10
6.480546303607059
 20
10.63307680502215
 10
6.514929585845256
 20
10.64798831106501
 10
6.548689063926639
 20
10.66426285405737
 10
6.581770729887923
 20
10.68187439820215
 10
6.614121660120609
 20
10.70079476878566
 10
6.645690100037492
 20
10.72099369725109
 10
6.67642554686895
 20
10.74243886962178
 10
6.70627883045659
 20
10.76509597819665
 10
6.73520219191504
 20
10.78892877643524
 10
6.763149360035948
 20
10.81389913694444
 10
6.790075625312072
 20
10.83996711247415
 10
6.815937911462932
 20
10.86709099982439
 10
6.840694844347674
 20
10.89522740656153
 10
6.864306818154887
 20
10.92433132043691
 10
6.886736058763427
 20
10.95435618139681
 10
6.907946684172975
 20
10.98525395606868
 10
6.927904761907561
 20
11.01697521460421
 10
6.946578363300313
 20
11.04946920975658
 10
6.963937614572485
 20
11.08268395806523
 10
6.979954744625157
 20
11.11656632301831
 10
6.994604129467046
 20
11.15106210005974
 10
7.007862333207442
 20
11.18611610330495
 10
7.019708145548628
 20
11.22167225382656
 10
7.030122615717827
 20
11.25767366936862
 10
7.039089082784404
 20
11.29406275534617
 10
7.0465932023138
 20
11.33078129698424
 10
7.052622969315557
 20
11.36777055244906
 10
7.057168737448757
 20
11.40497134682253
 10
7.060223234454097
 20
11.44232416676938
 10
7.06178157378796
 20
11.47976925574588
 10
7.062000000000946
 20
11.50000000000125
 10
7.061250499942279
 20
11.53747000613415
 10
7.059003198806497
 20
11.57488006825041
 10
7.055261691796013
 20
11.61217033823104
 10
7.050031964523896
 20
11.6492811595989
 10
7.043322383438177
 20
11.68615316295634
 10
7.035143682437277
 20
11.72272736096362
 10
7.025508945698111
 20
11.758945242706
 10
7.014433586744159
 20
11.79474886729875
 10
7.001935323787127
 20
11.83008095658023
 10
6.988034151381595
 20
11.8648849867447
 10
6.972752308437988
 20
11.89910527876836
 10
6.95611424264506
 20
11.93268708748391
 10
6.938146571358815
 20
11.96557668916114
 10
6.918878039020415
 20
11.99772146745345
 10
6.898339471171201
 20
12.02906999757275
 10
6.876563725138398
 20
12.05957212855818
 10
6.853585637470422
 20
12.08917906350694
 10
6.829441968205803
 20
12.11784343763893
 10
6.804171342064996
 20
12.14551939407026
 10
6.777814186659044
 20
12.17216265717455
 10
6.750412667814036
 20
12.19773060341441
 10
6.722010622114781
 20
12.22218232953006
 10
6.692653486775617
 20
12.24547871797582
 10
6.662388226950563
 20
12.2675824994998
 10
6.631263260599098
 20
12.28845831276677
 10
6.599328381027742
 20
12.3080727609288
 10
6.566634677231402
 20
12.326394465053
 10
6.533234452161862
 20
12.3433941143212
 10
6.499181139054237
 20
12.35904451292096
 10
6.464529215945183
 20
12.37332062355312
 10
6.429334118519647
 20
12.38619960748606
 10
6.393652151425632
 20
12.39766086109285
 10
6.35754039819874
 20
12.40768604881267
 10
6.321056629940701
 20
12.41625913248375
 10
6.28425921289794
 20
12.42336639700105
 10
6.247207015088035
 20
12.42899647225747
 10
6.209959312123426
 20
12.43314035133364
 10
6.172575692383105
 20
12.43579140490699
 10
6.135115961683911
 20
12.43694539185735
 10
6.097640047603984
 20
12.43660046605176
 10
6.060207903611409
 20
12.43475717929793
 10
6.022879413151481
 20
12.43141848046146
 10
5.985714293845949
 20
12.42658971074827
 10
5.948772001957562
 20
12.42027859515981
 10
5.912111637272744
 20
12.41249523013472
 10
5.875791848554527
 20
12.40325206739669
 10
5.839870739717053
 20
12.39256389403432
 10
5.804405776871703
 20
12.38044780884498
 10
5.76945369639357
 20
12.36692319498033
 10
5.735070414155376
 20
12.35201168893747
 10
5.701310936073991
 20
12.33573714594511
 10
5.668229270112708
 20
12.31812560180033
 10
5.635878339880019
 20
12.29920523121682
 10
5.604309899963138
 20
12.27900630275138
 10
5.573574453131683
 20
12.2575611303807
 10
5.543721169544041
 20
12.23490402180583
 10
5.51479780808559
 20
12.21107122356724
 10
5.486850639964681
 20
12.18610086305804
 10
5.459924374688558
 20
12.16003288752833
 10
5.434062088537702
 20
12.13290900017809
 10
5.409305155652956
 20
12.10477259344095
 10
5.385693181845746
 20
12.07566867956557
 10
5.363263941237205
 20
12.04564381860566
 10
5.342053315827658
 20
12.0147460439338
 10
5.322095238093072
 20
11.98302478539827
 10
5.303421636700318
 20
11.9505307902459
 10
5.286062385428148
 20
11.91731604193725
 10
5.270045255375475
 20
11.88343367698417
 10
5.255395870533584
 20
11.84893789994275
 10
5.242137666793188
 20
11.81388389669753
 10
5.230291854452003
 20
11.77832774617592
 10
5.219877384282806
 20
11.74232633063386
 10
5.210910917216226
 20
11.70593724465631
 10
5.203406797686832
 20
11.66921870301824
 10
5.197377030685077
 20
11.63222944755342
 10
5.192831262551877
 20
11.59502865317995
 10
5.189776765546538
 20
11.5576758332331
 10
5.188218426212675
 20
11.5202307442566
 10
5.18799999999969
 20
11.50000000000124
1001
REVIT
1002
{
1070
     1
1000
11666
1002
}
1002
{
1070
     2
1000
-2001160
1002
}
  0
LWPOLYLINE
  5
E2E
330
DF5
100
AcDbEntity
  8
0
100
AcDbPolyline
 90
      158
 70
     1
 43
0.0
 10
5.055356285820038
 20
11.4571914177544
 10
5.057923773403659
 20
11.41445132010721
 10
5.06219835531905
 20
11.37184808209843
 10
5.068173193147002
 20
11.32944985982068
 10
5.075838728421559
 20
11.28732448138513
 10
5.085182697921507
 20
11.24553933841101
 10
5.096190153288921
 20
11.20416127821338
 10
5.108843484943347
 20
11.16325649686172
 10
5.123122450253367
 20
11.1228904332803
 10
5.139004205920502
 20
11.08312766455989
 10
5.156463344523617
 20
11.04403180264815
 10
5.17547193516536
 20
11.00566539258416
 10
5.195999568155653
 20
10.9680898124396
 10
5.218013403660711
 20
10.93136517512703
 10
5.241478224239754
 20
10.89555023223196
 10
5.266356491185423
 20
10.86070228002291
 10
5.292608404577683
 20
10.82687706778959
 10
5.320191966955217
 20
10.79412870865591
 10
5.349063050502396
 20
10.76250959301053
 10
5.379175467644389
 20
10.73207030469345
 10
5.410481044937401
 20
10.70285954007259
 10
5.442929700135933
 20
10.67492403014005
 10
5.476469522313677
 20
10.64830846575248
 10
5.511046854909929
 20
10.6230554261352
 10
5.546606381568641
 20
10.59920531076457
 10
5.583091214632784
 20
10.57679627473743
 10
5.620442986152475
 20
10.5558641677311
 10
5.658601941261235
 20
10.53644247665149
 10
5.697507033771032
 20
10.51856227206127
 10
5.737096023833156
 20
10.50225215847353
 10
5.777305577508715
 20
10.48753822859072
 10
5.818071368089406
 20
10.47444402156184
 10
5.859328179006537
 20
10.46299048532485
 10
5.901010008163628
 20
10.45319594309445
 10
5.943050173525673
 20
10.44507606404882
 10
5.985381419796183
 20
10.43864383826226
 10
6.027936026011317
 20
10.43390955592392
 10
6.070645913878951
 20
10.4308807908756
 10
6.113442756689462
 20
10.42956238849529
 10
6.156258088623855
 20
10.42995645794554
 10
6.199023414284487
 20
10.43206236879929
 10
6.241670318273084
 20
10.43587675204842
 10
6.284130574640785
 20
10.44139350549343
 10
6.326336256035108
 20
10.44860380350564
 10
6.36821984236922
 20
10.45749611114635
 10
6.409714328839672
 20
10.46805620262026
 10
6.450753333119799
 20
10.48026718403371
 10
6.491271201557275
 20
10.49410952042131
 10
6.531203114205945
 20
10.50956106699771
 10
6.570485188523933
 20
10.52659710458455
 10
6.609054581572053
 20
10.54519037915584
 10
6.646849590549128
 20
10.56531114543863
 10
6.683809751503299
 20
10.58692721449907
 10
6.719875936061455
 20
10.61000400523784
 10
6.754990446022016
 20
10.63450459971254
 10
6.789097105659732
 20
10.66038980219853
 10
6.822141351594887
 20
10.68761820189372
 10
6.854070320083048
 20
10.71614623916701
 10
6.884832931585783
 20
10.74592827524441
 10
6.914379972487028
 20
10.77691666522137
 10
6.942664173824375
 20
10.80906183428442
 10
6.969640286909323
 20
10.84231235702034
 10
6.995265155715537
 20
10.87661503968582
 10
7.019497785919271
 20
10.9119150053061
 10
7.042299410481549
 20
10.94815578146645
 10
7.063633551667164
 20
10.98527939065597
 10
7.083466079401258
 20
11.02322644301924
 10
7.101765265870167
 20
11.06193623136741
 10
7.118501836279162
 20
11.10134682829677
 10
7.133649015685864
 20
11.14139518525939
 10
7.147182571834451
 20
11.18201723342731
 10
7.159080853922094
 20
11.22314798618904
 10
7.169324827235606
 20
11.26472164311426
 10
7.177898103602958
 20
11.30667169522046
 10
7.184786967610832
 20
11.34893103137314
 10
7.189980398546356
 20
11.39143204564929
 10
7.193470088027902
 20
11.43410674549248
 10
7.195250453296742
 20
11.47688686048641
 10
7.195500000000051
 20
11.50000000000118
 10
7.194643714180629
 20
11.54280858224796
 10
7.192076226597007
 20
11.58554867989516
 10
7.187801644681615
 20
11.62815191790394
 10
7.181826806853661
 20
11.67055014018169
 10
7.174161271579107
 20
11.71267551861724
 10
7.164817302079156
 20
11.75446066159135
 10
7.153809846711744
 20
11.79583872178899
 10
7.141156515057318
 20
11.83674350314065
 10
7.126877549747298
 20
11.87710956672207
 10
7.110995794080164
 20
11.91687233544248
 10
7.093536655477048
 20
11.95596819735421
 10
7.074528064835307
 20
11.99433460741821
 10
7.054000431845014
 20
12.03191018756276
 10
7.031986596339956
 20
12.06863482487534
 10
7.008521775760911
 20
12.10444976777041
 10
6.983643508815244
 20
12.13929771997946
 10
6.957391595422983
 20
12.17312293221278
 10
6.929808033045451
 20
12.20587129134646
 10
6.900936949498268
 20
12.23749040699183
 10
6.870824532356278
 20
12.26792969530892
 10
6.839518955063267
 20
12.29714045992978
 10
6.807070299864736
 20
12.32507596986231
 10
6.773530477686991
 20
12.35169153424989
 10
6.738953145090738
 20
12.37694457386717
 10
6.703393618432027
 20
12.4007946892378
 10
6.666908785367882
 20
12.42320372526493
 10
6.629557013848192
 20
12.44413583227127
 10
6.591398058739433
 20
12.46355752335088
 10
6.552492966229637
 20
12.4814377279411
 10
6.512903976167511
 20
12.49774784152884
 10
6.472694422491954
 20
12.51246177141165
 10
6.431928631911262
 20
12.52555597844053
 10
6.39067182099413
 20
12.53700951467751
 10
6.34898999183704
 20
12.54680405690792
 10
6.306949826474997
 20
12.55492393595355
 10
6.264618580204483
 20
12.56135616174011
 10
6.222063973989351
 20
12.56609044407845
 10
6.179354086121715
 20
12.56911920912677
 10
6.136557243311207
 20
12.57043761150708
 10
6.093741911376813
 20
12.57004354205683
 10
6.050976585716178
 20
12.56793763120308
 10
6.008329681727584
 20
12.56412324795395
 10
5.965869425359882
 20
12.55860649450894
 10
5.923663743965558
 20
12.55139619649673
 10
5.88178015763145
 20
12.54250388885602
 10
5.840285671160995
 20
12.53194379738211
 10
5.799246666880867
 20
12.51973281596866
 10
5.758728798443394
 20
12.50589047958106
 10
5.718796885794723
 20
12.49043893300466
 10
5.679514811476737
 20
12.47340289541782
 10
5.640945418428616
 20
12.45480962084653
 10
5.603150409451542
 20
12.43468885456374
 10
5.566190248497369
 20
12.4130727855033
 10
5.53012406393921
 20
12.38999599476453
 10
5.495009553978652
 20
12.36549540028983
 10
5.460902894340934
 20
12.33961019780384
 10
5.427858648405778
 20
12.31238179810865
 10
5.395929679917618
 20
12.28385376083537
 10
5.365167068414883
 20
12.25407172475796
 10
5.335620027513637
 20
12.223083334781
 10
5.307335826176291
 20
12.19093816571795
 10
5.280359713091343
 20
12.15768764298203
 10
5.25473484428513
 20
12.12338496031655
 10
5.230502214081396
 20
12.08808499469627
 10
5.207700589519117
 20
12.05184421853592
 10
5.186366448333501
 20
12.0147206093464
 10
5.16653392059941
 20
11.97677355698314
 10
5.148234734130499
 20
11.93806376863497
 10
5.131498163721504
 20
11.8986531717056
 10
5.1163509843148
 20
11.85860481474299
 10
5.102817428166211
 20
11.81798276657507
 10
5.090919146078573
 20
11.77685201381333
 10
5.080675172765059
 20
11.73527835688811
 10
5.072101896397706
 20
11.69332830478191
 10
5.065213032389833
 20
11.65106896862923
 10
5.060019601454313
 20
11.60856795435308
 10
5.056529911972761
 20
11.56589325450989
 10
5.054749546703924
 20
11.52311313951597
 10
5.054500000000613
 20
11.50000000000119
1001
REVIT
1002
{
1070
     1
1000
7233
1002
}
1002
{
1070
     2
1000
-2001160
1002
}
  0
LWPOLYLINE
  5
E2F
330
DF5
100
AcDbEntity
  8
0
100
AcDbPolyline
 90
        4
 70
     0
 43
0.0
 10
0.7500000000003003
 20
0.9652922669444727
 10
0.7500000000003944
 20
1.160070135581741
 10
-0.7500000000000016
 20
1.160070135581757
 10
-0.7500000000000955
 20
0.9652922669444874
1001
REVIT
1002
{
1070
     2
1000
-2001160
1002
}
  0
LWPOLYLINE
  5
E30
330
DF5
100
AcDbEntity
  8
0
100
AcDbPolyline
 90
        4
 70
     1
 43
0.0
 10
0.9278423767794327
 20
8.592741966081252
 10
-0.9278423767787852
 20
8.592741966081272
 10
-1.054999999999626
 20
9.155412190749453
 10
1.055000000000277
 20
9.155412190749419
1001
REVIT
1002
{
1070
     2
1000
-2001160
1002
}
  0
LWPOLYLINE
  5
E31
330
DF5
100
AcDbEntity
  8
0
100
AcDbPolyline
 90
        4
 70
     1
 43
0.0
 10
0.3750000000004223
 20
5.79406250000119
 10
-0.3749999999998325
 20
5.794062500001197
 10
-0.7499999999998234
 20
5.997836328652394
 10
0.7500000000003843
 20
5.997836328652372
1001
REVIT
1002
{
1070
     2
1000
-2001160
1002
}
  0
LWPOLYLINE
  5
E32
330
DF5
100
AcDbEntity
  8
0
100
AcDbPolyline
 90
        4
 70
     0
 43
0.0
 10
0.9574710187485846
 20
9.699635928002376
 10
0.9574710187485864
 20
10.00920046206824
 10
-0.95747101874791
 20
10.00920046206825
 10
-0.9574710187479139
 20
9.699635928002397
1001
REVIT
1002
{
1070
     2
1000
-2001160
1002
}
  0
LWPOLYLINE
  5
E33
330
DF5
100
AcDbEntity
  8
0
100
AcDbPolyline
 90
        4
 70
     0
 43
0.0
 10
0.3750000000003229
 20
0.0000000000011697
 10
0.3750000000003177
 20
-0.4579999999988223
 10
-0.3749999999998565
 20
-0.4579999999988146
 10
-0.3749999999998521
 20
0.0000000000011751
1001
REVIT
1002
{
1070
     2
1000
-2001160
1002
}
  0
LWPOLYLINE
  5
E34
330
DF5
100
AcDbEntity
  8
0
100
AcDbPolyline
 90
       84
 70
     1
 43
0.0
 10
-1.248969312053655
 20
0.8391267719471818
 10
-1.248169375823705
 20
0.8448032229341436
 10
-1.247143081961906
 20
0.8504431444485412
 10
-1.245892072319505
 20
0.8560375138190739
 10
-1.244418348245063
 20
0.8615773812481533
 10
-1.242724267382721
 20
0.8670538841296638
 10
-1.240812539900472
 20
0.8724582612272502
 10
-1.238686224154479
 20
0.8777818666904398
 10
-1.23634872179634
 20
0.8830161838861243
 10
-1.233803772331192
 20
0.8881528390233846
 10
-1.231055447135282
 20
0.8931836145497713
 10
-1.228108142942647
 20
0.8981004622976083
 10
-1.224966574811273
 20
0.9028955163593755
 10
-1.221635768580001
 20
0.9075611056714619
 10
-1.218121052828268
 20
0.9120897662862422
 10
-1.214428050351511
 20
0.9164742533127943
 10
-1.210562669165895
 20
0.9207075525071866
 10
-1.206531093056745
 20
0.924782891493758
 10
-1.202339771685813
 20
0.9286937505994915
 10
-1.197995410273192
 20
0.9324338732840907
 10
-1.193504958870394
 20
0.9359972761491118
 10
-1.18887560124175
 20
0.9393782585101238
 10
-1.184114743371923
 20
0.9425714115165806
 10
-1.179230001617912
 20
0.9455716268048462
 10
-1.174229190524497
 20
0.9483741046704732
 10
-1.169120310322646
 20
0.9509743617467012
 10
-1.163911534130846
 20
0.9533682381769056
 10
-1.158611194879859
 20
0.9555519042694616
 10
-1.153227771981804
 20
0.957521866624442
 10
-1.147769877764919
 20
0.9592749737223218
 10
-1.142246243695662
 20
0.9608084209657171
 10
-1.136665706410229
 20
0.962119755166152
 10
-1.131037193577827
 20
0.9632068784686508
 10
-1.125369709618305
 20
0.964068051707829
 10
-1.119672321296995
 20
0.9647018971902175
 10
-1.113954143219834
 20
0.9651074008982536
 10
-1.108224323251937
 20
0.9652839141125094
 10
-1.106676991272574
 20
0.9652922669444979
 10
1.106676991273064
 20
0.9652922669444739
 10
1.112408382965696
 20
0.9651776238244663
 10
1.118130605654251
 20
0.9648338778689742
 10
1.123834505003104
 20
0.9642615789981979
 10
1.129510955990064
 20
0.9634616427682459
 10
1.135150877504462
 20
0.9624353489064503
 10
1.140745246874995
 20
0.9611843392640471
 10
1.146285114304073
 20
0.959710615189606
 10
1.151761617185582
 20
0.9580165343272627
 10
1.157165994283172
 20
0.9561048068450144
 10
1.16248959974636
 20
0.953978491099021
 10
1.167723916942045
 20
0.9516409887408828
 10
1.172860572079307
 20
0.9490960392757351
 10
1.177891347605692
 20
0.9463477140798246
 10
1.18280819535353
 20
0.943400409887192
 10
1.187603249415297
 20
0.9402588417558158
 10
1.192268838727384
 20
0.9369280355245431
 10
1.196797499342165
 20
0.9334133197728096
 10
1.201181986368717
 20
0.9297203172960527
 10
1.205415285563107
 20
0.9258549361104398
 10
1.209490624549679
 20
0.9218233600012888
 10
1.213401483655415
 20
0.9176320386303567
 10
1.217141606340014
 20
0.9132876772177343
 10
1.220705009205035
 20
0.9087972258149379
 10
1.224085991566044
 20
0.9041678681862915
 10
1.227279144572504
 20
0.8994070103164693
 10
1.230279359860769
 20
0.8945222685624559
 10
1.233081837726396
 20
0.8895214574690413
 10
1.235682094802625
 20
0.8844125772671887
 10
1.238075971232829
 20
0.8792038010753893
 10
1.240259637325383
 20
0.8739034618244019
 10
1.242229599680364
 20
0.8685200389263457
 10
1.243982706778242
 20
0.8630621447094604
 10
1.245516154021637
 20
0.8575385106402027
 10
1.246827488222074
 20
0.8519579733547713
 10
1.247914611524572
 20
0.8463294605223728
 10
1.248775784763751
 20
0.8406619765628462
 10
1.249409630246139
 20
0.8349645882415355
 10
1.249815133954176
 20
0.8292464101643773
 10
1.249991647168432
 20
0.8235165901964769
 10
1.25000000000042
 20
0.8219692582171152
 10
1.250000000000335
 20
0.0000000000011751
 10
-1.249999999999862
 20
0.0000000000012013
 10
-1.249999999999855
 20
0.8219692582171445
 10
-1.249885356879922
 20
0.8277006499097739
 10
-1.249541610924429
 20
0.8334228725983299
1001
REVIT
1002
{
1070
     2
1000
-2001160
1002
}
  0
LWPOLYLINE
  5
E35
330
DF5
100
AcDbEntity
  8
0
100
AcDbPolyline
 90
        6
 70
     0
 43
0.0
 10
2.590000000000835
 20
12.34877621140242
 10
2.725723788600826
 20
12.4845000000024
 10
2.725723788600826
 20
12.48339096092764
 10
3.019560713300835
 20
12.48339096092764
 10
3.019560713300835
 20
12.4845000000024
 10
2.725723788600829
 20
12.48450000000241
1001
REVIT
1002
{
1070
     2
1000
-2001160
1002
}
  0
LWPOLYLINE
  5
E36
330
DF5
100
AcDbEntity
  8
0
100
AcDbPolyline
 90
        6
 70
     0
 43
0.0
 10
2.725723788600824
 20
10.51550000000241
 10
3.019560713300835
 20
10.5155000000024
 10
3.019560713300835
 20
10.51660903908846
 10
2.725723788600823
 20
10.51660903908846
 10
2.725723788600823
 20
10.5155000000024
 10
2.590000000000835
 20
10.6512237886024
1001
REVIT
1002
{
1070
     2
1000
-2001160
1002
}
  0
LWPOLYLINE
  5
E37
330
DF5
100
AcDbEntity
  8
0
100
AcDbPolyline
 90
       44
 70
     0
 43
0.0
 10
3.1520000000117
 20
12.3115202097718
 10
3.155804573821133
 20
12.30827646425573
 10
3.159735819600776
 20
12.3051874557636
 10
3.163787448196004
 20
12.30225812605004
 10
3.167952977865365
 20
12.29949316141769
 10
3.172225744649988
 20
12.29689698522015
 10
3.17659891303449
 20
12.29447375078551
 10
3.181065486882351
 20
12.29222733477193
 10
3.185618320628231
 20
12.29016133096584
 10
3.190250130709356
 20
12.28827904453258
 10
3.194953507217666
 20
12.28658348672893
 10
3.199720925754077
 20
12.28507737008567
 10
3.20454475946593
 20
12.28376310406813
 10
3.209417291248313
 20
12.2826427912216
 10
3.214330726089793
 20
12.28171822380763
 10
3.219277203542766
 20
12.28099088093686
 10
3.224248810298501
 20
12.28046192620271
 10
3.22923759284674
 20
12.28013220581994
 10
3.234235570199626
 20
12.28000224727081
 10
3.234985112046471
 20
12.2799999999987
 10
3.690778657490028
 20
12.28000000000142
 10
3.69453765490357
 20
12.28007518997894
 10
3.698290638723126
 20
12.28030063961268
 10
3.702031604975176
 20
12.28067598823491
 10
3.705754568911749
 20
12.28120063536792
 10
3.709453574584737
 20
12.2818737416882
 10
3.713122704374141
 20
12.28269423036924
 10
3.716756088455003
 20
12.28366078880417
 10
3.720347914187876
 20
12.28477187070568
 10
3.723892435417801
 20
12.28602569857975
 10
3.727383981666939
 20
12.28742026656926
 10
3.730816967206108
 20
12.2889533436629
 10
3.734185899990778
 20
12.29062247726437
 10
3.737485390447166
 20
12.29242499711596
 10
3.740710160094392
 20
12.29435801957045
 10
3.743855049988933
 20
12.29641845220424
 10
3.746915028977836
 20
12.29860299876467
 10
3.749885201747473
 20
12.30090816444325
 10
3.752760816655021
 20
12.30333026146663
 10
3.755537273330062
 20
12.30586541499627
 10
3.758210130034187
 20
12.30850956932732
 10
3.760775110766855
 20
12.31125849437691
 10
3.761704082730231
 20
12.31231058394107
 10
3.794669698494846
 20
12.3452761997066
1001
REVIT
1002
{
1070
     2
1000
-2001160
1002
}
  0
LWPOLYLINE
  5
E38
330
DF5
100
AcDbEntity
  8
0
100
AcDbPolyline
 90
       44
 70
     0
 43
0.0
 10
3.1520000000117
 20
10.68847979023301
 10
3.152562028049606
 20
10.68897571614987
 10
3.156385984043776
 20
10.69219658985107
 10
3.160335681875828
 20
10.69526196974269
 10
3.164404802871788
 20
10.6981669518708
 10
3.168586837306095
 20
10.70090688888371
 10
3.172875094815775
 20
10.70347739746668
 10
3.177262715103589
 20
10.70587436535433
 10
3.181742678913056
 20
10.70809395790935
 10
3.186307819257754
 20
10.71013262425715
 10
3.190950832886973
 20
10.71198710296647
 10
3.195664291969368
 20
10.71365442726697
 10
3.20044065597589
 20
10.71513192979544
 10
3.205272283743029
 20
10.71641724686303
 10
3.210151445697053
 20
10.71750832223662
 10
3.215070336219668
 20
10.71840341042835
 10
3.220021086135345
 20
10.71910107948806
 10
3.224995775300319
 20
10.71960021329408
 10
3.229986445273141
 20
10.71990001333881
 10
3.234985112046471
 20
10.7200000000034
 10
3.690778657490028
 20
10.71999999999979
 10
3.692182142997376
 20
10.71998952190743
 10
3.695939598760273
 20
10.71985821586389
 10
3.699688798118077
 20
10.71957675669698
 10
3.703423743151601
 20
10.71914559468134
 10
3.707138458745542
 20
10.7185654195842
 10
3.710827002147376
 20
10.71783715956197
 10
3.714483472474508
 20
10.71696197967532
 10
3.718102020154419
 20
10.71594128002537
 10
3.72167685628274
 20
10.71477669351383
 10
3.725202261884254
 20
10.71347008323069
 10
3.728672597062047
 20
10.71202353947367
 10
3.732082310020131
 20
10.7104393764042
 10
3.735425945945141
 20
10.70872012834525
 10
3.738698155732866
 20
10.70686854572698
 10
3.741893704545683
 20
10.70488759068657
 10
3.745007480187171
 20
10.70278043232953
 10
3.74803450128054
 20
10.7005504416597
 10
3.750969925237769
 20
10.69820118618647
 10
3.75380905600672
 20
10.69573642421743
 10
3.756547351583809
 20
10.69316009884596
 10
3.759180431280254
 20
10.69047633164306
 10
3.761704082730231
 20
10.68768941606375
 10
3.794669698497279
 20
10.65472380029578
1001
REVIT
1002
{
1070
     2
1000
-2001160
1002
}
  0
LWPOLYLINE
  5
E39
330
DF5
100
AcDbEntity
  8
0
100
AcDbPolyline
 90
        4
 70
     0
 43
0.0
 10
1.645747883645843
 20
15.33167458836533
 10
1.841913030800326
 20
12.89640922048398
 10
-1.841913030799581
 20
12.89640922048398
 10
-1.6457478836451
 20
15.33167458836541
1001
REVIT
1002
{
1070
     2
1000
-2001160
1002
}
  0
LWPOLYLINE
  5
E3A
330
DF5
100
AcDbEntity
  8
0
100
AcDbPolyline
 90
        4
 70
     0
 43
0.0
 10
1.841913030800333
 20
12.89640922048399
 10
1.841913030800333
 20
12.14640922048399
 10
-1.841913030799585
 20
12.14640922048398
 10
-1.841913030799588
 20
12.89640922048399
1001
REVIT
1002
{
1070
     2
1000
-2001160
1002
}
  0
LWPOLYLINE
  5
E3B
330
DF5
100
AcDbEntity
  8
0
100
AcDbPolyline
 90
       18
 70
     0
 43
0.0
 10
1.591913030800301
 20
12.14640922048396
 10
1.461336972709736
 20
11.92827421684507
 10
1.339588435096594
 20
11.70509204831885
 10
1.226862189649418
 20
11.47721975876526
 10
1.123338574313939
 20
11.24502189523746
 10
1.029183204790834
 20
11.00886992478416
 10
0.9445467095859358
 20
10.7691416401817
 10
0.8695644890367423
 20
10.52622055554613
 10
0.8600000000003202
 20
10.49253280166518
 10
-0.8599999999995672
 20
10.49253280166517
 10
-0.9336427202718892
 20
10.73586331045909
 10
-1.016957159256761
 20
10.97605425744845
 10
-1.109810031624604
 20
11.21272138835608
 10
-1.212052792587192
 20
11.44548608625882
 10
-1.323521875537603
 20
11.67397597729385
 10
-1.444038953721924
 20
11.89782552637743
 10
-1.573411225523997
 20
12.11667662198305
 10
-1.591913030799553
 20
12.14640922048396
1001
REVIT
1002
{
1070
     2
1000
-2001160
1002
}
  0
SPLINE
  5
E3C
330
DF5
100
AcDbEntity
  8
0
100
AcDbSpline
210
0.0
220
0.0
230
1.0
 70
    13
 71
     2
 72
    14
 73
    11
 74
     0
 42
0.000000001
 43
0.0000000001
 40
0.0
 40
0.0
 40
0.0
 40
1.047197551196597
 40
1.047197551196597
 40
2.094395102393195
 40
2.094395102393195
 40
3.141592653589794
 40
3.141592653589794
 40
4.712388980384688
 40
4.712388980384688
 40
6.283185307179585
 40
6.283185307179585
 40
6.283185307179585
 10
0.0000000000003908
 20
14.18195800837101
 30
0.0
 41
1.0
 10
0.2015027594492324
 20
14.18195800837101
 30
0.0
 41
0.8660254037844385
 10
0.3022541391736554
 20
14.35580046703613
 30
0.0
 41
1.0
 10
0.4030055188980784
 20
14.52964292570126
 30
0.0
 41
0.8660254037844385
 10
0.3022541391736597
 20
14.70348538436638
 30
0.0
 41
1.0
 10
0.201502759449241
 20
14.87732784303151
 30
0.0
 41
0.8660254037844385
 10
0.0000000000003994
 20
14.87732784303151
 30
0.0
 41
1.0
 10
-0.349013017230324
 20
14.87732784303151
 30
0.0
 41
0.707106781186548
 10
-0.3490130172303276
 20
14.52964292570127
 30
0.0
 41
1.0
 10
-0.3490130172303312
 20
14.18195800837102
 30
0.0
 41
0.707106781186548
 10
0.0000000000003913
 20
14.18195800837101
 30
0.0
 41
1.0
  0
SPLINE
  5
E3D
330
DF5
100
AcDbEntity
  8
0
100
AcDbSpline
210
0.0
220
0.0
230
1.0
 70
    12
 71
     2
 72
    12
 73
     9
 74
     0
 42
0.000000001
 43
0.0000000001
 40
0.0
 40
0.0
 40
0.0
 40
0.8128842989183818
 40
0.8128842989183818
 40
1.625768597836763
 40
1.625768597836763
 40
2.441994374230537
 40
2.441994374230537
 40
3.258220150624309
 40
3.258220150624309
 40
3.258220150624309
 10
-1.683924764075818
 20
15.42753044733489
 30
0.0
 41
1.0
 10
-1.723807436429398
 20
15.27684139524897
 30
0.0
 41
0.9185332076484151
 10
-1.224839121152339
 20
15.16723445195687
 30
0.0
 41
1.0
 10
-0.7258708058752826
 20
15.05762750866476
 30
0.0
 41
0.9185332076484151
 10
0.000000000000404
 20
15.05762750866475
 30
0.0
 41
1.0
 10
0.7292128398358067
 20
15.05762750866475
 30
0.0
 41
0.9178714097171027
 10
1.228706024306379
 20
15.16808673119715
 30
0.0
 41
1.0
 10
1.728199208776955
 20
15.27854595372954
 30
0.0
 41
0.9178714097171027
 10
1.683267905698004
 20
15.42986975331953
 30
0.0
 41
1.0
  0
LWPOLYLINE
  5
E3E
330
DF5
100
AcDbEntity
  8
0
100
AcDbPolyline
 90
        4
 70
     0
 43
0.0
 10
-1.05499999999962
 20
9.155412190749453
 10
-1.054999999999614
 20
9.699635928002386
 10
1.055000000000283
 20
9.699635928002367
 10
1.055000000000279
 20
9.155412190749428
1001
REVIT
1002
{
1070
     2
1000
-2001160
1002
}
  0
SPLINE
  5
107B
330
DF5
100
AcDbEntity
  8
0
100
AcDbSpline
210
0.0
220
0.0
230
1.0
 70
    12
 71
     3
 72
    19
 73
    15
 74
     0
 42
0.000000001
 43
0.0000000001
 40
2.304728688121578
 40
2.304728688121578
 40
2.304728688121578
 40
2.304728688121578
 40
2.500217954499334
 40
3.000217954499334
 40
3.000217954499334
 40
3.000217954499334
 40
4.000217954499334
 40
4.000217954499334
 40
4.000217954499334
 40
5.000217954499334
 40
5.000217954499334
 40
5.000217954499334
 40
5.500217954499335
 40
6.000217954499335
 40
6.000217954499335
 40
6.000217954499335
 40
6.000217954499335
 10
1.841913030800333
 20
12.26626562500128
 30
0.0
 41
1.0
 10
1.862320385746135
 20
12.26626562500128
 30
0.0
 41
1.0
 10
1.929327756842585
 20
12.26626562500128
 30
0.0
 41
1.0
 10
1.976427840029366
 20
12.26626562500128
 30
0.0
 41
1.0
 10
2.000000000000369
 20
12.26626562500128
 30
0.0
 41
1.0
 10
2.000000000000349
 20
11.75542187500123
 30
0.0
 41
1.0
 10
2.000000000000346
 20
11.24457812500117
 30
0.0
 41
1.0
 10
2.000000000000345
 20
10.7337343750011
 30
0.0
 41
1.0
 10
1.985495137732505
 20
10.72357796110047
 30
0.0
 41
1.0
 10
1.970990275464663
 20
10.71342154719983
 30
0.0
 41
1.0
 10
1.95648541319682
 20
10.7032651332992
 30
0.0
 41
1.0
 10
1.955402905926868
 20
10.70326513329919
 30
0.0
 41
1.0
 10
1.939954454013273
 20
10.70326513329919
 30
0.0
 41
1.0
 10
1.897939127352286
 20
10.70326513329919
 30
0.0
 41
1.0
 10
1.870289745334945
 20
10.70326513329918
 30
0.0
 41
1.0
1001
REVIT
1002
{
1070
     2
1000
-2001160
1002
}
  0
ENDBLK
  5
DF7
330
DF5
100
AcDbEntity
  8
0
100
AcDbBlockEnd
  0
ENDSEC
  0
SECTION
  2
ENTITIES
  0
INSERT
  5
DC0
330
70
100
AcDbEntity
  8
0
100
AcDbBlockReference
  2
Flush_Valve-Urinal_Exposed-American_Standard-Ultima_Selectronic_6245-XXX-Top_View
 10
-37.85135309679195
 20
23.50486057266816
 30
0.0
  0
INSERT
  5
DF4
330
70
100
AcDbEntity
  8
0
100
AcDbBlockReference
  2
Flush_Valve-Urinal_Exposed-American_Standard-Ultima_Selectronic_6245-XXX-Side_View
 10
-33.87013547828315
 20
0.0840000000011786
 30
0.0
  0
INSERT
  5
E3F
330
70
100
AcDbEntity
  8
0
100
AcDbBlockReference
  2
Flush_Valve-Urinal_Exposed-American_Standard-Ultima_Selectronic_6245-XXX-Front_View
 10
-0.0000000000000053
 20
-0.4579999999999921
 30
0.0
  0
ENDSEC
  0
SECTION
  2
OBJECTS
  0
DICTIONARY
  5
C
330
0
100
AcDbDictionary
281
     1
  3
ACAD_CIP_PREVIOUS_PRODUCT_INFO
350
79
  3
ACAD_COLOR
350
63
  3
ACAD_DETAILVIEWSTYLE
350
6A
  3
ACAD_GROUP
350
D
  3
ACAD_IMAGE_VARS
350
7A
  3
ACAD_LAYOUT
350
62
  3
ACAD_MATERIAL
350
10
  3
ACAD_MLEADERSTYLE
350
66
  3
ACAD_MLINESTYLE
350
5F
  3
ACAD_PLOTSETTINGS
350
61
  3
ACAD_PLOTSTYLENAME
350
E
  3
ACAD_SCALELIST
350
42
  3
ACAD_SECTIONVIEWSTYLE
350
68
  3
ACAD_TABLESTYLE
350
64
  3
ACAD_VISUALSTYLE
350
29
  3
ACDB_RECOMPOSE_DATA
350
1147
  3
AcDbVariableDictionary
350
136
  3
REVIT_DICTIONARY
350
131
  0
DICTIONARY
  5
2E2
330
2
100
AcDbDictionary
280
     1
281
     1
  3
ACAD_LAYERSTATES
360
2E3
  0
DICTIONARY
  5
134
330
70
100
AcDbDictionary
280
     1
281
     1
  3
ACAD_SORTENTS
360
135
  0
DICTIONARY
  5
10BA
330
DF5
100
AcDbDictionary
280
     1
281
     1
  3
ACAD_SORTENTS
360
10BB
  0
XRECORD
  5
79
102
{ACAD_REACTORS
330
C
102
}
330
C
100
AcDbXrecord
280
     1
300
ACD
300
2021
300

  0
DICTIONARY
  5
63
102
{ACAD_REACTORS
330
C
102
}
330
C
100
AcDbDictionary
281
     1
  0
DICTIONARY
  5
6A
102
{ACAD_REACTORS
330
C
102
}
330
C
100
AcDbDictionary
281
     1
  3
Imperial24
350
6B
  0
DICTIONARY
  5
D
102
{ACAD_REACTORS
330
C
102
}
330
C
100
AcDbDictionary
281
     1
  0
RASTERVARIABLES
  5
7A
102
{ACAD_REACTORS
330
C
102
}
330
C
100
AcDbRasterVariables
 90
        0
 70
     0
 71
     1
 72
     5
  0
DICTIONARY
  5
62
102
{ACAD_REACTORS
330
C
102
}
330
C
100
AcDbDictionary
281
     1
  3
Layout1
350
6F
  3
Layout2
350
77
  3
Model
350
73
  0
DICTIONARY
  5
10
102
{ACAD_REACTORS
330
C
102
}
330
C
100
AcDbDictionary
281
     1
  3
ByBlock
350
19
  3
ByLayer
350
11
  3
Global
350
21
  0
DICTIONARY
  5
66
102
{ACAD_REACTORS
330
C
102
}
330
C
100
AcDbDictionary
281
     1
  3
Standard
350
67
  0
DICTIONARY
  5
5F
102
{ACAD_REACTORS
330
C
102
}
330
C
100
AcDbDictionary
281
     1
  3
Standard
350
60
  0
DICTIONARY
  5
61
102
{ACAD_REACTORS
330
C
102
}
330
C
100
AcDbDictionary
281
     1
  0
ACDBDICTIONARYWDFLT
  5
E
102
{ACAD_REACTORS
330
C
102
}
330
C
100
AcDbDictionary
281
     1
  3
Normal
350
F
100
AcDbDictionaryWithDefault
340
F
  0
DICTIONARY
  5
42
102
{ACAD_REACTORS
330
C
102
}
330
C
100
AcDbDictionary
281
     1
  3
A0
350
43
  3
A1
350
44
  3
A2
350
45
  3
A3
350
46
  3
A4
350
47
  3
A5
350
48
  3
A6
350
49
  3
A7
350
4A
  3
A8
350
4B
  3
A9
350
4C
  3
B0
350
4D
  3
B1
350
4E
  3
B2
350
4F
  3
B3
350
50
  3
B4
350
51
  3
B5
350
52
  3
B6
350
53
  0
DICTIONARY
  5
68
102
{ACAD_REACTORS
330
C
102
}
330
C
100
AcDbDictionary
281
     1
  3
Imperial24
350
69
  0
DICTIONARY
  5
64
102
{ACAD_REACTORS
330
C
102
}
330
C
100
AcDbDictionary
281
     1
  3
Standard
350
65
  0
DICTIONARY
  5
29
102
{ACAD_REACTORS
330
C
102
}
330
C
100
AcDbDictionary
281
     1
  3
2dWireframe
350
2F
  3
Basic
350
2E
  3
Brighten
350
35
  3
ColorChange
350
39
  3
Conceptual
350
32
  3
Dim
350
34
  3
EdgeColorOff
350
41
  3
Facepattern
350
38
  3
Flat
350
2A
  3
FlatWithEdges
350
2B
  3
Gouraud
350
2C
  3
GouraudWithEdges
350
2D
  3
Hidden
350
31
  3
JitterOff
350
3F
  3
Linepattern
350
37
  3
OverhangOff
350
40
  3
Realistic
350
33
  3
Shaded
350
3E
  3
Shaded with edges
350
3D
  3
Shades of Gray
350
3A
  3
Sketchy
350
3B
  3
Thicken
350
36
  3
Wireframe
350
30
  3
X-Ray
350
3C
  0
XRECORD
  5
1147
102
{ACAD_REACTORS
330
C
102
}
330
C
100
AcDbXrecord
280
     1
 90
        1
330
65
  0
DICTIONARY
  5
136
102
{ACAD_REACTORS
330
C
102
}
330
C
100
AcDbDictionary
281
     1
  3
CANNOSCALE
350
13B
  3
CMLEADERSTYLE
350
138
  3
CTABLESTYLE
350
137
  3
CVIEWDETAILSTYLE
350
139
  3
CVIEWSECTIONSTYLE
350
13A
  0
DICTIONARY
  5
131
102
{ACAD_REACTORS
330
C
102
}
330
C
100
AcDbDictionary
281
     1
  3
DRAWING_TOOL
350
133
  3
REVIT_CATEGORY_MAPPING
350
132
  0
DICTIONARY
  5
2E3
102
{ACAD_REACTORS
330
2E2
102
}
330
2E2
100
AcDbDictionary
281
     1
  0
SORTENTSTABLE
  5
135
102
{ACAD_REACTORS
330
134
102
}
330
134
100
AcDbSortentsTable
330
70
  0
SORTENTSTABLE
  5
10BB
102
{ACAD_REACTORS
330
10BA
102
}
330
10BA
100
AcDbSortentsTable
330
DF5
331
E10
  5
E11
331
E23
  5
E24
331
E32
  5
E33
331
E11
  5
E12
331
E33
  5
E34
331
E12
  5
E13
331
E2C
  5
E2D
331
E2D
  5
E2E
331
E13
  5
E14
331
E2E
  5
E2F
331
E1C
  5
E1D
331
E2F
  5
E30
331
E28
  5
E29
331
E1D
  5
E1E
331
E0F
  5
E10
331
E1E
  5
E1F
331
E29
  5
E2A
331
E3C
  5
E3D
331
E2A
  5
E2B
331
E1F
  5
E20
331
E18
  5
E19
331
E3D
  5
E3E
331
E2B
  5
E2C
331
E24
  5
E25
331
E19
  5
E1A
331
107B
  5
E0F
331
E3E
  5
107B
331
E25
  5
E26
331
E34
  5
E35
331
E1A
  5
E1B
331
E35
  5
E36
331
E1B
  5
E1C
331
E26
  5
E27
331
E38
  5
E39
331
E39
  5
E3A
331
E36
  5
E37
331
E14
  5
E15
331
E27
  5
E28
331
E15
  5
E16
331
E3A
  5
E3B
331
E37
  5
E38
331
E20
  5
E21
331
E21
  5
E22
331
E30
  5
E31
331
E3B
  5
E3C
331
E16
  5
E17
331
E31
  5
E32
331
E17
  5
E18
331
E22
  5
E23
  0
ACDBDETAILVIEWSTYLE
  5
6B
102
{ACAD_XDICTIONARY
360
117C
102
}
102
{ACAD_REACTORS
330
6A
102
}
330
6A
100
AcDbModelDocViewStyle
 70
     0
  3
Imperial24
290
     0
100
AcDbDetailViewStyle
 70
     0
 71
     0
 90
        3
 71
     1
340
55
 62
   256
 40
0.24
340
0
 62
   256
 40
0.24
300

 40
0.36
280
     3
 71
     2
340
5D
 90
       25
 62
   256
 71
     3
340
55
 62
   256
 40
0.24
 90
        1
 40
0.75
 90
        1
300
%<\AcVar ViewType \f "%tc1">% %<\AcVar ViewDetailId>%\PSCALE %<\AcVar ViewScale \f "%sn">%
 71
     4
340
5D
 90
       25
 62
   256
340
5D
 90
       25
 62
   256
280
     0
  0
LAYOUT
  5
6F
102
{ACAD_REACTORS
330
62
102
}
330
62
100
AcDbPlotSettings
  1

  2

  4

  6

 40
0.0
 41
0.0
 42
0.0
 43
0.0
 44
0.0
 45
0.0
 46
0.0
 47
0.0
 48
0.0
 49
0.0
140
0.0
141
0.0
142
1.0
143
1.0
 70
   688
 72
     0
 73
     0
 74
     5
  7

 75
    16
147
1.0
 76
     0
 77
     2
 78
   300
148
0.0
149
0.0
100
AcDbLayout
  1
Layout1
 70
     1
 71
     1
 10
0.0
 20
0.0
 11
12.0
 21
9.0
 12
0.0
 22
0.0
 32
0.0
 14
1.000000000000000E+20
 24
1.000000000000000E+20
 34
1.000000000000000E+20
 15
-1.000000000000000E+20
 25
-1.000000000000000E+20
 35
-1.000000000000000E+20
146
0.0
 13
0.0
 23
0.0
 33
0.0
 16
1.0
 26
0.0
 36
0.0
 17
0.0
 27
1.0
 37
0.0
 76
     0
330
6C
  0
LAYOUT
  5
77
102
{ACAD_REACTORS
330
62
102
}
330
62
100
AcDbPlotSettings
  1

  2

  4

  6

 40
0.0
 41
0.0
 42
0.0
 43
0.0
 44
0.0
 45
0.0
 46
0.0
 47
0.0
 48
0.0
 49
0.0
140
0.0
141
0.0
142
1.0
143
1.0
 70
   688
 72
     0
 73
     0
 74
     5
  7

 75
    16
147
1.0
 76
     0
 77
     2
 78
   300
148
0.0
149
0.0
100
AcDbLayout
  1
Layout2
 70
     1
 71
     2
 10
0.0
 20
0.0
 11
12.0
 21
9.0
 12
0.0
 22
0.0
 32
0.0
 14
0.0
 24
0.0
 34
0.0
 15
0.0
 25
0.0
 35
0.0
146
0.0
 13
0.0
 23
0.0
 33
0.0
 16
1.0
 26
0.0
 36
0.0
 17
0.0
 27
1.0
 37
0.0
 76
     0
330
74
  0
LAYOUT
  5
73
102
{ACAD_XDICTIONARY
360
F5F
102
}
102
{ACAD_REACTORS
330
62
102
}
330
62
100
AcDbPlotSettings
  1

  2

  4

  6

 40
0.0
 41
0.0
 42
0.0
 43
0.0
 44
0.0
 45
0.0
 46
0.0
 47
0.0
 48
0.0
 49
0.0
140
0.0
141
0.0
142
1.0
143
1.0
 70
  1712
 72
     0
 73
     0
 74
     0
  7

 75
     0
147
1.0
 76
     0
 77
     2
 78
   300
148
0.0
149
0.0
100
AcDbLayout
  1
Model
 70
     1
 71
     0
 10
0.0
 20
0.0
 11
12.0
 21
9.0
 12
0.0
 22
0.0
 32
0.0
 14
0.0
 24
0.0
 34
0.0
 15
0.0
 25
0.0
 35
0.0
146
0.0
 13
0.0
 23
0.0
 33
0.0
 16
1.0
 26
0.0
 36
0.0
 17
0.0
 27
1.0
 37
0.0
 76
     0
330
70
331
57
  0
MATERIAL
  5
19
102
{ACAD_XDICTIONARY
360
1A
102
}
102
{ACAD_REACTORS
330
10
102
}
330
10
100
AcDbMaterial
  1
ByBlock
 72
     0
 43
0.0208333333333333
 43
0.0
 43
0.0
 43
0.0
 43
0.0
 43
0.0208333333333333
 43
0.0
 43
0.0
 43
0.0
 43
0.0
 43
1.0
 43
0.0
 43
0.0
 43
0.0
 43
0.0
 43
1.0
 77
     0
 47
0.0208333333333333
 47
0.0
 47
0.0
 47
0.0
 47
0.0
 47
0.0208333333333333
 47
0.0
 47
0.0
 47
0.0
 47
0.0
 47
1.0
 47
0.0
 47
0.0
 47
0.0
 47
0.0
 47
1.0
171
     0
 49
0.0208333333333333
 49
0.0
 49
0.0
 49
0.0
 49
0.0
 49
0.0208333333333333
 49
0.0
 49
0.0
 49
0.0
 49
0.0
 49
1.0
 49
0.0
 49
0.0
 49
0.0
 49
0.0
 49
1.0
175
     0
142
0.0208333333333333
142
0.0
142
0.0
142
0.0
142
0.0
142
0.0208333333333333
142
0.0
142
0.0
142
0.0
142
0.0
142
1.0
142
0.0
142
0.0
142
0.0
142
0.0
142
1.0
179
     0
144
0.0208333333333333
144
0.0
144
0.0
144
0.0
144
0.0
144
0.0208333333333333
144
0.0
144
0.0
144
0.0
144
0.0
144
1.0
144
0.0
144
0.0
144
0.0
144
0.0
144
1.0
147
0.0208333333333333
147
0.0
147
0.0
147
0.0
147
0.0
147
0.0208333333333333
147
0.0
147
0.0
147
0.0
147
0.0
147
1.0
147
0.0
147
0.0
147
0.0
147
0.0
147
1.0
  0
MATERIAL
  5
11
102
{ACAD_XDICTIONARY
360
12
102
}
102
{ACAD_REACTORS
330
10
102
}
330
10
100
AcDbMaterial
  1
ByLayer
 72
     0
 43
0.0208333333333333
 43
0.0
 43
0.0
 43
0.0
 43
0.0
 43
0.0208333333333333
 43
0.0
 43
0.0
 43
0.0
 43
0.0
 43
1.0
 43
0.0
 43
0.0
 43
0.0
 43
0.0
 43
1.0
 77
     0
 47
0.0208333333333333
 47
0.0
 47
0.0
 47
0.0
 47
0.0
 47
0.0208333333333333
 47
0.0
 47
0.0
 47
0.0
 47
0.0
 47
1.0
 47
0.0
 47
0.0
 47
0.0
 47
0.0
 47
1.0
171
     0
 49
0.0208333333333333
 49
0.0
 49
0.0
 49
0.0
 49
0.0
 49
0.0208333333333333
 49
0.0
 49
0.0
 49
0.0
 49
0.0
 49
1.0
 49
0.0
 49
0.0
 49
0.0
 49
0.0
 49
1.0
175
     0
142
0.0208333333333333
142
0.0
142
0.0
142
0.0
142
0.0
142
0.0208333333333333
142
0.0
142
0.0
142
0.0
142
0.0
142
1.0
142
0.0
142
0.0
142
0.0
142
0.0
142
1.0
179
     0
144
0.0208333333333333
144
0.0
144
0.0
144
0.0
144
0.0
144
0.0208333333333333
144
0.0
144
0.0
144
0.0
144
0.0
144
1.0
144
0.0
144
0.0
144
0.0
144
0.0
144
1.0
147
0.0208333333333333
147
0.0
147
0.0
147
0.0
147
0.0
147
0.0208333333333333
147
0.0
147
0.0
147
0.0
147
0.0
147
1.0
147
0.0
147
0.0
147
0.0
147
0.0
147
1.0
  0
MATERIAL
  5
21
102
{ACAD_XDICTIONARY
360
22
102
}
102
{ACAD_REACTORS
330
10
102
}
330
10
100
AcDbMaterial
  1
Global
 72
     0
 43
0.0208333333333333
 43
0.0
 43
0.0
 43
0.0
 43
0.0
 43
0.0208333333333333
 43
0.0
 43
0.0
 43
0.0
 43
0.0
 43
1.0
 43
0.0
 43
0.0
 43
0.0
 43
0.0
 43
1.0
 77
     0
 47
0.0208333333333333
 47
0.0
 47
0.0
 47
0.0
 47
0.0
 47
0.0208333333333333
 47
0.0
 47
0.0
 47
0.0
 47
0.0
 47
1.0
 47
0.0
 47
0.0
 47
0.0
 47
0.0
 47
1.0
171
     0
 49
0.0208333333333333
 49
0.0
 49
0.0
 49
0.0
 49
0.0
 49
0.0208333333333333
 49
0.0
 49
0.0
 49
0.0
 49
0.0
 49
1.0
 49
0.0
 49
0.0
 49
0.0
 49
0.0
 49
1.0
175
     0
142
0.0208333333333333
142
0.0
142
0.0
142
0.0
142
0.0
142
0.0208333333333333
142
0.0
142
0.0
142
0.0
142
0.0
142
1.0
142
0.0
142
0.0
142
0.0
142
0.0
142
1.0
179
     0
144
0.0208333333333333
144
0.0
144
0.0
144
0.0
144
0.0
144
0.0208333333333333
144
0.0
144
0.0
144
0.0
144
0.0
144
1.0
144
0.0
144
0.0
144
0.0
144
0.0
144
1.0
147
0.0208333333333333
147
0.0
147
0.0
147
0.0
147
0.0
147
0.0208333333333333
147
0.0
147
0.0
147
0.0
147
0.0
147
1.0
147
0.0
147
0.0
147
0.0
147
0.0
147
1.0
  0
MLEADERSTYLE
  5
67
102
{ACAD_XDICTIONARY
360
1178
102
}
102
{ACAD_REACTORS
330
66
102
}
330
66
100
AcDbMLeaderStyle
179
     2
170
     2
171
     1
172
     0
 90
        2
 40
0.0
 41
0.0
173
     1
 91
-1056964608
340
5B
 92
       -2
290
     1
 42
0.09
291
     1
 43
0.36
  3
Standard
 44
0.18
300

342
55
174
     1
178
     6
175
     1
176
     0
 93
-1056964608
 45
0.18
292
     0
297
     0
 46
0.18
 94
-1056964608
 47
1.0
 49
1.0
140
1.0
293
     1
141
0.0
294
     1
177
     0
142
1.0
295
     0
296
     0
143
0.125
271
     0
272
     9
273
     9
  0
MLINESTYLE
  5
60
102
{ACAD_REACTORS
330
5F
102
}
330
5F
100
AcDbMlineStyle
  2
STANDARD
 70
     0
  3

 62
   256
 51
90.0
 52
90.0
 71
     2
 49
0.5
 62
   256
  6
BYLAYER
 49
-0.5
 62
   256
  6
BYLAYER
  0
ACDBPLACEHOLDER
  5
F
102
{ACAD_REACTORS
330
E
102
}
330
E
  0
SCALE
  5
43
102
{ACAD_REACTORS
330
42
102
}
330
42
100
AcDbScale
 70
     0
300
1:1
140
1.0
141
1.0
290
     1
  0
SCALE
  5
44
102
{ACAD_REACTORS
330
42
102
}
330
42
100
AcDbScale
 70
     0
300
1/128" = 1'-0"
140
0.0078125
141
12.0
290
     0
  0
SCALE
  5
45
102
{ACAD_REACTORS
330
42
102
}
330
42
100
AcDbScale
 70
     0
300
1/64" = 1'-0"
140
0.015625
141
12.0
290
     0
  0
SCALE
  5
46
102
{ACAD_REACTORS
330
42
102
}
330
42
100
AcDbScale
 70
     0
300
1/32" = 1'-0"
140
0.03125
141
12.0
290
     0
  0
SCALE
  5
47
102
{ACAD_REACTORS
330
42
102
}
330
42
100
AcDbScale
 70
     0
300
1/16" = 1'-0"
140
0.0625
141
12.0
290
     0
  0
SCALE
  5
48
102
{ACAD_REACTORS
330
42
102
}
330
42
100
AcDbScale
 70
     0
300
3/32" = 1'-0"
140
0.09375
141
12.0
290
     0
  0
SCALE
  5
49
102
{ACAD_REACTORS
330
42
102
}
330
42
100
AcDbScale
 70
     0
300
1/8" = 1'-0"
140
0.125
141
12.0
290
     0
  0
SCALE
  5
4A
102
{ACAD_REACTORS
330
42
102
}
330
42
100
AcDbScale
 70
     0
300
3/16" = 1'-0"
140
0.1875
141
12.0
290
     0
  0
SCALE
  5
4B
102
{ACAD_REACTORS
330
42
102
}
330
42
100
AcDbScale
 70
     0
300
1/4" = 1'-0"
140
0.25
141
12.0
290
     0
  0
SCALE
  5
4C
102
{ACAD_REACTORS
330
42
102
}
330
42
100
AcDbScale
 70
     0
300
3/8" = 1'-0"
140
0.375
141
12.0
290
     0
  0
SCALE
  5
4D
102
{ACAD_REACTORS
330
42
102
}
330
42
100
AcDbScale
 70
     0
300
1/2" = 1'-0"
140
0.5
141
12.0
290
     0
  0
SCALE
  5
4E
102
{ACAD_REACTORS
330
42
102
}
330
42
100
AcDbScale
 70
     0
300
3/4" = 1'-0"
140
0.75
141
12.0
290
     0
  0
SCALE
  5
4F
102
{ACAD_REACTORS
330
42
102
}
330
42
100
AcDbScale
 70
     0
300
1" = 1'-0"
140
1.0
141
12.0
290
     0
  0
SCALE
  5
50
102
{ACAD_REACTORS
330
42
102
}
330
42
100
AcDbScale
 70
     0
300
1-1/2" = 1'-0"
140
1.5
141
12.0
290
     0
  0
SCALE
  5
51
102
{ACAD_REACTORS
330
42
102
}
330
42
100
AcDbScale
 70
     0
300
3" = 1'-0"
140
3.0
141
12.0
290
     0
  0
SCALE
  5
52
102
{ACAD_REACTORS
330
42
102
}
330
42
100
AcDbScale
 70
     0
300
6" = 1'-0"
140
6.0
141
12.0
290
     0
  0
SCALE
  5
53
102
{ACAD_REACTORS
330
42
102
}
330
42
100
AcDbScale
 70
     0
300
1'-0" = 1'-0"
140
12.0
141
12.0
290
     0
  0
ACDBSECTIONVIEWSTYLE
  5
69
102
{ACAD_XDICTIONARY
360
117A
102
}
102
{ACAD_REACTORS
330
68
102
}
330
68
100
AcDbModelDocViewStyle
 70
     0
  3
Imperial24
290
     0
100
AcDbSectionViewStyle
 70
     0
 71
     0
 90
       78
 71
     1
340
55
 62
   256
 40
0.24
340
0
340
0
 62
   256
 40
0.24
300
I, O, Q, S, X, Z
 40
0.48
 90
        3
 40
0.18
 90
        1
 71
     2
340
5D
 90
       25
 62
   256
340
5D
 90
       50
 62
   256
 40
0.24
 40
0.0
 40
0.24
 71
     3
340
55
 62
   256
 40
0.24
 90
        1
 40
0.75
 90
        1
300
%<\AcVar ViewType \f "%tc1">% %<\AcVar ViewSectionStartId>%-%<\AcVar ViewSectionEndId>%\PSCALE %<\AcVar ViewScale \f "%sn">%
 71
     4
 62
   256
 62
   257
300
ANSI31
 40
1.0
 90
        0
290
     0
290
     0
 90
        6
 40
0.0
 40
1.570796326794896
 40
0.2617993877991494
 40
1.308996938995747
 40
-0.2617993877991494
 40
1.832595714594045
  0
TABLESTYLE
  5
65
102
{ACAD_XDICTIONARY
360
1101
102
}
102
{ACAD_REACTORS
330
64
102
}
330
64
100
AcDbTableStyle
280
     0
  3
Standard
 70
     0
 71
     0
 40
0.06
 41
0.06
280
     0
281
     0
  7
Standard
140
0.18
170
     2
 62
     0
 63
     7
283
     0
 90
      512
 91
        0
  1

274
    -2
284
     1
 64
     0
275
    -2
285
     1
 65
     0
276
    -2
286
     1
 66
     0
277
    -2
287
     1
 67
     0
278
    -2
288
     1
 68
     0
279
    -2
289
     1
 69
     0
  7
Standard
140
0.25
170
     5
 62
     0
 63
     7
283
     0
 90
      512
 91
        0
  1

274
    -2
284
     1
 64
     0
275
    -2
285
     1
 65
     0
276
    -2
286
     1
 66
     0
277
    -2
287
     1
 67
     0
278
    -2
288
     1
 68
     0
279
    -2
289
     1
 69
     0
  7
Standard
140
0.18
170
     5
 62
     0
 63
     7
283
     0
 90
      512
 91
        0
  1

274
    -2
284
     1
 64
     0
275
    -2
285
     1
 65
     0
276
    -2
286
     1
 66
     0
277
    -2
287
     1
 67
     0
278
    -2
288
     1
 68
     0
279
    -2
289
     1
 69
     0
  0
VISUALSTYLE
  5
2F
102
{ACAD_XDICTIONARY
360
1152
102
}
102
{ACAD_REACTORS
330
29
102
}
330
29
100
AcDbVisualStyle
  2
2dWireframe
 70
     4
177
     2
291
     0
 71
     0
176
     1
 72
     2
176
     1
 73
     0
176
     1
 90
        0
176
     1
 40
0.6
176
     1
 41
30.0
176
     1
 63
     7
421
 16777215
176
     1
 74
     1
176
     1
 91
        4
176
     1
 64
     7
176
     1
 65
   257
176
     1
 75
     1
176
     1
175
     1
176
     1
 42
1.0
176
     1
 92
        0
176
     1
 66
   257
176
     1
 43
1.0
176
     1
 76
     1
176
     1
 77
     6
176
     1
 78
     2
176
     1
 67
     7
176
     1
 79
     5
176
     1
170
     0
176
     1
171
     0
176
     1
290
     0
176
     1
 93
        1
176
     1
 44
0.0
176
     1
173
     0
176
     1
1001
ACAD
1000
AcDbSavedByObjectVersion
1070
     0
  0
VISUALSTYLE
  5
2E
102
{ACAD_XDICTIONARY
360
1150
102
}
102
{ACAD_REACTORS
330
29
102
}
330
29
100
AcDbVisualStyle
  2
Basic
 70
     7
177
     2
291
     1
 71
     1
176
     1
 72
     0
176
     1
 73
     1
176
     1
 90
        0
176
     1
 40
0.6
176
     1
 41
30.0
176
     1
 63
     7
421
 16777215
176
     1
 74
     0
176
     1
 91
        4
176
     1
 64
     7
176
     1
 65
   257
176
     1
 75
     1
176
     1
175
     1
176
     1
 42
1.0
176
     1
 92
        8
176
     1
 66
     7
176
     1
 43
1.0
176
     1
 76
     1
176
     1
 77
     6
176
     1
 78
     2
176
     1
 67
     7
176
     1
 79
     5
176
     1
170
     0
176
     1
171
     0
176
     1
290
     0
176
     1
 93
        1
176
     1
 44
0.0
176
     1
173
     0
176
     1
1001
ACAD
1000
AcDbSavedByObjectVersion
1070
     0
  0
VISUALSTYLE
  5
35
102
{ACAD_XDICTIONARY
360
115E
102
}
102
{ACAD_REACTORS
330
29
102
}
330
29
100
AcDbVisualStyle
  2
Brighten
 70
    12
177
     2
291
     1
 71
     2
176
     1
 72
     2
176
     1
 73
     0
176
     1
 90
        0
176
     1
 40
0.6
176
     1
 41
30.0
176
     1
 63
     7
421
 16777215
176
     1
 74
     1
176
     1
 91
        4
176
     1
 64
     7
176
     1
 65
   257
176
     1
 75
     1
176
     1
175
     1
176
     1
 42
1.0
176
     1
 92
        8
176
     1
 66
     7
176
     1
 43
1.0
176
     1
 76
     1
176
     1
 77
     6
176
     1
 78
     2
176
     1
 67
     7
176
     1
 79
     5
176
     1
170
     0
176
     1
171
     0
176
     1
290
     0
176
     1
 93
        1
176
     1
 44
50.0
176
     1
173
     0
176
     1
1001
ACAD
1000
AcDbSavedByObjectVersion
1070
     0
  0
VISUALSTYLE
  5
39
102
{ACAD_XDICTIONARY
360
1166
102
}
102
{ACAD_REACTORS
330
29
102
}
330
29
100
AcDbVisualStyle
  2
ColorChange
 70
    16
177
     2
291
     1
 71
     2
176
     1
 72
     2
176
     1
 73
     3
176
     1
 90
        0
176
     1
 40
0.6
176
     1
 41
30.0
176
     1
 63
     8
421
  8421504
176
     1
 74
     1
176
     1
 91
        4
176
     1
 64
     7
176
     1
 65
   257
176
     1
 75
     1
176
     1
175
     1
176
     1
 42
1.0
176
     1
 92
        8
176
     1
 66
     8
424
  8421504
176
     1
 43
1.0
176
     1
 76
     1
176
     1
 77
     6
176
     1
 78
     2
176
     1
 67
     7
176
     1
 79
     5
176
     1
170
     0
176
     1
171
     0
176
     1
290
     0
176
     1
 93
        1
176
     1
 44
0.0
176
     1
173
     0
176
     1
1001
ACAD
1000
AcDbSavedByObjectVersion
1070
     0
  0
VISUALSTYLE
  5
32
102
{ACAD_XDICTIONARY
360
1158
102
}
102
{ACAD_REACTORS
330
29
102
}
330
29
100
AcDbVisualStyle
  2
Conceptual
 70
     9
177
     2
291
     0
 71
     3
176
     1
 72
     2
176
     1
 73
     0
176
     1
 90
        0
176
     1
 40
0.6
176
     1
 41
30.0
176
     1
 63
     7
421
 16777215
176
     1
 74
     2
176
     1
 91
        2
176
     1
 64
     7
176
     1
 65
   257
176
     1
 75
     1
176
     1
175
     1
176
     1
 42
179.0
176
     1
 92
        8
176
     1
 66
     7
176
     1
 43
1.0
176
     1
 76
     1
176
     1
 77
     6
176
     1
 78
     2
176
     1
 67
     7
176
     1
 79
     3
176
     1
170
     0
176
     1
171
     0
176
     1
290
     0
176
     1
 93
        1
176
     1
 44
0.0
176
     1
173
     0
176
     1
1001
ACAD
1000
AcDbSavedByObjectVersion
1070
     0
  0
VISUALSTYLE
  5
34
102
{ACAD_XDICTIONARY
360
115C
102
}
102
{ACAD_REACTORS
330
29
102
}
330
29
100
AcDbVisualStyle
  2
Dim
 70
    11
177
     2
291
     1
 71
     2
176
     1
 72
     2
176
     1
 73
     0
176
     1
 90
        0
176
     1
 40
0.6
176
     1
 41
30.0
176
     1
 63
     7
421
 16777215
176
     1
 74
     1
176
     1
 91
        4
176
     1
 64
     7
176
     1
 65
   257
176
     1
 75
     1
176
     1
175
     1
176
     1
 42
1.0
176
     1
 92
        8
176
     1
 66
     7
176
     1
 43
1.0
176
     1
 76
     1
176
     1
 77
     6
176
     1
 78
     2
176
     1
 67
     7
176
     1
 79
     5
176
     1
170
     0
176
     1
171
     0
176
     1
290
     0
176
     1
 93
        1
176
     1
 44
-50.0
176
     1
173
     0
176
     1
1001
ACAD
1000
AcDbSavedByObjectVersion
1070
     0
  0
VISUALSTYLE
  5
41
102
{ACAD_XDICTIONARY
360
1176
102
}
102
{ACAD_REACTORS
330
29
102
}
330
29
100
AcDbVisualStyle
  2
EdgeColorOff
 70
    22
177
     2
291
     1
 71
     2
176
     0
 72
     2
176
     0
 73
     0
176
     0
 90
        0
176
     0
 40
0.6
176
     0
 41
30.0
176
     0
 63
     7
421
 16777215
176
     0
 74
     1
176
     0
 91
        4
176
     0
 64
     7
176
     0
 65
   257
176
     0
 75
     1
176
     0
175
     1
176
     0
 42
1.0
176
     0
 92
        8
176
     2
 66
     7
176
     0
 43
1.0
176
     0
 76
     1
176
     0
 77
     6
176
     0
 78
     2
176
     0
 67
     7
176
     0
 79
     5
176
     0
170
     0
176
     0
171
     0
176
     0
290
     0
176
     0
 93
        1
176
     0
 44
0.0
176
     0
173
     0
176
     0
1001
ACAD
1000
AcDbSavedByObjectVersion
1070
     0
  0
VISUALSTYLE
  5
38
102
{ACAD_XDICTIONARY
360
1164
102
}
102
{ACAD_REACTORS
330
29
102
}
330
29
100
AcDbVisualStyle
  2
Facepattern
 70
    15
177
     2
291
     1
 71
     2
176
     1
 72
     2
176
     1
 73
     0
176
     1
 90
        0
176
     1
 40
0.6
176
     1
 41
30.0
176
     1
 63
     7
421
 16777215
176
     1
 74
     1
176
     1
 91
        4
176
     1
 64
     7
176
     1
 65
   257
176
     1
 75
     1
176
     1
175
     1
176
     1
 42
1.0
176
     1
 92
        8
176
     1
 66
     7
176
     1
 43
1.0
176
     1
 76
     1
176
     1
 77
     6
176
     1
 78
     2
176
     1
 67
     7
176
     1
 79
     5
176
     1
170
     0
176
     1
171
     0
176
     1
290
     0
176
     1
 93
        1
176
     1
 44
0.0
176
     1
173
     0
176
     1
1001
ACAD
1000
AcDbSavedByObjectVersion
1070
     0
  0
VISUALSTYLE
  5
2A
102
{ACAD_XDICTIONARY
360
1148
102
}
102
{ACAD_REACTORS
330
29
102
}
330
29
100
AcDbVisualStyle
  2
Flat
 70
     0
177
     2
291
     1
 71
     2
176
     1
 72
     1
176
     1
 73
     1
176
     1
 90
        2
176
     1
 40
0.6
176
     1
 41
30.0
176
     1
 63
     7
421
 16777215
176
     1
 74
     0
176
     1
 91
        0
176
     1
 64
     7
176
     1
 65
   257
176
     1
 75
     1
176
     1
175
     1
176
     1
 42
1.0
176
     1
 92
        8
176
     1
 66
     7
176
     1
 43
1.0
176
     1
 76
     1
176
     1
 77
     6
176
     1
 78
     2
176
     1
 67
     7
176
     1
 79
     5
176
     1
170
     0
176
     1
171
     0
176
     1
290
     0
176
     1
 93
       13
176
     1
 44
0.0
176
     1
173
     0
176
     1
1001
ACAD
1000
AcDbSavedByObjectVersion
1070
     0
  0
VISUALSTYLE
  5
2B
102
{ACAD_XDICTIONARY
360
114A
102
}
102
{ACAD_REACTORS
330
29
102
}
330
29
100
AcDbVisualStyle
  2
FlatWithEdges
 70
     1
177
     2
291
     1
 71
     2
176
     1
 72
     1
176
     1
 73
     1
176
     1
 90
        2
176
     1
 40
0.6
176
     1
 41
30.0
176
     1
 63
     7
421
 16777215
176
     1
 74
     1
176
     1
 91
        0
176
     1
 64
     7
176
     1
 65
   257
176
     1
 75
     1
176
     1
175
     1
176
     1
 42
1.0
176
     1
 92
        0
176
     1
 66
   257
176
     1
 43
1.0
176
     1
 76
     1
176
     1
 77
     6
176
     1
 78
     2
176
     1
 67
     7
176
     1
 79
     5
176
     1
170
     0
176
     1
171
     0
176
     1
290
     0
176
     1
 93
       13
176
     1
 44
0.0
176
     1
173
     0
176
     1
1001
ACAD
1000
AcDbSavedByObjectVersion
1070
     0
  0
VISUALSTYLE
  5
2C
102
{ACAD_XDICTIONARY
360
114C
102
}
102
{ACAD_REACTORS
330
29
102
}
330
29
100
AcDbVisualStyle
  2
Gouraud
 70
     2
177
     2
291
     1
 71
     2
176
     1
 72
     2
176
     1
 73
     1
176
     1
 90
        2
176
     1
 40
0.6
176
     1
 41
30.0
176
     1
 63
     7
421
 16777215
176
     1
 74
     0
176
     1
 91
        0
176
     1
 64
     7
176
     1
 65
   257
176
     1
 75
     1
176
     1
175
     1
176
     1
 42
1.0
176
     1
 92
        0
176
     1
 66
     7
176
     1
 43
1.0
176
     1
 76
     1
176
     1
 77
     6
176
     1
 78
     2
176
     1
 67
     7
176
     1
 79
     5
176
     1
170
     0
176
     1
171
     0
176
     1
290
     0
176
     1
 93
       13
176
     1
 44
0.0
176
     1
173
     0
176
     1
1001
ACAD
1000
AcDbSavedByObjectVersion
1070
     0
  0
VISUALSTYLE
  5
2D
102
{ACAD_XDICTIONARY
360
114E
102
}
102
{ACAD_REACTORS
330
29
102
}
330
29
100
AcDbVisualStyle
  2
GouraudWithEdges
 70
     3
177
     2
291
     1
 71
     2
176
     1
 72
     2
176
     1
 73
     1
176
     1
 90
        2
176
     1
 40
0.6
176
     1
 41
30.0
176
     1
 63
     7
421
 16777215
176
     1
 74
     1
176
     1
 91
        0
176
     1
 64
     7
176
     1
 65
   257
176
     1
 75
     1
176
     1
175
     1
176
     1
 42
1.0
176
     1
 92
        0
176
     1
 66
   257
176
     1
 43
1.0
176
     1
 76
     1
176
     1
 77
     6
176
     1
 78
     2
176
     1
 67
     7
176
     1
 79
     5
176
     1
170
     0
176
     1
171
     0
176
     1
290
     0
176
     1
 93
       13
176
     1
 44
0.0
176
     1
173
     0
176
     1
1001
ACAD
1000
AcDbSavedByObjectVersion
1070
     0
  0
VISUALSTYLE
  5
31
102
{ACAD_XDICTIONARY
360
1156
102
}
102
{ACAD_REACTORS
330
29
102
}
330
29
100
AcDbVisualStyle
  2
Hidden
 70
     6
177
     2
291
     0
 71
     1
176
     1
 72
     2
176
     1
 73
     2
176
     1
 90
        0
176
     1
 40
0.6
176
     1
 41
30.0
176
     1
 63
     7
421
 16777215
176
     1
 74
     2
176
     1
 91
        2
176
     1
 64
     7
176
     1
 65
   257
176
     1
 75
     2
176
     1
175
     1
176
     1
 42
40.0
176
     1
 92
        0
176
     1
 66
   257
176
     1
 43
1.0
176
     1
 76
     1
176
     1
 77
     6
176
     1
 78
     2
176
     1
 67
     7
176
     1
 79
     3
176
     1
170
     0
176
     1
171
     0
176
     1
290
     0
176
     1
 93
        1
176
     1
 44
0.0
176
     1
173
     0
176
     1
1001
ACAD
1000
AcDbSavedByObjectVersion
1070
     0
  0
VISUALSTYLE
  5
3F
102
{ACAD_XDICTIONARY
360
1172
102
}
102
{ACAD_REACTORS
330
29
102
}
330
29
100
AcDbVisualStyle
  2
JitterOff
 70
    20
177
     2
291
     1
 71
     2
176
     0
 72
     2
176
     0
 73
     0
176
     0
 90
        0
176
     0
 40
0.6
176
     0
 41
30.0
176
     0
 63
     7
421
 16777215
176
     0
 74
     1
176
     0
 91
        4
176
     0
 64
     7
176
     0
 65
   257
176
     0
 75
     1
176
     0
175
     1
176
     0
 42
1.0
176
     0
 92
       10
176
     2
 66
     7
176
     0
 43
1.0
176
     0
 76
     1
176
     0
 77
     6
176
     0
 78
     2
176
     0
 67
     7
176
     0
 79
     5
176
     0
170
     0
176
     0
171
     0
176
     0
290
     0
176
     0
 93
        1
176
     0
 44
0.0
176
     0
173
     0
176
     0
1001
ACAD
1000
AcDbSavedByObjectVersion
1070
     0
  0
VISUALSTYLE
  5
37
102
{ACAD_XDICTIONARY
360
1162
102
}
102
{ACAD_REACTORS
330
29
102
}
330
29
100
AcDbVisualStyle
  2
Linepattern
 70
    14
177
     2
291
     1
 71
     2
176
     1
 72
     2
176
     1
 73
     0
176
     1
 90
        0
176
     1
 40
0.6
176
     1
 41
30.0
176
     1
 63
     7
421
 16777215
176
     1
 74
     1
176
     1
 91
        4
176
     1
 64
     7
176
     1
 65
   257
176
     1
 75
     7
176
     1
175
     7
176
     1
 42
1.0
176
     1
 92
        8
176
     1
 66
     7
176
     1
 43
1.0
176
     1
 76
     1
176
     1
 77
     6
176
     1
 78
     2
176
     1
 67
     7
176
     1
 79
     5
176
     1
170
     0
176
     1
171
     0
176
     1
290
     0
176
     1
 93
        1
176
     1
 44
0.0
176
     1
173
     0
176
     1
1001
ACAD
1000
AcDbSavedByObjectVersion
1070
     0
  0
VISUALSTYLE
  5
40
102
{ACAD_XDICTIONARY
360
1174
102
}
102
{ACAD_REACTORS
330
29
102
}
330
29
100
AcDbVisualStyle
  2
OverhangOff
 70
    21
177
     2
291
     1
 71
     2
176
     0
 72
     2
176
     0
 73
     0
176
     0
 90
        0
176
     0
 40
0.6
176
     0
 41
30.0
176
     0
 63
     7
421
 16777215
176
     0
 74
     1
176
     0
 91
        4
176
     0
 64
     7
176
     0
 65
   257
176
     0
 75
     1
176
     0
175
     1
176
     0
 42
1.0
176
     0
 92
        9
176
     2
 66
     7
176
     0
 43
1.0
176
     0
 76
     1
176
     0
 77
     6
176
     0
 78
     2
176
     0
 67
     7
176
     0
 79
     5
176
     0
170
     0
176
     0
171
     0
176
     0
290
     0
176
     0
 93
        1
176
     0
 44
0.0
176
     0
173
     0
176
     0
1001
ACAD
1000
AcDbSavedByObjectVersion
1070
     0
  0
VISUALSTYLE
  5
33
102
{ACAD_XDICTIONARY
360
115A
102
}
102
{ACAD_REACTORS
330
29
102
}
330
29
100
AcDbVisualStyle
  2
Realistic
 70
     8
177
     2
291
     0
 71
     2
176
     1
 72
     3
176
     1
 73
     0
176
     1
 90
        2
176
     1
 40
0.6
176
     1
 41
30.0
176
     1
 63
     7
421
 16777215
176
     1
 74
     0
176
     1
 91
        0
176
     1
 64
     7
176
     1
 65
   257
176
     1
 75
     1
176
     1
175
     1
176
     1
 42
1.0
176
     1
 92
        8
176
     1
 66
   257
176
     1
 43
1.0
176
     1
 76
     1
176
     1
 77
     6
176
     1
 78
     2
176
     1
 67
     7
176
     1
 79
     3
176
     1
170
     0
176
     1
171
     0
176
     1
290
     0
176
     1
 93
       13
176
     1
 44
0.0
176
     1
173
     0
176
     1
1001
ACAD
1000
AcDbSavedByObjectVersion
1070
     0
  0
VISUALSTYLE
  5
3E
102
{ACAD_XDICTIONARY
360
1170
102
}
102
{ACAD_REACTORS
330
29
102
}
330
29
100
AcDbVisualStyle
  2
Shaded
 70
    27
177
     2
291
     0
 71
     2
176
     1
 72
     2
176
     1
 73
     1
176
     1
 90
        2
176
     1
 40
0.6
176
     1
 41
30.0
176
     1
 63
     7
421
 16777215
176
     1
 74
     0
176
     1
 91
        4
176
     1
 64
     7
176
     1
 65
   257
176
     1
 75
     1
176
     1
175
     1
176
     1
 42
1.0
176
     1
 92
        8
176
     1
 66
   257
176
     1
 43
1.0
176
     1
 76
     1
176
     1
 77
     6
176
     1
 78
     2
176
     1
 67
     8
425
  7895160
176
     1
 79
     3
176
     1
170
     0
176
     1
171
     0
176
     1
290
     0
176
     1
 93
        5
176
     1
 44
0.0
176
     1
173
     0
176
     1
1001
ACAD
1000
AcDbSavedByObjectVersion
1070
     0
  0
VISUALSTYLE
  5
3D
102
{ACAD_XDICTIONARY
360
116E
102
}
102
{ACAD_REACTORS
330
29
102
}
330
29
100
AcDbVisualStyle
  2
Shaded with edges
 70
    26
177
     2
291
     0
 71
     2
176
     1
 72
     2
176
     1
 73
     1
176
     1
 90
        2
176
     1
 40
0.6
176
     1
 41
30.0
176
     1
 63
     7
421
 16777215
176
     1
 74
     1
176
     1
 91
        2
176
     1
 64
     7
176
     1
 65
   257
176
     1
 75
     2
176
     1
175
     1
176
     1
 42
1.0
176
     1
 92
        8
176
     1
 66
   257
176
     1
 43
1.0
176
     1
 76
     1
176
     1
 77
     6
176
     1
 78
     2
176
     1
 67
     7
176
     1
 79
     3
176
     1
170
     0
176
     1
171
     0
176
     1
290
     0
176
     1
 93
        5
176
     1
 44
0.0
176
     1
173
     0
176
     1
1001
ACAD
1000
AcDbSavedByObjectVersion
1070
     0
  0
VISUALSTYLE
  5
3A
102
{ACAD_XDICTIONARY
360
1168
102
}
102
{ACAD_REACTORS
330
29
102
}
330
29
100
AcDbVisualStyle
  2
Shades of Gray
 70
    23
177
     2
291
     0
 71
     2
176
     1
 72
     2
176
     1
 73
     3
176
     1
 90
        0
176
     1
 40
0.6
176
     1
 41
30.0
176
     1
 63
     7
421
 16777215
176
     1
 74
     2
176
     1
 91
        2
176
     1
 64
     7
176
     1
 65
     7
176
     1
 75
     1
176
     1
175
     1
176
     1
 42
40.0
176
     1
 92
        8
176
     1
 66
     7
176
     1
 43
1.0
176
     1
 76
     1
176
     1
 77
     6
176
     1
 78
     2
176
     1
 67
     7
176
     1
 79
     3
176
     1
170
     0
176
     1
171
     0
176
     1
290
     0
176
     1
 93
        1
176
     1
 44
0.0
176
     1
173
     0
176
     1
1001
ACAD
1000
AcDbSavedByObjectVersion
1070
     0
  0
VISUALSTYLE
  5
3B
102
{ACAD_XDICTIONARY
360
116A
102
}
102
{ACAD_REACTORS
330
29
102
}
330
29
100
AcDbVisualStyle
  2
Sketchy
 70
    24
177
     2
291
     0
 71
     1
176
     1
 72
     2
176
     1
 73
     2
176
     1
 90
        0
176
     1
 40
0.6
176
     1
 41
30.0
176
     1
 63
     7
421
 16777215
176
     1
 74
     2
176
     1
 91
        2
176
     1
 64
     7
176
     1
 65
     7
176
     1
 75
     1
176
     1
175
     1
176
     1
 42
40.0
176
     1
 92
       11
176
     1
 66
     7
176
     1
 43
1.0
176
     1
 76
     1
176
     1
 77
     6
176
     1
 78
     2
176
     1
 67
     7
176
     1
 79
     6
176
     1
170
     0
176
     1
171
     0
176
     1
290
     0
176
     1
 93
        1
176
     1
 44
0.0
176
     1
173
     0
176
     1
1001
ACAD
1000
AcDbSavedByObjectVersion
1070
     0
  0
VISUALSTYLE
  5
36
102
{ACAD_XDICTIONARY
360
1160
102
}
102
{ACAD_REACTORS
330
29
102
}
330
29
100
AcDbVisualStyle
  2
Thicken
 70
    13
177
     2
291
     1
 71
     2
176
     1
 72
     2
176
     1
 73
     0
176
     1
 90
        0
176
     1
 40
0.6
176
     1
 41
30.0
176
     1
 63
     7
421
 16777215
176
     1
 74
     1
176
     1
 91
        4
176
     1
 64
     7
176
     1
 65
   257
176
     1
 75
     1
176
     1
175
     1
176
     1
 42
1.0
176
     1
 92
       12
176
     1
 66
     7
176
     1
 43
1.0
176
     1
 76
     1
176
     1
 77
     6
176
     1
 78
     2
176
     1
 67
     7
176
     1
 79
     5
176
     1
170
     0
176
     1
171
     0
176
     1
290
     0
176
     1
 93
        1
176
     1
 44
0.0
176
     1
173
     0
176
     1
1001
ACAD
1000
AcDbSavedByObjectVersion
1070
     0
  0
VISUALSTYLE
  5
30
102
{ACAD_XDICTIONARY
360
1154
102
}
102
{ACAD_REACTORS
330
29
102
}
330
29
100
AcDbVisualStyle
  2
Wireframe
 70
     5
177
     2
291
     0
 71
     0
176
     1
 72
     2
176
     1
 73
     0
176
     1
 90
        0
176
     1
 40
0.6
176
     1
 41
30.0
176
     1
 63
     7
421
 16777215
176
     1
 74
     1
176
     1
 91
        4
176
     1
 64
     7
176
     1
 65
   257
176
     1
 75
     1
176
     1
175
     1
176
     1
 42
1.0
176
     1
 92
        0
176
     1
 66
   257
176
     1
 43
1.0
176
     1
 76
     1
176
     1
 77
     6
176
     1
 78
     2
176
     1
 67
     7
176
     1
 79
     3
176
     1
170
     0
176
     1
171
     0
176
     1
290
     0
176
     1
 93
        1
176
     1
 44
0.0
176
     1
173
     0
176
     1
1001
ACAD
1000
AcDbSavedByObjectVersion
1070
     0
  0
VISUALSTYLE
  5
3C
102
{ACAD_XDICTIONARY
360
116C
102
}
102
{ACAD_REACTORS
330
29
102
}
330
29
100
AcDbVisualStyle
  2
X-Ray
 70
    25
177
     2
291
     0
 71
     2
176
     1
 72
     2
176
     1
 73
     1
176
     1
 90
        1
176
     1
 40
0.5
176
     1
 41
30.0
176
     1
 63
     7
421
 16777215
176
     1
 74
     1
176
     1
 91
        0
176
     1
 64
     7
176
     1
 65
   257
176
     1
 75
     1
176
     1
175
     1
176
     1
 42
1.0
176
     1
 92
        8
176
     1
 66
     7
176
     1
 43
1.0
176
     1
 76
     1
176
     1
 77
     6
176
     1
 78
     2
176
     1
 67
     7
176
     1
 79
     3
176
     1
170
     0
176
     1
171
     0
176
     1
290
     0
176
     1
 93
       13
176
     1
 44
0.0
176
     1
173
     0
176
     1
1001
ACAD
1000
AcDbSavedByObjectVersion
1070
     0
  0
DICTIONARYVAR
  5
13B
102
{ACAD_REACTORS
330
136
102
}
330
136
100
DictionaryVariables
280
     0
  1
1:1
  0
DICTIONARYVAR
  5
138
102
{ACAD_REACTORS
330
136
102
}
330
136
100
DictionaryVariables
280
     0
  1
STANDARD
  0
DICTIONARYVAR
  5
137
102
{ACAD_REACTORS
330
136
102
}
330
136
100
DictionaryVariables
280
     0
  1
STANDARD
  0
DICTIONARYVAR
  5
139
102
{ACAD_REACTORS
330
136
102
}
330
136
100
DictionaryVariables
280
     0
  1
Imperial24
  0
DICTIONARYVAR
  5
13A
102
{ACAD_REACTORS
330
136
102
}
330
136
100
DictionaryVariables
280
     0
  1
Imperial24
  0
XRECORD
  5
133
102
{ACAD_REACTORS
330
131
102
}
330
131
100
AcDbXrecord
280
     1
  1
BUILDING_ID
  1
Flush_Valve-Urinal_Exposed-American_Standard-Ultima_Selectronic_6245
  1
FLOOR_ID
  1
35
  0
XRECORD
  5
132
102
{ACAD_REACTORS
330
131
102
}
330
131
100
AcDbXrecord
280
     1
  1
-2001160
  1
Plumbing Fixtures
  0
DICTIONARY
  5
117C
330
6B
100
AcDbDictionary
280
     1
281
     1
  3
ACAD_XREC_ROUNDTRIP
360
117D
  0
DICTIONARY
  5
F5F
330
73
100
AcDbDictionary
280
     1
281
     1
  3
ADSK_XREC_LAYOUTTHUMBNAIL
360
F60
  0
DICTIONARY
  5
1A
330
19
100
AcDbDictionary
280
     1
281
     1
  3
BUMPTILE
360
1C
  3
DIFFUSETILE
360
1B
  3
OPACITYTILE
360
1F
  3
REFLECTIONTILE
360
1E
  3
REFRACTIONTILE
360
20
  3
SPECULARTILE
360
1D
  0
DICTIONARY
  5
12
330
11
100
AcDbDictionary
280
     1
281
     1
  3
BUMPTILE
360
14
  3
DIFFUSETILE
360
13
  3
OPACITYTILE
360
17
  3
REFLECTIONTILE
360
16
  3
REFRACTIONTILE
360
18
  3
SPECULARTILE
360
15
  0
DICTIONARY
  5
22
330
21
100
AcDbDictionary
280
     1
281
     1
  3
BUMPTILE
360
24
  3
DIFFUSETILE
360
23
  3
OPACITYTILE
360
27
  3
REFLECTIONTILE
360
26
  3
REFRACTIONTILE
360
28
  3
SPECULARTILE
360
25
  0
DICTIONARY
  5
1178
330
67
100
AcDbDictionary
280
     1
281
     1
  3
ACAD_XREC_ROUNDTRIP
360
1179
  0
DICTIONARY
  5
117A
330
69
100
AcDbDictionary
280
     1
281
     1
  3
ACAD_XREC_ROUNDTRIP
360
117B
  0
DICTIONARY
  5
1101
330
65
100
AcDbDictionary
280
     1
281
     1
  3
ACAD_ROUNDTRIP_2008_TABLESTYLE_CELLSTYLEMAP
360
1146
  0
DICTIONARY
  5
1152
330
2F
100
AcDbDictionary
280
     1
281
     1
  3
ACAD_XREC_ROUNDTRIP
360
1153
  0
DICTIONARY
  5
1150
330
2E
100
AcDbDictionary
280
     1
281
     1
  3
ACAD_XREC_ROUNDTRIP
360
1151
  0
DICTIONARY
  5
115E
330
35
100
AcDbDictionary
280
     1
281
     1
  3
ACAD_XREC_ROUNDTRIP
360
115F
  0
DICTIONARY
  5
1166
330
39
100
AcDbDictionary
280
     1
281
     1
  3
ACAD_XREC_ROUNDTRIP
360
1167
  0
DICTIONARY
  5
1158
330
32
100
AcDbDictionary
280
     1
281
     1
  3
ACAD_XREC_ROUNDTRIP
360
1159
  0
DICTIONARY
  5
115C
330
34
100
AcDbDictionary
280
     1
281
     1
  3
ACAD_XREC_ROUNDTRIP
360
115D
  0
DICTIONARY
  5
1176
330
41
100
AcDbDictionary
280
     1
281
     1
  3
ACAD_XREC_ROUNDTRIP
360
1177
  0
DICTIONARY
  5
1164
330
38
100
AcDbDictionary
280
     1
281
     1
  3
ACAD_XREC_ROUNDTRIP
360
1165
  0
DICTIONARY
  5
1148
330
2A
100
AcDbDictionary
280
     1
281
     1
  3
ACAD_XREC_ROUNDTRIP
360
1149
  0
DICTIONARY
  5
114A
330
2B
100
AcDbDictionary
280
     1
281
     1
  3
ACAD_XREC_ROUNDTRIP
360
114B
  0
DICTIONARY
  5
114C
330
2C
100
AcDbDictionary
280
     1
281
     1
  3
ACAD_XREC_ROUNDTRIP
360
114D
  0
DICTIONARY
  5
114E
330
2D
100
AcDbDictionary
280
     1
281
     1
  3
ACAD_XREC_ROUNDTRIP
360
114F
  0
DICTIONARY
  5
1156
330
31
100
AcDbDictionary
280
     1
281
     1
  3
ACAD_XREC_ROUNDTRIP
360
1157
  0
DICTIONARY
  5
1172
330
3F
100
AcDbDictionary
280
     1
281
     1
  3
ACAD_XREC_ROUNDTRIP
360
1173
  0
DICTIONARY
  5
1162
330
37
100
AcDbDictionary
280
     1
281
     1
  3
ACAD_XREC_ROUNDTRIP
360
1163
  0
DICTIONARY
  5
1174
330
40
100
AcDbDictionary
280
     1
281
     1
  3
ACAD_XREC_ROUNDTRIP
360
1175
  0
DICTIONARY
  5
115A
330
33
100
AcDbDictionary
280
     1
281
     1
  3
ACAD_XREC_ROUNDTRIP
360
115B
  0
DICTIONARY
  5
1170
330
3E
100
AcDbDictionary
280
     1
281
     1
  3
ACAD_XREC_ROUNDTRIP
360
1171
  0
DICTIONARY
  5
116E
330
3D
100
AcDbDictionary
280
     1
281
     1
  3
ACAD_XREC_ROUNDTRIP
360
116F
  0
DICTIONARY
  5
1168
330
3A
100
AcDbDictionary
280
     1
281
     1
  3
ACAD_XREC_ROUNDTRIP
360
1169
  0
DICTIONARY
  5
116A
330
3B
100
AcDbDictionary
280
     1
281
     1
  3
ACAD_XREC_ROUNDTRIP
360
116B
  0
DICTIONARY
  5
1160
330
36
100
AcDbDictionary
280
     1
281
     1
  3
ACAD_XREC_ROUNDTRIP
360
1161
  0
DICTIONARY
  5
1154
330
30
100
AcDbDictionary
280
     1
281
     1
  3
ACAD_XREC_ROUNDTRIP
360
1155
  0
DICTIONARY
  5
116C
330
3C
100
AcDbDictionary
280
     1
281
     1
  3
ACAD_XREC_ROUNDTRIP
360
116D
  0
XRECORD
  5
117D
102
{ACAD_REACTORS
330
117C
102
}
330
117C
100
AcDbXrecord
280
     1
102
DISPLAYNAME
  1
Imperial24
102
FLAGS
 90
        0
  0
XRECORD
  5
F60
102
{ACAD_REACTORS
330
F5F
102
}
330
F5F
100
AcDbXrecord
280
     1
310
28000000000100007D0000000100080000000000007D00000100000001000000000100000000000000000066FFFFFF520000005600000050000000730000003200000031000000500000006F0000004F00000032330000466600006699000052CC000056FF00005000330073333300326633003199330050CC33006FFF3300
310
3200660018336600006666000099660000CC660000FF66000000990000339900006699000099990000CC990000FF99000000CC000033CC000066CC000099CC0000CCCC0000FFCC000000FF000033FF000066FF000099FF0000CCFF0000FFFF00010000331433003354660033539900336FCC003374FF003330003333303333
310
33726633337099333370CC333330FF3333000066331233663354666633539966336FCC663374FF66333000993330339933726699337099993331CC993300FF99330000CC330033CC330066CC330099CC3300CCCC3300FFCC330000FF330033FF330066FF330099FF3300CCFF3300FFFF330000006600330066006600660099
310
006600CC006600FF00660000336600333366006633660099336666CC336652FF33665600666650336666736666663299666631CC666650FF66666F0099664F339966336699664699996666CC996652FF99665600CC665033CC667366CC663299CC6631CCCC6650FFCC666F00FF663333FF661866FF660099FF6600CCFF6600
310
FFFF660000009900330099006600990099009900CC009900FF00990000339900333399006633990099339900CC339900FF33990000669900336699006666990099669900CC669900FF66990000999901339999146699995499999953CC99996FFF99997400CC993033CC993066CC997299CC9970CCCC9970FFCC993400FF99
310
0033FF991266FF995499FF9953CCFF996FFFFF99740000CC303300CC306600CC729900CC70CC00CC35FF00CC000033CC003333CC006633CC009933CC00CC33CC00FF33CC000066CC003366CC006666CC009966CC00CC66CC00FF66CC000099CC003399CC006699CC009999CC00CC99CC00FF99CC0000CCCC0033CCCC0066CC
310
CC0099CCCC00CCCCCC66FFCCCC5200FFCC5633FFCC5066FFCC7399FFCC32CCFFCC31FFFFCC500000FF6F3300FF4F6600FF339900FF46CC00FF66FF00FF520033FF563333FF506633FF739933FF32CC33FF31FF33FF500066FF6F3366FF336666FF5A9966FF00CC66FF14FF66FF540099FF533399FF6F6699FF749999FF30CC
310
99FF30FF99FF7200CCFF7033CCFF7066CCFF3799CCFF00CCCCFF12FFCCFF5400FFFF5333FFFF6F66FFFF7499FFFF30CCFFFF30FFFFFF72000000700D0D0D381A1A1A00282828003535356643434352505050565D5D5D506B6B6B73787878328686863193939350A1A1A16FAEAEAE4FBBBBBB33C9C9C946D6D6D666E4E4E452
310
F1F1F156FFFFFF50000000730000003200000031000000500000006F000000330000008C00000000000000F00000000000000000000000000000000000000000000000000000000000000000000000000000000000000000000000000000000000000000000000000000000000000000000000000000000000000000000000
310
00000000000000000000000000000000000000000000000000000000000000000000000000000000000000000000000000000000000000000000000000000000000000000000000000000000000000000000000000000000000000000000000000000000000000000000000000000000000000000000000000000000000000
310
00000000000000000000000000000000000000000000000000000000000000000000000000000000000000000000000000000000000000000000000000000000000000000000000000000000000000000000000000000000000000000000000000000000000000000000000000000000000000000000000000000000000000
310
00000000000000000000000000000000000000000000000000000000000000000000000000000000000000000000000000000000000000000000000000000000000000000000000000000000000000000000000000000000000000000000000000000000000000000000000000000000000000000000000000000000000000
310
00000000000000000000000000000000000000000000000000000000000000000000000000000000000000000000000000000000000000000000000000000000000000000000000000000000000000000000000000000000000000000000000000000000000000000000000000000000000000000000000000000000000000
310
00000000000000000000000000000000000000000000000000000000000000000000000000000000000000000000000000000000000000000000000000000000000000000000000000000000000000000000000000000000000000000000000000000000000000000000000000000000000000000000000000000000000000
310
00000000000000000000000000000000000000000000000000000000000000000000000000000000000000000000000000000000000000000000000000000000000000000000000000000000000000000000000000000000000000000000000000000000000000000000000000000000000000000000000000000000000000
310
00000000000000000000000000000000000000000000000000000000000000000000000000000000000000000000000000000000000000000000000000000000000000000000000000000000000000000000000000000000000000000000000000000000000000000000000000000000000000000000000000000000000000
310
00000000000000000000000000000000000000000000000000000000000000000000000000000000000000000000000000000000000000000000000000000000000000000000000000000000000000000000000000000000000000000000000000000000000000000000000000000000000000000000000000000000000000
310
00000000000000000000000000000000000000000000000000000000000000000000000000000000000000000000000000000000000000000000000000000000000000000000000000000000000000000000000000000000000000000000000000000000000000000000000000000000000000000000000000000000000000
310
00000000000000000000000000000000000000000000000000000000000000000000000000000000000000000000000000000000000000000000000000000000000000000000000000000000000000000000000000000000000000000000000000000000000000000000000000000000000000000000000000000000000000
310
00000000000000000000000000000000000000000000000000000000000000000000000000000000000000000000000000000000000000000000000000000000000000000000000000000000000000000000000000000000000000000000000000000000000000000000000000000000000000000000000000000000000000
310
00000000000000000000000000000000000000000000000000000000000000000000000000000000000000000000000000000000000000000000000000000000000000000000000000000000000000000000000000000000000000000000000000000000000000000000000000000000000000000000000000000000000000
310
00000000000000000000000000000000000000000000000000000000000000000000000000000000000000000000000000000000000000000000000000000000000000000000000000000000000000000000000000000000000000000000000000000000000000000000000000000000000000000000000000000000000000
310
00000000000000000000000000000000000000000000000000000000000000000000000000000000000000000000000000000000000000000000000000000000000000000000000000000000000000000000000000000000000000000000000000000000000000000000000000000000000000000000000000000000000000
310
00000000000000000000000000000000000000000000000000000000000000000000000000000000000000000000000000000000000000000000000000000000000000000000000000000000000000000000000000000000000000000000000000000000000000000000000000000000000000000000000000000000000000
310
00000000000000000000000000000000000000000000000000000000000000000000000000000000000000000000000000000000000000000000000000000000000000000000000000000000000000000000000000000000000000000000000000000000000000000000000000000000000000000000000000000000000000
310
00000000000000000000000000000000000000000000000000000000000000000000000000000000000000000000000000000000000000000000000000000000000000000000000000000000000000000000000000000000000000000000000000000000000000000000000000000000000000000000000000000000000000
310
00000000000000000000000000000000000000000000000000000000000000000000000000000000000000000000000000000000000000000000000000000000000000000000000000000000000000000000000000000000000000000000000000000000000000000000000000000000000000000000000000000000000000
310
00000000000000000000000000000000000000000000000000000000000000000000000000000000000000000000000000000000000000000000000000000000000000000000000000000000000000000000000000000000000000000000000000000000000000000000000000000000000000000000000000000000000000
310
00000000000000000000000000000000000000000000000000000000000000000000000000000000000000000000000000000000000000000000000000000000000000000000000000000000000000000000000000000000000000000000000000000000000000000000000000000000000000000000000000000000000000
310
00000000000000000000000000000000000000000000000000000000000000000000000000000000000000000000000000000000000000000000000000000000000000000000000000000000000000000000000000000000000000000000000000000000000000000000000000000000000000000000000000000000000000
310
00000000000000000000000000000000000000000000000000000000000000000000000000000000000000000000000000000000000000000000000000000000000000000000000000000000000000000000000000000000000000000000000000000000000000000000000000000000000000000000000000000000000000
310
00000000000000000000000000000000000000000000000000000000000000000000000000000000000000000000000000000000000000000000000000000000000000000000000000000000000000000000000000000000000000000000000000000000000000000000000000000000000000000000000000000000000000
310
00000000000000000000000000000000000000000000000000000000000000000000000000000000000000000000000000000000000000000000000000000000000000000000000000000000000000000000000000000000000000000000000000000000000000000000000000000000000000000000000000000000000000
310
00000000000000000000000000000000000000000000000000000000000000000000000000000000000000000000000000000000000000000000000000000000000000000000000000000000000000000000000000000000000000000000000000000000000000000000000000000000000000000000000000000000000000
310
00000000000000000000000000000000000000000000000000000000000000000000000000000000000000000000000000000000000000000000000000000000000000000000000000000000000000000000000000000000000000000000000000000000000000000000000000000000000000000000000000000000000000
310
00000000000000000000000000000000000000000000000000000000000000000000000000000000000000000000000000000000000000000000000000000000000000000000000000000000000000000000000000000000000000000000000000000000000000000000000000000000000000000000000000000000000000
310
00000000000000000000000000000000000000000000000000000000000000000000000000000000000000000000000000000000000000000000000000000000000000000000000000000000000000000000000000000000000000000000000000000000000000000000000000000000000000000000000000000000000000
310
00000000000000000000000000000000000000000000000000000000000000000000000000000000000000000000000000000000000000000000000000000000000000000000000000000000000000000000000000000000000000000000000000000000000000000000000000000000000000000000000000000000000000
310
00000000000000000000000000000000000000000000000000000000000000000000000000000000000000000000000000000000000000000000000000000000000000000000000000000000000000000000000000000000000000000000000000000000000000000000000000000000000000000000000000000000000000
310
00000000000000000000000000000000000000000000000000000000000000000000000000000000000000000000000000000000000000000000000000000000000000000000000000000000000000000000000000000000000000000000000000000000000000000000000000000000000000000000000000000000000000
310
00000000000000000000000000000000000000000000000000000000000000000000000000000000000000000000000000000000000000000000000000000000000000000000000000000000000000000000000000000000000000000000000000000000000000000000000000000000000000000000000000000000000000
310
00000000000000000000000000000000000000000000000000000000000000000000000000000000000000000000000000000000000000000000000000000000000000000000000000000000000000000000000000000000000000000000000000000000000000000000000000000000000000000000000000000000000000
310
00000000000000000000000000000000000000000000000000000000000000000000000000000000000000000000000000000000000000000000000000000000000000000000000000000000000000000000000000000000000000000000000000000000000000000000000000000000000000000000000000000000000000
310
00000000000000000000000000000000000000000000000000000000000000000000000000000000000000000000000000000000000000000000000000000000000000000000000000000000000000000000000000000000000000000000000000000000000000000000000000000000000000000000000000000000000000
310
00000000000000000000000000000000000000000000000000000000000000000000000000000000000000000000000000000000000000000000000000000000000000000000000000000000000000000000000000000000000000000000000000000000000000000000000000000000000000000000000000000000000000
310
00000000000000000000000000000000000000000000000000000000000000000000000000000000000000000000000000000000000000000000000000000000000000000000000000000000000000000000000000000000000000000000000000000000000000000000000000000000000000000000000000000000000000
310
00000000000000000000000000000000000000000000000000000000000000000000000000000000000000000000000000000000000000000000000000000000000000000000000000000000000000000000000000000000000000000000000000000000000000000000000000000000000000000000000000000000000000
310
00000000000000000000000000000000000000000000000000000000000000000000000000000000000000000000000000000000000000000000000000000000000000000000000000000000000000000000000000000000000000000000000000000000000000000000000000000000000000000000000000000000000000
310
00000000000000000000000000000000000000000000000000000000000000000000000000000000000000000000000000000000000000000000000000000000000000000000000000000000000000000000000000000000000000000000000000000000000000000000000000000000000000000000000000000000000000
310
00000000000000000000000000000000000000000000000000000000000000000000000000000000000000000000000000000000000000000000000000000000000000000000000000000000000000000000000000000000000000000000000000000000000000000000000000000000000000000000000000000000000000
310
00000000000000000000000000000000000000000000000000000000000000000000000000000000000000000000000000000000000000000000000000000000000000000000000000000000000000000000000000000000000000000000000000000000000000000000000000000000000000000000000000000000000000
310
00000000000000000000000000000000000000000000000000000000000000000000000000000000000000000000000000000000000000000000000000000000000000000000000000000000000000000000000000000000000000000000000000000000000000000000000000000000000000000000000000000000000000
310
00000000000000000000000000000000000000000000000000000000000000000000000000000000000000000000000000000000000000000000000000000000000000000000000000000000000000000000000000000000000000000000000000000000000000000000000000000000000000000000000000000000000000
310
00000000000000000000000000000000000000000000000000000000000000000000000000000000000000000000000000000000000000000000000000000000000000000000000000000000000000000000000000000000000000000000000000000000000000000000000000000000000000000000000000000000000000
310
00000000000000000000000000000000000000000000000000000000000000000000000000000000000000000000000000000000000000000000000000000000000000000000000000000000000000000000000000000000000000000000000000000000000000000000000000000000000000000000000000000000000000
310
00000000000000000000000000000000000000000000000000000000000000000000000000000000000000000000000000000000000000000000000000000000000000000000000000000000000000000000000000000000000000000000000000000000000000000000000000000000000000000000000000000000000000
310
00000000000000000000000000000000000000000000000000000000000000000000000000000000000000000000000000000000000000000000000000000000000000000000000000000000000000000000000000000000000000000000000000000000000000000000000000000000000000000000000000000000000000
310
00000000000000000000000000000000000000000000000000000000000000000000000000000000000000000000000000000000000000000000000000000000000000000000000000000000000000000000000000000000000000000000000000000000000000000000000000000000000000000000000000000000000000
310
00000000000000000000000000000000000000000000000000000000000000000000000000000000000000000000000000000000000000000000000000000000000000000000000000000000000000000000000000000000000000000000000000000000000000000000000000000000000000000000000000000000000000
310
00000000000000000000000000000000000000000000000000000000000000000000000000000000000000000000000000000000000000000000000000000000000000000000000000000000000000000000000000000000000000000000000000000000000000000000000000000000000000000000000000000000000000
310
00000000000000000000000000000000000000000000000000000000000000000000000000000000000000000000000000000000000000000000000000000000000000000000000000000000000000000000000000000000000000000000000000000000000000000000000000000000000000000000000000000000000000
310
00000000000000000000000000000000000000000000000000000000000000000000000000000000000000000000000000000000000000000000000000000000000000000000000000000000000000000000000000000000000000000000000000000000000000000000000000000000000000000000000000000000000000
310
00000000000000000000000000000000000000000000000000000000000000000000000000000000000000000000000000000000000000000000000000000000000000000000000000000000000000000000000000000000000000000000000000000000000000000000000000000000000000000000000000000000000000
310
00000000000000000000000000000000000000000000000000000000000000000000000000000000000000000000000000000000000000000000000000000000000000000000000000000000000000000000000000000000000000000000000000000000000000000000000000000000000000000000000000000000000000
310
00000000000000000000000000000000000000000000000000000000000000000000000000000000000000000000000000000000000000000000000000000000000000000000000000000000000000000000000000000000000000000000000000000000000000000000000000000000000000000000000000000000000000
310
00000000000000000000000000000000000000000000000000000000000000000000000000000000000000000000000000000000000000000000000000000000000000000000000000000000000000000000000000000000000000000000000000000000000000000000000000000000000000000000000000000000000000
310
00000000000000000000000000000000000000000000000000000000000000000000000000000000000000000000000000000000000000000000000000000000000000000000000000000000000000000000000000000000000000000000000000000000000000000000000000000000000000000000000000000000000000
310
00000000000000000000000000000000000000000000000000000000000000000000000000000000000000000000000000000000000000000000000000000000000000000000000000000000000000000000000000000000000000000000000000000000000000000000000000000000000000000000000000000000000000
310
00000000000000000000000000000000000000000000000000000000000000000000000000000000000000000000000000000000000000000000000000000000000000000000000000000000000000000000000000000000000000000000000000000000000000000000000000000000000000000000000000000000000000
310
00000000000000000000000000000000000000000000000000000000000000000000000000000000000000000000000000000000000000000000000000000000000000000000000000000000000000000000000000000000000000000000000000000000000000000000000000000000000000000000000000000000000000
310
00000000000000000000000000000000000000000000000000000000000000000000000000000000000000000000000000000000000000000000000000000000000000000000000000000000000000000000000000000000000000000000000000000000000000000000000000000000000000000000000000000000000000
310
00000000000000000000000000000000000000000000000000000000000000000000000000000000000000000000000000000000000000000000000000000000000000000000000000000000000000000000000000000000000000000000000000000000000000000000000000000000000000000000000000000000000000
310
00000000000000000000000000000000000000000000000000000000000000000000000000000000000000000000000000000000000000000000000000000000000000000000000000000000000000000000000000000000000000000000000000000000000000000000000000000000000000000000000000000000000000
310
00000000000000000000000000000000000000000000000000000000000000000000000000000000000000000000000000000000000000000000000000000000000000000000000000000000000000000000000000000000000000000000000000000000000000000000000000000000000000000000000000000000000000
310
00000000000000000000000000000000000000000000000000000000000000000000000000000000000000000000000000000000000000000000000000000000000000000000000000000000000000000000000000000000000000000000000000000000000000000000000000000000000000000000000000000000000000
310
00000000000000000000000000000000000000000000000000000000000000000000000000000000000000000000000000000000000000000000000000000000000000000000000000000000000000000000000000000000000000000000000000000000000000000000000000000000000000000000000000000000000000
310
00000000000000000000000000000000000000000000000000000000000000000000000000000000000000000000000000000000000000000000000000000000000000000000000000000000000000000000000000000000000000000000000000000000000000000000000000000000000000000000000000000000000000
310
00000000000000000000000000000000000000000000000000000000000000000000000000000000000000000000000000000000000000000000000000000000000000000000000000000000000000000000000000000000000000000000000000000000000000000000000000000000000000000000000000000000000000
310
00000000000000000000000000000000000000000000000000000000000000000000000000000000000000000000000000000000000000000000000000000000000000000000000000000000000000000000000000000000000000000000000000000000000000000000000000000000000000000000000000000000000000
310
000000000000000000000000000000000000000000000000000000000000000000000000000000000000000000000000000000000000000000F5F5F50000000000000000000000000000000000000000000000000000000000F5F5000000000000000000000000000000000000000000000000000000000000000000000000
310
00000000000000000000000000000000000000000000000000000000000000000000000000000000000000000000000000000000000000000000000000000000000000000000000000000000000000000000000000000000000000000000000000000000000000000000000000000000000000000000000000000000000000
310
000000000000000000000000000000000000000000000000000000000000000000000000000000000000000000000000000000000000000000F5F5F5F5F5F5F500000000000000000000000000000000000000000000000000F5F5F5F5F5F50000000000000000000000000000000000000000000000000000000000000000
310
00000000000000000000000000000000000000000000000000000000000000000000000000000000000000000000000000000000000000000000000000000000000000000000000000000000000000000000000000000000000000000000000000000000000000000000000000000000000000000000000000000000000000
310
0000000000000000000000000000000000000000000000000000000000000000000000000000000000000000000000000000000000000000000000F50000000000F500000000000000000000000000000000000000000000000000F500000000F5000000000000000000000000000000000000000000000000000000000000
310
00000000000000000000000000000000000000000000000000000000000000000000000000000000000000000000000000000000000000000000000000000000000000000000000000000000000000000000000000000000000000000000000000000000000000000000000000000000000000000000000000000000000000
310
00000000000000000000000000000000000000000000000000000000000000000000000000000000000000000000000000000000000000000000000000F5F5F5F5F5F5F500000000000000000000000000000000000000000000000000F5F5F5F5F5F500000000000000000000000000000000000000000000000000000000
310
00000000000000000000000000000000000000000000000000000000000000000000000000000000000000000000000000000000000000000000000000000000000000000000000000000000000000000000000000000000000000000000000000000000000000000000000000000000000000000000000000000000000000
310
00000000000000000000000000000000000000000000000000000000000000000000000000000000000000000000000000000000000000000000000000000000F5F5F5F5F5000000000000000000000000000000000000000000000000000000F5F5F5F5000000000000000000000000000000000000000000000000000000
310
00000000000000000000000000000000000000000000000000000000000000000000000000000000000000000000000000000000000000000000000000000000000000000000000000000000000000000000000000000000000000000000000000000000000000000000000000000000000000000000000000000000000000
310
00000000000000000000000000000000000000000000000000000000000000000000000000000000000000000000000000000000000000000000000000000000000000F500F50000000000000000000000000000000000000000000000000000000000F5F50000000000000000000000000000000000000000000000000000
310
00000000000000000000000000000000000000000000000000000000000000000000000000000000000000000000000000000000000000000000000000000000000000000000000000000000000000000000000000000000000000000000000000000000000000000000000000000000000000000000000000000000000000
310
000000000000000000000000000000000000000000000000000000000000000000000000000000000000000000000000000000000000000000000000000000000000000000F500F50000000000000000000000000000000000000000000000000000000000F5F5000000000000000000000000000000000000000000000000
310
00000000000000000000000000000000000000000000000000000000000000000000000000000000000000000000000000000000000000000000000000000000000000000000000000000000000000000000000000000000000000000000000000000000000000000000000000000000000000000000000000000000000000
310
0000000000000000000000000000000000000000000000000000000000000000000000000000000000000000000000000000000000000000000000000000000000000000000000F500F50000000000000000000000000000000000000000000000000000000000F5F500000000000000000000000000000000000000000000
310
00000000000000000000000000000000000000000000000000000000000000000000000000000000000000000000000000000000000000000000000000000000000000000000000000000000000000000000000000000000000000000000000000000000000000000000000000000000000000000000000000000000000000
310
00000000000000000000000000000000000000000000000000000000000000000000000000000000000000000000000000000000000000000000000000000000000000000000000000F500F50000000000000000000000000000000000000000000000000000000000F5F50000000000000000000000000000000000000000
310
00000000000000000000000000000000000000000000000000000000000000000000000000000000000000000000000000000000000000000000000000000000000000000000000000000000000000000000000000000000000000000000000000000000000000000000000000000000000000000000000000000000000000
310
000000000000000000000000000000000000000000000000000000000000000000000000000000000000000000000000000000000000000000000000000000000000000000000000000000F500F50000000000000000000000000000000000000000000000000000000000F5F5000000000000000000000000000000000000
310
00000000000000000000000000000000000000000000000000000000000000000000000000000000000000000000000000000000000000000000000000000000000000000000000000000000000000000000000000000000000000000000000000000000000000000000000000000000000000000000000000000000000000
310
0000000000000000000000000000000000000000000000000000000000000000000000000000000000000000000000000000000000000000000000000000000000000000000000000000000000F500F50000000000000000000000000000000000000000000000000000000000F5F500000000000000000000000000000000
310
00000000000000000000000000000000000000000000000000000000000000000000000000000000000000000000000000000000000000000000000000000000000000000000000000000000000000000000000000000000000000000000000000000000000000000000000000000000000000000000000000000000000000
310
00000000000000000000000000000000000000000000000000000000000000000000000000000000000000000000000000000000000000000000000000000000000000000000000000000000000000F500F50000000000000000000000000000000000000000000000000000000000F5F50000000000000000000000000000
310
00000000000000000000000000000000000000000000000000000000000000000000000000000000000000000000000000000000000000000000000000000000000000000000000000000000000000000000000000000000000000000000000000000000000000000000000000000000000000000000000000000000000000
310
000000000000000000000000000000000000000000000000000000000000000000000000000000000000000000000000000000000000000000000000000000000000000000000000000000000000000000F500F50000000000000000000000000000000000000000000000000000000000F5F5000000000000000000000000
310
00000000000000000000000000000000000000000000000000000000000000000000000000000000000000000000000000000000000000000000000000000000000000000000000000000000000000000000000000000000000000000000000000000000000000000000000000000000000000000000000000000000000000
310
0000000000000000000000000000000000000000000000000000000000000000000000000000000000000000000000000000000000000000000000000000000000000000000000000000000000000000000000F500F50000000000000000000000000000000000000000000000000000000000F5F500000000000000000000
310
00000000000000000000000000000000000000000000000000000000000000000000000000000000000000000000000000000000000000000000000000000000000000000000000000000000000000000000000000000000000000000000000000000000000000000000000000000000000000000000000000000000000000
310
00000000000000000000000000000000000000000000000000000000000000000000000000000000000000000000000000000000000000000000000000000000000000000000000000000000000000000000000000F5F5F50000000000000000000000000000000000000000000000000000000000F5F50000000000000000
310
00000000000000000000000000000000000000000000000000000000000000000000000000000000000000000000000000000000000000000000000000000000000000000000000000000000000000000000000000000000000000000000000000000000000000000000000000000000000000000000000000000000000000
310
0000000000000000000000000000000000000000000000000000000000000000000000000000000000000000000000000000000000000000000000000000000000000000000000000000000000000000000000000000F5F5F5F500000000000000000000000000000000000000000000000000000000F5F5F5F50000000000
310
00000000000000000000000000000000000000000000000000000000000000000000000000000000000000000000000000000000000000000000000000000000000000000000000000000000000000000000000000000000000000000000000000000000000000000000000000000000000000000000000000000000000000
310
00000000000000000000000000000000000000000000000000000000000000000000000000000000000000000000000000000000000000000000000000000000000000000000000000000000000000000000000000000000F50000F500000000000000000000000000000000000000000000000000000000F50000F5000000
310
00000000000000000000000000000000000000000000000000000000000000000000000000000000000000000000000000000000000000000000000000000000000000000000000000000000000000000000000000000000000000000000000000000000000000000000000000000000000000000000000000000000000000
310
000000000000000000000000000000000000000000000000000000000000000000000000000000000000000000000000000000000000000000000000000000000000000000000000000000000000000000000000000000000000F50000F500000000000000000000000000000000000000000000000000000000F50000F500
310
00000000000000000000000000000000000000000000000000000000000000000000000000000000000000000000000000000000000000000000000000000000000000000000000000000000000000000000000000000000000000000000000000000000000000000000000000000000000000000000000000000000000000
310
0000000000000000000000000000000000000000000000000000000000000000000000000000000000000000000000000000000000000000000000000000000000000000000000000000000000000000000000000000000000000000F50000F500000000000000000000000000000000000000000000000000000000F50000
310
F5000000000000000000000000000000000000000000000000000000000000000000000000000000000000000000000000000000000000000000000000000000000000000000000000000000000000000000000000000000000000000000000000000000000000000000000000000000000000000000000000000000000000
310
00000000000000000000000000000000000000000000000000000000000000000000000000000000000000000000000000000000000000000000000000000000000000000000000000000000000000000000000000000000000000000000F50000F500000000000000000000000000000000000000000000000000000000F5
310
0000F500000000000000000000000000000000000000000000000000000000000000000000000000000000000000000000000000000000000000000000000000000000000000000000000000000000000000000000000000000000000000000000000000000000000000000000000000000000000000000000000000000000
310
000000000000000000000000000000000000000000000000000000000000000000000000000000000000000000000000000000000000000000000000000000000000000000000000000000000000000000000000000000000000000000000000F50000F5000000000000000000000000000000000000000000000000000000
310
00F50000F50000000000000000000000000000000000000000000000000000000000000000000000000000000000000000000000000000000000000000000000000000000000000000000000000000000000000000000000000000000000000000000000000000000000000000000000000000000000000000000000000000
310
0000000000000000000000000000000000000000000000000000000000000000000000000000000000000000000000000000000000000000000000000000000000000000000000000000000000000000000000000000000000000000000000000000F5F5F5F5F5000000000000000000000000000000000000000000000000
310
0000F5F5F5F5F5F50000000000000000000000000000000000000000000000000000000000000000000000000000000000000000000000000000000000000000000000000000000000000000000000000000000000000000000000000000000000000000000000000000000000000000000000000000000000000000000000
310
000000000000000000000000000000000000000000000000000000000000000000000000000000000000000000000000000000000000000000000000000000000000000000000000000000000000000000000000000000000000000000000000000000F5F5F5F5F5F500000000000000000000000000000000000000000000
310
00000000F5F5F5F5F5F5000000000000000000000000000000000000000000000000000000000000000000000000000000000000000000000000000000000000000000000000000000000000000000000000000000000000000000000000000000000000000000000000000000000000000000000000000000000000000000
310
0000000000000000000000000000000000000000000000000000000000000000000000000000000000000000000000000000000000000000000000000000000000000000000000000000000000000000000000000000000000000000000000000000000000F500000000F50000000000000000000000000000000000000000
310
000000000000F500000000F500000000000000000000000000000000000000000000000000000000000000000000000000000000000000000000000000000000000000000000000000000000000000000000000000000000000000000000000000000000000000000000000000000000000000000000000000000000000000
310
00000000000000000000000000000000000000000000000000000000000000000000000000000000000000000000000000000000000000000000000000000000000000000000000000000000000000000000000000000000000000000000000000000000000000F5F5F5F5F5F5000000000000000000000000000000000000
310
0000000000000000F5F5F5F5F5F50000000000000000000000000000000000000000000000000000000000000000000000000000000000000000000000000000000000000000000000000000000000000000000000000000000000000000000000000000000000000000000000000000000000000000000000000000000000
310
000000000000000000000000000000000000000000000000000000000000000000000000000000000000000000000000000000000000000000000000000000000000000000000000000000000000000000000000000000000000000000000000000000000000F5F50000F5F5F5F5F500000000000000000000000000000000
310
00000000000000000000F5F5F5F5F500000000F500000000F5F5F5F5F5F500000000000000000000000000000000000000000000000000000000000000000000000000000000000000000000000000000000000000000000000000000000000000000000000000000000000000000000000000000000000000000000000000
310
0000000000000000000000000000000000000000000000000000000000000000000000000000000000000000000000000000000000000000000000000000000000000000000000000000000000000000000000000000000000000000000000000000000000000000F5F5F5F5F5000000F5F500000000000000000000000000
310
000000000000000000000000F500000000F5F5F5F5F5F5F5F5F5F5F5F5F5F5F5F500000000000000000000000000000000000000000000000000000000000000000000000000000000000000000000000000000000000000000000000000000000000000000000000000000000000000000000000000000000000000000000
310
00000000000000000000000000000000000000000000000000000000000000000000000000000000000000000000000000000000000000000000000000000000000000000000000000000000000000000000000000000000000000000000000000000000000000000000F5F5F5F500000000F5F5F500000000000000000000
310
0000000000000000000000000000F500000000F500F5F5F5F5F50000F5F5000000F5F50000000000000000000000000000000000000000000000000000000000000000000000000000000000000000000000000000000000000000000000000000000000000000000000000000000000000000000000000000000000000000
310
000000000000000000000000000000000000000000000000000000000000000000000000000000000000000000000000000000000000000000000000000000000000000000000000000000000000000000000000000000000000000000000000000000000000000000000000F5F5F5F50000000000F5F50000000000000000
310
000000000000000000000000000000F5F500000000F5F5F5F5F5F5F50000F5F5000000F5F5000000000000000000000000000000000000000000000000000000000000000000000000000000000000000000000000000000000000000000000000000000000000000000000000000000000000000000000000000000000000
310
0000000000000000000000000000000000000000000000000000000000000000000000000000000000000000000000000000000000000000000000000000000000000000000000000000000000000000000000000000000000000000000000000000000000000000000000000000F5F5F5F5F5F5F5F5F5F5F5000000000000
310
00000000000000000000000000000000F5F5F5F5F5F5F5F5F5F5F5F5F5F5F5F5F5F50000F5F5F500000000000000000000000000000000000000000000000000000000000000000000000000000000000000000000000000000000000000000000000000000000000000000000000000000000000000000000000000000000
310
00000000000000000000000000000000000000000000000000000000000000000000000000000000000000000000000000000000000000000000000000000000000000000000000000000000000000000000000000000000000000000000000000000000000000000000000000000000F5F50000000000000000F500000000
310
000000000000000000000000000000000000F500000000000000F5F5F5F5F5F5F5F5F5F5F5F5F5F5000000000000000000000000000000000000000000000000000000000000000000000000000000000000000000000000000000000000000000000000000000000000000000000000000000000000000000000000000000
310
000000000000000000000000000000000000000000000000000000000000000000000000000000000000000000000000000000000000000000000000000000000000000000000000000000000000000000000000000000000000000000000000000000000000000000000000000000000000F5F5F5F5F5F5F5F5F5F5F50000
310
0000000000000000000000000000000000000000F5F5F5F5F5F5F5F5F5F500000000000000F5F5F5F50000000000000000000000000000000000000000000000000000000000000000000000000000000000000000000000000000000000000000000000000000000000000000000000000000000000000000000000000000
310
0000000000000000000000000000000000000000000000000000000000000000000000000000000000000000000000000000000000000000000000000000000000000000000000000000000000000000000000000000000000000000000000000000000000000000000000000000000000000000F5F50000000000000000F5
310
00000000000000000000000000000000000000000000F50000000000000000F50000000000000000000000000000000000000000000000000000000000000000000000000000000000000000000000000000000000000000000000000000000000000000000000000000000000000000000000000000000000000000000000
310
00000000000000000000000000000000000000000000000000000000000000000000000000000000000000000000000000000000000000000000000000000000000000000000000000000000000000000000000000000000000000000000000000000000000000000000000000000000000000000000F5F5F5000000000000
310
00F500000000000000000000000000000000000000000000F50000000000000000F5000000000000000000000000000000000000000000000000000000000000000000000000000000000000000000000000000000000000000000000000000000000000000000000000000000000000000000000000000000000000000000
310
000000000000000000000000000000000000000000000000000000000000000000000000000000000000000000000000000000000000000000000000000000000000000000000000000000000000000000000000000000000000000000000000000000000000000000000000000000000000000000000000F5F5F500000000
310
000000F500000000000000000000000000000000000000000000F5000000F5F50000F50000000000000000000000000000000000000000000000000000000000000000000000000000000000000000000000000000000000000000000000000000000000000000000000000000000000000000000000000000000000000000
310
0000000000000000000000000000000000000000000000000000000000000000000000000000000000000000000000000000000000000000000000000000000000000000000000000000000000000000000000000000000000000000000000000000000000000000000000000000000000000000000000000000F5F5F50000
310
0000000000F50000000000000000000000000000000000000000000000F50000F5F50000F5000000000000000000000000000000000000000000000000000000000000000000000000000000000000000000000000000000000000000000000000000000000000000000000000000000000000000000000000000000000000
310
00000000000000000000000000000000000000000000000000000000000000000000000000000000000000000000000000000000000000000000000000000000000000000000000000000000000000000000000000000000000000000000000000000000000000000000000000000000000000000000000000000000F5F5F5
310
000000000000F5F50000000000000000000000000000000000000000000000F5F5F5F5F5F5F5F500000000000000000000000000000000000000000000000000000000000000000000000000000000000000000000000000000000000000000000000000000000000000000000000000000000000000000000000000000000
310
00000000000000000000000000000000000000000000000000000000000000000000000000000000000000000000000000000000000000000000000000000000000000000000000000000000000000000000000000000000000000000000000000000000000000000000000000000000000000000000000000000000000000
310
00F50000F5F5F5F5F5000000000000000000000000000000000000000000000000F500F5F5F50000F50000000000000000000000000000000000000000000000000000000000000000000000000000000000000000000000000000000000000000000000000000000000000000000000000000000000000000000000000000
310
00000000000000000000000000000000000000000000000000000000000000000000000000000000000000000000000000000000000000000000000000000000000000000000000000000000000000000000000000000000000000000000000000000000000000000000000000000000000000000000000000000000000000
310
000000F5F5F5F5F5000000000000000000000000000000000000000000000000000000F5F5F5F5F5F5F5F5000000000000000000000000000000000000000000000000000000000000000000000000000000000000000000000000000000000000000000000000000000000000000000000000000000000000000000000000
310
00000000000000000000000000000000000000000000000000000000000000000000000000000000000000000000000000000000000000000000000000000000000000000000000000000000000000000000000000000000000000000000000000000000000000000000000000000000000000000000000000000000000000
310
00000000000000000000000000000000000000000000000000000000000000000000000000000000000000000000000000000000000000000000000000000000000000000000000000000000000000000000000000000000000000000000000000000000000000000000000000000000000000000000000000000000000000
310
00000000000000000000000000000000000000000000000000000000000000000000000000000000000000000000000000000000000000000000000000000000000000000000000000000000000000000000000000000000000000000000000000000000000000000000000000000000000000000000000000000000000000
310
00000000000000000000000000000000000000000000000000000000000000000000000000000000000000000000000000000000000000000000000000000000000000000000000000000000000000000000000000000000000000000000000000000000000000000000000000000000000000000000000000000000000000
310
00000000000000000000000000000000000000000000000000000000000000000000000000000000000000000000000000000000000000000000000000000000000000000000000000000000000000000000000000000000000000000000000000000000000000000000000000000000000000000000000000000000000000
310
00000000000000000000000000000000000000000000000000000000000000000000000000000000000000000000000000000000000000000000000000000000000000000000000000000000000000000000000000000000000000000000000000000000000000000000000000000000000000000000000000000000000000
310
00000000000000000000000000000000000000000000000000000000000000000000000000000000000000000000000000000000000000000000000000000000000000000000000000000000000000000000000000000000000000000000000000000000000000000000000000000000000000000000000000000000000000
310
00000000000000000000000000000000000000000000000000000000000000000000000000000000000000000000000000000000000000000000000000000000000000000000000000000000000000000000000000000000000000000000000000000000000000000000000000000000000000000000000000000000000000
310
00000000000000000000000000000000000000000000000000000000000000000000000000000000000000000000000000000000000000000000000000000000000000000000000000000000000000000000000000000000000000000000000000000000000000000000000000000000000000000000000000000000000000
310
00000000000000000000000000000000000000000000000000000000000000000000000000000000000000000000000000000000000000000000000000000000000000000000000000000000000000000000000000000000000000000000000000000000000000000000000000000000000000000000000000000000000000
310
00000000000000000000000000000000000000000000000000000000000000000000000000000000000000000000000000000000000000000000000000000000000000000000000000000000000000000000000000000000000000000000000000000000000000000000000000000000000000000000000000000000000000
310
00000000000000000000000000000000000000000000000000000000000000000000000000000000000000000000000000000000000000000000000000000000000000000000000000000000000000000000000000000000000000000000000000000000000000000000000000000000000000000000000000000000000000
310
00000000000000000000000000000000000000000000000000000000000000000000000000000000000000000000000000000000000000000000000000000000000000000000000000000000000000000000000000000000000000000000000000000000000000000000000000000000000000000000000000000000000000
310
00000000000000000000000000000000000000000000000000000000000000000000000000000000000000000000000000000000000000000000000000000000000000000000000000000000000000000000000000000000000000000000000000000000000000000000000000000000000000000000000000000000000000
310
00000000000000000000000000000000000000000000000000000000000000000000000000000000000000000000000000000000000000000000000000000000000000000000000000000000000000000000000000000000000000000000000000000000000000000000000000000000000000000000000000000000000000
310
00000000000000000000000000000000000000000000000000000000000000000000000000000000000000000000000000000000000000000000000000000000000000000000000000000000000000000000000000000000000000000000000000000000000000000000000000000000000000000000000000000000000000
310
00000000000000000000000000000000000000000000000000000000000000000000000000000000000000000000000000000000000000000000000000000000000000000000000000000000000000000000000000000000000000000000000000000000000000000000000000000000000000000000000000000000000000
310
00000000000000000000000000000000000000000000000000000000000000000000000000000000000000000000000000000000000000000000000000000000000000000000000000000000000000000000000000000000000000000000000000000000000000000000000000000000000000000000000000000000000000
310
00000000000000000000000000000000000000000000000000000000000000000000000000000000000000000000000000000000000000000000000000000000000000000000000000000000000000000000000000000000000000000000000000000000000000000000000000000000000000000000000000000000000000
310
00000000000000000000000000000000000000000000000000000000000000000000000000000000000000000000000000000000000000000000000000000000000000000000000000000000000000000000000000000000000000000000000000000000000000000000000000000000000000000000000000000000000000
310
00000000000000000000000000000000000000000000000000000000000000000000000000000000000000000000000000000000000000000000000000000000000000000000000000000000000000000000000000000000000000000000000000000000000000000000000000000000000000000000000000000000000000
310
00000000000000000000000000000000000000000000000000000000000000000000000000000000000000000000000000000000000000000000000000000000000000000000000000000000000000000000000000000000000000000000000000000000000000000000000000000000000000000000000000000000000000
310
00000000000000000000000000000000000000000000000000000000000000000000000000000000000000000000000000000000000000000000000000000000000000000000000000000000000000000000000000000000000000000000000000000000000000000000000000000000000000000000000000000000000000
310
00000000000000000000000000000000000000000000000000000000000000000000000000000000000000000000000000000000000000000000000000000000000000000000000000000000000000000000000000000000000000000000000000000000000000000000000000000000000000000000000000000000000000
310
00000000000000000000000000000000000000000000000000000000000000000000000000000000000000000000000000000000000000000000000000000000000000000000000000000000000000000000000000000000000000000000000000000000000000000000000000000000000000000000000000000000000000
310
00000000000000000000000000000000000000000000000000000000000000000000000000000000000000000000000000000000000000000000000000000000000000000000000000000000000000000000000000000000000000000000000000000000000000000000000000000000000000000000000000000000000000
310
00000000000000000000000000000000000000000000000000000000000000000000000000000000000000000000000000000000000000000000000000000000000000000000000000000000000000000000000000000000000000000000000000000000000000000000000000000000000000000000000000000000000000
310
00000000000000000000000000000000000000000000000000000000000000000000000000000000000000000000000000000000000000000000000000000000F5F5F5F5F50000000000000000000000F5F5000000000000000000000000000000000000000000000000000000000000000000000000000000000000000000
310
00000000000000000000000000000000000000000000000000000000000000000000000000000000000000000000000000000000000000000000000000000000000000000000000000000000000000000000000000000000000000000000000000000000000000000000000000000000000000000000000000000000000000
310
0000000000000000000000000000000000000000000000000000000000000000000000000000000000000000000000000000000000000000000000000000000000F5F500F500F5F500000000F500000000F5F5F5F5F50000000000000000000000000000000000000000000000000000000000000000000000000000000000
310
00000000000000000000000000000000000000000000000000000000000000000000000000000000000000000000000000000000000000000000000000000000000000000000000000000000000000000000000000000000000000000000000000000000000000000000000000000000000000000000000000000000000000
310
000000000000000000000000000000000000000000000000000000000000000000000000000000000000000000000000000000000000000000000000000000000000F5F5F5F5F5F5F500F5F5F5F5F5F5F5F5F5F5F5F5F5F5000000000000000000000000000000000000000000000000000000000000000000000000000000
310
00000000000000000000000000000000000000000000000000000000000000000000000000000000000000000000000000000000000000000000000000000000000000000000000000000000000000000000000000000000000000000000000000000000000000000000000000000000000000000000000000000000000000
310
0000000000000000000000000000000000000000000000000000000000000000000000000000000000000000000000000000000000000000000000000000000000000000F5F5F5F500F500F5F5F5F500F5F5000000F50000F5F500000000000000000000000000000000000000000000000000000000000000000000000000
310
00000000000000000000000000000000000000000000000000000000000000000000000000000000000000000000000000000000000000000000000000000000000000000000000000000000000000000000000000000000000000000000000000000000000000000000000000000000000000000000000000000000000000
310
00000000000000000000000000000000000000000000000000000000000000000000000000000000000000000000000000000000000000000000000000000000000000000000F5F5F5000000F5F5F5F5F500F5F5000000000000F5F50000000000000000000000000000000000000000000000000000000000000000000000
310
00000000000000000000000000000000000000000000000000000000000000000000000000000000000000000000000000000000000000000000000000000000000000000000000000000000000000000000000000000000000000000000000000000000000000000000000000000000000000000000000000000000000000
310
000000000000000000000000000000000000000000000000000000000000000000000000000000000000000000000000000000000000000000000000000000000000000000000000F5F5F5F5F5F500F5F5F5F500F5F5000000000000F5F5000000000000000000000000000000000000000000000000000000000000000000
310
00000000000000000000000000000000000000000000000000000000000000000000000000000000000000000000000000000000000000000000000000000000000000000000000000000000000000000000000000000000000000000000000000000000000000000000000000000000000000000000000000000000000000
310
000000000000000000000000000000000000000000000000000000000000000000000000000000000000000000000000000000000000000000000000000000000000000000000000000000F5F5F5F5F5F500F5F5F5F5F5F5F5F5F5F50000F5F500000000000000000000000000000000000000000000000000000000000000
310
00000000000000000000000000000000000000000000000000000000000000000000000000000000000000000000000000000000000000000000000000000000000000000000000000000000000000000000000000000000000000000000000000000000000000000000000000000000000000000000000000000000000000
310
0000000000000000000000000000000000000000000000000000000000000000000000000000000000000000000000000000000000000000000000000000000000000000000000000000000000F5F5F5F5F5F5F500000000F500000000F5000000F50000000000000000000000000000000000000000000000000000000000
310
00000000000000000000000000000000000000000000000000000000000000000000000000000000000000000000000000000000000000000000000000000000000000000000000000000000000000000000000000000000000000000000000000000000000000000000000000000000000000000000000000000000000000
310
0000000000000000000000000000000000000000000000000000000000000000000000000000000000000000000000000000000000000000000000000000000000000000000000000000000000000000F5F5F5F50000000000000000000000F5F5F5F5F5000000000000000000000000000000000000000000000000000000
310
00000000000000000000000000000000000000000000000000000000000000000000000000000000000000000000000000000000000000000000000000000000000000000000000000000000000000000000000000000000000000000000000000000000000000000000000000000000000000000000000000000000000000
310
00000000000000000000000000000000000000000000000000000000000000000000000000000000000000000000000000000000000000000000000000000000000000000000000000000000000000000000F5F5F5F5F5F500000000000000F5F5F5000000F5F5000000000000000000000000000000000000000000000000
310
00000000000000000000000000000000000000000000000000000000000000000000000000000000000000000000000000000000000000000000000000000000000000000000000000000000000000000000000000000000000000000000000000000000000000000000000000000000000000000000000000000000000000
310
000000000000000000000000000000000000000000000000000000000000000000000000000000000000000000000000000000000000000000000000000000000000000000000000000000000000000000000000F5F5F5F5F5F500000000000000F5F5F5F5F5F5F5F500000000000000000000000000000000000000000000
310
00000000000000000000000000000000000000000000000000000000000000000000000000000000000000000000000000000000000000000000000000000000000000000000000000000000000000000000000000000000000000000000000000000000000000000000000000000000000000000000000000000000000000
310
00000000000000000000000000000000000000000000000000000000000000000000000000000000000000000000000000000000000000000000000000000000000000000000000000000000000000000000000000000000000000000000000000000000000000000000000000000000000000000000000000000000000000
310
00000000000000000000000000000000000000000000000000000000000000000000000000000000000000000000000000000000000000000000000000000000000000000000000000000000000000000000000000000000000000000000000000000000000000000000000000000000000000000000000000000000000000
310
00000000000000000000000000000000000000000000000000000000000000000000000000000000000000000000000000000000000000000000000000000000000000000000000000000000000000000000000000000000000000000000000000000000000000000000000000000000000000000000000000000000000000
310
00000000000000000000000000000000000000000000000000000000000000000000000000000000000000000000000000000000000000000000000000000000000000000000000000000000000000000000000000000000000000000000000000000000000000000000000000000000000000000000000000000000000000
310
00000000000000000000000000000000000000000000000000000000000000000000000000000000000000000000000000000000000000000000000000000000000000000000000000000000000000000000000000000000000000000000000000000000000000000000000000000000000000000000000000000000000000
310
00000000000000000000000000000000000000000000000000000000000000000000000000000000000000000000000000000000000000000000000000000000000000000000000000000000000000000000000000000000000000000000000000000000000000000000000000000000000000000000000000000000000000
310
00000000000000000000000000000000000000000000000000000000000000000000000000000000000000000000000000000000000000000000000000000000000000000000000000000000000000000000000000000000000000000000000000000000000000000000000000000000000000000000000000000000000000
310
00000000000000000000000000000000000000000000000000000000000000000000000000000000000000000000000000000000000000000000000000000000000000000000000000000000000000000000000000000000000000000000000000000000000000000000000000000000000000000000000000000000000000
310
00000000000000000000000000000000000000000000000000000000000000000000000000000000000000000000000000000000000000000000000000000000000000000000000000000000000000000000000000000000000000000000000000000000000000000000000000000000000000000000000000000000000000
310
00000000000000000000000000000000000000000000000000000000000000000000000000000000000000000000000000000000000000000000000000000000000000000000000000000000000000000000000000000000000000000000000000000000000000000000000000000000000000000000000000000000000000
310
00000000000000000000000000000000000000000000000000000000000000000000000000000000000000000000000000000000000000000000000000000000000000000000000000000000000000000000000000000000000000000000000000000000000000000000000000000000000000000000000000000000000000
310
00000000000000000000000000000000000000000000000000000000000000000000000000000000000000000000000000000000000000000000000000000000000000000000000000000000000000000000000000000000000000000000000000000000000000000000000000000000000000000000000000000000000000
310
00000000000000000000000000000000000000000000000000000000000000000000000000000000000000000000000000000000000000000000000000000000000000000000000000000000000000000000000000000000000000000000000000000000000000000000000000000000000000000000000000000000000000
310
00000000000000000000000000000000000000000000000000000000000000000000000000000000000000000000000000000000000000000000000000000000000000000000000000000000000000000000000000000000000000000000000000000000000000000000000000000000000000000000000000000000000000
310
00000000000000000000000000000000000000000000000000000000000000000000000000000000000000000000000000000000000000000000000000000000000000000000000000000000000000000000000000000000000000000000000000000000000000000000000000000000000000000000000000000000000000
310
00000000000000000000000000000000000000000000000000000000000000000000000000000000000000000000000000000000000000000000000000000000000000000000000000000000000000000000000000000000000000000000000000000000000000000000000000000000000000000000000000000000000000
310
00000000000000000000000000000000000000000000000000000000000000000000000000000000000000000000000000000000000000000000000000000000000000000000000000000000000000000000000000000000000000000000000000000000000000000000000000000000000000000000000000000000000000
310
00000000000000000000000000000000000000000000000000000000000000000000000000000000000000000000000000000000000000000000000000000000000000000000000000000000000000000000000000000000000000000000000000000000000000000000000000000000000000000000000000000000000000
310
00000000000000000000000000000000000000000000000000000000000000000000000000000000000000000000000000000000000000000000000000000000000000000000000000000000000000000000000000000000000000000000000000000000000000000000000000000000000000000000000000000000000000
310
00000000000000000000000000000000000000000000000000000000000000000000000000000000000000000000000000000000000000000000000000000000000000000000000000000000000000000000000000000000000000000000000000000000000000000000000000000000000000000000000000000000000000
310
00000000000000000000000000000000000000000000000000000000000000000000000000000000000000000000000000000000000000000000000000000000000000000000000000000000000000000000000000000000000000000000000000000000000000000000000000000000000000000000000000000000000000
310
00000000000000000000000000000000000000000000000000000000000000000000000000000000000000000000000000000000000000000000000000000000000000000000000000000000000000000000000000000000000000000000000000000000000000000000000000000000000000000000000000000000000000
310
00000000000000000000000000000000000000000000000000000000000000000000000000000000000000000000000000000000000000000000000000000000000000000000000000000000000000000000000000000000000000000000000000000000000000000000000000000000000000000000000000000000000000
310
00000000000000000000000000000000000000000000000000000000000000000000000000000000000000000000000000000000000000000000000000000000000000000000000000000000000000000000000000000000000000000000000000000000000000000000000000000000000000000000000000000000000000
310
00000000000000000000000000000000000000000000000000000000000000000000000000000000000000000000000000000000000000000000000000000000000000000000000000000000000000000000000000000000000000000000000000000000000000000000000000000000000000000000000000000000000000
310
00000000000000000000000000000000000000000000000000000000000000000000000000000000000000000000000000000000000000000000000000000000000000000000000000000000000000000000000000000000000000000000000000000000000000000000000000000000000000000000000000000000000000
310
00000000000000000000000000000000000000000000000000000000000000000000000000000000000000000000000000000000000000000000000000000000000000000000000000000000000000000000000000000000000000000000000000000000000000000000000000000000000000000000000000000000000000
310
00000000000000000000000000000000000000000000000000000000000000000000000000000000000000000000000000000000000000000000000000000000000000000000000000000000000000000000000000000000000000000000000000000000000000000000000000000000000000000000000000000000000000
310
00000000000000000000000000000000000000000000000000000000000000000000000000000000000000000000000000000000000000000000000000000000000000000000000000000000000000000000000000000000000000000000000000000000000000000000000000000000000000000000000000000000000000
310
00000000000000000000000000000000000000000000000000000000000000000000000000000000000000000000000000000000000000000000000000000000000000000000000000000000000000000000000000000000000000000000000000000000000000000000000000000000000000000000000000000000000000
310
00000000000000000000000000000000000000000000000000000000000000000000000000000000000000000000000000000000000000000000000000000000000000000000000000000000000000000000000000000000000000000000000000000000000000000000000000000000000000000000000000000000000000
310
00000000000000000000000000000000000000000000000000000000000000000000000000000000000000000000000000000000000000000000000000000000000000000000000000000000000000000000000000000000000000000000000000000000000000000000000000000000000000000000000000000000000000
310
00000000000000000000000000000000000000000000000000000000000000000000000000000000000000000000000000000000000000000000000000000000000000000000000000000000000000000000000000000000000000000000000000000000000000000000000000000000000000000000000000000000000000
310
00000000000000000000000000000000000000000000000000000000000000000000000000000000000000000000000000000000000000000000000000000000000000000000000000000000000000000000000000000000000000000000000000000000000000000000000000000000000000000000000000000000000000
310
00000000000000000000000000000000000000000000000000000000000000000000000000000000000000000000000000000000000000000000000000000000000000000000000000000000000000000000000000000000000000000000000000000000000000000000000000000000000000000000000000000000000000
310
00000000000000000000000000000000000000000000000000000000000000000000000000000000000000000000000000000000000000000000000000000000000000000000000000000000000000000000000000000000000000000000000000000000000000000000000000000000000000000000000000000000000000
310
00000000000000000000000000000000000000000000000000000000000000000000000000000000000000000000000000000000000000000000000000000000000000000000000000000000000000000000000000000000000000000000000000000000000000000000000000000000000000000000000000000000000000
310
00000000000000000000000000000000000000000000000000000000000000000000000000000000000000000000000000000000000000000000000000000000000000000000000000000000000000000000000000000000000000000000000000000000000000000000000000000000000000000000000000000000000000
310
00000000000000000000000000000000000000000000000000000000000000000000000000000000000000000000000000000000000000000000000000000000000000000000000000000000000000000000000000000000000000000000000000000000000000000000000000000000000000000000000000000000000000
310
00000000000000000000000000000000000000000000000000000000000000000000000000000000000000000000000000000000000000000000000000000000000000000000000000000000000000000000000000000000000000000000000000000000000000000000000000000000000000000000000000000000000000
310
00000000000000000000000000000000000000000000000000000000000000000000000000000000000000000000000000000000000000000000000000000000000000000000000000000000000000000000000000000000000000000000000000000000000000000000000000000000000000000000000000000000000000
310
00000000000000000000000000000000000000000000000000000000000000000000000000000000000000000000000000000000000000000000000000000000000000000000000000000000000000000000000000000000000000000000000000000000000000000000000000000000000000000000000000000000000000
310
00000000000000000000000000000000000000000000000000000000000000000000000000000000000000000000000000000000000000000000000000000000000000000000000000000000000000000000000000000000000000000000000000000000000000000000000000000000000000000000000000000000000000
310
00000000000000000000000000000000000000000000000000000000000000000000000000000000000000000000000000000000000000000000000000000000000000000000000000000000000000000000000000000000000000000000000000000000000000000000000000000000000000000000000000000000000000
310
00000000000000000000000000000000000000000000000000000000000000000000000000000000000000000000000000000000000000000000000000000000000000000000000000000000000000000000000000000000000000000000000000000000000000000000000000000000000000000000000000000000000000
310
00000000000000000000000000000000000000000000000000000000000000000000000000000000000000000000000000000000000000000000000000000000000000000000000000000000000000000000000000000000000000000000000000000000000000000000000000000000000000000000000000000000000000
310
00000000000000000000000000000000000000000000000000000000000000000000000000000000000000000000000000000000000000000000000000000000000000000000000000000000000000000000000000000000000000000000000000000000000000000000000000000000000000000000000000000000000000
310
00000000000000000000000000000000000000000000000000000000000000000000000000000000000000000000000000000000000000000000000000000000000000000000000000000000000000000000000000000000000000000000000000000000000000000000000000000000000000000000000000000000000000
310
00000000000000000000000000000000000000000000000000000000000000000000000000000000000000000000000000000000000000000000000000000000000000000000000000000000000000000000000000000000000000000000000000000000000000000000000000000000000000000000000000000000000000
310
00000000000000000000000000000000000000000000000000000000000000000000000000000000000000000000000000000000000000000000000000000000000000000000000000000000000000000000000000000000000000000000000000000000000000000000000000000000000000000000000000000000000000
310
00000000000000000000000000000000000000000000000000000000000000000000000000000000000000000000000000000000000000000000000000000000000000000000000000000000000000000000000000000000000000000000000000000000000000000000000000000000000000000000000000000000000000
310
00000000000000000000000000000000000000000000000000000000000000000000000000000000000000000000000000000000000000000000000000000000000000000000000000000000000000000000000000000000000000000000000000000000000000000000000000000000000000000000000000000000000000
310
00000000000000000000000000000000000000000000000000000000000000000000000000000000000000000000000000000000000000000000000000000000000000000000000000000000000000000000000000000000000000000000000000000000000000000000000000000000000000000000000000000000000000
310
00000000000000000000000000000000000000000000000000000000000000000000000000000000000000000000000000000000000000000000000000000000000000000000000000000000000000000000000000000000000000000000000000000000000000000000000000000000000000000000000000000000000000
310
0000000000000000000000000000000000000000000000000000000000000000000000000000000000000000
  0
XRECORD
  5
1C
102
{ACAD_REACTORS
330
1A
102
}
330
1A
100
AcDbXrecord
280
     1
270
     1
271
     1
  0
XRECORD
  5
1B
102
{ACAD_REACTORS
330
1A
102
}
330
1A
100
AcDbXrecord
280
     1
270
     1
271
     1
  0
XRECORD
  5
1F
102
{ACAD_REACTORS
330
1A
102
}
330
1A
100
AcDbXrecord
280
     1
270
     1
271
     1
  0
XRECORD
  5
1E
102
{ACAD_REACTORS
330
1A
102
}
330
1A
100
AcDbXrecord
280
     1
270
     1
271
     1
  0
XRECORD
  5
20
102
{ACAD_REACTORS
330
1A
102
}
330
1A
100
AcDbXrecord
280
     1
270
     1
271
     1
  0
XRECORD
  5
1D
102
{ACAD_REACTORS
330
1A
102
}
330
1A
100
AcDbXrecord
280
     1
270
     1
271
     1
  0
XRECORD
  5
14
102
{ACAD_REACTORS
330
12
102
}
330
12
100
AcDbXrecord
280
     1
270
     1
271
     1
  0
XRECORD
  5
13
102
{ACAD_REACTORS
330
12
102
}
330
12
100
AcDbXrecord
280
     1
270
     1
271
     1
  0
XRECORD
  5
17
102
{ACAD_REACTORS
330
12
102
}
330
12
100
AcDbXrecord
280
     1
270
     1
271
     1
  0
XRECORD
  5
16
102
{ACAD_REACTORS
330
12
102
}
330
12
100
AcDbXrecord
280
     1
270
     1
271
     1
  0
XRECORD
  5
18
102
{ACAD_REACTORS
330
12
102
}
330
12
100
AcDbXrecord
280
     1
270
     1
271
     1
  0
XRECORD
  5
15
102
{ACAD_REACTORS
330
12
102
}
330
12
100
AcDbXrecord
280
     1
270
     1
271
     1
  0
XRECORD
  5
24
102
{ACAD_REACTORS
330
22
102
}
330
22
100
AcDbXrecord
280
     1
270
     1
271
     1
  0
XRECORD
  5
23
102
{ACAD_REACTORS
330
22
102
}
330
22
100
AcDbXrecord
280
     1
270
     1
271
     1
  0
XRECORD
  5
27
102
{ACAD_REACTORS
330
22
102
}
330
22
100
AcDbXrecord
280
     1
270
     1
271
     1
  0
XRECORD
  5
26
102
{ACAD_REACTORS
330
22
102
}
330
22
100
AcDbXrecord
280
     1
270
     1
271
     1
  0
XRECORD
  5
28
102
{ACAD_REACTORS
330
22
102
}
330
22
100
AcDbXrecord
280
     1
270
     1
271
     1
  0
XRECORD
  5
25
102
{ACAD_REACTORS
330
22
102
}
330
22
100
AcDbXrecord
280
     1
270
     1
271
     1
  0
XRECORD
  5
1179
102
{ACAD_REACTORS
330
1178
102
}
330
1178
100
AcDbXrecord
280
     1
102
ACAD_ROUNDTRIP_2012_MLEADER_STYLE
298
     1
  0
XRECORD
  5
117B
102
{ACAD_REACTORS
330
117A
102
}
330
117A
100
AcDbXrecord
280
     1
102
DISPLAYNAME
  1
Imperial24
102
FLAGS
 90
        0
  0
CELLSTYLEMAP
  5
1146
102
{ACAD_REACTORS
330
1101
102
}
330
1101
100
AcDbCellStyleMap
 90
        3
300
CELLSTYLE
  1
TABLEFORMAT_BEGIN
 90
        5
170
     1
 91
        0
 92
    32768
 62
   257
 93
        1
300
CONTENTFORMAT
  1
CONTENTFORMAT_BEGIN
 90
        0
 91
        0
 92
      512
 93
        0
300

 40
0.0
140
1.0
 94
        5
 62
     0
340
55
144
0.25
309
CONTENTFORMAT_END
171
     1
301
MARGIN
  1
CELLMARGIN_BEGIN
 40
0.06
 40
0.06
 40
0.06
 40
0.06
 40
0.18
 40
0.18
309
CELLMARGIN_END
 94
        6
 95
        1
302
GRIDFORMAT
  1
GRIDFORMAT_BEGIN
 90
        0
 91
        1
 62
     0
 92
       -2
340
0
 93
        0
 40
0.045
309
GRIDFORMAT_END
 95
        2
302
GRIDFORMAT
  1
GRIDFORMAT_BEGIN
 90
        0
 91
        1
 62
     0
 92
       -2
340
0
 93
        0
 40
0.045
309
GRIDFORMAT_END
 95
        4
302
GRIDFORMAT
  1
GRIDFORMAT_BEGIN
 90
        0
 91
        1
 62
     0
 92
       -2
340
0
 93
        0
 40
0.045
309
GRIDFORMAT_END
 95
        8
302
GRIDFORMAT
  1
GRIDFORMAT_BEGIN
 90
        0
 91
        1
 62
     0
 92
       -2
340
0
 93
        0
 40
0.045
309
GRIDFORMAT_END
 95
       16
302
GRIDFORMAT
  1
GRIDFORMAT_BEGIN
 90
        0
 91
        1
 62
     0
 92
       -2
340
0
 93
        0
 40
0.045
309
GRIDFORMAT_END
 95
       32
302
GRIDFORMAT
  1
GRIDFORMAT_BEGIN
 90
        0
 91
        1
 62
     0
 92
       -2
340
0
 93
        0
 40
0.045
309
GRIDFORMAT_END
309
TABLEFORMAT_END
  1
CELLSTYLE_BEGIN
 90
        1
 91
        1
300
_TITLE
309
CELLSTYLE_END
300
CELLSTYLE
  1
TABLEFORMAT_BEGIN
 90
        5
170
     1
 91
        0
 92
        0
 62
   257
 93
        1
300
CONTENTFORMAT
  1
CONTENTFORMAT_BEGIN
 90
        0
 91
        0
 92
      512
 93
        0
300

 40
0.0
140
1.0
 94
        5
 62
     0
340
55
144
0.18
309
CONTENTFORMAT_END
171
     1
301
MARGIN
  1
CELLMARGIN_BEGIN
 40
0.06
 40
0.06
 40
0.06
 40
0.06
 40
0.18
 40
0.18
309
CELLMARGIN_END
 94
        6
 95
        1
302
GRIDFORMAT
  1
GRIDFORMAT_BEGIN
 90
        0
 91
        1
 62
     0
 92
       -2
340
0
 93
        0
 40
0.045
309
GRIDFORMAT_END
 95
        2
302
GRIDFORMAT
  1
GRIDFORMAT_BEGIN
 90
        0
 91
        1
 62
     0
 92
       -2
340
0
 93
        0
 40
0.045
309
GRIDFORMAT_END
 95
        4
302
GRIDFORMAT
  1
GRIDFORMAT_BEGIN
 90
        0
 91
        1
 62
     0
 92
       -2
340
0
 93
        0
 40
0.045
309
GRIDFORMAT_END
 95
        8
302
GRIDFORMAT
  1
GRIDFORMAT_BEGIN
 90
        0
 91
        1
 62
     0
 92
       -2
340
0
 93
        0
 40
0.045
309
GRIDFORMAT_END
 95
       16
302
GRIDFORMAT
  1
GRIDFORMAT_BEGIN
 90
        0
 91
        1
 62
     0
 92
       -2
340
0
 93
        0
 40
0.045
309
GRIDFORMAT_END
 95
       32
302
GRIDFORMAT
  1
GRIDFORMAT_BEGIN
 90
        0
 91
        1
 62
     0
 92
       -2
340
0
 93
        0
 40
0.045
309
GRIDFORMAT_END
309
TABLEFORMAT_END
  1
CELLSTYLE_BEGIN
 90
        2
 91
        1
300
_HEADER
309
CELLSTYLE_END
300
CELLSTYLE
  1
TABLEFORMAT_BEGIN
 90
        5
170
     1
 91
        0
 92
        0
 62
   257
 93
        1
300
CONTENTFORMAT
  1
CONTENTFORMAT_BEGIN
 90
        0
 91
        0
 92
      512
 93
        0
300

 40
0.0
140
1.0
 94
        2
 62
     0
340
55
144
0.18
309
CONTENTFORMAT_END
171
     1
301
MARGIN
  1
CELLMARGIN_BEGIN
 40
0.06
 40
0.06
 40
0.06
 40
0.06
 40
0.18
 40
0.18
309
CELLMARGIN_END
 94
        6
 95
        1
302
GRIDFORMAT
  1
GRIDFORMAT_BEGIN
 90
        0
 91
        1
 62
     0
 92
       -2
340
0
 93
        0
 40
0.045
309
GRIDFORMAT_END
 95
        2
302
GRIDFORMAT
  1
GRIDFORMAT_BEGIN
 90
        0
 91
        1
 62
     0
 92
       -2
340
0
 93
        0
 40
0.045
309
GRIDFORMAT_END
 95
        4
302
GRIDFORMAT
  1
GRIDFORMAT_BEGIN
 90
        0
 91
        1
 62
     0
 92
       -2
340
0
 93
        0
 40
0.045
309
GRIDFORMAT_END
 95
        8
302
GRIDFORMAT
  1
GRIDFORMAT_BEGIN
 90
        0
 91
        1
 62
     0
 92
       -2
340
0
 93
        0
 40
0.045
309
GRIDFORMAT_END
 95
       16
302
GRIDFORMAT
  1
GRIDFORMAT_BEGIN
 90
        0
 91
        1
 62
     0
 92
       -2
340
0
 93
        0
 40
0.045
309
GRIDFORMAT_END
 95
       32
302
GRIDFORMAT
  1
GRIDFORMAT_BEGIN
 90
        0
 91
        1
 62
     0
 92
       -2
340
0
 93
        0
 40
0.045
309
GRIDFORMAT_END
309
TABLEFORMAT_END
  1
CELLSTYLE_BEGIN
 90
        3
 91
        2
300
_DATA
309
CELLSTYLE_END
  0
XRECORD
  5
1153
102
{ACAD_REACTORS
330
1152
102
}
330
1152
100
AcDbXrecord
280
     1
102
RTVSPost2010Prop28
280
     1
102
RTVSPost2010PropOp28
 70
     1
102
RTVSPost2010Prop29
280
     1
102
RTVSPost2010PropOp29
 70
     1
102
RTVSPost2010Prop30
280
     0
102
RTVSPost2010PropOp30
 70
     1
102
RTVSPost2010Prop31
280
     0
102
RTVSPost2010PropOp31
 70
     1
102
RTVSPost2010Prop32
280
     0
102
RTVSPost2010PropOp32
 70
     1
102
RTVSPost2010Prop33
280
     0
102
RTVSPost2010PropOp33
 70
     1
102
RTVSPost2010Prop34
280
     0
102
RTVSPost2010PropOp34
 70
     1
102
RTVSPost2010Prop35
280
     0
102
RTVSPost2010PropOp35
 70
     1
102
RTVSPost2010Prop36
280
     0
102
RTVSPost2010PropOp36
 70
     1
102
RTVSPost2010Prop37
 90
       50
102
RTVSPost2010PropOp37
 70
     1
102
RTVSPost2010Prop38
140
0.0
102
RTVSPost2010PropOp38
 70
     1
102
RTVSPost2010Prop39
140
1.0
102
RTVSPost2010PropOp39
 70
     1
102
RTVSPost2010Prop40
 90
        0
102
RTVSPost2010PropOp40
 70
     1
102
RTVSPost2010Prop41ColorIndex
 90
       18
102
RTVSPost2010Prop41ColorRGB
 90
        0
102
RTVSPost2010PropOp41
 70
     1
102
RTVSPost2010Prop42
 90
       50
102
RTVSPost2010PropOp42
 70
     1
102
RTVSPost2010Prop43
 90
        3
102
RTVSPost2010PropOp43
 70
     1
102
RTVSPost2010Prop44ColorIndex
 90
        5
102
RTVSPost2010Prop44ColorRGB
 90
      255
102
RTVSPost2010PropOp44
 70
     1
102
RTVSPost2010Prop45
280
     0
102
RTVSPost2010PropOp45
 70
     1
102
RTVSPost2010Prop46
 90
       50
102
RTVSPost2010PropOp46
 70
     1
102
RTVSPost2010Prop47
 90
       50
102
RTVSPost2010PropOp47
 70
     1
102
RTVSPost2010Prop48
 90
       50
102
RTVSPost2010PropOp48
 70
     1
102
RTVSPost2010Prop49
280
     0
102
RTVSPost2010PropOp49
 70
     1
102
RTVSPost2010Prop50
 90
       50
102
RTVSPost2010PropOp50
 70
     1
102
RTVSPost2010Prop51ColorIndex
 90
      256
102
RTVSPost2010Prop51ColorRGB
 90
-16777216
102
RTVSPost2010PropOp51
 70
     0
102
RTVSPost2010Prop52
140
1.0
102
RTVSPost2010PropOp52
 70
     0
102
RTVSPost2010Prop53
 90
        2
102
RTVSPost2010PropOp53
 70
     1
102
RTVSPost2010Prop54
  1
strokes_ogs.tif
102
RTVSPost2010PropOp54
 70
     1
102
RTVSPost2010Prop55
280
     0
102
RTVSPost2010PropOp55
 70
     1
102
RTVSPost2010Prop56
140
1.0
102
RTVSPost2010PropOp56
 70
     1
102
RTVSPost2010Prop57
140
1.0
102
RTVSPost2010PropOp57
 70
     1
  0
XRECORD
  5
1151
102
{ACAD_REACTORS
330
1150
102
}
330
1150
100
AcDbXrecord
280
     1
102
RTVSPost2010Prop28
280
     0
102
RTVSPost2010PropOp28
 70
     1
102
RTVSPost2010Prop29
280
     1
102
RTVSPost2010PropOp29
 70
     1
102
RTVSPost2010Prop30
280
     1
102
RTVSPost2010PropOp30
 70
     1
102
RTVSPost2010Prop31
280
     0
102
RTVSPost2010PropOp31
 70
     1
102
RTVSPost2010Prop32
280
     0
102
RTVSPost2010PropOp32
 70
     1
102
RTVSPost2010Prop33
280
     0
102
RTVSPost2010PropOp33
 70
     1
102
RTVSPost2010Prop34
280
     0
102
RTVSPost2010PropOp34
 70
     1
102
RTVSPost2010Prop35
280
     0
102
RTVSPost2010PropOp35
 70
     1
102
RTVSPost2010Prop36
280
     0
102
RTVSPost2010PropOp36
 70
     1
102
RTVSPost2010Prop37
 90
       50
102
RTVSPost2010PropOp37
 70
     1
102
RTVSPost2010Prop38
140
0.0
102
RTVSPost2010PropOp38
 70
     1
102
RTVSPost2010Prop39
140
1.0
102
RTVSPost2010PropOp39
 70
     1
102
RTVSPost2010Prop40
 90
        0
102
RTVSPost2010PropOp40
 70
     1
102
RTVSPost2010Prop41ColorIndex
 90
       18
102
RTVSPost2010Prop41ColorRGB
 90
        0
102
RTVSPost2010PropOp41
 70
     1
102
RTVSPost2010Prop42
 90
       50
102
RTVSPost2010PropOp42
 70
     1
102
RTVSPost2010Prop43
 90
        3
102
RTVSPost2010PropOp43
 70
     1
102
RTVSPost2010Prop44ColorIndex
 90
        5
102
RTVSPost2010Prop44ColorRGB
 90
      255
102
RTVSPost2010PropOp44
 70
     1
102
RTVSPost2010Prop45
280
     0
102
RTVSPost2010PropOp45
 70
     1
102
RTVSPost2010Prop46
 90
       50
102
RTVSPost2010PropOp46
 70
     1
102
RTVSPost2010Prop47
 90
       50
102
RTVSPost2010PropOp47
 70
     1
102
RTVSPost2010Prop48
 90
       50
102
RTVSPost2010PropOp48
 70
     1
102
RTVSPost2010Prop49
280
     0
102
RTVSPost2010PropOp49
 70
     1
102
RTVSPost2010Prop50
 90
       50
102
RTVSPost2010PropOp50
 70
     1
102
RTVSPost2010Prop51ColorIndex
 90
      256
102
RTVSPost2010Prop51ColorRGB
 90
-16777216
102
RTVSPost2010PropOp51
 70
     0
102
RTVSPost2010Prop52
140
1.0
102
RTVSPost2010PropOp52
 70
     0
102
RTVSPost2010Prop53
 90
        2
102
RTVSPost2010PropOp53
 70
     1
102
RTVSPost2010Prop54
  1
strokes_ogs.tif
102
RTVSPost2010PropOp54
 70
     1
102
RTVSPost2010Prop55
280
     0
102
RTVSPost2010PropOp55
 70
     1
102
RTVSPost2010Prop56
140
1.0
102
RTVSPost2010PropOp56
 70
     1
102
RTVSPost2010Prop57
140
1.0
102
RTVSPost2010PropOp57
 70
     1
  0
XRECORD
  5
115F
102
{ACAD_REACTORS
330
115E
102
}
330
115E
100
AcDbXrecord
280
     1
102
RTVSPost2010Prop28
280
     0
102
RTVSPost2010PropOp28
 70
     1
102
RTVSPost2010Prop29
280
     1
102
RTVSPost2010PropOp29
 70
     1
102
RTVSPost2010Prop30
280
     1
102
RTVSPost2010PropOp30
 70
     1
102
RTVSPost2010Prop31
280
     0
102
RTVSPost2010PropOp31
 70
     1
102
RTVSPost2010Prop32
280
     0
102
RTVSPost2010PropOp32
 70
     1
102
RTVSPost2010Prop33
280
     0
102
RTVSPost2010PropOp33
 70
     1
102
RTVSPost2010Prop34
280
     0
102
RTVSPost2010PropOp34
 70
     1
102
RTVSPost2010Prop35
280
     0
102
RTVSPost2010PropOp35
 70
     1
102
RTVSPost2010Prop36
280
     0
102
RTVSPost2010PropOp36
 70
     1
102
RTVSPost2010Prop37
 90
       50
102
RTVSPost2010PropOp37
 70
     1
102
RTVSPost2010Prop38
140
0.0
102
RTVSPost2010PropOp38
 70
     1
102
RTVSPost2010Prop39
140
1.0
102
RTVSPost2010PropOp39
 70
     1
102
RTVSPost2010Prop40
 90
        0
102
RTVSPost2010PropOp40
 70
     1
102
RTVSPost2010Prop41ColorIndex
 90
       18
102
RTVSPost2010Prop41ColorRGB
 90
        0
102
RTVSPost2010PropOp41
 70
     1
102
RTVSPost2010Prop42
 90
       50
102
RTVSPost2010PropOp42
 70
     1
102
RTVSPost2010Prop43
 90
        3
102
RTVSPost2010PropOp43
 70
     1
102
RTVSPost2010Prop44ColorIndex
 90
        5
102
RTVSPost2010Prop44ColorRGB
 90
      255
102
RTVSPost2010PropOp44
 70
     1
102
RTVSPost2010Prop45
280
     0
102
RTVSPost2010PropOp45
 70
     1
102
RTVSPost2010Prop46
 90
       50
102
RTVSPost2010PropOp46
 70
     1
102
RTVSPost2010Prop47
 90
       50
102
RTVSPost2010PropOp47
 70
     1
102
RTVSPost2010Prop48
 90
       50
102
RTVSPost2010PropOp48
 70
     1
102
RTVSPost2010Prop49
280
     0
102
RTVSPost2010PropOp49
 70
     1
102
RTVSPost2010Prop50
 90
       50
102
RTVSPost2010PropOp50
 70
     1
102
RTVSPost2010Prop51ColorIndex
 90
      256
102
RTVSPost2010Prop51ColorRGB
 90
-16777216
102
RTVSPost2010PropOp51
 70
     0
102
RTVSPost2010Prop52
140
1.0
102
RTVSPost2010PropOp52
 70
     0
102
RTVSPost2010Prop53
 90
        2
102
RTVSPost2010PropOp53
 70
     1
102
RTVSPost2010Prop54
  1
strokes_ogs.tif
102
RTVSPost2010PropOp54
 70
     1
102
RTVSPost2010Prop55
280
     0
102
RTVSPost2010PropOp55
 70
     1
102
RTVSPost2010Prop56
140
1.0
102
RTVSPost2010PropOp56
 70
     1
102
RTVSPost2010Prop57
140
1.0
102
RTVSPost2010PropOp57
 70
     1
  0
XRECORD
  5
1167
102
{ACAD_REACTORS
330
1166
102
}
330
1166
100
AcDbXrecord
280
     1
102
RTVSPost2010Prop28
280
     0
102
RTVSPost2010PropOp28
 70
     1
102
RTVSPost2010Prop29
280
     1
102
RTVSPost2010PropOp29
 70
     1
102
RTVSPost2010Prop30
280
     1
102
RTVSPost2010PropOp30
 70
     1
102
RTVSPost2010Prop31
280
     0
102
RTVSPost2010PropOp31
 70
     1
102
RTVSPost2010Prop32
280
     0
102
RTVSPost2010PropOp32
 70
     1
102
RTVSPost2010Prop33
280
     0
102
RTVSPost2010PropOp33
 70
     1
102
RTVSPost2010Prop34
280
     0
102
RTVSPost2010PropOp34
 70
     1
102
RTVSPost2010Prop35
280
     0
102
RTVSPost2010PropOp35
 70
     1
102
RTVSPost2010Prop36
280
     0
102
RTVSPost2010PropOp36
 70
     1
102
RTVSPost2010Prop37
 90
       50
102
RTVSPost2010PropOp37
 70
     1
102
RTVSPost2010Prop38
140
0.0
102
RTVSPost2010PropOp38
 70
     1
102
RTVSPost2010Prop39
140
1.0
102
RTVSPost2010PropOp39
 70
     1
102
RTVSPost2010Prop40
 90
        0
102
RTVSPost2010PropOp40
 70
     1
102
RTVSPost2010Prop41ColorIndex
 90
       18
102
RTVSPost2010Prop41ColorRGB
 90
        0
102
RTVSPost2010PropOp41
 70
     1
102
RTVSPost2010Prop42
 90
       50
102
RTVSPost2010PropOp42
 70
     1
102
RTVSPost2010Prop43
 90
        3
102
RTVSPost2010PropOp43
 70
     1
102
RTVSPost2010Prop44ColorIndex
 90
        5
102
RTVSPost2010Prop44ColorRGB
 90
      255
102
RTVSPost2010PropOp44
 70
     1
102
RTVSPost2010Prop45
280
     0
102
RTVSPost2010PropOp45
 70
     1
102
RTVSPost2010Prop46
 90
       50
102
RTVSPost2010PropOp46
 70
     1
102
RTVSPost2010Prop47
 90
       50
102
RTVSPost2010PropOp47
 70
     1
102
RTVSPost2010Prop48
 90
       50
102
RTVSPost2010PropOp48
 70
     1
102
RTVSPost2010Prop49
280
     0
102
RTVSPost2010PropOp49
 70
     1
102
RTVSPost2010Prop50
 90
       50
102
RTVSPost2010PropOp50
 70
     1
102
RTVSPost2010Prop51ColorIndex
 90
      256
102
RTVSPost2010Prop51ColorRGB
 90
-16777216
102
RTVSPost2010PropOp51
 70
     0
102
RTVSPost2010Prop52
140
1.0
102
RTVSPost2010PropOp52
 70
     0
102
RTVSPost2010Prop53
 90
        2
102
RTVSPost2010PropOp53
 70
     1
102
RTVSPost2010Prop54
  1
strokes_ogs.tif
102
RTVSPost2010PropOp54
 70
     1
102
RTVSPost2010Prop55
280
     0
102
RTVSPost2010PropOp55
 70
     1
102
RTVSPost2010Prop56
140
1.0
102
RTVSPost2010PropOp56
 70
     1
102
RTVSPost2010Prop57
140
1.0
102
RTVSPost2010PropOp57
 70
     1
  0
XRECORD
  5
1159
102
{ACAD_REACTORS
330
1158
102
}
330
1158
100
AcDbXrecord
280
     1
102
RTVSPost2010Prop28
280
     0
102
RTVSPost2010PropOp28
 70
     1
102
RTVSPost2010Prop29
280
     1
102
RTVSPost2010PropOp29
 70
     1
102
RTVSPost2010Prop30
280
     1
102
RTVSPost2010PropOp30
 70
     1
102
RTVSPost2010Prop31
280
     0
102
RTVSPost2010PropOp31
 70
     1
102
RTVSPost2010Prop32
280
     0
102
RTVSPost2010PropOp32
 70
     1
102
RTVSPost2010Prop33
280
     0
102
RTVSPost2010PropOp33
 70
     1
102
RTVSPost2010Prop34
280
     0
102
RTVSPost2010PropOp34
 70
     1
102
RTVSPost2010Prop35
280
     0
102
RTVSPost2010PropOp35
 70
     1
102
RTVSPost2010Prop36
280
     0
102
RTVSPost2010PropOp36
 70
     1
102
RTVSPost2010Prop37
 90
       50
102
RTVSPost2010PropOp37
 70
     1
102
RTVSPost2010Prop38
140
0.0
102
RTVSPost2010PropOp38
 70
     1
102
RTVSPost2010Prop39
140
1.0
102
RTVSPost2010PropOp39
 70
     1
102
RTVSPost2010Prop40
 90
        0
102
RTVSPost2010PropOp40
 70
     1
102
RTVSPost2010Prop41ColorIndex
 90
       18
102
RTVSPost2010Prop41ColorRGB
 90
        0
102
RTVSPost2010PropOp41
 70
     1
102
RTVSPost2010Prop42
 90
       50
102
RTVSPost2010PropOp42
 70
     1
102
RTVSPost2010Prop43
 90
        3
102
RTVSPost2010PropOp43
 70
     1
102
RTVSPost2010Prop44ColorIndex
 90
        5
102
RTVSPost2010Prop44ColorRGB
 90
      255
102
RTVSPost2010PropOp44
 70
     1
102
RTVSPost2010Prop45
280
     0
102
RTVSPost2010PropOp45
 70
     1
102
RTVSPost2010Prop46
 90
       50
102
RTVSPost2010PropOp46
 70
     1
102
RTVSPost2010Prop47
 90
       50
102
RTVSPost2010PropOp47
 70
     1
102
RTVSPost2010Prop48
 90
       50
102
RTVSPost2010PropOp48
 70
     1
102
RTVSPost2010Prop49
280
     0
102
RTVSPost2010PropOp49
 70
     1
102
RTVSPost2010Prop50
 90
       50
102
RTVSPost2010PropOp50
 70
     1
102
RTVSPost2010Prop51ColorIndex
 90
      256
102
RTVSPost2010Prop51ColorRGB
 90
-16777216
102
RTVSPost2010PropOp51
 70
     0
102
RTVSPost2010Prop52
140
1.0
102
RTVSPost2010PropOp52
 70
     0
102
RTVSPost2010Prop53
 90
        2
102
RTVSPost2010PropOp53
 70
     1
102
RTVSPost2010Prop54
  1
strokes_ogs.tif
102
RTVSPost2010PropOp54
 70
     1
102
RTVSPost2010Prop55
280
     0
102
RTVSPost2010PropOp55
 70
     1
102
RTVSPost2010Prop56
140
1.0
102
RTVSPost2010PropOp56
 70
     1
102
RTVSPost2010Prop57
140
1.0
102
RTVSPost2010PropOp57
 70
     1
  0
XRECORD
  5
115D
102
{ACAD_REACTORS
330
115C
102
}
330
115C
100
AcDbXrecord
280
     1
102
RTVSPost2010Prop28
280
     0
102
RTVSPost2010PropOp28
 70
     1
102
RTVSPost2010Prop29
280
     1
102
RTVSPost2010PropOp29
 70
     1
102
RTVSPost2010Prop30
280
     1
102
RTVSPost2010PropOp30
 70
     1
102
RTVSPost2010Prop31
280
     0
102
RTVSPost2010PropOp31
 70
     1
102
RTVSPost2010Prop32
280
     0
102
RTVSPost2010PropOp32
 70
     1
102
RTVSPost2010Prop33
280
     0
102
RTVSPost2010PropOp33
 70
     1
102
RTVSPost2010Prop34
280
     0
102
RTVSPost2010PropOp34
 70
     1
102
RTVSPost2010Prop35
280
     0
102
RTVSPost2010PropOp35
 70
     1
102
RTVSPost2010Prop36
280
     0
102
RTVSPost2010PropOp36
 70
     1
102
RTVSPost2010Prop37
 90
       50
102
RTVSPost2010PropOp37
 70
     1
102
RTVSPost2010Prop38
140
0.0
102
RTVSPost2010PropOp38
 70
     1
102
RTVSPost2010Prop39
140
1.0
102
RTVSPost2010PropOp39
 70
     1
102
RTVSPost2010Prop40
 90
        0
102
RTVSPost2010PropOp40
 70
     1
102
RTVSPost2010Prop41ColorIndex
 90
       18
102
RTVSPost2010Prop41ColorRGB
 90
        0
102
RTVSPost2010PropOp41
 70
     1
102
RTVSPost2010Prop42
 90
       50
102
RTVSPost2010PropOp42
 70
     1
102
RTVSPost2010Prop43
 90
        3
102
RTVSPost2010PropOp43
 70
     1
102
RTVSPost2010Prop44ColorIndex
 90
        5
102
RTVSPost2010Prop44ColorRGB
 90
      255
102
RTVSPost2010PropOp44
 70
     1
102
RTVSPost2010Prop45
280
     0
102
RTVSPost2010PropOp45
 70
     1
102
RTVSPost2010Prop46
 90
       50
102
RTVSPost2010PropOp46
 70
     1
102
RTVSPost2010Prop47
 90
       50
102
RTVSPost2010PropOp47
 70
     1
102
RTVSPost2010Prop48
 90
       50
102
RTVSPost2010PropOp48
 70
     1
102
RTVSPost2010Prop49
280
     0
102
RTVSPost2010PropOp49
 70
     1
102
RTVSPost2010Prop50
 90
       50
102
RTVSPost2010PropOp50
 70
     1
102
RTVSPost2010Prop51ColorIndex
 90
      256
102
RTVSPost2010Prop51ColorRGB
 90
-16777216
102
RTVSPost2010PropOp51
 70
     0
102
RTVSPost2010Prop52
140
1.0
102
RTVSPost2010PropOp52
 70
     0
102
RTVSPost2010Prop53
 90
        2
102
RTVSPost2010PropOp53
 70
     1
102
RTVSPost2010Prop54
  1
strokes_ogs.tif
102
RTVSPost2010PropOp54
 70
     1
102
RTVSPost2010Prop55
280
     0
102
RTVSPost2010PropOp55
 70
     1
102
RTVSPost2010Prop56
140
1.0
102
RTVSPost2010PropOp56
 70
     1
102
RTVSPost2010Prop57
140
1.0
102
RTVSPost2010PropOp57
 70
     1
  0
XRECORD
  5
1177
102
{ACAD_REACTORS
330
1176
102
}
330
1176
100
AcDbXrecord
280
     1
102
RTVSPost2010Prop28
280
     0
102
RTVSPost2010PropOp28
 70
     0
102
RTVSPost2010Prop29
280
     1
102
RTVSPost2010PropOp29
 70
     0
102
RTVSPost2010Prop30
280
     1
102
RTVSPost2010PropOp30
 70
     0
102
RTVSPost2010Prop31
280
     0
102
RTVSPost2010PropOp31
 70
     0
102
RTVSPost2010Prop32
280
     0
102
RTVSPost2010PropOp32
 70
     0
102
RTVSPost2010Prop33
280
     0
102
RTVSPost2010PropOp33
 70
     0
102
RTVSPost2010Prop34
280
     0
102
RTVSPost2010PropOp34
 70
     0
102
RTVSPost2010Prop35
280
     0
102
RTVSPost2010PropOp35
 70
     0
102
RTVSPost2010Prop36
280
     0
102
RTVSPost2010PropOp36
 70
     0
102
RTVSPost2010Prop37
 90
       50
102
RTVSPost2010PropOp37
 70
     0
102
RTVSPost2010Prop38
140
0.0
102
RTVSPost2010PropOp38
 70
     0
102
RTVSPost2010Prop39
140
1.0
102
RTVSPost2010PropOp39
 70
     0
102
RTVSPost2010Prop40
 90
        0
102
RTVSPost2010PropOp40
 70
     0
102
RTVSPost2010Prop41ColorIndex
 90
       18
102
RTVSPost2010Prop41ColorRGB
 90
        0
102
RTVSPost2010PropOp41
 70
     0
102
RTVSPost2010Prop42
 90
       50
102
RTVSPost2010PropOp42
 70
     0
102
RTVSPost2010Prop43
 90
        3
102
RTVSPost2010PropOp43
 70
     0
102
RTVSPost2010Prop44ColorIndex
 90
        5
102
RTVSPost2010Prop44ColorRGB
 90
      255
102
RTVSPost2010PropOp44
 70
     0
102
RTVSPost2010Prop45
280
     0
102
RTVSPost2010PropOp45
 70
     0
102
RTVSPost2010Prop46
 90
       50
102
RTVSPost2010PropOp46
 70
     0
102
RTVSPost2010Prop47
 90
       50
102
RTVSPost2010PropOp47
 70
     0
102
RTVSPost2010Prop48
 90
       50
102
RTVSPost2010PropOp48
 70
     0
102
RTVSPost2010Prop49
280
     0
102
RTVSPost2010PropOp49
 70
     0
102
RTVSPost2010Prop50
 90
       50
102
RTVSPost2010PropOp50
 70
     0
102
RTVSPost2010Prop51ColorIndex
 90
      256
102
RTVSPost2010Prop51ColorRGB
 90
-16777216
102
RTVSPost2010PropOp51
 70
     0
102
RTVSPost2010Prop52
140
1.0
102
RTVSPost2010PropOp52
 70
     0
102
RTVSPost2010Prop53
 90
        2
102
RTVSPost2010PropOp53
 70
     0
102
RTVSPost2010Prop54
  1
strokes_ogs.tif
102
RTVSPost2010PropOp54
 70
     0
102
RTVSPost2010Prop55
280
     0
102
RTVSPost2010PropOp55
 70
     0
102
RTVSPost2010Prop56
140
1.0
102
RTVSPost2010PropOp56
 70
     0
102
RTVSPost2010Prop57
140
1.0
102
RTVSPost2010PropOp57
 70
     0
  0
XRECORD
  5
1165
102
{ACAD_REACTORS
330
1164
102
}
330
1164
100
AcDbXrecord
280
     1
102
RTVSPost2010Prop28
280
     0
102
RTVSPost2010PropOp28
 70
     1
102
RTVSPost2010Prop29
280
     1
102
RTVSPost2010PropOp29
 70
     1
102
RTVSPost2010Prop30
280
     1
102
RTVSPost2010PropOp30
 70
     1
102
RTVSPost2010Prop31
280
     0
102
RTVSPost2010PropOp31
 70
     1
102
RTVSPost2010Prop32
280
     0
102
RTVSPost2010PropOp32
 70
     1
102
RTVSPost2010Prop33
280
     0
102
RTVSPost2010PropOp33
 70
     1
102
RTVSPost2010Prop34
280
     0
102
RTVSPost2010PropOp34
 70
     1
102
RTVSPost2010Prop35
280
     0
102
RTVSPost2010PropOp35
 70
     1
102
RTVSPost2010Prop36
280
     0
102
RTVSPost2010PropOp36
 70
     1
102
RTVSPost2010Prop37
 90
       50
102
RTVSPost2010PropOp37
 70
     1
102
RTVSPost2010Prop38
140
0.0
102
RTVSPost2010PropOp38
 70
     1
102
RTVSPost2010Prop39
140
1.0
102
RTVSPost2010PropOp39
 70
     1
102
RTVSPost2010Prop40
 90
        0
102
RTVSPost2010PropOp40
 70
     1
102
RTVSPost2010Prop41ColorIndex
 90
       18
102
RTVSPost2010Prop41ColorRGB
 90
        0
102
RTVSPost2010PropOp41
 70
     1
102
RTVSPost2010Prop42
 90
       50
102
RTVSPost2010PropOp42
 70
     1
102
RTVSPost2010Prop43
 90
        3
102
RTVSPost2010PropOp43
 70
     1
102
RTVSPost2010Prop44ColorIndex
 90
        5
102
RTVSPost2010Prop44ColorRGB
 90
      255
102
RTVSPost2010PropOp44
 70
     1
102
RTVSPost2010Prop45
280
     0
102
RTVSPost2010PropOp45
 70
     1
102
RTVSPost2010Prop46
 90
       50
102
RTVSPost2010PropOp46
 70
     1
102
RTVSPost2010Prop47
 90
       50
102
RTVSPost2010PropOp47
 70
     1
102
RTVSPost2010Prop48
 90
       50
102
RTVSPost2010PropOp48
 70
     1
102
RTVSPost2010Prop49
280
     0
102
RTVSPost2010PropOp49
 70
     1
102
RTVSPost2010Prop50
 90
       50
102
RTVSPost2010PropOp50
 70
     1
102
RTVSPost2010Prop51ColorIndex
 90
      256
102
RTVSPost2010Prop51ColorRGB
 90
-16777216
102
RTVSPost2010PropOp51
 70
     0
102
RTVSPost2010Prop52
140
1.0
102
RTVSPost2010PropOp52
 70
     0
102
RTVSPost2010Prop53
 90
        2
102
RTVSPost2010PropOp53
 70
     1
102
RTVSPost2010Prop54
  1
strokes_ogs.tif
102
RTVSPost2010PropOp54
 70
     1
102
RTVSPost2010Prop55
280
     0
102
RTVSPost2010PropOp55
 70
     1
102
RTVSPost2010Prop56
140
1.0
102
RTVSPost2010PropOp56
 70
     1
102
RTVSPost2010Prop57
140
1.0
102
RTVSPost2010PropOp57
 70
     1
  0
XRECORD
  5
1149
102
{ACAD_REACTORS
330
1148
102
}
330
1148
100
AcDbXrecord
280
     1
102
RTVSPost2010Prop28
280
     0
102
RTVSPost2010PropOp28
 70
     1
102
RTVSPost2010Prop29
280
     1
102
RTVSPost2010PropOp29
 70
     1
102
RTVSPost2010Prop30
280
     1
102
RTVSPost2010PropOp30
 70
     1
102
RTVSPost2010Prop31
280
     0
102
RTVSPost2010PropOp31
 70
     1
102
RTVSPost2010Prop32
280
     0
102
RTVSPost2010PropOp32
 70
     1
102
RTVSPost2010Prop33
280
     0
102
RTVSPost2010PropOp33
 70
     1
102
RTVSPost2010Prop34
280
     0
102
RTVSPost2010PropOp34
 70
     1
102
RTVSPost2010Prop35
280
     0
102
RTVSPost2010PropOp35
 70
     1
102
RTVSPost2010Prop36
280
     0
102
RTVSPost2010PropOp36
 70
     1
102
RTVSPost2010Prop37
 90
       50
102
RTVSPost2010PropOp37
 70
     1
102
RTVSPost2010Prop38
140
0.0
102
RTVSPost2010PropOp38
 70
     1
102
RTVSPost2010Prop39
140
1.0
102
RTVSPost2010PropOp39
 70
     1
102
RTVSPost2010Prop40
 90
        0
102
RTVSPost2010PropOp40
 70
     1
102
RTVSPost2010Prop41ColorIndex
 90
       18
102
RTVSPost2010Prop41ColorRGB
 90
        0
102
RTVSPost2010PropOp41
 70
     1
102
RTVSPost2010Prop42
 90
       50
102
RTVSPost2010PropOp42
 70
     1
102
RTVSPost2010Prop43
 90
        3
102
RTVSPost2010PropOp43
 70
     1
102
RTVSPost2010Prop44ColorIndex
 90
        5
102
RTVSPost2010Prop44ColorRGB
 90
      255
102
RTVSPost2010PropOp44
 70
     1
102
RTVSPost2010Prop45
280
     0
102
RTVSPost2010PropOp45
 70
     1
102
RTVSPost2010Prop46
 90
       50
102
RTVSPost2010PropOp46
 70
     1
102
RTVSPost2010Prop47
 90
       50
102
RTVSPost2010PropOp47
 70
     1
102
RTVSPost2010Prop48
 90
       50
102
RTVSPost2010PropOp48
 70
     1
102
RTVSPost2010Prop49
280
     0
102
RTVSPost2010PropOp49
 70
     1
102
RTVSPost2010Prop50
 90
       50
102
RTVSPost2010PropOp50
 70
     1
102
RTVSPost2010Prop51ColorIndex
 90
      256
102
RTVSPost2010Prop51ColorRGB
 90
-16777216
102
RTVSPost2010PropOp51
 70
     0
102
RTVSPost2010Prop52
140
1.0
102
RTVSPost2010PropOp52
 70
     0
102
RTVSPost2010Prop53
 90
        2
102
RTVSPost2010PropOp53
 70
     1
102
RTVSPost2010Prop54
  1
strokes_ogs.tif
102
RTVSPost2010PropOp54
 70
     1
102
RTVSPost2010Prop55
280
     0
102
RTVSPost2010PropOp55
 70
     1
102
RTVSPost2010Prop56
140
1.0
102
RTVSPost2010PropOp56
 70
     1
102
RTVSPost2010Prop57
140
1.0
102
RTVSPost2010PropOp57
 70
     1
  0
XRECORD
  5
114B
102
{ACAD_REACTORS
330
114A
102
}
330
114A
100
AcDbXrecord
280
     1
102
RTVSPost2010Prop28
280
     0
102
RTVSPost2010PropOp28
 70
     1
102
RTVSPost2010Prop29
280
     1
102
RTVSPost2010PropOp29
 70
     1
102
RTVSPost2010Prop30
280
     1
102
RTVSPost2010PropOp30
 70
     1
102
RTVSPost2010Prop31
280
     0
102
RTVSPost2010PropOp31
 70
     1
102
RTVSPost2010Prop32
280
     0
102
RTVSPost2010PropOp32
 70
     1
102
RTVSPost2010Prop33
280
     0
102
RTVSPost2010PropOp33
 70
     1
102
RTVSPost2010Prop34
280
     0
102
RTVSPost2010PropOp34
 70
     1
102
RTVSPost2010Prop35
280
     0
102
RTVSPost2010PropOp35
 70
     1
102
RTVSPost2010Prop36
280
     0
102
RTVSPost2010PropOp36
 70
     1
102
RTVSPost2010Prop37
 90
       50
102
RTVSPost2010PropOp37
 70
     1
102
RTVSPost2010Prop38
140
0.0
102
RTVSPost2010PropOp38
 70
     1
102
RTVSPost2010Prop39
140
1.0
102
RTVSPost2010PropOp39
 70
     1
102
RTVSPost2010Prop40
 90
        0
102
RTVSPost2010PropOp40
 70
     1
102
RTVSPost2010Prop41ColorIndex
 90
       18
102
RTVSPost2010Prop41ColorRGB
 90
        0
102
RTVSPost2010PropOp41
 70
     1
102
RTVSPost2010Prop42
 90
       50
102
RTVSPost2010PropOp42
 70
     1
102
RTVSPost2010Prop43
 90
        3
102
RTVSPost2010PropOp43
 70
     1
102
RTVSPost2010Prop44ColorIndex
 90
        5
102
RTVSPost2010Prop44ColorRGB
 90
      255
102
RTVSPost2010PropOp44
 70
     1
102
RTVSPost2010Prop45
280
     0
102
RTVSPost2010PropOp45
 70
     1
102
RTVSPost2010Prop46
 90
       50
102
RTVSPost2010PropOp46
 70
     1
102
RTVSPost2010Prop47
 90
       50
102
RTVSPost2010PropOp47
 70
     1
102
RTVSPost2010Prop48
 90
       50
102
RTVSPost2010PropOp48
 70
     1
102
RTVSPost2010Prop49
280
     0
102
RTVSPost2010PropOp49
 70
     1
102
RTVSPost2010Prop50
 90
       50
102
RTVSPost2010PropOp50
 70
     1
102
RTVSPost2010Prop51ColorIndex
 90
      256
102
RTVSPost2010Prop51ColorRGB
 90
-16777216
102
RTVSPost2010PropOp51
 70
     0
102
RTVSPost2010Prop52
140
1.0
102
RTVSPost2010PropOp52
 70
     0
102
RTVSPost2010Prop53
 90
        2
102
RTVSPost2010PropOp53
 70
     1
102
RTVSPost2010Prop54
  1
strokes_ogs.tif
102
RTVSPost2010PropOp54
 70
     1
102
RTVSPost2010Prop55
280
     0
102
RTVSPost2010PropOp55
 70
     1
102
RTVSPost2010Prop56
140
1.0
102
RTVSPost2010PropOp56
 70
     1
102
RTVSPost2010Prop57
140
1.0
102
RTVSPost2010PropOp57
 70
     1
  0
XRECORD
  5
114D
102
{ACAD_REACTORS
330
114C
102
}
330
114C
100
AcDbXrecord
280
     1
102
RTVSPost2010Prop28
280
     0
102
RTVSPost2010PropOp28
 70
     1
102
RTVSPost2010Prop29
280
     1
102
RTVSPost2010PropOp29
 70
     1
102
RTVSPost2010Prop30
280
     1
102
RTVSPost2010PropOp30
 70
     1
102
RTVSPost2010Prop31
280
     0
102
RTVSPost2010PropOp31
 70
     1
102
RTVSPost2010Prop32
280
     0
102
RTVSPost2010PropOp32
 70
     1
102
RTVSPost2010Prop33
280
     0
102
RTVSPost2010PropOp33
 70
     1
102
RTVSPost2010Prop34
280
     0
102
RTVSPost2010PropOp34
 70
     1
102
RTVSPost2010Prop35
280
     0
102
RTVSPost2010PropOp35
 70
     1
102
RTVSPost2010Prop36
280
     0
102
RTVSPost2010PropOp36
 70
     1
102
RTVSPost2010Prop37
 90
       50
102
RTVSPost2010PropOp37
 70
     1
102
RTVSPost2010Prop38
140
0.0
102
RTVSPost2010PropOp38
 70
     1
102
RTVSPost2010Prop39
140
1.0
102
RTVSPost2010PropOp39
 70
     1
102
RTVSPost2010Prop40
 90
        0
102
RTVSPost2010PropOp40
 70
     1
102
RTVSPost2010Prop41ColorIndex
 90
       18
102
RTVSPost2010Prop41ColorRGB
 90
        0
102
RTVSPost2010PropOp41
 70
     1
102
RTVSPost2010Prop42
 90
       50
102
RTVSPost2010PropOp42
 70
     1
102
RTVSPost2010Prop43
 90
        3
102
RTVSPost2010PropOp43
 70
     1
102
RTVSPost2010Prop44ColorIndex
 90
        5
102
RTVSPost2010Prop44ColorRGB
 90
      255
102
RTVSPost2010PropOp44
 70
     1
102
RTVSPost2010Prop45
280
     0
102
RTVSPost2010PropOp45
 70
     1
102
RTVSPost2010Prop46
 90
       50
102
RTVSPost2010PropOp46
 70
     1
102
RTVSPost2010Prop47
 90
       50
102
RTVSPost2010PropOp47
 70
     1
102
RTVSPost2010Prop48
 90
       50
102
RTVSPost2010PropOp48
 70
     1
102
RTVSPost2010Prop49
280
     0
102
RTVSPost2010PropOp49
 70
     1
102
RTVSPost2010Prop50
 90
       50
102
RTVSPost2010PropOp50
 70
     1
102
RTVSPost2010Prop51ColorIndex
 90
      256
102
RTVSPost2010Prop51ColorRGB
 90
-16777216
102
RTVSPost2010PropOp51
 70
     0
102
RTVSPost2010Prop52
140
1.0
102
RTVSPost2010PropOp52
 70
     0
102
RTVSPost2010Prop53
 90
        2
102
RTVSPost2010PropOp53
 70
     1
102
RTVSPost2010Prop54
  1
strokes_ogs.tif
102
RTVSPost2010PropOp54
 70
     1
102
RTVSPost2010Prop55
280
     0
102
RTVSPost2010PropOp55
 70
     1
102
RTVSPost2010Prop56
140
1.0
102
RTVSPost2010PropOp56
 70
     1
102
RTVSPost2010Prop57
140
1.0
102
RTVSPost2010PropOp57
 70
     1
  0
XRECORD
  5
114F
102
{ACAD_REACTORS
330
114E
102
}
330
114E
100
AcDbXrecord
280
     1
102
RTVSPost2010Prop28
280
     0
102
RTVSPost2010PropOp28
 70
     1
102
RTVSPost2010Prop29
280
     1
102
RTVSPost2010PropOp29
 70
     1
102
RTVSPost2010Prop30
280
     1
102
RTVSPost2010PropOp30
 70
     1
102
RTVSPost2010Prop31
280
     0
102
RTVSPost2010PropOp31
 70
     1
102
RTVSPost2010Prop32
280
     0
102
RTVSPost2010PropOp32
 70
     1
102
RTVSPost2010Prop33
280
     0
102
RTVSPost2010PropOp33
 70
     1
102
RTVSPost2010Prop34
280
     0
102
RTVSPost2010PropOp34
 70
     1
102
RTVSPost2010Prop35
280
     0
102
RTVSPost2010PropOp35
 70
     1
102
RTVSPost2010Prop36
280
     0
102
RTVSPost2010PropOp36
 70
     1
102
RTVSPost2010Prop37
 90
       50
102
RTVSPost2010PropOp37
 70
     1
102
RTVSPost2010Prop38
140
0.0
102
RTVSPost2010PropOp38
 70
     1
102
RTVSPost2010Prop39
140
1.0
102
RTVSPost2010PropOp39
 70
     1
102
RTVSPost2010Prop40
 90
        0
102
RTVSPost2010PropOp40
 70
     1
102
RTVSPost2010Prop41ColorIndex
 90
       18
102
RTVSPost2010Prop41ColorRGB
 90
        0
102
RTVSPost2010PropOp41
 70
     1
102
RTVSPost2010Prop42
 90
       50
102
RTVSPost2010PropOp42
 70
     1
102
RTVSPost2010Prop43
 90
        3
102
RTVSPost2010PropOp43
 70
     1
102
RTVSPost2010Prop44ColorIndex
 90
        5
102
RTVSPost2010Prop44ColorRGB
 90
      255
102
RTVSPost2010PropOp44
 70
     1
102
RTVSPost2010Prop45
280
     0
102
RTVSPost2010PropOp45
 70
     1
102
RTVSPost2010Prop46
 90
       50
102
RTVSPost2010PropOp46
 70
     1
102
RTVSPost2010Prop47
 90
       50
102
RTVSPost2010PropOp47
 70
     1
102
RTVSPost2010Prop48
 90
       50
102
RTVSPost2010PropOp48
 70
     1
102
RTVSPost2010Prop49
280
     0
102
RTVSPost2010PropOp49
 70
     1
102
RTVSPost2010Prop50
 90
       50
102
RTVSPost2010PropOp50
 70
     1
102
RTVSPost2010Prop51ColorIndex
 90
      256
102
RTVSPost2010Prop51ColorRGB
 90
-16777216
102
RTVSPost2010PropOp51
 70
     0
102
RTVSPost2010Prop52
140
1.0
102
RTVSPost2010PropOp52
 70
     0
102
RTVSPost2010Prop53
 90
        2
102
RTVSPost2010PropOp53
 70
     1
102
RTVSPost2010Prop54
  1
strokes_ogs.tif
102
RTVSPost2010PropOp54
 70
     1
102
RTVSPost2010Prop55
280
     0
102
RTVSPost2010PropOp55
 70
     1
102
RTVSPost2010Prop56
140
1.0
102
RTVSPost2010PropOp56
 70
     1
102
RTVSPost2010Prop57
140
1.0
102
RTVSPost2010PropOp57
 70
     1
  0
XRECORD
  5
1157
102
{ACAD_REACTORS
330
1156
102
}
330
1156
100
AcDbXrecord
280
     1
102
RTVSPost2010Prop28
280
     0
102
RTVSPost2010PropOp28
 70
     1
102
RTVSPost2010Prop29
280
     1
102
RTVSPost2010PropOp29
 70
     1
102
RTVSPost2010Prop30
280
     1
102
RTVSPost2010PropOp30
 70
     1
102
RTVSPost2010Prop31
280
     0
102
RTVSPost2010PropOp31
 70
     1
102
RTVSPost2010Prop32
280
     0
102
RTVSPost2010PropOp32
 70
     1
102
RTVSPost2010Prop33
280
     0
102
RTVSPost2010PropOp33
 70
     1
102
RTVSPost2010Prop34
280
     0
102
RTVSPost2010PropOp34
 70
     1
102
RTVSPost2010Prop35
280
     0
102
RTVSPost2010PropOp35
 70
     1
102
RTVSPost2010Prop36
280
     0
102
RTVSPost2010PropOp36
 70
     1
102
RTVSPost2010Prop37
 90
       50
102
RTVSPost2010PropOp37
 70
     1
102
RTVSPost2010Prop38
140
0.0
102
RTVSPost2010PropOp38
 70
     1
102
RTVSPost2010Prop39
140
1.0
102
RTVSPost2010PropOp39
 70
     1
102
RTVSPost2010Prop40
 90
        0
102
RTVSPost2010PropOp40
 70
     1
102
RTVSPost2010Prop41ColorIndex
 90
       18
102
RTVSPost2010Prop41ColorRGB
 90
        0
102
RTVSPost2010PropOp41
 70
     1
102
RTVSPost2010Prop42
 90
       50
102
RTVSPost2010PropOp42
 70
     1
102
RTVSPost2010Prop43
 90
        3
102
RTVSPost2010PropOp43
 70
     1
102
RTVSPost2010Prop44ColorIndex
 90
        5
102
RTVSPost2010Prop44ColorRGB
 90
      255
102
RTVSPost2010PropOp44
 70
     1
102
RTVSPost2010Prop45
280
     0
102
RTVSPost2010PropOp45
 70
     1
102
RTVSPost2010Prop46
 90
       50
102
RTVSPost2010PropOp46
 70
     1
102
RTVSPost2010Prop47
 90
       50
102
RTVSPost2010PropOp47
 70
     1
102
RTVSPost2010Prop48
 90
       50
102
RTVSPost2010PropOp48
 70
     1
102
RTVSPost2010Prop49
280
     0
102
RTVSPost2010PropOp49
 70
     1
102
RTVSPost2010Prop50
 90
       50
102
RTVSPost2010PropOp50
 70
     1
102
RTVSPost2010Prop51ColorIndex
 90
      256
102
RTVSPost2010Prop51ColorRGB
 90
-16777216
102
RTVSPost2010PropOp51
 70
     0
102
RTVSPost2010Prop52
140
1.0
102
RTVSPost2010PropOp52
 70
     0
102
RTVSPost2010Prop53
 90
        2
102
RTVSPost2010PropOp53
 70
     1
102
RTVSPost2010Prop54
  1
strokes_ogs.tif
102
RTVSPost2010PropOp54
 70
     1
102
RTVSPost2010Prop55
280
     0
102
RTVSPost2010PropOp55
 70
     1
102
RTVSPost2010Prop56
140
1.0
102
RTVSPost2010PropOp56
 70
     1
102
RTVSPost2010Prop57
140
1.0
102
RTVSPost2010PropOp57
 70
     1
  0
XRECORD
  5
1173
102
{ACAD_REACTORS
330
1172
102
}
330
1172
100
AcDbXrecord
280
     1
102
RTVSPost2010Prop28
280
     0
102
RTVSPost2010PropOp28
 70
     0
102
RTVSPost2010Prop29
280
     1
102
RTVSPost2010PropOp29
 70
     0
102
RTVSPost2010Prop30
280
     1
102
RTVSPost2010PropOp30
 70
     0
102
RTVSPost2010Prop31
280
     0
102
RTVSPost2010PropOp31
 70
     0
102
RTVSPost2010Prop32
280
     0
102
RTVSPost2010PropOp32
 70
     0
102
RTVSPost2010Prop33
280
     0
102
RTVSPost2010PropOp33
 70
     0
102
RTVSPost2010Prop34
280
     0
102
RTVSPost2010PropOp34
 70
     0
102
RTVSPost2010Prop35
280
     0
102
RTVSPost2010PropOp35
 70
     0
102
RTVSPost2010Prop36
280
     0
102
RTVSPost2010PropOp36
 70
     0
102
RTVSPost2010Prop37
 90
       50
102
RTVSPost2010PropOp37
 70
     0
102
RTVSPost2010Prop38
140
0.0
102
RTVSPost2010PropOp38
 70
     0
102
RTVSPost2010Prop39
140
1.0
102
RTVSPost2010PropOp39
 70
     0
102
RTVSPost2010Prop40
 90
        0
102
RTVSPost2010PropOp40
 70
     0
102
RTVSPost2010Prop41ColorIndex
 90
       18
102
RTVSPost2010Prop41ColorRGB
 90
        0
102
RTVSPost2010PropOp41
 70
     0
102
RTVSPost2010Prop42
 90
       50
102
RTVSPost2010PropOp42
 70
     0
102
RTVSPost2010Prop43
 90
        3
102
RTVSPost2010PropOp43
 70
     0
102
RTVSPost2010Prop44ColorIndex
 90
        5
102
RTVSPost2010Prop44ColorRGB
 90
      255
102
RTVSPost2010PropOp44
 70
     0
102
RTVSPost2010Prop45
280
     0
102
RTVSPost2010PropOp45
 70
     0
102
RTVSPost2010Prop46
 90
       50
102
RTVSPost2010PropOp46
 70
     0
102
RTVSPost2010Prop47
 90
       50
102
RTVSPost2010PropOp47
 70
     0
102
RTVSPost2010Prop48
 90
       50
102
RTVSPost2010PropOp48
 70
     0
102
RTVSPost2010Prop49
280
     0
102
RTVSPost2010PropOp49
 70
     0
102
RTVSPost2010Prop50
 90
       50
102
RTVSPost2010PropOp50
 70
     0
102
RTVSPost2010Prop51ColorIndex
 90
      256
102
RTVSPost2010Prop51ColorRGB
 90
-16777216
102
RTVSPost2010PropOp51
 70
     0
102
RTVSPost2010Prop52
140
1.0
102
RTVSPost2010PropOp52
 70
     0
102
RTVSPost2010Prop53
 90
        2
102
RTVSPost2010PropOp53
 70
     0
102
RTVSPost2010Prop54
  1
strokes_ogs.tif
102
RTVSPost2010PropOp54
 70
     0
102
RTVSPost2010Prop55
280
     0
102
RTVSPost2010PropOp55
 70
     0
102
RTVSPost2010Prop56
140
1.0
102
RTVSPost2010PropOp56
 70
     0
102
RTVSPost2010Prop57
140
1.0
102
RTVSPost2010PropOp57
 70
     0
  0
XRECORD
  5
1163
102
{ACAD_REACTORS
330
1162
102
}
330
1162
100
AcDbXrecord
280
     1
102
RTVSPost2010Prop28
280
     0
102
RTVSPost2010PropOp28
 70
     1
102
RTVSPost2010Prop29
280
     1
102
RTVSPost2010PropOp29
 70
     1
102
RTVSPost2010Prop30
280
     1
102
RTVSPost2010PropOp30
 70
     1
102
RTVSPost2010Prop31
280
     0
102
RTVSPost2010PropOp31
 70
     1
102
RTVSPost2010Prop32
280
     0
102
RTVSPost2010PropOp32
 70
     1
102
RTVSPost2010Prop33
280
     0
102
RTVSPost2010PropOp33
 70
     1
102
RTVSPost2010Prop34
280
     0
102
RTVSPost2010PropOp34
 70
     1
102
RTVSPost2010Prop35
280
     0
102
RTVSPost2010PropOp35
 70
     1
102
RTVSPost2010Prop36
280
     0
102
RTVSPost2010PropOp36
 70
     1
102
RTVSPost2010Prop37
 90
       50
102
RTVSPost2010PropOp37
 70
     1
102
RTVSPost2010Prop38
140
0.0
102
RTVSPost2010PropOp38
 70
     1
102
RTVSPost2010Prop39
140
1.0
102
RTVSPost2010PropOp39
 70
     1
102
RTVSPost2010Prop40
 90
        0
102
RTVSPost2010PropOp40
 70
     1
102
RTVSPost2010Prop41ColorIndex
 90
       18
102
RTVSPost2010Prop41ColorRGB
 90
        0
102
RTVSPost2010PropOp41
 70
     1
102
RTVSPost2010Prop42
 90
       50
102
RTVSPost2010PropOp42
 70
     1
102
RTVSPost2010Prop43
 90
        3
102
RTVSPost2010PropOp43
 70
     1
102
RTVSPost2010Prop44ColorIndex
 90
        5
102
RTVSPost2010Prop44ColorRGB
 90
      255
102
RTVSPost2010PropOp44
 70
     1
102
RTVSPost2010Prop45
280
     0
102
RTVSPost2010PropOp45
 70
     1
102
RTVSPost2010Prop46
 90
       50
102
RTVSPost2010PropOp46
 70
     1
102
RTVSPost2010Prop47
 90
       50
102
RTVSPost2010PropOp47
 70
     1
102
RTVSPost2010Prop48
 90
       50
102
RTVSPost2010PropOp48
 70
     1
102
RTVSPost2010Prop49
280
     0
102
RTVSPost2010PropOp49
 70
     1
102
RTVSPost2010Prop50
 90
       50
102
RTVSPost2010PropOp50
 70
     1
102
RTVSPost2010Prop51ColorIndex
 90
      256
102
RTVSPost2010Prop51ColorRGB
 90
-16777216
102
RTVSPost2010PropOp51
 70
     0
102
RTVSPost2010Prop52
140
1.0
102
RTVSPost2010PropOp52
 70
     0
102
RTVSPost2010Prop53
 90
        2
102
RTVSPost2010PropOp53
 70
     1
102
RTVSPost2010Prop54
  1
strokes_ogs.tif
102
RTVSPost2010PropOp54
 70
     1
102
RTVSPost2010Prop55
280
     0
102
RTVSPost2010PropOp55
 70
     1
102
RTVSPost2010Prop56
140
1.0
102
RTVSPost2010PropOp56
 70
     1
102
RTVSPost2010Prop57
140
1.0
102
RTVSPost2010PropOp57
 70
     1
  0
XRECORD
  5
1175
102
{ACAD_REACTORS
330
1174
102
}
330
1174
100
AcDbXrecord
280
     1
102
RTVSPost2010Prop28
280
     0
102
RTVSPost2010PropOp28
 70
     0
102
RTVSPost2010Prop29
280
     1
102
RTVSPost2010PropOp29
 70
     0
102
RTVSPost2010Prop30
280
     1
102
RTVSPost2010PropOp30
 70
     0
102
RTVSPost2010Prop31
280
     0
102
RTVSPost2010PropOp31
 70
     0
102
RTVSPost2010Prop32
280
     0
102
RTVSPost2010PropOp32
 70
     0
102
RTVSPost2010Prop33
280
     0
102
RTVSPost2010PropOp33
 70
     0
102
RTVSPost2010Prop34
280
     0
102
RTVSPost2010PropOp34
 70
     0
102
RTVSPost2010Prop35
280
     0
102
RTVSPost2010PropOp35
 70
     0
102
RTVSPost2010Prop36
280
     0
102
RTVSPost2010PropOp36
 70
     0
102
RTVSPost2010Prop37
 90
       50
102
RTVSPost2010PropOp37
 70
     0
102
RTVSPost2010Prop38
140
0.0
102
RTVSPost2010PropOp38
 70
     0
102
RTVSPost2010Prop39
140
1.0
102
RTVSPost2010PropOp39
 70
     0
102
RTVSPost2010Prop40
 90
        0
102
RTVSPost2010PropOp40
 70
     0
102
RTVSPost2010Prop41ColorIndex
 90
       18
102
RTVSPost2010Prop41ColorRGB
 90
        0
102
RTVSPost2010PropOp41
 70
     0
102
RTVSPost2010Prop42
 90
       50
102
RTVSPost2010PropOp42
 70
     0
102
RTVSPost2010Prop43
 90
        3
102
RTVSPost2010PropOp43
 70
     0
102
RTVSPost2010Prop44ColorIndex
 90
        5
102
RTVSPost2010Prop44ColorRGB
 90
      255
102
RTVSPost2010PropOp44
 70
     0
102
RTVSPost2010Prop45
280
     0
102
RTVSPost2010PropOp45
 70
     0
102
RTVSPost2010Prop46
 90
       50
102
RTVSPost2010PropOp46
 70
     0
102
RTVSPost2010Prop47
 90
       50
102
RTVSPost2010PropOp47
 70
     0
102
RTVSPost2010Prop48
 90
       50
102
RTVSPost2010PropOp48
 70
     0
102
RTVSPost2010Prop49
280
     0
102
RTVSPost2010PropOp49
 70
     0
102
RTVSPost2010Prop50
 90
       50
102
RTVSPost2010PropOp50
 70
     0
102
RTVSPost2010Prop51ColorIndex
 90
      256
102
RTVSPost2010Prop51ColorRGB
 90
-16777216
102
RTVSPost2010PropOp51
 70
     0
102
RTVSPost2010Prop52
140
1.0
102
RTVSPost2010PropOp52
 70
     0
102
RTVSPost2010Prop53
 90
        2
102
RTVSPost2010PropOp53
 70
     0
102
RTVSPost2010Prop54
  1
strokes_ogs.tif
102
RTVSPost2010PropOp54
 70
     0
102
RTVSPost2010Prop55
280
     0
102
RTVSPost2010PropOp55
 70
     0
102
RTVSPost2010Prop56
140
1.0
102
RTVSPost2010PropOp56
 70
     0
102
RTVSPost2010Prop57
140
1.0
102
RTVSPost2010PropOp57
 70
     0
  0
XRECORD
  5
115B
102
{ACAD_REACTORS
330
115A
102
}
330
115A
100
AcDbXrecord
280
     1
102
RTVSPost2010Prop28
280
     0
102
RTVSPost2010PropOp28
 70
     1
102
RTVSPost2010Prop29
280
     1
102
RTVSPost2010PropOp29
 70
     1
102
RTVSPost2010Prop30
280
     1
102
RTVSPost2010PropOp30
 70
     1
102
RTVSPost2010Prop31
280
     0
102
RTVSPost2010PropOp31
 70
     1
102
RTVSPost2010Prop32
280
     0
102
RTVSPost2010PropOp32
 70
     1
102
RTVSPost2010Prop33
280
     0
102
RTVSPost2010PropOp33
 70
     1
102
RTVSPost2010Prop34
280
     0
102
RTVSPost2010PropOp34
 70
     1
102
RTVSPost2010Prop35
280
     0
102
RTVSPost2010PropOp35
 70
     1
102
RTVSPost2010Prop36
280
     0
102
RTVSPost2010PropOp36
 70
     1
102
RTVSPost2010Prop37
 90
       50
102
RTVSPost2010PropOp37
 70
     1
102
RTVSPost2010Prop38
140
0.0
102
RTVSPost2010PropOp38
 70
     1
102
RTVSPost2010Prop39
140
1.0
102
RTVSPost2010PropOp39
 70
     1
102
RTVSPost2010Prop40
 90
        0
102
RTVSPost2010PropOp40
 70
     1
102
RTVSPost2010Prop41ColorIndex
 90
       18
102
RTVSPost2010Prop41ColorRGB
 90
        0
102
RTVSPost2010PropOp41
 70
     1
102
RTVSPost2010Prop42
 90
       50
102
RTVSPost2010PropOp42
 70
     1
102
RTVSPost2010Prop43
 90
        3
102
RTVSPost2010PropOp43
 70
     1
102
RTVSPost2010Prop44ColorIndex
 90
        5
102
RTVSPost2010Prop44ColorRGB
 90
      255
102
RTVSPost2010PropOp44
 70
     1
102
RTVSPost2010Prop45
280
     0
102
RTVSPost2010PropOp45
 70
     1
102
RTVSPost2010Prop46
 90
       50
102
RTVSPost2010PropOp46
 70
     1
102
RTVSPost2010Prop47
 90
       50
102
RTVSPost2010PropOp47
 70
     1
102
RTVSPost2010Prop48
 90
       50
102
RTVSPost2010PropOp48
 70
     1
102
RTVSPost2010Prop49
280
     0
102
RTVSPost2010PropOp49
 70
     1
102
RTVSPost2010Prop50
 90
       50
102
RTVSPost2010PropOp50
 70
     1
102
RTVSPost2010Prop51ColorIndex
 90
      256
102
RTVSPost2010Prop51ColorRGB
 90
-16777216
102
RTVSPost2010PropOp51
 70
     0
102
RTVSPost2010Prop52
140
1.0
102
RTVSPost2010PropOp52
 70
     0
102
RTVSPost2010Prop53
 90
        2
102
RTVSPost2010PropOp53
 70
     1
102
RTVSPost2010Prop54
  1
strokes_ogs.tif
102
RTVSPost2010PropOp54
 70
     1
102
RTVSPost2010Prop55
280
     0
102
RTVSPost2010PropOp55
 70
     1
102
RTVSPost2010Prop56
140
1.0
102
RTVSPost2010PropOp56
 70
     1
102
RTVSPost2010Prop57
140
1.0
102
RTVSPost2010PropOp57
 70
     1
  0
XRECORD
  5
1171
102
{ACAD_REACTORS
330
1170
102
}
330
1170
100
AcDbXrecord
280
     1
102
RTVSPost2010Prop28
280
     0
102
RTVSPost2010PropOp28
 70
     1
102
RTVSPost2010Prop29
280
     1
102
RTVSPost2010PropOp29
 70
     1
102
RTVSPost2010Prop30
280
     1
102
RTVSPost2010PropOp30
 70
     1
102
RTVSPost2010Prop31
280
     0
102
RTVSPost2010PropOp31
 70
     1
102
RTVSPost2010Prop32
280
     0
102
RTVSPost2010PropOp32
 70
     1
102
RTVSPost2010Prop33
280
     0
102
RTVSPost2010PropOp33
 70
     1
102
RTVSPost2010Prop34
280
     0
102
RTVSPost2010PropOp34
 70
     1
102
RTVSPost2010Prop35
280
     0
102
RTVSPost2010PropOp35
 70
     1
102
RTVSPost2010Prop36
280
     0
102
RTVSPost2010PropOp36
 70
     1
102
RTVSPost2010Prop37
 90
       50
102
RTVSPost2010PropOp37
 70
     1
102
RTVSPost2010Prop38
140
0.0
102
RTVSPost2010PropOp38
 70
     1
102
RTVSPost2010Prop39
140
1.0
102
RTVSPost2010PropOp39
 70
     1
102
RTVSPost2010Prop40
 90
        0
102
RTVSPost2010PropOp40
 70
     1
102
RTVSPost2010Prop41ColorIndex
 90
       18
102
RTVSPost2010Prop41ColorRGB
 90
        0
102
RTVSPost2010PropOp41
 70
     1
102
RTVSPost2010Prop42
 90
       50
102
RTVSPost2010PropOp42
 70
     1
102
RTVSPost2010Prop43
 90
        3
102
RTVSPost2010PropOp43
 70
     1
102
RTVSPost2010Prop44ColorIndex
 90
        5
102
RTVSPost2010Prop44ColorRGB
 90
      255
102
RTVSPost2010PropOp44
 70
     1
102
RTVSPost2010Prop45
280
     0
102
RTVSPost2010PropOp45
 70
     1
102
RTVSPost2010Prop46
 90
       50
102
RTVSPost2010PropOp46
 70
     1
102
RTVSPost2010Prop47
 90
       50
102
RTVSPost2010PropOp47
 70
     1
102
RTVSPost2010Prop48
 90
       50
102
RTVSPost2010PropOp48
 70
     1
102
RTVSPost2010Prop49
280
     0
102
RTVSPost2010PropOp49
 70
     1
102
RTVSPost2010Prop50
 90
       50
102
RTVSPost2010PropOp50
 70
     1
102
RTVSPost2010Prop51ColorIndex
 90
      256
102
RTVSPost2010Prop51ColorRGB
 90
-16777216
102
RTVSPost2010PropOp51
 70
     0
102
RTVSPost2010Prop52
140
1.0
102
RTVSPost2010PropOp52
 70
     0
102
RTVSPost2010Prop53
 90
        2
102
RTVSPost2010PropOp53
 70
     1
102
RTVSPost2010Prop54
  1
strokes_ogs.tif
102
RTVSPost2010PropOp54
 70
     1
102
RTVSPost2010Prop55
280
     0
102
RTVSPost2010PropOp55
 70
     1
102
RTVSPost2010Prop56
140
1.0
102
RTVSPost2010PropOp56
 70
     1
102
RTVSPost2010Prop57
140
1.0
102
RTVSPost2010PropOp57
 70
     1
  0
XRECORD
  5
116F
102
{ACAD_REACTORS
330
116E
102
}
330
116E
100
AcDbXrecord
280
     1
102
RTVSPost2010Prop28
280
     0
102
RTVSPost2010PropOp28
 70
     1
102
RTVSPost2010Prop29
280
     1
102
RTVSPost2010PropOp29
 70
     1
102
RTVSPost2010Prop30
280
     1
102
RTVSPost2010PropOp30
 70
     1
102
RTVSPost2010Prop31
280
     0
102
RTVSPost2010PropOp31
 70
     1
102
RTVSPost2010Prop32
280
     0
102
RTVSPost2010PropOp32
 70
     1
102
RTVSPost2010Prop33
280
     0
102
RTVSPost2010PropOp33
 70
     1
102
RTVSPost2010Prop34
280
     0
102
RTVSPost2010PropOp34
 70
     1
102
RTVSPost2010Prop35
280
     0
102
RTVSPost2010PropOp35
 70
     1
102
RTVSPost2010Prop36
280
     0
102
RTVSPost2010PropOp36
 70
     1
102
RTVSPost2010Prop37
 90
       50
102
RTVSPost2010PropOp37
 70
     1
102
RTVSPost2010Prop38
140
0.0
102
RTVSPost2010PropOp38
 70
     1
102
RTVSPost2010Prop39
140
1.0
102
RTVSPost2010PropOp39
 70
     1
102
RTVSPost2010Prop40
 90
        0
102
RTVSPost2010PropOp40
 70
     1
102
RTVSPost2010Prop41ColorIndex
 90
       18
102
RTVSPost2010Prop41ColorRGB
 90
        0
102
RTVSPost2010PropOp41
 70
     1
102
RTVSPost2010Prop42
 90
       50
102
RTVSPost2010PropOp42
 70
     1
102
RTVSPost2010Prop43
 90
        3
102
RTVSPost2010PropOp43
 70
     1
102
RTVSPost2010Prop44ColorIndex
 90
        5
102
RTVSPost2010Prop44ColorRGB
 90
      255
102
RTVSPost2010PropOp44
 70
     1
102
RTVSPost2010Prop45
280
     0
102
RTVSPost2010PropOp45
 70
     1
102
RTVSPost2010Prop46
 90
       50
102
RTVSPost2010PropOp46
 70
     1
102
RTVSPost2010Prop47
 90
       50
102
RTVSPost2010PropOp47
 70
     1
102
RTVSPost2010Prop48
 90
       50
102
RTVSPost2010PropOp48
 70
     1
102
RTVSPost2010Prop49
280
     0
102
RTVSPost2010PropOp49
 70
     1
102
RTVSPost2010Prop50
 90
       50
102
RTVSPost2010PropOp50
 70
     1
102
RTVSPost2010Prop51ColorIndex
 90
      256
102
RTVSPost2010Prop51ColorRGB
 90
-16777216
102
RTVSPost2010PropOp51
 70
     0
102
RTVSPost2010Prop52
140
1.0
102
RTVSPost2010PropOp52
 70
     0
102
RTVSPost2010Prop53
 90
        2
102
RTVSPost2010PropOp53
 70
     1
102
RTVSPost2010Prop54
  1
strokes_ogs.tif
102
RTVSPost2010PropOp54
 70
     1
102
RTVSPost2010Prop55
280
     0
102
RTVSPost2010PropOp55
 70
     1
102
RTVSPost2010Prop56
140
1.0
102
RTVSPost2010PropOp56
 70
     1
102
RTVSPost2010Prop57
140
1.0
102
RTVSPost2010PropOp57
 70
     1
  0
XRECORD
  5
1169
102
{ACAD_REACTORS
330
1168
102
}
330
1168
100
AcDbXrecord
280
     1
102
RTVSPost2010Prop28
280
     0
102
RTVSPost2010PropOp28
 70
     1
102
RTVSPost2010Prop29
280
     1
102
RTVSPost2010PropOp29
 70
     1
102
RTVSPost2010Prop30
280
     1
102
RTVSPost2010PropOp30
 70
     1
102
RTVSPost2010Prop31
280
     0
102
RTVSPost2010PropOp31
 70
     1
102
RTVSPost2010Prop32
280
     0
102
RTVSPost2010PropOp32
 70
     1
102
RTVSPost2010Prop33
280
     0
102
RTVSPost2010PropOp33
 70
     1
102
RTVSPost2010Prop34
280
     0
102
RTVSPost2010PropOp34
 70
     1
102
RTVSPost2010Prop35
280
     0
102
RTVSPost2010PropOp35
 70
     1
102
RTVSPost2010Prop36
280
     0
102
RTVSPost2010PropOp36
 70
     1
102
RTVSPost2010Prop37
 90
       50
102
RTVSPost2010PropOp37
 70
     1
102
RTVSPost2010Prop38
140
0.0
102
RTVSPost2010PropOp38
 70
     1
102
RTVSPost2010Prop39
140
1.0
102
RTVSPost2010PropOp39
 70
     1
102
RTVSPost2010Prop40
 90
        0
102
RTVSPost2010PropOp40
 70
     1
102
RTVSPost2010Prop41ColorIndex
 90
       18
102
RTVSPost2010Prop41ColorRGB
 90
        0
102
RTVSPost2010PropOp41
 70
     1
102
RTVSPost2010Prop42
 90
       50
102
RTVSPost2010PropOp42
 70
     1
102
RTVSPost2010Prop43
 90
        3
102
RTVSPost2010PropOp43
 70
     1
102
RTVSPost2010Prop44ColorIndex
 90
        5
102
RTVSPost2010Prop44ColorRGB
 90
      255
102
RTVSPost2010PropOp44
 70
     1
102
RTVSPost2010Prop45
280
     0
102
RTVSPost2010PropOp45
 70
     1
102
RTVSPost2010Prop46
 90
       50
102
RTVSPost2010PropOp46
 70
     1
102
RTVSPost2010Prop47
 90
       50
102
RTVSPost2010PropOp47
 70
     1
102
RTVSPost2010Prop48
 90
       50
102
RTVSPost2010PropOp48
 70
     1
102
RTVSPost2010Prop49
280
     0
102
RTVSPost2010PropOp49
 70
     1
102
RTVSPost2010Prop50
 90
       50
102
RTVSPost2010PropOp50
 70
     1
102
RTVSPost2010Prop51ColorIndex
 90
      256
102
RTVSPost2010Prop51ColorRGB
 90
-16777216
102
RTVSPost2010PropOp51
 70
     0
102
RTVSPost2010Prop52
140
1.0
102
RTVSPost2010PropOp52
 70
     0
102
RTVSPost2010Prop53
 90
        2
102
RTVSPost2010PropOp53
 70
     1
102
RTVSPost2010Prop54
  1
strokes_ogs.tif
102
RTVSPost2010PropOp54
 70
     1
102
RTVSPost2010Prop55
280
     0
102
RTVSPost2010PropOp55
 70
     1
102
RTVSPost2010Prop56
140
1.0
102
RTVSPost2010PropOp56
 70
     1
102
RTVSPost2010Prop57
140
1.0
102
RTVSPost2010PropOp57
 70
     1
  0
XRECORD
  5
116B
102
{ACAD_REACTORS
330
116A
102
}
330
116A
100
AcDbXrecord
280
     1
102
RTVSPost2010Prop28
280
     0
102
RTVSPost2010PropOp28
 70
     1
102
RTVSPost2010Prop29
280
     1
102
RTVSPost2010PropOp29
 70
     1
102
RTVSPost2010Prop30
280
     1
102
RTVSPost2010PropOp30
 70
     1
102
RTVSPost2010Prop31
280
     0
102
RTVSPost2010PropOp31
 70
     1
102
RTVSPost2010Prop32
280
     0
102
RTVSPost2010PropOp32
 70
     1
102
RTVSPost2010Prop33
280
     0
102
RTVSPost2010PropOp33
 70
     1
102
RTVSPost2010Prop34
280
     0
102
RTVSPost2010PropOp34
 70
     1
102
RTVSPost2010Prop35
280
     0
102
RTVSPost2010PropOp35
 70
     1
102
RTVSPost2010Prop36
280
     0
102
RTVSPost2010PropOp36
 70
     1
102
RTVSPost2010Prop37
 90
       50
102
RTVSPost2010PropOp37
 70
     1
102
RTVSPost2010Prop38
140
0.0
102
RTVSPost2010PropOp38
 70
     1
102
RTVSPost2010Prop39
140
1.0
102
RTVSPost2010PropOp39
 70
     1
102
RTVSPost2010Prop40
 90
        0
102
RTVSPost2010PropOp40
 70
     1
102
RTVSPost2010Prop41ColorIndex
 90
       18
102
RTVSPost2010Prop41ColorRGB
 90
        0
102
RTVSPost2010PropOp41
 70
     1
102
RTVSPost2010Prop42
 90
       50
102
RTVSPost2010PropOp42
 70
     1
102
RTVSPost2010Prop43
 90
        3
102
RTVSPost2010PropOp43
 70
     1
102
RTVSPost2010Prop44ColorIndex
 90
        5
102
RTVSPost2010Prop44ColorRGB
 90
      255
102
RTVSPost2010PropOp44
 70
     1
102
RTVSPost2010Prop45
280
     0
102
RTVSPost2010PropOp45
 70
     1
102
RTVSPost2010Prop46
 90
       50
102
RTVSPost2010PropOp46
 70
     1
102
RTVSPost2010Prop47
 90
       50
102
RTVSPost2010PropOp47
 70
     1
102
RTVSPost2010Prop48
 90
       50
102
RTVSPost2010PropOp48
 70
     1
102
RTVSPost2010Prop49
280
     0
102
RTVSPost2010PropOp49
 70
     1
102
RTVSPost2010Prop50
 90
       50
102
RTVSPost2010PropOp50
 70
     1
102
RTVSPost2010Prop51ColorIndex
 90
      256
102
RTVSPost2010Prop51ColorRGB
 90
-16777216
102
RTVSPost2010PropOp51
 70
     0
102
RTVSPost2010Prop52
140
1.0
102
RTVSPost2010PropOp52
 70
     0
102
RTVSPost2010Prop53
 90
        2
102
RTVSPost2010PropOp53
 70
     1
102
RTVSPost2010Prop54
  1
strokes_ogs.tif
102
RTVSPost2010PropOp54
 70
     1
102
RTVSPost2010Prop55
280
     0
102
RTVSPost2010PropOp55
 70
     1
102
RTVSPost2010Prop56
140
1.0
102
RTVSPost2010PropOp56
 70
     1
102
RTVSPost2010Prop57
140
1.0
102
RTVSPost2010PropOp57
 70
     1
  0
XRECORD
  5
1161
102
{ACAD_REACTORS
330
1160
102
}
330
1160
100
AcDbXrecord
280
     1
102
RTVSPost2010Prop28
280
     0
102
RTVSPost2010PropOp28
 70
     1
102
RTVSPost2010Prop29
280
     1
102
RTVSPost2010PropOp29
 70
     1
102
RTVSPost2010Prop30
280
     1
102
RTVSPost2010PropOp30
 70
     1
102
RTVSPost2010Prop31
280
     0
102
RTVSPost2010PropOp31
 70
     1
102
RTVSPost2010Prop32
280
     0
102
RTVSPost2010PropOp32
 70
     1
102
RTVSPost2010Prop33
280
     0
102
RTVSPost2010PropOp33
 70
     1
102
RTVSPost2010Prop34
280
     0
102
RTVSPost2010PropOp34
 70
     1
102
RTVSPost2010Prop35
280
     0
102
RTVSPost2010PropOp35
 70
     1
102
RTVSPost2010Prop36
280
     0
102
RTVSPost2010PropOp36
 70
     1
102
RTVSPost2010Prop37
 90
       50
102
RTVSPost2010PropOp37
 70
     1
102
RTVSPost2010Prop38
140
0.0
102
RTVSPost2010PropOp38
 70
     1
102
RTVSPost2010Prop39
140
1.0
102
RTVSPost2010PropOp39
 70
     1
102
RTVSPost2010Prop40
 90
        0
102
RTVSPost2010PropOp40
 70
     1
102
RTVSPost2010Prop41ColorIndex
 90
       18
102
RTVSPost2010Prop41ColorRGB
 90
        0
102
RTVSPost2010PropOp41
 70
     1
102
RTVSPost2010Prop42
 90
       50
102
RTVSPost2010PropOp42
 70
     1
102
RTVSPost2010Prop43
 90
        3
102
RTVSPost2010PropOp43
 70
     1
102
RTVSPost2010Prop44ColorIndex
 90
        5
102
RTVSPost2010Prop44ColorRGB
 90
      255
102
RTVSPost2010PropOp44
 70
     1
102
RTVSPost2010Prop45
280
     0
102
RTVSPost2010PropOp45
 70
     1
102
RTVSPost2010Prop46
 90
       50
102
RTVSPost2010PropOp46
 70
     1
102
RTVSPost2010Prop47
 90
       50
102
RTVSPost2010PropOp47
 70
     1
102
RTVSPost2010Prop48
 90
       50
102
RTVSPost2010PropOp48
 70
     1
102
RTVSPost2010Prop49
280
     0
102
RTVSPost2010PropOp49
 70
     1
102
RTVSPost2010Prop50
 90
       50
102
RTVSPost2010PropOp50
 70
     1
102
RTVSPost2010Prop51ColorIndex
 90
      256
102
RTVSPost2010Prop51ColorRGB
 90
-16777216
102
RTVSPost2010PropOp51
 70
     0
102
RTVSPost2010Prop52
140
1.0
102
RTVSPost2010PropOp52
 70
     0
102
RTVSPost2010Prop53
 90
        2
102
RTVSPost2010PropOp53
 70
     1
102
RTVSPost2010Prop54
  1
strokes_ogs.tif
102
RTVSPost2010PropOp54
 70
     1
102
RTVSPost2010Prop55
280
     0
102
RTVSPost2010PropOp55
 70
     1
102
RTVSPost2010Prop56
140
1.0
102
RTVSPost2010PropOp56
 70
     1
102
RTVSPost2010Prop57
140
1.0
102
RTVSPost2010PropOp57
 70
     1
  0
XRECORD
  5
1155
102
{ACAD_REACTORS
330
1154
102
}
330
1154
100
AcDbXrecord
280
     1
102
RTVSPost2010Prop28
280
     0
102
RTVSPost2010PropOp28
 70
     1
102
RTVSPost2010Prop29
280
     1
102
RTVSPost2010PropOp29
 70
     1
102
RTVSPost2010Prop30
280
     1
102
RTVSPost2010PropOp30
 70
     1
102
RTVSPost2010Prop31
280
     0
102
RTVSPost2010PropOp31
 70
     1
102
RTVSPost2010Prop32
280
     0
102
RTVSPost2010PropOp32
 70
     1
102
RTVSPost2010Prop33
280
     0
102
RTVSPost2010PropOp33
 70
     1
102
RTVSPost2010Prop34
280
     0
102
RTVSPost2010PropOp34
 70
     1
102
RTVSPost2010Prop35
280
     0
102
RTVSPost2010PropOp35
 70
     1
102
RTVSPost2010Prop36
280
     0
102
RTVSPost2010PropOp36
 70
     1
102
RTVSPost2010Prop37
 90
       50
102
RTVSPost2010PropOp37
 70
     1
102
RTVSPost2010Prop38
140
0.0
102
RTVSPost2010PropOp38
 70
     1
102
RTVSPost2010Prop39
140
1.0
102
RTVSPost2010PropOp39
 70
     1
102
RTVSPost2010Prop40
 90
        0
102
RTVSPost2010PropOp40
 70
     1
102
RTVSPost2010Prop41ColorIndex
 90
       18
102
RTVSPost2010Prop41ColorRGB
 90
        0
102
RTVSPost2010PropOp41
 70
     1
102
RTVSPost2010Prop42
 90
       50
102
RTVSPost2010PropOp42
 70
     1
102
RTVSPost2010Prop43
 90
        3
102
RTVSPost2010PropOp43
 70
     1
102
RTVSPost2010Prop44ColorIndex
 90
        5
102
RTVSPost2010Prop44ColorRGB
 90
      255
102
RTVSPost2010PropOp44
 70
     1
102
RTVSPost2010Prop45
280
     0
102
RTVSPost2010PropOp45
 70
     1
102
RTVSPost2010Prop46
 90
       50
102
RTVSPost2010PropOp46
 70
     1
102
RTVSPost2010Prop47
 90
       50
102
RTVSPost2010PropOp47
 70
     1
102
RTVSPost2010Prop48
 90
       50
102
RTVSPost2010PropOp48
 70
     1
102
RTVSPost2010Prop49
280
     0
102
RTVSPost2010PropOp49
 70
     1
102
RTVSPost2010Prop50
 90
       50
102
RTVSPost2010PropOp50
 70
     1
102
RTVSPost2010Prop51ColorIndex
 90
      256
102
RTVSPost2010Prop51ColorRGB
 90
-16777216
102
RTVSPost2010PropOp51
 70
     0
102
RTVSPost2010Prop52
140
1.0
102
RTVSPost2010PropOp52
 70
     0
102
RTVSPost2010Prop53
 90
        2
102
RTVSPost2010PropOp53
 70
     1
102
RTVSPost2010Prop54
  1
strokes_ogs.tif
102
RTVSPost2010PropOp54
 70
     1
102
RTVSPost2010Prop55
280
     0
102
RTVSPost2010PropOp55
 70
     1
102
RTVSPost2010Prop56
140
1.0
102
RTVSPost2010PropOp56
 70
     1
102
RTVSPost2010Prop57
140
1.0
102
RTVSPost2010PropOp57
 70
     1
  0
XRECORD
  5
116D
102
{ACAD_REACTORS
330
116C
102
}
330
116C
100
AcDbXrecord
280
     1
102
RTVSPost2010Prop28
280
     0
102
RTVSPost2010PropOp28
 70
     1
102
RTVSPost2010Prop29
280
     1
102
RTVSPost2010PropOp29
 70
     1
102
RTVSPost2010Prop30
280
     1
102
RTVSPost2010PropOp30
 70
     1
102
RTVSPost2010Prop31
280
     0
102
RTVSPost2010PropOp31
 70
     1
102
RTVSPost2010Prop32
280
     0
102
RTVSPost2010PropOp32
 70
     1
102
RTVSPost2010Prop33
280
     0
102
RTVSPost2010PropOp33
 70
     1
102
RTVSPost2010Prop34
280
     0
102
RTVSPost2010PropOp34
 70
     1
102
RTVSPost2010Prop35
280
     0
102
RTVSPost2010PropOp35
 70
     1
102
RTVSPost2010Prop36
280
     0
102
RTVSPost2010PropOp36
 70
     1
102
RTVSPost2010Prop37
 90
       50
102
RTVSPost2010PropOp37
 70
     1
102
RTVSPost2010Prop38
140
0.0
102
RTVSPost2010PropOp38
 70
     1
102
RTVSPost2010Prop39
140
1.0
102
RTVSPost2010PropOp39
 70
     1
102
RTVSPost2010Prop40
 90
        0
102
RTVSPost2010PropOp40
 70
     1
102
RTVSPost2010Prop41ColorIndex
 90
       18
102
RTVSPost2010Prop41ColorRGB
 90
        0
102
RTVSPost2010PropOp41
 70
     1
102
RTVSPost2010Prop42
 90
       50
102
RTVSPost2010PropOp42
 70
     1
102
RTVSPost2010Prop43
 90
        3
102
RTVSPost2010PropOp43
 70
     1
102
RTVSPost2010Prop44ColorIndex
 90
        5
102
RTVSPost2010Prop44ColorRGB
 90
      255
102
RTVSPost2010PropOp44
 70
     1
102
RTVSPost2010Prop45
280
     0
102
RTVSPost2010PropOp45
 70
     1
102
RTVSPost2010Prop46
 90
       50
102
RTVSPost2010PropOp46
 70
     1
102
RTVSPost2010Prop47
 90
       50
102
RTVSPost2010PropOp47
 70
     1
102
RTVSPost2010Prop48
 90
       50
102
RTVSPost2010PropOp48
 70
     1
102
RTVSPost2010Prop49
280
     0
102
RTVSPost2010PropOp49
 70
     1
102
RTVSPost2010Prop50
 90
       50
102
RTVSPost2010PropOp50
 70
     1
102
RTVSPost2010Prop51ColorIndex
 90
      256
102
RTVSPost2010Prop51ColorRGB
 90
-16777216
102
RTVSPost2010PropOp51
 70
     0
102
RTVSPost2010Prop52
140
1.0
102
RTVSPost2010PropOp52
 70
     0
102
RTVSPost2010Prop53
 90
        2
102
RTVSPost2010PropOp53
 70
     1
102
RTVSPost2010Prop54
  1
strokes_ogs.tif
102
RTVSPost2010PropOp54
 70
     1
102
RTVSPost2010Prop55
280
     0
102
RTVSPost2010PropOp55
 70
     1
102
RTVSPost2010Prop56
140
1.0
102
RTVSPost2010PropOp56
 70
     1
102
RTVSPost2010Prop57
140
1.0
102
RTVSPost2010PropOp57
 70
     1
  0
ENDSEC
  0
EOF
