  0
SECTION
  2
HEADER
  9
$ACADVER
  1
AC1015
  9
$ACADMAINTVER
 70
     6
  9
$DWGCODEPAGE
  3
ANSI_1252
  9
$INSBASE
 10
0.0
 20
0.0
 30
0.0
  9
$EXTMIN
 10
0.0
 20
0.0
 30
0.0
  9
$EXTMAX
 10
1682.0
 20
2378.0
 30
0.0
  9
$LIMMIN
 10
0.0
 20
0.0
  9
$LIMMAX
 10
1682.0
 20
2378.0
  9
$ORTHOMODE
 70
     0
  9
$REGENMODE
 70
     1
  9
$FILLMODE
 70
     1
  9
$QTEXTMODE
 70
     0
  9
$MIRRTEXT
 70
     1
  9
$LTSCALE
 40
1.0
  9
$ATTMODE
 70
     1
  9
$TEXTSIZE
 40
2.5
  9
$TRACEWID
 40
1.0
  9
$TEXTSTYLE
  7
Standard
  9
$CLAYER
  8
0
  9
$CELTYPE
  6
ByLayer
  9
$CECOLOR
 62
   256
  9
$CELTSCALE
 40
1.0
  9
$DISPSILH
 70
     0
  9
$DIMSCALE
 40
1.0
  9
$DIMASZ
 40
2.5
  9
$DIMEXO
 40
0.625
  9
$DIMDLI
 40
3.75
  9
$DIMRND
 40
0.0
  9
$DIMDLE
 40
0.0
  9
$DIMEXE
 40
1.25
  9
$DIMTP
 40
0.0
  9
$DIMTM
 40
0.0
  9
$DIMTXT
 40
2.5
  9
$DIMCEN
 40
2.5
  9
$DIMTSZ
 40
0.0
  9
$DIMTOL
 70
     0
  9
$DIMLIM
 70
     0
  9
$DIMTIH
 70
     0
  9
$DIMTOH
 70
     0
  9
$DIMSE1
 70
     0
  9
$DIMSE2
 70
     0
  9
$DIMTAD
 70
     1
  9
$DIMZIN
 70
     8
  9
$DIMBLK
  1

  9
$DIMASO
 70
     1
  9
$DIMSHO
 70
     1
  9
$DIMPOST
  1

  9
$DIMAPOST
  1

  9
$DIMALT
 70
     0
  9
$DIMALTD
 70
     3
  9
$DIMALTF
 40
0.0393700787
  9
$DIMLFAC
 40
1.0
  9
$DIMTOFL
 70
     1
  9
$DIMTVP
 40
0.0
  9
$DIMTIX
 70
     0
  9
$DIMSOXD
 70
     0
  9
$DIMSAH
 70
     0
  9
$DIMBLK1
  1

  9
$DIMBLK2
  1

  9
$DIMSTYLE
  2
ISO-25
  9
$DIMCLRD
 70
     0
  9
$DIMCLRE
 70
     0
  9
$DIMCLRT
 70
     0
  9
$DIMTFAC
 40
1.0
  9
$DIMGAP
 40
0.625
  9
$DIMJUST
 70
     0
  9
$DIMSD1
 70
     0
  9
$DIMSD2
 70
     0
  9
$DIMTOLJ
 70
     0
  9
$DIMTZIN
 70
     8
  9
$DIMALTZ
 70
     0
  9
$DIMALTTZ
 70
     0
  9
$DIMUPT
 70
     0
  9
$DIMDEC
 70
     2
  9
$DIMTDEC
 70
     2
  9
$DIMALTU
 70
     2
  9
$DIMALTTD
 70
     3
  9
$DIMTXSTY
  7
Standard
  9
$DIMAUNIT
 70
     0
  9
$DIMADEC
 70
     0
  9
$DIMALTRND
 40
0.0
  9
$DIMAZIN
 70
     0
  9
$DIMDSEP
 70
    44
  9
$DIMATFIT
 70
     3
  9
$DIMFRAC
 70
     0
  9
$DIMLDRBLK
  1

  9
$DIMLUNIT
 70
     2
  9
$DIMLWD
 70
    -2
  9
$DIMLWE
 70
    -2
  9
$DIMTMOVE
 70
     0
  9
$LUNITS
 70
     2
  9
$LUPREC
 70
     4
  9
$SKETCHINC
 40
1.0
  9
$FILLETRAD
 40
10.0
  9
$AUNITS
 70
     0
  9
$AUPREC
 70
     0
  9
$MENU
  1
.
  9
$ELEVATION
 40
0.0
  9
$PELEVATION
 40
0.0
  9
$THICKNESS
 40
0.0
  9
$LIMCHECK
 70
     0
  9
$CHAMFERA
 40
10.0
  9
$CHAMFERB
 40
10.0
  9
$CHAMFERC
 40
20.0
  9
$CHAMFERD
 40
0.0
  9
$SKPOLY
 70
     0
  9
$TDCREATE
 40
2455567.37766625
  9
$TDUCREATE
 40
2455567.335999583
  9
$TDUPDATE
 40
2455567.377666262
  9
$TDUUPDATE
 40
2455567.335999595
  9
$TDINDWG
 40
0.0000000116
  9
$TDUSRTIMER
 40
0.0000000116
  9
$USRTIMER
 70
     1
  9
$ANGBASE
 50
0.0
  9
$ANGDIR
 70
     0
  9
$PDMODE
 70
     0
  9
$PDSIZE
 40
0.0
  9
$PLINEWID
 40
0.0
  9
$SPLFRAME
 70
     0
  9
$SPLINETYPE
 70
     6
  9
$SPLINESEGS
 70
     8
  9
$HANDSEED
  5
FD
  9
$SURFTAB1
 70
     6
  9
$SURFTAB2
 70
     6
  9
$SURFTYPE
 70
     6
  9
$SURFU
 70
     6
  9
$SURFV
 70
     6
  9
$UCSBASE
  2

  9
$UCSNAME
  2

  9
$UCSORG
 10
0.0
 20
0.0
 30
0.0
  9
$UCSXDIR
 10
1.0
 20
0.0
 30
0.0
  9
$UCSYDIR
 10
0.0
 20
1.0
 30
0.0
  9
$UCSORTHOREF
  2

  9
$UCSORTHOVIEW
 70
     0
  9
$UCSORGTOP
 10
0.0
 20
0.0
 30
0.0
  9
$UCSORGBOTTOM
 10
0.0
 20
0.0
 30
0.0
  9
$UCSORGLEFT
 10
0.0
 20
0.0
 30
0.0
  9
$UCSORGRIGHT
 10
0.0
 20
0.0
 30
0.0
  9
$UCSORGFRONT
 10
0.0
 20
0.0
 30
0.0
  9
$UCSORGBACK
 10
0.0
 20
0.0
 30
0.0
  9
$PUCSBASE
  2

  9
$PUCSNAME
  2

  9
$PUCSORG
 10
0.0
 20
0.0
 30
0.0
  9
$PUCSXDIR
 10
1.0
 20
0.0
 30
0.0
  9
$PUCSYDIR
 10
0.0
 20
1.0
 30
0.0
  9
$PUCSORTHOREF
  2

  9
$PUCSORTHOVIEW
 70
     0
  9
$PUCSORGTOP
 10
0.0
 20
0.0
 30
0.0
  9
$PUCSORGBOTTOM
 10
0.0
 20
0.0
 30
0.0
  9
$PUCSORGLEFT
 10
0.0
 20
0.0
 30
0.0
  9
$PUCSORGRIGHT
 10
0.0
 20
0.0
 30
0.0
  9
$PUCSORGFRONT
 10
0.0
 20
0.0
 30
0.0
  9
$PUCSORGBACK
 10
0.0
 20
0.0
 30
0.0
  9
$USERI1
 70
     0
  9
$USERI2
 70
     0
  9
$USERI3
 70
     0
  9
$USERI4
 70
     0
  9
$USERI5
 70
     0
  9
$USERR1
 40
0.0
  9
$USERR2
 40
0.0
  9
$USERR3
 40
0.0
  9
$USERR4
 40
0.0
  9
$USERR5
 40
0.0
  9
$WORLDVIEW
 70
     1
  9
$SHADEDGE
 70
     3
  9
$SHADEDIF
 70
    70
  9
$TILEMODE
 70
     1
  9
$MAXACTVP
 70
    64
  9
$PINSBASE
 10
0.0
 20
0.0
 30
0.0
  9
$PLIMCHECK
 70
     0
  9
$PEXTMIN
 10
0.0
 20
0.0
 30
0.0
  9
$PEXTMAX
 10
1682.0
 20
2378.0
 30
0.0
  9
$PLIMMIN
 10
0.0
 20
0.0
  9
$PLIMMAX
 10
1682.0
 20
2378.0
  9
$UNITMODE
 70
     0
  9
$VISRETAIN
 70
     1
  9
$PLINEGEN
 70
     0
  9
$PSLTSCALE
 70
     1
  9
$TREEDEPTH
 70
  3020
  9
$CMLSTYLE
  2
Standard
  9
$CMLJUST
 70
     0
  9
$CMLSCALE
 40
20.0
  9
$PROXYGRAPHICS
 70
     1
  9
$MEASUREMENT
 70
     1
  9
$CELWEIGHT
370
    -1
  9
$ENDCAPS
280
     0
  9
$JOINSTYLE
280
     0
  9
$LWDISPLAY
290
     0
  9
$INSUNITS
 70
     4
  9
$HYPERLINKBASE
  1

  9
$STYLESHEET
  1

  9
$XEDIT
290
     1
  9
$CEPSNTYPE
380
     0
  9
$PSTYLEMODE
290
     1
  9
$FINGERPRINTGUID
  2
{C90012A0-45EC-40FD-95B9-E8C8C9CD4D57}
  9
$VERSIONGUID
  2
{FAEB1C32-E019-11D5-929B-00C0DF256EC4}
  9
$EXTNAMES
290
     1
  9
$PSVPSCALE
 40
0.0
  9
$OLESTARTUP
290
     0
  0
ENDSEC
  0
SECTION
  2
CLASSES
  0
CLASS
  1
ACDBDICTIONARYWDFLT
  2
AcDbDictionaryWithDefault
  3
ObjectDBX Classes
 90
        0
280
     0
281
     0
  0
CLASS
  1
VISUALSTYLE
  2
AcDbVisualStyle
  3
ObjectDBX Classes
 90
     4095
280
     0
281
     0
  0
CLASS
  1
SCALE
  2
AcDbScale
  3
ObjectDBX Classes
 90
     1153
280
     0
281
     0
  0
CLASS
  1
DICTIONARYVAR
  2
AcDbDictionaryVar
  3
ObjectDBX Classes
 90
        0
280
     0
281
     0
  0
CLASS
  1
ACDBPLACEHOLDER
  2
AcDbPlaceHolder
  3
ObjectDBX Classes
 90
        0
280
     0
281
     0
  0
CLASS
  1
LAYOUT
  2
AcDbLayout
  3
ObjectDBX Classes
 90
        0
280
     0
281
     0
  0
ENDSEC
  0
SECTION
  2
TABLES
  0
TABLE
  2
VPORT
  5
8
330
0
100
AcDbSymbolTable
 70
     1
  0
VPORT
  5
29
330
8
100
AcDbSymbolTableRecord
100
AcDbViewportTableRecord
  2
*Active
 70
     0
 10
0.0
 20
0.0
 11
1.0
 21
1.0
 12
344.1869158879
 22
148.5
 13
0.0
 23
0.0
 14
10.0
 24
10.0
 15
10.0
 25
10.0
 16
0.0
 26
0.0
 36
1.0
 17
0.0
 27
0.0
 37
0.0
 40
297.0
 41
1.9729729729
 42
50.0
 43
0.0
 44
0.0
 50
0.0
 51
0.0
 71
     0
 72
   100
 73
     1
 74
     3
 75
     0
 76
     0
 77
     0
 78
     0
281
     0
 65
     1
110
0.0
120
0.0
130
0.0
111
1.0
121
0.0
131
0.0
112
0.0
122
1.0
132
0.0
 79
     0
146
0.0
  0
ENDTAB
  0
TABLE
  2
LTYPE
  5
5
330
0
100
AcDbSymbolTable
 70
     2
  0
LTYPE
  5
14
330
5
100
AcDbSymbolTableRecord
100
AcDbLinetypeTableRecord
  2
ByBlock
 70
     0
  3

 72
    65
 73
     0
 40
0.0
  0
LTYPE
  5
15
330
5
100
AcDbSymbolTableRecord
100
AcDbLinetypeTableRecord
  2
ByLayer
 70
     0
  3

 72
    65
 73
     0
 40
0.0
  0
LTYPE
  5
16
330
5
100
AcDbSymbolTableRecord
100
AcDbLinetypeTableRecord
  2
Continuous
 70
     0
  3
Solid line
 72
    65
 73
     0
 40
0.0
  0
LTYPE
  5
60
330
5
100
AcDbSymbolTableRecord
100
AcDbLinetypeTableRecord
  2
CENTER2
 70
     0
  3
Center (.5x) ___ _ ___ _ ___ _ ___ _ ___ _ ___
 72
    65
 73
     4
 40
28.575
 49
19.05
 74
     4
 75
     0
340
0
 46
0.0
 50
0.0
 44
0.0
 45
0.0
 49
-3.175
 74
     4
 75
     0
340
0
 46
0.0
 50
0.0
 44
0.0
 45
0.0
 49
3.175
 74
     4
 75
     0
340
0
 46
0.0
 50
0.0
 44
0.0
 45
0.0
 49
-3.175
 74
     4
 75
     0
340
0
 46
0.0
 50
0.0
 44
0.0
 45
0.0
  0
ENDTAB
  0
TABLE
  2
LAYER
  5
2
330
0
100
AcDbSymbolTable
 70
     3
  0
LAYER
  5
10
330
2
100
AcDbSymbolTableRecord
100
AcDbLayerTableRecord
  2
0
 70
     0
 62
     7
  6
Continuous
370
    -3
390
F
  0
LAYER
  5
5D
330
2
100
AcDbSymbolTableRecord
100
AcDbLayerTableRecord
  2
Default
 70
     0
 62
     7
  6
Continuous
370
    -3
390
F
  0
LAYER
  5
83
330
2
100
AcDbSymbolTableRecord
100
AcDbLayerTableRecord
  2
28158000_BRAUSES
 70
     0
 62
     7
  6
Continuous
370
    -3
390
F
  0
ENDTAB
  0
TABLE
  2
STYLE
  5
3
330
0
100
AcDbSymbolTable
 70
     2
  0
STYLE
  5
11
330
3
100
AcDbSymbolTableRecord
100
AcDbTextStyleTableRecord
  2
Standard
 70
     0
 40
0.0
 41
1.0
 50
0.0
 71
     0
 42
2.5
  3
txt
  4

  0
STYLE
  5
EC
330
3
100
AcDbSymbolTableRecord
100
AcDbTextStyleTableRecord
  2
SEACAD_seiso_ttf
 70
     0
 40
0.0
 41
1.0
 50
0.0
 71
     0
 42
0.2
  3
seiso.ttf
  4

  0
ENDTAB
  0
TABLE
  2
VIEW
  5
6
330
0
100
AcDbSymbolTable
 70
     0
  0
ENDTAB
  0
TABLE
  2
UCS
  5
7
330
0
100
AcDbSymbolTable
 70
     0
  0
ENDTAB
  0
TABLE
  2
APPID
  5
9
330
0
100
AcDbSymbolTable
 70
     1
  0
APPID
  5
12
330
9
100
AcDbSymbolTableRecord
100
AcDbRegAppTableRecord
  2
ACAD
 70
     0
  0
ENDTAB
  0
TABLE
  2
DIMSTYLE
  5
A
330
0
100
AcDbSymbolTable
 70
     1
100
AcDbDimStyleTable
  0
DIMSTYLE
105
27
330
A
100
AcDbSymbolTableRecord
100
AcDbDimStyleTableRecord
  2
ISO-25
 70
     0
 41
2.5
 42
0.625
 43
3.75
 44
1.25
 73
     0
 74
     0
 77
     1
 78
     8
140
2.5
141
2.5
143
0.0393700787
147
0.625
171
     3
172
     1
271
     2
272
     2
274
     3
278
    44
283
     0
284
     8
340
11
  0
ENDTAB
  0
TABLE
  2
BLOCK_RECORD
  5
1
330
0
100
AcDbSymbolTable
 70
     9
  0
BLOCK_RECORD
  5
1F
330
1
100
AcDbSymbolTableRecord
100
AcDbBlockTableRecord
  2
*Model_Space
340
22
  0
BLOCK_RECORD
  5
1B
330
1
100
AcDbSymbolTableRecord
100
AcDbBlockTableRecord
  2
*Paper_Space
340
1E
  0
BLOCK_RECORD
  5
5E
330
1
100
AcDbSymbolTableRecord
100
AcDbBlockTableRecord
  2
SEANNOT_GROUP
340
0
102
{BLKREFS
331
5F
102
}
  0
BLOCK_RECORD
  5
65
330
1
100
AcDbSymbolTableRecord
100
AcDbBlockTableRecord
  2
SEANNOT_GROUP1
340
0
102
{BLKREFS
331
66
102
}
  0
BLOCK_RECORD
  5
6B
330
1
100
AcDbSymbolTableRecord
100
AcDbBlockTableRecord
  2
SEANNOT_GROUP2
340
0
102
{BLKREFS
331
6C
102
}
  0
BLOCK_RECORD
  5
71
330
1
100
AcDbSymbolTableRecord
100
AcDbBlockTableRecord
  2
SEANNOT_GROUP3
340
0
102
{BLKREFS
331
72
102
}
  0
BLOCK_RECORD
  5
77
330
1
100
AcDbSymbolTableRecord
100
AcDbBlockTableRecord
  2
SEANNOT_GROUP4
340
0
102
{BLKREFS
331
78
102
}
  0
BLOCK_RECORD
  5
81
330
1
100
AcDbSymbolTableRecord
100
AcDbBlockTableRecord
  2
SE
340
0
102
{BLKREFS
331
82
102
}
  0
BLOCK_RECORD
  5
B6
330
1
100
AcDbSymbolTableRecord
100
AcDbBlockTableRecord
  2
SE1
340
0
102
{BLKREFS
331
B7
102
}
  0
BLOCK_RECORD
  5
E6
330
1
100
AcDbSymbolTableRecord
100
AcDbBlockTableRecord
  2
SE2
340
0
102
{BLKREFS
331
E7
102
}
  0
ENDTAB
  0
ENDSEC
  0
SECTION
  2
BLOCKS
  0
BLOCK
  5
20
330
1F
100
AcDbEntity
  8
0
100
AcDbBlockBegin
  2
*Model_Space
 70
     0
 10
0.0
 20
0.0
 30
0.0
  3
*Model_Space
  1

  0
ENDBLK
  5
21
330
1F
100
AcDbEntity
  8
0
100
AcDbBlockEnd
  0
BLOCK
  5
1C
330
1B
100
AcDbEntity
 67
     1
  8
0
100
AcDbBlockBegin
  2
*Paper_Space
 70
     0
 10
0.0
 20
0.0
 30
0.0
  3
*Paper_Space
  1

  0
ENDBLK
  5
1D
330
1B
100
AcDbEntity
 67
     1
  8
0
100
AcDbBlockEnd
  0
BLOCK
  5
63
330
5E
100
AcDbEntity
  8
0
100
AcDbBlockBegin
  2
SEANNOT_GROUP
 70
     0
 10
0.0
 20
0.0
 30
0.0
  3
SEANNOT_GROUP
  1

  0
LINE
  5
61
330
5E
100
AcDbEntity
  8
Default
  6
CENTER2
 62
     7
100
AcDbLine
 10
73.8595671601
 20
2192.65
 30
0.0
 11
33.8595680541
 21
2192.65
 31
0.0
  0
LINE
  5
62
330
5E
100
AcDbEntity
  8
Default
  6
CENTER2
 62
     7
100
AcDbLine
 10
53.8595676071
 20
2212.649999553
 30
0.0
 11
53.8595676071
 21
2172.650000447
 31
0.0
  0
ENDBLK
  5
64
330
5E
100
AcDbEntity
  8
0
100
AcDbBlockEnd
  0
BLOCK
  5
69
330
65
100
AcDbEntity
  8
0
100
AcDbBlockBegin
  2
SEANNOT_GROUP1
 70
     0
 10
0.0
 20
0.0
 30
0.0
  3
SEANNOT_GROUP1
  1

  0
LINE
  5
67
330
65
100
AcDbEntity
  8
Default
  6
CENTER2
 62
     7
100
AcDbLine
 10
160.1595671601
 20
2192.65
 30
0.0
 11
120.1595680541
 21
2192.65
 31
0.0
  0
LINE
  5
68
330
65
100
AcDbEntity
  8
Default
  6
CENTER2
 62
     7
100
AcDbLine
 10
140.1595676071
 20
2212.649999553
 30
0.0
 11
140.1595676071
 21
2172.650000447
 31
0.0
  0
ENDBLK
  5
6A
330
65
100
AcDbEntity
  8
0
100
AcDbBlockEnd
  0
BLOCK
  5
6F
330
6B
100
AcDbEntity
  8
0
100
AcDbBlockBegin
  2
SEANNOT_GROUP2
 70
     0
 10
0.0
 20
0.0
 30
0.0
  3
SEANNOT_GROUP2
  1

  0
LINE
  5
6D
330
6B
100
AcDbEntity
  8
Default
  6
CENTER2
 62
     7
100
AcDbLine
 10
73.8595671601
 20
192.65
 30
0.0
 11
33.8595680541
 21
192.65
 31
0.0
  0
LINE
  5
6E
330
6B
100
AcDbEntity
  8
Default
  6
CENTER2
 62
     7
100
AcDbLine
 10
53.8595676071
 20
212.649999553
 30
0.0
 11
53.8595676071
 21
172.650000447
 31
0.0
  0
ENDBLK
  5
70
330
6B
100
AcDbEntity
  8
0
100
AcDbBlockEnd
  0
BLOCK
  5
75
330
71
100
AcDbEntity
  8
0
100
AcDbBlockBegin
  2
SEANNOT_GROUP3
 70
     0
 10
0.0
 20
0.0
 30
0.0
  3
SEANNOT_GROUP3
  1

  0
LINE
  5
73
330
71
100
AcDbEntity
  8
Default
  6
CENTER2
 62
     7
100
AcDbLine
 10
160.1595671601
 20
192.65
 30
0.0
 11
120.1595680541
 21
192.65
 31
0.0
  0
LINE
  5
74
330
71
100
AcDbEntity
  8
Default
  6
CENTER2
 62
     7
100
AcDbLine
 10
140.1595676071
 20
212.649999553
 30
0.0
 11
140.1595676071
 21
172.650000447
 31
0.0
  0
ENDBLK
  5
76
330
71
100
AcDbEntity
  8
0
100
AcDbBlockEnd
  0
BLOCK
  5
7F
330
77
100
AcDbEntity
  8
0
100
AcDbBlockBegin
  2
SEANNOT_GROUP4
 70
     0
 10
0.0
 20
0.0
 30
0.0
  3
SEANNOT_GROUP4
  1

  0
LINE
  5
79
330
77
100
AcDbEntity
  8
Default
  6
CENTER2
 62
     7
100
AcDbLine
 10
73.8595671601
 20
118.15
 30
0.0
 11
33.8595680541
 21
118.15
 31
0.0
  0
LINE
  5
7A
330
77
100
AcDbEntity
  8
Default
  6
CENTER2
 62
     7
100
AcDbLine
 10
53.8595676071
 20
138.149999553
 30
0.0
 11
53.8595676071
 21
98.150000447
 31
0.0
  0
LINE
  5
7B
330
77
100
AcDbEntity
  8
Default
  6
CENTER2
 62
     7
100
AcDbLine
 10
78.8595670483
 20
118.15
 30
0.0
 11
68.6595676071
 21
118.15
 31
0.0
  0
LINE
  5
7C
330
77
100
AcDbEntity
  8
Default
  6
CENTER2
 62
     7
100
AcDbLine
 10
53.8595676071
 20
143.1499994412
 30
0.0
 11
53.8595676071
 21
132.95
 31
0.0
  0
LINE
  5
7D
330
77
100
AcDbEntity
  8
Default
  6
CENTER2
 62
     7
100
AcDbLine
 10
28.8595681659
 20
118.15
 30
0.0
 11
39.0595676071
 21
118.15
 31
0.0
  0
LINE
  5
7E
330
77
100
AcDbEntity
  8
Default
  6
CENTER2
 62
     7
100
AcDbLine
 10
53.8595676071
 20
93.1500005588
 30
0.0
 11
53.8595676071
 21
103.35
 31
0.0
  0
ENDBLK
  5
80
330
77
100
AcDbEntity
  8
0
100
AcDbBlockEnd
  0
BLOCK
  5
B4
330
81
100
AcDbEntity
  8
0
100
AcDbBlockBegin
  2
SE
 70
     0
 10
0.0
 20
0.0
 30
0.0
  3
SE
  1

  0
LINE
  5
84
330
81
100
AcDbEntity
  8
28158000_BRAUSES
  6
Continuous
 62
     7
100
AcDbLine
 10
42.5595676071
 20
2189.65
 30
0.0
 11
65.1595676071
 21
2189.65
 31
0.0
  0
LINE
  5
85
330
81
100
AcDbEntity
  8
28158000_BRAUSES
  6
Continuous
 62
     7
100
AcDbLine
 10
43.0595676071
 20
2192.65
 30
0.0
 11
64.6595676071
 21
2192.65
 31
0.0
  0
LINE
  5
86
330
81
100
AcDbEntity
  8
28158000_BRAUSES
  6
Continuous
 62
     7
100
AcDbLine
 10
47.8595676071
 20
192.65
 30
0.0
 11
59.8595676071
 21
192.65
 31
0.0
  0
LINE
  5
87
330
81
100
AcDbEntity
  8
28158000_BRAUSES
  6
Continuous
 62
     7
100
AcDbLine
 10
46.4458676071
 20
193.65
 30
0.0
 11
61.2732676071
 21
193.65
 31
0.0
  0
LINE
  5
88
330
81
100
AcDbEntity
  8
28158000_BRAUSES
  6
Continuous
 62
     7
100
AcDbLine
 10
45.7095676071
 20
194.3875
 30
0.0
 11
62.0095676071
 21
194.3875
 31
0.0
  0
LINE
  5
89
330
81
100
AcDbEntity
  8
28158000_BRAUSES
  6
Continuous
 62
     7
100
AcDbLine
 10
45.7095676071
 20
231.35
 30
0.0
 11
62.0095676071
 21
231.35
 31
0.0
  0
LINE
  5
8A
330
81
100
AcDbEntity
  8
28158000_BRAUSES
  6
Continuous
 62
     7
100
AcDbLine
 10
46.0095676071
 20
231.65
 30
0.0
 11
61.7095676071
 21
231.65
 31
0.0
  0
LINE
  5
8B
330
81
100
AcDbEntity
  8
28158000_BRAUSES
  6
Continuous
 62
     7
100
AcDbLine
 10
46.3595676071
 20
2161.15
 30
0.0
 11
61.3595676071
 21
2161.15
 31
0.0
  0
LINE
  5
8C
330
81
100
AcDbEntity
  8
28158000_BRAUSES
  6
Continuous
 62
     7
100
AcDbLine
 10
44.7095676071
 20
2161.85
 30
0.0
 11
63.0095676071
 21
2161.85
 31
0.0
  0
LINE
  5
8D
330
81
100
AcDbEntity
  8
28158000_BRAUSES
  6
Continuous
 62
     7
100
AcDbLine
 10
43.9095676071
 20
2165.05
 30
0.0
 11
63.8095676071
 21
2165.05
 31
0.0
  0
LINE
  5
8E
330
81
100
AcDbEntity
  8
28158000_BRAUSES
  6
Continuous
 62
     7
100
AcDbLine
 10
43.2901316071
 20
2165.669434
 30
0.0
 11
64.4290036071
 21
2165.669434
 31
0.0
  0
LINE
  5
8F
330
81
100
AcDbEntity
  8
28158000_BRAUSES
  6
Continuous
 62
     7
100
AcDbLine
 10
42.0595676071
 20
2189.15
 30
0.0
 11
65.6595676071
 21
2189.15
 31
0.0
  0
LINE
  5
90
330
81
100
AcDbEntity
  8
28158000_BRAUSES
  6
Continuous
 62
     7
100
AcDbLine
 10
60.8595676071
 20
210.6475
 30
0.0
 11
62.0095676071
 21
210.6475
 31
0.0
  0
LINE
  5
91
330
81
100
AcDbEntity
  8
28158000_BRAUSES
  6
Continuous
 62
     7
100
AcDbLine
 10
60.8595676071
 20
204.6475
 30
0.0
 11
60.8595676071
 21
210.6475
 31
0.0
  0
LINE
  5
92
330
81
100
AcDbEntity
  8
28158000_BRAUSES
  6
Continuous
 62
     7
100
AcDbLine
 10
60.8595676071
 20
204.6475
 30
0.0
 11
62.0095676071
 21
204.6475
 31
0.0
  0
LINE
  5
93
330
81
100
AcDbEntity
  8
28158000_BRAUSES
  6
Continuous
 62
     7
100
AcDbLine
 10
46.8595676071
 20
210.6475
 30
0.0
 11
45.7095676071
 21
210.6475
 31
0.0
  0
LINE
  5
94
330
81
100
AcDbEntity
  8
28158000_BRAUSES
  6
Continuous
 62
     7
100
AcDbLine
 10
46.8595676071
 20
204.6475
 30
0.0
 11
46.8595676071
 21
210.6475
 31
0.0
  0
LINE
  5
95
330
81
100
AcDbEntity
  8
28158000_BRAUSES
  6
Continuous
 62
     7
100
AcDbLine
 10
46.8595676071
 20
204.6475
 30
0.0
 11
45.7095676071
 21
204.6475
 31
0.0
  0
LINE
  5
96
330
81
100
AcDbEntity
  8
28158000_BRAUSES
  6
Continuous
 62
     7
100
AcDbLine
 10
65.1595676071
 20
2189.65
 30
0.0
 11
65.1595676071
 21
2192.15
 31
0.0
  0
LINE
  5
97
330
81
100
AcDbEntity
  8
28158000_BRAUSES
  6
Continuous
 62
     7
100
AcDbLine
 10
42.5595676071
 20
2192.15
 30
0.0
 11
42.5595676071
 21
2189.65
 31
0.0
  0
ARC
  5
98
330
81
100
AcDbEntity
  8
28158000_BRAUSES
  6
Continuous
 62
     7
100
AcDbCircle
 10
64.6595676071
 20
2192.15
 30
0.0
 40
0.5000000000000004
100
AcDbArc
 50
0.0
 51
90.0
  0
ARC
  5
99
330
81
100
AcDbEntity
  8
28158000_BRAUSES
  6
Continuous
 62
     7
100
AcDbCircle
 10
43.0595676071
 20
2192.15
 30
0.0
 40
0.4999999999999449
100
AcDbArc
 50
90.0
 51
180.0
  0
ARC
  5
9A
330
81
100
AcDbEntity
  8
28158000_BRAUSES
  6
Continuous
 62
     7
100
AcDbCircle
 10
59.8595676071
 20
193.15
 30
0.0
 40
0.5000000000000976
100
AcDbArc
 50
270.0
 51
0.0
  0
ARC
  5
9B
330
81
100
AcDbEntity
  8
28158000_BRAUSES
  6
Continuous
 62
     7
100
AcDbCircle
 10
47.8595676071
 20
193.15
 30
0.0
 40
0.5000000000000491
100
AcDbArc
 50
180.0
 51
270.0
  0
LINE
  5
9C
330
81
100
AcDbEntity
  8
28158000_BRAUSES
  6
Continuous
 62
     7
100
AcDbLine
 10
60.3595676071
 20
193.15
 30
0.0
 11
60.3595676071
 21
193.65
 31
0.0
  0
LINE
  5
9D
330
81
100
AcDbEntity
  8
28158000_BRAUSES
  6
Continuous
 62
     7
100
AcDbLine
 10
47.3595676071
 20
193.65
 30
0.0
 11
47.3595676071
 21
193.15
 31
0.0
  0
LINE
  5
9E
330
81
100
AcDbEntity
  8
28158000_BRAUSES
  6
Continuous
 62
     7
100
AcDbLine
 10
45.7095676071
 20
194.3875
 30
0.0
 11
46.4458676071
 21
193.65
 31
0.0
  0
LINE
  5
9F
330
81
100
AcDbEntity
  8
28158000_BRAUSES
  6
Continuous
 62
     7
100
AcDbLine
 10
61.2732676071
 20
193.65
 30
0.0
 11
62.0095676071
 21
194.3875
 31
0.0
  0
LINE
  5
A0
330
81
100
AcDbEntity
  8
28158000_BRAUSES
  6
Continuous
 62
     7
100
AcDbLine
 10
62.0095676071
 20
210.6475
 30
0.0
 11
62.0095676071
 21
231.35
 31
0.0
  0
LINE
  5
A1
330
81
100
AcDbEntity
  8
28158000_BRAUSES
  6
Continuous
 62
     7
100
AcDbLine
 10
62.0095676071
 20
194.3875
 30
0.0
 11
62.0095676071
 21
204.6475
 31
0.0
  0
LINE
  5
A2
330
81
100
AcDbEntity
  8
28158000_BRAUSES
  6
Continuous
 62
     7
100
AcDbLine
 10
45.7095676071
 20
204.6475
 30
0.0
 11
45.7095676071
 21
194.3875
 31
0.0
  0
LINE
  5
A3
330
81
100
AcDbEntity
  8
28158000_BRAUSES
  6
Continuous
 62
     7
100
AcDbLine
 10
45.7095676071
 20
231.35
 30
0.0
 11
45.7095676071
 21
210.6475
 31
0.0
  0
LINE
  5
A4
330
81
100
AcDbEntity
  8
28158000_BRAUSES
  6
Continuous
 62
     7
100
AcDbLine
 10
62.0095676071
 20
231.35
 30
0.0
 11
61.7095676071
 21
231.65
 31
0.0
  0
LINE
  5
A5
330
81
100
AcDbEntity
  8
28158000_BRAUSES
  6
Continuous
 62
     7
100
AcDbLine
 10
46.0095676071
 20
231.65
 30
0.0
 11
45.7095676071
 21
231.35
 31
0.0
  0
LINE
  5
A6
330
81
100
AcDbEntity
  8
28158000_BRAUSES
  6
Continuous
 62
     7
100
AcDbLine
 10
60.9095676071
 20
231.65
 30
0.0
 11
60.9095676071
 21
2161.15
 31
0.0
  0
LINE
  5
A7
330
81
100
AcDbEntity
  8
28158000_BRAUSES
  6
Continuous
 62
     7
100
AcDbLine
 10
46.8095676071
 20
2161.15
 30
0.0
 11
46.8095676071
 21
231.65
 31
0.0
  0
LINE
  5
A8
330
81
100
AcDbEntity
  8
28158000_BRAUSES
  6
Continuous
 62
     7
100
AcDbLine
 10
61.3595676071
 20
2161.15
 30
0.0
 11
61.3595676071
 21
2161.85
 31
0.0
  0
LINE
  5
A9
330
81
100
AcDbEntity
  8
28158000_BRAUSES
  6
Continuous
 62
     7
100
AcDbLine
 10
46.3595676071
 20
2161.85
 30
0.0
 11
46.3595676071
 21
2161.15
 31
0.0
  0
ARC
  5
AA
330
81
100
AcDbEntity
  8
28158000_BRAUSES
  6
Continuous
 62
     7
100
AcDbCircle
 10
63.0095676071
 20
2162.65
 30
0.0
 40
0.8000000000001339
100
AcDbArc
 50
270.0
 51
0.0
  0
ARC
  5
AB
330
81
100
AcDbEntity
  8
28158000_BRAUSES
  6
Continuous
 62
     7
100
AcDbCircle
 10
44.7095676071
 20
2162.65
 30
0.0
 40
0.8000000000000229
100
AcDbArc
 50
180.0
 51
270.0
  0
LINE
  5
AC
330
81
100
AcDbEntity
  8
28158000_BRAUSES
  6
Continuous
 62
     7
100
AcDbLine
 10
63.8095676071
 20
2162.65
 30
0.0
 11
63.8095676071
 21
2165.05
 31
0.0
  0
LINE
  5
AD
330
81
100
AcDbEntity
  8
28158000_BRAUSES
  6
Continuous
 62
     7
100
AcDbLine
 10
43.9095676071
 20
2165.05
 30
0.0
 11
43.9095676071
 21
2162.65
 31
0.0
  0
LINE
  5
AE
330
81
100
AcDbEntity
  8
28158000_BRAUSES
  6
Continuous
 62
     7
100
AcDbLine
 10
43.2901316071
 20
2165.669434
 30
0.0
 11
43.9095676071
 21
2165.05
 31
0.0
  0
LINE
  5
AF
330
81
100
AcDbEntity
  8
28158000_BRAUSES
  6
Continuous
 62
     7
100
AcDbLine
 10
63.8095676071
 20
2165.05
 30
0.0
 11
64.4290036071
 21
2165.669434
 31
0.0
  0
LINE
  5
B0
330
81
100
AcDbEntity
  8
28158000_BRAUSES
  6
Continuous
 62
     7
100
AcDbLine
 10
42.0595676071
 20
2189.15
 30
0.0
 11
43.2901316071
 21
2165.669434
 31
0.0
  0
LINE
  5
B1
330
81
100
AcDbEntity
  8
28158000_BRAUSES
  6
Continuous
 62
     7
100
AcDbLine
 10
64.4290036071
 20
2165.669434
 30
0.0
 11
65.6595676071
 21
2189.15
 31
0.0
  0
LINE
  5
B2
330
81
100
AcDbEntity
  8
28158000_BRAUSES
  6
Continuous
 62
     7
100
AcDbLine
 10
65.6595676071
 20
2189.15
 30
0.0
 11
65.1595676071
 21
2189.65
 31
0.0
  0
LINE
  5
B3
330
81
100
AcDbEntity
  8
28158000_BRAUSES
  6
Continuous
 62
     7
100
AcDbLine
 10
42.5595676071
 20
2189.65
 30
0.0
 11
42.0595676071
 21
2189.15
 31
0.0
  0
ENDBLK
  5
B5
330
81
100
AcDbEntity
  8
0
100
AcDbBlockEnd
  0
BLOCK
  5
E4
330
B6
100
AcDbEntity
  8
0
100
AcDbBlockBegin
  2
SE1
 70
     0
 10
0.0
 20
0.0
 30
0.0
  3
SE1
  1

  0
LINE
  5
B8
330
B6
100
AcDbEntity
  8
28158000_BRAUSES
  6
Continuous
 62
     7
100
AcDbLine
 10
151.4595676071
 20
2189.65
 30
0.0
 11
128.8595676071
 21
2189.65
 31
0.0
  0
LINE
  5
B9
330
B6
100
AcDbEntity
  8
28158000_BRAUSES
  6
Continuous
 62
     7
100
AcDbLine
 10
150.9595676071
 20
2192.65
 30
0.0
 11
129.3595676071
 21
2192.65
 31
0.0
  0
LINE
  5
BA
330
B6
100
AcDbEntity
  8
28158000_BRAUSES
  6
Continuous
 62
     7
100
AcDbLine
 10
146.1595676071
 20
192.65
 30
0.0
 11
134.1595676071
 21
192.65
 31
0.0
  0
LINE
  5
BB
330
B6
100
AcDbEntity
  8
28158000_BRAUSES
  6
Continuous
 62
     7
100
AcDbLine
 10
147.5732676071
 20
193.65
 30
0.0
 11
132.7458676071
 21
193.65
 31
0.0
  0
LINE
  5
BC
330
B6
100
AcDbEntity
  8
28158000_BRAUSES
  6
Continuous
 62
     7
100
AcDbLine
 10
148.3095676071
 20
194.3875
 30
0.0
 11
132.0095676071
 21
194.3875
 31
0.0
  0
LINE
  5
BD
330
B6
100
AcDbEntity
  8
28158000_BRAUSES
  6
Continuous
 62
     7
100
AcDbLine
 10
148.3095676071
 20
231.35
 30
0.0
 11
132.0095676071
 21
231.35
 31
0.0
  0
LINE
  5
BE
330
B6
100
AcDbEntity
  8
28158000_BRAUSES
  6
Continuous
 62
     7
100
AcDbLine
 10
148.0095676071
 20
231.65
 30
0.0
 11
132.3095676071
 21
231.65
 31
0.0
  0
LINE
  5
BF
330
B6
100
AcDbEntity
  8
28158000_BRAUSES
  6
Continuous
 62
     7
100
AcDbLine
 10
147.6595676071
 20
2161.15
 30
0.0
 11
132.6595676071
 21
2161.15
 31
0.0
  0
LINE
  5
C0
330
B6
100
AcDbEntity
  8
28158000_BRAUSES
  6
Continuous
 62
     7
100
AcDbLine
 10
149.3095676071
 20
2161.85
 30
0.0
 11
131.0095676071
 21
2161.85
 31
0.0
  0
LINE
  5
C1
330
B6
100
AcDbEntity
  8
28158000_BRAUSES
  6
Continuous
 62
     7
100
AcDbLine
 10
150.1095676071
 20
2165.05
 30
0.0
 11
130.2095676071
 21
2165.05
 31
0.0
  0
LINE
  5
C2
330
B6
100
AcDbEntity
  8
28158000_BRAUSES
  6
Continuous
 62
     7
100
AcDbLine
 10
150.7290036071
 20
2165.669434
 30
0.0
 11
129.5901316071
 21
2165.669434
 31
0.0
  0
LINE
  5
C3
330
B6
100
AcDbEntity
  8
28158000_BRAUSES
  6
Continuous
 62
     7
100
AcDbLine
 10
151.9595676071
 20
2189.15
 30
0.0
 11
128.3595676071
 21
2189.15
 31
0.0
  0
LINE
  5
C4
330
B6
100
AcDbEntity
  8
28158000_BRAUSES
  6
Continuous
 62
     7
100
AcDbLine
 10
144.3335944398
 20
210.6475
 30
0.0
 11
135.9855407744
 21
210.6475
 31
0.0
  0
LINE
  5
C5
330
B6
100
AcDbEntity
  8
28158000_BRAUSES
  6
Continuous
 62
     7
100
AcDbLine
 10
144.3335944398
 20
204.6475
 30
0.0
 11
144.3335944398
 21
210.6475
 31
0.0
  0
LINE
  5
C6
330
B6
100
AcDbEntity
  8
28158000_BRAUSES
  6
Continuous
 62
     7
100
AcDbLine
 10
135.9855407744
 20
210.6475
 30
0.0
 11
135.9855407744
 21
204.6475
 31
0.0
  0
LINE
  5
C7
330
B6
100
AcDbEntity
  8
28158000_BRAUSES
  6
Continuous
 62
     7
100
AcDbLine
 10
135.9855407744
 20
204.6475
 30
0.0
 11
144.3335944398
 21
204.6475
 31
0.0
  0
LINE
  5
C8
330
B6
100
AcDbEntity
  8
28158000_BRAUSES
  6
Continuous
 62
     7
100
AcDbLine
 10
151.4595676071
 20
2189.65
 30
0.0
 11
151.4595676071
 21
2192.15
 31
0.0
  0
LINE
  5
C9
330
B6
100
AcDbEntity
  8
28158000_BRAUSES
  6
Continuous
 62
     7
100
AcDbLine
 10
128.8595676071
 20
2192.15
 30
0.0
 11
128.8595676071
 21
2189.65
 31
0.0
  0
ARC
  5
CA
330
B6
100
AcDbEntity
  8
28158000_BRAUSES
  6
Continuous
 62
     7
100
AcDbCircle
 10
150.9595676071
 20
2192.15
 30
0.0
 40
0.5000000000000004
100
AcDbArc
 50
0.0
 51
90.0
  0
ARC
  5
CB
330
B6
100
AcDbEntity
  8
28158000_BRAUSES
  6
Continuous
 62
     7
100
AcDbCircle
 10
129.3595676071
 20
2192.15
 30
0.0
 40
0.4999999999999449
100
AcDbArc
 50
90.0
 51
180.0
  0
ARC
  5
CC
330
B6
100
AcDbEntity
  8
28158000_BRAUSES
  6
Continuous
 62
     7
100
AcDbCircle
 10
146.1595676071
 20
193.15
 30
0.0
 40
0.5000000000000976
100
AcDbArc
 50
270.0
 51
0.0
  0
ARC
  5
CD
330
B6
100
AcDbEntity
  8
28158000_BRAUSES
  6
Continuous
 62
     7
100
AcDbCircle
 10
134.1595676071
 20
193.15
 30
0.0
 40
0.5000000000000491
100
AcDbArc
 50
180.0
 51
270.0
  0
LINE
  5
CE
330
B6
100
AcDbEntity
  8
28158000_BRAUSES
  6
Continuous
 62
     7
100
AcDbLine
 10
146.6595676071
 20
193.15
 30
0.0
 11
146.6595676071
 21
193.65
 31
0.0
  0
LINE
  5
CF
330
B6
100
AcDbEntity
  8
28158000_BRAUSES
  6
Continuous
 62
     7
100
AcDbLine
 10
133.6595676071
 20
193.65
 30
0.0
 11
133.6595676071
 21
193.15
 31
0.0
  0
LINE
  5
D0
330
B6
100
AcDbEntity
  8
28158000_BRAUSES
  6
Continuous
 62
     7
100
AcDbLine
 10
132.0095676071
 20
194.3875
 30
0.0
 11
132.7458676071
 21
193.65
 31
0.0
  0
LINE
  5
D1
330
B6
100
AcDbEntity
  8
28158000_BRAUSES
  6
Continuous
 62
     7
100
AcDbLine
 10
147.5732676071
 20
193.65
 30
0.0
 11
148.3095676071
 21
194.3875
 31
0.0
  0
LINE
  5
D2
330
B6
100
AcDbEntity
  8
28158000_BRAUSES
  6
Continuous
 62
     7
100
AcDbLine
 10
148.3095676071
 20
194.3875
 30
0.0
 11
148.3095676071
 21
231.35
 31
0.0
  0
LINE
  5
D3
330
B6
100
AcDbEntity
  8
28158000_BRAUSES
  6
Continuous
 62
     7
100
AcDbLine
 10
132.0095676071
 20
231.35
 30
0.0
 11
132.0095676071
 21
194.3875
 31
0.0
  0
LINE
  5
D4
330
B6
100
AcDbEntity
  8
28158000_BRAUSES
  6
Continuous
 62
     7
100
AcDbLine
 10
148.3095676071
 20
231.35
 30
0.0
 11
148.0095676071
 21
231.65
 31
0.0
  0
LINE
  5
D5
330
B6
100
AcDbEntity
  8
28158000_BRAUSES
  6
Continuous
 62
     7
100
AcDbLine
 10
132.3095676071
 20
231.65
 30
0.0
 11
132.0095676071
 21
231.35
 31
0.0
  0
LINE
  5
D6
330
B6
100
AcDbEntity
  8
28158000_BRAUSES
  6
Continuous
 62
     7
100
AcDbLine
 10
147.2095676071
 20
231.65
 30
0.0
 11
147.2095676071
 21
2161.15
 31
0.0
  0
LINE
  5
D7
330
B6
100
AcDbEntity
  8
28158000_BRAUSES
  6
Continuous
 62
     7
100
AcDbLine
 10
133.1095676071
 20
2161.15
 30
0.0
 11
133.1095676071
 21
231.65
 31
0.0
  0
LINE
  5
D8
330
B6
100
AcDbEntity
  8
28158000_BRAUSES
  6
Continuous
 62
     7
100
AcDbLine
 10
147.6595676071
 20
2161.15
 30
0.0
 11
147.6595676071
 21
2161.85
 31
0.0
  0
LINE
  5
D9
330
B6
100
AcDbEntity
  8
28158000_BRAUSES
  6
Continuous
 62
     7
100
AcDbLine
 10
132.6595676071
 20
2161.85
 30
0.0
 11
132.6595676071
 21
2161.15
 31
0.0
  0
ARC
  5
DA
330
B6
100
AcDbEntity
  8
28158000_BRAUSES
  6
Continuous
 62
     7
100
AcDbCircle
 10
149.3095676071
 20
2162.65
 30
0.0
 40
0.8000000000001339
100
AcDbArc
 50
270.0
 51
0.0
  0
ARC
  5
DB
330
B6
100
AcDbEntity
  8
28158000_BRAUSES
  6
Continuous
 62
     7
100
AcDbCircle
 10
131.0095676071
 20
2162.65
 30
0.0
 40
0.8000000000000229
100
AcDbArc
 50
180.0
 51
270.0
  0
LINE
  5
DC
330
B6
100
AcDbEntity
  8
28158000_BRAUSES
  6
Continuous
 62
     7
100
AcDbLine
 10
150.1095676071
 20
2162.65
 30
0.0
 11
150.1095676071
 21
2165.05
 31
0.0
  0
LINE
  5
DD
330
B6
100
AcDbEntity
  8
28158000_BRAUSES
  6
Continuous
 62
     7
100
AcDbLine
 10
130.2095676071
 20
2165.05
 30
0.0
 11
130.2095676071
 21
2162.65
 31
0.0
  0
LINE
  5
DE
330
B6
100
AcDbEntity
  8
28158000_BRAUSES
  6
Continuous
 62
     7
100
AcDbLine
 10
129.5901316071
 20
2165.669434
 30
0.0
 11
130.2095676071
 21
2165.05
 31
0.0
  0
LINE
  5
DF
330
B6
100
AcDbEntity
  8
28158000_BRAUSES
  6
Continuous
 62
     7
100
AcDbLine
 10
150.1095676071
 20
2165.05
 30
0.0
 11
150.7290036071
 21
2165.669434
 31
0.0
  0
LINE
  5
E0
330
B6
100
AcDbEntity
  8
28158000_BRAUSES
  6
Continuous
 62
     7
100
AcDbLine
 10
128.3595676071
 20
2189.15
 30
0.0
 11
129.5901316071
 21
2165.669434
 31
0.0
  0
LINE
  5
E1
330
B6
100
AcDbEntity
  8
28158000_BRAUSES
  6
Continuous
 62
     7
100
AcDbLine
 10
150.7290036071
 20
2165.669434
 30
0.0
 11
151.9595676071
 21
2189.15
 31
0.0
  0
LINE
  5
E2
330
B6
100
AcDbEntity
  8
28158000_BRAUSES
  6
Continuous
 62
     7
100
AcDbLine
 10
151.9595676071
 20
2189.15
 30
0.0
 11
151.4595676071
 21
2189.65
 31
0.0
  0
LINE
  5
E3
330
B6
100
AcDbEntity
  8
28158000_BRAUSES
  6
Continuous
 62
     7
100
AcDbLine
 10
128.8595676071
 20
2189.65
 30
0.0
 11
128.3595676071
 21
2189.15
 31
0.0
  0
ENDBLK
  5
E5
330
B6
100
AcDbEntity
  8
0
100
AcDbBlockEnd
  0
BLOCK
  5
EA
330
E6
100
AcDbEntity
  8
0
100
AcDbBlockBegin
  2
SE2
 70
     0
 10
0.0
 20
0.0
 30
0.0
  3
SE2
  1

  0
CIRCLE
  5
E8
330
E6
100
AcDbEntity
  8
28158000_BRAUSES
  6
Continuous
 62
     7
100
AcDbCircle
 10
53.8595676071
 20
118.15
 30
0.0
 40
11.29999999999998
  0
CIRCLE
  5
E9
330
E6
100
AcDbEntity
  8
28158000_BRAUSES
  6
Continuous
 62
     7
100
AcDbCircle
 10
53.8595676071
 20
118.15
 30
0.0
 40
11.79999999999987
  0
ENDBLK
  5
EB
330
E6
100
AcDbEntity
  8
0
100
AcDbBlockEnd
  0
ENDSEC
  0
SECTION
  2
ENTITIES
  0
INSERT
  5
5F
330
1F
100
AcDbEntity
  8
Default
100
AcDbBlockReference
  2
SEANNOT_GROUP
 10
0.0
 20
0.0
 30
0.0
  0
INSERT
  5
66
330
1F
100
AcDbEntity
  8
Default
100
AcDbBlockReference
  2
SEANNOT_GROUP1
 10
0.0
 20
0.0
 30
0.0
  0
INSERT
  5
6C
330
1F
100
AcDbEntity
  8
Default
100
AcDbBlockReference
  2
SEANNOT_GROUP2
 10
0.0
 20
0.0
 30
0.0
  0
INSERT
  5
72
330
1F
100
AcDbEntity
  8
Default
100
AcDbBlockReference
  2
SEANNOT_GROUP3
 10
0.0
 20
0.0
 30
0.0
  0
INSERT
  5
78
330
1F
100
AcDbEntity
  8
Default
100
AcDbBlockReference
  2
SEANNOT_GROUP4
 10
0.0
 20
0.0
 30
0.0
  0
INSERT
  5
82
330
1F
100
AcDbEntity
  8
Default
100
AcDbBlockReference
  2
SE
 10
0.0
 20
0.0
 30
0.0
  0
INSERT
  5
B7
330
1F
100
AcDbEntity
  8
Default
100
AcDbBlockReference
  2
SE1
 10
0.0
 20
0.0
 30
0.0
  0
INSERT
  5
E7
330
1F
100
AcDbEntity
  8
Default
100
AcDbBlockReference
  2
SE2
 10
0.0
 20
0.0
 30
0.0
  0
TEXT
  5
ED
330
1F
100
AcDbEntity
  8
Default
  6
Continuous
 62
     7
100
AcDbText
 10
5.9362635081
 20
53.4225120485
 30
0.0
 40
10.0
  1
Grohe AG^J
  7
SEACAD_seiso_ttf
 11
5.9362635081
 21
63.4225120485
 31
0.0
100
AcDbText
 73
     3
  0
TEXT
  5
EE
330
1F
100
AcDbEntity
  8
Default
  6
Continuous
 62
     7
100
AcDbText
 10
5.9362635081
 20
37.0588756849
 30
0.0
 40
10.0
  1
 
  7
SEACAD_seiso_ttf
 11
5.9362635081
 21
47.0588756849
 31
0.0
100
AcDbText
 73
     3
  0
TEXT
  5
EF
330
1F
100
AcDbEntity
  8
Default
  6
Continuous
 62
     7
100
AcDbText
 10
5.9362635081
 20
20.6952393213
 30
0.0
 40
10.0
  1
ecn: 
  7
SEACAD_seiso_ttf
 11
5.9362635081
 21
30.6952393213
 31
0.0
100
AcDbText
 73
     3
  0
TEXT
  5
F0
330
1F
100
AcDbEntity
  8
Default
  6
Continuous
 62
     7
100
AcDbText
 10
5.9362635081
 20
4.3316029576
 30
0.0
 40
10.0
  1
unit: mm
  7
SEACAD_seiso_ttf
 11
5.9362635081
 21
14.3316029576
 31
0.0
100
AcDbText
 73
     3
  0
LINE
  5
F1
330
1F
100
AcDbEntity
  8
Default
  6
Continuous
 62
     7
100
AcDbLine
 10
0.0
 20
0.0
 30
0.0
 11
100.0
 21
0.0
 31
0.0
  0
LINE
  5
F2
330
1F
100
AcDbEntity
  8
Default
  6
Continuous
 62
     7
100
AcDbLine
 10
0.0
 20
0.0
 30
0.0
 11
0.0
 21
100.0
 31
0.0
  0
TEXT
  5
F3
330
1F
100
AcDbEntity
  8
Default
  6
Continuous
 62
     7
100
AcDbText
 10
24.3923665681
 20
-18.2375342018
 30
0.0
 40
10.0
  1
100 mm
  7
SEACAD_seiso_ttf
 11
24.3923665681
 21
-8.2375342018
 31
0.0
100
AcDbText
 73
     3
  0
TEXT
  5
F4
330
1F
100
AcDbEntity
  8
Default
  6
Continuous
 62
     7
100
AcDbText
 10
-7.6150308803
 20
24.6231930421
 30
0.0
 40
10.0
  1
100 mm
 50
90.0
  7
SEACAD_seiso_ttf
 11
-17.6150308803
 21
24.6231930421
 31
0.0
100
AcDbText
 73
     3
  0
TEXT
  5
F5
330
1F
100
AcDbEntity
  8
Default
  6
Continuous
 62
     7
100
AcDbText
 10
28.4878128572
 20
20.0907663715
 30
0.0
 40
10.0
  1
72884
  7
SEACAD_seiso_ttf
 11
28.4878128572
 21
30.0907663715
 31
0.0
100
AcDbText
 73
     3
  0
TEXT
  5
F6
330
1F
100
AcDbEntity
  8
Default
  6
Continuous
 62
     7
100
AcDbText
 10
5.9012241913
 20
36.7242780188
 30
0.0
 40
10.0
  1
28158000
  7
SEACAD_seiso_ttf
 11
5.9012241913
 21
46.7242780188
 31
0.0
100
AcDbText
 73
     3
  0
ENDSEC
  0
SECTION
  2
OBJECTS
  0
DICTIONARY
  5
C
330
0
100
AcDbDictionary
281
     1
  3
ACAD_GROUP
350
D
  3
ACAD_LAYOUT
350
1A
  3
ACAD_MLEADERSTYLE
350
FA
  3
ACAD_MLINESTYLE
350
17
  3
ACAD_PLOTSETTINGS
350
19
  3
ACAD_PLOTSTYLENAME
350
E
  3
ACAD_SCALELIST
350
3B
  3
ACAD_TABLESTYLE
350
F9
  3
ACAD_VISUALSTYLE
350
2A
  3
AcDbVariableDictionary
350
F7
  0
DICTIONARY
  5
D
102
{ACAD_REACTORS
330
C
102
}
330
C
100
AcDbDictionary
281
     1
  0
DICTIONARY
  5
1A
102
{ACAD_REACTORS
330
C
102
}
330
C
100
AcDbDictionary
281
     1
  3
Layout1
350
1E
  3
Model
350
22
  0
DICTIONARY
  5
FA
102
{ACAD_REACTORS
330
C
102
}
330
C
100
AcDbDictionary
281
     1
  0
DICTIONARY
  5
17
102
{ACAD_REACTORS
330
C
102
}
330
C
100
AcDbDictionary
281
     1
  3
Standard
350
18
  0
DICTIONARY
  5
19
102
{ACAD_REACTORS
330
C
102
}
330
C
100
AcDbDictionary
281
     1
  0
ACDBDICTIONARYWDFLT
  5
E
102
{ACAD_REACTORS
330
C
102
}
330
C
100
AcDbDictionary
281
     1
  3
Normal
350
F
100
AcDbDictionaryWithDefault
340
F
  0
DICTIONARY
  5
3B
102
{ACAD_REACTORS
330
C
102
}
330
C
100
AcDbDictionary
281
     1
  3
A0
350
3C
  3
A1
350
3D
  3
A2
350
3E
  3
A3
350
3F
  3
A4
350
40
  3
A5
350
41
  3
A6
350
42
  3
A7
350
43
  3
A8
350
44
  3
A9
350
45
  3
B0
350
46
  3
B1
350
47
  3
B2
350
48
  3
B3
350
49
  3
B4
350
4A
  3
B5
350
4B
  3
B6
350
4C
  3
B7
350
4D
  3
B8
350
4E
  3
B9
350
4F
  3
C0
350
50
  3
C1
350
51
  3
C2
350
52
  3
C3
350
53
  3
C4
350
54
  3
C5
350
55
  3
C6
350
56
  3
C7
350
57
  3
C8
350
58
  3
C9
350
59
  3
D0
350
5A
  3
D1
350
5B
  3
D2
350
5C
  0
DICTIONARY
  5
F9
102
{ACAD_REACTORS
330
C
102
}
330
C
100
AcDbDictionary
281
     1
  0
DICTIONARY
  5
2A
102
{ACAD_REACTORS
330
C
102
}
330
C
100
AcDbDictionary
281
     1
  3
2dWireframe
350
2F
  3
3D Hidden
350
31
  3
3dWireframe
350
30
  3
Basic
350
32
  3
Brighten
350
36
  3
ColorChange
350
3A
  3
Conceptual
350
34
  3
Dim
350
35
  3
Facepattern
350
39
  3
Flat
350
2B
  3
FlatWithEdges
350
2C
  3
Gouraud
350
2D
  3
GouraudWithEdges
350
2E
  3
Linepattern
350
38
  3
Realistic
350
33
  3
Thicken
350
37
  0
DICTIONARY
  5
F7
102
{ACAD_REACTORS
330
C
102
}
330
C
100
AcDbDictionary
281
     1
  3
CANNOSCALE
350
F8
  3
PSOLHEIGHT
350
FC
  3
PSOLWIDTH
350
FB
  0
LAYOUT
  5
1E
102
{ACAD_REACTORS
330
1A
102
}
330
1A
100
AcDbPlotSettings
  1

  2
none_device
  4

  6

 40
0.0
 41
0.0
 42
0.0
 43
0.0
 44
0.0
 45
0.0
 46
0.0
 47
0.0
 48
0.0
 49
0.0
140
0.0
141
0.0
142
1.0
143
1.0
 70
   688
 72
     0
 73
     0
 74
     5
  7

 75
    16
147
1.0
148
0.0
149
0.0
100
AcDbLayout
  1
Layout1
 70
     1
 71
     1
 10
0.0
 20
0.0
 11
1682.0
 21
2378.0
 12
0.0
 22
0.0
 32
0.0
 14
0.0
 24
0.0
 34
0.0
 15
1682.0
 25
2378.0
 35
0.0
146
0.0
 13
0.0
 23
0.0
 33
0.0
 16
1.0
 26
0.0
 36
0.0
 17
0.0
 27
1.0
 37
0.0
 76
     0
330
1B
  0
LAYOUT
  5
22
102
{ACAD_REACTORS
330
1A
102
}
330
1A
100
AcDbPlotSettings
  1

  2
none_device
  4

  6

 40
0.0
 41
0.0
 42
0.0
 43
0.0
 44
0.0
 45
0.0
 46
0.0
 47
0.0
 48
0.0
 49
0.0
140
0.0
141
0.0
142
1.0
143
1.0
 70
  1712
 72
     0
 73
     0
 74
     0
  7

 75
     0
147
1.0
148
0.0
149
0.0
100
AcDbLayout
  1
Model
 70
     1
 71
     0
 10
0.0
 20
0.0
 11
1682.0
 21
2378.0
 12
0.0
 22
0.0
 32
0.0
 14
0.0
 24
0.0
 34
0.0
 15
1682.0
 25
2378.0
 35
0.0
146
0.0
 13
0.0
 23
0.0
 33
0.0
 16
1.0
 26
0.0
 36
0.0
 17
0.0
 27
1.0
 37
0.0
 76
     0
330
1F
331
29
  0
MLINESTYLE
  5
18
102
{ACAD_REACTORS
330
17
102
}
330
17
100
AcDbMlineStyle
  2
Standard
 70
     0
  3

 62
   256
 51
90.0
 52
90.0
 71
     2
 49
0.5
 62
   256
  6
BYLAYER
 49
-0.5
 62
   256
  6
BYLAYER
  0
ACDBPLACEHOLDER
  5
F
102
{ACAD_REACTORS
330
E
102
}
330
E
  0
SCALE
  5
3C
102
{ACAD_REACTORS
330
3B
102
}
330
3B
100
AcDbScale
 70
     0
300
1:1
140
1.0
141
1.0
290
     1
  0
SCALE
  5
3D
102
{ACAD_REACTORS
330
3B
102
}
330
3B
100
AcDbScale
 70
     0
300
1:2
140
1.0
141
2.0
290
     0
  0
SCALE
  5
3E
102
{ACAD_REACTORS
330
3B
102
}
330
3B
100
AcDbScale
 70
     0
300
1:4
140
1.0
141
4.0
290
     0
  0
SCALE
  5
3F
102
{ACAD_REACTORS
330
3B
102
}
330
3B
100
AcDbScale
 70
     0
300
1:5
140
1.0
141
5.0
290
     0
  0
SCALE
  5
40
102
{ACAD_REACTORS
330
3B
102
}
330
3B
100
AcDbScale
 70
     0
300
1:8
140
1.0
141
8.0
290
     0
  0
SCALE
  5
41
102
{ACAD_REACTORS
330
3B
102
}
330
3B
100
AcDbScale
 70
     0
300
1:10
140
1.0
141
10.0
290
     0
  0
SCALE
  5
42
102
{ACAD_REACTORS
330
3B
102
}
330
3B
100
AcDbScale
 70
     0
300
1:16
140
1.0
141
16.0
290
     0
  0
SCALE
  5
43
102
{ACAD_REACTORS
330
3B
102
}
330
3B
100
AcDbScale
 70
     0
300
1:20
140
1.0
141
20.0
290
     0
  0
SCALE
  5
44
102
{ACAD_REACTORS
330
3B
102
}
330
3B
100
AcDbScale
 70
     0
300
1:30
140
1.0
141
30.0
290
     0
  0
SCALE
  5
45
102
{ACAD_REACTORS
330
3B
102
}
330
3B
100
AcDbScale
 70
     0
300
1:40
140
1.0
141
40.0
290
     0
  0
SCALE
  5
46
102
{ACAD_REACTORS
330
3B
102
}
330
3B
100
AcDbScale
 70
     0
300
1:50
140
1.0
141
50.0
290
     0
  0
SCALE
  5
47
102
{ACAD_REACTORS
330
3B
102
}
330
3B
100
AcDbScale
 70
     0
300
1:100
140
1.0
141
100.0
290
     0
  0
SCALE
  5
48
102
{ACAD_REACTORS
330
3B
102
}
330
3B
100
AcDbScale
 70
     0
300
2:1
140
2.0
141
1.0
290
     0
  0
SCALE
  5
49
102
{ACAD_REACTORS
330
3B
102
}
330
3B
100
AcDbScale
 70
     0
300
4:1
140
4.0
141
1.0
290
     0
  0
SCALE
  5
4A
102
{ACAD_REACTORS
330
3B
102
}
330
3B
100
AcDbScale
 70
     0
300
8:1
140
8.0
141
1.0
290
     0
  0
SCALE
  5
4B
102
{ACAD_REACTORS
330
3B
102
}
330
3B
100
AcDbScale
 70
     0
300
10:1
140
10.0
141
1.0
290
     0
  0
SCALE
  5
4C
102
{ACAD_REACTORS
330
3B
102
}
330
3B
100
AcDbScale
 70
     0
300
100:1
140
100.0
141
1.0
290
     0
  0
SCALE
  5
4D
102
{ACAD_REACTORS
330
3B
102
}
330
3B
100
AcDbScale
 70
     0
300
1/128" = 1'-0"
140
0.0078125
141
12.0
290
     0
  0
SCALE
  5
4E
102
{ACAD_REACTORS
330
3B
102
}
330
3B
100
AcDbScale
 70
     0
300
1/64" = 1'-0"
140
0.015625
141
12.0
290
     0
  0
SCALE
  5
4F
102
{ACAD_REACTORS
330
3B
102
}
330
3B
100
AcDbScale
 70
     0
300
1/32" = 1'-0"
140
0.03125
141
12.0
290
     0
  0
SCALE
  5
50
102
{ACAD_REACTORS
330
3B
102
}
330
3B
100
AcDbScale
 70
     0
300
1/16" = 1'-0"
140
0.0625
141
12.0
290
     0
  0
SCALE
  5
51
102
{ACAD_REACTORS
330
3B
102
}
330
3B
100
AcDbScale
 70
     0
300
3/32" = 1'-0"
140
0.09375
141
12.0
290
     0
  0
SCALE
  5
52
102
{ACAD_REACTORS
330
3B
102
}
330
3B
100
AcDbScale
 70
     0
300
1/8" = 1'-0"
140
0.125
141
12.0
290
     0
  0
SCALE
  5
53
102
{ACAD_REACTORS
330
3B
102
}
330
3B
100
AcDbScale
 70
     0
300
3/16" = 1'-0"
140
0.1875
141
12.0
290
     0
  0
SCALE
  5
54
102
{ACAD_REACTORS
330
3B
102
}
330
3B
100
AcDbScale
 70
     0
300
1/4" = 1'-0"
140
0.25
141
12.0
290
     0
  0
SCALE
  5
55
102
{ACAD_REACTORS
330
3B
102
}
330
3B
100
AcDbScale
 70
     0
300
3/8" = 1'-0"
140
0.375
141
12.0
290
     0
  0
SCALE
  5
56
102
{ACAD_REACTORS
330
3B
102
}
330
3B
100
AcDbScale
 70
     0
300
1/2" = 1'-0"
140
0.5
141
12.0
290
     0
  0
SCALE
  5
57
102
{ACAD_REACTORS
330
3B
102
}
330
3B
100
AcDbScale
 70
     0
300
3/4" = 1'-0"
140
0.75
141
12.0
290
     0
  0
SCALE
  5
58
102
{ACAD_REACTORS
330
3B
102
}
330
3B
100
AcDbScale
 70
     0
300
1" = 1'-0"
140
1.0
141
12.0
290
     0
  0
SCALE
  5
59
102
{ACAD_REACTORS
330
3B
102
}
330
3B
100
AcDbScale
 70
     0
300
1-1/2" = 1'-0"
140
1.5
141
12.0
290
     0
  0
SCALE
  5
5A
102
{ACAD_REACTORS
330
3B
102
}
330
3B
100
AcDbScale
 70
     0
300
3" = 1'-0"
140
3.0
141
12.0
290
     0
  0
SCALE
  5
5B
102
{ACAD_REACTORS
330
3B
102
}
330
3B
100
AcDbScale
 70
     0
300
6" = 1'-0"
140
6.0
141
12.0
290
     0
  0
SCALE
  5
5C
102
{ACAD_REACTORS
330
3B
102
}
330
3B
100
AcDbScale
 70
     0
300
1'-0" = 1'-0"
140
12.0
141
12.0
290
     0
  0
VISUALSTYLE
  5
2F
102
{ACAD_REACTORS
330
2A
102
}
330
2A
100
AcDbVisualStyle
  2
2dWireframe
 70
     4
 71
     0
 72
     2
 73
     0
 90
        0
 40
-0.6
 41
-30.0
 62
     5
 63
     7
 74
     1
 91
        4
 64
     7
 65
   257
 75
     1
175
     1
 42
1.0
 92
        0
 66
   257
 43
1.0
 76
     1
 77
     6
 78
     2
 67
     7
 79
     5
170
     0
171
     0
290
     0
174
     0
 93
        1
 44
0.0
173
     0
291
     0
 45
0.0
1001
ACAD
1000
AcDbSavedByObjectVersion
1070
     0
  0
VISUALSTYLE
  5
31
102
{ACAD_REACTORS
330
2A
102
}
330
2A
100
AcDbVisualStyle
  2
3D Hidden
 70
     6
 71
     1
 72
     2
 73
     2
 90
        0
 40
-0.6
 41
-30.0
 62
     5
 63
     7
 74
     2
 91
        2
 64
     7
 65
   257
 75
     2
175
     1
 42
40.0
 92
        0
 66
   257
 43
1.0
 76
     1
 77
     6
 78
     2
 67
     7
 79
     3
170
     0
171
     0
290
     0
174
     0
 93
        1
 44
0.0
173
     0
291
     0
 45
0.0
1001
ACAD
1000
AcDbSavedByObjectVersion
1070
     0
  0
VISUALSTYLE
  5
30
102
{ACAD_REACTORS
330
2A
102
}
330
2A
100
AcDbVisualStyle
  2
3dWireframe
 70
     5
 71
     0
 72
     2
 73
     0
 90
        0
 40
-0.6
 41
-30.0
 62
     5
 63
     7
 74
     1
 91
        4
 64
     7
 65
   257
 75
     1
175
     1
 42
1.0
 92
        0
 66
   257
 43
1.0
 76
     1
 77
     6
 78
     2
 67
     7
 79
     5
170
     0
171
     0
290
     0
174
     0
 93
        1
 44
0.0
173
     0
291
     0
 45
0.0
1001
ACAD
1000
AcDbSavedByObjectVersion
1070
     0
  0
VISUALSTYLE
  5
32
102
{ACAD_REACTORS
330
2A
102
}
330
2A
100
AcDbVisualStyle
  2
Basic
 70
     7
 71
     1
 72
     0
 73
     1
 90
        0
 40
-0.6
 41
-30.0
 62
     5
 63
     7
 74
     0
 91
        4
 64
     7
 65
   257
 75
     1
175
     1
 42
1.0
 92
        8
 66
     7
 43
1.0
 76
     1
 77
     6
 78
     2
 67
     7
 79
     5
170
     0
171
     0
290
     0
174
     0
 93
        1
 44
0.0
173
     0
291
     1
 45
0.0
1001
ACAD
1000
AcDbSavedByObjectVersion
1070
     0
  0
VISUALSTYLE
  5
36
102
{ACAD_REACTORS
330
2A
102
}
330
2A
100
AcDbVisualStyle
  2
Brighten
 70
    12
 71
     2
 72
     2
 73
     0
 90
        0
 40
-0.6
 41
-30.0
 62
     5
 63
     7
 74
     1
 91
        4
 64
     7
 65
   257
 75
     1
175
     1
 42
1.0
 92
        8
 66
     7
 43
1.0
 76
     1
 77
     6
 78
     2
 67
     7
 79
     5
170
     0
171
     0
290
     0
174
     0
 93
        1
 44
50.0
173
     0
291
     1
 45
0.0
1001
ACAD
1000
AcDbSavedByObjectVersion
1070
     0
  0
VISUALSTYLE
  5
3A
102
{ACAD_REACTORS
330
2A
102
}
330
2A
100
AcDbVisualStyle
  2
ColorChange
 70
    16
 71
     2
 72
     2
 73
     3
 90
        0
 40
-0.6
 41
-30.0
 62
     5
 63
     8
 74
     1
 91
        4
 64
     7
 65
   257
 75
     1
175
     1
 42
1.0
 92
        8
 66
     8
 43
1.0
 76
     1
 77
     6
 78
     2
 67
     7
 79
     5
170
     0
171
     0
290
     0
174
     0
 93
        1
 44
0.0
173
     0
291
     1
 45
0.0
1001
ACAD
1000
AcDbSavedByObjectVersion
1070
     0
  0
VISUALSTYLE
  5
34
102
{ACAD_REACTORS
330
2A
102
}
330
2A
100
AcDbVisualStyle
  2
Conceptual
 70
     9
 71
     3
 72
     2
 73
     0
 90
        0
 40
-0.6
 41
-30.0
 62
     5
 63
     7
 74
     2
 91
        2
 64
     7
 65
   257
 75
     1
175
     1
 42
40.0
 92
        8
 66
     7
 43
1.0
 76
     1
 77
     6
 78
     2
 67
     7
 79
     3
170
     0
171
     0
290
     0
174
     0
 93
        1
 44
0.0
173
     0
291
     0
 45
0.0
1001
ACAD
1000
AcDbSavedByObjectVersion
1070
     0
  0
VISUALSTYLE
  5
35
102
{ACAD_REACTORS
330
2A
102
}
330
2A
100
AcDbVisualStyle
  2
Dim
 70
    11
 71
     2
 72
     2
 73
     0
 90
        0
 40
-0.6
 41
-30.0
 62
     5
 63
     7
 74
     1
 91
        4
 64
     7
 65
   257
 75
     1
175
     1
 42
1.0
 92
        8
 66
     7
 43
1.0
 76
     1
 77
     6
 78
     2
 67
     7
 79
     5
170
     0
171
     0
290
     0
174
     0
 93
        1
 44
-50.0
173
     0
291
     1
 45
0.0
1001
ACAD
1000
AcDbSavedByObjectVersion
1070
     0
  0
VISUALSTYLE
  5
39
102
{ACAD_REACTORS
330
2A
102
}
330
2A
100
AcDbVisualStyle
  2
Facepattern
 70
    15
 71
     2
 72
     2
 73
     0
 90
        0
 40
-0.6
 41
-30.0
 62
     5
 63
     7
 74
     1
 91
        4
 64
     7
 65
   257
 75
     1
175
     1
 42
1.0
 92
        8
 66
     7
 43
1.0
 76
     1
 77
     6
 78
     2
 67
     7
 79
     5
170
     0
171
     0
290
     0
174
     0
 93
        1
 44
0.0
173
     0
291
     1
 45
0.0
1001
ACAD
1000
AcDbSavedByObjectVersion
1070
     0
  0
VISUALSTYLE
  5
2B
102
{ACAD_REACTORS
330
2A
102
}
330
2A
100
AcDbVisualStyle
  2
Flat
 70
     0
 71
     2
 72
     1
 73
     1
 90
        2
 40
-0.6
 41
30.0
 62
     5
 63
     7
 74
     0
 91
        4
 64
     7
 65
   257
 75
     1
175
     1
 42
1.0
 92
        8
 66
     7
 43
1.0
 76
     1
 77
     6
 78
     2
 67
     7
 79
     5
170
     0
171
     0
290
     0
174
     0
 93
       13
 44
0.0
173
     0
291
     1
 45
0.0
1001
ACAD
1000
AcDbSavedByObjectVersion
1070
     0
  0
VISUALSTYLE
  5
2C
102
{ACAD_REACTORS
330
2A
102
}
330
2A
100
AcDbVisualStyle
  2
FlatWithEdges
 70
     1
 71
     2
 72
     1
 73
     1
 90
        2
 40
-0.6
 41
30.0
 62
     5
 63
     7
 74
     1
 91
        4
 64
     7
 65
   257
 75
     1
175
     1
 42
1.0
 92
        0
 66
   257
 43
1.0
 76
     1
 77
     6
 78
     2
 67
     7
 79
     5
170
     0
171
     0
290
     0
174
     0
 93
       13
 44
0.0
173
     0
291
     1
 45
0.0
1001
ACAD
1000
AcDbSavedByObjectVersion
1070
     0
  0
VISUALSTYLE
  5
2D
102
{ACAD_REACTORS
330
2A
102
}
330
2A
100
AcDbVisualStyle
  2
Gouraud
 70
     2
 71
     2
 72
     2
 73
     1
 90
        2
 40
-0.6
 41
30.0
 62
     5
 63
     7
 74
     0
 91
        4
 64
     7
 65
   257
 75
     1
175
     1
 42
1.0
 92
        0
 66
     7
 43
1.0
 76
     1
 77
     6
 78
     2
 67
     7
 79
     5
170
     0
171
     0
290
     0
174
     0
 93
       13
 44
0.0
173
     0
291
     1
 45
0.0
1001
ACAD
1000
AcDbSavedByObjectVersion
1070
     0
  0
VISUALSTYLE
  5
2E
102
{ACAD_REACTORS
330
2A
102
}
330
2A
100
AcDbVisualStyle
  2
GouraudWithEdges
 70
     3
 71
     2
 72
     2
 73
     1
 90
        2
 40
-0.6
 41
30.0
 62
     5
 63
     7
 74
     1
 91
        4
 64
     7
 65
   257
 75
     1
175
     1
 42
1.0
 92
        0
 66
   257
 43
1.0
 76
     1
 77
     6
 78
     2
 67
     7
 79
     5
170
     0
171
     0
290
     0
174
     0
 93
       13
 44
0.0
173
     0
291
     1
 45
0.0
1001
ACAD
1000
AcDbSavedByObjectVersion
1070
     0
  0
VISUALSTYLE
  5
38
102
{ACAD_REACTORS
330
2A
102
}
330
2A
100
AcDbVisualStyle
  2
Linepattern
 70
    14
 71
     2
 72
     2
 73
     0
 90
        0
 40
-0.6
 41
-30.0
 62
     5
 63
     7
 74
     1
 91
        4
 64
     7
 65
   257
 75
     7
175
     7
 42
1.0
 92
        8
 66
     7
 43
1.0
 76
     1
 77
     6
 78
     2
 67
     7
 79
     5
170
     0
171
     0
290
     0
174
     0
 93
        1
 44
0.0
173
     0
291
     1
 45
0.0
1001
ACAD
1000
AcDbSavedByObjectVersion
1070
     0
  0
VISUALSTYLE
  5
33
102
{ACAD_REACTORS
330
2A
102
}
330
2A
100
AcDbVisualStyle
  2
Realistic
 70
     8
 71
     2
 72
     2
 73
     0
 90
        0
 40
-0.6
 41
-30.0
 62
     5
 63
     7
 74
     1
 91
        0
 64
     7
 65
   257
 75
     1
175
     1
 42
1.0
 92
        8
 66
     8
 43
1.0
 76
     1
 77
     6
 78
     2
 67
     7
 79
     5
170
     0
171
     0
290
     0
174
     0
 93
       13
 44
0.0
173
     0
291
     0
 45
0.0
1001
ACAD
1000
AcDbSavedByObjectVersion
1070
     0
  0
VISUALSTYLE
  5
37
102
{ACAD_REACTORS
330
2A
102
}
330
2A
100
AcDbVisualStyle
  2
Thicken
 70
    13
 71
     2
 72
     2
 73
     0
 90
        0
 40
-0.6
 41
-30.0
 62
     5
 63
     7
 74
     1
 91
        4
 64
     7
 65
   257
 75
     1
175
     1
 42
1.0
 92
       12
 66
     7
 43
1.0
 76
     1
 77
     6
 78
     2
 67
     7
 79
     5
170
     0
171
     0
290
     0
174
     0
 93
        1
 44
0.0
173
     0
291
     1
 45
0.0
1001
ACAD
1000
AcDbSavedByObjectVersion
1070
     0
  0
DICTIONARYVAR
  5
F8
102
{ACAD_REACTORS
330
F7
102
}
330
F7
100
DictionaryVariables
280
     0
  1
1:1
  0
DICTIONARYVAR
  5
FC
102
{ACAD_REACTORS
330
F7
102
}
330
F7
100
DictionaryVariables
280
     0
  1
80.000000
  0
DICTIONARYVAR
  5
FB
102
{ACAD_REACTORS
330
F7
102
}
330
F7
100
DictionaryVariables
280
     0
  1
5.000000
  0
ENDSEC
  0
EOF
