  0
SECTION
  2
HEADER
  9
$ACADVER
  1
AC1015
  9
$ACADMAINTVER
 70
     6
  9
$DWGCODEPAGE
  3
ANSI_1252
  9
$INSBASE
 10
0.0
 20
0.0
 30
0.0
  9
$EXTMIN
 10
0.0
 20
0.0
 30
0.0
  9
$EXTMAX
 10
3000.0
 20
4500.0
 30
0.0
  9
$LIMMIN
 10
0.0
 20
0.0
  9
$LIMMAX
 10
3000.0
 20
4500.0
  9
$ORTHOMODE
 70
     0
  9
$REGENMODE
 70
     1
  9
$FILLMODE
 70
     1
  9
$QTEXTMODE
 70
     0
  9
$MIRRTEXT
 70
     1
  9
$LTSCALE
 40
1.0
  9
$ATTMODE
 70
     1
  9
$TEXTSIZE
 40
10.0
  9
$TRACEWID
 40
1.0
  9
$TEXTSTYLE
  7
Standard
  9
$CLAYER
  8
0
  9
$CELTYPE
  6
ByLayer
  9
$CECOLOR
 62
   256
  9
$CELTSCALE
 40
1.0
  9
$DISPSILH
 70
     0
  9
$DIMSCALE
 40
1.0
  9
$DIMASZ
 40
2.5
  9
$DIMEXO
 40
0.625
  9
$DIMDLI
 40
3.75
  9
$DIMRND
 40
0.0
  9
$DIMDLE
 40
0.0
  9
$DIMEXE
 40
1.25
  9
$DIMTP
 40
0.0
  9
$DIMTM
 40
0.0
  9
$DIMTXT
 40
2.5
  9
$DIMCEN
 40
2.5
  9
$DIMTSZ
 40
0.0
  9
$DIMTOL
 70
     0
  9
$DIMLIM
 70
     0
  9
$DIMTIH
 70
     0
  9
$DIMTOH
 70
     0
  9
$DIMSE1
 70
     0
  9
$DIMSE2
 70
     0
  9
$DIMTAD
 70
     1
  9
$DIMZIN
 70
     8
  9
$DIMBLK
  1

  9
$DIMASO
 70
     1
  9
$DIMSHO
 70
     1
  9
$DIMPOST
  1

  9
$DIMAPOST
  1

  9
$DIMALT
 70
     0
  9
$DIMALTD
 70
     3
  9
$DIMALTF
 40
0.0393700787
  9
$DIMLFAC
 40
1.0
  9
$DIMTOFL
 70
     1
  9
$DIMTVP
 40
0.0
  9
$DIMTIX
 70
     0
  9
$DIMSOXD
 70
     0
  9
$DIMSAH
 70
     0
  9
$DIMBLK1
  1

  9
$DIMBLK2
  1

  9
$DIMSTYLE
  2
ISO-25
  9
$DIMCLRD
 70
     0
  9
$DIMCLRE
 70
     0
  9
$DIMCLRT
 70
     0
  9
$DIMTFAC
 40
1.0
  9
$DIMGAP
 40
0.625
  9
$DIMJUST
 70
     0
  9
$DIMSD1
 70
     0
  9
$DIMSD2
 70
     0
  9
$DIMTOLJ
 70
     0
  9
$DIMTZIN
 70
     8
  9
$DIMALTZ
 70
     0
  9
$DIMALTTZ
 70
     0
  9
$DIMUPT
 70
     0
  9
$DIMDEC
 70
     2
  9
$DIMTDEC
 70
     2
  9
$DIMALTU
 70
     2
  9
$DIMALTTD
 70
     3
  9
$DIMTXSTY
  7
Standard
  9
$DIMAUNIT
 70
     0
  9
$DIMADEC
 70
     0
  9
$DIMALTRND
 40
0.0
  9
$DIMAZIN
 70
     0
  9
$DIMDSEP
 70
    44
  9
$DIMATFIT
 70
     3
  9
$DIMFRAC
 70
     0
  9
$DIMLDRBLK
  1

  9
$DIMLUNIT
 70
     2
  9
$DIMLWD
 70
    -2
  9
$DIMLWE
 70
    -2
  9
$DIMTMOVE
 70
     0
  9
$LUNITS
 70
     2
  9
$LUPREC
 70
     4
  9
$SKETCHINC
 40
1.0
  9
$FILLETRAD
 40
10.0
  9
$AUNITS
 70
     0
  9
$AUPREC
 70
     0
  9
$MENU
  1
.
  9
$ELEVATION
 40
0.0
  9
$PELEVATION
 40
0.0
  9
$THICKNESS
 40
0.0
  9
$LIMCHECK
 70
     0
  9
$CHAMFERA
 40
0.0
  9
$CHAMFERB
 40
0.0
  9
$CHAMFERC
 40
0.0
  9
$CHAMFERD
 40
0.0
  9
$SKPOLY
 70
     0
  9
$TDCREATE
 40
2458187.305266805
  9
$TDUCREATE
 40
2458187.263600139
  9
$TDUPDATE
 40
2458187.305268067
  9
$TDUUPDATE
 40
2458187.2636014
  9
$TDINDWG
 40
0.0000000116
  9
$TDUSRTIMER
 40
0.0000000116
  9
$USRTIMER
 70
     1
  9
$ANGBASE
 50
0.0
  9
$ANGDIR
 70
     0
  9
$PDMODE
 70
     0
  9
$PDSIZE
 40
0.0
  9
$PLINEWID
 40
0.0
  9
$SPLFRAME
 70
     0
  9
$SPLINETYPE
 70
     6
  9
$SPLINESEGS
 70
     8
  9
$HANDSEED
  5
267
  9
$SURFTAB1
 70
     6
  9
$SURFTAB2
 70
     6
  9
$SURFTYPE
 70
     6
  9
$SURFU
 70
     6
  9
$SURFV
 70
     6
  9
$UCSBASE
  2

  9
$UCSNAME
  2

  9
$UCSORG
 10
0.0
 20
0.0
 30
0.0
  9
$UCSXDIR
 10
1.0
 20
0.0
 30
0.0
  9
$UCSYDIR
 10
0.0
 20
1.0
 30
0.0
  9
$UCSORTHOREF
  2

  9
$UCSORTHOVIEW
 70
     0
  9
$UCSORGTOP
 10
0.0
 20
0.0
 30
0.0
  9
$UCSORGBOTTOM
 10
0.0
 20
0.0
 30
0.0
  9
$UCSORGLEFT
 10
0.0
 20
0.0
 30
0.0
  9
$UCSORGRIGHT
 10
0.0
 20
0.0
 30
0.0
  9
$UCSORGFRONT
 10
0.0
 20
0.0
 30
0.0
  9
$UCSORGBACK
 10
0.0
 20
0.0
 30
0.0
  9
$PUCSBASE
  2

  9
$PUCSNAME
  2

  9
$PUCSORG
 10
0.0
 20
0.0
 30
0.0
  9
$PUCSXDIR
 10
1.0
 20
0.0
 30
0.0
  9
$PUCSYDIR
 10
0.0
 20
1.0
 30
0.0
  9
$PUCSORTHOREF
  2

  9
$PUCSORTHOVIEW
 70
     0
  9
$PUCSORGTOP
 10
0.0
 20
0.0
 30
0.0
  9
$PUCSORGBOTTOM
 10
0.0
 20
0.0
 30
0.0
  9
$PUCSORGLEFT
 10
0.0
 20
0.0
 30
0.0
  9
$PUCSORGRIGHT
 10
0.0
 20
0.0
 30
0.0
  9
$PUCSORGFRONT
 10
0.0
 20
0.0
 30
0.0
  9
$PUCSORGBACK
 10
0.0
 20
0.0
 30
0.0
  9
$USERI1
 70
     0
  9
$USERI2
 70
     0
  9
$USERI3
 70
     0
  9
$USERI4
 70
     0
  9
$USERI5
 70
     0
  9
$USERR1
 40
0.0
  9
$USERR2
 40
0.0
  9
$USERR3
 40
0.0
  9
$USERR4
 40
0.0
  9
$USERR5
 40
0.0
  9
$WORLDVIEW
 70
     1
  9
$SHADEDGE
 70
     3
  9
$SHADEDIF
 70
    70
  9
$TILEMODE
 70
     1
  9
$MAXACTVP
 70
    64
  9
$PINSBASE
 10
0.0
 20
0.0
 30
0.0
  9
$PLIMCHECK
 70
     0
  9
$PEXTMIN
 10
0.0
 20
0.0
 30
0.0
  9
$PEXTMAX
 10
3000.0
 20
4500.0
 30
0.0
  9
$PLIMMIN
 10
0.0
 20
0.0
  9
$PLIMMAX
 10
3000.0
 20
4500.0
  9
$UNITMODE
 70
     0
  9
$VISRETAIN
 70
     1
  9
$PLINEGEN
 70
     0
  9
$PSLTSCALE
 70
     1
  9
$TREEDEPTH
 70
  3020
  9
$CMLSTYLE
  2
Standard
  9
$CMLJUST
 70
     0
  9
$CMLSCALE
 40
20.0
  9
$PROXYGRAPHICS
 70
     1
  9
$MEASUREMENT
 70
     1
  9
$CELWEIGHT
370
    -1
  9
$ENDCAPS
280
     0
  9
$JOINSTYLE
280
     0
  9
$LWDISPLAY
290
     0
  9
$INSUNITS
 70
     4
  9
$HYPERLINKBASE
  1

  9
$STYLESHEET
  1

  9
$XEDIT
290
     1
  9
$CEPSNTYPE
380
     0
  9
$PSTYLEMODE
290
     1
  9
$FINGERPRINTGUID
  2
{0B850E44-746B-4A6E-B267-BAFE203EEBCF}
  9
$VERSIONGUID
  2
{FAEB1C32-E019-11D5-929B-00C0DF256EC4}
  9
$EXTNAMES
290
     1
  9
$PSVPSCALE
 40
0.0
  9
$OLESTARTUP
290
     0
  0
ENDSEC
  0
SECTION
  2
CLASSES
  0
CLASS
  1
ACDBDICTIONARYWDFLT
  2
AcDbDictionaryWithDefault
  3
ObjectDBX Classes
 90
        0
280
     0
281
     0
  0
CLASS
  1
VISUALSTYLE
  2
AcDbVisualStyle
  3
ObjectDBX Classes
 90
     4095
280
     0
281
     0
  0
CLASS
  1
MATERIAL
  2
AcDbMaterial
  3
ObjectDBX Classes
 90
     1153
280
     0
281
     0
  0
CLASS
  1
SCALE
  2
AcDbScale
  3
ObjectDBX Classes
 90
     1153
280
     0
281
     0
  0
CLASS
  1
SUN
  2
AcDbSun
  3
SCENEOE
 90
     1153
280
     0
281
     0
  0
CLASS
  1
DICTIONARYVAR
  2
AcDbDictionaryVar
  3
ObjectDBX Classes
 90
        0
280
     0
281
     0
  0
CLASS
  1
ACDBPLACEHOLDER
  2
AcDbPlaceHolder
  3
ObjectDBX Classes
 90
        0
280
     0
281
     0
  0
CLASS
  1
LAYOUT
  2
AcDbLayout
  3
ObjectDBX Classes
 90
        0
280
     0
281
     0
  0
ENDSEC
  0
SECTION
  2
TABLES
  0
TABLE
  2
VPORT
  5
8
330
0
100
AcDbSymbolTable
 70
     1
  0
VPORT
  5
29
330
8
100
AcDbSymbolTableRecord
100
AcDbViewportTableRecord
  2
*Active
 70
     0
 10
0.0
 20
0.0
 11
1.0
 21
1.0
 12
344.1869158879
 22
148.5
 13
0.0
 23
0.0
 14
10.0
 24
10.0
 15
10.0
 25
10.0
 16
0.0
 26
0.0
 36
1.0
 17
0.0
 27
0.0
 37
0.0
 40
297.0
 41
1.9729729729
 42
50.0
 43
0.0
 44
0.0
 50
0.0
 51
0.0
 71
     0
 72
   100
 73
     1
 74
     3
 75
     0
 76
     0
 77
     0
 78
     0
281
     0
 65
     1
110
0.0
120
0.0
130
0.0
111
1.0
121
0.0
131
0.0
112
0.0
122
1.0
132
0.0
 79
     0
146
0.0
  0
ENDTAB
  0
TABLE
  2
LTYPE
  5
5
330
0
100
AcDbSymbolTable
 70
     2
  0
LTYPE
  5
14
330
5
100
AcDbSymbolTableRecord
100
AcDbLinetypeTableRecord
  2
ByBlock
 70
     0
  3

 72
    65
 73
     0
 40
0.0
  0
LTYPE
  5
15
330
5
100
AcDbSymbolTableRecord
100
AcDbLinetypeTableRecord
  2
ByLayer
 70
     0
  3

 72
    65
 73
     0
 40
0.0
  0
LTYPE
  5
16
330
5
100
AcDbSymbolTableRecord
100
AcDbLinetypeTableRecord
  2
Continuous
 70
     0
  3
Solid line
 72
    65
 73
     0
 40
0.0
  0
LTYPE
  5
6D
330
5
100
AcDbSymbolTableRecord
100
AcDbLinetypeTableRecord
  2
CENTER2
 70
     0
  3
Center (.5x) ___ _ ___ _ ___ _ ___ _ ___ _ ___
 72
    65
 73
     4
 40
28.575
 49
19.05
 74
     4
 75
     0
340
0
 46
0.0
 50
0.0
 44
0.0
 45
0.0
 49
-3.175
 74
     4
 75
     0
340
0
 46
0.0
 50
0.0
 44
0.0
 45
0.0
 49
3.175
 74
     4
 75
     0
340
0
 46
0.0
 50
0.0
 44
0.0
 45
0.0
 49
-3.175
 74
     4
 75
     0
340
0
 46
0.0
 50
0.0
 44
0.0
 45
0.0
  0
ENDTAB
  0
TABLE
  2
LAYER
  5
2
330
0
100
AcDbSymbolTable
 70
     5
  0
LAYER
  5
10
330
2
100
AcDbSymbolTableRecord
100
AcDbLayerTableRecord
  2
0
 70
     0
 62
     7
  6
Continuous
370
    -3
390
F
  0
LAYER
  5
6A
330
2
100
AcDbSymbolTableRecord
100
AcDbLayerTableRecord
  2
Default
 70
     0
 62
     7
  6
Continuous
370
    -3
390
F
  0
LAYER
  5
80
330
2
100
AcDbSymbolTableRecord
100
AcDbLayerTableRecord
  2
DV1_Default
 70
     0
 62
     7
  6
Continuous
370
    -3
390
F
  0
LAYER
  5
172
330
2
100
AcDbSymbolTableRecord
100
AcDbLayerTableRecord
  2
DV2_Default
 70
     0
 62
     7
  6
Continuous
370
    -3
390
F
  0
LAYER
  5
1E7
330
2
100
AcDbSymbolTableRecord
100
AcDbLayerTableRecord
  2
DV3_Default
 70
     0
 62
     7
  6
Continuous
370
    -3
390
F
  0
ENDTAB
  0
TABLE
  2
STYLE
  5
3
330
0
100
AcDbSymbolTable
 70
     1
  0
STYLE
  5
11
330
3
100
AcDbSymbolTableRecord
100
AcDbTextStyleTableRecord
  2
Standard
 70
     0
 40
0.0
 41
1.0
 50
0.0
 71
     0
 42
10.0
  3
txt
  4

  0
ENDTAB
  0
TABLE
  2
VIEW
  5
6
330
0
100
AcDbSymbolTable
 70
     0
  0
ENDTAB
  0
TABLE
  2
UCS
  5
7
330
0
100
AcDbSymbolTable
 70
     0
  0
ENDTAB
  0
TABLE
  2
APPID
  5
9
330
0
100
AcDbSymbolTable
 70
     1
  0
APPID
  5
12
330
9
100
AcDbSymbolTableRecord
100
AcDbRegAppTableRecord
  2
ACAD
 70
     0
  0
ENDTAB
  0
TABLE
  2
DIMSTYLE
  5
A
330
0
100
AcDbSymbolTable
 70
     1
100
AcDbDimStyleTable
  0
DIMSTYLE
105
27
330
A
100
AcDbSymbolTableRecord
100
AcDbDimStyleTableRecord
  2
ISO-25
 70
     0
 41
2.5
 42
0.625
 43
3.75
 44
1.25
 73
     0
 74
     0
 77
     1
 78
     8
140
2.5
141
2.5
143
0.0393700787
147
0.625
171
     3
172
     1
178
     0
271
     2
272
     2
274
     3
278
    44
283
     0
284
     8
340
11
  0
ENDTAB
  0
TABLE
  2
BLOCK_RECORD
  5
1
330
0
100
AcDbSymbolTable
 70
     7
  0
BLOCK_RECORD
  5
1F
330
1
100
AcDbSymbolTableRecord
100
AcDbBlockTableRecord
  2
*Model_Space
340
22
  0
BLOCK_RECORD
  5
1B
330
1
100
AcDbSymbolTableRecord
100
AcDbBlockTableRecord
  2
*Paper_Space
340
1E
  0
BLOCK_RECORD
  5
6B
330
1
100
AcDbSymbolTableRecord
100
AcDbBlockTableRecord
  2
SEANNOT_GROUP
340
0
102
{BLKREFS
331
6C
102
}
  0
BLOCK_RECORD
  5
72
330
1
100
AcDbSymbolTableRecord
100
AcDbBlockTableRecord
  2
SEANNOT_GROUP1
340
0
102
{BLKREFS
331
73
102
}
  0
BLOCK_RECORD
  5
78
330
1
100
AcDbSymbolTableRecord
100
AcDbBlockTableRecord
  2
SEANNOT_GROUP2
340
0
102
{BLKREFS
331
79
102
}
  0
BLOCK_RECORD
  5
7E
330
1
100
AcDbSymbolTableRecord
100
AcDbBlockTableRecord
  2
SE
340
0
102
{BLKREFS
331
7F
102
}
  0
BLOCK_RECORD
  5
170
330
1
100
AcDbSymbolTableRecord
100
AcDbBlockTableRecord
  2
SE1
340
0
102
{BLKREFS
331
171
102
}
  0
BLOCK_RECORD
  5
1E5
330
1
100
AcDbSymbolTableRecord
100
AcDbBlockTableRecord
  2
SE2
340
0
102
{BLKREFS
331
1E6
102
}
  0
ENDTAB
  0
ENDSEC
  0
SECTION
  2
BLOCKS
  0
BLOCK
  5
20
330
1F
100
AcDbEntity
  8
0
100
AcDbBlockBegin
  2
*Model_Space
 70
     0
 10
0.0
 20
0.0
 30
0.0
  3
*Model_Space
  1
*Model_Space
  0
ENDBLK
  5
21
330
1F
100
AcDbEntity
  8
0
100
AcDbBlockEnd
  0
BLOCK
  5
1C
330
1B
100
AcDbEntity
 67
     1
  8
0
100
AcDbBlockBegin
  2
*Paper_Space
 70
     0
 10
0.0
 20
0.0
 30
0.0
  3
*Paper_Space
  1
*Paper_Space
  0
ENDBLK
  5
1D
330
1B
100
AcDbEntity
 67
     1
  8
0
100
AcDbBlockEnd
  0
BLOCK
  5
70
330
6B
100
AcDbEntity
  8
0
100
AcDbBlockBegin
  2
SEANNOT_GROUP
 70
     0
 10
0.0
 20
0.0
 30
0.0
  3
SEANNOT_GROUP
  1
SEANNOT_GROUP
  0
LINE
  5
6E
330
6B
100
AcDbEntity
  8
Default
  6
CENTER2
 62
     7
100
AcDbLine
 10
51.849999553
 20
342.7419098413
 30
0.0
 11
11.850000447
 21
342.7419098413
 31
0.0
  0
LINE
  5
6F
330
6B
100
AcDbEntity
  8
Default
  6
CENTER2
 62
     7
100
AcDbLine
 10
31.85
 20
362.7419093943
 30
0.0
 11
31.85
 21
322.7419102884
 31
0.0
  0
ENDBLK
  5
71
330
6B
100
AcDbEntity
  8
0
100
AcDbBlockEnd
  0
BLOCK
  5
76
330
72
100
AcDbEntity
  8
0
100
AcDbBlockBegin
  2
SEANNOT_GROUP1
 70
     0
 10
0.0
 20
0.0
 30
0.0
  3
SEANNOT_GROUP1
  1
SEANNOT_GROUP1
  0
LINE
  5
74
330
72
100
AcDbEntity
  8
Default
  6
CENTER2
 62
     7
100
AcDbLine
 10
51.849999553
 20
436.2838885404
 30
0.0
 11
11.850000447
 21
436.2838885404
 31
0.0
  0
LINE
  5
75
330
72
100
AcDbEntity
  8
Default
  6
CENTER2
 62
     7
100
AcDbLine
 10
31.85
 20
456.2838880933
 30
0.0
 11
31.85
 21
416.2838889874
 31
0.0
  0
ENDBLK
  5
77
330
72
100
AcDbEntity
  8
0
100
AcDbBlockEnd
  0
BLOCK
  5
7C
330
78
100
AcDbEntity
  8
0
100
AcDbBlockBegin
  2
SEANNOT_GROUP2
 70
     0
 10
0.0
 20
0.0
 30
0.0
  3
SEANNOT_GROUP2
  1
SEANNOT_GROUP2
  0
LINE
  5
7A
330
78
100
AcDbEntity
  8
Default
  6
CENTER2
 62
     7
100
AcDbLine
 10
241.7482847422
 20
436.2838885404
 30
0.0
 11
201.7482856362
 21
436.2838885404
 31
0.0
  0
LINE
  5
7B
330
78
100
AcDbEntity
  8
Default
  6
CENTER2
 62
     7
100
AcDbLine
 10
221.7482851892
 20
456.2838880933
 30
0.0
 11
221.7482851892
 21
416.2838889874
 31
0.0
  0
ENDBLK
  5
7D
330
78
100
AcDbEntity
  8
0
100
AcDbBlockEnd
  0
BLOCK
  5
16E
330
7E
100
AcDbEntity
  8
0
100
AcDbBlockBegin
  2
SE
 70
     0
 10
0.0
 20
0.0
 30
0.0
  3
SE
  1
SE
  0
LINE
  5
81
330
7E
100
AcDbEntity
  8
DV1_Default
  6
Continuous
 62
     7
100
AcDbLine
 10
57.35
 20
546.2838885404
 30
0.0
 11
6.35
 21
546.2838885404
 31
0.0
  0
LINE
  5
82
330
7E
100
AcDbEntity
  8
DV1_Default
  6
Continuous
 62
     7
100
AcDbLine
 10
57.35
 20
436.2838885404
 30
0.0
 11
6.35
 21
436.2838885404
 31
0.0
  0
SPLINE
  5
83
330
7E
100
AcDbEntity
  8
DV1_Default
  6
Continuous
 62
     7
100
AcDbSpline
210
0.0
220
0.0
230
1.0
 70
     8
 71
     3
 72
    42
 73
    38
 74
     0
 42
0.000000001
 43
0.0000000001
 40
0.0
 40
0.0
 40
0.0
 40
0.0
 40
0.0239305546593492
 40
0.0239305546593492
 40
0.1490152674367785
 40
0.1490152674367785
 40
0.211557623825493
 40
0.211557623825493
 40
0.2740999802142078
 40
0.2740999802142078
 40
0.3366423366029223
 40
0.3366423366029223
 40
0.3991846929916371
 40
0.3991846929916371
 40
0.4617270493803516
 40
0.4617270493803516
 40
0.4929982275747088
 40
0.4929982275747088
 40
0.5242694057690659
 40
0.5242694057690659
 40
0.5555405839634233
 40
0.5555405839634233
 40
0.5868117621577804
 40
0.5868117621577804
 40
0.6493541185464944
 40
0.6493541185464944
 40
0.7118964749352085
 40
0.7118964749352085
 40
0.7744388313239223
 40
0.7744388313239223
 40
0.8369811877126364
 40
0.8369811877126364
 40
0.8995235441013503
 40
0.8995235441013503
 40
0.9620659004900644
 40
0.9620659004900644
 40
1.0
 40
1.0
 40
1.0
 40
1.0
 10
57.35029883782757
 20
521.5342583911189
 30
0.0
 10
57.35022334089708
 20
521.5341649541166
 30
0.0
 10
57.3247371084339
 20
521.5067706026144
 30
0.0
 10
57.0062067373754
 20
521.1646121582208
 30
0.0
 10
56.02402266386562
 20
520.112794355607
 30
0.0
 10
53.94024436002119
 20
517.8310189253731
 30
0.0
 10
53.13756397903665
 20
516.9453530898716
 30
0.0
 10
51.43325904835817
 20
515.0322327645374
 30
0.0
 10
50.52465526612682
 20
513.9978730515472
 30
0.0
 10
48.63284551637626
 20
511.7772601157486
 30
0.0
 10
47.64860282969626
 20
510.5905239145679
 30
0.0
 10
45.71580776494915
 20
508.1122322222847
 30
0.0
 10
44.75641808875452
 20
506.814878070229
 30
0.0
 10
42.97784709390598
 20
504.0138263371784
 30
0.0
 10
42.15146979590622
 20
502.5150676916317
 30
0.0
 10
41.37194241722298
 20
500.0405911012382
 30
0.0
 10
41.20060376825944
 20
499.1947758160992
 30
0.0
 10
41.09900210028478
 20
497.4663166194855
 30
0.0
 10
41.1740546127528
 20
496.5900984094283
 30
0.0
 10
41.53408050128816
 20
494.9083789141296
 30
0.0
 10
41.81912073161182
 20
494.0841911595001
 30
0.0
 10
42.49577143594537
 20
492.5268131162406
 30
0.0
 10
42.88877400386848
 20
491.7831774798338
 30
0.0
 10
44.15819942273612
 20
489.6187014681864
 30
0.0
 10
45.11435051824986
 20
488.2740559782166
 30
0.0
 10
47.03041655696777
 20
485.7448284635904
 30
0.0
 10
48.0029148963101
 20
484.5509369272455
 30
0.0
 10
49.91613242645329
 20
482.2732634853294
 30
0.0
 10
50.85735072200343
 20
481.1915517864836
 30
0.0
 10
52.60860773555675
 20
479.2111651912248
 30
0.0
 10
53.42750760919738
 20
478.3027205630319
 30
0.0
 10
54.90740473634708
 20
476.6753361430111
 30
0.0
 10
55.54907074716962
 20
475.9778460416504
 30
0.0
 10
56.57129238970092
 20
474.8710137186956
 30
0.0
 10
56.95259115278498
 20
474.4609548976011
 30
0.0
 10
57.28488246501499
 20
474.1037662254097
 30
0.0
 10
57.34912997631282
 20
474.0347555201456
 30
0.0
 10
57.34935911550683
 20
474.0345270218005
 30
0.0
  0
LINE
  5
84
330
7E
100
AcDbEntity
  8
DV1_Default
  6
Continuous
 62
     7
100
AcDbLine
 10
6.35
 20
546.2838885404
 30
0.0
 11
6.35
 21
436.2838885404
 31
0.0
  0
LINE
  5
85
330
7E
100
AcDbEntity
  8
DV1_Default
  6
Continuous
 62
     7
100
AcDbLine
 10
57.35
 20
521.5192499566
 30
0.0
 11
57.35
 21
546.2838885404
 31
0.0
  0
LINE
  5
86
330
7E
100
AcDbEntity
  8
DV1_Default
  6
Continuous
 62
     7
100
AcDbLine
 10
57.35
 20
436.2838885404
 30
0.0
 11
57.35
 21
474.0500162575
 31
0.0
  0
LINE
  5
87
330
7E
100
AcDbEntity
  8
DV1_Default
  6
Continuous
 62
     7
100
AcDbLine
 10
57.3349752341
 20
474.0338885404
 30
0.0
 11
85.5
 21
474.0338885404
 31
0.0
  0
LINE
  5
88
330
7E
100
AcDbEntity
  8
DV1_Default
  6
Continuous
 62
     7
100
AcDbLine
 10
85.5
 20
521.5338885404
 30
0.0
 11
57.336362094
 21
521.5338885404
 31
0.0
  0
ARC
  5
89
330
7E
100
AcDbEntity
  8
DV1_Default
  6
Continuous
 62
     7
100
AcDbCircle
 10
85.5
 20
484.0338885404
 30
0.0
 40
9.999999999999995
100
AcDbArc
 50
270.0
 51
295.7852938783
  0
ARC
  5
8A
330
7E
100
AcDbEntity
  8
DV1_Default
  6
Continuous
 62
     7
100
AcDbCircle
 10
85.5
 20
511.5338885404
 30
0.0
 40
10.0
100
AcDbArc
 50
64.2147061217
 51
90.0
  0
ARC
  5
8B
330
7E
100
AcDbEntity
  8
DV1_Default
  6
Continuous
 62
     7
100
AcDbCircle
 10
31.85
 20
803.0692998651
 30
0.0
 40
14.00000000000001
100
AcDbArc
 50
90.0
 51
180.0
  0
ARC
  5
8C
330
7E
100
AcDbEntity
  8
DV1_Default
  6
Continuous
 62
     7
100
AcDbCircle
 10
31.85
 20
803.0692998651
 30
0.0
 40
13.99999999999996
100
AcDbArc
 50
0.0
 51
90.0
  0
ELLIPSE
  5
8D
330
7E
100
AcDbEntity
  8
DV1_Default
  6
Continuous
 62
     7
100
AcDbEllipse
 10
31.85
 20
694.4748153025
 30
0.0
 11
-14.00000000000008
 21
1.665334536937735E-13
 31
0.0
210
0.0
220
0.0
230
1.0
 40
0.1736481777
 41
4.712388980384691
 42
6.28125393157604
  0
LINE
  5
8E
330
7E
100
AcDbEntity
  8
DV1_Default
  6
Continuous
 62
     7
100
AcDbLine
 10
17.85
 20
694.4748153025
 30
0.0
 11
17.8500261115
 21
694.4795106176
 31
0.0
  0
ELLIPSE
  5
8F
330
7E
100
AcDbEntity
  8
DV1_Default
  6
Continuous
 62
     7
100
AcDbEllipse
 10
31.85
 20
694.4748153025
 30
0.0
 11
14.00000000000008
 21
0.0
 31
0.0
210
0.0
220
0.0
230
1.0
 40
0.1736481777
 41
3.141592653589793
 42
3.182112899032402
  0
ELLIPSE
  5
90
330
7E
100
AcDbEntity
  8
DV1_Default
  6
Continuous
 62
     7
100
AcDbEllipse
 10
31.85
 20
694.4748153025
 30
0.0
 11
14.00000000000009
 21
-5.551115123125783E-14
 31
0.0
210
0.0
220
0.0
230
1.0
 40
0.1736481777
 41
6.242665061736906
 42
6.283185307179515
  0
LINE
  5
91
330
7E
100
AcDbEntity
  8
DV1_Default
  6
Continuous
 62
     7
100
AcDbLine
 10
45.8499738885
 20
694.4795106176
 30
0.0
 11
45.85
 21
694.4748153025
 31
0.0
  0
ELLIPSE
  5
92
330
7E
100
AcDbEntity
  8
DV1_Default
  6
Continuous
 62
     7
100
AcDbEllipse
 10
31.85
 20
694.4748153025
 30
0.0
 11
-14.00000000000006
 21
0.0
 31
0.0
210
0.0
220
0.0
230
1.0
 40
0.1736481777
 41
3.143524029193166
 42
4.71238898038469
  0
LINE
  5
93
330
7E
100
AcDbEntity
  8
DV1_Default
  6
Continuous
 62
     7
100
AcDbLine
 10
17.85
 20
803.0692998651
 30
0.0
 11
17.85
 21
717.1287103424
 31
0.0
  0
LINE
  5
94
330
7E
100
AcDbEntity
  8
DV1_Default
  6
Continuous
 62
     7
100
AcDbLine
 10
45.85
 20
717.1287103424
 30
0.0
 11
45.85
 21
803.0692998651
 31
0.0
  0
LINE
  5
95
330
7E
100
AcDbEntity
  8
DV1_Default
  6
Continuous
 62
     7
100
AcDbLine
 10
17.85
 20
717.1287103424
 30
0.0
 11
17.85
 21
694.4748153025
 31
0.0
  0
LINE
  5
96
330
7E
100
AcDbEntity
  8
DV1_Default
  6
Continuous
 62
     7
100
AcDbLine
 10
45.85
 20
694.4748153025
 30
0.0
 11
45.85
 21
717.1287103424
 31
0.0
  0
LINE
  5
97
330
7E
100
AcDbEntity
  8
DV1_Default
  6
Continuous
 62
     7
100
AcDbLine
 10
17.85
 20
694.4748153025
 30
0.0
 11
17.85
 21
694.2778537519
 31
0.0
  0
LINE
  5
98
330
7E
100
AcDbEntity
  8
DV1_Default
  6
Continuous
 62
     7
100
AcDbLine
 10
17.85
 20
625.3413110411
 30
0.0
 11
17.85
 21
546.2838885404
 31
0.0
  0
LINE
  5
99
330
7E
100
AcDbEntity
  8
DV1_Default
  6
Continuous
 62
     7
100
AcDbLine
 10
45.85
 20
546.2838885404
 30
0.0
 11
45.85
 21
625.3413110411
 31
0.0
  0
LINE
  5
9A
330
7E
100
AcDbEntity
  8
DV1_Default
  6
Continuous
 62
     7
100
AcDbLine
 10
45.85
 20
694.2778537519
 30
0.0
 11
45.85
 21
694.4748153025
 31
0.0
  0
ELLIPSE
  5
9B
330
7E
100
AcDbEntity
  8
DV1_Default
  6
Continuous
 62
     7
100
AcDbEllipse
 10
115.250691316
 20
569.5372181399
 30
0.0
 11
-5.000000000000004
 21
0.0
 31
0.0
210
0.0
220
0.0
230
1.0
 40
0.5299192642
 41
0.0
 42
6.283185307179586
  0
SPLINE
  5
9C
330
7E
100
AcDbEntity
  8
DV1_Default
  6
Continuous
 62
     7
100
AcDbSpline
210
0.0
220
0.0
230
1.0
 70
     8
 71
     3
 72
    12
 73
     8
 74
     0
 42
0.000000001
 43
0.0000000001
 40
0.0
 40
0.0
 40
0.0
 40
0.0
 40
0.2856949014911653
 40
0.2856949014911653
 40
0.6428474507455829
 40
0.6428474507455829
 40
1.0
 40
1.0
 40
1.0
 40
1.0
 10
125.7276670601396
 20
522.3273584980157
 30
0.0
 10
125.9030837512524
 20
522.3246072599342
 30
0.0
 10
126.0558388043701
 20
522.2205344455241
 30
0.0
 10
126.3482057859723
 20
521.7536741324136
 30
0.0
 10
126.4743948851963
 20
521.3272205910431
 30
0.0
 10
126.640068799069
 20
520.1828187341615
 30
0.0
 10
126.6829655069235
 20
519.4623095056677
 30
0.0
 10
126.6826506110028
 20
518.5868322929317
 30
0.0
  0
SPLINE
  5
9D
330
7E
100
AcDbEntity
  8
DV1_Default
  6
Continuous
 62
     7
100
AcDbSpline
210
0.0
220
0.0
230
1.0
 70
     8
 71
     3
 72
    32
 73
    28
 74
     0
 42
0.000000001
 43
0.0000000001
 40
0.0
 40
0.0
 40
0.0
 40
0.0
 40
0.0758286642251102
 40
0.0758286642251102
 40
0.1516573284502203
 40
0.1516573284502203
 40
0.2274859926753305
 40
0.2274859926753305
 40
0.3033146569004406
 40
0.3033146569004406
 40
0.3791433211255508
 40
0.3791433211255508
 40
0.454971985350661
 40
0.454971985350661
 40
0.5308006495757711
 40
0.5308006495757711
 40
0.6066293138008813
 40
0.6066293138008813
 40
0.7582866422511015
 40
0.7582866422511015
 40
0.8341153064762117
 40
0.8341153064762117
 40
0.9099439707013219
 40
0.9099439707013219
 40
0.9857726349264321
 40
0.9857726349264321
 40
1.0
 40
1.0
 40
1.0
 40
1.0
 10
126.6826506110028
 20
518.5868322929317
 30
0.0
 10
126.6829055398442
 20
517.7242940176
 30
0.0
 10
126.641248280381
 20
516.7306020599127
 30
0.0
 10
126.4745628255177
 20
514.4724381976235
 30
0.0
 10
126.3487733287318
 20
513.2310850291834
 30
0.0
 10
126.028134684465
 20
510.5817391587474
 30
0.0
 10
125.8263568124335
 20
509.1538863939524
 30
0.0
 10
125.358630825533
 20
506.1806077393007
 30
0.0
 10
125.0945448738275
 20
504.6522639803507
 30
0.0
 10
124.5068666642186
 20
501.5153312286401
 30
0.0
 10
124.1816544304685
 20
499.8949596418354
 30
0.0
 10
123.4995944130038
 20
496.7032158676465
 30
0.0
 10
123.1403978229719
 20
495.1171845040325
 30
0.0
 10
122.385864097425
 20
491.9648211178289
 30
0.0
 10
121.994795488394
 20
490.4188802330806
 30
0.0
 10
121.2073803525817
 20
487.468408235932
 30
0.0
 10
120.8077579824524
 20
486.0504740288198
 30
0.0
 10
119.5906196778756
 20
481.9762085693019
 30
0.0
 10
118.7853852195361
 20
479.6090970855679
 30
0.0
 10
117.676085575544
 20
476.826710362562
 30
0.0
 10
117.3166095213749
 20
476.0123375181273
 30
0.0
 10
116.6411237260732
 20
474.6730118106249
 30
0.0
 10
116.3307074635274
 20
474.1526492385079
 30
0.0
 10
115.7559497078229
 20
473.4052896539045
 30
0.0
 10
115.4917837315748
 20
473.1807499175965
 30
0.0
 10
115.2225498876963
 20
473.1092910780516
 30
0.0
 10
115.1812037599474
 20
473.1035609871231
 30
0.0
 10
115.1410466294919
 20
473.1034116872697
 30
0.0
  0
SPLINE
  5
9E
330
7E
100
AcDbEntity
  8
DV1_Default
  6
Continuous
 62
     7
100
AcDbSpline
210
0.0
220
0.0
230
1.0
 70
     8
 71
     3
 72
    10
 73
     6
 74
     0
 42
0.000000001
 43
0.0000000001
 40
0.0
 40
0.0
 40
0.0
 40
0.0
 40
0.9277926647944553
 40
0.9277926647944553
 40
1.0
 40
1.0
 40
1.0
 40
1.0
 10
127.9721129447937
 20
517.3107098881534
 30
0.0
 10
127.9721947186344
 20
518.9558986934595
 30
0.0
 10
127.81042224788
 20
520.0467142240706
 30
0.0
 10
127.4860680422235
 20
520.5639871007412
 30
0.0
 10
127.4617375245444
 20
520.5977256358077
 30
0.0
 10
127.4365270088991
 20
520.627839086675
 30
0.0
  0
SPLINE
  5
9F
330
7E
100
AcDbEntity
  8
DV1_Default
  6
Continuous
 62
     7
100
AcDbSpline
210
0.0
220
0.0
230
1.0
 70
     8
 71
     3
 72
    28
 73
    24
 74
     0
 42
0.000000001
 43
0.0000000001
 40
0.0
 40
0.0
 40
0.0
 40
0.0
 40
0.1585775945689686
 40
0.1585775945689686
 40
0.2378663918534529
 40
0.2378663918534529
 40
0.3171551891379373
 40
0.3171551891379373
 40
0.3964439864224217
 40
0.3964439864224217
 40
0.475732783706906
 40
0.475732783706906
 40
0.6343103782758746
 40
0.6343103782758746
 40
0.7135991755603589
 40
0.7135991755603589
 40
0.7928879728448432
 40
0.7928879728448432
 40
0.8721767701293275
 40
0.8721767701293275
 40
0.9514655674138117
 40
0.9514655674138117
 40
1.0
 40
1.0
 40
1.0
 40
1.0
 10
127.9721129447937
 20
517.3107098881534
 30
0.0
 10
127.9721947469654
 20
515.6664702900966
 30
0.0
 10
127.8104333242535
 20
513.495084234268
 30
0.0
 10
127.3590372791845
 20
509.7556824654683
 30
0.0
 10
127.1710214920675
 20
508.4067112832061
 30
0.0
 10
126.7356759908859
 20
505.6166869237437
 30
0.0
 10
126.4896745667268
 20
504.1801887098599
 30
0.0
 10
125.9422552714543
 20
501.2259893696012
 30
0.0
 10
125.6397350002937
 20
499.7055358614225
 30
0.0
 10
125.0044942895969
 20
496.7100205233953
 30
0.0
 10
124.6689231358037
 20
495.2188821876729
 30
0.0
 10
123.6073633593817
 20
490.765657858965
 30
0.0
 10
122.858645573647
 20
487.9581349895422
 30
0.0
 10
121.7208762290184
 20
484.156435482006
 30
0.0
 10
121.3462279427277
 20
482.9811190406643
 30
0.0
 10
120.606108611424
 20
480.8104416551495
 30
0.0
 10
120.2369627294738
 20
479.8067447110053
 30
0.0
 10
119.5339566057668
 20
478.0563437708914
 30
0.0
 10
119.1986920406713
 20
477.303709048363
 30
0.0
 10
118.5609942543211
 20
476.0463560519755
 30
0.0
 10
118.2575524748515
 20
475.5427224237106
 30
0.0
 10
117.817419984616
 20
474.9744173173972
 30
0.0
 10
117.6603152710015
 20
474.8121047817202
 30
0.0
 10
117.5134627802139
 20
474.7045779457405
 30
0.0
  0
LINE
  5
A0
330
7E
100
AcDbEntity
  8
DV1_Default
  6
Continuous
 62
     7
100
AcDbLine
 10
89.9183276993
 20
522.63153844
 30
0.0
 11
89.9183276993
 21
518.8565139688
 31
0.0
  0
LINE
  5
A1
330
7E
100
AcDbEntity
  8
DV1_Default
  6
Continuous
 62
     7
100
AcDbLine
 10
89.9183276993
 20
472.9325537051
 30
0.0
 11
89.9183276993
 21
518.8565139688
 31
0.0
  0
LINE
  5
A2
330
7E
100
AcDbEntity
  8
DV1_Default
  6
Continuous
 62
     7
100
AcDbLine
 10
120.250691316
 20
522.2756714921
 30
0.0
 11
120.250691316
 21
569.5372181399
 31
0.0
  0
LINE
  5
A3
330
7E
100
AcDbEntity
  8
DV1_Default
  6
Continuous
 62
     7
100
AcDbLine
 10
110.250691316
 20
569.5372181399
 30
0.0
 11
110.250691316
 21
522.2734316612
 31
0.0
  0
ARC
  5
A4
330
7E
100
AcDbEntity
  8
DV1_Default
  6
Continuous
 62
     7
100
AcDbCircle
 10
115.0601994881
 20
1372.7487149001
 30
0.0
 40
850.4888822136492
100
AcDbArc
 50
270.3496754957
 51
270.7183971992
  0
ARC
  5
A5
330
7E
100
AcDbEntity
  8
DV1_Default
  6
Continuous
 62
     7
100
AcDbCircle
 10
115.0601994881
 20
1372.7487149001
 30
0.0
 40
850.4888822136492
100
AcDbArc
 50
268.3059942751
 51
269.6759910749
  0
ARC
  5
A6
330
7E
100
AcDbEntity
  8
DV1_Default
  6
Continuous
 62
     7
100
AcDbCircle
 10
134.3324498578
 20
-4312.4871354552
 30
0.0
 40
4785.629184010491
100
AcDbArc
 50
90.2297160096
 51
90.5317541716
  0
SPLINE
  5
A7
330
7E
100
AcDbEntity
  8
DV1_Default
  6
Continuous
 62
     7
100
AcDbSpline
210
0.0
220
0.0
230
1.0
 70
     8
 71
     3
 72
     8
 73
     4
 74
     0
 42
0.000000001
 43
0.0000000001
 40
0.0
 40
0.0
 40
0.0
 40
0.0
 40
1.0
 40
1.0
 40
1.0
 40
1.0
 10
127.4445356192475
 20
520.6189920712732
 30
0.0
 10
126.9959791342714
 20
521.1231221543284
 30
0.0
 10
126.5472780281721
 20
521.6275651941229
 30
0.0
 10
126.0984323009496
 20
522.1323211906566
 30
0.0
  0
SPLINE
  5
A8
330
7E
100
AcDbEntity
  8
DV1_Default
  6
Continuous
 62
     7
100
AcDbSpline
210
0.0
220
0.0
230
1.0
 70
     8
 71
     3
 72
     8
 73
     4
 74
     0
 42
0.000000001
 43
0.0000000001
 40
0.0
 40
0.0
 40
0.0
 40
0.0
 40
1.0
 40
1.0
 40
1.0
 40
1.0
 10
115.5349694500777
 20
473.256094465693
 30
0.0
 10
116.1989430077591
 20
473.7427418376295
 30
0.0
 10
116.8623320503569
 20
474.2285099069382
 30
0.0
 10
117.5251365778711
 20
474.7133986736192
 30
0.0
  0
ELLIPSE
  5
A9
330
7E
100
AcDbEntity
  8
DV1_Default
  6
Continuous
 62
     7
100
AcDbEllipse
 10
31.85
 20
625.3413110411
 30
0.0
 11
-13.99999999999998
 21
2.775557561562892E-14
 31
0.0
210
0.0
220
0.0
230
1.0
 40
0.1736481777
 41
0.0
 42
0.695326552673911
  0
ELLIPSE
  5
AA
330
7E
100
AcDbEntity
  8
DV1_Default
  6
Continuous
 62
     7
100
AcDbEllipse
 10
31.85
 20
625.3413110411
 30
0.0
 11
-13.99999999999998
 21
2.775557561562892E-14
 31
0.0
210
0.0
220
0.0
230
1.0
 40
0.1736481777
 41
2.442176923806651
 42
6.283185307179586
  0
ELLIPSE
  5
AB
330
7E
100
AcDbEntity
  8
DV1_Default
  6
Continuous
 62
     7
100
AcDbEllipse
 10
31.85
 20
694.2778537519
 30
0.0
 11
14.0
 21
0.0
 31
0.0
210
0.0
220
0.0
230
1.0
 40
0.1736481777
 41
0.0
 42
3.141592653589793
  0
LINE
  5
AC
330
7E
100
AcDbEntity
  8
DV1_Default
  6
Continuous
 62
     7
100
AcDbLine
 10
39.15
 20
659.7174288848
 30
0.0
 11
39.15
 21
677.2470068884
 31
0.0
  0
SPLINE
  5
AD
330
7E
100
AcDbEntity
  8
DV1_Default
  6
Continuous
 62
     7
100
AcDbSpline
210
0.0
220
0.0
230
1.0
 70
     8
 71
     3
 72
    18
 73
    14
 74
     0
 42
0.000000001
 43
0.0000000001
 40
0.0
 40
0.0
 40
0.0
 40
0.0
 40
0.2499999999999997
 40
0.2499999999999997
 40
0.3749999999999997
 40
0.3749999999999997
 40
0.4999999999999998
 40
0.4999999999999998
 40
0.6249999999999998
 40
0.6249999999999998
 40
0.7499999999999999
 40
0.7499999999999999
 40
1.0
 40
1.0
 40
1.0
 40
1.0
 10
24.54999999999993
 20
659.7174288848046
 30
0.0
 10
24.54999999999993
 20
657.778789850277
 30
0.0
 10
25.36317897123065
 20
656.0353767083691
 30
0.0
 10
27.34291774584985
 20
654.2183608667726
 30
0.0
 10
28.13987064929705
 20
653.7304670439759
 30
0.0
 10
29.89313852083275
 20
653.0661798724971
 30
0.0
 10
30.86372562095832
 20
652.8863883688327
 30
0.0
 10
32.812875658862
 20
652.8835948590215
 30
0.0
 10
33.78650074808883
 20
653.0600193441709
 30
0.0
 10
35.55856196019368
 20
653.7283384491069
 30
0.0
 10
36.35384895240077
 20
654.2159573291409
 30
0.0
 10
38.33632313267098
 20
656.0337946926518
 30
0.0
 10
39.14999999999993
 20
657.777254670897
 30
0.0
 10
39.14999999999993
 20
659.7174288848046
 30
0.0
  0
LINE
  5
AE
330
7E
100
AcDbEntity
  8
DV1_Default
  6
Continuous
 62
     7
100
AcDbLine
 10
24.55
 20
677.2470068884
 30
0.0
 11
24.55
 21
659.7174288848
 31
0.0
  0
SPLINE
  5
AF
330
7E
100
AcDbEntity
  8
DV1_Default
  6
Continuous
 62
     7
100
AcDbSpline
210
0.0
220
0.0
230
1.0
 70
     8
 71
     3
 72
    18
 73
    14
 74
     0
 42
0.000000001
 43
0.0000000001
 40
0.0
 40
0.0
 40
0.0
 40
0.0
 40
0.25
 40
0.25
 40
0.375
 40
0.375
 40
0.5
 40
0.5
 40
0.625
 40
0.625
 40
0.75
 40
0.75
 40
1.0
 40
1.0
 40
1.0
 40
1.0
 10
39.14999999999995
 20
677.2470068884218
 30
0.0
 10
39.14999999999996
 20
679.1856459229493
 30
0.0
 10
38.33682102876924
 20
681.1170770131134
 30
0.0
 10
36.35708225415004
 20
683.2071257161491
 30
0.0
 10
35.56012935070284
 20
683.7837249654266
 30
0.0
 10
33.80686147916713
 20
684.5738540284392
 30
0.0
 10
32.83627437904156
 20
684.7910647456625
 30
0.0
 10
30.88712434113788
 20
684.7944239470614
 30
0.0
 10
29.91349925191105
 20
684.58121784746
 30
0.0
 10
28.1414380398062
 20
683.7862209995529
 30
0.0
 10
27.3461510475991
 20
683.2099276875023
 30
0.0
 10
25.36367686732891
 20
681.118822410677
 30
0.0
 10
24.54999999999996
 20
679.1871811023292
 30
0.0
 10
24.54999999999995
 20
677.2470068884219
 30
0.0
  0
LINE
  5
B0
330
7E
100
AcDbEntity
  8
DV1_Default
  6
Continuous
 62
     7
100
AcDbLine
 10
45.85
 20
625.3413110411
 30
0.0
 11
45.85
 21
694.2778537519
 31
0.0
  0
LINE
  5
B1
330
7E
100
AcDbEntity
  8
DV1_Default
  6
Continuous
 62
     7
100
AcDbLine
 10
17.85
 20
694.2778537519
 30
0.0
 11
17.85
 21
625.3413110411
 31
0.0
  0
SPLINE
  5
B2
330
7E
100
AcDbEntity
  8
DV1_Default
  6
Continuous
 62
     7
100
AcDbSpline
210
0.0
220
0.0
230
1.0
 70
     8
 71
     3
 72
    22
 73
    18
 74
     0
 42
0.000000001
 43
0.0000000001
 40
0.0
 40
0.0
 40
0.0
 40
0.0
 40
0.0327861721226083
 40
0.0669250573034939
 40
0.1025751802328153
 40
0.1627245817309615
 40
0.225252912733863
 40
0.300520710097606
 40
0.375076937933441
 40
0.4546204120826377
 40
0.5306018422759291
 40
0.6562517183638565
 40
0.7773226645155621
 40
0.828351390859997
 40
0.8794408027722004
 40
0.9400424408431926
 40
1.0
 40
1.0
 40
1.0
 40
1.0
 10
42.69380489604988
 20
623.9868648691406
 30
0.0
 10
42.68162207348173
 20
623.9689527705218
 30
0.0
 10
42.65675378158577
 20
623.9323895443542
 30
0.0
 10
42.609846120318
 20
623.8714604023122
 30
0.0
 10
42.54264345921474
 20
623.7917047064429
 30
0.0
 10
42.44742205344876
 20
623.6919406663594
 30
0.0
 10
42.30895590600605
 20
623.5686830250854
 30
0.0
 10
42.13836852004543
 20
623.4435156600773
 30
0.0
 10
41.92985941307892
 20
623.3234066724299
 30
0.0
 10
41.69857868585339
 20
623.2254098161742
 30
0.0
 10
41.39489614032846
 20
623.1425224966036
 30
0.0
 10
41.02630160838276
 20
623.1142197055121
 30
0.0
 10
40.70231323494639
 20
623.1745010542222
 30
0.0
 10
40.48443232574769
 20
623.2564543291031
 30
0.0
 10
40.33754955139084
 20
623.3298482855766
 30
0.0
 10
40.19611935760562
 20
623.4196443589266
 30
0.0
 10
40.11218104527367
 20
623.4904187238756
 30
0.0
 10
40.07043610633188
 20
623.5256168528514
 30
0.0
  0
SPLINE
  5
B3
330
7E
100
AcDbEntity
  8
DV1_Default
  6
Continuous
 62
     7
100
AcDbSpline
210
0.0
220
0.0
230
1.0
 70
     8
 71
     3
 72
    19
 73
    15
 74
     0
 42
0.000000001
 43
0.0000000001
 40
0.0
 40
0.0
 40
0.0
 40
0.0
 40
0.0444218133271873
 40
0.088692817642037
 40
0.132984673421032
 40
0.1774732338349494
 40
0.222337856615635
 40
0.3696110185926483
 40
0.5197561490657271
 40
0.6885295934210213
 40
0.780098858927799
 40
0.8750277144306747
 40
0.9662758141940716
 40
1.0
 40
1.0
 40
1.0
 40
1.0
 10
39.93312375298888
 20
623.3750715098199
 30
0.0
 10
39.96487284542334
 20
623.3618554002962
 30
0.0
 10
40.02826324429913
 20
623.3354680490353
 30
0.0
 10
40.12905416022519
 20
623.2967380766855
 30
0.0
 10
40.2339156389251
 20
623.2596096327272
 30
0.0
 10
40.34343299167465
 20
623.2247749623725
 30
0.0
 10
40.54349663171471
 20
623.1689350053806
 30
0.0
 10
40.85210684195253
 20
623.1102240557681
 30
0.0
 10
41.27474603145176
 20
623.09605397655
 30
0.0
 10
41.60834362806615
 20
623.1461554773225
 30
0.0
 10
41.84614577068354
 20
623.219483109698
 30
0.0
 10
42.00300327014026
 20
623.2887055384957
 30
0.0
 10
42.10254211591294
 20
623.3485447239791
 30
0.0
 10
42.14929086901445
 20
623.382590419191
 30
0.0
 10
42.1611855690263
 20
623.3917292952221
 30
0.0
  0
SPLINE
  5
B4
330
7E
100
AcDbEntity
  8
DV1_Default
  6
Continuous
 62
     7
100
AcDbSpline
210
0.0
220
0.0
230
1.0
 70
     8
 71
     3
 72
    19
 73
    15
 74
     0
 42
0.000000001
 43
0.0000000001
 40
0.0
 40
0.0
 40
0.0
 40
0.0
 40
0.0421558588008909
 40
0.1136883488294775
 40
0.1997948045393864
 40
0.2850872238208703
 40
0.3760850592029229
 40
0.4630079117865857
 40
0.6067515295216551
 40
0.7452568455768495
 40
0.8036337732900496
 40
0.8620801253546955
 40
0.9314084762230553
 40
1.0
 40
1.0
 40
1.0
 40
1.0
 10
41.74905627865365
 20
623.197407159354
 30
0.0
 10
41.71904584018998
 20
623.1757718163113
 30
0.0
 10
41.63597350441461
 20
623.1172724503775
 30
0.0
 10
41.48068876943559
 20
623.0161541237262
 30
0.0
 10
41.27753985901919
 20
622.9012656914007
 30
0.0
 10
41.04383214946786
 20
622.7933190677859
 30
0.0
 10
40.79810515487131
 20
622.7084414357214
 30
0.0
 10
40.49201995767712
 20
622.6423246616914
 30
0.0
 10
40.14425536209656
 20
622.6337240170609
 30
0.0
 10
39.86572287089735
 20
622.7105765992042
 30
0.0
 10
39.69172795086137
 20
622.8033077014112
 30
0.0
 10
39.58072064519318
 20
622.8837944524503
 30
0.0
 10
39.48060799649777
 20
622.9802337195176
 30
0.0
 10
39.42882705237843
 20
623.0547407941709
 30
0.0
 10
39.40307489831888
 20
623.0917953071322
 30
0.0
  0
SPLINE
  5
B5
330
7E
100
AcDbEntity
  8
DV1_Default
  6
Continuous
 62
     7
100
AcDbSpline
210
0.0
220
0.0
230
1.0
 70
     8
 71
     3
 72
    16
 73
    12
 74
     0
 42
0.000000001
 43
0.0000000001
 40
0.0
 40
0.0
 40
0.0
 40
0.0
 40
0.0623370451336302
 40
0.1244621816764439
 40
0.1866164058338625
 40
0.2490466056589805
 40
0.3120045946740257
 40
0.5186229658779823
 40
0.7292738533823508
 40
0.9660416662803222
 40
1.0
 40
1.0
 40
1.0
 40
1.0
 10
39.00457892836189
 20
622.9559863912026
 30
0.0
 10
39.0404703081037
 20
622.9409067095739
 30
0.0
 10
39.11213105840818
 20
622.9107986081953
 30
0.0
 10
39.22239810348353
 20
622.8662548703584
 30
0.0
 10
39.33446531742416
 20
622.8231523311138
 30
0.0
 10
39.44865617476095
 20
622.7821586645938
 30
0.0
 10
39.65248004028642
 20
622.7152119198058
 30
0.0
 10
39.95214077209493
 20
622.6397838723027
 30
0.0
 10
40.32919567682256
 20
622.6036427682479
 30
0.0
 10
40.5519632958312
 20
622.6317388178513
 30
0.0
 10
40.65172179888305
 20
622.6608667761163
 30
0.0
 10
40.66383633748516
 20
622.6647154652038
 30
0.0
  0
SPLINE
  5
B6
330
7E
100
AcDbEntity
  8
DV1_Default
  6
Continuous
 62
     7
100
AcDbSpline
210
0.0
220
0.0
230
1.0
 70
     8
 71
     3
 72
    13
 73
     9
 74
     0
 42
0.000000001
 43
0.0000000001
 40
0.0
 40
0.0
 40
0.0
 40
0.0
 40
0.2085374805361307
 40
0.4872970298593123
 40
0.6047880152106575
 40
0.7224187259037993
 40
0.8619508420241614
 40
1.0
 40
1.0
 40
1.0
 40
1.0
 10
38.69550447676963
 20
622.2230312511715
 30
0.0
 10
38.61164407875562
 20
622.220512297884
 30
0.0
 10
38.42606295941019
 20
622.234699602012
 30
0.0
 10
38.2444977034372
 20
622.3142498611802
 30
0.0
 10
38.13142060761887
 20
622.4148763536772
 30
0.0
 10
38.0671549391524
 20
622.5001836670192
 30
0.0
 10
38.01815955911874
 20
622.6007238774657
 30
0.0
 10
38.0036046627999
 20
622.6770553979779
 30
0.0
 10
37.99636609388788
 20
622.7150172603839
 30
0.0
  0
SPLINE
  5
B7
330
7E
100
AcDbEntity
  8
DV1_Default
  6
Continuous
 62
     7
100
AcDbSpline
210
0.0
220
0.0
230
1.0
 70
     8
 71
     3
 72
    12
 73
     8
 74
     0
 42
0.000000001
 43
0.0000000001
 40
0.0
 40
0.0
 40
0.0
 40
0.0
 40
0.1916955156302828
 40
0.3847157048930168
 40
0.644709810438671
 40
0.9485083901710175
 40
1.0
 40
1.0
 40
1.0
 40
1.0
 10
37.37569406929988
 20
622.6072386945094
 30
0.0
 10
37.47375168272833
 20
622.5612794844086
 30
0.0
 10
37.67054451716828
 20
622.4690434722517
 30
0.0
 10
37.99250992165027
 20
622.3304467347635
 30
0.0
 10
38.34514486244741
 20
622.2150950948842
 30
0.0
 10
38.5657172154288
 20
622.1917431070193
 30
0.0
 10
38.65739120957922
 20
622.202538296659
 30
0.0
 10
38.66992872987441
 20
622.2045787692007
 30
0.0
  0
SPLINE
  5
B8
330
7E
100
AcDbEntity
  8
DV1_Default
  6
Continuous
 62
     7
100
AcDbSpline
210
0.0
220
0.0
230
1.0
 70
     8
 71
     3
 72
    14
 73
    10
 74
     0
 42
0.000000001
 43
0.0000000001
 40
0.0
 40
0.0
 40
0.0
 40
0.0
 40
0.0460121375733817
 40
0.3013784076399116
 40
0.5474386258370909
 40
0.6511475662454574
 40
0.7549798418125869
 40
0.8781444222532377
 40
1.0
 40
1.0
 40
1.0
 40
1.0
 10
36.41472516658782
 20
621.9197971980971
 30
0.0
 10
36.39724364524962
 20
621.917592040375
 30
0.0
 10
36.28502553276397
 20
621.9063170624573
 30
0.0
 10
36.11027956908602
 20
621.925375648584
 30
0.0
 10
35.99733454767996
 20
622.0243160626413
 30
0.0
 10
35.95624405007305
 20
622.1291826525804
 30
0.0
 10
35.94501079019903
 20
622.2165664257383
 30
0.0
 10
35.95192868799399
 20
622.3182639003111
 30
0.0
 10
35.97602457414006
 20
622.3943330133626
 30
0.0
 10
35.98800815193788
 20
622.4321643729871
 30
0.0
  0
SPLINE
  5
B9
330
7E
100
AcDbEntity
  8
DV1_Default
  6
Continuous
 62
     7
100
AcDbSpline
210
0.0
220
0.0
230
1.0
 70
     8
 71
     3
 72
    15
 73
    11
 74
     0
 42
0.000000001
 43
0.0000000001
 40
0.0
 40
0.0
 40
0.0
 40
0.0
 40
0.0626490147845045
 40
0.1255856182673943
 40
0.1889952041553094
 40
0.3040896885895726
 40
0.4189075184921529
 40
0.6996531604971356
 40
0.9922358966851861
 40
1.0
 40
1.0
 40
1.0
 40
1.0
 10
35.20591577503588
 20
622.3629662741045
 30
0.0
 10
35.23470310964578
 20
622.3466720974338
 30
0.0
 10
35.2924099263879
 20
622.3140089460912
 30
0.0
 10
35.37658136459945
 20
622.2651937130737
 30
0.0
 10
35.48129741269086
 20
622.2041403705937
 30
0.0
 10
35.60317194823963
 20
622.1334422950011
 30
0.0
 10
35.79970249986686
 20
622.0228936827293
 30
0.0
 10
36.02324146268159
 20
621.9130171572544
 30
0.0
 10
36.12602694632658
 20
621.8906481632579
 30
0.0
 10
36.15367879726404
 20
621.8965218152205
 30
0.0
 10
36.15437662275198
 20
621.8966851909543
 30
0.0
  0
SPLINE
  5
BA
330
7E
100
AcDbEntity
  8
DV1_Default
  6
Continuous
 62
     7
100
AcDbSpline
210
0.0
220
0.0
230
1.0
 70
     8
 71
     3
 72
    15
 73
    11
 74
     0
 42
0.000000001
 43
0.0000000001
 40
0.0
 40
0.0
 40
0.0
 40
0.0
 40
0.0897251449817093
 40
0.2165432124139576
 40
0.4262612240050544
 40
0.6283366965642754
 40
0.7135070393877355
 40
0.7987786704760991
 40
0.8999268405288063
 40
1.0
 40
1.0
 40
1.0
 40
1.0
 10
33.71032783855269
 20
621.7969405019243
 30
0.0
 10
33.67420807065979
 20
621.7844322047997
 30
0.0
 10
33.59204283938164
 20
621.7590169601722
 30
0.0
 10
33.45854003724009
 20
621.7353739151279
 30
0.0
 10
33.3532236793297
 20
621.7668610422103
 30
0.0
 10
33.34420139021649
 20
621.8691559438707
 30
0.0
 10
33.37911971501423
 20
621.974192288129
 30
0.0
 10
33.42201845347996
 20
622.0607051602642
 30
0.0
 10
33.48417245707365
 20
622.1605029386319
 30
0.0
 10
33.54456045245992
 20
622.2342484771762
 30
0.0
 10
33.57459314087688
 20
622.2709242563119
 30
0.0
  0
SPLINE
  5
BB
330
7E
100
AcDbEntity
  8
DV1_Default
  6
Continuous
 62
     7
100
AcDbSpline
210
0.0
220
0.0
230
1.0
 70
     8
 71
     3
 72
     8
 73
     4
 74
     0
 42
0.000000001
 43
0.0000000001
 40
0.0
 40
0.0
 40
0.0
 40
0.0
 40
1.0
 40
1.0
 40
1.0
 40
1.0
 10
33.24624543758291
 20
621.7386649366189
 30
0.0
 10
33.24203054161773
 20
621.7383248136372
 30
0.0
 10
33.2356044252459
 20
621.7396707203156
 30
0.0
 10
33.22710119549253
 20
621.7425793450225
 30
0.0
  0
SPLINE
  5
BC
330
7E
100
AcDbEntity
  8
DV1_Default
  6
Continuous
 62
     7
100
AcDbSpline
210
0.0
220
0.0
230
1.0
 70
     8
 71
     3
 72
     9
 73
     5
 74
     0
 42
0.000000001
 43
0.0000000001
 40
0.0
 40
0.0
 40
0.0
 40
0.0
 40
0.28122559794404
 40
1.0
 40
1.0
 40
1.0
 40
1.0
 10
30.47846150070776
 20
621.7445775481794
 30
0.0
 10
30.47534967105214
 20
621.7433919062847
 30
0.0
 10
30.46511463045413
 20
621.7397978809
 30
0.0
 10
30.45789328457298
 20
621.7385013879286
 30
0.0
 10
30.45428209710709
 20
621.7387892054223
 30
0.0
  0
SPLINE
  5
BD
330
7E
100
AcDbEntity
  8
DV1_Default
  6
Continuous
 62
     7
100
AcDbSpline
210
0.0
220
0.0
230
1.0
 70
     8
 71
     3
 72
    10
 73
     6
 74
     0
 42
0.000000001
 43
0.0000000001
 40
0.0
 40
0.0
 40
0.0
 40
0.0
 40
0.0980603618293531
 40
0.8830181143541342
 40
1.0
 40
1.0
 40
1.0
 40
1.0
 10
30.21705899967603
 20
621.745212183625
 30
0.0
 10
30.20870911630558
 20
621.7454018047866
 30
0.0
 10
30.13022793047387
 20
621.750193169224
 30
0.0
 10
30.00866115817312
 20
621.7868470941474
 30
0.0
 10
29.87991704775476
 20
621.8382306553938
 30
0.0
 10
29.8629067668293
 20
621.8451770315602
 30
0.0
  0
SPLINE
  5
BE
330
7E
100
AcDbEntity
  8
DV1_Default
  6
Continuous
 62
     7
100
AcDbSpline
210
0.0
220
0.0
230
1.0
 70
     8
 71
     3
 72
    14
 73
    10
 74
     0
 42
0.000000001
 43
0.0000000001
 40
0.0
 40
0.0
 40
0.0
 40
0.0
 40
0.0354903385666582
 40
0.2942035176082073
 40
0.5432963778507168
 40
0.6480186643782601
 40
0.7528654918405727
 40
0.8770881242565566
 40
1.0
 40
1.0
 40
1.0
 40
1.0
 10
27.546654072942
 20
621.8964320251204
 30
0.0
 10
27.54990824775636
 20
621.8957329729061
 30
0.0
 10
27.57978237760985
 20
621.8919043652272
 30
0.0
 10
27.67949949377719
 20
621.9161562136559
 30
0.0
 10
27.87136132387389
 20
622.0082683607678
 30
0.0
 10
28.04161237441702
 20
622.1020850069066
 30
0.0
 10
28.17564080998336
 20
622.178821706595
 30
0.0
 10
28.32558279646937
 20
622.2668984295397
 30
0.0
 10
28.43811603400269
 20
622.3310570878282
 30
0.0
 10
28.49408422481388
 20
622.3629662740207
 30
0.0
  0
SPLINE
  5
BF
330
7E
100
AcDbEntity
  8
DV1_Default
  6
Continuous
 62
     7
100
AcDbSpline
210
0.0
220
0.0
230
1.0
 70
     8
 71
     3
 72
     9
 73
     5
 74
     0
 42
0.000000001
 43
0.0000000001
 40
0.0
 40
0.0
 40
0.0
 40
0.0
 40
0.1422285465463062
 40
1.0
 40
1.0
 40
1.0
 40
1.0
 10
27.32060494501777
 20
621.9159895205051
 30
0.0
 10
27.31575226939183
 20
621.9164224986928
 30
0.0
 10
27.28141680471924
 20
621.9197555732344
 30
0.0
 10
27.24559138271368
 20
621.9251133775579
 30
0.0
 10
27.21392583929924
 20
621.931059218871
 30
0.0
  0
SPLINE
  5
C0
330
7E
100
AcDbEntity
  8
DV1_Default
  6
Continuous
 62
     7
100
AcDbSpline
210
0.0
220
0.0
230
1.0
 70
     8
 71
     3
 72
    14
 73
    10
 74
     0
 42
0.000000001
 43
0.0000000001
 40
0.0
 40
0.0
 40
0.0
 40
0.0
 40
0.0699222137033577
 40
0.3186079471735085
 40
0.5583165095479032
 40
0.6594753619729409
 40
0.7607682219302877
 40
0.8810270422371241
 40
1.0
 40
1.0
 40
1.0
 40
1.0
 10
25.02859918542036
 20
622.2048384069559
 30
0.0
 10
25.04556655074351
 20
622.2020166227977
 30
0.0
 10
25.12914805630386
 20
622.1930969967268
 30
0.0
 10
25.3247392591515
 20
622.211812195615
 30
0.0
 10
25.59195814112054
 20
622.2911618020984
 30
0.0
 10
25.80648011030431
 20
622.3739291970433
 30
0.0
 10
25.96768326173934
 20
622.4422783523182
 30
0.0
 10
26.14065510976695
 20
622.521165530189
 30
0.0
 10
26.26330874327483
 20
622.5786506331574
 30
0.0
 10
26.32430593050688
 20
622.6072386944204
 30
0.0
  0
SPLINE
  5
C1
330
7E
100
AcDbEntity
  8
DV1_Default
  6
Continuous
 62
     7
100
AcDbSpline
210
0.0
220
0.0
230
1.0
 70
     8
 71
     3
 72
    11
 73
     7
 74
     0
 42
0.000000001
 43
0.0000000001
 40
0.0
 40
0.0
 40
0.0
 40
0.0
 40
0.4635565326543701
 40
0.6986859678851104
 40
0.9387412984146847
 40
1.0
 40
1.0
 40
1.0
 40
1.0
 10
24.79398300976332
 20
622.2455777802313
 30
0.0
 10
24.66714788265843
 20
622.2680613962546
 30
0.0
 10
24.4678851203062
 20
622.3255276977911
 30
0.0
 10
24.20197577446173
 20
622.434290624721
 30
0.0
 10
24.05149979811409
 20
622.5057680730282
 30
0.0
 10
23.96815840686953
 20
622.5481241313234
 30
0.0
 10
23.95126764953149
 20
622.5568115281908
 30
0.0
  0
SPLINE
  5
C2
330
7E
100
AcDbEntity
  8
DV1_Default
  6
Continuous
 62
     7
100
AcDbSpline
210
0.0
220
0.0
230
1.0
 70
     8
 71
     3
 72
    15
 73
    11
 74
     0
 42
0.000000001
 43
0.0000000001
 40
0.0
 40
0.0
 40
0.0
 40
0.0
 40
0.0467548497472084
 40
0.27608656554683
 40
0.4628991128154754
 40
0.6459979856852854
 40
0.7271249861659209
 40
0.8087712848508888
 40
0.9048677290323265
 40
1.0
 40
1.0
 40
1.0
 40
1.0
 10
23.03504478764003
 20
622.6650732326209
 30
0.0
 10
23.05172608450492
 20
622.6597422488014
 30
0.0
 10
23.15468129894556
 20
622.630444498435
 30
0.0
 10
23.37129219417296
 20
622.6053595852925
 30
0.0
 10
23.71444294451299
 20
622.6361232278227
 30
0.0
 10
23.99389439199099
 20
622.7005718460948
 30
0.0
 10
24.2073745546347
 20
622.7668254801913
 30
0.0
 10
24.36567210038584
 20
622.8225162143519
 30
0.0
 10
24.52969053276767
 20
622.886467502722
 30
0.0
 10
24.64036356267513
 20
622.9328914513583
 30
0.0
 10
24.69542107148988
 20
622.955986391141
 30
0.0
  0
SPLINE
  5
C3
330
7E
100
AcDbEntity
  8
DV1_Default
  6
Continuous
 62
     7
100
AcDbSpline
210
0.0
220
0.0
230
1.0
 70
     8
 71
     3
 72
    17
 73
    13
 74
     0
 42
0.000000001
 43
0.0000000001
 40
0.0
 40
0.0
 40
0.0
 40
0.0
 40
0.0070731108429914
 40
0.0757518234409396
 40
0.1443530829081739
 40
0.3127877387716912
 40
0.5033870325598695
 40
0.6956358216837858
 40
0.777555810866598
 40
0.8611920007094513
 40
0.932421560348781
 40
0.9999999999999999
 40
0.9999999999999999
 40
0.9999999999999999
 40
0.9999999999999999
 10
24.1763352614178
 20
622.940802388909
 30
0.0
 10
24.17318772701035
 20
622.9376308204747
 30
0.0
 10
24.13914669236093
 20
622.9038287260352
 30
0.0
 10
24.06741828475312
 20
622.8429259807382
 30
0.0
 10
23.89057610068487
 20
622.7320461789558
 30
0.0
 10
23.58237959740442
 20
622.630855984722
 30
0.0
 10
23.10855471955675
 20
622.6435360380474
 30
0.0
 10
22.7057439374623
 20
622.7691440393464
 30
0.0
 10
22.4189027519307
 20
622.9040205963761
 30
0.0
 10
22.23906537628075
 20
623.0047660257751
 30
0.0
 10
22.0804653314657
 20
623.1059256144002
 30
0.0
 10
21.98806487741314
 20
623.1705292527802
 30
0.0
 10
21.94455082662155
 20
623.2020256331648
 30
0.0
  0
SPLINE
  5
C4
330
7E
100
AcDbEntity
  8
DV1_Default
  6
Continuous
 62
     7
100
AcDbSpline
210
0.0
220
0.0
230
1.0
 70
     8
 71
     3
 72
    18
 73
    14
 74
     0
 42
0.000000001
 43
0.0000000001
 40
0.0
 40
0.0
 40
0.0
 40
0.0
 40
0.0367201893598168
 40
0.1368394937863837
 40
0.2304202816172402
 40
0.3208145457094432
 40
0.4853092292585879
 40
0.6178819446629837
 40
0.7478923021487366
 40
0.8056484854734154
 40
0.8637895957412658
 40
0.9322392161407747
 40
0.9999999999999999
 40
0.9999999999999999
 40
0.9999999999999999
 40
0.9999999999999999
 10
21.53822110207071
 20
623.3921901897072
 30
0.0
 10
21.55116773087025
 20
623.3822214993363
 30
0.0
 10
21.60259922438212
 20
623.3448582579044
 30
0.0
 10
21.70906425068563
 20
623.2821647117918
 30
0.0
 10
21.87286007327958
 20
623.2126481599447
 30
0.0
 10
22.11026014370414
 20
623.1423868073756
 30
0.0
 10
22.42750728344396
 20
623.0975866324377
 30
0.0
 10
22.81305446663941
 20
623.1088329276577
 30
0.0
 10
23.10313485045965
 20
623.157548748307
 30
0.0
 10
23.31454870310235
 20
623.211980309129
 30
0.0
 10
23.46678167255453
 20
623.2590731047723
 30
0.0
 10
23.61978071305391
 20
623.314235751773
 30
0.0
 10
23.71800998902378
 20
623.354861407122
 30
0.0
 10
23.76687624688287
 20
623.3750715097666
 30
0.0
  0
SPLINE
  5
C5
330
7E
100
AcDbEntity
  8
DV1_Default
  6
Continuous
 62
     7
100
AcDbSpline
210
0.0
220
0.0
230
1.0
 70
     8
 71
     3
 72
    19
 73
    15
 74
     0
 42
0.000000001
 43
0.0000000001
 40
0.0
 40
0.0
 40
0.0
 40
0.0
 40
0.0338502314441154
 40
0.0678479138659024
 40
0.1020865531017252
 40
0.1640784153781397
 40
0.2260003656909461
 40
0.378035510120277
 40
0.5500772494549782
 40
0.7236078822719326
 40
0.797551794370031
 40
0.8730448105579649
 40
0.9373391586100717
 40
1.0
 40
1.0
 40
1.0
 40
1.0
 10
23.62956389377888
 20
623.5256168529509
 30
0.0
 10
23.6093395951536
 20
623.5080632506724
 30
0.0
 10
23.56880290123465
 20
623.4728795829512
 30
0.0
 10
23.50211908043109
 20
623.4221942940004
 30
0.0
 10
23.41183164438358
 20
623.3605756213169
 30
0.0
 10
23.2925695832492
 20
623.2923281029432
 30
0.0
 10
23.06512930055503
 20
623.1925673503424
 30
0.0
 10
22.70137408290142
 20
623.1098579581413
 30
0.0
 10
22.19912632016414
 20
623.149383102682
 30
0.0
 10
21.81371061419578
 20
623.2966698306348
 30
0.0
 10
21.55901123834918
 20
623.4464404694791
 30
0.0
 10
21.40758102821599
 20
623.5562968074199
 30
0.0
 10
21.28026865196664
 20
623.6661934108234
 30
0.0
 10
21.210526797486
 20
623.7361646637682
 30
0.0
 10
21.17838625333638
 20
623.7706326036724
 30
0.0
  0
SPLINE
  5
C6
330
7E
100
AcDbEntity
  8
DV1_Default
  6
Continuous
 62
     7
100
AcDbSpline
210
0.0
220
0.0
230
1.0
 70
     8
 71
     3
 72
    14
 73
    10
 74
     0
 42
0.000000001
 43
0.0000000001
 40
0.0
 40
0.0
 40
0.0
 40
0.0
 40
0.1417704601219163
 40
0.2776473345192865
 40
0.4088120510949522
 40
0.5365955178411727
 40
0.6974261246913399
 40
0.8502577342572447
 40
1.0
 40
1.0
 40
1.0
 40
1.0
 10
40.07043610633188
 20
623.5256168528514
 30
0.0
 10
40.04384436569732
 20
623.5503360670817
 30
0.0
 10
39.99176633829278
 20
623.5987468850802
 30
0.0
 10
39.92570537128325
 20
623.6701337816648
 30
0.0
 10
39.87004314057209
 20
623.736896265237
 30
0.0
 10
39.82039609884431
 20
623.8038922503821
 30
0.0
 10
39.78017067241946
 20
623.8668530125251
 30
0.0
 10
39.75298391775692
 20
623.9208407239656
 30
0.0
 10
39.74969013594792
 20
623.9416220546162
 30
0.0
 10
39.74806006015088
 20
623.9519066290316
 30
0.0
  0
SPLINE
  5
C7
330
7E
100
AcDbEntity
  8
DV1_Default
  6
Continuous
 62
     7
100
AcDbSpline
210
0.0
220
0.0
230
1.0
 70
     8
 71
     3
 72
    10
 73
     6
 74
     0
 42
0.000000001
 43
0.0000000001
 40
0.0
 40
0.0
 40
0.0
 40
0.0
 40
0.0118134252029965
 40
0.5059067126016714
 40
1.0
 40
1.0
 40
1.0
 40
1.0
 10
23.74408786587939
 20
623.6380816150188
 30
0.0
 10
23.7436373090882
 20
623.637596850446
 30
0.0
 10
23.72434114393228
 20
623.6168596239227
 30
0.0
 10
23.68611374445788
 20
623.5777963718227
 30
0.0
 10
23.64824871451888
 20
623.5423913747537
 30
0.0
 10
23.62956389377888
 20
623.5256168529509
 30
0.0
  0
SPLINE
  5
C8
330
7E
100
AcDbEntity
  8
DV1_Default
  6
Continuous
 62
     7
100
AcDbSpline
210
0.0
220
0.0
230
1.0
 70
     8
 71
     3
 72
    14
 73
    10
 74
     0
 42
0.000000001
 43
0.0000000001
 40
0.0
 40
0.0
 40
0.0
 40
0.0
 40
0.140042210836317
 40
0.2743682978798206
 40
0.4041133945679774
 40
0.5305538548156795
 40
0.6936047103534965
 40
0.8483926398718147
 40
1.0
 40
1.0
 40
1.0
 40
1.0
 10
23.76687624688287
 20
623.3750715097666
 30
0.0
 10
23.80193043621846
 20
623.3898625112275
 30
0.0
 10
23.87060800281816
 20
623.4188407876389
 30
0.0
 10
23.96450405930743
 20
623.4582341125998
 30
0.0
 10
24.04956932872933
 20
623.4917296076653
 30
0.0
 10
24.13403556220692
 20
623.5210590252225
 30
0.0
 10
24.21442603847126
 20
623.5415159789023
 30
0.0
 10
24.28720212772138
 20
623.5472849050805
 30
0.0
 10
24.32151845984065
 20
623.5344471116122
 30
0.0
 10
24.33849851370488
 20
623.5280948469285
 30
0.0
  0
SPLINE
  5
C9
330
7E
100
AcDbEntity
  8
DV1_Default
  6
Continuous
 62
     7
100
AcDbSpline
210
0.0
220
0.0
230
1.0
 70
     8
 71
     3
 72
    14
 73
    10
 74
     0
 42
0.000000001
 43
0.0000000001
 40
0.0
 40
0.0
 40
0.0
 40
0.0
 40
0.1400741555377912
 40
0.274428963683736
 40
0.4042004025370756
 40
0.5306658193100792
 40
0.6936755018137909
 40
0.8484271862931424
 40
1.0
 40
1.0
 40
1.0
 40
1.0
 10
24.69542107148988
 20
622.955986391141
 30
0.0
 10
24.73583154635296
 20
622.9728564915451
 30
0.0
 10
24.81500250188043
 20
623.0059078717472
 30
0.0
 10
24.92817235691692
 20
623.0510040463605
 30
0.0
 10
25.03468214148246
 20
623.0897727311764
 30
0.0
 10
25.1453483649552
 20
623.1244634502898
 30
0.0
 10
25.25730026276833
 20
623.1501992404025
 30
0.0
 10
25.36782926710189
 20
623.1610009088815
 30
0.0
 10
25.42971395017629
 20
623.1508108639791
 30
0.0
 10
25.46033518874688
 20
623.1457687149286
 30
0.0
  0
ARC
  5
CA
330
7E
100
AcDbEntity
  8
DV1_Default
  6
Continuous
 62
     7
100
AcDbCircle
 10
29.444216876
 20
620.9212883801
 30
0.0
 40
1.726611480482952
100
AcDbArc
 50
91.156594005
 51
123.3867363661
  0
ARC
  5
CB
330
7E
100
AcDbEntity
  8
DV1_Default
  6
Continuous
 62
     7
100
AcDbCircle
 10
31.9253222804
 20
621.116678374
 30
0.0
 40
1.465681227773843
100
AcDbArc
 50
92.9457637534
 51
129.5340242241
  0
ARC
  5
CC
330
7E
100
AcDbEntity
  8
DV1_Default
  6
Continuous
 62
     7
100
AcDbCircle
 10
34.3787581797
 20
621.6110215479
 30
0.0
 40
1.040265828641133
100
AcDbArc
 50
94.859486044
 51
140.6274899766
  0
ARC
  5
CD
330
7E
100
AcDbEntity
  8
DV1_Default
  6
Continuous
 62
     7
100
AcDbCircle
 10
36.5765957492
 20
622.2236193927
 30
0.0
 40
0.6244408446830192
100
AcDbArc
 50
97.7524164678
 51
160.4900377626
  0
SPLINE
  5
CE
330
7E
100
AcDbEntity
  8
DV1_Default
  6
Continuous
 62
     7
100
AcDbSpline
210
0.0
220
0.0
230
1.0
 70
     8
 71
     3
 72
    14
 73
    10
 74
     0
 42
0.000000001
 43
0.0000000001
 40
0.0
 40
0.0
 40
0.0
 40
0.0
 40
0.1400386668799515
 40
0.2743615300921296
 40
0.4041036287077802
 40
0.5305412068153215
 40
0.6935967462356915
 40
0.8483887712602992
 40
1.0
 40
1.0
 40
1.0
 40
1.0
 10
37.99636609388788
 20
622.7150172603839
 30
0.0
 10
37.99425240781769
 20
622.7410338377568
 30
0.0
 10
37.99011130766817
 20
622.7920051025854
 30
0.0
 10
37.9973496132722
 20
622.8658638795937
 30
0.0
 10
38.0143382537991
 20
622.9341387462968
 30
0.0
 10
38.04410580121655
 20
623.0024001858797
 30
0.0
 10
38.08982811349108
 20
623.065838658331
 30
0.0
 10
38.15529504909347
 20
623.1187231088213
 30
0.0
 10
38.21173686618512
 20
623.1368161212223
 30
0.0
 10
38.23966481125888
 20
623.1457687149301
 30
0.0
  0
SPLINE
  5
CF
330
7E
100
AcDbEntity
  8
DV1_Default
  6
Continuous
 62
     7
100
AcDbSpline
210
0.0
220
0.0
230
1.0
 70
     8
 71
     3
 72
    14
 73
    10
 74
     0
 42
0.000000001
 43
0.0000000001
 40
0.0
 40
0.0
 40
0.0
 40
0.0
 40
0.1399947964579116
 40
0.2742781836764332
 40
0.4039840408220359
 40
0.5303872489943652
 40
0.6934994177236947
 40
0.8483412819719908
 40
1.0
 40
1.0
 40
1.0
 40
1.0
 10
39.40307489831888
 20
623.0917953071322
 30
0.0
 10
39.3881544597188
 20
623.11733521994
 30
0.0
 10
39.35892229607838
 20
623.1673730861567
 30
0.0
 10
39.32832128520047
 20
623.2405680108988
 30
0.0
 10
39.30817065694799
 20
623.3087391936764
 30
0.0
 10
39.29752275317176
 20
623.3775304441749
 30
0.0
 10
39.30002218107028
 20
623.4423153377509
 30
0.0
 10
39.3197854709091
 20
623.4975704568053
 30
0.0
 10
39.34769275773856
 20
623.5179907414981
 30
0.0
 10
39.36150148629888
 20
623.5280948469301
 30
0.0
  0
SPLINE
  5
D0
330
7E
100
AcDbEntity
  8
DV1_Default
  6
Continuous
 62
     7
100
AcDbSpline
210
0.0
220
0.0
230
1.0
 70
     8
 71
     3
 72
    11
 73
     7
 74
     0
 42
0.000000001
 43
0.0000000001
 40
0.0
 40
0.0
 40
0.0
 40
0.0
 40
0.3386991151390309
 40
0.6635734980095485
 40
0.9773685257987031
 40
1.0
 40
1.0
 40
1.0
 40
1.0
 10
39.93312375311688
 20
623.9740164220269
 30
0.0
 10
39.89806956378063
 20
623.9967451118683
 30
0.0
 10
39.82939199717995
 20
624.0412747712307
 30
0.0
 10
39.73549594068994
 20
624.10746800034
 30
0.0
 10
39.67593489771405
 20
624.15105634951
 30
0.0
 10
39.64686934765762
 20
624.1726167926246
 30
0.0
 10
39.64491973815412
 20
624.1740642482682
 30
0.0
  0
SPLINE
  5
D1
330
7E
100
AcDbEntity
  8
DV1_Default
  6
Continuous
 62
     7
100
AcDbSpline
210
0.0
220
0.0
230
1.0
 70
     8
 71
     3
 72
    10
 73
     6
 74
     0
 42
0.000000001
 43
0.0000000001
 40
0.0
 40
0.0
 40
0.0
 40
0.0
 40
0.3770588281989984
 40
0.7387220224448249
 40
1.0
 40
1.0
 40
1.0
 40
1.0
 10
39.00457892850988
 20
624.3931015406505
 30
0.0
 10
38.96416845364752
 20
624.4137597316028
 30
0.0
 10
38.88499749812092
 20
624.4542326219295
 30
0.0
 10
38.78098562505738
 20
624.509847811992
 30
0.0
 10
38.7176717174513
 20
624.5437248241352
 30
0.0
 10
38.69142169296028
 20
624.557694795597
 30
0.0
  0
SPLINE
  5
D2
330
7E
100
AcDbEntity
  8
DV1_Default
  6
Continuous
 62
     7
100
AcDbSpline
210
0.0
220
0.0
230
1.0
 70
     8
 71
     3
 72
    13
 73
     9
 74
     0
 42
0.000000001
 43
0.0000000001
 40
0.0
 40
0.0
 40
0.0
 40
0.0
 40
0.1680036153090164
 40
0.3291458070041747
 40
0.4847895725515835
 40
0.6364675688385086
 40
0.8319108367889346
 40
0.9999999999999999
 40
0.9999999999999999
 40
0.9999999999999999
 40
0.9999999999999999
 10
37.37569406949289
 20
624.7418492373752
 30
0.0
 10
37.33388384475841
 20
624.7602494139954
 30
0.0
 10
37.25197096368191
 20
624.7962982869416
 30
0.0
 10
37.13060407299593
 20
624.8503688704639
 30
0.0
 10
37.0130719046206
 20
624.9012095651982
 30
0.0
 10
36.88703278226473
 20
624.9527510026004
 30
0.0
 10
36.75881831730774
 20
624.9995006791879
 30
0.0
 10
36.66993972567943
 20
625.0258815939
 30
0.0
 10
36.63007697052854
 20
625.0354928319647
 30
0.0
  0
ARC
  5
D3
330
7E
100
AcDbEntity
  8
DV1_Default
  6
Continuous
 62
     7
100
AcDbCircle
 10
33.977841753
 20
622.5108654929
 30
0.0
 40
2.76316103139358
100
AcDbArc
 50
63.6121432665
 51
83.5001185563
  0
ARC
  5
D4
330
7E
100
AcDbEntity
  8
DV1_Default
  6
Continuous
 62
     7
100
AcDbCircle
 10
31.7737230786
 20
623.2559577141
 30
0.0
 40
2.068839272865548
100
AcDbArc
 50
64.7233115398
 51
87.8870584694
  0
ARC
  5
D5
330
7E
100
AcDbEntity
  8
DV1_Default
  6
Continuous
 62
     7
100
AcDbCircle
 10
31.9228402615
 20
623.2692713454
 30
0.0
 40
2.055410093572246
100
AcDbArc
 50
92.0308908766
 51
115.2871196547
  0
ARC
  5
D6
330
7E
100
AcDbEntity
  8
DV1_Default
  6
Continuous
 62
     7
100
AcDbCircle
 10
29.7125890152
 20
622.5432872816
 30
0.0
 40
2.729870640463046
100
AcDbArc
 50
96.3773604294
 51
116.510377746
  0
SPLINE
  5
D7
330
7E
100
AcDbEntity
  8
DV1_Default
  6
Continuous
 62
     7
100
AcDbSpline
210
0.0
220
0.0
230
1.0
 70
     8
 71
     3
 72
    15
 73
    11
 74
     0
 42
0.000000001
 43
0.0000000001
 40
0.0
 40
0.0
 40
0.0
 40
0.0
 40
0.0218223227396034
 40
0.1615619909196601
 40
0.3013016590997167
 40
0.4410413272797734
 40
0.5807809954598301
 40
0.7205206636398866
 40
0.8602603318199433
 40
1.0
 40
1.0
 40
1.0
 40
1.0
 10
27.08124025191751
 20
625.0380749003865
 30
0.0
 10
27.0736346067401
 20
625.036260661699
 30
0.0
 10
27.01763736373445
 20
625.0224120537645
 30
0.0
 10
26.91787929893688
 20
624.9915376225307
 30
0.0
 10
26.79190344422888
 20
624.9443576056389
 30
0.0
 10
26.67824257535987
 20
624.8974061095814
 30
0.0
 10
26.57601625621488
 20
624.8530585672191
 30
0.0
 10
26.48381714525288
 20
624.8122392592074
 30
0.0
 10
26.40038872595388
 20
624.7752099584292
 30
0.0
 10
26.34891302475988
 20
624.7525762270801
 30
0.0
 10
26.32430593069988
 20
624.7418492374594
 30
0.0
  0
SPLINE
  5
D8
330
7E
100
AcDbEntity
  8
DV1_Default
  6
Continuous
 62
     7
100
AcDbSpline
210
0.0
220
0.0
230
1.0
 70
     8
 71
     3
 72
    11
 73
     7
 74
     0
 42
0.000000001
 43
0.0000000001
 40
0.0
 40
0.0
 40
0.0
 40
0.0
 40
0.1986229673245648
 40
0.4657486448830431
 40
0.7328743224415215
 40
0.9999999999999999
 40
0.9999999999999999
 40
0.9999999999999999
 40
0.9999999999999999
 10
25.00355818426393
 20
624.5549719110542
 30
0.0
 10
24.98010294902973
 20
624.5424688773945
 30
0.0
 10
24.92669313963957
 20
624.5138746579925
 30
0.0
 10
24.84831250965888
 20
624.472081544263
 30
0.0
 10
24.76905889561288
 20
624.4305420447515
 30
0.0
 10
24.71935667190288
 20
624.4051479006582
 30
0.0
 10
24.69542107163788
 20
624.3931015407247
 30
0.0
  0
SPLINE
  5
D9
330
7E
100
AcDbEntity
  8
DV1_Default
  6
Continuous
 62
     7
100
AcDbSpline
210
0.0
220
0.0
230
1.0
 70
     8
 71
     3
 72
    11
 73
     7
 74
     0
 42
0.000000001
 43
0.0000000001
 40
0.0
 40
0.0
 40
0.0
 40
0.0
 40
0.0756209656098781
 40
0.3837473104065854
 40
0.6918736552032927
 40
1.0
 40
1.0
 40
1.0
 40
1.0
 10
23.98750113275062
 20
624.1244450146861
 30
0.0
 10
23.98149645111834
 20
624.1200940075574
 30
0.0
 10
23.95119196897562
 20
624.0982224986828
 30
0.0
 10
23.89816387760787
 20
624.0607974811159
 30
0.0
 10
23.83092808450688
 20
624.0152352519783
 30
0.0
 10
23.78782618992688
 20
623.9872942002934
 30
0.0
 10
23.76687624701088
 20
623.9740164221075
 30
0.0
  0
SPLINE
  5
DA
330
7E
100
AcDbEntity
  8
DV1_Default
  6
Continuous
 62
     7
100
AcDbSpline
210
0.0
220
0.0
230
1.0
 70
     8
 71
     3
 72
    14
 73
    10
 74
     0
 42
0.000000001
 43
0.0000000001
 40
0.0
 40
0.0
 40
0.0
 40
0.0
 40
0.1417704601143636
 40
0.2776473345091385
 40
0.4088120510870976
 40
0.5365955178402735
 40
0.6974261246859038
 40
0.8502577342519679
 40
1.0
 40
1.0
 40
1.0
 40
1.0
 10
23.62956389366787
 20
623.8234710789461
 30
0.0
 10
23.65615563430119
 20
623.8367369518305
 30
0.0
 10
23.70823366170415
 20
623.8627172177008
 30
0.0
 10
23.77429462871233
 20
623.898082254563
 30
0.0
 10
23.82995685942442
 20
623.9278935325573
 30
0.0
 10
23.87960390115435
 20
623.9532476398974
 30
0.0
 10
23.91982932758119
 20
623.9698315888764
 30
0.0
 10
23.9470160822431
 20
623.9724506312791
 30
0.0
 10
23.95030986405191
 20
623.9587078575639
 30
0.0
 10
23.95193993984888
 20
623.9519066290325
 30
0.0
  0
SPLINE
  5
DB
330
7E
100
AcDbEntity
  8
DV1_Default
  6
Continuous
 62
     7
100
AcDbSpline
210
0.0
220
0.0
230
1.0
 70
     8
 71
     3
 72
    21
 73
    17
 74
     0
 42
0.000000001
 43
0.0000000001
 40
0.0
 40
0.0
 40
0.0
 40
0.0
 40
0.0372582060127058
 40
0.0760536351560248
 40
0.1165664348878176
 40
0.1849202148032424
 40
0.255977410199528
 40
0.3415117351821732
 40
0.426237432553137
 40
0.5166306366257116
 40
0.6029759339686511
 40
0.7457644532635612
 40
0.8833494765539857
 40
0.9413385212045695
 40
0.9993965289481125
 40
1.0
 40
1.0
 40
1.0
 40
1.0
 10
21.67370148624988
 20
624.7186998058709
 30
0.0
 10
21.6953299819959
 20
624.7111436736127
 30
0.0
 10
21.73947933594046
 20
624.695719653314
 30
0.0
 10
21.81358797832543
 20
624.6646128902446
 30
0.0
 10
21.91293495789244
 20
624.6200993072443
 30
0.0
 10
22.04330956427261
 20
624.5588762325035
 30
0.0
 10
22.21931123057266
 20
624.4767714622566
 30
0.0
 10
22.42246014098919
 20
624.3873036228564
 30
0.0
 10
22.65616785053204
 20
624.2948216635483
 30
0.0
 10
22.90189484512171
 20
624.2126632823151
 30
0.0
 10
23.20798004231541
 20
624.1324101614098
 30
0.0
 10
23.55574463790237
 20
624.081270022886
 30
0.0
 10
23.83427712909413
 20
624.0917148403166
 30
0.0
 10
24.00827204912417
 20
624.1255527698631
 30
0.0
 10
24.07829923753015
 20
624.1470396823277
 30
0.0
 10
24.11115379072661
 20
624.1590357396655
 30
0.0
 10
24.11149152613941
 20
624.159159272912
 30
0.0
  0
SPLINE
  5
DC
330
7E
100
AcDbEntity
  8
DV1_Default
  6
Continuous
 62
     7
100
AcDbSpline
210
0.0
220
0.0
230
1.0
 70
     8
 71
     3
 72
    10
 73
     6
 74
     0
 42
0.000000001
 43
0.0000000001
 40
0.0
 40
0.0
 40
0.0
 40
0.0
 40
0.0601230347910365
 40
0.818683426424095
 40
1.0
 40
1.0
 40
1.0
 40
1.0
 10
24.26065810745052
 20
624.2099471152345
 30
0.0
 10
24.25760933681182
 20
624.2089522807607
 30
0.0
 10
24.21608042215385
 20
624.1954925540913
 30
0.0
 10
24.16512750490122
 20
624.1805092488792
 30
0.0
 10
24.11701044128738
 20
624.1682046884047
 30
0.0
 10
24.10772195146097
 20
624.1658984859752
 30
0.0
  0
SPLINE
  5
DD
330
7E
100
AcDbEntity
  8
DV1_Default
  6
Continuous
 62
     7
100
AcDbSpline
210
0.0
220
0.0
230
1.0
 70
     8
 71
     3
 72
    17
 73
    13
 74
     0
 42
0.000000001
 43
0.0000000001
 40
0.0
 40
0.0
 40
0.0
 40
0.0
 40
0.0557814297526301
 40
0.1138643257605162
 40
0.1745183972727512
 40
0.2768548213674146
 40
0.3832386862385585
 40
0.5112971047906466
 40
0.6381448798553858
 40
0.7734778092399752
 40
0.9027503817128819
 40
1.0
 40
1.0
 40
1.0
 40
1.0
 10
23.33733486950188
 20
625.2327055395087
 30
0.0
 10
23.36629189057884
 20
625.2237581452109
 30
0.0
 10
23.42540066021007
 20
625.2054941992425
 30
0.0
 10
23.51945601345391
 20
625.1697623933087
 30
0.0
 10
23.641222536918
 20
625.119167488176
 30
0.0
 10
23.79398836906305
 20
625.0501571539772
 30
0.0
 10
23.99029728484185
 20
624.957812662713
 30
0.0
 10
24.20612208895408
 20
624.8568217182558
 30
0.0
 10
24.44215146215199
 20
624.7514205003583
 30
0.0
 10
24.67827125379441
 20
624.6560098053225
 30
0.0
 10
24.8889522309023
 20
624.5831431164605
 30
0.0
 10
25.01354611967022
 20
624.5489159317365
 30
0.0
 10
25.06499994114247
 20
624.536591139586
 30
0.0
  0
SPLINE
  5
DE
330
7E
100
AcDbEntity
  8
DV1_Default
  6
Continuous
 62
     7
100
AcDbSpline
210
0.0
220
0.0
230
1.0
 70
     8
 71
     3
 72
    14
 73
    10
 74
     0
 42
0.000000001
 43
0.0000000001
 40
0.0
 40
0.0
 40
0.0
 40
0.0
 40
0.1424995995726631
 40
0.3362050507134852
 40
0.534099315695501
 40
0.7031086506279359
 40
0.8455310691642016
 40
0.9254452871985359
 40
0.9999999999999999
 40
0.9999999999999999
 40
0.9999999999999999
 40
0.9999999999999999
 10
25.69087479429091
 20
624.5331068635317
 30
0.0
 10
25.58378857628302
 20
624.5144774716198
 30
0.0
 10
25.34176873261738
 20
624.4982295588161
 30
0.0
 10
25.04147852911062
 20
624.5987930579646
 30
0.0
 10
24.87897423740468
 20
624.8274605298205
 30
0.0
 10
24.86018582632962
 20
625.0877465409343
 30
0.0
 10
24.92534678651236
 20
625.2953101019428
 30
0.0
 10
25.0160846786944
 20
625.4443604896512
 30
0.0
 10
25.08488768338356
 20
625.5101688607203
 30
0.0
 10
25.11809557979788
 20
625.5419313917249
 30
0.0
  0
SPLINE
  5
DF
330
7E
100
AcDbEntity
  8
DV1_Default
  6
Continuous
 62
     7
100
AcDbSpline
210
0.0
220
0.0
230
1.0
 70
     8
 71
     3
 72
    18
 73
    14
 74
     0
 42
0.000000001
 43
0.0000000001
 40
0.0
 40
0.0
 40
0.0
 40
0.0
 40
0.0454791048120602
 40
0.0928346158888937
 40
0.1422864296239558
 40
0.2257222428813437
 40
0.3124579712553354
 40
0.4168651594941538
 40
0.5202852991796575
 40
0.6306234619959544
 40
0.7360205609433047
 40
0.9103148903587223
 40
0.9999999999999999
 40
0.9999999999999999
 40
0.9999999999999999
 40
0.9999999999999999
 10
25.83424722695788
 20
625.6322830787054
 30
0.0
 10
25.86769825839252
 20
625.6216192651628
 30
0.0
 10
25.93598046551095
 20
625.5998516635749
 30
0.0
 10
26.04077573631559
 20
625.5586508352377
 30
0.0
 10
26.17304244796145
 20
625.5010692109951
 30
0.0
 10
26.33324572182517
 20
625.4234512344432
 30
0.0
 10
26.5306458026314
 20
625.3202784979582
 30
0.0
 10
26.73802006486535
 20
625.2076482378776
 30
0.0
 10
26.95326690213653
 20
625.0898354938965
 30
0.0
 10
27.15666644049734
 20
624.9823366242522
 30
0.0
 10
27.38036936257449
 20
624.8721919500638
 30
0.0
 10
27.55312065220222
 20
624.8040543051634
 30
0.0
 10
27.63703247086818
 20
624.7871794512805
 30
0.0
 10
27.66088159059604
 20
624.7849263270255
 30
0.0
  0
SPLINE
  5
E0
330
7E
100
AcDbEntity
  8
DV1_Default
  6
Continuous
 62
     7
100
AcDbSpline
210
0.0
220
0.0
230
1.0
 70
     8
 71
     3
 72
    19
 73
    15
 74
     0
 42
0.000000001
 43
0.0000000001
 40
0.0
 40
0.0
 40
0.0
 40
0.0
 40
0.0413657317959439
 40
0.1048672595913108
 40
0.2601373705406082
 40
0.4219541438619963
 40
0.5035103702070801
 40
0.5888882560639939
 40
0.6613951520712931
 40
0.735152624763383
 40
0.7989163197004511
 40
0.8610466789277001
 40
0.9329855716897969
 40
1.0
 40
1.0
 40
1.0
 40
1.0
 10
28.19038984990598
 20
624.8703583682567
 30
0.0
 10
28.15908287201459
 20
624.8600850285515
 30
0.0
 10
28.08131804864131
 20
624.8363450517737
 30
0.0
 10
27.90029750013286
 20
624.7940488517074
 30
0.0
 10
27.67675853731356
 20
624.7927107446744
 30
0.0
 10
27.54926271614118
 20
624.8988452943685
 30
0.0
 10
27.51798678185301
 20
625.0364761924781
 30
0.0
 10
27.53064038043913
 20
625.1555774206412
 30
0.0
 10
27.57276667990969
 20
625.282155705799
 30
0.0
 10
27.63525089358221
 20
625.4022646940404
 30
0.0
 10
27.71464779755635
 20
625.5178179948998
 30
0.0
 10
27.81212715536542
 20
625.6297038801766
 30
0.0
 10
27.92955169124421
 20
625.7387573538717
 30
0.0
 10
28.02979248285685
 20
625.8008650082058
 30
0.0
 10
28.07813662671388
 20
625.8308182969567
 30
0.0
  0
SPLINE
  5
E1
330
7E
100
AcDbEntity
  8
DV1_Default
  6
Continuous
 62
     7
100
AcDbSpline
210
0.0
220
0.0
230
1.0
 70
     8
 71
     3
 72
    18
 73
    14
 74
     0
 42
0.000000001
 43
0.0000000001
 40
0.0
 40
0.0
 40
0.0
 40
0.0
 40
0.0421783303388411
 40
0.0860968814596088
 40
0.1319595901537894
 40
0.2093398136529621
 40
0.2897804515596518
 40
0.3866099932816182
 40
0.4825241242202678
 40
0.5848541832541133
 40
0.682601790088616
 40
0.8442462162930074
 40
1.0
 40
1.0
 40
1.0
 40
1.0
 10
28.92002338005188
 20
625.8783189899045
 30
0.0
 10
28.95469400181155
 20
625.8657816149928
 30
0.0
 10
29.02546570822447
 20
625.8401895900587
 30
0.0
 10
29.13074280533193
 20
625.7932111057937
 30
0.0
 10
29.26056251789782
 20
625.7284212742127
 30
0.0
 10
29.41252142085181
 20
625.6422178484294
 30
0.0
 10
29.59168977143479
 20
625.5286882865452
 30
0.0
 10
29.77031425411084
 20
625.4054418375873
 30
0.0
 10
29.94370869532342
 20
625.2769402266882
 30
0.0
 10
30.09447781638466
 20
625.1597005964073
 30
0.0
 10
30.24145996275836
 20
625.0393609079803
 30
0.0
 10
30.34677632065238
 20
624.9481329977377
 30
0.0
 10
30.35425235748592
 20
624.9357057881368
 30
0.0
 10
30.34201473469546
 20
624.9421148287032
 30
0.0
  0
SPLINE
  5
E2
330
7E
100
AcDbEntity
  8
DV1_Default
  6
Continuous
 62
     7
100
AcDbSpline
210
0.0
220
0.0
230
1.0
 70
     8
 71
     3
 72
     8
 73
     4
 74
     0
 42
0.000000001
 43
0.0000000001
 40
0.0
 40
0.0
 40
0.0
 40
0.0
 40
1.0
 40
1.0
 40
1.0
 40
1.0
 10
30.55976059122221
 20
624.9460223631108
 30
0.0
 10
30.5538998962001
 20
624.9454677359435
 30
0.0
 10
30.54825120249511
 20
624.9451097661434
 30
0.0
 10
30.54282244155341
 20
624.9449549881341
 30
0.0
  0
SPLINE
  5
E3
330
7E
100
AcDbEntity
  8
DV1_Default
  6
Continuous
 62
     7
100
AcDbSpline
210
0.0
220
0.0
230
1.0
 70
     8
 71
     3
 72
    16
 73
    12
 74
     0
 42
0.000000001
 43
0.0000000001
 40
0.0
 40
0.0
 40
0.0
 40
0.0
 40
0.0582563998701767
 40
0.1188041045150891
 40
0.181930159671678
 40
0.2478860656245108
 40
0.4050717021020308
 40
0.5638389538279622
 40
0.7266549648802583
 40
0.880552678042647
 40
1.0
 40
1.0
 40
1.0
 40
1.0
 10
32.29260605904908
 20
625.9467295638863
 30
0.0
 10
32.32539566207811
 20
625.9322139992165
 30
0.0
 10
32.39226452857119
 20
625.90261195264
 30
0.0
 10
32.48835208705059
 20
625.8496895180432
 30
0.0
 10
32.58330821717838
 20
625.7903481665174
 30
0.0
 10
32.71776143170717
 20
625.6953146308059
 30
0.0
 10
32.87856878759702
 20
625.5612441682719
 30
0.0
 10
33.04204440552438
 20
625.3922192775667
 30
0.0
 10
33.16446471450628
 20
625.2360368744693
 30
0.0
 10
33.23323689643175
 20
625.1134039149522
 30
0.0
 10
33.2495212784394
 20
625.0535042052745
 30
0.0
 10
33.25138344580849
 20
625.031214055648
 30
0.0
  0
SPLINE
  5
E4
330
7E
100
AcDbEntity
  8
DV1_Default
  6
Continuous
 62
     7
100
AcDbSpline
210
0.0
220
0.0
230
1.0
 70
     8
 71
     3
 72
     8
 73
     4
 74
     0
 42
0.000000001
 43
0.0000000001
 40
0.0
 40
0.0
 40
0.0
 40
0.0
 40
1.0
 40
1.0
 40
1.0
 40
1.0
 10
33.15720919824106
 20
624.9449568732293
 30
0.0
 10
33.14962398048446
 20
624.9451787705245
 30
0.0
 10
33.14161062607253
 20
624.9457948568464
 30
0.0
 10
33.13319295122544
 20
624.946787010959
 30
0.0
  0
SPLINE
  5
E5
330
7E
100
AcDbEntity
  8
DV1_Default
  6
Continuous
 62
     7
100
AcDbSpline
210
0.0
220
0.0
230
1.0
 70
     8
 71
     3
 72
    20
 73
    16
 74
     0
 42
0.000000001
 43
0.0000000001
 40
0.0
 40
0.0
 40
0.0
 40
0.0
 40
0.0380153852401247
 40
0.0775967515987328
 40
0.1189320638980578
 40
0.1886307029313053
 40
0.260918664086029
 40
0.3461849199331606
 40
0.4302152863076955
 40
0.5195839201374913
 40
0.6049754987538417
 40
0.7498390981199118
 40
0.8893159057631285
 40
0.94795399839588
 40
1.0
 40
1.0
 40
1.0
 40
1.0
 10
35.62186337317788
 20
625.8308182970197
 30
0.0
 10
35.64934016120647
 20
625.8145846556945
 30
0.0
 10
35.70542559824685
 20
625.781448654951
 30
0.0
 10
35.7825477883964
 20
625.723418298962
 30
0.0
 10
35.87164029992745
 20
625.6452313247281
 30
0.0
 10
35.9653150738074
 20
625.543940915257
 30
0.0
 10
36.0582292121188
 20
625.4145815042748
 30
0.0
 10
36.13006830393122
 20
625.278173399147
 30
0.0
 10
36.17341196950742
 20
625.1397267197954
 30
0.0
 10
36.18104039424619
 20
625.015773468818
 30
0.0
 10
36.14169397181723
 20
624.889761203754
 30
0.0
 10
36.02050050623332
 20
624.7982155114424
 30
0.0
 10
35.82863867613312
 20
624.7928322266018
 30
0.0
 10
35.66280383494771
 20
624.8249875889537
 30
0.0
 10
35.58377260642558
 20
624.847033633299
 30
0.0
 10
35.54565062354492
 20
624.8588399184256
 30
0.0
  0
SPLINE
  5
E6
330
7E
100
AcDbEntity
  8
DV1_Default
  6
Continuous
 62
     7
100
AcDbSpline
210
0.0
220
0.0
230
1.0
 70
     8
 71
     3
 72
     8
 73
     4
 74
     0
 42
0.000000001
 43
0.0000000001
 40
0.0
 40
0.0
 40
0.0
 40
0.0
 40
0.9999999999999999
 40
0.9999999999999999
 40
0.9999999999999999
 40
0.9999999999999999
 10
38.1876140037831
 20
624.5020959074313
 30
0.0
 10
38.24590403963579
 20
624.4911548560319
 30
0.0
 10
38.31730720885977
 20
624.4886375971126
 30
0.0
 10
38.39985506833617
 20
624.496025603055
 30
0.0
  0
SPLINE
  5
E7
330
7E
100
AcDbEntity
  8
DV1_Default
  6
Continuous
 62
     7
100
AcDbSpline
210
0.0
220
0.0
230
1.0
 70
     8
 71
     3
 72
    10
 73
     6
 74
     0
 42
0.000000001
 43
0.0000000001
 40
0.0
 40
0.0
 40
0.0
 40
0.0
 40
0.1710364759577781
 40
0.5062110144326774
 40
1.0
 40
1.0
 40
1.0
 40
1.0
 10
39.58115844325378
 20
624.1618997476845
 30
0.0
 10
39.59850457214446
 20
624.1553562743098
 30
0.0
 10
39.65205952606684
 20
624.1369722812055
 30
0.0
 10
39.77045380574321
 20
624.1073228995228
 30
0.0
 10
39.88587319071294
 20
624.0941473861335
 30
0.0
 10
39.95944601366357
 20
624.0909762644138
 30
0.0
  0
SPLINE
  5
E8
330
7E
100
AcDbEntity
  8
DV1_Default
  6
Continuous
 62
     7
100
AcDbSpline
210
0.0
220
0.0
230
1.0
 70
     8
 71
     3
 72
    22
 73
    18
 74
     0
 42
0.000000001
 43
0.0000000001
 40
0.0
 40
0.0
 40
0.0
 40
0.0
 40
0.0333754952443043
 40
0.0681511937842085
 40
0.1044946360278564
 40
0.1425513218401605
 40
0.2219175573149354
 40
0.3027882161756407
 40
0.3783774345559343
 40
0.4513927609944144
 40
0.5842621762673005
 40
0.6913468479223577
 40
0.7963617931208629
 40
0.8430139410280554
 40
0.8899770109443491
 40
0.945266706889697
 40
1.0
 40
1.0
 40
1.0
 40
1.0
 10
42.29984410187988
 20
624.5725077054409
 30
0.0
 10
42.29825623364289
 20
624.5538805133292
 30
0.0
 10
42.29501388127701
 20
624.5158446618777
 30
0.0
 10
42.27935903155019
 20
624.4519182102548
 30
0.0
 10
42.25502765486211
 20
624.3825664118297
 30
0.0
 10
42.2085864165896
 20
624.282412876824
 30
0.0
 10
42.12583358980015
 20
624.1520228145185
 30
0.0
 10
41.99093574932647
 20
624.0037890630296
 30
0.0
 10
41.82713992673174
 20
623.8740951097324
 30
0.0
 10
41.58973985630531
 20
623.7401268863476
 30
0.0
 10
41.27249271654858
 20
623.6425934635681
 30
0.0
 10
40.88694553335458
 20
623.6275583638538
 30
0.0
 10
40.59686514953479
 20
623.6790045895426
 30
0.0
 10
40.38545129689416
 20
623.7466472637581
 30
0.0
 10
40.23321832744283
 20
623.8086614999361
 30
0.0
 10
40.08021928694529
 20
623.8843762797718
 30
0.0
 10
39.98199001097588
 20
623.9442372833133
 30
0.0
 10
39.93312375311688
 20
623.9740164220269
 30
0.0
  0
ARC
  5
E9
330
7E
100
AcDbEntity
  8
DV1_Default
  6
Continuous
 62
     7
100
AcDbCircle
 10
22.6001539186
 20
626.3172142182
 30
0.0
 40
2.697858362003769
100
AcDbArc
 50
233.7845136541
 51
292.430693989
  0
SPLINE
  5
EA
330
7E
100
AcDbEntity
  8
DV1_Default
  6
Continuous
 62
     7
100
AcDbSpline
210
0.0
220
0.0
230
1.0
 70
     8
 71
     3
 72
    18
 73
    14
 74
     0
 42
0.000000001
 43
0.0000000001
 40
0.0
 40
0.0
 40
0.0
 40
0.0
 40
0.0470571210030007
 40
0.0939544863074517
 40
0.1408739400842637
 40
0.1880017679286224
 40
0.2355279679035323
 40
0.391538055871156
 40
0.5505904907913822
 40
0.7293763574469245
 40
0.8263779358509645
 40
0.9269384106584405
 40
1.0
 40
1.0
 40
1.0
 40
1.0
 10
23.76687624701088
 20
623.9740164221075
 30
0.0
 10
23.73512715458031
 20
623.9544078669669
 30
0.0
 10
23.67173675571042
 20
623.9152573263859
 30
0.0
 10
23.57094583979075
 20
623.8603622009549
 30
0.0
 10
23.46608436109168
 20
623.8093967385885
 30
0.0
 10
23.35656700833692
 20
623.7633153587909
 30
0.0
 10
23.15650336828652
 20
623.692264032635
 30
0.0
 10
22.84789315804126
 20
623.6266426243204
 30
0.0
 10
22.42525396854703
 20
623.6404223591663
 30
0.0
 10
22.09165637192458
 20
623.7475494575893
 30
0.0
 10
21.85385422930753
 20
623.8870526465395
 30
0.0
 10
21.70957832870059
 20
624.005412065401
 30
0.0
 10
21.6331905728413
 20
624.0879580856031
 30
0.0
 10
21.60400600773926
 20
624.1233869310294
 30
0.0
  0
ELLIPSE
  5
EB
330
7E
100
AcDbEntity
  8
DV1_Default
  6
Continuous
 62
     7
100
AcDbEllipse
 10
21.7807489782
 20
624.8076288271
 30
0.0
 11
0.04288588610970244
 21
0.1437386544114461
 31
0.0
210
0.0
220
0.0
230
1.0
 40
0.8094409627
 41
3.118858500075593
 42
3.271418848804192
  0
SPLINE
  5
EC
330
7E
100
AcDbEntity
  8
DV1_Default
  6
Continuous
 62
     7
100
AcDbSpline
210
0.0
220
0.0
230
1.0
 70
    12
 71
     3
 72
     9
 73
     5
 74
     0
 42
0.000000001
 43
0.0000000001
 40
0.0
 40
0.0
 40
0.0
 40
0.0
 40
0.7581297891539044
 40
1.0
 40
1.0
 40
1.0
 40
1.0
 10
25.4925511712597
 20
622.9166276716196
 30
0.0
 41
1.428316096417732
 10
25.49392900192492
 20
622.9031266095748
 30
0.0
 41
1.428316096417732
 10
25.49504364249704
 20
622.8851855136214
 30
0.0
 41
1.428316096417732
 10
25.49524463519021
 20
622.8671574190844
 30
0.0
 41
1.428316096417732
 10
25.49523995230366
 20
622.8627934246391
 30
0.0
 41
1.428316096417732
  0
ELLIPSE
  5
ED
330
7E
100
AcDbEntity
  8
DV1_Default
  6
Continuous
 62
     7
100
AcDbEllipse
 10
26.2708747693
 20
622.7219259424
 30
0.0
 11
-0.06029740997055659
 21
0.13734708715743
 31
0.0
210
0.0
220
0.0
230
1.0
 40
0.0350069354
 41
1.746063741576152
 42
3.709038653858932
  0
SPLINE
  5
EE
330
7E
100
AcDbEntity
  8
DV1_Default
  6
Continuous
 62
     7
100
AcDbSpline
210
0.0
220
0.0
230
1.0
 70
    12
 71
     3
 72
     9
 73
     5
 74
     0
 42
0.000000001
 43
0.0000000001
 40
0.0
 40
0.0
 40
0.0
 40
0.0
 40
0.2158113270887227
 40
1.0
 40
1.0
 40
1.0
 40
1.0
 10
27.57344079135934
 20
622.3594707091196
 30
0.0
 41
1.464061810668239
 10
27.57363201783544
 20
622.357099374346
 30
0.0
 41
1.464061810668239
 10
27.57442647168322
 20
622.3461509216679
 30
0.0
 41
1.464061810668239
 10
27.57479468045268
 20
622.3353921876267
 30
0.0
 41
1.464061810668239
 10
27.5748168860968
 20
622.3270863184271
 30
0.0
 41
1.464061810668239
  0
SPLINE
  5
EF
330
7E
100
AcDbEntity
  8
DV1_Default
  6
Continuous
 62
     7
100
AcDbSpline
210
0.0
220
0.0
230
1.0
 70
    12
 71
     3
 72
     8
 73
     4
 74
     0
 42
0.000000001
 43
0.0000000001
 40
0.0
 40
0.0
 40
0.0
 40
0.0
 40
1.0
 40
1.0
 40
1.0
 40
1.0
 10
38.20568802241388
 20
622.8317501289844
 30
0.0
 41
1.428315806393635
 10
38.2039698101609
 20
622.8610738138168
 30
0.0
 41
1.428315806393635
 10
38.20462612355897
 20
622.8904298368354
 30
0.0
 41
1.428315806393635
 10
38.20772837842604
 20
622.9193055795762
 30
0.0
 41
1.428315806393635
  0
ELLIPSE
  5
F0
330
7E
100
AcDbEntity
  8
DV1_Default
  6
Continuous
 62
     7
100
AcDbEllipse
 10
41.9192520856
 20
624.8076291445
 30
0.0
 11
-0.04288568584267723
 21
0.1437387141628166
 31
0.0
210
0.0
220
0.0
230
1.0
 40
0.8094418028
 41
2.953446867544685
 42
3.164139032845055
  0
ELLIPSE
  5
F1
330
7E
100
AcDbEntity
  8
DV1_Default
  6
Continuous
 62
     7
100
AcDbEllipse
 10
39.0737608831
 20
624.5250575092
 30
0.0
 11
0.06687280702187896
 21
0.1342684910200787
 31
0.0
210
0.0
220
0.0
230
1.0
 40
0.175675715
 41
3.023737559328522
 42
3.37379078631264
  0
ELLIPSE
  5
F2
330
7E
100
AcDbEntity
  8
DV1_Default
  6
Continuous
 62
     7
100
AcDbEllipse
 10
37.4291252307
 20
624.8771774551
 30
0.0
 11
0.05874393121499139
 21
0.1380186601340483
 31
0.0
210
0.0
220
0.0
230
1.0
 40
0.1045061636
 41
2.969882394623889
 42
3.388693591076395
  0
ELLIPSE
  5
F3
330
7E
100
AcDbEntity
  8
DV1_Default
  6
Continuous
 62
     7
100
AcDbEllipse
 10
34.7863462519
 20
625.8765465774
 30
0.0
 11
-0.500860153304473
 21
-8.032161741278188E-6
 31
0.0
210
0.0
220
0.0
230
1.0
 40
0.1736695825
 41
1.516918042290511
 42
3.13952731268555
  0
ELLIPSE
  5
F4
330
7E
100
AcDbEntity
  8
DV1_Default
  6
Continuous
 62
     7
100
AcDbEllipse
 10
35.2383659285
 20
625.1238118838
 30
0.0
 11
0.0552775212715015
 21
0.139443162764874
 31
0.0
210
0.0
220
0.0
230
1.0
 40
0.3812865078
 41
3.019701303715852
 42
3.161231322908914
  0
ELLIPSE
  5
F5
330
7E
100
AcDbEntity
  8
DV1_Default
  6
Continuous
 62
     7
100
AcDbEllipse
 10
31.85
 20
625.9573054059
 30
0.0
 11
-0.500852865262073
 21
0.0
 31
0.0
210
0.0
220
0.0
230
1.0
 40
0.1736746368
 41
0.7259115461174881
 42
2.415685404663023
  0
ELLIPSE
  5
F6
330
7E
100
AcDbEntity
  8
DV1_Default
  6
Continuous
 62
     7
100
AcDbEllipse
 10
31.85
 20
625.9395557705
 30
0.0
 11
1.100000000000001
 21
0.0
 31
0.0
210
0.0
220
0.0
230
1.0
 40
0.1736481777
 41
4.720902712455773
 42
5.266276193786574
  0
SPLINE
  5
F7
330
7E
100
AcDbEntity
  8
DV1_Default
  6
Continuous
 62
     7
100
AcDbSpline
210
0.0
220
0.0
230
1.0
 70
    12
 71
     3
 72
     8
 73
     4
 74
     0
 42
0.000000001
 43
0.0000000001
 40
0.0
 40
0.0
 40
0.0
 40
0.0
 40
1.0
 40
1.0
 40
1.0
 40
1.0
 10
30.60520210454748
 20
625.1324899351657
 30
0.0
 41
1.464061997747067
 10
30.6015318584126
 20
625.1405590591309
 30
0.0
 41
1.464061997747067
 10
30.59981753661933
 20
625.150287502236
 30
0.0
 41
1.464061997747067
 10
30.60002733932461
 20
625.1615383980853
 30
0.0
 41
1.464061997747067
  0
ELLIPSE
  5
F8
330
7E
100
AcDbEntity
  8
DV1_Default
  6
Continuous
 62
     7
100
AcDbEllipse
 10
28.9136537481
 20
625.8765465774
 30
0.0
 11
0.500860153304473
 21
-8.032161741278188E-6
 31
0.0
210
0.0
220
0.0
230
1.0
 40
0.1736695825
 41
3.733005144366189
 42
4.752117965965644
  0
ELLIPSE
  5
F9
330
7E
100
AcDbEntity
  8
DV1_Default
  6
Continuous
 62
     7
100
AcDbEllipse
 10
28.4616346972
 20
625.1238121318
 30
0.0
 11
-0.05527753434984937
 21
0.1394431575824084
 31
0.0
210
0.0
220
0.0
230
1.0
 40
0.3812861065
 41
3.100173643300724
 42
3.258745305732819
  0
ELLIPSE
  5
FA
330
7E
100
AcDbEntity
  8
DV1_Default
  6
Continuous
 62
     7
100
AcDbEllipse
 10
26.2708754759
 20
624.8771777558
 30
0.0
 11
-0.05874395129013
 21
0.138018651591465
 31
0.0
210
0.0
220
0.0
230
1.0
 40
0.1045057197
 41
2.894491700946768
 42
3.325139972287403
  0
ELLIPSE
  5
FB
330
7E
100
AcDbEntity
  8
DV1_Default
  6
Continuous
 62
     7
100
AcDbEllipse
 10
24.6262397504
 20
624.5250578247
 30
0.0
 11
-0.06687283287232834
 21
0.1342684781475145
 31
0.0
210
0.0
220
0.0
230
1.0
 40
0.1756761029
 41
2.899171848672422
 42
3.259447713953397
  0
SPLINE
  5
FC
330
7E
100
AcDbEntity
  8
DV1_Default
  6
Continuous
 62
     7
100
AcDbSpline
210
0.0
220
0.0
230
1.0
 70
     8
 71
     3
 72
    14
 73
    10
 74
     0
 42
0.000000001
 43
0.0000000001
 40
0.0
 40
0.0
 40
0.0
 40
0.0
 40
0.1100175612862352
 40
0.1980236774530792
 40
0.2858250846681359
 40
0.3802884547135209
 40
0.5737540400393382
 40
0.723775000340224
 40
1.0
 40
1.0
 40
1.0
 40
1.0
 10
24.58541740798688
 20
624.550121415789
 30
0.0
 10
24.50628996709122
 20
624.5088711320923
 30
0.0
 10
24.36386627899589
 20
624.4346235958072
 30
0.0
 10
24.14604327340768
 20
624.3493066091885
 30
0.0
 10
23.93543075355013
 20
624.2966213652431
 30
0.0
 10
23.64650386486938
 20
624.2708095583181
 30
0.0
 10
23.3474291864469
 20
624.3442502908767
 30
0.0
 10
23.06043231810402
 20
624.5860339853031
 30
0.0
 10
23.02620337451674
 20
624.7909904452014
 30
0.0
 10
23.02977228494387
 20
624.9299108927564
 30
0.0
  0
ARC
  5
FD
330
7E
100
AcDbEntity
  8
DV1_Default
  6
Continuous
 62
     7
100
AcDbCircle
 10
40.7751038304
 20
625.347935479
 30
0.0
 40
2.395004725579006
100
AcDbArc
 50
305.0425548656
 51
358.8701308704
  0
ARC
  5
FE
330
7E
100
AcDbEntity
  8
DV1_Default
  6
Continuous
 62
     7
100
AcDbCircle
 10
40.1627880196
 20
624.5768389001
 30
0.0
 40
1.972924927488718
100
AcDbArc
 50
284.5010544182
 51
294.111992725
  0
ARC
  5
FF
330
7E
100
AcDbEntity
  8
DV1_Default
  6
Continuous
 62
     7
100
AcDbCircle
 10
38.1115610981
 20
626.180634966
 30
0.0
 40
4.013242530246765
100
AcDbArc
 50
277.8589407093
 51
281.5738845416
  0
LINE
  5
100
330
7E
100
AcDbEntity
  8
DV1_Default
  6
Continuous
 62
     7
100
AcDbLine
 10
36.1367274954
 20
621.8966645519
 30
0.0
 11
36.3801505166
 21
621.9168974088
 31
0.0
  0
LINE
  5
101
330
7E
100
AcDbEntity
  8
DV1_Default
  6
Continuous
 62
     7
100
AcDbLine
 10
33.2443332842
 20
621.7405156587
 30
0.0
 11
33.4831450686
 21
621.7469715239
 31
0.0
  0
LINE
  5
102
330
7E
100
AcDbEntity
  8
DV1_Default
  6
Continuous
 62
     7
100
AcDbLine
 10
30.2092964501
 20
621.7464629085
 30
0.0
 11
30.4675399429
 21
621.7402698481
 31
0.0
  0
ARC
  5
103
330
7E
100
AcDbEntity
  8
DV1_Default
  6
Continuous
 62
     7
100
AcDbCircle
 10
28.0376631773
 20
629.0436739538
 30
0.0
 40
7.163199634378955
100
AcDbArc
 50
264.2371313878
 51
266.1552853888
  0
ARC
  5
104
330
7E
100
AcDbEntity
  8
DV1_Default
  6
Continuous
 62
     7
100
AcDbCircle
 10
25.5733188763
 20
625.9340970022
 30
0.0
 40
3.767723700182289
100
AcDbArc
 50
257.9953292446
 51
261.8733308519
  0
ARC
  5
105
330
7E
100
AcDbEntity
  8
DV1_Default
  6
Continuous
 62
     7
100
AcDbCircle
 10
23.6693115957
 20
624.9332217443
 30
0.0
 40
2.352516841374968
100
AcDbArc
 50
246.4622499123
 51
254.5671192069
  0
ARC
  5
106
330
7E
100
AcDbEntity
  8
DV1_Default
  6
Continuous
 62
     7
100
AcDbCircle
 10
22.9462439781
 20
625.3735022138
 30
0.0
 40
2.427115432778854
100
AcDbArc
 50
180.7599442483
 51
234.9141577
  0
ARC
  5
107
330
7E
100
AcDbEntity
  8
DV1_Default
  6
Continuous
 62
     7
100
AcDbCircle
 10
38.988598298
 20
622.6576631466
 30
0.0
 40
1.615419331779746
100
AcDbArc
 50
68.3085581743
 51
73.7106960513
  0
LINE
  5
108
330
7E
100
AcDbEntity
  8
DV1_Default
  6
Continuous
 62
     7
100
AcDbLine
 10
38.007692312
 20
624.5309935436
 30
0.0
 11
38.1910162217
 21
624.4997196339
 31
0.0
  0
LINE
  5
109
330
7E
100
AcDbEntity
  8
DV1_Default
  6
Continuous
 62
     7
100
AcDbLine
 10
35.8069247388
 20
624.8005351042
 30
0.0
 11
36.0112157439
 21
624.781628942
 31
0.0
  0
ARC
  5
10A
330
7E
100
AcDbEntity
  8
DV1_Default
  6
Continuous
 62
     7
100
AcDbCircle
 10
32.997573745
 20
616.683802475
 30
0.0
 40
8.262397295461362
100
AcDbArc
 50
87.4437219798
 51
88.8939687536
  0
LINE
  5
10B
330
7E
100
AcDbEntity
  8
DV1_Default
  6
Continuous
 62
     7
100
AcDbLine
 10
30.3392570829
 20
624.9378237038
 30
0.0
 11
30.5446311827
 21
624.9446799499
 31
0.0
  0
LINE
  5
10C
330
7E
100
AcDbEntity
  8
DV1_Default
  6
Continuous
 62
     7
100
AcDbLine
 10
27.6947892961
 20
624.7822215845
 30
0.0
 11
27.8996392614
 21
624.8006917487
 31
0.0
  0
LINE
  5
10D
330
7E
100
AcDbEntity
  8
DV1_Default
  6
Continuous
 62
     7
100
AcDbLine
 10
25.50616437
 20
624.5004725637
 30
0.0
 11
25.6940665789
 21
624.5314831027
 31
0.0
  0
LINE
  5
10E
330
7E
100
AcDbEntity
  8
DV1_Default
  6
Continuous
 62
     7
100
AcDbLine
 10
24.111544502
 20
624.1587049971
 30
0.0
 11
24.2633298811
 21
624.2097861922
 31
0.0
  0
SPLINE
  5
10F
330
7E
100
AcDbEntity
  8
DV1_Default
  6
Continuous
 62
     7
100
AcDbSpline
210
0.0
220
0.0
230
1.0
 70
     8
 71
     3
 72
     8
 73
     4
 74
     0
 42
0.000000001
 43
0.0000000001
 40
0.0
 40
0.0
 40
0.0
 40
0.0
 40
1.0
 40
1.0
 40
1.0
 40
1.0
 10
23.61098566873484
 20
623.8127827860042
 30
0.0
 10
23.6434577101674
 20
623.8279909587545
 30
0.0
 10
23.67164963412943
 20
623.84236995855
 30
0.0
 10
23.69479516155254
 20
623.8551862195196
 30
0.0
  0
SPLINE
  5
110
330
7E
100
AcDbEntity
  8
DV1_Default
  6
Continuous
 62
     7
100
AcDbSpline
210
0.0
220
0.0
230
1.0
 70
     8
 71
     3
 72
     8
 73
     4
 74
     0
 42
0.000000001
 43
0.0000000001
 40
0.0
 40
0.0
 40
0.0
 40
0.0
 40
1.0
 40
1.0
 40
1.0
 40
1.0
 10
21.65876025750105
 20
624.6730168186493
 30
0.0
 10
21.65695886970548
 20
624.6779135423925
 30
0.0
 10
21.68267132241666
 20
624.6750877713469
 30
0.0
 10
21.73589761563459
 20
624.6645395055122
 30
0.0
  0
SPLINE
  5
111
330
7E
100
AcDbEntity
  8
DV1_Default
  6
Continuous
 62
     7
100
AcDbSpline
210
0.0
220
0.0
230
1.0
 70
     8
 71
     3
 72
    13
 73
     9
 74
     0
 42
0.000000001
 43
0.0000000001
 40
0.0
 40
0.0
 40
0.0
 40
0.0
 40
0.2081431100701066
 40
0.3819883255043913
 40
0.6144971314041172
 40
0.7436337500021509
 40
0.9191083716999817
 40
1.0
 40
1.0
 40
1.0
 40
1.0
 10
21.74873082932556
 20
624.6629526862487
 30
0.0
 10
21.8541362207031
 20
624.6212919717984
 30
0.0
 10
22.02412805771938
 20
624.5555847532585
 30
0.0
 10
22.41073336880057
 20
624.3760589383187
 30
0.0
 10
22.79800144020178
 20
624.2325826811382
 30
0.0
 10
23.20327719891698
 20
624.1282480599074
 30
0.0
 10
23.50517152131176
 20
624.0860627101288
 30
0.0
 10
23.66237131092545
 20
624.089396417516
 30
0.0
 10
23.71995435857281
 20
624.0910492386603
 30
0.0
  0
ARC
  5
112
330
7E
100
AcDbEntity
  8
DV1_Default
  6
Continuous
 62
     7
100
AcDbCircle
 10
22.6017100447
 20
626.2560160154
 30
0.0
 40
2.64118907128625
100
AcDbArc
 50
235.0520769199
 51
291.9860498684
  0
SPLINE
  5
113
330
7E
100
AcDbEntity
  8
DV1_Default
  6
Continuous
 62
     7
100
AcDbSpline
210
0.0
220
0.0
230
1.0
 70
     8
 71
     3
 72
    11
 73
     7
 74
     0
 42
0.000000001
 43
0.0000000001
 40
0.0
 40
0.0
 40
0.0
 40
0.0
 40
0.3106265063557101
 40
0.5793811813531579
 40
0.8072611095602366
 40
1.0
 40
1.0
 40
1.0
 40
1.0
 10
23.74246935703726
 20
623.3571780229794
 30
0.0
 10
23.81758599154041
 20
623.38797775512
 30
0.0
 10
23.93472136430806
 20
623.4352333368761
 30
0.0
 10
24.06967908813666
 20
623.4859131501366
 30
0.0
 10
24.1481866602449
 20
623.5035390736564
 30
0.0
 10
24.16264482194319
 20
623.5011871611249
 30
0.0
 10
24.16958779996495
 20
623.4993971936337
 30
0.0
  0
LINE
  5
114
330
7E
100
AcDbEntity
  8
DV1_Default
  6
Continuous
 62
     7
100
AcDbLine
 10
24.165288209
 20
623.4922362587
 30
0.0
 11
24.1600684548
 21
623.4859642995
 31
0.0
  0
SPLINE
  5
115
330
7E
100
AcDbEntity
  8
DV1_Default
  6
Continuous
 62
     7
100
AcDbSpline
210
0.0
220
0.0
230
1.0
 70
     8
 71
     3
 72
    11
 73
     7
 74
     0
 42
0.000000001
 43
0.0000000001
 40
0.0
 40
0.0
 40
0.0
 40
0.0
 40
0.3100936877338088
 40
0.578982438729379
 40
0.8075529137670847
 40
1.0
 40
1.0
 40
1.0
 40
1.0
 10
24.67754312053077
 20
622.933033135113
 30
0.0
 10
24.76704619098488
 20
622.9689815117584
 30
0.0
 10
24.90832374927895
 20
623.0241897523583
 30
0.0
 10
25.10151447491728
 20
623.0862855667453
 30
0.0
 10
25.2487946229108
 20
623.1111981030126
 30
0.0
 10
25.3122480856658
 20
623.1024460680408
 30
0.0
 10
25.34571115501107
 20
623.097175420948
 30
0.0
  0
SPLINE
  5
116
330
7E
100
AcDbEntity
  8
DV1_Default
  6
Continuous
 62
     7
100
AcDbSpline
210
0.0
220
0.0
230
1.0
 70
     8
 71
     3
 72
     8
 73
     4
 74
     0
 42
0.000000001
 43
0.0000000001
 40
0.0
 40
0.0
 40
0.0
 40
0.0
 40
1.0
 40
1.0
 40
1.0
 40
1.0
 10
25.34154673266782
 20
623.0981838833451
 30
0.0
 10
25.42418737481062
 20
623.0805308326533
 30
0.0
 10
25.47477583105783
 20
623.0173153320112
 30
0.0
 10
25.49331210140943
 20
622.9085373814191
 30
0.0
  0
SPLINE
  5
117
330
7E
100
AcDbEntity
  8
DV1_Default
  6
Continuous
 62
     7
100
AcDbSpline
210
0.0
220
0.0
230
1.0
 70
     8
 71
     3
 72
    10
 73
     6
 74
     0
 42
0.000000001
 43
0.0000000001
 40
0.0
 40
0.0
 40
0.0
 40
0.0
 40
0.3721330587907578
 40
0.93138255366043
 40
1.0
 40
1.0
 40
1.0
 40
1.0
 10
23.76334751274362
 20
622.6547575532362
 30
0.0
 10
23.86777261623481
 20
622.5992184840981
 30
0.0
 10
24.14803437638476
 20
622.4543254803906
 30
0.0
 10
24.4763583031435
 20
622.3008404581794
 30
0.0
 10
24.65722573858644
 20
622.2809164516689
 30
0.0
 10
24.6801173491356
 20
622.2784068215915
 30
0.0
  0
SPLINE
  5
118
330
7E
100
AcDbEntity
  8
DV1_Default
  6
Continuous
 62
     7
100
AcDbSpline
210
0.0
220
0.0
230
1.0
 70
     8
 71
     3
 72
    10
 73
     6
 74
     0
 42
0.000000001
 43
0.0000000001
 40
0.0
 40
0.0
 40
0.0
 40
0.0
 40
0.5150116295469763
 40
0.7611177202689873
 40
1.0
 40
1.0
 40
1.0
 40
1.0
 10
26.32600094820617
 20
622.5823129474628
 30
0.0
 10
26.48127677820579
 20
622.6505385333018
 30
0.0
 10
26.67538291468515
 20
622.7308256908144
 30
0.0
 10
26.95427029635755
 20
622.7958749238138
 30
0.0
 10
27.06786252139316
 20
622.7906304453476
 30
0.0
 10
27.13343830267289
 20
622.7869978168925
 30
0.0
  0
ARC
  5
119
330
7E
100
AcDbEntity
  8
DV1_Default
  6
Continuous
 62
     7
100
AcDbCircle
 10
27.0644804273
 20
622.2777474339
 30
0.0
 40
0.5138949770936152
100
AcDbArc
 50
22.9474543053
 51
83.1429510645
  0
SPLINE
  5
11A
330
7E
100
AcDbEntity
  8
DV1_Default
  6
Continuous
 62
     7
100
AcDbSpline
210
0.0
220
0.0
230
1.0
 70
     8
 71
     3
 72
    11
 73
     7
 74
     0
 42
0.000000001
 43
0.0000000001
 40
0.0
 40
0.0
 40
0.0
 40
0.0
 40
0.2695486394068257
 40
0.5095867319830876
 40
0.8827493562792121
 40
1.0
 40
1.0
 40
1.0
 40
1.0
 10
25.85193874580856
 20
622.4683483484869
 30
0.0
 10
25.98936924687022
 20
622.40827826324
 30
0.0
 10
26.21223480278929
 20
622.3114515899501
 30
0.0
 10
26.62473259305676
 20
622.1183100961526
 30
0.0
 10
26.96466896167304
 20
621.9739834932966
 30
0.0
 10
27.14746145681331
 20
621.9516187075432
 30
0.0
 10
27.19798423907249
 20
621.9455888121479
 30
0.0
  0
LINE
  5
11B
330
7E
100
AcDbEntity
  8
DV1_Default
  6
Continuous
 62
     7
100
AcDbLine
 10
27.5513498492
 20
622.4586408525
 30
0.0
 11
27.5747886299
 21
622.3308561759
 31
0.0
  0
ARC
  5
11C
330
7E
100
AcDbEntity
  8
DV1_Default
  6
Continuous
 62
     7
100
AcDbCircle
 10
28.4182851438
 20
620.6538069691
 30
0.0
 40
1.641257697655026
100
AcDbArc
 50
72.631418909
 51
86.9366737126
  0
ARC
  5
11D
330
7E
100
AcDbEntity
  8
DV1_Default
  6
Continuous
 62
     7
100
AcDbCircle
 10
28.4189451972
 20
621.1334995748
 30
0.0
 40
1.162528342561498
100
AcDbArc
 50
85.5877470006
 51
89.1627656603
  0
SPLINE
  5
11E
330
7E
100
AcDbEntity
  8
DV1_Default
  6
Continuous
 62
     7
100
AcDbSpline
210
0.0
220
0.0
230
1.0
 70
     8
 71
     3
 72
     8
 73
     4
 74
     0
 42
0.000000001
 43
0.0000000001
 40
0.0
 40
0.0
 40
0.0
 40
0.0
 40
0.9999999999999999
 40
0.9999999999999999
 40
0.9999999999999999
 40
0.9999999999999999
 10
27.56324523695718
 20
621.8961435481664
 30
0.0
 10
27.57331391153701
 20
621.8964988003042
 30
0.0
 10
27.5905318772655
 20
621.8990730499502
 30
0.0
 10
27.61489913414263
 20
621.9038662971042
 30
0.0
  0
SPLINE
  5
11F
330
7E
100
AcDbEntity
  8
DV1_Default
  6
Continuous
 62
     7
100
AcDbSpline
210
0.0
220
0.0
230
1.0
 70
     8
 71
     3
 72
    11
 73
     7
 74
     0
 42
0.000000001
 43
0.0000000001
 40
0.0
 40
0.0
 40
0.0
 40
0.0
 40
0.2544604489963984
 40
0.508363311221302
 40
0.7576283140559215
 40
1.0
 40
1.0
 40
1.0
 40
1.0
 10
27.56955730563273
 20
621.8994432851447
 30
0.0
 10
27.59648427097942
 20
621.8969765050401
 30
0.0
 10
27.64916963113789
 20
621.8969491946339
 30
0.0
 10
27.88178223608526
 20
621.9951139005486
 30
0.0
 10
28.19079274274242
 20
622.1585489977721
 30
0.0
 10
28.40662752630231
 20
622.2747174866778
 30
0.0
 10
28.53182281855584
 20
622.3427498651383
 30
0.0
  0
SPLINE
  5
120
330
7E
100
AcDbEntity
  8
DV1_Default
  6
Continuous
 62
     7
100
AcDbSpline
210
0.0
220
0.0
230
1.0
 70
     8
 71
     3
 72
    10
 73
     6
 74
     0
 42
0.000000001
 43
0.0000000001
 40
0.0
 40
0.0
 40
0.0
 40
0.0
 40
0.5129807040139613
 40
0.7595711060031146
 40
1.0
 40
1.0
 40
1.0
 40
1.0
 10
28.52630813453703
 20
622.3398318418905
 30
0.0
 10
28.67552115579437
 20
622.4162312120935
 30
0.0
 10
28.86381706258404
 20
622.5070389093972
 30
0.0
 10
29.1653702362716
 20
622.5874830765935
 30
0.0
 10
29.29768929299233
 20
622.5888410500655
 30
0.0
 10
29.3746135527191
 20
622.5890136114426
 30
0.0
  0
ARC
  5
121
330
7E
100
AcDbEntity
  8
DV1_Default
  6
Continuous
 62
     7
100
AcDbCircle
 10
29.2932219014
 20
621.6378807605
 30
0.0
 40
0.9543827225595121
100
AcDbArc
 50
41.9820688314
 51
85.6866149715
  0
SPLINE
  5
122
330
7E
100
AcDbEntity
  8
DV1_Default
  6
Continuous
 62
     7
100
AcDbSpline
210
0.0
220
0.0
230
1.0
 70
     8
 71
     3
 72
    10
 73
     6
 74
     0
 42
0.000000001
 43
0.0000000001
 40
0.0
 40
0.0
 40
0.0
 40
0.0
 40
0.4367783383102944
 40
0.9048924152023052
 40
1.0
 40
1.0
 40
1.0
 40
1.0
 10
28.90495696811755
 20
622.2237082909829
 30
0.0
 10
29.07042907914379
 20
622.1596480535529
 30
0.0
 10
29.35755469591038
 20
622.05428740767
 30
0.0
 10
29.6911824777978
 20
621.8940175438786
 30
0.0
 10
29.83650052584389
 20
621.8521741174899
 30
0.0
 10
29.86090337498903
 20
621.845769952165
 30
0.0
  0
ARC
  5
123
330
7E
100
AcDbEntity
  8
DV1_Default
  6
Continuous
 62
     7
100
AcDbCircle
 10
31.8651438386
 20
620.6819165106
 30
0.0
 40
1.518887373017299
100
AcDbArc
 50
75.2616043171
 51
90.5712727056
  0
ARC
  5
124
330
7E
100
AcDbEntity
  8
DV1_Default
  6
Continuous
 62
     7
100
AcDbCircle
 10
31.8351785819
 20
620.6801011896
 30
0.0
 40
1.520724255368432
100
AcDbArc
 50
89.3476169429
 51
104.732356283
  0
ARC
  5
125
330
7E
100
AcDbEntity
  8
DV1_Default
  6
Continuous
 62
     7
100
AcDbCircle
 10
32.5146203462
 20
620.0001020909
 30
0.0
 40
2.661393066157539
100
AcDbArc
 50
122.9460135863
 51
137.8753648369
  0
SPLINE
  5
126
330
7E
100
AcDbEntity
  8
DV1_Default
  6
Continuous
 62
     7
100
AcDbSpline
210
0.0
220
0.0
230
1.0
 70
     8
 71
     3
 72
    11
 73
     7
 74
     0
 42
0.000000001
 43
0.0000000001
 40
0.0
 40
0.0
 40
0.0
 40
0.0
 40
0.0503950238411233
 40
0.3794241336800079
 40
0.6964376360382065
 40
1.0
 40
1.0
 40
1.0
 40
1.0
 10
30.48832422597796
 20
621.7478755370774
 30
0.0
 10
30.49525848922309
 20
621.7488482136225
 30
0.0
 10
30.5408262335506
 20
621.7555391773002
 30
0.0
 10
30.73111874194166
 20
621.8449029385107
 30
0.0
 10
31.06042500321069
 20
622.016560557055
 30
0.0
 10
31.323549051727
 20
622.1070201972723
 30
0.0
 10
31.47484776812973
 20
622.1595658050358
 30
0.0
  0
ARC
  5
127
330
7E
100
AcDbEntity
  8
DV1_Default
  6
Continuous
 62
     7
100
AcDbCircle
 10
31.9081906179
 20
621.1521832602
 30
0.0
 40
1.36992387210115
100
AcDbArc
 50
92.2194243278
 51
127.9734874754
  0
ARC
  5
128
330
7E
100
AcDbEntity
  8
DV1_Default
  6
Continuous
 62
     7
100
AcDbCircle
 10
31.7926435306
 20
621.1558044786
 30
0.0
 40
1.366272947291173
100
AcDbArc
 50
52.1596571293
 51
87.8098172508
  0
SPLINE
  5
129
330
7E
100
AcDbEntity
  8
DV1_Default
  6
Continuous
 62
     7
100
AcDbSpline
210
0.0
220
0.0
230
1.0
 70
     8
 71
     3
 72
    11
 73
     7
 74
     0
 42
0.000000001
 43
0.0000000001
 40
0.0
 40
0.0
 40
0.0
 40
0.0
 40
0.2997972317903179
 40
0.6125017764505923
 40
0.9373013132077825
 40
1.0
 40
1.0
 40
1.0
 40
1.0
 10
32.24143826916966
 20
622.1550997334706
 30
0.0
 10
32.39109442515223
 20
622.1020117855109
 30
0.0
 10
32.6509245106422
 20
622.0108471552601
 30
0.0
 10
32.9772764100294
 20
621.840690118564
 30
0.0
 10
33.16730938393145
 20
621.7527971009091
 30
0.0
 10
33.21312966296632
 20
621.7473905955167
 30
0.0
 10
33.22159408501886
 20
621.7464709861038
 30
0.0
  0
ARC
  5
12A
330
7E
100
AcDbEntity
  8
DV1_Default
  6
Continuous
 62
     7
100
AcDbCircle
 10
31.1660771602
 20
619.9746707592
 30
0.0
 40
2.693239849647474
100
AcDbArc
 50
42.2551103685
 51
56.9995914566
  0
SPLINE
  5
12B
330
7E
100
AcDbEntity
  8
DV1_Default
  6
Continuous
 62
     7
100
AcDbSpline
210
0.0
220
0.0
230
1.0
 70
     8
 71
     3
 72
     8
 73
     4
 74
     0
 42
0.000000001
 43
0.0000000001
 40
0.0
 40
0.0
 40
0.0
 40
0.0
 40
1.0
 40
1.0
 40
1.0
 40
1.0
 10
33.19450294389251
 20
621.7519018474968
 30
0.0
 10
33.22735274668575
 20
621.7434189206248
 30
0.0
 10
33.24507288694172
 20
621.7400931006423
 30
0.0
 10
33.2476633646604
 20
621.7419243875495
 30
0.0
  0
SPLINE
  5
12C
330
7E
100
AcDbEntity
  8
DV1_Default
  6
Continuous
 62
     7
100
AcDbSpline
210
0.0
220
0.0
230
1.0
 70
     8
 71
     3
 72
     8
 73
     4
 74
     0
 42
0.000000001
 43
0.0000000001
 40
0.0
 40
0.0
 40
0.0
 40
0.0
 40
1.0
 40
1.0
 40
1.0
 40
1.0
 10
33.18053149008126
 20
621.7852178431224
 30
0.0
 10
33.16840990515678
 20
621.7887410036354
 30
0.0
 10
33.15813643274958
 20
621.7919159037016
 30
0.0
 10
33.14864496680811
 20
621.7974763619195
 30
0.0
  0
ARC
  5
12D
330
7E
100
AcDbEntity
  8
DV1_Default
  6
Continuous
 62
     7
100
AcDbCircle
 10
35.281453189
 20
621.1367508519
 30
0.0
 40
1.159271448264491
100
AcDbArc
 50
90.8825274878
 51
94.3260832843
  0
ARC
  5
12E
330
7E
100
AcDbEntity
  8
DV1_Default
  6
Continuous
 62
     7
100
AcDbCircle
 10
35.2817972682
 20
620.6534274279
 30
0.0
 40
1.641646006188314
100
AcDbArc
 50
92.9843744208
 51
107.3675567724
  0
SPLINE
  5
12F
330
7E
100
AcDbEntity
  8
DV1_Default
  6
Continuous
 62
     7
100
AcDbSpline
210
0.0
220
0.0
230
1.0
 70
     8
 71
     3
 72
    10
 73
     6
 74
     0
 42
0.000000001
 43
0.0000000001
 40
0.0
 40
0.0
 40
0.0
 40
0.0
 40
0.0688765147393218
 40
0.5141536402349746
 40
1.0
 40
1.0
 40
1.0
 40
1.0
 10
33.71781909598418
 20
621.8058552665444
 30
0.0
 10
33.73850555930409
 20
621.809244071377
 30
0.0
 10
33.87198102064291
 20
621.8307173694931
 30
0.0
 10
34.25555446220569
 20
622.0188886967678
 30
0.0
 10
34.59782195663019
 20
622.1436753851855
 30
0.0
 10
34.81212535088414
 20
622.2291549952921
 30
0.0
  0
ARC
  5
130
330
7E
100
AcDbEntity
  8
DV1_Default
  6
Continuous
 62
     7
100
AcDbCircle
 10
34.4067924543
 20
621.6378518694
 30
0.0
 40
0.9544128005270061
100
AcDbArc
 50
94.3143151508
 51
138.0172998526
  0
SPLINE
  5
131
330
7E
100
AcDbEntity
  8
DV1_Default
  6
Continuous
 62
     7
100
AcDbSpline
210
0.0
220
0.0
230
1.0
 70
     8
 71
     3
 72
    10
 73
     6
 74
     0
 42
0.000000001
 43
0.0000000001
 40
0.0
 40
0.0
 40
0.0
 40
0.0
 40
0.2405114686108096
 40
0.4870813442948649
 40
1.0
 40
1.0
 40
1.0
 40
1.0
 10
34.32538314048676
 20
622.5890132713647
 30
0.0
 10
34.40233437129296
 20
622.5888409261534
 30
0.0
 10
34.53467157203836
 20
622.587483263048
 30
0.0
 10
34.83622185606936
 20
622.5070195287439
 30
0.0
 10
35.02449756995519
 20
622.4162217252842
 30
0.0
 10
35.17369323879114
 20
622.3398310818953
 30
0.0
  0
SPLINE
  5
132
330
7E
100
AcDbEntity
  8
DV1_Default
  6
Continuous
 62
     7
100
AcDbSpline
210
0.0
220
0.0
230
1.0
 70
     8
 71
     3
 72
    10
 73
     6
 74
     0
 42
0.000000001
 43
0.0000000001
 40
0.0
 40
0.0
 40
0.0
 40
0.0
 40
0.2772557195992194
 40
0.6382419024216719
 40
1.0
 40
1.0
 40
1.0
 40
1.0
 10
35.55358619209643
 20
622.1364170508903
 30
0.0
 10
35.64392225667845
 20
622.0881728114276
 30
0.0
 10
35.81901803399635
 20
621.9953774152574
 30
0.0
 10
36.04278200600197
 20
621.8992947330823
 30
0.0
 10
36.09783382297408
 20
621.8974167744905
 30
0.0
 10
36.12666840176147
 20
621.8985677862643
 30
0.0
  0
ARC
  5
133
330
7E
100
AcDbEntity
  8
DV1_Default
  6
Continuous
 62
     7
100
AcDbCircle
 10
46.4245925294
 20
642.94489012
 30
0.0
 40
23.47703836203506
100
AcDbArc
 50
241.3046962414
 51
242.4160056572
  0
SPLINE
  5
134
330
7E
100
AcDbEntity
  8
DV1_Default
  6
Continuous
 62
     7
100
AcDbSpline
210
0.0
220
0.0
230
1.0
 70
     8
 71
     3
 72
     8
 73
     4
 74
     0
 42
0.000000001
 43
0.0000000001
 40
0.0
 40
0.0
 40
0.0
 40
0.0
 40
1.0
 40
1.0
 40
1.0
 40
1.0
 10
36.08396815767542
 20
621.9030792908258
 30
0.0
 10
36.11590168621522
 20
621.8964531763705
 30
0.0
 10
36.13726287684422
 20
621.8942839877107
 30
0.0
 10
36.14805172956241
 20
621.8965717248459
 30
0.0
  0
SPLINE
  5
135
330
7E
100
AcDbEntity
  8
DV1_Default
  6
Continuous
 62
     7
100
AcDbSpline
210
0.0
220
0.0
230
1.0
 70
     8
 71
     3
 72
    11
 73
     7
 74
     0
 42
0.000000001
 43
0.0000000001
 40
0.0
 40
0.0
 40
0.0
 40
0.0
 40
0.1929134610675595
 40
0.5621795093171157
 40
0.7997272321995842
 40
1.0
 40
1.0
 40
1.0
 40
1.0
 10
36.42363832021967
 20
621.9335609845014
 30
0.0
 10
36.50742509421769
 20
621.9433913028074
 30
0.0
 10
36.7191463857908
 20
621.9694987506793
 30
0.0
 10
37.09168201341458
 20
622.1247727052607
 30
0.0
 10
37.47354536051544
 20
622.3052750540262
 30
0.0
 10
37.66849164474051
 20
622.3901265798072
 30
0.0
 10
37.76533533821296
 20
622.432021187072
 30
0.0
  0
LINE
  5
136
330
7E
100
AcDbEntity
  8
DV1_Default
  6
Continuous
 62
     7
100
AcDbLine
 10
36.1251716421
 20
622.3270380113
 30
0.0
 11
36.14602371
 21
622.4558645512
 31
0.0
  0
ARC
  5
137
330
7E
100
AcDbEntity
  8
DV1_Default
  6
Continuous
 62
     7
100
AcDbCircle
 10
36.6355320291
 20
622.2777306814
 30
0.0
 40
0.5139131897529592
100
AcDbArc
 50
96.8583398502
 51
157.0515513721
  0
SPLINE
  5
138
330
7E
100
AcDbEntity
  8
DV1_Default
  6
Continuous
 62
     7
100
AcDbSpline
210
0.0
220
0.0
230
1.0
 70
     8
 71
     3
 72
    10
 73
     6
 74
     0
 42
0.000000001
 43
0.0000000001
 40
0.0
 40
0.0
 40
0.0
 40
0.0
 40
0.2389642743475279
 40
0.4850500401939526
 40
1.0
 40
1.0
 40
1.0
 40
1.0
 10
36.56656059458003
 20
622.7869975180702
 30
0.0
 10
36.632159671024
 20
622.7906316690016
 30
0.0
 10
36.74576802708857
 20
622.7958773327082
 30
0.0
 10
37.02465543085638
 20
622.7308084358588
 30
0.0
 10
37.21874201624766
 20
622.6505300453218
 30
0.0
 10
37.37400069497515
 20
622.5823122094694
 30
0.0
  0
SPLINE
  5
139
330
7E
100
AcDbEntity
  8
DV1_Default
  6
Continuous
 62
     7
100
AcDbSpline
210
0.0
220
0.0
230
1.0
 70
     8
 71
     3
 72
    12
 73
     8
 74
     0
 42
0.000000001
 43
0.0000000001
 40
0.0
 40
0.0
 40
0.0
 40
0.0
 40
0.0962839568476815
 40
0.3291065513560788
 40
0.6195379874053305
 40
0.9635335853633621
 40
1.0
 40
1.0
 40
1.0
 40
1.0
 10
38.70101661827091
 20
622.2362772360627
 30
0.0
 10
38.74036361887453
 20
622.2331964545969
 30
0.0
 10
38.85633472210932
 20
622.224662624706
 30
0.0
 10
39.12734105869067
 20
622.2933243993614
 30
0.0
 10
39.49261577537364
 20
622.4215573651817
 30
0.0
 10
39.77680649712584
 20
622.5685825080528
 30
0.0
 10
39.92238238046106
 20
622.6461412208618
 30
0.0
 10
39.93622252947323
 20
622.6535381229647
 30
0.0
  0
SPLINE
  5
13A
330
7E
100
AcDbEntity
  8
DV1_Default
  6
Continuous
 62
     7
100
AcDbSpline
210
0.0
220
0.0
230
1.0
 70
     8
 71
     3
 72
     8
 73
     4
 74
     0
 42
0.000000001
 43
0.0000000001
 40
0.0
 40
0.0
 40
0.0
 40
0.0
 40
1.0
 40
1.0
 40
1.0
 40
1.0
 10
38.2066871905439
 20
622.90854449201
 30
0.0
 10
38.22523968808851
 20
623.0173394906125
 30
0.0
 10
38.27582937781529
 20
623.0805528776912
 30
0.0
 10
38.35845625972422
 20
623.0981846532461
 30
0.0
  0
SPLINE
  5
13B
330
7E
100
AcDbEntity
  8
DV1_Default
  6
Continuous
 62
     7
100
AcDbSpline
210
0.0
220
0.0
230
1.0
 70
     8
 71
     3
 72
    11
 73
     7
 74
     0
 42
0.000000001
 43
0.0000000001
 40
0.0
 40
0.0
 40
0.0
 40
0.0
 40
0.1925270395402022
 40
0.4210857814982046
 40
0.6899552831773144
 40
1.0
 40
1.0
 40
1.0
 40
1.0
 10
38.35429202388083
 20
623.097176047709
 30
0.0
 10
38.38777164465549
 20
623.1024483043866
 30
0.0
 10
38.45124075634007
 20
623.1112005789745
 30
0.0
 10
38.59852969899848
 20
623.0862717631517
 30
0.0
 10
38.79170796424911
 20
623.0241749893845
 30
0.0
 10
38.93296886363779
 20
622.9689742575075
 30
0.0
 10
39.02245842942866
 20
622.933032521453
 30
0.0
  0
LINE
  5
13C
330
7E
100
AcDbEntity
  8
DV1_Default
  6
Continuous
 62
     7
100
AcDbLine
 10
39.5399303211
 20
623.4859826656
 30
0.0
 11
39.5347147719
 21
623.4922503906
 31
0.0
  0
SPLINE
  5
13D
330
7E
100
AcDbEntity
  8
DV1_Default
  6
Continuous
 62
     7
100
AcDbSpline
210
0.0
220
0.0
230
1.0
 70
     8
 71
     3
 72
    11
 73
     7
 74
     0
 42
0.000000001
 43
0.0000000001
 40
0.0
 40
0.0
 40
0.0
 40
0.0
 40
0.1928166736818026
 40
0.4206858575788733
 40
0.6894218270156712
 40
1.0
 40
1.0
 40
1.0
 40
1.0
 10
39.53042282238177
 20
623.4994030772513
 30
0.0
 10
39.53737455439228
 20
623.5011934835062
 30
0.0
 10
39.5518469653618
 20
623.5035453914945
 30
0.0
 10
39.63035210010914
 20
623.4859005592847
 30
0.0
 10
39.76530653574634
 20
623.4352203208795
 30
0.0
 10
39.88242700838168
 20
623.3879712332388
 30
0.0
 10
39.95753200443516
 20
623.3571774976388
 30
0.0
  0
ARC
  5
13E
330
7E
100
AcDbEntity
  8
DV1_Default
  6
Continuous
 62
     7
100
AcDbCircle
 10
41.0982943968
 20
626.2601280781
 30
0.0
 40
2.644316649804688
100
AcDbArc
 50
253.9817808477
 51
304.8029015895
  0
SPLINE
  5
13F
330
7E
100
AcDbEntity
  8
DV1_Default
  6
Continuous
 62
     7
100
AcDbSpline
210
0.0
220
0.0
230
1.0
 70
     8
 71
     3
 72
     8
 73
     4
 74
     0
 42
0.000000001
 43
0.0000000001
 40
0.0
 40
0.0
 40
0.0
 40
0.0
 40
1.0
 40
1.0
 40
1.0
 40
1.0
 10
40.0663330853394
 20
623.8239006859918
 30
0.0
 10
40.07365245536362
 20
623.8202401969668
 30
0.0
 10
40.08122085110568
 20
623.8165324330391
 30
0.0
 10
40.08901502596249
 20
623.8127824917086
 30
0.0
  0
SPLINE
  5
140
330
7E
100
AcDbEntity
  8
DV1_Default
  6
Continuous
 62
     7
100
AcDbSpline
210
0.0
220
0.0
230
1.0
 70
     8
 71
     3
 72
     8
 73
     4
 74
     0
 42
0.000000001
 43
0.0000000001
 40
0.0
 40
0.0
 40
0.0
 40
0.0
 40
1.0
 40
1.0
 40
1.0
 40
1.0
 10
41.96407736179687
 20
624.6645310151142
 30
0.0
 10
42.01722327797025
 20
624.6751358205776
 30
0.0
 10
42.04305042156936
 20
624.677898251026
 30
0.0
 10
42.04155879259421
 20
624.6728183064596
 30
0.0
  0
LINE
  5
141
330
7E
100
AcDbEntity
  8
DV1_Default
  6
Continuous
 62
     7
100
AcDbLine
 10
42.0584301153
 20
624.5998676637
 30
0.0
 11
42.0288429913
 21
624.5716053497
 31
0.0
  0
SPLINE
  5
142
330
7E
100
AcDbEntity
  8
DV1_Default
  6
Continuous
 62
     7
100
AcDbSpline
210
0.0
220
0.0
230
1.0
 70
     8
 71
     3
 72
    14
 73
    10
 74
     0
 42
0.000000001
 43
0.0000000001
 40
0.0
 40
0.0
 40
0.0
 40
0.0
 40
0.0011750334883269
 40
0.1417402617327087
 40
0.2440359382504828
 40
0.3721752186538994
 40
0.5432564363406117
 40
0.7545658040576132
 40
1.0
 40
1.0
 40
1.0
 40
1.0
 10
39.97220934467292
 20
624.0891514772351
 30
0.0
 10
39.97293474025748
 20
624.0890417063387
 30
0.0
 10
40.04849401138313
 20
624.0776124361456
 30
0.0
 10
40.23892241208188
 20
624.0942178626958
 30
0.0
 10
40.50786233364299
 20
624.1328349950256
 30
0.0
 10
40.81510794017696
 20
624.2084358849064
 30
0.0
 10
41.18687086765344
 20
624.3343426786965
 30
0.0
 10
41.60551516203996
 20
624.5226898959319
 30
0.0
 10
41.81526401954194
 20
624.6070686272049
 30
0.0
 10
41.94258017369655
 20
624.6601527742635
 30
0.0
  0
ARC
  5
143
330
7E
100
AcDbEntity
  8
DV1_Default
  6
Continuous
 62
     7
100
AcDbCircle
 10
40.4475562589
 20
624.7051912847
 30
0.0
 40
0.4855171403649086
100
AcDbArc
 50
78.2120499293
 51
106.2540068621
  0
LINE
  5
144
330
7E
100
AcDbEntity
  8
DV1_Default
  6
Continuous
 62
     7
100
AcDbLine
 10
40.5445896943
 20
625.1809772763
 30
0.0
 11
40.6607263534
 21
625.1137619828
 31
0.0
  0
ARC
  5
145
330
7E
100
AcDbEntity
  8
DV1_Default
  6
Continuous
 62
     7
100
AcDbCircle
 10
40.1964362128
 20
626.6121440121
 30
0.0
 40
2.515631721032423
100
AcDbArc
 50
241.9657587084
 51
257.5252083382
  0
LINE
  5
146
330
7E
100
AcDbEntity
  8
DV1_Default
  6
Continuous
 62
     7
100
AcDbLine
 10
40.6743008358
 20
625.0990359543
 30
0.0
 11
40.7047628056
 21
624.9518725335
 31
0.0
  0
SPLINE
  5
147
330
7E
100
AcDbEntity
  8
DV1_Default
  6
Continuous
 62
     7
100
AcDbSpline
210
0.0
220
0.0
230
1.0
 70
     8
 71
     3
 72
    12
 73
     8
 74
     0
 42
0.000000001
 43
0.0000000001
 40
0.0
 40
0.0
 40
0.0
 40
0.0
 40
0.2291186193939943
 40
0.3714872616818871
 40
0.5495681032119217
 40
0.7609980084940894
 40
1.0
 40
1.0
 40
1.0
 40
1.0
 10
38.40623120535313
 20
624.4953345960538
 30
0.0
 10
38.55018102413255
 20
624.5172762402624
 30
0.0
 10
38.75311338865254
 20
624.5500514074478
 30
0.0
 10
39.12601202079463
 20
624.6814411336177
 30
0.0
 10
39.48761616705173
 20
624.830196691121
 30
0.0
 10
39.91281296170919
 20
625.0313782067459
 30
0.0
 10
40.1621263086718
 20
625.1188635329341
 30
0.0
 10
40.31430079502816
 20
625.1730313039474
 30
0.0
  0
ARC
  5
148
330
7E
100
AcDbEntity
  8
DV1_Default
  6
Continuous
 62
     7
100
AcDbCircle
 10
38.0721118885
 20
624.7418006086
 30
0.0
 40
0.8565990535759963
100
AcDbArc
 50
83.1256411081
 51
105.6623865906
  0
ARC
  5
149
330
7E
100
AcDbEntity
  8
DV1_Default
  6
Continuous
 62
     7
100
AcDbCircle
 10
38.1283688035
 20
625.0828498209
 30
0.0
 40
0.5115547001588117
100
AcDbArc
 50
55.4069844228
 51
85.0185171964
  0
ARC
  5
14A
330
7E
100
AcDbEntity
  8
DV1_Default
  6
Continuous
 62
     7
100
AcDbCircle
 10
38.2612400778
 20
626.4907180049
 30
0.0
 40
1.963071077259461
100
AcDbArc
 50
242.959219839
 51
264.7904230528
  0
ARC
  5
14B
330
7E
100
AcDbEntity
  8
DV1_Default
  6
Continuous
 62
     7
100
AcDbCircle
 10
38.0816331933
 20
625.0775370321
 30
0.0
 40
0.5439264547317378
100
AcDbArc
 50
2.1751604131
 51
52.1007949598
  0
SPLINE
  5
14C
330
7E
100
AcDbEntity
  8
DV1_Default
  6
Continuous
 62
     7
100
AcDbSpline
210
0.0
220
0.0
230
1.0
 70
     8
 71
     3
 72
     8
 73
     4
 74
     0
 42
0.000000001
 43
0.0000000001
 40
0.0
 40
0.0
 40
0.0
 40
0.0
 40
0.9999999999999999
 40
0.9999999999999999
 40
0.9999999999999999
 40
0.9999999999999999
 10
36.05834091310612
 20
624.789450288824
 30
0.0
 10
36.06834658397366
 20
624.7909004694511
 30
0.0
 10
36.07813669645285
 20
624.7923510702607
 30
0.0
 10
36.08787249824704
 20
624.793891871935
 30
0.0
  0
SPLINE
  5
14D
330
7E
100
AcDbEntity
  8
DV1_Default
  6
Continuous
 62
     7
100
AcDbSpline
210
0.0
220
0.0
230
1.0
 70
     8
 71
     3
 72
    13
 73
     9
 74
     0
 42
0.000000001
 43
0.0000000001
 40
0.0
 40
0.0
 40
0.0
 40
0.0
 40
0.1017086997534369
 40
0.2521287387269312
 40
0.3655103152101333
 40
0.6184523213555448
 40
0.7952057749232304
 40
0.9999999999999999
 40
0.9999999999999999
 40
0.9999999999999999
 40
0.9999999999999999
 10
36.11662211747691
 20
624.798790391336
 30
0.0
 10
36.14930389041206
 20
624.804820361087
 30
0.0
 10
36.2332075673341
 20
624.8247066807493
 30
0.0
 10
36.41874034735966
 20
624.9010822506254
 30
0.0
 10
36.70208307027435
 20
625.0372837671971
 30
0.0
 10
37.03891788115979
 20
625.2138649596342
 30
0.0
 10
37.45698730007564
 20
625.4298244901354
 30
0.0
 10
37.69140449155876
 20
625.5138966245012
 30
0.0
 10
37.83822804335358
 20
625.5664031279466
 30
0.0
  0
ARC
  5
14E
330
7E
100
AcDbEntity
  8
DV1_Default
  6
Continuous
 62
     7
100
AcDbCircle
 10
35.1108882512
 20
624.780088186
 30
0.0
 40
1.079374987642994
100
AcDbArc
 50
86.5118544287
 51
107.1643355833
  0
ARC
  5
14F
330
7E
100
AcDbEntity
  8
DV1_Default
  6
Continuous
 62
     7
100
AcDbCircle
 10
35.1454342609
 20
625.0043980746
 30
0.0
 40
0.8536792118014099
100
AcDbArc
 50
64.3853734773
 51
88.0636974451
  0
ARC
  5
150
330
7E
100
AcDbEntity
  8
DV1_Default
  6
Continuous
 62
     7
100
AcDbCircle
 10
36.0058746598
 20
626.8395738891
 30
0.0
 40
2.028643513676137
100
AcDbArc
 50
245.8842682771
 51
256.8756091128
  0
SPLINE
  5
151
330
7E
100
AcDbEntity
  8
DV1_Default
  6
Continuous
 62
     7
100
AcDbSpline
210
0.0
220
0.0
230
1.0
 70
     8
 71
     3
 72
    11
 73
     7
 74
     0
 42
0.000000001
 43
0.0000000001
 40
0.0
 40
0.0
 40
0.0
 40
0.0
 40
0.3191955128969143
 40
0.5962532705621039
 40
0.823569077791315
 40
1.0
 40
1.0
 40
1.0
 40
1.0
 10
35.50054755931578
 20
625.7813089073151
 30
0.0
 10
35.60987652251696
 20
625.710480921821
 30
0.0
 10
35.78116524452694
 20
625.5976878957772
 30
0.0
 10
35.93098129006241
 20
625.3938516019722
 30
0.0
 10
35.99671553321464
 20
625.2471034864218
 30
0.0
 10
36.00272361950923
 20
625.1935269840085
 30
0.0
 10
36.00475579324637
 20
625.1665818281153
 30
0.0
  0
ARC
  5
152
330
7E
100
AcDbEntity
  8
DV1_Default
  6
Continuous
 62
     7
100
AcDbCircle
 10
34.2505109324
 20
623.99455419
 30
0.0
 40
1.238748260151595
100
AcDbArc
 50
86.8664368955
 51
118.6307567128
  0
ARC
  5
153
330
7E
100
AcDbEntity
  8
DV1_Default
  6
Continuous
 62
     7
100
AcDbCircle
 10
30.7399589063
 20
630.2594552896
 30
0.0
 40
5.943387819250823
100
AcDbArc
 50
296.6637016641
 51
299.5553624269
  0
ARC
  5
154
330
7E
100
AcDbEntity
  8
DV1_Default
  6
Continuous
 62
     7
100
AcDbCircle
 10
36.495956724
 20
621.5620836746
 30
0.0
 40
4.578174901028269
100
AcDbArc
 50
111.8233395746
 51
132.1544330794
  0
ARC
  5
155
330
7E
100
AcDbEntity
  8
DV1_Default
  6
Continuous
 62
     7
100
AcDbCircle
 10
31.8374301213
 20
624.8751114361
 30
0.0
 40
1.073908320746347
100
AcDbArc
 50
89.3293433902
 51
110.3285828292
  0
ARC
  5
156
330
7E
100
AcDbEntity
  8
DV1_Default
  6
Continuous
 62
     7
100
AcDbCircle
 10
31.8622538303
 20
624.8737380393
 30
0.0
 40
1.075305922234659
100
AcDbArc
 50
69.6818297035
 51
90.7813313582
  0
SPLINE
  5
157
330
7E
100
AcDbEntity
  8
DV1_Default
  6
Continuous
 62
     7
100
AcDbSpline
210
0.0
220
0.0
230
1.0
 70
     8
 71
     3
 72
    10
 73
     6
 74
     0
 42
0.000000001
 43
0.0000000001
 40
0.0
 40
0.0
 40
0.0
 40
0.0
 40
0.3954997245547484
 40
0.802575656655295
 40
1.0
 40
1.0
 40
1.0
 40
1.0
 10
32.65229668958456
 20
625.1052672966056
 30
0.0
 10
32.73486671437203
 20
625.070475025599
 30
0.0
 10
32.87280415207083
 20
625.0141985710858
 30
0.0
 10
33.0406171225877
 20
624.956968950054
 30
0.0
 10
33.10017966529058
 20
624.9541951656931
 30
0.0
 10
33.12271387970463
 20
624.9533067446168
 30
0.0
  0
SPLINE
  5
158
330
7E
100
AcDbEntity
  8
DV1_Default
  6
Continuous
 62
     7
100
AcDbSpline
210
0.0
220
0.0
230
1.0
 70
     8
 71
     3
 72
    12
 73
     8
 74
     0
 42
0.000000001
 43
0.0000000001
 40
0.0
 40
0.0
 40
0.0
 40
0.0
 40
0.2439576180117516
 40
0.4951468036195174
 40
0.7478607520832081
 40
0.8743345799084711
 40
1.0
 40
1.0
 40
1.0
 40
1.0
 10
32.21668615646889
 20
625.8894756859692
 30
0.0
 10
32.36344536867794
 20
625.8177155282516
 30
0.0
 10
32.6156018300338
 20
625.6929417335867
 30
0.0
 10
32.920312461008
 20
625.4198107043736
 30
0.0
 10
33.08186997819636
 20
625.2216687855317
 30
0.0
 10
33.13767192499866
 20
625.0990072299161
 30
0.0
 10
33.13059009789829
 20
625.0664775485737
 30
0.0
 10
33.12534237278288
 20
625.0481187971264
 30
0.0
  0
SPLINE
  5
159
330
7E
100
AcDbEntity
  8
DV1_Default
  6
Continuous
 62
     7
100
AcDbSpline
210
0.0
220
0.0
230
1.0
 70
     8
 71
     3
 72
    12
 73
     8
 74
     0
 42
0.000000001
 43
0.0000000001
 40
0.0
 40
0.0
 40
0.0
 40
0.0
 40
0.1256171832374484
 40
0.2520610625104437
 40
0.5046438720990737
 40
0.7557279053659909
 40
1.0
 40
1.0
 40
1.0
 40
1.0
 10
30.5753195921693
 20
625.0468618903913
 30
0.0
 10
30.56959094581848
 20
625.0647091899461
 30
0.0
 10
30.5616730292646
 20
625.0963682345616
 30
0.0
 10
30.61499941047258
 20
625.2169590205258
 30
0.0
 10
30.77306754897629
 20
625.412972350833
 30
0.0
 10
31.07343383105505
 20
625.684410896054
 30
0.0
 10
31.32234449546466
 20
625.810660286255
 30
0.0
 10
31.46743547853522
 20
625.8833909817063
 30
0.0
  0
SPLINE
  5
15A
330
7E
100
AcDbEntity
  8
DV1_Default
  6
Continuous
 62
     7
100
AcDbSpline
210
0.0
220
0.0
230
1.0
 70
     8
 71
     3
 72
    10
 73
     6
 74
     0
 42
0.000000001
 43
0.0000000001
 40
0.0
 40
0.0
 40
0.0
 40
0.0
 40
0.2214315122039627
 40
0.6163203429463968
 40
1.0
 40
1.0
 40
1.0
 40
1.0
 10
30.56893355497181
 20
624.9524304543633
 30
0.0
 10
30.59481866008051
 20
624.9534637571329
 30
0.0
 10
30.65705690595394
 20
624.9564734960047
 30
0.0
 10
30.82806443256008
 20
625.0144671976996
 30
0.0
 10
30.96546233480624
 20
625.0706102059553
 30
0.0
 10
31.04753351225462
 20
625.1051725083873
 30
0.0
  0
ARC
  5
15B
330
7E
100
AcDbEntity
  8
DV1_Default
  6
Continuous
 62
     7
100
AcDbCircle
 10
28.5540313647
 20
625.0061065009
 30
0.0
 40
0.8519064635940616
100
AcDbArc
 50
92.0578340523
 51
115.6339990155
  0
ARC
  5
15C
330
7E
100
AcDbEntity
  8
DV1_Default
  6
Continuous
 62
     7
100
AcDbCircle
 10
28.5890148951
 20
624.7795293025
 30
0.0
 40
1.079937204376424
100
AcDbArc
 50
72.839339155
 51
93.6002196809
  0
ARC
  5
15D
330
7E
100
AcDbEntity
  8
DV1_Default
  6
Continuous
 62
     7
100
AcDbCircle
 10
32.0574692771
 20
628.5708959693
 30
0.0
 40
4.029077158781783
100
AcDbArc
 50
239.9138840822
 51
244.0722439841
  0
ARC
  5
15E
330
7E
100
AcDbEntity
  8
DV1_Default
  6
Continuous
 62
     7
100
AcDbCircle
 10
27.1833719919
 20
621.5280528024
 30
0.0
 40
4.616104440507282
100
AcDbArc
 50
47.9629103124
 51
68.3121411137
  0
ARC
  5
15F
330
7E
100
AcDbEntity
  8
DV1_Default
  6
Continuous
 62
     7
100
AcDbCircle
 10
30.3562719294
 20
625.162890666
 30
0.0
 40
0.2234934983255647
100
AcDbArc
 50
251.692876476
 51
265.7497617724
  0
ARC
  5
160
330
7E
100
AcDbEntity
  8
DV1_Default
  6
Continuous
 62
     7
100
AcDbCircle
 10
29.4494740487
 20
623.9944881469
 30
0.0
 40
1.238813494679327
100
AcDbArc
 50
61.3700376542
 51
93.1325295403
  0
ARC
  5
161
330
7E
100
AcDbEntity
  8
DV1_Default
  6
Continuous
 62
     7
100
AcDbCircle
 10
27.456398187
 20
627.5261221024
 30
0.0
 40
2.753544227671122
100
AcDbArc
 50
285.515707277
 51
293.1624852446
  0
SPLINE
  5
162
330
7E
100
AcDbEntity
  8
DV1_Default
  6
Continuous
 62
     7
100
AcDbSpline
210
0.0
220
0.0
230
1.0
 70
     8
 71
     3
 72
    11
 73
     7
 74
     0
 42
0.000000001
 43
0.0000000001
 40
0.0
 40
0.0
 40
0.0
 40
0.0
 40
0.1716976601944408
 40
0.3972012959781412
 40
0.6756939429732535
 40
1.0
 40
1.0
 40
1.0
 40
1.0
 10
27.69523954931197
 20
625.1683977117053
 30
0.0
 10
27.69720635897142
 20
625.1937227387587
 30
0.0
 10
27.70300825323736
 20
625.2446305884635
 30
0.0
 10
27.76517896374448
 20
625.3873991377792
 30
0.0
 10
27.91054084012108
 20
625.5888140234138
 30
0.0
 10
28.07843381053263
 20
625.7026656652426
 30
0.0
 10
28.18622477131366
 20
625.7745653507891
 30
0.0
  0
ARC
  5
163
330
7E
100
AcDbEntity
  8
DV1_Default
  6
Continuous
 62
     7
100
AcDbCircle
 10
25.5710052787
 20
625.0841900244
 30
0.0
 40
0.5100979710663062
100
AcDbArc
 50
95.1338483231
 51
124.6179458695
  0
ARC
  5
164
330
7E
100
AcDbEntity
  8
DV1_Default
  6
Continuous
 62
     7
100
AcDbCircle
 10
25.6279384275
 20
624.7421539503
 30
0.0
 40
0.8562453373821074
100
AcDbArc
 50
74.3345644036
 51
97.000678246
  0
SPLINE
  5
165
330
7E
100
AcDbEntity
  8
DV1_Default
  6
Continuous
 62
     7
100
AcDbSpline
210
0.0
220
0.0
230
1.0
 70
     8
 71
     3
 72
     8
 73
     4
 74
     0
 42
0.000000001
 43
0.0000000001
 40
0.0
 40
0.0
 40
0.0
 40
0.0
 40
0.9999999999999999
 40
0.9999999999999999
 40
0.9999999999999999
 40
0.9999999999999999
 10
27.64545644164941
 20
624.7870994063162
 30
0.0
 10
27.65495576282896
 20
624.7824992164427
 30
0.0
 10
27.6674333543293
 20
624.7824284770496
 30
0.0
 10
27.68288921615042
 20
624.7868871881367
 30
0.0
  0
SPLINE
  5
166
330
7E
100
AcDbEntity
  8
DV1_Default
  6
Continuous
 62
     7
100
AcDbSpline
210
0.0
220
0.0
230
1.0
 70
     8
 71
     3
 72
    13
 73
     9
 74
     0
 42
0.000000001
 43
0.0000000001
 40
0.0
 40
0.0
 40
0.0
 40
0.0
 40
0.1906833928172552
 40
0.3555118828706439
 40
0.5914266288105398
 40
0.6971349883289557
 40
0.8372642109948054
 40
1.0
 40
1.0
 40
1.0
 40
1.0
 10
25.84609130645092
 20
625.5707262889828
 30
0.0
 10
25.99248551156878
 20
625.5196812101465
 30
0.0
 10
26.22648129673011
 20
625.4378026783107
 30
0.0
 10
26.6444416270261
 20
625.2226204617981
 30
0.0
 10
26.98209157619348
 20
625.0454687089302
 30
0.0
 10
27.2672998127672
 20
624.9073722647364
 30
0.0
 10
27.49086088840331
 20
624.8140742977455
 30
0.0
 10
27.58710978893965
 20
624.7965889406281
 30
0.0
 10
27.64545644164941
 20
624.7870994063162
 30
0.0
  0
ARC
  5
167
330
7E
100
AcDbEntity
  8
DV1_Default
  6
Continuous
 62
     7
100
AcDbCircle
 10
25.4496129148
 20
626.4929055519
 30
0.0
 40
1.961419704482266
100
AcDbArc
 50
276.3715452863
 51
297.2881140061
  0
ARC
  5
168
330
7E
100
AcDbEntity
  8
DV1_Default
  6
Continuous
 62
     7
100
AcDbCircle
 10
25.6196062494
 20
625.0767217299
 30
0.0
 40
0.5453693711572384
100
AcDbArc
 50
127.9848712047
 51
177.3525452563
  0
LINE
  5
169
330
7E
100
AcDbEntity
  8
DV1_Default
  6
Continuous
 62
     7
100
AcDbLine
 10
23.0392740198
 20
625.1137625865
 30
0.0
 11
23.1543318424
 21
625.1807245896
 31
0.0
  0
ARC
  5
16A
330
7E
100
AcDbEntity
  8
DV1_Default
  6
Continuous
 62
     7
100
AcDbCircle
 10
23.2524359393
 20
624.7050874651
 30
0.0
 40
0.4856180375599311
100
AcDbArc
 50
73.7404610682
 51
101.78216035
  0
SPLINE
  5
16B
330
7E
100
AcDbEntity
  8
DV1_Default
  6
Continuous
 62
     7
100
AcDbSpline
210
0.0
220
0.0
230
1.0
 70
     8
 71
     3
 72
    12
 73
     8
 74
     0
 42
0.000000001
 43
0.0000000001
 40
0.0
 40
0.0
 40
0.0
 40
0.0
 40
0.2382562706374667
 40
0.4431780519331284
 40
0.7326975207133527
 40
0.869804155517835
 40
1.0
 40
1.0
 40
1.0
 40
1.0
 10
23.38591380929123
 20
625.1730186587836
 30
0.0
 10
23.51570863166197
 20
625.1285700345991
 30
0.0
 10
23.72422758208785
 20
625.0575936319527
 30
0.0
 10
24.1417044211861
 20
624.8622789459686
 30
0.0
 10
24.50978322135171
 20
624.7054233744544
 30
0.0
 10
24.84082973657419
 20
624.586500886599
 30
0.0
 10
24.97843067869838
 20
624.5577755082564
 30
0.0
 10
25.05680591240343
 20
624.5417251467753
 30
0.0
  0
ARC
  5
16C
330
7E
100
AcDbEntity
  8
DV1_Default
  6
Continuous
 62
     7
100
AcDbCircle
 10
23.4793074307
 20
626.6624981382
 30
0.0
 40
2.571869592174033
100
AcDbArc
 50
284.1408944661
 51
298.4061855576
  0
LINE
  5
16D
330
7E
100
AcDbEntity
  8
DV1_Default
  6
Continuous
 62
     7
100
AcDbLine
 10
22.9951934985
 20
624.9494211869
 30
0.0
 11
23.0260128641
 21
625.0993252464
 31
0.0
  0
ENDBLK
  5
16F
330
7E
100
AcDbEntity
  8
0
100
AcDbBlockEnd
  0
BLOCK
  5
1E3
330
170
100
AcDbEntity
  8
0
100
AcDbBlockBegin
  2
SE1
 70
     0
 10
0.0
 20
0.0
 30
0.0
  3
SE1
  1
SE1
  0
LINE
  5
173
330
170
100
AcDbEntity
  8
DV2_Default
  6
Continuous
 62
     7
100
AcDbLine
 10
247.2482851892
 20
546.2838885404
 30
0.0
 11
196.2482851892
 21
546.2838885404
 31
0.0
  0
LINE
  5
174
330
170
100
AcDbEntity
  8
DV2_Default
  6
Continuous
 62
     7
100
AcDbLine
 10
247.2482851892
 20
436.2838885404
 30
0.0
 11
196.2482851892
 21
436.2838885404
 31
0.0
  0
LINE
  5
175
330
170
100
AcDbEntity
  8
DV2_Default
  6
Continuous
 62
     7
100
AcDbLine
 10
196.2482851892
 20
546.2838885404
 30
0.0
 11
196.2482851892
 21
436.2838885404
 31
0.0
  0
LINE
  5
176
330
170
100
AcDbEntity
  8
DV2_Default
  6
Continuous
 62
     7
100
AcDbLine
 10
247.2482851892
 20
436.2838885404
 30
0.0
 11
247.2482851892
 21
546.2838885404
 31
0.0
  0
ARC
  5
177
330
170
100
AcDbEntity
  8
DV2_Default
  6
Continuous
 62
     7
100
AcDbCircle
 10
325.7482851892
 20
699.0692998651
 30
0.0
 40
90.00000000000003
100
AcDbArc
 50
10.0
 51
90.0
  0
ARC
  5
178
330
170
100
AcDbEntity
  8
DV2_Default
  6
Continuous
 62
     7
100
AcDbCircle
 10
325.7482851892
 20
699.0692998651
 30
0.0
 40
118.0000000000005
100
AcDbArc
 50
10.0
 51
90.0
  0
LINE
  5
179
330
170
100
AcDbEntity
  8
DV2_Default
  6
Continuous
 62
     7
100
AcDbLine
 10
432.1894128709
 20
694.4795106176
 30
0.0
 11
445.9500929583
 21
696.9058897899
 31
0.0
  0
LINE
  5
17A
330
170
100
AcDbEntity
  8
DV2_Default
  6
Continuous
 62
     7
100
AcDbLine
 10
432.1627844161
 20
694.4748153025
 30
0.0
 11
432.1894128709
 21
694.4795106176
 31
0.0
  0
LINE
  5
17B
330
170
100
AcDbEntity
  8
DV2_Default
  6
Continuous
 62
     7
100
AcDbLine
 10
418.375475874
 20
692.0437408152
 30
0.0
 11
432.1627844161
 21
694.4748153025
 31
0.0
  0
LINE
  5
17C
330
170
100
AcDbEntity
  8
DV2_Default
  6
Continuous
 62
     7
100
AcDbLine
 10
414.3809829603
 20
714.6976358551
 30
0.0
 11
418.375475874
 21
692.0437408152
 31
0.0
  0
LINE
  5
17D
330
170
100
AcDbEntity
  8
DV2_Default
  6
Continuous
 62
     7
100
AcDbLine
 10
445.9500929583
 20
696.9058897899
 30
0.0
 11
441.9556000446
 21
719.5597848298
 31
0.0
  0
ARC
  5
17E
330
170
100
AcDbEntity
  8
DV2_Default
  6
Continuous
 62
     7
100
AcDbCircle
 10
325.7482851892
 20
699.0692998651
 30
0.0
 40
118.0
100
AcDbArc
 50
90.0
 51
180.0
  0
ARC
  5
17F
330
170
100
AcDbEntity
  8
DV2_Default
  6
Continuous
 62
     7
100
AcDbCircle
 10
325.7482851892
 20
699.0692998651
 30
0.0
 40
90.0
100
AcDbArc
 50
90.0
 51
180.0
  0
LINE
  5
180
330
170
100
AcDbEntity
  8
DV2_Default
  6
Continuous
 62
     7
100
AcDbLine
 10
207.7482851892
 20
699.0692998651
 30
0.0
 11
207.7482851892
 21
546.2838885404
 31
0.0
  0
LINE
  5
181
330
170
100
AcDbEntity
  8
DV2_Default
  6
Continuous
 62
     7
100
AcDbLine
 10
235.7482851892
 20
546.2838885404
 30
0.0
 11
235.7482851892
 21
699.0692998651
 31
0.0
  0
LINE
  5
182
330
170
100
AcDbEntity
  8
DV2_Default
  6
Continuous
 62
     7
100
AcDbLine
 10
270.8271567448
 20
566.8876218187
 30
0.0
 11
262.3466757832
 21
572.1868144611
 31
0.0
  0
LINE
  5
183
330
170
100
AcDbEntity
  8
DV2_Default
  6
Continuous
 62
     7
100
AcDbLine
 10
247.2482851892
 20
529.1535395125
 30
0.0
 11
270.8271567448
 21
566.8876218187
 31
0.0
  0
LINE
  5
184
330
170
100
AcDbEntity
  8
DV2_Default
  6
Continuous
 62
     7
100
AcDbLine
 10
262.3466757832
 20
572.1868144611
 30
0.0
 11
246.1607312506
 21
546.2838885404
 31
0.0
  0
LINE
  5
185
330
170
100
AcDbEntity
  8
DV2_Default
  6
Continuous
 62
     7
100
AcDbLine
 10
430.5655779462
 20
622.9102365537
 30
0.0
 11
458.1401950305
 21
627.7723855284
 31
0.0
  0
LINE
  5
186
330
170
100
AcDbEntity
  8
DV2_Default
  6
Continuous
 62
     7
100
AcDbLine
 10
418.4102055095
 20
691.8467792646
 30
0.0
 11
445.9848225938
 21
696.7089282393
 31
0.0
  0
ARC
  5
187
330
170
100
AcDbEntity
  8
DV2_Default
  6
Continuous
 62
     7
100
AcDbCircle
 10
466.6495241542
 20
663.3237014872
 30
0.0
 40
16.62353949584507
100
AcDbArc
 50
192.5292334075
 51
218.898890208
  0
LINE
  5
188
330
170
100
AcDbEntity
  8
DV2_Default
  6
Continuous
 62
     7
100
AcDbLine
 10
447.330929235
 20
677.2470068884
 30
0.0
 11
450.4218667975
 21
659.7174288848
 31
0.0
  0
ARC
  5
189
330
170
100
AcDbEntity
  8
DV2_Default
  6
Continuous
 62
     7
100
AcDbCircle
 10
463.8133569781
 20
679.4084048303
 30
0.0
 40
16.62353949584551
100
AcDbArc
 50
161.1011097916
 51
187.4707665921
  0
LINE
  5
18A
330
170
100
AcDbEntity
  8
DV2_Default
  6
Continuous
 62
     7
100
AcDbLine
 10
448.0899606017
 20
684.7700973273
 30
0.0
 11
445.9848225938
 21
696.7089282393
 31
0.0
  0
LINE
  5
18B
330
170
100
AcDbEntity
  8
DV2_Default
  6
Continuous
 62
     7
100
AcDbLine
 10
458.1401950305
 20
627.7723855284
 30
0.0
 11
453.7081714419
 21
652.9076403307
 31
0.0
  0
LINE
  5
18C
330
170
100
AcDbEntity
  8
DV2_Default
  6
Continuous
 62
     7
100
AcDbLine
 10
418.4102055095
 20
691.8467792646
 30
0.0
 11
430.5655779462
 21
622.9102365537
 31
0.0
  0
LINE
  5
18D
330
170
100
AcDbEntity
  8
DV2_Default
  6
Continuous
 62
     7
100
AcDbLine
 10
421.9482626941
 20
692.6737195279
 30
0.0
 11
421.9829923296
 21
692.4767579773
 31
0.0
  0
LINE
  5
18E
330
170
100
AcDbEntity
  8
DV2_Default
  6
Continuous
 62
     7
100
AcDbLine
 10
419.7432692402
 20
692.2849196897
 30
0.0
 11
419.7779988757
 21
692.0879581391
 31
0.0
  0
LINE
  5
18F
330
170
100
AcDbEntity
  8
DV2_Default
  6
Continuous
 62
     7
100
AcDbLine
 10
442.5182993032
 20
696.0976866539
 30
0.0
 11
442.4835696677
 21
696.2946482045
 31
0.0
  0
LINE
  5
190
330
170
100
AcDbEntity
  8
DV2_Default
  6
Continuous
 62
     7
100
AcDbLine
 10
419.6557259529
 20
692.2694834461
 30
0.0
 11
419.6904555884
 21
692.0725218955
 31
0.0
  0
ARC
  5
191
330
170
100
AcDbEntity
  8
DV2_Default
  6
Continuous
 62
     7
100
AcDbCircle
 10
470.6526804397
 20
663.4304812015
 30
0.0
 40
20.46144593508771
100
AcDbArc
 50
190.4021059989
 51
197.5553422856
  0
ARC
  5
192
330
170
100
AcDbEntity
  8
DV2_Default
  6
Continuous
 62
     7
100
AcDbCircle
 10
468.7227360355
 20
679.8582952751
 30
0.0
 40
21.42140346989501
100
AcDbArc
 50
171.621241315
 51
188.083538664
  0
LINE
  5
193
330
170
100
AcDbEntity
  8
DV2_Default
  6
Continuous
 62
     7
100
AcDbLine
 10
453.5297259072
 20
654.495532296
 30
0.0
 11
448.5811518288
 21
682.5602904998
 31
0.0
  0
ARC
  5
194
330
170
100
AcDbEntity
  8
DV2_Default
  6
Continuous
 62
     7
100
AcDbCircle
 10
452.5432066866
 20
654.3315962379
 30
0.0
 40
0.9999991595557102
100
AcDbArc
 50
311.3830537489
 51
9.9996577159
  0
ARC
  5
195
330
170
100
AcDbEntity
  8
DV2_Default
  6
Continuous
 62
     7
100
AcDbCircle
 10
447.5971952421
 20
682.3818199137
 30
0.0
 40
0.9999993707185263
100
AcDbArc
 50
9.5564215758
 51
91.036495344
  0
ARC
  5
196
330
170
100
AcDbEntity
  8
DV2_Default
  6
Continuous
 62
     7
100
AcDbCircle
 10
436.019837765
 20
625.0978452207
 30
0.0
 40
3.60654790164411
100
AcDbArc
 50
232.7827056729
 51
233.9830037803
  0
ARC
  5
197
330
170
100
AcDbEntity
  8
DV2_Default
  6
Continuous
 62
     7
100
AcDbCircle
 10
435.185131748
 20
623.8137513683
 30
0.0
 40
2.078627408599212
100
AcDbArc
 50
231.7791467423
 51
271.3951540942
  0
SPLINE
  5
198
330
170
100
AcDbEntity
  8
DV2_Default
  6
Continuous
 62
     7
100
AcDbSpline
210
0.0
220
0.0
230
1.0
 70
     8
 71
     3
 72
    13
 73
     9
 74
     0
 42
0.000000001
 43
0.0000000001
 40
0.0
 40
0.0
 40
0.0
 40
0.0
 40
0.1774190888713215
 40
0.439284902596184
 40
0.7034169704599013
 40
0.8159674642361473
 40
0.9308758590853715
 40
1.0
 40
1.0
 40
1.0
 40
1.0
 10
436.0553384084032
 20
621.8954905167021
 30
0.0
 10
435.9487198159805
 20
621.852173954053
 30
0.0
 10
435.6737634544852
 20
621.7642027025269
 30
0.0
 10
435.2265498375651
 20
621.7252625458381
 30
0.0
 10
434.8788963371846
 20
621.7948193215029
 30
0.0
 10
434.6622842356116
 20
621.8852058753586
 30
0.0
 10
434.5507172480542
 20
621.9498788563646
 30
0.0
 10
434.4915034576209
 20
621.9934174706134
 30
0.0
 10
434.4707949806568
 20
622.0100578993746
 30
0.0
  0
SPLINE
  5
199
330
170
100
AcDbEntity
  8
DV2_Default
  6
Continuous
 62
     7
100
AcDbSpline
210
0.0
220
0.0
230
1.0
 70
     8
 71
     3
 72
    18
 73
    14
 74
     0
 42
0.000000001
 43
0.0000000001
 40
0.0
 40
0.0
 40
0.0
 40
0.0
 40
0.0493480634645309
 40
0.1007289390443156
 40
0.1543866253183214
 40
0.2448629638004017
 40
0.3387005212097814
 40
0.4493853026127003
 40
0.5584657663923208
 40
0.6744758761541604
 40
0.7853233399940429
 40
0.9733718905965972
 40
1.0
 40
1.0
 40
1.0
 40
1.0
 10
434.5564621266047
 20
622.2966269124015
 30
0.0
 10
434.5802280649006
 20
622.2880015262665
 30
0.0
 10
434.628738940134
 20
622.2703954454303
 30
0.0
 10
434.710661401169
 20
622.2384581677917
 30
0.0
 10
434.8205797799888
 20
622.1952603458026
 30
0.0
 10
434.9645178224538
 20
622.1398585065125
 30
0.0
 10
435.1561773801175
 20
622.0719554707831
 30
0.0
 10
435.373208510055
 20
622.0057858685266
 30
0.0
 10
435.6174241029967
 20
621.9473411962581
 30
0.0
 10
435.8695467660991
 20
621.9071980464975
 30
0.0
 10
436.1816123481389
 20
621.8866811779642
 30
0.0
 10
436.418077555903
 20
621.9066724199654
 30
0.0
 10
436.5587093985296
 20
621.938020432064
 30
0.0
 10
436.5759034704415
 20
621.9421773631618
 30
0.0
  0
SPLINE
  5
19A
330
170
100
AcDbEntity
  8
DV2_Default
  6
Continuous
 62
     7
100
AcDbSpline
210
0.0
220
0.0
230
1.0
 70
     8
 71
     3
 72
    16
 73
    12
 74
     0
 42
0.000000001
 43
0.0000000001
 40
0.0
 40
0.0
 40
0.0
 40
0.0
 40
0.0429340466358344
 40
0.0860551131745656
 40
0.1294817980353734
 40
0.2081093699101747
 40
0.2866482687196195
 40
0.4794825183540647
 40
0.6976921950387276
 40
0.9177903144173976
 40
0.9999999999999999
 40
0.9999999999999999
 40
0.9999999999999999
 40
0.9999999999999999
 10
437.6008976960844
 20
622.432164373097
 30
0.0
 10
437.5740598843985
 20
622.4133926493671
 30
0.0
 10
437.5202673560218
 20
622.3757674326306
 30
0.0
 10
437.4371187102413
 20
622.3202894665703
 30
0.0
 10
437.3290545124521
 20
622.25150618455
 30
0.0
 10
437.194073456822
 20
622.1726109071714
 30
0.0
 10
436.9526167814247
 20
622.0500403060015
 30
0.0
 10
436.6029226368001
 20
621.9249745933424
 30
0.0
 10
436.1882234701979
 20
621.894831553907
 30
0.0
 10
435.9323853571912
 20
621.9777306658831
 30
0.0
 10
435.8264343960631
 20
622.053182391973
 30
0.0
 10
435.8007980982521
 20
622.0752976989315
 30
0.0
  0
SPLINE
  5
19B
330
170
100
AcDbEntity
  8
DV2_Default
  6
Continuous
 62
     7
100
AcDbSpline
210
0.0
220
0.0
230
1.0
 70
     8
 71
     3
 72
    18
 73
    14
 74
     0
 42
0.000000001
 43
0.0000000001
 40
0.0
 40
0.0
 40
0.0
 40
0.0
 40
0.0485729552874737
 40
0.0991448346231982
 40
0.1519490306901407
 40
0.2413387728784187
 40
0.3342782523990341
 40
0.4465160862128413
 40
0.5576172887936707
 40
0.67682505762868
 40
0.7905876947596127
 40
0.9767374318372838
 40
1.0
 40
1.0
 40
1.0
 40
1.0
 10
436.1948211806123
 20
622.58551381771
 30
0.0
 10
436.2253916024167
 20
622.5783002612325
 30
0.0
 10
436.2877905113617
 20
622.5635762886072
 30
0.0
 10
436.3878532253238
 20
622.5356770220958
 30
0.0
 10
436.5180068351462
 20
622.4970886928048
 30
0.0
 10
436.6818799561163
 20
622.4462983445958
 30
0.0
 10
436.8927081483195
 20
622.3819607035583
 30
0.0
 10
437.1236718978276
 20
622.3171177561344
 30
0.0
 10
437.3749099782297
 20
622.2575964577145
 30
0.0
 10
437.6235997470945
 20
622.2148929134102
 30
0.0
 10
437.9113457924376
 20
622.190346337192
 30
0.0
 10
438.1088111167967
 20
622.2048187219805
 30
0.0
 10
438.2162128192363
 20
622.2303938653491
 30
0.0
 10
438.2278848242852
 20
622.2334281604851
 30
0.0
  0
SPLINE
  5
19C
330
170
100
AcDbEntity
  8
DV2_Default
  6
Continuous
 62
     7
100
AcDbSpline
210
0.0
220
0.0
230
1.0
 70
     8
 71
     3
 72
    15
 73
    11
 74
     0
 42
0.000000001
 43
0.0000000001
 40
0.0
 40
0.0
 40
0.0
 40
0.0
 40
0.0513695832501734
 40
0.1029629314506045
 40
0.1549219448377374
 40
0.2489979967295606
 40
0.3429679533975682
 40
0.5736896257707778
 40
0.834772403482404
 40
1.0
 40
1.0
 40
1.0
 40
1.0
 10
439.2050361340094
 20
622.7150172604947
 30
0.0
 10
439.1776644126269
 20
622.6961513940821
 30
0.0
 10
439.122801739152
 20
622.6583374818933
 30
0.0
 10
439.0402554339586
 20
622.6029657247294
 30
0.0
 10
438.9350628215721
 20
622.5346887806946
 30
0.0
 10
438.8074784011677
 20
622.4570977296701
 30
0.0
 10
438.5877487536155
 20
622.3383581897185
 30
0.0
 10
438.2906870820341
 20
622.2225730021175
 30
0.0
 10
438.0227203369827
 20
622.2127185948649
 30
0.0
 10
437.9074541655704
 20
622.2681653142456
 30
0.0
 10
437.8718849685189
 20
622.2967339665714
 30
0.0
  0
SPLINE
  5
19D
330
170
100
AcDbEntity
  8
DV2_Default
  6
Continuous
 62
     7
100
AcDbSpline
210
0.0
220
0.0
230
1.0
 70
     8
 71
     3
 72
    17
 73
    13
 74
     0
 42
0.000000001
 43
0.0000000001
 40
0.0
 40
0.0
 40
0.0
 40
0.0
 40
0.0500946103960683
 40
0.1023118888143347
 40
0.1569076264390468
 40
0.2141036489572536
 40
0.3318810392029902
 40
0.4515977934526088
 40
0.5630235635871087
 40
0.6705375895573001
 40
0.866999215478149
 40
1.0
 40
1.0
 40
1.0
 40
1.0
 10
438.6537998288501
 20
623.0190980983712
 30
0.0
 10
438.689869609137
 20
623.012444529484
 30
0.0
 10
438.76353756106
 20
622.9988554588265
 30
0.0
 10
438.8777483353218
 20
622.9717409586632
 30
0.0
 10
438.9972647179623
 20
622.9402041848689
 30
0.0
 10
439.1642427886425
 20
622.8925790939185
 30
0.0
 10
439.3772246003313
 20
622.8283974436353
 30
0.0
 10
439.6225085306048
 20
622.7549852098899
 30
0.0
 10
439.8503301312883
 20
622.6933506602978
 30
0.0
 10
440.1104438532664
 20
622.6347118898283
 30
0.0
 10
440.3467454317665
 20
622.6070698137328
 30
0.0
 10
440.4726742004096
 20
622.6237356049367
 30
0.0
 10
440.5136757478997
 20
622.6364537740754
 30
0.0
  0
SPLINE
  5
19E
330
170
100
AcDbEntity
  8
DV2_Default
  6
Continuous
 62
     7
100
AcDbSpline
210
0.0
220
0.0
230
1.0
 70
     8
 71
     3
 72
    15
 73
    11
 74
     0
 42
0.000000001
 43
0.0000000001
 40
0.0
 40
0.0
 40
0.0
 40
0.0
 40
0.059470125753068
 40
0.1191993022678954
 40
0.179351806230614
 40
0.2882628442976903
 40
0.3970510568115712
 40
0.6641555572112261
 40
0.966408848749226
 40
0.9999999999999999
 40
0.9999999999999999
 40
0.9999999999999999
 40
0.9999999999999999
 10
441.3418506205497
 20
623.0917953072404
 30
0.0
 10
441.3168593405741
 20
623.0733491768735
 30
0.0
 10
441.2667679190717
 20
623.0363765651392
 30
0.0
 10
441.1935874181234
 20
622.9826562519601
 30
0.0
 10
441.1023958174857
 20
622.9168480640517
 30
0.0
 10
440.9956191469503
 20
622.8429259807382
 30
0.0
 10
440.8204642895816
 20
622.7320461789558
 30
0.0
 10
440.6061749385363
 20
622.630855984722
 30
0.0
 10
440.4876597720018
 20
622.6396013402939
 30
0.0
 10
440.4506590157018
 20
622.6734394053224
 30
0.0
 10
440.4472460068457
 20
622.6771009823632
 30
0.0
  0
SPLINE
  5
19F
330
170
100
AcDbEntity
  8
DV2_Default
  6
Continuous
 62
     7
100
AcDbSpline
210
0.0
220
0.0
230
1.0
 70
     8
 71
     3
 72
    18
 73
    14
 74
     0
 42
0.000000001
 43
0.0000000001
 40
0.0
 40
0.0
 40
0.0
 40
0.0
 40
0.0428525111065225
 40
0.0875028150810926
 40
0.1341660256515096
 40
0.1830289575610356
 40
0.2849313402134867
 40
0.3887653292389804
 40
0.4858182058273619
 40
0.5795663304220708
 40
0.7501641912863707
 40
0.8876556965981797
 40
0.9999999999999999
 40
0.9999999999999999
 40
0.9999999999999999
 40
0.9999999999999999
 10
441.6926961083118
 20
623.5549375040728
 30
0.0
 10
441.7296504572522
 20
623.5485651433056
 30
0.0
 10
441.8051095022016
 20
623.5355530819027
 30
0.0
 10
441.9186125679017
 20
623.5088357104268
 30
0.0
 10
442.0347723032247
 20
623.4773117541395
 30
0.0
 10
442.1941445064909
 20
623.4287373265063
 30
0.0
 10
442.3909249702542
 20
623.3616013519454
 30
0.0
 10
442.6060810900497
 20
623.2821647117918
 30
0.0
 10
442.7942856848804
 20
623.2126481599447
 30
0.0
 10
442.9929410862397
 20
623.1423868073756
 30
0.0
 10
443.155022267886
 20
623.0975866324377
 30
0.0
 10
443.226079896878
 20
623.108261888485
 30
0.0
 10
443.2181331510637
 20
623.1423950384856
 30
0.0
 10
443.2053500555053
 20
623.1622881651613
 30
0.0
  0
SPLINE
  5
1A0
330
170
100
AcDbEntity
  8
DV2_Default
  6
Continuous
 62
     7
100
AcDbSpline
210
0.0
220
0.0
230
1.0
 70
     8
 71
     3
 72
    13
 73
     9
 74
     0
 42
0.000000001
 43
0.0000000001
 40
0.0
 40
0.0
 40
0.0
 40
0.0
 40
0.090048913428115
 40
0.1804900782458599
 40
0.2715722401369288
 40
0.4364839586459294
 40
0.6012096962593808
 40
0.9999999999999999
 40
0.9999999999999999
 40
0.9999999999999999
 40
0.9999999999999999
 10
443.8021748657013
 20
623.5256168529509
 30
0.0
 10
443.7822453640492
 20
623.5080632506724
 30
0.0
 10
443.7422995482069
 20
623.4728795829512
 30
0.0
 10
443.6863315249855
 20
623.4221942940004
 30
0.0
 10
443.6188998458729
 20
623.3605756213169
 30
0.0
 10
443.5443052323157
 20
623.2923281029432
 30
0.0
 10
443.433073308972
 20
623.1933359855676
 30
0.0
 10
443.3727343680545
 20
623.1476362327655
 30
0.0
 10
443.3469143816637
 20
623.1355933392325
 30
0.0
  0
SPLINE
  5
1A1
330
170
100
AcDbEntity
  8
DV2_Default
  6
Continuous
 62
     7
100
AcDbSpline
210
0.0
220
0.0
230
1.0
 70
     8
 71
     3
 72
    15
 73
    11
 74
     0
 42
0.000000001
 43
0.0000000001
 40
0.0
 40
0.0
 40
0.0
 40
0.0
 40
0.1747650808557157
 40
0.4180158529915372
 40
0.5216685246877151
 40
0.6274926906028342
 40
0.7176188519252643
 40
0.8054552056764683
 40
0.9061238159259237
 40
1.0
 40
1.0
 40
1.0
 40
1.0
 10
443.3268801987461
 20
623.1302501053029
 30
0.0
 10
443.3147122011533
 20
623.1312227806143
 30
0.0
 10
443.3136592362831
 20
623.166013232066
 30
0.0
 10
443.3963138254085
 20
623.2966698306348
 30
0.0
 10
443.5164856054177
 20
623.4464404694791
 30
0.0
 10
443.6148148017164
 20
623.5562968074199
 30
0.0
 10
443.7230375759052
 20
623.6661934108234
 30
0.0
 10
443.8437076116288
 20
623.7757455203798
 30
0.0
 10
443.9801466311436
 20
623.886306122993
 30
0.0
 10
444.0895069095606
 20
623.9541346862263
 30
0.0
 10
444.1422779213104
 20
623.9868648690576
 30
0.0
  0
ARC
  5
1A2
330
170
100
AcDbEntity
  8
DV2_Default
  6
Continuous
 62
     7
100
AcDbCircle
 10
444.9561914846
 20
622.327322365
 30
0.0
 40
1.663629777535846
100
AcDbArc
 50
102.4379253467
 51
130.4308233159
  0
ARC
  5
1A3
330
170
100
AcDbEntity
  8
DV2_Default
  6
Continuous
 62
     7
100
AcDbCircle
 10
442.6887980169
 20
621.5109989908
 30
0.0
 40
2.076820715095199
100
AcDbArc
 50
115.6937508127
 51
130.4332848631
  0
ARC
  5
1A4
330
170
100
AcDbEntity
  8
DV2_Default
  6
Continuous
 62
     7
100
AcDbCircle
 10
447.2239973307
 20
622.2897646076
 30
0.0
 40
2.097793742155382
100
AcDbArc
 50
69.7023996048
 51
96.0902544357
  0
ARC
  5
1A5
330
170
100
AcDbEntity
  8
DV2_Default
  6
Continuous
 62
     7
100
AcDbCircle
 10
444.8159320262
 20
622.2966371632
 30
0.0
 40
1.66957043783116
100
AcDbArc
 50
69.4141988018
 51
97.5046168477
  0
ELLIPSE
  5
1A6
330
170
100
AcDbEntity
  8
DV2_Default
  6
Continuous
 62
     7
100
AcDbEllipse
 10
445.4775146211
 20
623.9499188165
 30
0.0
 11
0.04926283741032988
 21
0.1416798251342721
 31
0.0
210
0.0
220
0.0
230
1.0
 40
0.5664207965
 41
1.877057295943145
 42
3.840032208229547
  0
ELLIPSE
  5
1A7
330
170
100
AcDbEntity
  8
DV2_Default
  6
Continuous
 62
     7
100
AcDbEllipse
 10
443.7719663971
 20
623.6491849657
 30
0.0
 11
-0.09474926940086781
 21
0.1162866112168481
 31
0.0
210
0.0
220
0.0
230
1.0
 40
0.5664204103
 41
2.443153145241941
 42
4.406128057581673
  0
SPLINE
  5
1A8
330
170
100
AcDbEntity
  8
DV2_Default
  6
Continuous
 62
     7
100
AcDbSpline
210
0.0
220
0.0
230
1.0
 70
     8
 71
     3
 72
    15
 73
    11
 74
     0
 42
0.000000001
 43
0.0000000001
 40
0.0
 40
0.0
 40
0.0
 40
0.0
 40
0.0309623481954112
 40
0.1659671564712853
 40
0.3892235151220854
 40
0.6043439705787633
 40
0.6950124852062521
 40
0.785788826773129
 40
0.8934666173198382
 40
1.0
 40
1.0
 40
1.0
 40
1.0
 10
448.9413612231754
 20
624.2314671412596
 30
0.0
 10
448.9420787990149
 20
624.2256142680139
 30
0.0
 10
448.9439430854819
 20
624.1949336012935
 30
0.0
 10
448.9227668711316
 20
624.1324101614098
 30
0.0
 10
448.8074070979254
 20
624.081270022886
 30
0.0
 10
448.6114020801424
 20
624.0917148403166
 30
0.0
 10
448.4332434228342
 20
624.1255527698631
 30
0.0
 10
448.2914980559439
 20
624.159613886896
 30
0.0
 10
448.1317821720951
 20
624.20411058365
 30
0.0
 10
448.0115228104323
 20
624.2396285283503
 30
0.0
 10
447.9517143681186
 20
624.2572926246613
 30
0.0
  0
SPLINE
  5
1A9
330
170
100
AcDbEntity
  8
DV2_Default
  6
Continuous
 62
     7
100
AcDbSpline
210
0.0
220
0.0
230
1.0
 70
     8
 71
     3
 72
    16
 73
    12
 74
     0
 42
0.000000001
 43
0.0000000001
 40
0.0
 40
0.0
 40
0.0
 40
0.0
 40
0.1309485140149916
 40
0.3349135762441087
 40
0.4456240275882905
 40
0.5603829169796245
 40
0.6706319495667182
 40
0.7808994900395149
 40
0.8581959935783431
 40
0.9310294703455769
 40
1.0
 40
1.0
 40
1.0
 40
1.0
 10
448.8922057344154
 20
624.1130627785643
 30
0.0
 10
448.9349369518092
 20
624.1160181487869
 30
0.0
 10
449.0616973316835
 20
624.1454546955179
 30
0.0
 10
449.278578989546
 20
624.25652307692
 30
0.0
 10
449.5106903810406
 20
624.4072021410196
 30
0.0
 10
449.701353247721
 20
624.5428722525146
 30
0.0
 10
449.8977735285917
 20
624.689242261804
 30
0.0
 10
450.0766107392395
 20
624.8227034746758
 30
0.0
 10
450.2351631502617
 20
624.9372410204662
 30
0.0
 10
450.3704594762363
 20
625.0298246144511
 30
0.0
 10
450.4593064466057
 20
625.0826526498477
 30
0.0
 10
450.5025197715267
 20
625.1083471113358
 30
0.0
  0
SPLINE
  5
1AA
330
170
100
AcDbEntity
  8
DV2_Default
  6
Continuous
 62
     7
100
AcDbSpline
210
0.0
220
0.0
230
1.0
 70
     8
 71
     3
 72
    22
 73
    18
 74
     0
 42
0.000000001
 43
0.0000000001
 40
0.0
 40
0.0
 40
0.0
 40
0.0
 40
0.0327861721148196
 40
0.0669250572937521
 40
0.1025751802268408
 40
0.1627245817187345
 40
0.225252912730913
 40
0.3005207100967991
 40
0.3750769379327911
 40
0.4546204120832842
 40
0.53060184227641
 40
0.6562517183718565
 40
0.7773226645166141
 40
0.8283513908661522
 40
0.8794408027734806
 40
0.9400424408410284
 40
1.0
 40
1.0
 40
1.0
 40
1.0
 10
451.2077914654922
 20
625.2327055395087
 30
0.0
 10
451.228793496808
 20
625.2237581452109
 30
0.0
 10
451.2716640748122
 20
625.2054941992425
 30
0.0
 10
451.3283825263027
 20
625.1697623933087
 30
0.0
 10
451.3913907208743
 20
625.119167488176
 30
0.0
 10
451.4525674494708
 20
625.0501571539772
 30
0.0
 10
451.5040077579634
 20
624.957812662713
 30
0.0
 10
451.5287574171971
 20
624.8568217182558
 30
0.0
 10
451.517011379082
 20
624.7514205003583
 30
0.0
 10
451.4642910695816
 20
624.6560098053225
 30
0.0
 10
451.3459233150183
 20
624.5596780209434
 30
0.0
 10
451.1306349014975
 20
624.490917766988
 30
0.0
 10
450.8590827041215
 20
624.488041578341
 30
0.0
 10
450.6361470633983
 20
624.5139841176007
 30
0.0
 10
450.4670629291334
 20
624.5432246723303
 30
0.0
 10
450.2840894396679
 20
624.5836204257015
 30
0.0
 10
450.1534831313769
 20
624.6173139245445
 30
0.0
 10
450.0885288546727
 20
624.6340706714095
 30
0.0
  0
SPLINE
  5
1AB
330
170
100
AcDbEntity
  8
DV2_Default
  6
Continuous
 62
     7
100
AcDbSpline
210
0.0
220
0.0
230
1.0
 70
     8
 71
     3
 72
    13
 73
     9
 74
     0
 42
0.000000001
 43
0.0000000001
 40
0.0
 40
0.0
 40
0.0
 40
0.0
 40
0.2146405754489189
 40
0.4487763220906905
 40
0.6487372801681318
 40
0.8172423114056258
 40
0.9117916663779014
 40
1.0
 40
1.0
 40
1.0
 40
1.0
 10
451.1857168006639
 20
624.5172282632957
 30
0.0
 10
451.2965661368277
 20
624.5297725409872
 30
0.0
 10
451.5595361980862
 20
624.6038055231528
 30
0.0
 10
451.9724297607133
 20
624.8274605298205
 30
0.0
 10
452.3457741578475
 20
625.0877465409343
 30
0.0
 10
452.6179423687134
 20
625.2953101019428
 30
0.0
 10
452.8157449159654
 20
625.4443604896512
 30
0.0
 10
452.9140508701523
 20
625.5101688607203
 30
0.0
 10
452.9614984192581
 20
625.5419313917249
 30
0.0
  0
SPLINE
  5
1AC
330
170
100
AcDbEntity
  8
DV2_Default
  6
Continuous
 62
     7
100
AcDbSpline
210
0.0
220
0.0
230
1.0
 70
     8
 71
     3
 72
    20
 73
    16
 74
     0
 42
0.000000001
 43
0.0000000001
 40
0.0
 40
0.0
 40
0.0
 40
0.0
 40
0.0372807038531607
 40
0.0760995590519628
 40
0.1166368218340048
 40
0.1850318761705062
 40
0.2561319784342055
 40
0.3417179520578643
 40
0.4264948098258597
 40
0.5169425965326327
 40
0.603340032213831
 40
0.7462147722746408
 40
0.8838828742822415
 40
0.9419069347710998
 40
1.0
 40
1.0
 40
1.0
 40
1.0
 10
453.4739082990658
 20
625.6322830787054
 30
0.0
 10
453.4851760331441
 20
625.6216192651628
 30
0.0
 10
453.5081763927466
 20
625.5998516635749
 30
0.0
 10
453.5338784769006
 20
625.5586508352377
 30
0.0
 10
453.5572630184113
 20
625.5010692109951
 30
0.0
 10
453.5696233814263
 20
625.4234512344432
 30
0.0
 10
453.559653659561
 20
625.3202784979582
 30
0.0
 10
453.5183934797035
 20
625.2076482378776
 30
0.0
 10
453.4362581793849
 20
625.0898354938965
 30
0.0
 10
453.3149824250266
 20
624.9823366242522
 30
0.0
 10
453.1182778796124
 20
624.8721919500638
 30
0.0
 10
452.8246503220422
 20
624.7896183913659
 30
0.0
 10
452.5033789846826
 20
624.7779753768805
 30
0.0
 10
452.2563965564136
 20
624.7996778186929
 30
0.0
 10
452.1428939453936
 20
624.8167252044652
 30
0.0
 10
452.0862788118787
 20
624.8266949035849
 30
0.0
  0
SPLINE
  5
1AD
330
170
100
AcDbEntity
  8
DV2_Default
  6
Continuous
 62
     7
100
AcDbSpline
210
0.0
220
0.0
230
1.0
 70
     8
 71
     3
 72
    17
 73
    13
 74
     0
 42
0.000000001
 43
0.0000000001
 40
0.0
 40
0.0
 40
0.0
 40
0.0
 40
0.0122303583901212
 40
0.228267349347383
 40
0.3371507572400088
 40
0.4511363545067802
 40
0.5479382577678039
 40
0.6464097705408582
 40
0.7315388736849526
 40
0.8144873565835083
 40
0.9105309347993048
 40
1.0
 40
1.0
 40
1.0
 40
1.0
 10
452.8472576582382
 20
624.8099238069167
 30
0.0
 10
452.8552981677644
 20
624.8109595033686
 30
0.0
 10
453.00589129866
 20
624.8316108104881
 30
0.0
 10
453.2420083722313
 20
624.8988452943685
 30
0.0
 10
453.5392315880369
 20
625.0364761924781
 30
0.0
 10
453.7471641332378
 20
625.1555774206412
 30
0.0
 10
453.936462447696
 20
625.282155705799
 30
0.0
 10
454.0969561666292
 20
625.4022646940404
 30
0.0
 10
454.2388622654411
 20
625.5178179948998
 30
0.0
 10
454.3691293171025
 20
625.6297038801766
 30
0.0
 10
454.4913583489014
 20
625.7387573538717
 30
0.0
 10
454.5645557970186
 20
625.8008650082058
 30
0.0
 10
454.5998574731593
 20
625.8308182969567
 30
0.0
  0
SPLINE
  5
1AE
330
170
100
AcDbEntity
  8
DV2_Default
  6
Continuous
 62
     7
100
AcDbSpline
210
0.0
220
0.0
230
1.0
 70
     8
 71
     3
 72
    18
 73
    14
 74
     0
 42
0.000000001
 43
0.0000000001
 40
0.0
 40
0.0
 40
0.0
 40
0.0
 40
0.0425042871706621
 40
0.086762243660644
 40
0.1329793822979871
 40
0.2109576051085305
 40
0.2920198934046756
 40
0.3895977400119425
 40
0.4862531014828693
 40
0.5893739737512541
 40
0.6878769803369063
 40
0.8507706049951915
 40
1.0
 40
1.0
 40
1.0
 40
1.0
 10
454.8692472892227
 20
625.8783189899045
 30
0.0
 10
454.8698895287629
 20
625.8657816149928
 30
0.0
 10
454.8712005057811
 20
625.8401895900587
 30
0.0
 10
454.8641358749113
 20
625.7932111057937
 30
0.0
 10
454.8466406412349
 20
625.7284212742127
 30
0.0
 10
454.8103105020723
 20
625.6422178484294
 30
0.0
 10
454.7416043047442
 20
625.5286882865452
 30
0.0
 10
454.640136725875
 20
625.4054418375873
 30
0.0
 10
454.4973818488706
 20
625.2769402266882
 30
0.0
 10
454.3208634957572
 20
625.1597005964073
 30
0.0
 10
454.066340151423
 20
625.0393609079803
 30
0.0
 10
453.7299620307739
 20
624.949818209227
 30
0.0
 10
453.4552702765815
 20
624.9363397692265
 30
0.0
 10
453.326063670901
 20
624.941259266453
 30
0.0
  0
SPLINE
  5
1AF
330
170
100
AcDbEntity
  8
DV2_Default
  6
Continuous
 62
     7
100
AcDbSpline
210
0.0
220
0.0
230
1.0
 70
     8
 71
     3
 72
    17
 73
    13
 74
     0
 42
0.000000001
 43
0.0000000001
 40
0.0
 40
0.0
 40
0.0
 40
0.0
 40
0.0555582380146906
 40
0.1768636708245487
 40
0.3039364572788475
 40
0.4330116459025071
 40
0.5677962222733264
 40
0.675855064742859
 40
0.7822788735089029
 40
0.8589719367785194
 40
0.9313504935978987
 40
1.0
 40
1.0
 40
1.0
 40
1.0
 10
453.71352422964
 20
624.9624855028991
 30
0.0
 10
453.754096668541
 20
624.9680414845678
 30
0.0
 10
453.8834757937283
 20
624.9899007187406
 30
0.0
 10
454.1034460597759
 20
625.0502069698703
 30
0.0
 10
454.3615218667915
 20
625.1585784926021
 30
0.0
 10
454.6030746663992
 20
625.2972978598981
 30
0.0
 10
454.8024993586341
 20
625.4450676161101
 30
0.0
 10
454.9618868820733
 20
625.5892169975955
 30
0.0
 10
455.0737045521846
 20
625.7080045651705
 30
0.0
 10
455.155597991746
 20
625.8066391292425
 30
0.0
 10
455.2146029773658
 20
625.8847030630671
 30
0.0
 10
455.2432689424559
 20
625.9264217709228
 30
0.0
 10
455.2572229336631
 20
625.9467295638294
 30
0.0
  0
SPLINE
  5
1B0
330
170
100
AcDbEntity
  8
DV2_Default
  6
Continuous
 62
     7
100
AcDbSpline
210
0.0
220
0.0
230
1.0
 70
     8
 71
     3
 72
     9
 73
     5
 74
     0
 42
0.000000001
 43
0.0000000001
 40
0.0
 40
0.0
 40
0.0
 40
0.0
 40
0.9895480236689792
 40
1.0
 40
1.0
 40
1.0
 40
1.0
 10
452.6584537237746
 20
624.7871262728211
 30
0.0
 10
452.6974939667944
 20
624.7893694240586
 30
0.0
 10
452.736282224449
 20
624.7928207932158
 30
0.0
 10
452.7741801970446
 20
624.7975249199263
 30
0.0
 10
452.7745762083222
 20
624.7975742241099
 30
0.0
  0
SPLINE
  5
1B1
330
170
100
AcDbEntity
  8
DV2_Default
  6
Continuous
 62
     7
100
AcDbSpline
210
0.0
220
0.0
230
1.0
 70
     8
 71
     3
 72
     8
 73
     4
 74
     0
 42
0.000000001
 43
0.0000000001
 40
0.0
 40
0.0
 40
0.0
 40
0.0
 40
1.0
 40
1.0
 40
1.0
 40
1.0
 10
450.9880563875012
 20
624.4926488193857
 30
0.0
 10
451.0201856177053
 20
624.4937318290373
 30
0.0
 10
451.051246630097
 20
624.4958760747555
 30
0.0
 10
451.0810479040003
 20
624.4991360816936
 30
0.0
  0
SPLINE
  5
1B2
330
170
100
AcDbEntity
  8
DV2_Default
  6
Continuous
 62
     7
100
AcDbSpline
210
0.0
220
0.0
230
1.0
 70
     8
 71
     3
 72
     9
 73
     5
 74
     0
 42
0.000000001
 43
0.0000000001
 40
0.0
 40
0.0
 40
0.0
 40
0.0
 40
0.0152973679383872
 40
1.0
 40
1.0
 40
1.0
 40
1.0
 10
449.0370896262681
 20
624.1463988630977
 30
0.0
 10
449.0362618503407
 20
624.1461044094093
 30
0.0
 10
448.9822330743156
 20
624.1269783255428
 30
0.0
 10
448.9336908636925
 20
624.1158894846506
 30
0.0
 10
448.8923086671585
 20
624.1130520346103
 30
0.0
  0
SPLINE
  5
1B3
330
170
100
AcDbEntity
  8
DV2_Default
  6
Continuous
 62
     7
100
AcDbSpline
210
0.0
220
0.0
230
1.0
 70
     8
 71
     3
 72
     8
 73
     4
 74
     0
 42
0.000000001
 43
0.0000000001
 40
0.0
 40
0.0
 40
0.0
 40
0.0
 40
1.0
 40
1.0
 40
1.0
 40
1.0
 10
448.6847433468798
 20
624.0902701181313
 30
0.0
 10
448.7134811708308
 20
624.0889431080861
 30
0.0
 10
448.7401527056016
 20
624.0890962156992
 30
0.0
 10
448.7644615254594
 20
624.0908399018047
 30
0.0
  0
SPLINE
  5
1B4
330
170
100
AcDbEntity
  8
DV2_Default
  6
Continuous
 62
     7
100
AcDbSpline
210
0.0
220
0.0
230
1.0
 70
     8
 71
     3
 72
     8
 73
     4
 74
     0
 42
0.000000001
 43
0.0000000001
 40
0.0
 40
0.0
 40
0.0
 40
0.0
 40
0.9999999999999999
 40
0.9999999999999999
 40
0.9999999999999999
 40
0.9999999999999999
 10
446.2309421976513
 20
623.6448573751801
 30
0.0
 10
446.2140797832551
 20
623.6379007005289
 30
0.0
 10
446.2008436944026
 20
623.6352659450532
 30
0.0
 10
446.1913819663347
 20
623.6370106401084
 30
0.0
  0
SPLINE
  5
1B5
330
170
100
AcDbEntity
  8
DV2_Default
  6
Continuous
 62
     7
100
AcDbSpline
210
0.0
220
0.0
230
1.0
 70
     8
 71
     3
 72
     8
 73
     4
 74
     0
 42
0.000000001
 43
0.0000000001
 40
0.0
 40
0.0
 40
0.0
 40
0.0
 40
1.0
 40
1.0
 40
1.0
 40
1.0
 10
446.0229691323384
 20
623.6179516366834
 30
0.0
 10
446.0343486338369
 20
623.6152276741174
 30
0.0
 10
446.0440831583609
 20
623.6134628100574
 30
0.0
 10
446.0520561857172
 20
623.6127252741665
 30
0.0
  0
SPLINE
  5
1B6
330
170
100
AcDbEntity
  8
DV2_Default
  6
Continuous
 62
     7
100
AcDbSpline
210
0.0
220
0.0
230
1.0
 70
     8
 71
     3
 72
    17
 73
    13
 74
     0
 42
0.000000001
 43
0.0000000001
 40
0.0
 40
0.0
 40
0.0
 40
0.0
 40
0.0554314119219219
 40
0.1131498488345903
 40
0.1734233276129982
 40
0.2751176101457288
 40
0.3808339365543219
 40
0.5080888129341375
 40
0.6341406424023232
 40
0.768624383461178
 40
0.8970857951831249
 40
1.0
 40
1.0
 40
1.0
 40
1.0
 10
445.0140416783897
 20
624.1405803402924
 30
0.0
 10
445.0482077782329
 20
624.1339541264501
 30
0.0
 10
445.1179496249313
 20
624.120428310156
 30
0.0
 10
445.2197739061544
 20
624.0926498789887
 30
0.0
 10
445.3432491096891
 20
624.0527169389812
 30
0.0
 10
445.483777646744
 20
623.9976984695812
 30
0.0
 10
445.6423404302379
 20
623.9242425609064
 30
0.0
 10
445.7907355897568
 20
623.8450536541916
 30
0.0
 10
445.9212345019381
 20
623.7647340588971
 30
0.0
 10
446.0180746164366
 20
623.6956949018562
 30
0.0
 10
446.0703539624722
 20
623.6468378661843
 30
0.0
 10
446.0799331074963
 20
623.6278621554545
 30
0.0
 10
446.0793873465002
 20
623.622006856213
 30
0.0
  0
SPLINE
  5
1B7
330
170
100
AcDbEntity
  8
DV2_Default
  6
Continuous
 62
     7
100
AcDbSpline
210
0.0
220
0.0
230
1.0
 70
     8
 71
     3
 72
    12
 73
     8
 74
     0
 42
0.000000001
 43
0.0000000001
 40
0.0
 40
0.0
 40
0.0
 40
0.0
 40
0.323192006628474
 40
0.4782892903714775
 40
0.6335710224805915
 40
0.8177643215731412
 40
1.0
 40
1.0
 40
1.0
 40
1.0
 10
446.0522945699734
 20
623.6127913468843
 30
0.0
 10
446.0289974607106
 20
623.6149871672105
 30
0.0
 10
445.9726279519163
 20
623.6307363670348
 30
0.0
 10
445.8633211915601
 20
623.6724061421712
 30
0.0
 10
445.7618010615262
 20
623.713560053772
 30
0.0
 10
445.639760601462
 20
623.7646999442442
 30
0.0
 10
445.5406704884906
 20
623.8039505986521
 30
0.0
 10
445.4913901229338
 20
623.8234710789461
 30
0.0
  0
SPLINE
  5
1B8
330
170
100
AcDbEntity
  8
DV2_Default
  6
Continuous
 62
     7
100
AcDbSpline
210
0.0
220
0.0
230
1.0
 70
     8
 71
     3
 72
    13
 73
     9
 74
     0
 42
0.000000001
 43
0.0000000001
 40
0.0
 40
0.0
 40
0.0
 40
0.0
 40
0.1458766344338083
 40
0.2912580276981755
 40
0.4367078950200103
 40
0.5828037199998805
 40
0.7301344948538268
 40
1.0
 40
1.0
 40
1.0
 40
1.0
 10
446.3451751902529
 20
623.9740164221075
 30
0.0
 10
446.3299424469501
 20
623.9544078669669
 30
0.0
 10
446.2995286744634
 20
623.9152573263859
 30
0.0
 10
446.261944420474
 20
623.8603622009549
 30
0.0
 10
446.2304742712689
 20
623.8093967385885
 30
0.0
 10
446.2057164832854
 20
623.7633153587909
 30
0.0
 10
446.1825580854747
 20
623.711809894738
 30
0.0
 10
446.1746281926873
 20
623.6827814280704
 30
0.0
 10
446.1736788113805
 20
623.6684942068083
 30
0.0
  0
SPLINE
  5
1B9
330
170
100
AcDbEntity
  8
DV2_Default
  6
Continuous
 62
     7
100
AcDbSpline
210
0.0
220
0.0
230
1.0
 70
     8
 71
     3
 72
    16
 73
    12
 74
     0
 42
0.000000001
 43
0.0000000001
 40
0.0
 40
0.0
 40
0.0
 40
0.0
 40
0.1727294781088429
 40
0.3668892811708824
 40
0.4722321011149306
 40
0.5814398497456553
 40
0.6864131952261473
 40
0.7914110167477829
 40
0.8649997808733803
 40
0.9343389492411154
 40
1.0
 40
1.0
 40
1.0
 40
1.0
 10
446.1794508476044
 20
623.6433298205266
 30
0.0
 10
446.1901839460866
 20
623.6309957369173
 30
0.0
 10
446.2444257265579
 20
623.6404223591663
 30
0.0
 10
446.3922680220674
 20
623.7475494575893
 30
0.0
 10
446.5611542294501
 20
623.8870526465395
 30
0.0
 10
446.7123094401131
 20
624.0157336140618
 30
0.0
 10
446.8796600496443
 20
624.1569878679846
 30
0.0
 10
447.0420025216516
 20
624.2875710645638
 30
0.0
 10
447.1930882792875
 20
624.4008170256794
 30
0.0
 10
447.3268031918466
 20
624.4931359716867
 30
0.0
 10
447.4188526959794
 20
624.5465354215662
 30
0.0
 10
447.4636234911848
 20
624.5725077052535
 30
0.0
  0
ELLIPSE
  5
1BA
330
170
100
AcDbEntity
  8
DV2_Default
  6
Continuous
 62
     7
100
AcDbEllipse
 10
447.9616292921
 20
624.3879352681
 30
0.0
 11
0.03895706171011537
 21
0.1448528472026145
 31
0.0
210
0.0
220
0.0
230
1.0
 40
0.3163358086
 41
1.71759943277741
 42
3.680574345053945
  0
ELLIPSE
  5
1BB
330
170
100
AcDbEntity
  8
DV2_Default
  6
Continuous
 62
     7
100
AcDbEllipse
 10
441.2878518065
 20
623.2111685402
 30
0.0
 11
-0.08615025640407172
 21
0.1227930507879116
 31
0.0
210
0.0
220
0.0
230
1.0
 40
0.316335376
 41
2.602610958507152
 42
4.565585870843397
  0
ARC
  5
1BC
330
170
100
AcDbEntity
  8
DV2_Default
  6
Continuous
 62
     7
100
AcDbCircle
 10
433.9211328245
 20
622.3507215653
 30
0.0
 40
0.1499999999998076
100
AcDbArc
 50
227.7930485356
 51
236.2818385135
  0
ELLIPSE
  5
1BD
330
170
100
AcDbEntity
  8
DV2_Default
  6
Continuous
 62
     7
100
AcDbEllipse
 10
453.3634371356
 20
625.7116017951
 30
0.0
 11
0.08916197063491008
 21
0.1206239735372927
 31
0.0
210
0.0
220
0.0
230
1.0
 40
0.9066396235
 41
3.115803908637955
 42
3.240741049928221
  0
LINE
  5
1BE
330
170
100
AcDbEntity
  8
DV2_Default
  6
Continuous
 62
     7
100
AcDbLine
 10
433.1940666477
 20
623.3737100303
 30
0.0
 11
433.2007278146
 21
623.3394412979
 31
0.0
  0
LINE
  5
1BF
330
170
100
AcDbEntity
  8
DV2_Default
  6
Continuous
 62
     7
100
AcDbLine
 10
455.5171674764
 20
627.2744317236
 30
0.0
 11
455.511706329
 21
627.3089120518
 31
0.0
  0
ARC
  5
1C0
330
170
100
AcDbEntity
  8
DV2_Default
  6
Continuous
 62
     7
100
AcDbCircle
 10
453.5417907953
 20
626.9615627935
 30
0.0
 40
2.000000000000007
100
AcDbArc
 50
332.1782194112
 51
9.0
  0
ARC
  5
1C1
330
170
100
AcDbEntity
  8
DV2_Default
  6
Continuous
 62
     7
100
AcDbCircle
 10
435.1639821814
 20
623.7210592886
 30
0.0
 40
1.999999999997627
100
AcDbArc
 50
191.0
 51
227.8047146724
  0
LINE
  5
1C2
330
170
100
AcDbEntity
  8
DV2_Default
  6
Continuous
 62
     7
100
AcDbLine
 10
453.7634422918
 20
624.9697927089
 30
0.0
 11
453.787498181
 21
624.9740344112
 31
0.0
  0
LINE
  5
1C3
330
170
100
AcDbEntity
  8
DV2_Default
  6
Continuous
 62
     7
100
AcDbLine
 10
452.8517177253
 20
624.8090310688
 30
0.0
 11
452.9188774439
 21
624.8208731393
 31
0.0
  0
LINE
  5
1C4
330
170
100
AcDbEntity
  8
DV2_Default
  6
Continuous
 62
     7
100
AcDbLine
 10
451.1419680158
 20
624.5075560648
 30
0.0
 11
451.2461145655
 21
624.5259199115
 31
0.0
  0
LINE
  5
1C5
330
170
100
AcDbEntity
  8
DV2_Default
  6
Continuous
 62
     7
100
AcDbLine
 10
448.8016844809
 20
624.0949009351
 30
0.0
 11
448.940260717
 21
624.1193356644
 31
0.0
  0
LINE
  5
1C6
330
170
100
AcDbEntity
  8
DV2_Default
  6
Continuous
 62
     7
100
AcDbLine
 10
446.0600285768
 20
623.6114730274
 30
0.0
 11
446.2138266633
 21
623.6385917796
 31
0.0
  0
LINE
  5
1C7
330
170
100
AcDbEntity
  8
DV2_Default
  6
Continuous
 62
     7
100
AcDbLine
 10
443.1848346301
 20
623.1044987598
 30
0.0
 11
443.3307285463
 21
623.1302237936
 31
0.0
  0
LINE
  5
1C8
330
170
100
AcDbEntity
  8
DV2_Default
  6
Continuous
 62
     7
100
AcDbLine
 10
440.4590044795
 20
622.6238613594
 30
0.0
 11
440.5907943472
 21
622.6470994689
 31
0.0
  0
LINE
  5
1C9
330
170
100
AcDbEntity
  8
DV2_Default
  6
Continuous
 62
     7
100
AcDbLine
 10
438.148121274
 20
622.216390301
 30
0.0
 11
438.2528103742
 21
622.234849814
 31
0.0
  0
LINE
  5
1CA
330
170
100
AcDbEntity
  8
DV2_Default
  6
Continuous
 62
     7
100
AcDbLine
 10
436.477859452
 20
621.921878077
 30
0.0
 11
436.545519158
 21
621.9338083087
 31
0.0
  0
LINE
  5
1CB
330
170
100
AcDbEntity
  8
DV2_Default
  6
Continuous
 62
     7
100
AcDbLine
 10
435.6124819552
 20
621.7692886758
 30
0.0
 11
435.6359938598
 21
621.7734344589
 31
0.0
  0
ARC
  5
1CC
330
170
100
AcDbEntity
  8
DV2_Default
  6
Continuous
 62
     7
100
AcDbCircle
 10
444.7780672586
 20
622.8532619223
 30
0.0
 40
1.240483997355571
100
AcDbArc
 50
99.2714925094
 51
117.7938185738
  0
ARC
  5
1CD
330
170
100
AcDbEntity
  8
DV2_Default
  6
Continuous
 62
     7
100
AcDbCircle
 10
444.8043099362
 20
622.8578988433
 30
0.0
 40
1.240474518147295
100
AcDbArc
 50
82.2060426956
 51
100.7285815045
  0
ARC
  5
1CE
330
170
100
AcDbEntity
  8
DV2_Default
  6
Continuous
 62
     7
100
AcDbCircle
 10
448.0795117925
 20
623.3873710084
 30
0.0
 40
1.287689560389119
100
AcDbArc
 50
99.7890674363
 51
117.5348958595
  0
ARC
  5
1CF
330
170
100
AcDbEntity
  8
DV2_Default
  6
Continuous
 62
     7
100
AcDbCircle
 10
448.0451228711
 20
623.7212632979
 30
0.0
 40
0.9531346074567421
100
AcDbArc
 50
80.1229746376
 51
101.3041396241
  0
SPLINE
  5
1D0
330
170
100
AcDbEntity
  8
DV2_Default
  6
Continuous
 62
     7
100
AcDbSpline
210
0.0
220
0.0
230
1.0
 70
     8
 71
     3
 72
    11
 73
     7
 74
     0
 42
0.000000001
 43
0.0000000001
 40
0.0
 40
0.0
 40
0.0
 40
0.0
 40
0.2455566404307896
 40
0.4967776810994489
 40
0.7492199678625366
 40
1.0
 40
1.0
 40
1.0
 40
1.0
 10
448.1890000202292
 20
624.6643389280905
 30
0.0
 10
448.2914119949325
 20
624.6352227903094
 30
0.0
 10
448.4654895388054
 20
624.5845110365636
 30
0.0
 10
448.6645717757088
 20
624.4502011509582
 30
0.0
 10
448.7899827818652
 20
624.3160666718644
 30
0.0
 10
448.7901683870116
 20
624.2553120913861
 30
0.0
 10
448.7878240047505
 20
624.2203502941555
 30
0.0
  0
ARC
  5
1D1
330
170
100
AcDbEntity
  8
DV2_Default
  6
Continuous
 62
     7
100
AcDbCircle
 10
441.4365367919
 20
622.5582337197
 30
0.0
 40
0.9508887574511008
100
AcDbArc
 50
98.8027186847
 51
119.8959930325
  0
ARC
  5
1D2
330
170
100
AcDbEntity
  8
DV2_Default
  6
Continuous
 62
     7
100
AcDbCircle
 10
441.5192752046
 20
622.2299559148
 30
0.0
 40
1.288354355094451
100
AcDbArc
 50
82.46834278
 51
100.306472823
  0
SPLINE
  5
1D3
330
170
100
AcDbEntity
  8
DV2_Default
  6
Continuous
 62
     7
100
AcDbSpline
210
0.0
220
0.0
230
1.0
 70
     8
 71
     3
 72
    11
 73
     7
 74
     0
 42
0.000000001
 43
0.0000000001
 40
0.0
 40
0.0
 40
0.0
 40
0.0
 40
0.2504860244554814
 40
0.5027242594188799
 40
0.7539685709035177
 40
1.0
 40
1.0
 40
1.0
 40
1.0
 10
440.5720569300937
 20
622.7687155965177
 30
0.0
 10
440.5563456089028
 20
622.799276805414
 30
0.0
 10
440.533056274517
 20
622.8539488773814
 30
0.0
 10
440.6010946956113
 20
623.0207212624986
 30
0.0
 10
440.738622698583
 20
623.2142171578987
 30
0.0
 10
440.8824372081576
 20
623.3225580595835
 30
0.0
 10
440.9674268627889
 20
623.3857195177703
 30
0.0
  0
ARC
  5
1D4
330
170
100
AcDbEntity
  8
DV2_Default
  6
Continuous
 62
     7
100
AcDbCircle
 10
438.4003222499
 20
622.4411961185
 30
0.0
 40
0.5392062417666098
100
AcDbArc
 50
97.534511162
 51
124.5244162783
  0
ARC
  5
1D5
330
170
100
AcDbEntity
  8
DV2_Default
  6
Continuous
 62
     7
100
AcDbCircle
 10
438.5091342955
 20
621.91155657
 30
0.0
 40
1.079200729221209
100
AcDbArc
 50
81.0088276261
 51
99.7732982033
  0
SPLINE
  5
1D6
330
170
100
AcDbEntity
  8
DV2_Default
  6
Continuous
 62
     7
100
AcDbSpline
210
0.0
220
0.0
230
1.0
 70
     8
 71
     3
 72
     8
 73
     4
 74
     0
 42
0.000000001
 43
0.0000000001
 40
0.0
 40
0.0
 40
0.0
 40
0.0
 40
1.0
 40
1.0
 40
1.0
 40
1.0
 10
437.9557223747526
 20
622.6047192662845
 30
0.0
 10
437.9426436412608
 20
622.7004000998705
 30
0.0
 10
437.9914713751434
 20
622.7959421411764
 30
0.0
 10
438.1022055764003
 20
622.8913453902023
 30
0.0
  0
LINE
  5
1D7
330
170
100
AcDbEntity
  8
DV2_Default
  6
Continuous
 62
     7
100
AcDbLine
 10
435.8857248541
 20
622.5271347818
 30
0.0
 11
435.9761369226
 21
622.5607648331
 31
0.0
  0
ARC
  5
1D8
330
170
100
AcDbEntity
  8
DV2_Default
  6
Continuous
 62
     7
100
AcDbCircle
 10
436.0775700602
 20
621.8668634758
 30
0.0
 40
0.7012396534630303
100
AcDbArc
 50
76.8975015199
 51
98.4062962355
  0
LINE
  5
1D9
330
170
100
AcDbEntity
  8
DV2_Default
  6
Continuous
 62
     7
100
AcDbLine
 10
435.8707254722
 20
622.4539956101
 30
0.0
 11
435.8740454195
 21
622.5114280393
 31
0.0
  0
SPLINE
  5
1DA
330
170
100
AcDbEntity
  8
DV2_Default
  6
Continuous
 62
     7
100
AcDbSpline
210
0.0
220
0.0
230
1.0
 70
     8
 71
     3
 72
     8
 73
     4
 74
     0
 42
0.000000001
 43
0.0000000001
 40
0.0
 40
0.0
 40
0.0
 40
0.0
 40
1.0
 40
1.0
 40
1.0
 40
1.0
 10
434.466361010008
 20
622.294544220912
 30
0.0
 10
434.4779241140849
 20
622.3004587457876
 30
0.0
 10
434.5233052884878
 20
622.291329703402
 30
0.0
 10
434.6025045332169
 20
622.2671570937549
 30
0.0
  0
ARC
  5
1DB
330
170
100
AcDbEntity
  8
DV2_Default
  6
Continuous
 62
     7
100
AcDbCircle
 10
455.0748589365
 20
626.13548232
 30
0.0
 40
0.2559022094449541
100
AcDbArc
 50
320.5326870533
 51
331.4664889461
  0
SPLINE
  5
1DC
330
170
100
AcDbEntity
  8
DV2_Default
  6
Continuous
 62
     7
100
AcDbSpline
210
0.0
220
0.0
230
1.0
 70
     8
 71
     3
 72
     8
 73
     4
 74
     0
 42
0.000000001
 43
0.0000000001
 40
0.0
 40
0.0
 40
0.0
 40
0.0
 40
1.0
 40
1.0
 40
1.0
 40
1.0
 10
454.5665535759039
 20
625.7872929750946
 30
0.0
 10
454.6323931398221
 20
625.8369390123501
 30
0.0
 10
454.6719787910761
 20
625.8610736756859
 30
0.0
 10
454.685310529666
 20
625.859696965102
 30
0.0
  0
ARC
  5
1DD
330
170
100
AcDbEntity
  8
DV2_Default
  6
Continuous
 62
     7
100
AcDbCircle
 10
453.318304443
 20
624.9049586198
 30
0.0
 40
0.7031726910488839
100
AcDbArc
 50
101.720794064
 51
123.0857260474
  0
LINE
  5
1DE
330
170
100
AcDbEntity
  8
DV2_Default
  6
Continuous
 62
     7
100
AcDbLine
 10
453.174284348
 20
625.5932628862
 30
0.0
 11
453.2717957547
 21
625.5928890162
 31
0.0
  0
LINE
  5
1DF
330
170
100
AcDbEntity
  8
DV2_Default
  6
Continuous
 62
     7
100
AcDbLine
 10
453.2842063863
 20
625.585232945
 30
0.0
 11
453.3110091196
 21
625.5295378648
 31
0.0
  0
ARC
  5
1E0
330
170
100
AcDbEntity
  8
DV2_Default
  6
Continuous
 62
     7
100
AcDbCircle
 10
451.0176107265
 20
624.1162161663
 30
0.0
 40
1.080122545128372
100
AcDbArc
 50
100.3357988556
 51
118.9852265888
  0
ARC
  5
1E1
330
170
100
AcDbEntity
  8
DV2_Default
  6
Continuous
 62
     7
100
AcDbCircle
 10
450.9383696422
 20
624.6518481361
 30
0.0
 40
0.5393479797922776
100
AcDbArc
 50
75.4854996471
 51
102.4661187235
  0
SPLINE
  5
1E2
330
170
100
AcDbEntity
  8
DV2_Default
  6
Continuous
 62
     7
100
AcDbSpline
210
0.0
220
0.0
230
1.0
 70
     8
 71
     3
 72
     8
 73
     4
 74
     0
 42
0.000000001
 43
0.0000000001
 40
0.0
 40
0.0
 40
0.0
 40
0.0
 40
1.0
 40
1.0
 40
1.0
 40
1.0
 10
451.0643037906865
 20
625.1770295984284
 30
0.0
 10
451.2018062370773
 20
625.1251467800056
 30
0.0
 10
451.2805153968349
 20
625.0516464571311
 30
0.0
 10
451.3004312699592
 20
624.9565286298051
 30
0.0
  0
ENDBLK
  5
1E4
330
170
100
AcDbEntity
  8
0
100
AcDbBlockEnd
  0
BLOCK
  5
21D
330
1E5
100
AcDbEntity
  8
0
100
AcDbBlockBegin
  2
SE2
 70
     0
 10
0.0
 20
0.0
 30
0.0
  3
SE2
  1
SE2
  0
ARC
  5
1E8
330
1E5
100
AcDbEntity
  8
DV3_Default
  6
Continuous
 62
     7
100
AcDbCircle
 10
31.85
 20
342.7419098413
 30
0.0
 40
25.5
100
AcDbArc
 50
303.2997799396
 51
0.0
  0
ARC
  5
1E9
330
1E5
100
AcDbEntity
  8
DV3_Default
  6
Continuous
 62
     7
100
AcDbCircle
 10
31.85
 20
342.7419098413
 30
0.0
 40
25.5
100
AcDbArc
 50
0.0
 51
236.7002200604
  0
LINE
  5
1EA
330
1E5
100
AcDbEntity
  8
DV3_Default
  6
Continuous
 62
     7
100
AcDbLine
 10
45.85
 20
318.9919098413
 30
0.0
 11
85.5
 21
318.9919098413
 31
0.0
  0
LINE
  5
1EB
330
1E5
100
AcDbEntity
  8
DV3_Default
  6
Continuous
 62
     7
100
AcDbLine
 10
85.5
 20
366.4919098413
 30
0.0
 11
41.1473052517
 21
366.4919098413
 31
0.0
  0
ARC
  5
1EC
330
1E5
100
AcDbEntity
  8
DV3_Default
  6
Continuous
 62
     7
100
AcDbCircle
 10
85.5
 20
328.9919098413
 30
0.0
 40
9.999999999999998
100
AcDbArc
 50
270.0
 51
295.7852938783
  0
ARC
  5
1ED
330
1E5
100
AcDbEntity
  8
DV3_Default
  6
Continuous
 62
     7
100
AcDbCircle
 10
85.5
 20
356.4919098413
 30
0.0
 40
10.0
100
AcDbArc
 50
64.2147061217
 51
90.0
  0
ELLIPSE
  5
1EE
330
1E5
100
AcDbEntity
  8
DV3_Default
  6
Continuous
 62
     7
100
AcDbEllipse
 10
31.85
 20
132.3274106144
 30
0.0
 11
-14.00000000000001
 21
8.326672684688675E-13
 31
0.0
210
0.0
220
0.0
230
1.0
 40
0.984807753
 41
0.0019313756037764
 42
1.570796326794955
  0
LINE
  5
1EF
330
1E5
100
AcDbEntity
  8
DV3_Default
  6
Continuous
 62
     7
100
AcDbLine
 10
17.85
 20
132.3274106144
 30
0.0
 11
17.8500261115
 21
132.3007821596
 31
0.0
  0
ARC
  5
1F0
330
1E5
100
AcDbEntity
  8
DV3_Default
  6
Continuous
 62
     7
100
AcDbCircle
 10
31.85
 20
342.7419098413
 30
0.0
 40
14.0
100
AcDbArc
 50
90.0
 51
180.0
  0
ELLIPSE
  5
1F1
330
1E5
100
AcDbEntity
  8
DV3_Default
  6
Continuous
 62
     7
100
AcDbEllipse
 10
31.85
 20
132.3274106144
 30
0.0
 11
-14.00000000000007
 21
-8.326672684688674E-14
 31
0.0
210
0.0
220
0.0
230
1.0
 40
0.984807753
 41
1.570796326794891
 42
3.139661277986246
  0
ARC
  5
1F2
330
1E5
100
AcDbEntity
  8
DV3_Default
  6
Continuous
 62
     7
100
AcDbCircle
 10
31.85
 20
342.7419098413
 30
0.0
 40
14.0
100
AcDbArc
 50
0.0
 51
90.0
  0
LINE
  5
1F3
330
1E5
100
AcDbEntity
  8
DV3_Default
  6
Continuous
 62
     7
100
AcDbLine
 10
17.85
 20
238.7419098413
 30
0.0
 11
17.85
 21
136.3219035281
 31
0.0
  0
LINE
  5
1F4
330
1E5
100
AcDbEntity
  8
DV3_Default
  6
Continuous
 62
     7
100
AcDbLine
 10
45.85
 20
136.3219035281
 30
0.0
 11
45.85
 21
238.7419098413
 31
0.0
  0
LINE
  5
1F5
330
1E5
100
AcDbEntity
  8
DV3_Default
  6
Continuous
 62
     7
100
AcDbLine
 10
17.85
 20
136.3219035281
 30
0.0
 11
17.85
 21
132.3274106144
 31
0.0
  0
LINE
  5
1F6
330
1E5
100
AcDbEntity
  8
DV3_Default
  6
Continuous
 62
     7
100
AcDbLine
 10
17.85
 20
342.7419098413
 30
0.0
 11
17.85
 21
238.7419098413
 31
0.0
  0
LINE
  5
1F7
330
1E5
100
AcDbEntity
  8
DV3_Default
  6
Continuous
 62
     7
100
AcDbLine
 10
45.85
 20
132.3274106144
 30
0.0
 11
45.85
 21
136.3219035281
 31
0.0
  0
LINE
  5
1F8
330
1E5
100
AcDbEntity
  8
DV3_Default
  6
Continuous
 62
     7
100
AcDbLine
 10
45.85
 20
238.7419098413
 30
0.0
 11
45.85
 21
342.7419098413
 31
0.0
  0
ARC
  5
1F9
330
1E5
100
AcDbEntity
  8
DV3_Default
  6
Continuous
 62
     7
100
AcDbCircle
 10
115.4126655621
 20
329.3517222707
 30
0.0
 40
4.851533314765701
100
AcDbArc
 50
4.276554145
 51
91.9771951984
  0
ELLIPSE
  5
1FA
330
1E5
100
AcDbEntity
  8
DV3_Default
  6
Continuous
 62
     7
100
AcDbEllipse
 10
115.250691316
 20
297.9032787665
 30
0.0
 11
-5.000000000000004
 21
-2.081668171172169E-14
 31
0.0
210
0.0
220
0.0
230
1.0
 40
0.8480480962
 41
0.0
 42
6.283185307179586
  0
ARC
  5
1FB
330
1E5
100
AcDbEntity
  8
DV3_Default
  6
Continuous
 62
     7
100
AcDbCircle
 10
115.1424049516
 20
329.2956043245
 30
0.0
 40
4.905841589658226
100
AcDbArc
 50
88.7984325089
 51
175.6505834962
  0
SPLINE
  5
1FC
330
1E5
100
AcDbEntity
  8
DV3_Default
  6
Continuous
 62
     7
100
AcDbSpline
210
0.0
220
0.0
230
1.0
 70
     8
 71
     3
 72
    26
 73
    22
 74
     0
 42
0.000000001
 43
0.0000000001
 40
0.0
 40
0.0
 40
0.0
 40
0.0
 40
0.0803191288469982
 40
0.0803191288469982
 40
0.1722872159622983
 40
0.1722872159622983
 40
0.2642553030775984
 40
0.2642553030775984
 40
0.4481914773081986
 40
0.4481914773081986
 40
0.5401595644234989
 40
0.5401595644234989
 40
0.6321276515387991
 40
0.6321276515387991
 40
0.7240957386540993
 40
0.7240957386540993
 40
0.8160638257693993
 40
0.8160638257693993
 40
0.9080319128846999
 40
0.9080319128846999
 40
1.0
 40
1.0
 40
1.0
 40
1.0
 10
117.1104984236199
 20
367.3973155118775
 30
0.0
 10
117.4077856343168
 20
367.3954044143031
 30
0.0
 10
117.7190591025639
 20
367.2761947698529
 30
0.0
 10
118.4191855325035
 20
366.7653056861312
 30
0.0
 10
118.8065813480378
 20
366.3389054205734
 30
0.0
 10
119.589799275193
 20
365.2116416099012
 30
0.0
 10
119.9879258428382
 20
364.509219950666
 30
0.0
 10
121.2059112839232
 20
361.9656144804668
 30
0.0
 10
122.0159398706526
 20
359.7431528656402
 30
0.0
 10
123.1362403822295
 20
355.8871562125689
 30
0.0
 10
123.5013350006535
 20
354.4952706652672
 30
0.0
 10
124.1847108069708
 20
351.5745323114085
 30
0.0
 10
124.5040068709463
 20
350.0643121807837
 30
0.0
 10
125.0883561826572
 20
346.9459584865379
 30
0.0
 10
125.3583406331118
 20
345.3182054515323
 30
0.0
 10
125.825242280023
 20
342.0849865916765
 30
0.0
 10
126.0233398705022
 20
340.472730195735
 30
0.0
 10
126.3482057859723
 20
337.2572987653182
 30
0.0
 10
126.4743948851963
 20
335.6544742566933
 30
0.0
 10
126.640068799069
 20
332.6076603270561
 30
0.0
 10
126.6829655069235
 20
331.144084585615
 30
0.0
 10
126.6826506110028
 20
329.7429591968872
 30
0.0
  0
SPLINE
  5
1FD
330
1E5
100
AcDbEntity
  8
DV3_Default
  6
Continuous
 62
     7
100
AcDbSpline
210
0.0
220
0.0
230
1.0
 70
     8
 71
     3
 72
    18
 73
    14
 74
     0
 42
0.000000001
 43
0.0000000001
 40
0.0
 40
0.0
 40
0.0
 40
0.0
 40
0.1954227411004929
 40
0.1954227411004929
 40
0.3908454822009859
 40
0.3908454822009859
 40
0.5862682233014788
 40
0.5862682233014788
 40
0.7816909644019717
 40
0.7816909644019717
 40
0.9771137055024647
 40
0.9771137055024647
 40
1.0
 40
1.0
 40
1.0
 40
1.0
 10
126.6826506110028
 20
329.7429591968872
 30
0.0
 10
126.6829055398442
 20
328.3625556624472
 30
0.0
 10
126.641248280381
 20
327.0736857497236
 30
0.0
 10
126.4745628255177
 20
324.6848794599038
 30
0.0
 10
126.3487733287318
 20
323.6104975292835
 30
0.0
 10
126.028134684465
 20
321.7434403678169
 30
0.0
 10
125.8263568124335
 20
320.9330802619003
 30
0.0
 10
125.358630825533
 20
319.6192187982021
 30
0.0
 10
125.0945448738275
 20
319.1179005345628
 30
0.0
 10
124.5068666642186
 20
318.4154742113382
 30
0.0
 10
124.1816544304685
 20
318.2179270762959
 30
0.0
 10
123.8006858088173
 20
318.1752325883646
 30
0.0
 10
123.7604980383956
 20
318.1728741618349
 30
0.0
 10
123.7200612651624
 20
318.1726344602152
 30
0.0
  0
SPLINE
  5
1FE
330
1E5
100
AcDbEntity
  8
DV3_Default
  6
Continuous
 62
     7
100
AcDbSpline
210
0.0
220
0.0
230
1.0
 70
     8
 71
     3
 72
    22
 73
    18
 74
     0
 42
0.000000001
 43
0.0000000001
 40
0.0
 40
0.0
 40
0.0
 40
0.0
 40
0.2017530695273316
 40
0.2017530695273316
 40
0.3026296042909974
 40
0.3026296042909974
 40
0.4035061390546632
 40
0.4035061390546632
 40
0.504382673818329
 40
0.504382673818329
 40
0.6052592085819949
 40
0.6052592085819949
 40
0.8070122781093264
 40
0.8070122781093264
 40
0.9078888128729923
 40
0.9078888128729923
 40
1.0
 40
1.0
 40
1.0
 40
1.0
 10
127.9721129447937
 20
330.540368992462
 30
0.0
 10
127.9721947186344
 20
333.1721593361528
 30
0.0
 10
127.81042224788
 20
336.1201330687416
 30
0.0
 10
127.3590220686749
 20
340.6317237054307
 30
0.0
 10
127.1710054769105
 20
342.1769102818991
 30
0.0
 10
126.7356589181266
 20
345.2210014523847
 30
0.0
 10
126.4896574630489
 20
346.7168915556149
 30
0.0
 10
125.9422390973309
 20
349.657483944197
 30
0.0
 10
125.6397194021393
 20
351.102989076402
 30
0.0
 10
125.0044804704398
 20
353.8229578666918
 30
0.0
 10
124.6689105945565
 20
355.1136883085487
 30
0.0
 10
123.6073560692131
 20
358.7751025322928
 30
0.0
 10
122.8586419555503
 20
360.8243900508809
 30
0.0
 10
121.7208763610817
 20
363.1981014059255
 30
0.0
 10
121.3462294813305
 20
363.8578341246735
 30
0.0
 10
120.6382685352153
 20
364.8736744517782
 30
0.0
 10
120.3011275214327
 20
365.2522355704901
 30
0.0
 10
119.9774838775107
 20
365.5089040203643
 30
0.0
  0
SPLINE
  5
1FF
330
1E5
100
AcDbEntity
  8
DV3_Default
  6
Continuous
 62
     7
100
AcDbSpline
210
0.0
220
0.0
230
1.0
 70
     8
 71
     3
 72
    14
 73
    10
 74
     0
 42
0.000000001
 43
0.0000000001
 40
0.0
 40
0.0
 40
0.0
 40
0.0
 40
0.485141319661076
 40
0.485141319661076
 40
0.7277119794916143
 40
0.7277119794916143
 40
0.9702826393221525
 40
0.9702826393221525
 40
1.0
 40
1.0
 40
1.0
 40
1.0
 10
127.9721129447937
 20
330.540368992462
 30
0.0
 10
127.9721947469654
 20
327.9079736384117
 30
0.0
 10
127.8104333242535
 20
325.635182156691
 30
0.0
 10
127.3590372791845
 20
323.0103462776508
 30
0.0
 10
127.1710214920675
 20
322.2512939181676
 30
0.0
 10
126.7356759908859
 20
321.0275610753521
 30
0.0
 10
126.4896745667268
 20
320.5604144393792
 30
0.0
 10
126.1824327172756
 20
320.1950133503207
 30
0.0
 10
126.1484681046045
 20
320.1573165784622
 30
0.0
 10
126.1140962909372
 20
320.1218084219575
 30
0.0
  0
LINE
  5
200
330
1E5
100
AcDbEntity
  8
DV3_Default
  6
Continuous
 62
     7
100
AcDbLine
 10
89.9183276993
 20
329.5744392073
 30
0.0
 11
89.9183276993
 21
367.5928987836
 31
0.0
  0
LINE
  5
201
330
1E5
100
AcDbEntity
  8
DV3_Default
  6
Continuous
 62
     7
100
AcDbLine
 10
89.9183276993
 20
329.5744392073
 30
0.0
 11
89.9183276993
 21
317.8929670474
 31
0.0
  0
LINE
  5
202
330
1E5
100
AcDbEntity
  8
DV3_Default
  6
Continuous
 62
     7
100
AcDbLine
 10
110.250691316
 20
329.6659368498
 30
0.0
 11
110.250691316
 21
297.9032787665
 31
0.0
  0
LINE
  5
203
330
1E5
100
AcDbEntity
  8
DV3_Default
  6
Continuous
 62
     7
100
AcDbLine
 10
120.250691316
 20
297.9032787665
 30
0.0
 11
120.250691316
 21
329.7118029871
 31
0.0
  0
ARC
  5
204
330
1E5
100
AcDbEntity
  8
DV3_Default
  6
Continuous
 62
     7
100
AcDbCircle
 10
112.5234945896
 20
1619.0734987428
 30
0.0
 40
1251.684741736944
100
AcDbArc
 50
268.9651938461
 51
270.210097239
  0
ARC
  5
205
330
1E5
100
AcDbEntity
  8
DV3_Default
  6
Continuous
 62
     7
100
AcDbCircle
 10
176.5977056898
 20
-8107.2999776862
 30
0.0
 40
8425.63882126748
100
AcDbArc
 50
90.4511744305
 51
90.589444936
  0
ARC
  5
206
330
1E5
100
AcDbEntity
  8
DV3_Default
  6
Continuous
 62
     7
100
AcDbCircle
 10
176.5977056898
 20
-8107.2999776862
 30
0.0
 40
8425.63882126748
100
AcDbArc
 50
90.3595948295
 51
90.3831688859
  0
ARC
  5
207
330
1E5
100
AcDbEntity
  8
DV3_Default
  6
Continuous
 62
     7
100
AcDbCircle
 10
952.6405535225
 20
1417.4696781271
 30
0.0
 40
1341.621839035361
100
AcDbArc
 50
231.536446945
 51
231.6377511144
  0
SPLINE
  5
208
330
1E5
100
AcDbEntity
  8
DV3_Default
  6
Continuous
 62
     7
100
AcDbSpline
210
0.0
220
0.0
230
1.0
 70
     8
 71
     3
 72
     8
 73
     4
 74
     0
 42
0.000000001
 43
0.0000000001
 40
0.0
 40
0.0
 40
0.0
 40
0.0
 40
1.0
 40
1.0
 40
1.0
 40
1.0
 10
124.6764842916081
 20
318.628988622
 30
0.0
 10
125.1591100806015
 20
319.1305284888606
 30
0.0
 10
125.6412374140355
 20
319.6311350006623
 30
0.0
 10
126.1228662919102
 20
320.130808157405
 30
0.0
  0
ELLIPSE
  5
209
330
1E5
100
AcDbEntity
  8
DV3_Default
  6
Continuous
 62
     7
100
AcDbEllipse
 10
31.85
 20
120.1373085422
 30
0.0
 11
13.99999999999998
 21
-4.440892098500626E-13
 31
0.0
210
0.0
220
0.0
230
1.0
 40
0.984807753
 41
3.141592653589793
 42
6.283185307179586
  0
ELLIPSE
  5
20A
330
1E5
100
AcDbEntity
  8
DV3_Default
  6
Continuous
 62
     7
100
AcDbEllipse
 10
31.85
 20
132.2926809789
 30
0.0
 11
-14.00000000000001
 21
-3.885780586188048E-13
 31
0.0
210
0.0
220
0.0
230
1.0
 40
0.984807753
 41
0.0000000000000007
 42
3.141592653589793
  0
LINE
  5
20B
330
1E5
100
AcDbEntity
  8
DV3_Default
  6
Continuous
 62
     7
100
AcDbLine
 10
39.15
 20
114.068328233
 30
0.0
 11
39.15
 21
117.1592657955
 31
0.0
  0
SPLINE
  5
20C
330
1E5
100
AcDbEntity
  8
DV3_Default
  6
Continuous
 62
     7
100
AcDbSpline
210
0.0
220
0.0
230
1.0
 70
     8
 71
     3
 72
    18
 73
    14
 74
     0
 42
0.000000001
 43
0.0000000001
 40
0.0
 40
0.0
 40
0.0
 40
0.0
 40
0.2499999999999997
 40
0.2499999999999997
 40
0.3749999999999997
 40
0.3749999999999997
 40
0.4999999999999998
 40
0.4999999999999998
 40
0.6249999999999998
 40
0.6249999999999998
 40
0.7499999999999999
 40
0.7499999999999999
 40
1.0
 40
1.0
 40
1.0
 40
1.0
 10
24.54999999999993
 20
114.0683282330136
 30
0.0
 10
24.54999999999993
 20
113.7264938653718
 30
0.0
 10
25.36317897123065
 20
112.8693553855108
 30
0.0
 10
27.34291774584985
 20
111.7506717865977
 30
0.0
 10
28.13987064929705
 20
111.4052856256546
 30
0.0
 10
29.89313852083275
 20
110.9202167981932
 30
0.0
 10
30.86372562095832
 20
110.7791082439406
 30
0.0
 10
32.812875658862
 20
110.7769617012367
 30
0.0
 10
33.78650074808883
 20
110.9156123442062
 30
0.0
 10
35.55856196019368
 20
111.4038359764307
 30
0.0
 10
36.35384895240077
 20
111.7490830357959
 30
0.0
 10
38.33632313267098
 20
112.8685987368952
 30
0.0
 10
39.14999999999993
 20
113.7262231718269
 30
0.0
 10
39.14999999999993
 20
114.0683282330136
 30
0.0
  0
LINE
  5
20D
330
1E5
100
AcDbEntity
  8
DV3_Default
  6
Continuous
 62
     7
100
AcDbLine
 10
24.55
 20
117.1592657955
 30
0.0
 11
24.55
 21
114.068328233
 31
0.0
  0
SPLINE
  5
20E
330
1E5
100
AcDbEntity
  8
DV3_Default
  6
Continuous
 62
     7
100
AcDbSpline
210
0.0
220
0.0
230
1.0
 70
     8
 71
     3
 72
    18
 73
    14
 74
     0
 42
0.000000001
 43
0.0000000001
 40
0.0
 40
0.0
 40
0.0
 40
0.0
 40
0.25
 40
0.25
 40
0.375
 40
0.375
 40
0.5
 40
0.5
 40
0.625
 40
0.625
 40
0.75
 40
0.75
 40
1.0
 40
1.0
 40
1.0
 40
1.0
 10
39.14999999999995
 20
117.159265795485
 30
0.0
 10
39.14999999999996
 20
117.5011001631268
 30
0.0
 10
38.33682102876924
 20
117.291935871281
 30
0.0
 10
36.35708225415004
 20
116.8621731669559
 30
0.0
 10
35.56012935070284
 20
116.7044858553967
 30
0.0
 10
33.80686147916713
 20
116.4758698512566
 30
0.0
 10
32.83627437904156
 20
116.4047634999477
 30
0.0
 10
30.88712434113788
 20
116.4037018462347
 30
0.0
 10
29.91349925191105
 20
116.4736501046033
 30
0.0
 10
28.1414380398062
 20
116.7038516530405
 30
0.0
 10
27.3461510475991
 20
116.8615022878365
 30
0.0
 10
25.36367686732891
 20
117.2917659354028
 30
0.0
 10
24.54999999999996
 20
117.5013708566717
 30
0.0
 10
24.54999999999995
 20
117.159265795485
 30
0.0
  0
LINE
  5
20F
330
1E5
100
AcDbEntity
  8
DV3_Default
  6
Continuous
 62
     7
100
AcDbLine
 10
45.85
 20
120.1373085422
 30
0.0
 11
45.85
 21
132.2926809789
 31
0.0
  0
LINE
  5
210
330
1E5
100
AcDbEntity
  8
DV3_Default
  6
Continuous
 62
     7
100
AcDbLine
 10
17.85
 20
132.2926809789
 30
0.0
 11
17.85
 21
120.1373085422
 31
0.0
  0
ELLIPSE
  5
211
330
1E5
100
AcDbEntity
  8
DV3_Default
  6
Continuous
 62
     7
100
AcDbEllipse
 10
33.9596528464
 20
116.800236614
 30
0.0
 11
4.999999999928251
 21
9.503509090791340E-11
 31
0.0
210
0.0
220
0.0
230
1.0
 40
0.984807753
 41
6.138828241091663
 42
6.274458647464832
  0
ELLIPSE
  5
212
330
1E5
100
AcDbEntity
  8
DV3_Default
  6
Continuous
 62
     7
100
AcDbEllipse
 10
29.7403471537
 20
116.8002366132
 30
0.0
 11
-5.000000000092864
 21
-1.450228825916611E-10
 31
0.0
210
0.0
220
0.0
230
1.0
 40
0.984807753
 41
0.0087266609795851
 42
0.1443570678899456
  0
LINE
  5
213
330
1E5
100
AcDbEntity
  8
DV3_Default
  6
Continuous
 62
     7
100
AcDbLine
 10
38.5933515416
 20
113.9626732755
 30
0.0
 11
38.9076458486
 21
116.0918830444
 31
0.0
  0
SPLINE
  5
214
330
1E5
100
AcDbEntity
  8
DV3_Default
  6
Continuous
 62
     7
100
AcDbSpline
210
0.0
220
0.0
230
1.0
 70
     8
 71
     3
 72
     8
 73
     4
 74
     0
 42
0.000000001
 43
0.0000000001
 40
0.0
 40
0.0
 40
0.0
 40
0.0
 40
1.0
 40
1.0
 40
1.0
 40
1.0
 10
38.59335154161992
 20
113.9626732755493
 30
0.0
 10
38.58762373911215
 20
113.9291263962494
 30
0.0
 10
38.58189593660536
 20
113.8955795169495
 30
0.0
 10
38.56877032069543
 20
113.8594006271691
 30
0.0
  0
LINE
  5
215
330
1E5
100
AcDbEntity
  8
DV3_Default
  6
Continuous
 62
     7
100
AcDbLine
 10
25.1066484577
 20
113.9626732833
 30
0.0
 11
24.7923541528
 21
116.0918830373
 31
0.0
  0
SPLINE
  5
216
330
1E5
100
AcDbEntity
  8
DV3_Default
  6
Continuous
 62
     7
100
AcDbSpline
210
0.0
220
0.0
230
1.0
 70
     8
 71
     3
 72
    18
 73
    14
 74
     0
 42
0.000000001
 43
0.0000000001
 40
0.0
 40
0.0
 40
0.0
 40
0.0
 40
0.0698874917958333
 40
0.1449711886080393
 40
0.2252460559629582
 40
0.3107046776518307
 40
0.4013354667313466
 40
0.4971207514653537
 40
0.5980349409674868
 40
0.7040431161670366
 40
0.8151207379876931
 40
0.9312841635394445
 40
1.0
 40
1.0
 40
1.0
 40
1.0
 10
25.11153922617095
 20
116.9760215082785
 30
0.0
 10
25.11461803653531
 20
116.9860592360929
 30
0.0
 10
25.12100456989912
 20
117.006881006839
 30
0.0
 10
25.14005724522692
 20
117.0360152362663
 30
0.0
 10
25.16808464329708
 20
117.0644035871435
 30
0.0
 10
25.20731708381387
 20
117.0912240303736
 30
0.0
 10
25.25915192332463
 20
117.1159526700841
 30
0.0
 10
25.32530216886554
 20
117.1379690440108
 30
0.0
 10
25.40744557610983
 20
117.1566823420671
 30
0.0
 10
25.50733341461738
 20
117.1714923273277
 30
0.0
 10
25.62673176734334
 20
117.1818527967947
 30
0.0
 10
25.74604172958277
 20
117.1866428236575
 30
0.0
 10
25.82710645162055
 20
117.1875957081305
 30
0.0
 10
25.85812184621209
 20
117.18768531465
 30
0.0
  0
SPLINE
  5
217
330
1E5
100
AcDbEntity
  8
DV3_Default
  6
Continuous
 62
     7
100
AcDbSpline
210
0.0
220
0.0
230
1.0
 70
     8
 71
     3
 72
    11
 73
     7
 74
     0
 42
0.000000001
 43
0.0000000001
 40
0.0
 40
0.0
 40
0.0
 40
0.0
 40
0.2560482078631969
 40
0.5286489887934303
 40
0.8180166992028601
 40
1.0
 40
1.0
 40
1.0
 40
1.0
 10
38.58846084547195
 20
116.9760218943625
 30
0.0
 10
38.57091544680746
 20
117.0107898244867
 30
0.0
 10
38.53469040411141
 20
117.082573303293
 30
0.0
 10
38.35920460981387
 20
117.1501217833113
 30
0.0
 10
38.11803785658809
 20
117.1815484591269
 30
0.0
 10
37.920111361796
 20
117.1863873290773
 30
0.0
 10
37.83743515166002
 20
117.1864862131924
 30
0.0
  0
ELLIPSE
  5
218
330
1E5
100
AcDbEntity
  8
DV3_Default
  6
Continuous
 62
     7
100
AcDbEllipse
 10
37.6037529397
 20
114.104343977
 30
0.0
 11
0.999999999987889
 21
9.714451465470120E-13
 31
0.0
210
0.0
220
0.0
230
1.0
 40
0.984807753
 41
5.120428169716923
 42
6.138828251474089
  0
LINE
  5
219
330
1E5
100
AcDbEntity
  8
DV3_Default
  6
Continuous
 62
     7
100
AcDbLine
 10
24.7354531993
 20
117.3300727088
 30
0.0
 11
24.7405460248
 21
116.7553592863
 31
0.0
  0
LINE
  5
21A
330
1E5
100
AcDbEntity
  8
DV3_Default
  6
Continuous
 62
     7
100
AcDbLine
 10
38.9594538399
 20
116.7553440186
 30
0.0
 11
38.9644359546
 21
117.3175639926
 31
0.0
  0
SPLINE
  5
21B
330
1E5
100
AcDbEntity
  8
DV3_Default
  6
Continuous
 62
     7
100
AcDbSpline
210
0.0
220
0.0
230
1.0
 70
     8
 71
     3
 72
    15
 73
    11
 74
     0
 42
0.000000001
 43
0.0000000001
 40
0.0
 40
0.0
 40
0.0
 40
0.0
 40
0.0253851025560956
 40
0.1848025924041398
 40
0.3426442532665244
 40
0.4988983170449251
 40
0.6512336050732196
 40
0.8001105663334438
 40
0.9458089912649679
 40
1.0
 40
1.0
 40
1.0
 40
1.0
 10
25.23870164954799
 20
113.5835156702289
 30
0.0
 10
25.24997923588485
 20
113.5539324107851
 30
0.0
 10
25.34302530883165
 20
113.3398980042327
 30
0.0
 10
25.71473389884763
 20
112.9281386373611
 30
0.0
 10
26.3665314961396
 20
112.4327914179359
 30
0.0
 10
27.17963663215371
 20
111.9778408637015
 30
0.0
 10
28.12704627243783
 20
111.5752986995396
 30
0.0
 10
29.16194610745258
 20
111.2595257030224
 30
0.0
 10
30.03220132484396
 20
111.0887638695268
 30
0.0
 10
30.54632091086976
 20
111.025318809305
 30
0.0
 10
30.6865439508962
 20
111.0107157504646
 30
0.0
  0
SPLINE
  5
21C
330
1E5
100
AcDbEntity
  8
DV3_Default
  6
Continuous
 62
     7
100
AcDbSpline
210
0.0
220
0.0
230
1.0
 70
     8
 71
     3
 72
    16
 73
    12
 74
     0
 42
0.000000001
 43
0.0000000001
 40
0.0
 40
0.0
 40
0.0
 40
0.0
 40
0.0789385047971184
 40
0.2260722982474049
 40
0.3728371569236047
 40
0.4775510136323468
 40
0.5923151853535088
 40
0.7181209728658644
 40
0.8204990995067665
 40
0.9303337270537302
 40
1.0
 40
1.0
 40
1.0
 40
1.0
 10
33.03902221095314
 20
111.0135793140386
 30
0.0
 10
33.23680441411022
 20
111.0346588573831
 30
0.0
 10
33.79825708383316
 20
111.109767141454
 30
0.0
 10
34.68974777739371
 20
111.2999989570975
 30
0.0
 10
35.56095463533513
 20
111.5750450523948
 30
0.0
 10
36.30155134992308
 20
111.8798441844097
 30
0.0
 10
36.94499225452275
 20
112.2087829505303
 30
0.0
 10
37.50414516658749
 20
112.5716917508288
 30
0.0
 10
37.96326005602737
 20
112.9527536746873
 30
0.0
 10
38.25224913142811
 20
113.2721266321027
 30
0.0
 10
38.39814542907748
 20
113.4796544393857
 30
0.0
 10
38.44249332314312
 20
113.5564903995988
 30
0.0
  0
ENDBLK
  5
21E
330
1E5
100
AcDbEntity
  8
0
100
AcDbBlockEnd
  0
ENDSEC
  0
SECTION
  2
ENTITIES
  0
INSERT
  5
6C
330
1F
100
AcDbEntity
  8
Default
100
AcDbBlockReference
  2
SEANNOT_GROUP
 10
0.0
 20
0.0
 30
0.0
  0
INSERT
  5
73
330
1F
100
AcDbEntity
  8
Default
100
AcDbBlockReference
  2
SEANNOT_GROUP1
 10
0.0
 20
0.0
 30
0.0
  0
INSERT
  5
79
330
1F
100
AcDbEntity
  8
Default
100
AcDbBlockReference
  2
SEANNOT_GROUP2
 10
0.0
 20
0.0
 30
0.0
  0
INSERT
  5
7F
330
1F
100
AcDbEntity
  8
Default
100
AcDbBlockReference
  2
SE
 10
0.0
 20
0.0
 30
0.0
  0
INSERT
  5
171
330
1F
100
AcDbEntity
  8
Default
100
AcDbBlockReference
  2
SE1
 10
0.0
 20
0.0
 30
0.0
  0
INSERT
  5
1E6
330
1F
100
AcDbEntity
  8
Default
100
AcDbBlockReference
  2
SE2
 10
0.0
 20
0.0
 30
0.0
  0
MTEXT
  5
21F
330
1F
100
AcDbEntity
  8
Default
100
AcDbMText
 10
5.9362635081
 20
63.4225120485
 30
0.0
 40
10.0
 41
113.8626497168
 71
     1
 72
     1
  1
{\fSolid Edge ISO|b0||i0||c0|p34;\C7;\H10.;\W1.;Grohe AG\P}{\fSolid Edge ISO|b0||i0||c0|p34;\C7;\H10.;\W1.;\P}{\fSolid Edge ISO|b0||i0||c0|p34;\C7;\H10.;\W1.;ecn:\P}{\fSolid Edge ISO|b0||i0||c0|p34;\C7;\H10.;\W1.;unit: mm}
 73
     1
 44
1.0
1001
ACAD
1000
ACAD_MTEXT_DEFINED_HEIGHT_BEGIN
1070
    46
1040
65.4545454545
1000
ACAD_MTEXT_DEFINED_HEIGHT_END
  0
LINE
  5
220
330
1F
100
AcDbEntity
  8
Default
  6
Continuous
 62
     7
100
AcDbLine
 10
0.0
 20
0.0
 30
0.0
 11
100.0
 21
0.0
 31
0.0
  0
LINE
  5
221
330
1F
100
AcDbEntity
  8
Default
  6
Continuous
 62
     7
100
AcDbLine
 10
0.0
 20
0.0
 30
0.0
 11
0.0
 21
100.0
 31
0.0
  0
MTEXT
  5
222
330
1F
100
AcDbEntity
  8
Default
100
AcDbMText
 10
24.3923665681
 20
-8.2375342018
 30
0.0
 40
10.0
 41
35.00001
 71
     1
 72
     1
  1
{\fSolid Edge ISO|b0||i0||c0|p34;\C7;\H10.;\W1.;100 mm}
 73
     1
 44
1.0
1001
ACAD
1000
ACAD_MTEXT_DEFINED_HEIGHT_BEGIN
1070
    46
1040
16.3636363636
1000
ACAD_MTEXT_DEFINED_HEIGHT_END
  0
MTEXT
  5
223
330
1F
100
AcDbEntity
  8
Default
100
AcDbMText
 10
-20.5695763349
 20
24.6231930421
 30
0.0
 40
10.0
 41
35.00001
 71
     1
 72
     1
  1
{\fSolid Edge ISO|b0||i0||c0|p34;\C7;\H10.;\W1.;100 mm}
 11
6.123233995736766E-17
 21
1.0
 31
0.0
 73
     1
 44
1.0
1001
ACAD
1000
ACAD_MTEXT_DEFINED_HEIGHT_BEGIN
1070
    46
1040
16.3636363636
1000
ACAD_MTEXT_DEFINED_HEIGHT_END
  0
MTEXT
  5
224
330
1F
100
AcDbEntity
  8
Default
100
AcDbMText
 10
28.4878128572
 20
24.8634936442
 30
0.0
 40
10.0
 41
86.691737001
 71
     4
 72
     1
  1
{\fSolid Edge ISO|b0||i0||c0|p34;\C7;\H10.;\W1.;241231}
 73
     1
 44
1.0
1001
ACAD
1000
ACAD_MTEXT_DEFINED_HEIGHT_BEGIN
1070
    46
1040
16.3636363636
1000
ACAD_MTEXT_DEFINED_HEIGHT_END
  0
MTEXT
  5
225
330
1F
100
AcDbEntity
  8
Default
100
AcDbMText
 10
5.9012241913
 20
41.4970052916
 30
0.0
 40
10.0
 41
109.9146987306
 71
     4
 72
     1
  1
{\fSolid Edge ISO|b0||i0||c0|p34;\C7;\H10.;\W1.;32665003}
 73
     1
 44
1.0
1001
ACAD
1000
ACAD_MTEXT_DEFINED_HEIGHT_BEGIN
1070
    46
1040
16.3636363636
1000
ACAD_MTEXT_DEFINED_HEIGHT_END
  0
ENDSEC
  0
SECTION
  2
OBJECTS
  0
DICTIONARY
  5
C
330
0
100
AcDbDictionary
281
     1
  3
ACAD_GROUP
350
D
  3
ACAD_LAYOUT
350
1A
  3
ACAD_MATERIAL
350
43
  3
ACAD_MLEADERSTYLE
350
228
  3
ACAD_MLINESTYLE
350
17
  3
ACAD_PLOTSETTINGS
350
19
  3
ACAD_PLOTSTYLENAME
350
E
  3
ACAD_SCALELIST
350
47
  3
ACAD_VISUALSTYLE
350
2A
  3
AcDbVariableDictionary
350
226
  0
DICTIONARY
  5
D
102
{ACAD_REACTORS
330
C
102
}
330
C
100
AcDbDictionary
281
     1
  0
DICTIONARY
  5
1A
102
{ACAD_REACTORS
330
C
102
}
330
C
100
AcDbDictionary
281
     1
  3
Layout1
350
1E
  3
Model
350
22
  0
DICTIONARY
  5
43
102
{ACAD_REACTORS
330
C
102
}
330
C
100
AcDbDictionary
281
     1
  3
ByBlock
350
45
  3
ByLayer
350
44
  3
Global
350
46
  0
DICTIONARY
  5
228
102
{ACAD_REACTORS
330
C
102
}
330
C
100
AcDbDictionary
281
     1
  0
DICTIONARY
  5
17
102
{ACAD_REACTORS
330
C
102
}
330
C
100
AcDbDictionary
281
     1
  3
Standard
350
18
  0
DICTIONARY
  5
19
102
{ACAD_REACTORS
330
C
102
}
330
C
100
AcDbDictionary
281
     1
  0
ACDBDICTIONARYWDFLT
  5
E
102
{ACAD_REACTORS
330
C
102
}
330
C
100
AcDbDictionary
281
     1
  3
Normal
350
F
100
AcDbDictionaryWithDefault
340
F
  0
DICTIONARY
  5
47
102
{ACAD_REACTORS
330
C
102
}
330
C
100
AcDbDictionary
281
     1
  3
A0
350
48
  3
A1
350
49
  3
A2
350
4A
  3
A3
350
4B
  3
A4
350
4C
  3
A5
350
4D
  3
A6
350
4E
  3
A7
350
4F
  3
A8
350
50
  3
A9
350
51
  3
B0
350
52
  3
B1
350
53
  3
B2
350
54
  3
B3
350
55
  3
B4
350
56
  3
B5
350
57
  3
B6
350
58
  3
B7
350
59
  3
B8
350
5A
  3
B9
350
5B
  3
C0
350
5C
  3
C1
350
5D
  3
C2
350
5E
  3
C3
350
5F
  3
C4
350
60
  3
C5
350
61
  3
C6
350
62
  3
C7
350
63
  3
C8
350
64
  3
C9
350
65
  3
D0
350
66
  3
D1
350
67
  3
D2
350
68
  0
DICTIONARY
  5
2A
102
{ACAD_REACTORS
330
C
102
}
330
C
100
AcDbDictionary
281
     1
  3
2dWireframe
350
2F
  3
Basic
350
32
  3
Brighten
350
36
  3
ColorChange
350
3A
  3
Conceptual
350
34
  3
Dim
350
35
  3
EdgeColorOff
350
3D
  3
Facepattern
350
39
  3
Flat
350
2B
  3
FlatWithEdges
350
2C
  3
Gouraud
350
2D
  3
GouraudWithEdges
350
2E
  3
Hidden
350
31
  3
JitterOff
350
3B
  3
Linepattern
350
38
  3
OverhangOff
350
3C
  3
Realistic
350
33
  3
Shaded
350
42
  3
Shaded with edges
350
41
  3
Shades of Gray
350
3E
  3
Sketchy
350
3F
  3
Thicken
350
37
  3
Wireframe
350
30
  3
X-Ray
350
40
  0
DICTIONARY
  5
226
102
{ACAD_REACTORS
330
C
102
}
330
C
100
AcDbDictionary
281
     1
  3
CANNOSCALE
350
22F
  3
DIMASSOC
350
22D
  3
HIDETEXT
350
22E
  3
MSLTSCALE
350
230
  3
PSOLHEIGHT
350
22A
  3
PSOLWIDTH
350
229
  0
LAYOUT
  5
1E
102
{ACAD_REACTORS
330
1A
102
}
330
1A
100
AcDbPlotSettings
  1

  2
none_device
  4

  6

 40
0.0
 41
0.0
 42
0.0
 43
0.0
 44
0.0
 45
0.0
 46
0.0
 47
0.0
 48
0.0
 49
0.0
140
0.0
141
0.0
142
1.0
143
1.0
 70
   688
 72
     1
 73
     0
 74
     5
  7

 75
    16
147
1.0
148
0.0
149
0.0
100
AcDbLayout
  1
Layout1
 70
     1
 71
     1
 10
0.0
 20
0.0
 11
3000.0
 21
4500.0
 12
0.0
 22
0.0
 32
0.0
 14
0.0
 24
0.0
 34
0.0
 15
3000.0
 25
4500.0
 35
0.0
146
0.0
 13
0.0
 23
0.0
 33
0.0
 16
1.0
 26
0.0
 36
0.0
 17
0.0
 27
1.0
 37
0.0
 76
     0
330
1B
  0
LAYOUT
  5
22
102
{ACAD_REACTORS
330
1A
102
}
330
1A
100
AcDbPlotSettings
  1

  2
none_device
  4
Letter_(8.50_x_11.00_Inches)
  6

 40
6.35
 41
6.35
 42
6.35000508
 43
6.35000508
 44
215.9
 45
279.4
 46
0.0
 47
0.0
 48
0.0
 49
0.0
140
0.0
141
0.0
142
1.0
143
1.0
 70
  1712
 72
     1
 73
     0
 74
     0
  7

 75
     0
147
1.0
148
0.0
149
0.0
100
AcDbLayout
  1
Model
 70
     1
 71
     0
 10
0.0
 20
0.0
 11
3000.0
 21
4500.0
 12
0.0
 22
0.0
 32
0.0
 14
0.0
 24
0.0
 34
0.0
 15
3000.0
 25
4500.0
 35
0.0
146
0.0
 13
0.0
 23
0.0
 33
0.0
 16
1.0
 26
0.0
 36
0.0
 17
0.0
 27
1.0
 37
0.0
 76
     0
330
1F
331
29
  0
MATERIAL
  5
45
102
{ACAD_REACTORS
330
43
102
}
102
{ACAD_XDICTIONARY
360
263
102
}
330
43
100
AcDbMaterial
  1
ByBlock
  0
MATERIAL
  5
44
102
{ACAD_REACTORS
330
43
102
}
102
{ACAD_XDICTIONARY
360
261
102
}
330
43
100
AcDbMaterial
  1
ByLayer
  0
MATERIAL
  5
46
102
{ACAD_REACTORS
330
43
102
}
102
{ACAD_XDICTIONARY
360
265
102
}
330
43
100
AcDbMaterial
  1
Global
  0
MLINESTYLE
  5
18
102
{ACAD_REACTORS
330
17
102
}
330
17
100
AcDbMlineStyle
  2
Standard
 70
     0
  3

 62
   256
 51
90.0
 52
90.0
 71
     2
 49
0.5
 62
   256
  6
BYLAYER
 49
-0.5
 62
   256
  6
BYLAYER
  0
ACDBPLACEHOLDER
  5
F
102
{ACAD_REACTORS
330
E
102
}
330
E
  0
SCALE
  5
48
102
{ACAD_REACTORS
330
47
102
}
330
47
100
AcDbScale
 70
     0
300
1:1
140
1.0
141
1.0
290
     1
  0
SCALE
  5
49
102
{ACAD_REACTORS
330
47
102
}
330
47
100
AcDbScale
 70
     0
300
1:2
140
1.0
141
2.0
290
     0
  0
SCALE
  5
4A
102
{ACAD_REACTORS
330
47
102
}
330
47
100
AcDbScale
 70
     0
300
1:4
140
1.0
141
4.0
290
     0
  0
SCALE
  5
4B
102
{ACAD_REACTORS
330
47
102
}
330
47
100
AcDbScale
 70
     0
300
1:5
140
1.0
141
5.0
290
     0
  0
SCALE
  5
4C
102
{ACAD_REACTORS
330
47
102
}
330
47
100
AcDbScale
 70
     0
300
1:8
140
1.0
141
8.0
290
     0
  0
SCALE
  5
4D
102
{ACAD_REACTORS
330
47
102
}
330
47
100
AcDbScale
 70
     0
300
1:10
140
1.0
141
10.0
290
     0
  0
SCALE
  5
4E
102
{ACAD_REACTORS
330
47
102
}
330
47
100
AcDbScale
 70
     0
300
1:16
140
1.0
141
16.0
290
     0
  0
SCALE
  5
4F
102
{ACAD_REACTORS
330
47
102
}
330
47
100
AcDbScale
 70
     0
300
1:20
140
1.0
141
20.0
290
     0
  0
SCALE
  5
50
102
{ACAD_REACTORS
330
47
102
}
330
47
100
AcDbScale
 70
     0
300
1:30
140
1.0
141
30.0
290
     0
  0
SCALE
  5
51
102
{ACAD_REACTORS
330
47
102
}
330
47
100
AcDbScale
 70
     0
300
1:40
140
1.0
141
40.0
290
     0
  0
SCALE
  5
52
102
{ACAD_REACTORS
330
47
102
}
330
47
100
AcDbScale
 70
     0
300
1:50
140
1.0
141
50.0
290
     0
  0
SCALE
  5
53
102
{ACAD_REACTORS
330
47
102
}
330
47
100
AcDbScale
 70
     0
300
1:100
140
1.0
141
100.0
290
     0
  0
SCALE
  5
54
102
{ACAD_REACTORS
330
47
102
}
330
47
100
AcDbScale
 70
     0
300
2:1
140
2.0
141
1.0
290
     0
  0
SCALE
  5
55
102
{ACAD_REACTORS
330
47
102
}
330
47
100
AcDbScale
 70
     0
300
4:1
140
4.0
141
1.0
290
     0
  0
SCALE
  5
56
102
{ACAD_REACTORS
330
47
102
}
330
47
100
AcDbScale
 70
     0
300
8:1
140
8.0
141
1.0
290
     0
  0
SCALE
  5
57
102
{ACAD_REACTORS
330
47
102
}
330
47
100
AcDbScale
 70
     0
300
10:1
140
10.0
141
1.0
290
     0
  0
SCALE
  5
58
102
{ACAD_REACTORS
330
47
102
}
330
47
100
AcDbScale
 70
     0
300
100:1
140
100.0
141
1.0
290
     0
  0
SCALE
  5
59
102
{ACAD_REACTORS
330
47
102
}
330
47
100
AcDbScale
 70
     0
300
1/128" = 1'-0"
140
0.0078125
141
12.0
290
     0
  0
SCALE
  5
5A
102
{ACAD_REACTORS
330
47
102
}
330
47
100
AcDbScale
 70
     0
300
1/64" = 1'-0"
140
0.015625
141
12.0
290
     0
  0
SCALE
  5
5B
102
{ACAD_REACTORS
330
47
102
}
330
47
100
AcDbScale
 70
     0
300
1/32" = 1'-0"
140
0.03125
141
12.0
290
     0
  0
SCALE
  5
5C
102
{ACAD_REACTORS
330
47
102
}
330
47
100
AcDbScale
 70
     0
300
1/16" = 1'-0"
140
0.0625
141
12.0
290
     0
  0
SCALE
  5
5D
102
{ACAD_REACTORS
330
47
102
}
330
47
100
AcDbScale
 70
     0
300
3/32" = 1'-0"
140
0.09375
141
12.0
290
     0
  0
SCALE
  5
5E
102
{ACAD_REACTORS
330
47
102
}
330
47
100
AcDbScale
 70
     0
300
1/8" = 1'-0"
140
0.125
141
12.0
290
     0
  0
SCALE
  5
5F
102
{ACAD_REACTORS
330
47
102
}
330
47
100
AcDbScale
 70
     0
300
3/16" = 1'-0"
140
0.1875
141
12.0
290
     0
  0
SCALE
  5
60
102
{ACAD_REACTORS
330
47
102
}
330
47
100
AcDbScale
 70
     0
300
1/4" = 1'-0"
140
0.25
141
12.0
290
     0
  0
SCALE
  5
61
102
{ACAD_REACTORS
330
47
102
}
330
47
100
AcDbScale
 70
     0
300
3/8" = 1'-0"
140
0.375
141
12.0
290
     0
  0
SCALE
  5
62
102
{ACAD_REACTORS
330
47
102
}
330
47
100
AcDbScale
 70
     0
300
1/2" = 1'-0"
140
0.5
141
12.0
290
     0
  0
SCALE
  5
63
102
{ACAD_REACTORS
330
47
102
}
330
47
100
AcDbScale
 70
     0
300
3/4" = 1'-0"
140
0.75
141
12.0
290
     0
  0
SCALE
  5
64
102
{ACAD_REACTORS
330
47
102
}
330
47
100
AcDbScale
 70
     0
300
1" = 1'-0"
140
1.0
141
12.0
290
     0
  0
SCALE
  5
65
102
{ACAD_REACTORS
330
47
102
}
330
47
100
AcDbScale
 70
     0
300
1-1/2" = 1'-0"
140
1.5
141
12.0
290
     0
  0
SCALE
  5
66
102
{ACAD_REACTORS
330
47
102
}
330
47
100
AcDbScale
 70
     0
300
3" = 1'-0"
140
3.0
141
12.0
290
     0
  0
SCALE
  5
67
102
{ACAD_REACTORS
330
47
102
}
330
47
100
AcDbScale
 70
     0
300
6" = 1'-0"
140
6.0
141
12.0
290
     0
  0
SCALE
  5
68
102
{ACAD_REACTORS
330
47
102
}
330
47
100
AcDbScale
 70
     0
300
1'-0" = 1'-0"
140
12.0
141
12.0
290
     0
  0
VISUALSTYLE
  5
2F
102
{ACAD_REACTORS
330
2A
102
}
102
{ACAD_XDICTIONARY
360
239
102
}
330
2A
100
AcDbVisualStyle
  2
2dWireframe
 70
     4
 71
     0
 72
     2
 73
     0
 90
        0
 40
0.6
 41
30.0
 62
     5
 63
     7
 74
     1
 91
        4
 64
     7
 65
   257
 75
     1
175
     1
 42
1.0
 92
        0
 66
   257
 43
1.0
 76
     1
 77
     6
 78
     2
 67
     7
 79
     5
170
     0
171
     0
290
     0
174
     0
 93
        1
 44
0.0
173
     0
291
     0
 45
0.0
1001
ACAD
1000
AcDbSavedByObjectVersion
1070
     0
  0
VISUALSTYLE
  5
32
102
{ACAD_REACTORS
330
2A
102
}
102
{ACAD_XDICTIONARY
360
23F
102
}
330
2A
100
AcDbVisualStyle
  2
Basic
 70
     7
 71
     1
 72
     0
 73
     1
 90
        0
 40
0.6
 41
30.0
 62
     5
 63
     7
 74
     0
 91
        4
 64
     7
 65
   257
 75
     1
175
     1
 42
1.0
 92
        8
 66
     7
 43
1.0
 76
     1
 77
     6
 78
     2
 67
     7
 79
     5
170
     0
171
     0
290
     0
174
     0
 93
        1
 44
0.0
173
     0
291
     1
 45
0.0
1001
ACAD
1000
AcDbSavedByObjectVersion
1070
     0
  0
VISUALSTYLE
  5
36
102
{ACAD_REACTORS
330
2A
102
}
102
{ACAD_XDICTIONARY
360
247
102
}
330
2A
100
AcDbVisualStyle
  2
Brighten
 70
    12
 71
     2
 72
     2
 73
     0
 90
        0
 40
0.6
 41
30.0
 62
     5
 63
     7
 74
     1
 91
        4
 64
     7
 65
   257
 75
     1
175
     1
 42
1.0
 92
        8
 66
     7
 43
1.0
 76
     1
 77
     6
 78
     2
 67
     7
 79
     5
170
     0
171
     0
290
     0
174
     0
 93
        1
 44
50.0
173
     0
291
     1
 45
0.0
1001
ACAD
1000
AcDbSavedByObjectVersion
1070
     0
  0
VISUALSTYLE
  5
3A
102
{ACAD_REACTORS
330
2A
102
}
102
{ACAD_XDICTIONARY
360
24F
102
}
330
2A
100
AcDbVisualStyle
  2
ColorChange
 70
    16
 71
     2
 72
     2
 73
     3
 90
        0
 40
0.6
 41
30.0
 62
     5
 63
     8
 74
     1
 91
        4
 64
     7
 65
   257
 75
     1
175
     1
 42
1.0
 92
        8
 66
     8
 43
1.0
 76
     1
 77
     6
 78
     2
 67
     7
 79
     5
170
     0
171
     0
290
     0
174
     0
 93
        1
 44
0.0
173
     0
291
     1
 45
0.0
1001
ACAD
1000
AcDbSavedByObjectVersion
1070
     0
  0
VISUALSTYLE
  5
34
102
{ACAD_REACTORS
330
2A
102
}
102
{ACAD_XDICTIONARY
360
243
102
}
330
2A
100
AcDbVisualStyle
  2
Conceptual
 70
     9
 71
     3
 72
     2
 73
     0
 90
        0
 40
0.6
 41
30.0
 62
     5
 63
     7
 74
     2
 91
        2
 64
     7
 65
   257
 75
     1
175
     1
 42
179.0
 92
        8
 66
     7
 43
1.0
 76
     1
 77
     6
 78
     2
 67
     7
 79
     3
170
     0
171
     0
290
     0
174
     0
 93
        1
 44
0.0
173
     0
291
     0
 45
0.0
1001
ACAD
1000
AcDbSavedByObjectVersion
1070
     0
  0
VISUALSTYLE
  5
35
102
{ACAD_REACTORS
330
2A
102
}
102
{ACAD_XDICTIONARY
360
245
102
}
330
2A
100
AcDbVisualStyle
  2
Dim
 70
    11
 71
     2
 72
     2
 73
     0
 90
        0
 40
0.6
 41
30.0
 62
     5
 63
     7
 74
     1
 91
        4
 64
     7
 65
   257
 75
     1
175
     1
 42
1.0
 92
        8
 66
     7
 43
1.0
 76
     1
 77
     6
 78
     2
 67
     7
 79
     5
170
     0
171
     0
290
     0
174
     0
 93
        1
 44
-50.0
173
     0
291
     1
 45
0.0
1001
ACAD
1000
AcDbSavedByObjectVersion
1070
     0
  0
VISUALSTYLE
  5
3D
102
{ACAD_REACTORS
330
2A
102
}
102
{ACAD_XDICTIONARY
360
255
102
}
330
2A
100
AcDbVisualStyle
  2
EdgeColorOff
 70
    22
 71
     2
 72
     2
 73
     0
 90
        0
 40
0.6
 41
30.0
 62
     5
 63
     7
 74
     1
 91
        4
 64
     7
 65
   257
 75
     1
175
     1
 42
1.0
 92
        8
 66
     7
 43
1.0
 76
     1
 77
     6
 78
     2
 67
     7
 79
     5
170
     0
171
     0
290
     0
174
     0
 93
        1
 44
0.0
173
     0
291
     1
 45
0.0
1001
ACAD
1000
AcDbSavedByObjectVersion
1070
     0
  0
VISUALSTYLE
  5
39
102
{ACAD_REACTORS
330
2A
102
}
102
{ACAD_XDICTIONARY
360
24D
102
}
330
2A
100
AcDbVisualStyle
  2
Facepattern
 70
    15
 71
     2
 72
     2
 73
     0
 90
        0
 40
0.6
 41
30.0
 62
     5
 63
     7
 74
     1
 91
        4
 64
     7
 65
   257
 75
     1
175
     1
 42
1.0
 92
        8
 66
     7
 43
1.0
 76
     1
 77
     6
 78
     2
 67
     7
 79
     5
170
     0
171
     0
290
     0
174
     0
 93
        1
 44
0.0
173
     0
291
     1
 45
0.0
1001
ACAD
1000
AcDbSavedByObjectVersion
1070
     0
  0
VISUALSTYLE
  5
2B
102
{ACAD_REACTORS
330
2A
102
}
102
{ACAD_XDICTIONARY
360
231
102
}
330
2A
100
AcDbVisualStyle
  2
Flat
 70
     0
 71
     2
 72
     1
 73
     1
 90
        2
 40
0.6
 41
30.0
 62
     5
 63
     7
 74
     0
 91
        0
 64
     7
 65
   257
 75
     1
175
     1
 42
1.0
 92
        8
 66
     7
 43
1.0
 76
     1
 77
     6
 78
     2
 67
     7
 79
     5
170
     0
171
     0
290
     0
174
     0
 93
       13
 44
0.0
173
     0
291
     1
 45
0.0
1001
ACAD
1000
AcDbSavedByObjectVersion
1070
     0
  0
VISUALSTYLE
  5
2C
102
{ACAD_REACTORS
330
2A
102
}
102
{ACAD_XDICTIONARY
360
233
102
}
330
2A
100
AcDbVisualStyle
  2
FlatWithEdges
 70
     1
 71
     2
 72
     1
 73
     1
 90
        2
 40
0.6
 41
30.0
 62
     5
 63
     7
 74
     1
 91
        0
 64
     7
 65
   257
 75
     1
175
     1
 42
1.0
 92
        0
 66
   257
 43
1.0
 76
     1
 77
     6
 78
     2
 67
     7
 79
     5
170
     0
171
     0
290
     0
174
     0
 93
       13
 44
0.0
173
     0
291
     1
 45
0.0
1001
ACAD
1000
AcDbSavedByObjectVersion
1070
     0
  0
VISUALSTYLE
  5
2D
102
{ACAD_REACTORS
330
2A
102
}
102
{ACAD_XDICTIONARY
360
235
102
}
330
2A
100
AcDbVisualStyle
  2
Gouraud
 70
     2
 71
     2
 72
     2
 73
     1
 90
        2
 40
0.6
 41
30.0
 62
     5
 63
     7
 74
     0
 91
        0
 64
     7
 65
   257
 75
     1
175
     1
 42
1.0
 92
        0
 66
     7
 43
1.0
 76
     1
 77
     6
 78
     2
 67
     7
 79
     5
170
     0
171
     0
290
     0
174
     0
 93
       13
 44
0.0
173
     0
291
     1
 45
0.0
1001
ACAD
1000
AcDbSavedByObjectVersion
1070
     0
  0
VISUALSTYLE
  5
2E
102
{ACAD_REACTORS
330
2A
102
}
102
{ACAD_XDICTIONARY
360
237
102
}
330
2A
100
AcDbVisualStyle
  2
GouraudWithEdges
 70
     3
 71
     2
 72
     2
 73
     1
 90
        2
 40
0.6
 41
30.0
 62
     5
 63
     7
 74
     1
 91
        0
 64
     7
 65
   257
 75
     1
175
     1
 42
1.0
 92
        0
 66
   257
 43
1.0
 76
     1
 77
     6
 78
     2
 67
     7
 79
     5
170
     0
171
     0
290
     0
174
     0
 93
       13
 44
0.0
173
     0
291
     1
 45
0.0
1001
ACAD
1000
AcDbSavedByObjectVersion
1070
     0
  0
VISUALSTYLE
  5
31
102
{ACAD_REACTORS
330
2A
102
}
102
{ACAD_XDICTIONARY
360
23D
102
}
330
2A
100
AcDbVisualStyle
  2
Hidden
 70
     6
 71
     1
 72
     2
 73
     2
 90
        0
 40
0.6
 41
30.0
 62
     5
 63
     7
 74
     2
 91
        2
 64
     7
 65
   257
 75
     2
175
     1
 42
40.0
 92
        0
 66
   257
 43
1.0
 76
     1
 77
     6
 78
     2
 67
     7
 79
     3
170
     0
171
     0
290
     0
174
     0
 93
        1
 44
0.0
173
     0
291
     0
 45
0.0
1001
ACAD
1000
AcDbSavedByObjectVersion
1070
     0
  0
VISUALSTYLE
  5
3B
102
{ACAD_REACTORS
330
2A
102
}
102
{ACAD_XDICTIONARY
360
251
102
}
330
2A
100
AcDbVisualStyle
  2
JitterOff
 70
    20
 71
     2
 72
     2
 73
     0
 90
        0
 40
0.6
 41
30.0
 62
     5
 63
     7
 74
     1
 91
        4
 64
     7
 65
   257
 75
     1
175
     1
 42
1.0
 92
       10
 66
     7
 43
1.0
 76
     1
 77
     6
 78
     2
 67
     7
 79
     5
170
     0
171
     0
290
     0
174
     0
 93
        1
 44
0.0
173
     0
291
     1
 45
0.0
1001
ACAD
1000
AcDbSavedByObjectVersion
1070
     0
  0
VISUALSTYLE
  5
38
102
{ACAD_REACTORS
330
2A
102
}
102
{ACAD_XDICTIONARY
360
24B
102
}
330
2A
100
AcDbVisualStyle
  2
Linepattern
 70
    14
 71
     2
 72
     2
 73
     0
 90
        0
 40
0.6
 41
30.0
 62
     5
 63
     7
 74
     1
 91
        4
 64
     7
 65
   257
 75
     7
175
     7
 42
1.0
 92
        8
 66
     7
 43
1.0
 76
     1
 77
     6
 78
     2
 67
     7
 79
     5
170
     0
171
     0
290
     0
174
     0
 93
        1
 44
0.0
173
     0
291
     1
 45
0.0
1001
ACAD
1000
AcDbSavedByObjectVersion
1070
     0
  0
VISUALSTYLE
  5
3C
102
{ACAD_REACTORS
330
2A
102
}
102
{ACAD_XDICTIONARY
360
253
102
}
330
2A
100
AcDbVisualStyle
  2
OverhangOff
 70
    21
 71
     2
 72
     2
 73
     0
 90
        0
 40
0.6
 41
30.0
 62
     5
 63
     7
 74
     1
 91
        4
 64
     7
 65
   257
 75
     1
175
     1
 42
1.0
 92
        9
 66
     7
 43
1.0
 76
     1
 77
     6
 78
     2
 67
     7
 79
     5
170
     0
171
     0
290
     0
174
     0
 93
        1
 44
0.0
173
     0
291
     1
 45
0.0
1001
ACAD
1000
AcDbSavedByObjectVersion
1070
     0
  0
VISUALSTYLE
  5
33
102
{ACAD_REACTORS
330
2A
102
}
102
{ACAD_XDICTIONARY
360
241
102
}
330
2A
100
AcDbVisualStyle
  2
Realistic
 70
     8
 71
     2
 72
     3
 73
     0
 90
        2
 40
0.6
 41
30.0
 62
     5
 63
     7
 74
     0
 91
        0
 64
     7
 65
   257
 75
     1
175
     1
 42
1.0
 92
        8
 66
   257
 43
1.0
 76
     1
 77
     6
 78
     2
 67
     7
 79
     3
170
     0
171
     0
290
     0
174
     0
 93
       13
 44
0.0
173
     0
291
     0
 45
0.0
1001
ACAD
1000
AcDbSavedByObjectVersion
1070
     0
  0
VISUALSTYLE
  5
42
102
{ACAD_REACTORS
330
2A
102
}
102
{ACAD_XDICTIONARY
360
25F
102
}
330
2A
100
AcDbVisualStyle
  2
Shaded
 70
    27
 71
     2
 72
     2
 73
     1
 90
        2
 40
0.6
 41
30.0
 62
     5
 63
     7
 74
     0
 91
        4
 64
     7
 65
   257
 75
     1
175
     1
 42
1.0
 92
        8
 66
   257
 43
1.0
 76
     1
 77
     6
 78
     2
 67
     8
 79
     3
170
     0
171
     0
290
     0
174
     0
 93
        5
 44
0.0
173
     0
291
     0
 45
0.0
1001
ACAD
1000
AcDbSavedByObjectVersion
1070
     0
  0
VISUALSTYLE
  5
41
102
{ACAD_REACTORS
330
2A
102
}
102
{ACAD_XDICTIONARY
360
25D
102
}
330
2A
100
AcDbVisualStyle
  2
Shaded with edges
 70
    26
 71
     2
 72
     2
 73
     1
 90
        2
 40
0.6
 41
30.0
 62
     5
 63
     7
 74
     1
 91
       10
 64
     7
 65
   257
 75
     2
175
     1
 42
1.0
 92
        8
 66
   257
 43
1.0
 76
     1
 77
     6
 78
     2
 67
     7
 79
     3
170
     0
171
     0
290
     0
174
     0
 93
        5
 44
0.0
173
     0
291
     0
 45
0.0
1001
ACAD
1000
AcDbSavedByObjectVersion
1070
     0
  0
VISUALSTYLE
  5
3E
102
{ACAD_REACTORS
330
2A
102
}
102
{ACAD_XDICTIONARY
360
257
102
}
330
2A
100
AcDbVisualStyle
  2
Shades of Gray
 70
    23
 71
     2
 72
     2
 73
     3
 90
        0
 40
0.6
 41
30.0
 62
     5
 63
     7
 74
     2
 91
        2
 64
     7
 65
     7
 75
     1
175
     1
 42
40.0
 92
        8
 66
     7
 43
1.0
 76
     1
 77
     6
 78
     2
 67
     7
 79
     3
170
     0
171
     0
290
     0
174
     0
 93
        1
 44
0.0
173
     0
291
     0
 45
0.0
1001
ACAD
1000
AcDbSavedByObjectVersion
1070
     0
  0
VISUALSTYLE
  5
3F
102
{ACAD_REACTORS
330
2A
102
}
102
{ACAD_XDICTIONARY
360
259
102
}
330
2A
100
AcDbVisualStyle
  2
Sketchy
 70
    24
 71
     1
 72
     2
 73
     2
 90
        0
 40
0.6
 41
30.0
 62
     5
 63
     7
 74
     2
 91
        2
 64
     7
 65
     7
 75
     1
175
     1
 42
40.0
 92
       11
 66
     7
 43
1.0
 76
     1
 77
     6
 78
     2
 67
     7
 79
     6
170
     0
171
     0
290
     0
174
     0
 93
        1
 44
0.0
173
     0
291
     0
 45
0.0
1001
ACAD
1000
AcDbSavedByObjectVersion
1070
     0
  0
VISUALSTYLE
  5
37
102
{ACAD_REACTORS
330
2A
102
}
102
{ACAD_XDICTIONARY
360
249
102
}
330
2A
100
AcDbVisualStyle
  2
Thicken
 70
    13
 71
     2
 72
     2
 73
     0
 90
        0
 40
0.6
 41
30.0
 62
     5
 63
     7
 74
     1
 91
        4
 64
     7
 65
   257
 75
     1
175
     1
 42
1.0
 92
       12
 66
     7
 43
1.0
 76
     1
 77
     6
 78
     2
 67
     7
 79
     5
170
     0
171
     0
290
     0
174
     0
 93
        1
 44
0.0
173
     0
291
     1
 45
0.0
1001
ACAD
1000
AcDbSavedByObjectVersion
1070
     0
  0
VISUALSTYLE
  5
30
102
{ACAD_REACTORS
330
2A
102
}
102
{ACAD_XDICTIONARY
360
23B
102
}
330
2A
100
AcDbVisualStyle
  2
Wireframe
 70
     5
 71
     0
 72
     2
 73
     0
 90
        0
 40
0.6
 41
30.0
 62
     5
 63
     7
 74
     1
 91
        4
 64
     7
 65
   257
 75
     1
175
     1
 42
1.0
 92
        0
 66
   257
 43
1.0
 76
     1
 77
     6
 78
     2
 67
     7
 79
     3
170
     0
171
     0
290
     0
174
     0
 93
        1
 44
0.0
173
     0
291
     0
 45
0.0
1001
ACAD
1000
AcDbSavedByObjectVersion
1070
     0
  0
VISUALSTYLE
  5
40
102
{ACAD_REACTORS
330
2A
102
}
102
{ACAD_XDICTIONARY
360
25B
102
}
330
2A
100
AcDbVisualStyle
  2
X-Ray
 70
    25
 71
     2
 72
     2
 73
     1
 90
        1
 40
0.5
 41
30.0
 62
     5
 63
     7
 74
     1
 91
        0
 64
     7
 65
   257
 75
     1
175
     1
 42
1.0
 92
        8
 66
     7
 43
1.0
 76
     1
 77
     6
 78
     2
 67
     7
 79
     3
170
     0
171
     0
290
     0
174
     0
 93
       13
 44
0.0
173
     0
291
     0
 45
0.0
1001
ACAD
1000
AcDbSavedByObjectVersion
1070
     0
  0
DICTIONARYVAR
  5
22F
102
{ACAD_REACTORS
330
226
102
}
330
226
100
DictionaryVariables
280
     0
  1
1:1
  0
DICTIONARYVAR
  5
22D
102
{ACAD_REACTORS
330
226
102
}
330
226
100
DictionaryVariables
280
     0
  1
2
  0
DICTIONARYVAR
  5
22E
102
{ACAD_REACTORS
330
226
102
}
330
226
100
DictionaryVariables
280
     0
  1
1
  0
DICTIONARYVAR
  5
230
102
{ACAD_REACTORS
330
226
102
}
330
226
100
DictionaryVariables
280
     0
  1
1
  0
DICTIONARYVAR
  5
22A
102
{ACAD_REACTORS
330
226
102
}
330
226
100
DictionaryVariables
280
     0
  1
80.000000
  0
DICTIONARYVAR
  5
229
102
{ACAD_REACTORS
330
226
102
}
330
226
100
DictionaryVariables
280
     0
  1
5.000000
  0
DICTIONARY
  5
263
330
45
100
AcDbDictionary
280
     1
281
     1
  3
ACAD_XREC_ROUNDTRIP
360
264
  0
DICTIONARY
  5
261
330
44
100
AcDbDictionary
280
     1
281
     1
  3
ACAD_XREC_ROUNDTRIP
360
262
  0
DICTIONARY
  5
265
330
46
100
AcDbDictionary
280
     1
281
     1
  3
ACAD_XREC_ROUNDTRIP
360
266
  0
DICTIONARY
  5
239
330
2F
100
AcDbDictionary
280
     1
281
     1
  3
ACAD_XREC_ROUNDTRIP
360
23A
  0
DICTIONARY
  5
23F
330
32
100
AcDbDictionary
280
     1
281
     1
  3
ACAD_XREC_ROUNDTRIP
360
240
  0
DICTIONARY
  5
247
330
36
100
AcDbDictionary
280
     1
281
     1
  3
ACAD_XREC_ROUNDTRIP
360
248
  0
DICTIONARY
  5
24F
330
3A
100
AcDbDictionary
280
     1
281
     1
  3
ACAD_XREC_ROUNDTRIP
360
250
  0
DICTIONARY
  5
243
330
34
100
AcDbDictionary
280
     1
281
     1
  3
ACAD_XREC_ROUNDTRIP
360
244
  0
DICTIONARY
  5
245
330
35
100
AcDbDictionary
280
     1
281
     1
  3
ACAD_XREC_ROUNDTRIP
360
246
  0
DICTIONARY
  5
255
330
3D
100
AcDbDictionary
280
     1
281
     1
  3
ACAD_XREC_ROUNDTRIP
360
256
  0
DICTIONARY
  5
24D
330
39
100
AcDbDictionary
280
     1
281
     1
  3
ACAD_XREC_ROUNDTRIP
360
24E
  0
DICTIONARY
  5
231
330
2B
100
AcDbDictionary
280
     1
281
     1
  3
ACAD_XREC_ROUNDTRIP
360
232
  0
DICTIONARY
  5
233
330
2C
100
AcDbDictionary
280
     1
281
     1
  3
ACAD_XREC_ROUNDTRIP
360
234
  0
DICTIONARY
  5
235
330
2D
100
AcDbDictionary
280
     1
281
     1
  3
ACAD_XREC_ROUNDTRIP
360
236
  0
DICTIONARY
  5
237
330
2E
100
AcDbDictionary
280
     1
281
     1
  3
ACAD_XREC_ROUNDTRIP
360
238
  0
DICTIONARY
  5
23D
330
31
100
AcDbDictionary
280
     1
281
     1
  3
ACAD_XREC_ROUNDTRIP
360
23E
  0
DICTIONARY
  5
251
330
3B
100
AcDbDictionary
280
     1
281
     1
  3
ACAD_XREC_ROUNDTRIP
360
252
  0
DICTIONARY
  5
24B
330
38
100
AcDbDictionary
280
     1
281
     1
  3
ACAD_XREC_ROUNDTRIP
360
24C
  0
DICTIONARY
  5
253
330
3C
100
AcDbDictionary
280
     1
281
     1
  3
ACAD_XREC_ROUNDTRIP
360
254
  0
DICTIONARY
  5
241
330
33
100
AcDbDictionary
280
     1
281
     1
  3
ACAD_XREC_ROUNDTRIP
360
242
  0
DICTIONARY
  5
25F
330
42
100
AcDbDictionary
280
     1
281
     1
  3
ACAD_XREC_ROUNDTRIP
360
260
  0
DICTIONARY
  5
25D
330
41
100
AcDbDictionary
280
     1
281
     1
  3
ACAD_XREC_ROUNDTRIP
360
25E
  0
DICTIONARY
  5
257
330
3E
100
AcDbDictionary
280
     1
281
     1
  3
ACAD_XREC_ROUNDTRIP
360
258
  0
DICTIONARY
  5
259
330
3F
100
AcDbDictionary
280
     1
281
     1
  3
ACAD_XREC_ROUNDTRIP
360
25A
  0
DICTIONARY
  5
249
330
37
100
AcDbDictionary
280
     1
281
     1
  3
ACAD_XREC_ROUNDTRIP
360
24A
  0
DICTIONARY
  5
23B
330
30
100
AcDbDictionary
280
     1
281
     1
  3
ACAD_XREC_ROUNDTRIP
360
23C
  0
DICTIONARY
  5
25B
330
40
100
AcDbDictionary
280
     1
281
     1
  3
ACAD_XREC_ROUNDTRIP
360
25C
  0
XRECORD
  5
264
102
{ACAD_REACTORS
330
263
102
}
330
263
100
AcDbXrecord
280
     1
102
MATERIAL
148
0.0
149
0.0
149
0.0
 93
        0
 94
      127
282
     0
 72
     1
 77
     1
171
     1
175
     1
179
     1
273
     0
  0
XRECORD
  5
262
102
{ACAD_REACTORS
330
261
102
}
330
261
100
AcDbXrecord
280
     1
102
MATERIAL
148
0.0
149
0.0
149
0.0
 93
        0
 94
      127
282
     0
 72
     1
 77
     1
171
     1
175
     1
179
     1
273
     0
  0
XRECORD
  5
266
102
{ACAD_REACTORS
330
265
102
}
330
265
100
AcDbXrecord
280
     1
102
MATERIAL
148
0.0
149
0.0
149
0.0
 93
        0
 94
      127
282
     0
 72
     1
 77
     1
171
     1
175
     1
179
     1
273
     0
  0
XRECORD
  5
23A
102
{ACAD_REACTORS
330
239
102
}
330
239
100
AcDbXrecord
280
     1
102
RTVSPropertyOp0
 70
     1
102
RTVSPropertyOp1
 70
     1
102
RTVSPropertyOp2
 70
     1
102
RTVSPropertyOp3
 70
     1
102
RTVSPropertyOp4
 70
     1
102
RTVSPropertyOp5
 70
     1
102
RTVSPropertyOp6
 70
     1
102
RTVSPropertyOp7
 70
     1
102
RTVSPropertyOp8
 70
     1
102
RTVSPropertyOp9
 70
     1
102
RTVSPropertyOp10
 70
     1
102
RTVSPropertyOp11
 70
     1
102
RTVSPropertyOp12
 70
     1
102
RTVSPropertyOp13
 70
     1
102
RTVSPropertyOp14
 70
     1
102
RTVSPropertyOp15
 70
     1
102
RTVSPropertyOp16
 70
     1
102
RTVSPropertyOp17
 70
     1
102
RTVSPropertyOp18
 70
     1
102
RTVSPropertyOp19
 70
     1
102
RTVSPropertyOp20
 70
     1
102
RTVSPropertyOp21
 70
     1
102
RTVSPropertyOp22
 70
     1
102
RTVSPropertyOp23
 70
     1
102
RTVSPropertyOp24
 70
     1
102
RTVSPropertyOp25
 70
     1
102
RTVSPropertyOp26
 70
     1
102
RTVSPropertyOp27
 70
     1
102
RTVSPropertyOp28
 70
     1
102
RTVSPropertyOp29
 70
     1
102
RTVSPropertyOp30
 70
     1
102
RTVSPropertyOp31
 70
     1
102
RTVSPropertyOp32
 70
     1
102
RTVSPropertyOp33
 70
     1
102
RTVSPropertyOp34
 70
     1
102
RTVSPropertyOp35
 70
     1
102
RTVSPropertyOp36
 70
     1
102
RTVSPropertyOp37
 70
     1
102
RTVSPropertyOp38
 70
     1
102
RTVSPropertyOp39
 70
     1
102
RTVSPropertyOp40
 70
     1
102
RTVSPropertyOp41
 70
     1
102
RTVSPropertyOp42
 70
     1
102
RTVSPropertyOp43
 70
     1
102
RTVSPropertyOp44
 70
     1
102
RTVSPropertyOp45
 70
     1
102
RTVSPropertyOp46
 70
     1
102
RTVSPropertyOp47
 70
     1
102
RTVSPropertyOp48
 70
     1
102
RTVSPropertyOp49
 70
     1
102
RTVSPropertyOp50
 70
     1
102
RTVSPropertyOp51
 70
     0
102
RTVSPropertyOp52
 70
     0
102
RTVSPropertyOp53
 70
     1
102
RTVSPropertyOp54
 70
     1
102
RTVSPropertyOp55
 70
     1
102
RTVSPropertyOp56
 70
     1
102
RTVSPropertyOp57
 70
     1
102
RTVSPost2010Prop28
280
     1
102
RTVSPost2010PropOp28
 70
     1
102
RTVSPost2010Prop29
280
     1
102
RTVSPost2010PropOp29
 70
     1
102
RTVSPost2010Prop30
280
     0
102
RTVSPost2010PropOp30
 70
     1
102
RTVSPost2010Prop31
280
     0
102
RTVSPost2010PropOp31
 70
     1
102
RTVSPost2010Prop32
280
     0
102
RTVSPost2010PropOp32
 70
     1
102
RTVSPost2010Prop33
280
     0
102
RTVSPost2010PropOp33
 70
     1
102
RTVSPost2010Prop34
280
     0
102
RTVSPost2010PropOp34
 70
     1
102
RTVSPost2010Prop35
280
     0
102
RTVSPost2010PropOp35
 70
     1
102
RTVSPost2010Prop36
280
     0
102
RTVSPost2010PropOp36
 70
     1
102
RTVSPost2010Prop37
 90
       50
102
RTVSPost2010PropOp37
 70
     1
102
RTVSPost2010Prop38
140
0.0
102
RTVSPost2010PropOp38
 70
     1
102
RTVSPost2010Prop39
140
1.0
102
RTVSPost2010PropOp39
 70
     1
102
RTVSPost2010Prop40
 90
        0
102
RTVSPost2010PropOp40
 70
     1
102
RTVSPost2010Prop41ColorIndex
 90
       18
102
RTVSPost2010Prop41ColorRGB
 90
        0
102
RTVSPost2010PropOp41
 70
     1
102
RTVSPost2010Prop42
 90
       50
102
RTVSPost2010PropOp42
 70
     1
102
RTVSPost2010Prop43
 90
        3
102
RTVSPost2010PropOp43
 70
     1
102
RTVSPost2010Prop44ColorIndex
 90
        5
102
RTVSPost2010Prop44ColorRGB
 90
      255
102
RTVSPost2010PropOp44
 70
     1
102
RTVSPost2010Prop45
280
     0
102
RTVSPost2010PropOp45
 70
     1
102
RTVSPost2010Prop46
 90
       50
102
RTVSPost2010PropOp46
 70
     1
102
RTVSPost2010Prop47
 90
       50
102
RTVSPost2010PropOp47
 70
     1
102
RTVSPost2010Prop48
 90
       50
102
RTVSPost2010PropOp48
 70
     1
102
RTVSPost2010Prop49
280
     0
102
RTVSPost2010PropOp49
 70
     1
102
RTVSPost2010Prop50
 90
       50
102
RTVSPost2010PropOp50
 70
     1
102
RTVSPost2010Prop51ColorIndex
 90
      256
102
RTVSPost2010Prop51ColorRGB
 90
-16777216
102
RTVSPost2010PropOp51
 70
     0
102
RTVSPost2010Prop52
140
1.0
102
RTVSPost2010PropOp52
 70
     0
102
RTVSPost2010Prop53
 90
        2
102
RTVSPost2010PropOp53
 70
     1
102
RTVSPost2010Prop54
  1
strokes_ogs.tif
102
RTVSPost2010PropOp54
 70
     1
102
RTVSPost2010Prop55
280
     0
102
RTVSPost2010PropOp55
 70
     1
102
RTVSPost2010Prop56
140
1.0
102
RTVSPost2010PropOp56
 70
     1
102
RTVSPost2010Prop57
140
1.0
102
RTVSPost2010PropOp57
 70
     1
  0
XRECORD
  5
240
102
{ACAD_REACTORS
330
23F
102
}
330
23F
100
AcDbXrecord
280
     1
102
RTVSPropertyOp0
 70
     1
102
RTVSPropertyOp1
 70
     1
102
RTVSPropertyOp2
 70
     1
102
RTVSPropertyOp3
 70
     1
102
RTVSPropertyOp4
 70
     1
102
RTVSPropertyOp5
 70
     1
102
RTVSPropertyOp6
 70
     1
102
RTVSPropertyOp7
 70
     1
102
RTVSPropertyOp8
 70
     1
102
RTVSPropertyOp9
 70
     1
102
RTVSPropertyOp10
 70
     1
102
RTVSPropertyOp11
 70
     1
102
RTVSPropertyOp12
 70
     1
102
RTVSPropertyOp13
 70
     1
102
RTVSPropertyOp14
 70
     1
102
RTVSPropertyOp15
 70
     1
102
RTVSPropertyOp16
 70
     1
102
RTVSPropertyOp17
 70
     1
102
RTVSPropertyOp18
 70
     1
102
RTVSPropertyOp19
 70
     1
102
RTVSPropertyOp20
 70
     1
102
RTVSPropertyOp21
 70
     1
102
RTVSPropertyOp22
 70
     1
102
RTVSPropertyOp23
 70
     1
102
RTVSPropertyOp24
 70
     1
102
RTVSPropertyOp25
 70
     1
102
RTVSPropertyOp26
 70
     1
102
RTVSPropertyOp27
 70
     1
102
RTVSPropertyOp28
 70
     1
102
RTVSPropertyOp29
 70
     1
102
RTVSPropertyOp30
 70
     1
102
RTVSPropertyOp31
 70
     1
102
RTVSPropertyOp32
 70
     1
102
RTVSPropertyOp33
 70
     1
102
RTVSPropertyOp34
 70
     1
102
RTVSPropertyOp35
 70
     1
102
RTVSPropertyOp36
 70
     1
102
RTVSPropertyOp37
 70
     1
102
RTVSPropertyOp38
 70
     1
102
RTVSPropertyOp39
 70
     1
102
RTVSPropertyOp40
 70
     1
102
RTVSPropertyOp41
 70
     1
102
RTVSPropertyOp42
 70
     1
102
RTVSPropertyOp43
 70
     1
102
RTVSPropertyOp44
 70
     1
102
RTVSPropertyOp45
 70
     1
102
RTVSPropertyOp46
 70
     1
102
RTVSPropertyOp47
 70
     1
102
RTVSPropertyOp48
 70
     1
102
RTVSPropertyOp49
 70
     1
102
RTVSPropertyOp50
 70
     1
102
RTVSPropertyOp51
 70
     0
102
RTVSPropertyOp52
 70
     0
102
RTVSPropertyOp53
 70
     1
102
RTVSPropertyOp54
 70
     1
102
RTVSPropertyOp55
 70
     1
102
RTVSPropertyOp56
 70
     1
102
RTVSPropertyOp57
 70
     1
102
RTVSPost2010Prop28
280
     0
102
RTVSPost2010PropOp28
 70
     1
102
RTVSPost2010Prop29
280
     1
102
RTVSPost2010PropOp29
 70
     1
102
RTVSPost2010Prop30
280
     1
102
RTVSPost2010PropOp30
 70
     1
102
RTVSPost2010Prop31
280
     0
102
RTVSPost2010PropOp31
 70
     1
102
RTVSPost2010Prop32
280
     0
102
RTVSPost2010PropOp32
 70
     1
102
RTVSPost2010Prop33
280
     0
102
RTVSPost2010PropOp33
 70
     1
102
RTVSPost2010Prop34
280
     0
102
RTVSPost2010PropOp34
 70
     1
102
RTVSPost2010Prop35
280
     0
102
RTVSPost2010PropOp35
 70
     1
102
RTVSPost2010Prop36
280
     0
102
RTVSPost2010PropOp36
 70
     1
102
RTVSPost2010Prop37
 90
       50
102
RTVSPost2010PropOp37
 70
     1
102
RTVSPost2010Prop38
140
0.0
102
RTVSPost2010PropOp38
 70
     1
102
RTVSPost2010Prop39
140
1.0
102
RTVSPost2010PropOp39
 70
     1
102
RTVSPost2010Prop40
 90
        0
102
RTVSPost2010PropOp40
 70
     1
102
RTVSPost2010Prop41ColorIndex
 90
       18
102
RTVSPost2010Prop41ColorRGB
 90
        0
102
RTVSPost2010PropOp41
 70
     1
102
RTVSPost2010Prop42
 90
       50
102
RTVSPost2010PropOp42
 70
     1
102
RTVSPost2010Prop43
 90
        3
102
RTVSPost2010PropOp43
 70
     1
102
RTVSPost2010Prop44ColorIndex
 90
        5
102
RTVSPost2010Prop44ColorRGB
 90
      255
102
RTVSPost2010PropOp44
 70
     1
102
RTVSPost2010Prop45
280
     0
102
RTVSPost2010PropOp45
 70
     1
102
RTVSPost2010Prop46
 90
       50
102
RTVSPost2010PropOp46
 70
     1
102
RTVSPost2010Prop47
 90
       50
102
RTVSPost2010PropOp47
 70
     1
102
RTVSPost2010Prop48
 90
       50
102
RTVSPost2010PropOp48
 70
     1
102
RTVSPost2010Prop49
280
     0
102
RTVSPost2010PropOp49
 70
     1
102
RTVSPost2010Prop50
 90
       50
102
RTVSPost2010PropOp50
 70
     1
102
RTVSPost2010Prop51ColorIndex
 90
      256
102
RTVSPost2010Prop51ColorRGB
 90
-16777216
102
RTVSPost2010PropOp51
 70
     0
102
RTVSPost2010Prop52
140
1.0
102
RTVSPost2010PropOp52
 70
     0
102
RTVSPost2010Prop53
 90
        2
102
RTVSPost2010PropOp53
 70
     1
102
RTVSPost2010Prop54
  1
strokes_ogs.tif
102
RTVSPost2010PropOp54
 70
     1
102
RTVSPost2010Prop55
280
     0
102
RTVSPost2010PropOp55
 70
     1
102
RTVSPost2010Prop56
140
1.0
102
RTVSPost2010PropOp56
 70
     1
102
RTVSPost2010Prop57
140
1.0
102
RTVSPost2010PropOp57
 70
     1
  0
XRECORD
  5
248
102
{ACAD_REACTORS
330
247
102
}
330
247
100
AcDbXrecord
280
     1
102
RTVSPropertyOp0
 70
     1
102
RTVSPropertyOp1
 70
     1
102
RTVSPropertyOp2
 70
     1
102
RTVSPropertyOp3
 70
     1
102
RTVSPropertyOp4
 70
     1
102
RTVSPropertyOp5
 70
     1
102
RTVSPropertyOp6
 70
     1
102
RTVSPropertyOp7
 70
     1
102
RTVSPropertyOp8
 70
     1
102
RTVSPropertyOp9
 70
     1
102
RTVSPropertyOp10
 70
     1
102
RTVSPropertyOp11
 70
     1
102
RTVSPropertyOp12
 70
     1
102
RTVSPropertyOp13
 70
     1
102
RTVSPropertyOp14
 70
     1
102
RTVSPropertyOp15
 70
     1
102
RTVSPropertyOp16
 70
     1
102
RTVSPropertyOp17
 70
     1
102
RTVSPropertyOp18
 70
     1
102
RTVSPropertyOp19
 70
     1
102
RTVSPropertyOp20
 70
     1
102
RTVSPropertyOp21
 70
     1
102
RTVSPropertyOp22
 70
     1
102
RTVSPropertyOp23
 70
     1
102
RTVSPropertyOp24
 70
     1
102
RTVSPropertyOp25
 70
     1
102
RTVSPropertyOp26
 70
     1
102
RTVSPropertyOp27
 70
     1
102
RTVSPropertyOp28
 70
     1
102
RTVSPropertyOp29
 70
     1
102
RTVSPropertyOp30
 70
     1
102
RTVSPropertyOp31
 70
     1
102
RTVSPropertyOp32
 70
     1
102
RTVSPropertyOp33
 70
     1
102
RTVSPropertyOp34
 70
     1
102
RTVSPropertyOp35
 70
     1
102
RTVSPropertyOp36
 70
     1
102
RTVSPropertyOp37
 70
     1
102
RTVSPropertyOp38
 70
     1
102
RTVSPropertyOp39
 70
     1
102
RTVSPropertyOp40
 70
     1
102
RTVSPropertyOp41
 70
     1
102
RTVSPropertyOp42
 70
     1
102
RTVSPropertyOp43
 70
     1
102
RTVSPropertyOp44
 70
     1
102
RTVSPropertyOp45
 70
     1
102
RTVSPropertyOp46
 70
     1
102
RTVSPropertyOp47
 70
     1
102
RTVSPropertyOp48
 70
     1
102
RTVSPropertyOp49
 70
     1
102
RTVSPropertyOp50
 70
     1
102
RTVSPropertyOp51
 70
     0
102
RTVSPropertyOp52
 70
     0
102
RTVSPropertyOp53
 70
     1
102
RTVSPropertyOp54
 70
     1
102
RTVSPropertyOp55
 70
     1
102
RTVSPropertyOp56
 70
     1
102
RTVSPropertyOp57
 70
     1
102
RTVSPost2010Prop28
280
     0
102
RTVSPost2010PropOp28
 70
     1
102
RTVSPost2010Prop29
280
     1
102
RTVSPost2010PropOp29
 70
     1
102
RTVSPost2010Prop30
280
     1
102
RTVSPost2010PropOp30
 70
     1
102
RTVSPost2010Prop31
280
     0
102
RTVSPost2010PropOp31
 70
     1
102
RTVSPost2010Prop32
280
     0
102
RTVSPost2010PropOp32
 70
     1
102
RTVSPost2010Prop33
280
     0
102
RTVSPost2010PropOp33
 70
     1
102
RTVSPost2010Prop34
280
     0
102
RTVSPost2010PropOp34
 70
     1
102
RTVSPost2010Prop35
280
     0
102
RTVSPost2010PropOp35
 70
     1
102
RTVSPost2010Prop36
280
     0
102
RTVSPost2010PropOp36
 70
     1
102
RTVSPost2010Prop37
 90
       50
102
RTVSPost2010PropOp37
 70
     1
102
RTVSPost2010Prop38
140
0.0
102
RTVSPost2010PropOp38
 70
     1
102
RTVSPost2010Prop39
140
1.0
102
RTVSPost2010PropOp39
 70
     1
102
RTVSPost2010Prop40
 90
        0
102
RTVSPost2010PropOp40
 70
     1
102
RTVSPost2010Prop41ColorIndex
 90
       18
102
RTVSPost2010Prop41ColorRGB
 90
        0
102
RTVSPost2010PropOp41
 70
     1
102
RTVSPost2010Prop42
 90
       50
102
RTVSPost2010PropOp42
 70
     1
102
RTVSPost2010Prop43
 90
        3
102
RTVSPost2010PropOp43
 70
     1
102
RTVSPost2010Prop44ColorIndex
 90
        5
102
RTVSPost2010Prop44ColorRGB
 90
      255
102
RTVSPost2010PropOp44
 70
     1
102
RTVSPost2010Prop45
280
     0
102
RTVSPost2010PropOp45
 70
     1
102
RTVSPost2010Prop46
 90
       50
102
RTVSPost2010PropOp46
 70
     1
102
RTVSPost2010Prop47
 90
       50
102
RTVSPost2010PropOp47
 70
     1
102
RTVSPost2010Prop48
 90
       50
102
RTVSPost2010PropOp48
 70
     1
102
RTVSPost2010Prop49
280
     0
102
RTVSPost2010PropOp49
 70
     1
102
RTVSPost2010Prop50
 90
       50
102
RTVSPost2010PropOp50
 70
     1
102
RTVSPost2010Prop51ColorIndex
 90
      256
102
RTVSPost2010Prop51ColorRGB
 90
-16777216
102
RTVSPost2010PropOp51
 70
     0
102
RTVSPost2010Prop52
140
1.0
102
RTVSPost2010PropOp52
 70
     0
102
RTVSPost2010Prop53
 90
        2
102
RTVSPost2010PropOp53
 70
     1
102
RTVSPost2010Prop54
  1
strokes_ogs.tif
102
RTVSPost2010PropOp54
 70
     1
102
RTVSPost2010Prop55
280
     0
102
RTVSPost2010PropOp55
 70
     1
102
RTVSPost2010Prop56
140
1.0
102
RTVSPost2010PropOp56
 70
     1
102
RTVSPost2010Prop57
140
1.0
102
RTVSPost2010PropOp57
 70
     1
  0
XRECORD
  5
250
102
{ACAD_REACTORS
330
24F
102
}
330
24F
100
AcDbXrecord
280
     1
102
RTVSPropertyOp0
 70
     1
102
RTVSPropertyOp1
 70
     1
102
RTVSPropertyOp2
 70
     1
102
RTVSPropertyOp3
 70
     1
102
RTVSPropertyOp4
 70
     1
102
RTVSPropertyOp5
 70
     1
102
RTVSPropertyOp6
 70
     1
102
RTVSPropertyOp7
 70
     1
102
RTVSPropertyOp8
 70
     1
102
RTVSPropertyOp9
 70
     1
102
RTVSPropertyOp10
 70
     1
102
RTVSPropertyOp11
 70
     1
102
RTVSPropertyOp12
 70
     1
102
RTVSPropertyOp13
 70
     1
102
RTVSPropertyOp14
 70
     1
102
RTVSPropertyOp15
 70
     1
102
RTVSPropertyOp16
 70
     1
102
RTVSPropertyOp17
 70
     1
102
RTVSPropertyOp18
 70
     1
102
RTVSPropertyOp19
 70
     1
102
RTVSPropertyOp20
 70
     1
102
RTVSPropertyOp21
 70
     1
102
RTVSPropertyOp22
 70
     1
102
RTVSPropertyOp23
 70
     1
102
RTVSPropertyOp24
 70
     1
102
RTVSPropertyOp25
 70
     1
102
RTVSPropertyOp26
 70
     1
102
RTVSPropertyOp27
 70
     1
102
RTVSPropertyOp28
 70
     1
102
RTVSPropertyOp29
 70
     1
102
RTVSPropertyOp30
 70
     1
102
RTVSPropertyOp31
 70
     1
102
RTVSPropertyOp32
 70
     1
102
RTVSPropertyOp33
 70
     1
102
RTVSPropertyOp34
 70
     1
102
RTVSPropertyOp35
 70
     1
102
RTVSPropertyOp36
 70
     1
102
RTVSPropertyOp37
 70
     1
102
RTVSPropertyOp38
 70
     1
102
RTVSPropertyOp39
 70
     1
102
RTVSPropertyOp40
 70
     1
102
RTVSPropertyOp41
 70
     1
102
RTVSPropertyOp42
 70
     1
102
RTVSPropertyOp43
 70
     1
102
RTVSPropertyOp44
 70
     1
102
RTVSPropertyOp45
 70
     1
102
RTVSPropertyOp46
 70
     1
102
RTVSPropertyOp47
 70
     1
102
RTVSPropertyOp48
 70
     1
102
RTVSPropertyOp49
 70
     1
102
RTVSPropertyOp50
 70
     1
102
RTVSPropertyOp51
 70
     0
102
RTVSPropertyOp52
 70
     0
102
RTVSPropertyOp53
 70
     1
102
RTVSPropertyOp54
 70
     1
102
RTVSPropertyOp55
 70
     1
102
RTVSPropertyOp56
 70
     1
102
RTVSPropertyOp57
 70
     1
102
RTVSPost2010Prop28
280
     0
102
RTVSPost2010PropOp28
 70
     1
102
RTVSPost2010Prop29
280
     1
102
RTVSPost2010PropOp29
 70
     1
102
RTVSPost2010Prop30
280
     1
102
RTVSPost2010PropOp30
 70
     1
102
RTVSPost2010Prop31
280
     0
102
RTVSPost2010PropOp31
 70
     1
102
RTVSPost2010Prop32
280
     0
102
RTVSPost2010PropOp32
 70
     1
102
RTVSPost2010Prop33
280
     0
102
RTVSPost2010PropOp33
 70
     1
102
RTVSPost2010Prop34
280
     0
102
RTVSPost2010PropOp34
 70
     1
102
RTVSPost2010Prop35
280
     0
102
RTVSPost2010PropOp35
 70
     1
102
RTVSPost2010Prop36
280
     0
102
RTVSPost2010PropOp36
 70
     1
102
RTVSPost2010Prop37
 90
       50
102
RTVSPost2010PropOp37
 70
     1
102
RTVSPost2010Prop38
140
0.0
102
RTVSPost2010PropOp38
 70
     1
102
RTVSPost2010Prop39
140
1.0
102
RTVSPost2010PropOp39
 70
     1
102
RTVSPost2010Prop40
 90
        0
102
RTVSPost2010PropOp40
 70
     1
102
RTVSPost2010Prop41ColorIndex
 90
       18
102
RTVSPost2010Prop41ColorRGB
 90
        0
102
RTVSPost2010PropOp41
 70
     1
102
RTVSPost2010Prop42
 90
       50
102
RTVSPost2010PropOp42
 70
     1
102
RTVSPost2010Prop43
 90
        3
102
RTVSPost2010PropOp43
 70
     1
102
RTVSPost2010Prop44ColorIndex
 90
        5
102
RTVSPost2010Prop44ColorRGB
 90
      255
102
RTVSPost2010PropOp44
 70
     1
102
RTVSPost2010Prop45
280
     0
102
RTVSPost2010PropOp45
 70
     1
102
RTVSPost2010Prop46
 90
       50
102
RTVSPost2010PropOp46
 70
     1
102
RTVSPost2010Prop47
 90
       50
102
RTVSPost2010PropOp47
 70
     1
102
RTVSPost2010Prop48
 90
       50
102
RTVSPost2010PropOp48
 70
     1
102
RTVSPost2010Prop49
280
     0
102
RTVSPost2010PropOp49
 70
     1
102
RTVSPost2010Prop50
 90
       50
102
RTVSPost2010PropOp50
 70
     1
102
RTVSPost2010Prop51ColorIndex
 90
      256
102
RTVSPost2010Prop51ColorRGB
 90
-16777216
102
RTVSPost2010PropOp51
 70
     0
102
RTVSPost2010Prop52
140
1.0
102
RTVSPost2010PropOp52
 70
     0
102
RTVSPost2010Prop53
 90
        2
102
RTVSPost2010PropOp53
 70
     1
102
RTVSPost2010Prop54
  1
strokes_ogs.tif
102
RTVSPost2010PropOp54
 70
     1
102
RTVSPost2010Prop55
280
     0
102
RTVSPost2010PropOp55
 70
     1
102
RTVSPost2010Prop56
140
1.0
102
RTVSPost2010PropOp56
 70
     1
102
RTVSPost2010Prop57
140
1.0
102
RTVSPost2010PropOp57
 70
     1
  0
XRECORD
  5
244
102
{ACAD_REACTORS
330
243
102
}
330
243
100
AcDbXrecord
280
     1
102
RTVSPropertyOp0
 70
     1
102
RTVSPropertyOp1
 70
     1
102
RTVSPropertyOp2
 70
     1
102
RTVSPropertyOp3
 70
     1
102
RTVSPropertyOp4
 70
     1
102
RTVSPropertyOp5
 70
     1
102
RTVSPropertyOp6
 70
     1
102
RTVSPropertyOp7
 70
     1
102
RTVSPropertyOp8
 70
     1
102
RTVSPropertyOp9
 70
     1
102
RTVSPropertyOp10
 70
     1
102
RTVSPropertyOp11
 70
     1
102
RTVSPropertyOp12
 70
     1
102
RTVSPropertyOp13
 70
     1
102
RTVSPropertyOp14
 70
     1
102
RTVSPropertyOp15
 70
     1
102
RTVSPropertyOp16
 70
     1
102
RTVSPropertyOp17
 70
     1
102
RTVSPropertyOp18
 70
     1
102
RTVSPropertyOp19
 70
     1
102
RTVSPropertyOp20
 70
     1
102
RTVSPropertyOp21
 70
     1
102
RTVSPropertyOp22
 70
     1
102
RTVSPropertyOp23
 70
     1
102
RTVSPropertyOp24
 70
     1
102
RTVSPropertyOp25
 70
     1
102
RTVSPropertyOp26
 70
     1
102
RTVSPropertyOp27
 70
     1
102
RTVSPropertyOp28
 70
     1
102
RTVSPropertyOp29
 70
     1
102
RTVSPropertyOp30
 70
     1
102
RTVSPropertyOp31
 70
     1
102
RTVSPropertyOp32
 70
     1
102
RTVSPropertyOp33
 70
     1
102
RTVSPropertyOp34
 70
     1
102
RTVSPropertyOp35
 70
     1
102
RTVSPropertyOp36
 70
     1
102
RTVSPropertyOp37
 70
     1
102
RTVSPropertyOp38
 70
     1
102
RTVSPropertyOp39
 70
     1
102
RTVSPropertyOp40
 70
     1
102
RTVSPropertyOp41
 70
     1
102
RTVSPropertyOp42
 70
     1
102
RTVSPropertyOp43
 70
     1
102
RTVSPropertyOp44
 70
     1
102
RTVSPropertyOp45
 70
     1
102
RTVSPropertyOp46
 70
     1
102
RTVSPropertyOp47
 70
     1
102
RTVSPropertyOp48
 70
     1
102
RTVSPropertyOp49
 70
     1
102
RTVSPropertyOp50
 70
     1
102
RTVSPropertyOp51
 70
     0
102
RTVSPropertyOp52
 70
     0
102
RTVSPropertyOp53
 70
     1
102
RTVSPropertyOp54
 70
     1
102
RTVSPropertyOp55
 70
     1
102
RTVSPropertyOp56
 70
     1
102
RTVSPropertyOp57
 70
     1
102
RTVSPost2010Prop28
280
     0
102
RTVSPost2010PropOp28
 70
     1
102
RTVSPost2010Prop29
280
     1
102
RTVSPost2010PropOp29
 70
     1
102
RTVSPost2010Prop30
280
     1
102
RTVSPost2010PropOp30
 70
     1
102
RTVSPost2010Prop31
280
     0
102
RTVSPost2010PropOp31
 70
     1
102
RTVSPost2010Prop32
280
     0
102
RTVSPost2010PropOp32
 70
     1
102
RTVSPost2010Prop33
280
     0
102
RTVSPost2010PropOp33
 70
     1
102
RTVSPost2010Prop34
280
     0
102
RTVSPost2010PropOp34
 70
     1
102
RTVSPost2010Prop35
280
     0
102
RTVSPost2010PropOp35
 70
     1
102
RTVSPost2010Prop36
280
     0
102
RTVSPost2010PropOp36
 70
     1
102
RTVSPost2010Prop37
 90
       50
102
RTVSPost2010PropOp37
 70
     1
102
RTVSPost2010Prop38
140
0.0
102
RTVSPost2010PropOp38
 70
     1
102
RTVSPost2010Prop39
140
1.0
102
RTVSPost2010PropOp39
 70
     1
102
RTVSPost2010Prop40
 90
        0
102
RTVSPost2010PropOp40
 70
     1
102
RTVSPost2010Prop41ColorIndex
 90
       18
102
RTVSPost2010Prop41ColorRGB
 90
        0
102
RTVSPost2010PropOp41
 70
     1
102
RTVSPost2010Prop42
 90
       50
102
RTVSPost2010PropOp42
 70
     1
102
RTVSPost2010Prop43
 90
        3
102
RTVSPost2010PropOp43
 70
     1
102
RTVSPost2010Prop44ColorIndex
 90
        5
102
RTVSPost2010Prop44ColorRGB
 90
      255
102
RTVSPost2010PropOp44
 70
     1
102
RTVSPost2010Prop45
280
     0
102
RTVSPost2010PropOp45
 70
     1
102
RTVSPost2010Prop46
 90
       50
102
RTVSPost2010PropOp46
 70
     1
102
RTVSPost2010Prop47
 90
       50
102
RTVSPost2010PropOp47
 70
     1
102
RTVSPost2010Prop48
 90
       50
102
RTVSPost2010PropOp48
 70
     1
102
RTVSPost2010Prop49
280
     0
102
RTVSPost2010PropOp49
 70
     1
102
RTVSPost2010Prop50
 90
       50
102
RTVSPost2010PropOp50
 70
     1
102
RTVSPost2010Prop51ColorIndex
 90
      256
102
RTVSPost2010Prop51ColorRGB
 90
-16777216
102
RTVSPost2010PropOp51
 70
     0
102
RTVSPost2010Prop52
140
1.0
102
RTVSPost2010PropOp52
 70
     0
102
RTVSPost2010Prop53
 90
        2
102
RTVSPost2010PropOp53
 70
     1
102
RTVSPost2010Prop54
  1
strokes_ogs.tif
102
RTVSPost2010PropOp54
 70
     1
102
RTVSPost2010Prop55
280
     0
102
RTVSPost2010PropOp55
 70
     1
102
RTVSPost2010Prop56
140
1.0
102
RTVSPost2010PropOp56
 70
     1
102
RTVSPost2010Prop57
140
1.0
102
RTVSPost2010PropOp57
 70
     1
  0
XRECORD
  5
246
102
{ACAD_REACTORS
330
245
102
}
330
245
100
AcDbXrecord
280
     1
102
RTVSPropertyOp0
 70
     1
102
RTVSPropertyOp1
 70
     1
102
RTVSPropertyOp2
 70
     1
102
RTVSPropertyOp3
 70
     1
102
RTVSPropertyOp4
 70
     1
102
RTVSPropertyOp5
 70
     1
102
RTVSPropertyOp6
 70
     1
102
RTVSPropertyOp7
 70
     1
102
RTVSPropertyOp8
 70
     1
102
RTVSPropertyOp9
 70
     1
102
RTVSPropertyOp10
 70
     1
102
RTVSPropertyOp11
 70
     1
102
RTVSPropertyOp12
 70
     1
102
RTVSPropertyOp13
 70
     1
102
RTVSPropertyOp14
 70
     1
102
RTVSPropertyOp15
 70
     1
102
RTVSPropertyOp16
 70
     1
102
RTVSPropertyOp17
 70
     1
102
RTVSPropertyOp18
 70
     1
102
RTVSPropertyOp19
 70
     1
102
RTVSPropertyOp20
 70
     1
102
RTVSPropertyOp21
 70
     1
102
RTVSPropertyOp22
 70
     1
102
RTVSPropertyOp23
 70
     1
102
RTVSPropertyOp24
 70
     1
102
RTVSPropertyOp25
 70
     1
102
RTVSPropertyOp26
 70
     1
102
RTVSPropertyOp27
 70
     1
102
RTVSPropertyOp28
 70
     1
102
RTVSPropertyOp29
 70
     1
102
RTVSPropertyOp30
 70
     1
102
RTVSPropertyOp31
 70
     1
102
RTVSPropertyOp32
 70
     1
102
RTVSPropertyOp33
 70
     1
102
RTVSPropertyOp34
 70
     1
102
RTVSPropertyOp35
 70
     1
102
RTVSPropertyOp36
 70
     1
102
RTVSPropertyOp37
 70
     1
102
RTVSPropertyOp38
 70
     1
102
RTVSPropertyOp39
 70
     1
102
RTVSPropertyOp40
 70
     1
102
RTVSPropertyOp41
 70
     1
102
RTVSPropertyOp42
 70
     1
102
RTVSPropertyOp43
 70
     1
102
RTVSPropertyOp44
 70
     1
102
RTVSPropertyOp45
 70
     1
102
RTVSPropertyOp46
 70
     1
102
RTVSPropertyOp47
 70
     1
102
RTVSPropertyOp48
 70
     1
102
RTVSPropertyOp49
 70
     1
102
RTVSPropertyOp50
 70
     1
102
RTVSPropertyOp51
 70
     0
102
RTVSPropertyOp52
 70
     0
102
RTVSPropertyOp53
 70
     1
102
RTVSPropertyOp54
 70
     1
102
RTVSPropertyOp55
 70
     1
102
RTVSPropertyOp56
 70
     1
102
RTVSPropertyOp57
 70
     1
102
RTVSPost2010Prop28
280
     0
102
RTVSPost2010PropOp28
 70
     1
102
RTVSPost2010Prop29
280
     1
102
RTVSPost2010PropOp29
 70
     1
102
RTVSPost2010Prop30
280
     1
102
RTVSPost2010PropOp30
 70
     1
102
RTVSPost2010Prop31
280
     0
102
RTVSPost2010PropOp31
 70
     1
102
RTVSPost2010Prop32
280
     0
102
RTVSPost2010PropOp32
 70
     1
102
RTVSPost2010Prop33
280
     0
102
RTVSPost2010PropOp33
 70
     1
102
RTVSPost2010Prop34
280
     0
102
RTVSPost2010PropOp34
 70
     1
102
RTVSPost2010Prop35
280
     0
102
RTVSPost2010PropOp35
 70
     1
102
RTVSPost2010Prop36
280
     0
102
RTVSPost2010PropOp36
 70
     1
102
RTVSPost2010Prop37
 90
       50
102
RTVSPost2010PropOp37
 70
     1
102
RTVSPost2010Prop38
140
0.0
102
RTVSPost2010PropOp38
 70
     1
102
RTVSPost2010Prop39
140
1.0
102
RTVSPost2010PropOp39
 70
     1
102
RTVSPost2010Prop40
 90
        0
102
RTVSPost2010PropOp40
 70
     1
102
RTVSPost2010Prop41ColorIndex
 90
       18
102
RTVSPost2010Prop41ColorRGB
 90
        0
102
RTVSPost2010PropOp41
 70
     1
102
RTVSPost2010Prop42
 90
       50
102
RTVSPost2010PropOp42
 70
     1
102
RTVSPost2010Prop43
 90
        3
102
RTVSPost2010PropOp43
 70
     1
102
RTVSPost2010Prop44ColorIndex
 90
        5
102
RTVSPost2010Prop44ColorRGB
 90
      255
102
RTVSPost2010PropOp44
 70
     1
102
RTVSPost2010Prop45
280
     0
102
RTVSPost2010PropOp45
 70
     1
102
RTVSPost2010Prop46
 90
       50
102
RTVSPost2010PropOp46
 70
     1
102
RTVSPost2010Prop47
 90
       50
102
RTVSPost2010PropOp47
 70
     1
102
RTVSPost2010Prop48
 90
       50
102
RTVSPost2010PropOp48
 70
     1
102
RTVSPost2010Prop49
280
     0
102
RTVSPost2010PropOp49
 70
     1
102
RTVSPost2010Prop50
 90
       50
102
RTVSPost2010PropOp50
 70
     1
102
RTVSPost2010Prop51ColorIndex
 90
      256
102
RTVSPost2010Prop51ColorRGB
 90
-16777216
102
RTVSPost2010PropOp51
 70
     0
102
RTVSPost2010Prop52
140
1.0
102
RTVSPost2010PropOp52
 70
     0
102
RTVSPost2010Prop53
 90
        2
102
RTVSPost2010PropOp53
 70
     1
102
RTVSPost2010Prop54
  1
strokes_ogs.tif
102
RTVSPost2010PropOp54
 70
     1
102
RTVSPost2010Prop55
280
     0
102
RTVSPost2010PropOp55
 70
     1
102
RTVSPost2010Prop56
140
1.0
102
RTVSPost2010PropOp56
 70
     1
102
RTVSPost2010Prop57
140
1.0
102
RTVSPost2010PropOp57
 70
     1
  0
XRECORD
  5
256
102
{ACAD_REACTORS
330
255
102
}
330
255
100
AcDbXrecord
280
     1
102
RTVSPropertyOp0
 70
     0
102
RTVSPropertyOp1
 70
     0
102
RTVSPropertyOp2
 70
     0
102
RTVSPropertyOp3
 70
     0
102
RTVSPropertyOp4
 70
     0
102
RTVSPropertyOp5
 70
     0
102
RTVSPropertyOp6
 70
     0
102
RTVSPropertyOp7
 70
     0
102
RTVSPropertyOp8
 70
     0
102
RTVSPropertyOp9
 70
     0
102
RTVSPropertyOp10
 70
     0
102
RTVSPropertyOp11
 70
     0
102
RTVSPropertyOp12
 70
     0
102
RTVSPropertyOp13
 70
     0
102
RTVSPropertyOp14
 70
     2
102
RTVSPropertyOp15
 70
     0
102
RTVSPropertyOp16
 70
     0
102
RTVSPropertyOp17
 70
     0
102
RTVSPropertyOp18
 70
     0
102
RTVSPropertyOp19
 70
     0
102
RTVSPropertyOp20
 70
     0
102
RTVSPropertyOp21
 70
     0
102
RTVSPropertyOp22
 70
     0
102
RTVSPropertyOp23
 70
     0
102
RTVSPropertyOp24
 70
     0
102
RTVSPropertyOp25
 70
     0
102
RTVSPropertyOp26
 70
     0
102
RTVSPropertyOp27
 70
     0
102
RTVSPropertyOp28
 70
     0
102
RTVSPropertyOp29
 70
     0
102
RTVSPropertyOp30
 70
     0
102
RTVSPropertyOp31
 70
     0
102
RTVSPropertyOp32
 70
     0
102
RTVSPropertyOp33
 70
     0
102
RTVSPropertyOp34
 70
     0
102
RTVSPropertyOp35
 70
     0
102
RTVSPropertyOp36
 70
     0
102
RTVSPropertyOp37
 70
     0
102
RTVSPropertyOp38
 70
     0
102
RTVSPropertyOp39
 70
     0
102
RTVSPropertyOp40
 70
     0
102
RTVSPropertyOp41
 70
     0
102
RTVSPropertyOp42
 70
     0
102
RTVSPropertyOp43
 70
     0
102
RTVSPropertyOp44
 70
     0
102
RTVSPropertyOp45
 70
     0
102
RTVSPropertyOp46
 70
     0
102
RTVSPropertyOp47
 70
     0
102
RTVSPropertyOp48
 70
     0
102
RTVSPropertyOp49
 70
     0
102
RTVSPropertyOp50
 70
     0
102
RTVSPropertyOp51
 70
     0
102
RTVSPropertyOp52
 70
     0
102
RTVSPropertyOp53
 70
     0
102
RTVSPropertyOp54
 70
     0
102
RTVSPropertyOp55
 70
     0
102
RTVSPropertyOp56
 70
     0
102
RTVSPropertyOp57
 70
     0
102
RTVSPost2010Prop28
280
     0
102
RTVSPost2010PropOp28
 70
     0
102
RTVSPost2010Prop29
280
     1
102
RTVSPost2010PropOp29
 70
     0
102
RTVSPost2010Prop30
280
     1
102
RTVSPost2010PropOp30
 70
     0
102
RTVSPost2010Prop31
280
     0
102
RTVSPost2010PropOp31
 70
     0
102
RTVSPost2010Prop32
280
     0
102
RTVSPost2010PropOp32
 70
     0
102
RTVSPost2010Prop33
280
     0
102
RTVSPost2010PropOp33
 70
     0
102
RTVSPost2010Prop34
280
     0
102
RTVSPost2010PropOp34
 70
     0
102
RTVSPost2010Prop35
280
     0
102
RTVSPost2010PropOp35
 70
     0
102
RTVSPost2010Prop36
280
     0
102
RTVSPost2010PropOp36
 70
     0
102
RTVSPost2010Prop37
 90
       50
102
RTVSPost2010PropOp37
 70
     0
102
RTVSPost2010Prop38
140
0.0
102
RTVSPost2010PropOp38
 70
     0
102
RTVSPost2010Prop39
140
1.0
102
RTVSPost2010PropOp39
 70
     0
102
RTVSPost2010Prop40
 90
        0
102
RTVSPost2010PropOp40
 70
     0
102
RTVSPost2010Prop41ColorIndex
 90
       18
102
RTVSPost2010Prop41ColorRGB
 90
        0
102
RTVSPost2010PropOp41
 70
     0
102
RTVSPost2010Prop42
 90
       50
102
RTVSPost2010PropOp42
 70
     0
102
RTVSPost2010Prop43
 90
        3
102
RTVSPost2010PropOp43
 70
     0
102
RTVSPost2010Prop44ColorIndex
 90
        5
102
RTVSPost2010Prop44ColorRGB
 90
      255
102
RTVSPost2010PropOp44
 70
     0
102
RTVSPost2010Prop45
280
     0
102
RTVSPost2010PropOp45
 70
     0
102
RTVSPost2010Prop46
 90
       50
102
RTVSPost2010PropOp46
 70
     0
102
RTVSPost2010Prop47
 90
       50
102
RTVSPost2010PropOp47
 70
     0
102
RTVSPost2010Prop48
 90
       50
102
RTVSPost2010PropOp48
 70
     0
102
RTVSPost2010Prop49
280
     0
102
RTVSPost2010PropOp49
 70
     0
102
RTVSPost2010Prop50
 90
       50
102
RTVSPost2010PropOp50
 70
     0
102
RTVSPost2010Prop51ColorIndex
 90
      256
102
RTVSPost2010Prop51ColorRGB
 90
-16777216
102
RTVSPost2010PropOp51
 70
     0
102
RTVSPost2010Prop52
140
1.0
102
RTVSPost2010PropOp52
 70
     0
102
RTVSPost2010Prop53
 90
        2
102
RTVSPost2010PropOp53
 70
     0
102
RTVSPost2010Prop54
  1
strokes_ogs.tif
102
RTVSPost2010PropOp54
 70
     0
102
RTVSPost2010Prop55
280
     0
102
RTVSPost2010PropOp55
 70
     0
102
RTVSPost2010Prop56
140
1.0
102
RTVSPost2010PropOp56
 70
     0
102
RTVSPost2010Prop57
140
1.0
102
RTVSPost2010PropOp57
 70
     0
  0
XRECORD
  5
24E
102
{ACAD_REACTORS
330
24D
102
}
330
24D
100
AcDbXrecord
280
     1
102
RTVSPropertyOp0
 70
     1
102
RTVSPropertyOp1
 70
     1
102
RTVSPropertyOp2
 70
     1
102
RTVSPropertyOp3
 70
     1
102
RTVSPropertyOp4
 70
     1
102
RTVSPropertyOp5
 70
     1
102
RTVSPropertyOp6
 70
     1
102
RTVSPropertyOp7
 70
     1
102
RTVSPropertyOp8
 70
     1
102
RTVSPropertyOp9
 70
     1
102
RTVSPropertyOp10
 70
     1
102
RTVSPropertyOp11
 70
     1
102
RTVSPropertyOp12
 70
     1
102
RTVSPropertyOp13
 70
     1
102
RTVSPropertyOp14
 70
     1
102
RTVSPropertyOp15
 70
     1
102
RTVSPropertyOp16
 70
     1
102
RTVSPropertyOp17
 70
     1
102
RTVSPropertyOp18
 70
     1
102
RTVSPropertyOp19
 70
     1
102
RTVSPropertyOp20
 70
     1
102
RTVSPropertyOp21
 70
     1
102
RTVSPropertyOp22
 70
     1
102
RTVSPropertyOp23
 70
     1
102
RTVSPropertyOp24
 70
     1
102
RTVSPropertyOp25
 70
     1
102
RTVSPropertyOp26
 70
     1
102
RTVSPropertyOp27
 70
     1
102
RTVSPropertyOp28
 70
     1
102
RTVSPropertyOp29
 70
     1
102
RTVSPropertyOp30
 70
     1
102
RTVSPropertyOp31
 70
     1
102
RTVSPropertyOp32
 70
     1
102
RTVSPropertyOp33
 70
     1
102
RTVSPropertyOp34
 70
     1
102
RTVSPropertyOp35
 70
     1
102
RTVSPropertyOp36
 70
     1
102
RTVSPropertyOp37
 70
     1
102
RTVSPropertyOp38
 70
     1
102
RTVSPropertyOp39
 70
     1
102
RTVSPropertyOp40
 70
     1
102
RTVSPropertyOp41
 70
     1
102
RTVSPropertyOp42
 70
     1
102
RTVSPropertyOp43
 70
     1
102
RTVSPropertyOp44
 70
     1
102
RTVSPropertyOp45
 70
     1
102
RTVSPropertyOp46
 70
     1
102
RTVSPropertyOp47
 70
     1
102
RTVSPropertyOp48
 70
     1
102
RTVSPropertyOp49
 70
     1
102
RTVSPropertyOp50
 70
     1
102
RTVSPropertyOp51
 70
     0
102
RTVSPropertyOp52
 70
     0
102
RTVSPropertyOp53
 70
     1
102
RTVSPropertyOp54
 70
     1
102
RTVSPropertyOp55
 70
     1
102
RTVSPropertyOp56
 70
     1
102
RTVSPropertyOp57
 70
     1
102
RTVSPost2010Prop28
280
     0
102
RTVSPost2010PropOp28
 70
     1
102
RTVSPost2010Prop29
280
     1
102
RTVSPost2010PropOp29
 70
     1
102
RTVSPost2010Prop30
280
     1
102
RTVSPost2010PropOp30
 70
     1
102
RTVSPost2010Prop31
280
     0
102
RTVSPost2010PropOp31
 70
     1
102
RTVSPost2010Prop32
280
     0
102
RTVSPost2010PropOp32
 70
     1
102
RTVSPost2010Prop33
280
     0
102
RTVSPost2010PropOp33
 70
     1
102
RTVSPost2010Prop34
280
     0
102
RTVSPost2010PropOp34
 70
     1
102
RTVSPost2010Prop35
280
     0
102
RTVSPost2010PropOp35
 70
     1
102
RTVSPost2010Prop36
280
     0
102
RTVSPost2010PropOp36
 70
     1
102
RTVSPost2010Prop37
 90
       50
102
RTVSPost2010PropOp37
 70
     1
102
RTVSPost2010Prop38
140
0.0
102
RTVSPost2010PropOp38
 70
     1
102
RTVSPost2010Prop39
140
1.0
102
RTVSPost2010PropOp39
 70
     1
102
RTVSPost2010Prop40
 90
        0
102
RTVSPost2010PropOp40
 70
     1
102
RTVSPost2010Prop41ColorIndex
 90
       18
102
RTVSPost2010Prop41ColorRGB
 90
        0
102
RTVSPost2010PropOp41
 70
     1
102
RTVSPost2010Prop42
 90
       50
102
RTVSPost2010PropOp42
 70
     1
102
RTVSPost2010Prop43
 90
        3
102
RTVSPost2010PropOp43
 70
     1
102
RTVSPost2010Prop44ColorIndex
 90
        5
102
RTVSPost2010Prop44ColorRGB
 90
      255
102
RTVSPost2010PropOp44
 70
     1
102
RTVSPost2010Prop45
280
     0
102
RTVSPost2010PropOp45
 70
     1
102
RTVSPost2010Prop46
 90
       50
102
RTVSPost2010PropOp46
 70
     1
102
RTVSPost2010Prop47
 90
       50
102
RTVSPost2010PropOp47
 70
     1
102
RTVSPost2010Prop48
 90
       50
102
RTVSPost2010PropOp48
 70
     1
102
RTVSPost2010Prop49
280
     0
102
RTVSPost2010PropOp49
 70
     1
102
RTVSPost2010Prop50
 90
       50
102
RTVSPost2010PropOp50
 70
     1
102
RTVSPost2010Prop51ColorIndex
 90
      256
102
RTVSPost2010Prop51ColorRGB
 90
-16777216
102
RTVSPost2010PropOp51
 70
     0
102
RTVSPost2010Prop52
140
1.0
102
RTVSPost2010PropOp52
 70
     0
102
RTVSPost2010Prop53
 90
        2
102
RTVSPost2010PropOp53
 70
     1
102
RTVSPost2010Prop54
  1
strokes_ogs.tif
102
RTVSPost2010PropOp54
 70
     1
102
RTVSPost2010Prop55
280
     0
102
RTVSPost2010PropOp55
 70
     1
102
RTVSPost2010Prop56
140
1.0
102
RTVSPost2010PropOp56
 70
     1
102
RTVSPost2010Prop57
140
1.0
102
RTVSPost2010PropOp57
 70
     1
  0
XRECORD
  5
232
102
{ACAD_REACTORS
330
231
102
}
330
231
100
AcDbXrecord
280
     1
102
RTVSPropertyOp0
 70
     1
102
RTVSPropertyOp1
 70
     1
102
RTVSPropertyOp2
 70
     1
102
RTVSPropertyOp3
 70
     1
102
RTVSPropertyOp4
 70
     1
102
RTVSPropertyOp5
 70
     1
102
RTVSPropertyOp6
 70
     1
102
RTVSPropertyOp7
 70
     1
102
RTVSPropertyOp8
 70
     1
102
RTVSPropertyOp9
 70
     1
102
RTVSPropertyOp10
 70
     1
102
RTVSPropertyOp11
 70
     1
102
RTVSPropertyOp12
 70
     1
102
RTVSPropertyOp13
 70
     1
102
RTVSPropertyOp14
 70
     1
102
RTVSPropertyOp15
 70
     1
102
RTVSPropertyOp16
 70
     1
102
RTVSPropertyOp17
 70
     1
102
RTVSPropertyOp18
 70
     1
102
RTVSPropertyOp19
 70
     1
102
RTVSPropertyOp20
 70
     1
102
RTVSPropertyOp21
 70
     1
102
RTVSPropertyOp22
 70
     1
102
RTVSPropertyOp23
 70
     1
102
RTVSPropertyOp24
 70
     1
102
RTVSPropertyOp25
 70
     1
102
RTVSPropertyOp26
 70
     1
102
RTVSPropertyOp27
 70
     1
102
RTVSPropertyOp28
 70
     1
102
RTVSPropertyOp29
 70
     1
102
RTVSPropertyOp30
 70
     1
102
RTVSPropertyOp31
 70
     1
102
RTVSPropertyOp32
 70
     1
102
RTVSPropertyOp33
 70
     1
102
RTVSPropertyOp34
 70
     1
102
RTVSPropertyOp35
 70
     1
102
RTVSPropertyOp36
 70
     1
102
RTVSPropertyOp37
 70
     1
102
RTVSPropertyOp38
 70
     1
102
RTVSPropertyOp39
 70
     1
102
RTVSPropertyOp40
 70
     1
102
RTVSPropertyOp41
 70
     1
102
RTVSPropertyOp42
 70
     1
102
RTVSPropertyOp43
 70
     1
102
RTVSPropertyOp44
 70
     1
102
RTVSPropertyOp45
 70
     1
102
RTVSPropertyOp46
 70
     1
102
RTVSPropertyOp47
 70
     1
102
RTVSPropertyOp48
 70
     1
102
RTVSPropertyOp49
 70
     1
102
RTVSPropertyOp50
 70
     1
102
RTVSPropertyOp51
 70
     0
102
RTVSPropertyOp52
 70
     0
102
RTVSPropertyOp53
 70
     1
102
RTVSPropertyOp54
 70
     1
102
RTVSPropertyOp55
 70
     1
102
RTVSPropertyOp56
 70
     1
102
RTVSPropertyOp57
 70
     1
102
RTVSPost2010Prop28
280
     0
102
RTVSPost2010PropOp28
 70
     1
102
RTVSPost2010Prop29
280
     1
102
RTVSPost2010PropOp29
 70
     1
102
RTVSPost2010Prop30
280
     1
102
RTVSPost2010PropOp30
 70
     1
102
RTVSPost2010Prop31
280
     0
102
RTVSPost2010PropOp31
 70
     1
102
RTVSPost2010Prop32
280
     0
102
RTVSPost2010PropOp32
 70
     1
102
RTVSPost2010Prop33
280
     0
102
RTVSPost2010PropOp33
 70
     1
102
RTVSPost2010Prop34
280
     0
102
RTVSPost2010PropOp34
 70
     1
102
RTVSPost2010Prop35
280
     0
102
RTVSPost2010PropOp35
 70
     1
102
RTVSPost2010Prop36
280
     0
102
RTVSPost2010PropOp36
 70
     1
102
RTVSPost2010Prop37
 90
       50
102
RTVSPost2010PropOp37
 70
     1
102
RTVSPost2010Prop38
140
0.0
102
RTVSPost2010PropOp38
 70
     1
102
RTVSPost2010Prop39
140
1.0
102
RTVSPost2010PropOp39
 70
     1
102
RTVSPost2010Prop40
 90
        0
102
RTVSPost2010PropOp40
 70
     1
102
RTVSPost2010Prop41ColorIndex
 90
       18
102
RTVSPost2010Prop41ColorRGB
 90
        0
102
RTVSPost2010PropOp41
 70
     1
102
RTVSPost2010Prop42
 90
       50
102
RTVSPost2010PropOp42
 70
     1
102
RTVSPost2010Prop43
 90
        3
102
RTVSPost2010PropOp43
 70
     1
102
RTVSPost2010Prop44ColorIndex
 90
        5
102
RTVSPost2010Prop44ColorRGB
 90
      255
102
RTVSPost2010PropOp44
 70
     1
102
RTVSPost2010Prop45
280
     0
102
RTVSPost2010PropOp45
 70
     1
102
RTVSPost2010Prop46
 90
       50
102
RTVSPost2010PropOp46
 70
     1
102
RTVSPost2010Prop47
 90
       50
102
RTVSPost2010PropOp47
 70
     1
102
RTVSPost2010Prop48
 90
       50
102
RTVSPost2010PropOp48
 70
     1
102
RTVSPost2010Prop49
280
     0
102
RTVSPost2010PropOp49
 70
     1
102
RTVSPost2010Prop50
 90
       50
102
RTVSPost2010PropOp50
 70
     1
102
RTVSPost2010Prop51ColorIndex
 90
      256
102
RTVSPost2010Prop51ColorRGB
 90
-16777216
102
RTVSPost2010PropOp51
 70
     0
102
RTVSPost2010Prop52
140
1.0
102
RTVSPost2010PropOp52
 70
     0
102
RTVSPost2010Prop53
 90
        2
102
RTVSPost2010PropOp53
 70
     1
102
RTVSPost2010Prop54
  1
strokes_ogs.tif
102
RTVSPost2010PropOp54
 70
     1
102
RTVSPost2010Prop55
280
     0
102
RTVSPost2010PropOp55
 70
     1
102
RTVSPost2010Prop56
140
1.0
102
RTVSPost2010PropOp56
 70
     1
102
RTVSPost2010Prop57
140
1.0
102
RTVSPost2010PropOp57
 70
     1
  0
XRECORD
  5
234
102
{ACAD_REACTORS
330
233
102
}
330
233
100
AcDbXrecord
280
     1
102
RTVSPropertyOp0
 70
     1
102
RTVSPropertyOp1
 70
     1
102
RTVSPropertyOp2
 70
     1
102
RTVSPropertyOp3
 70
     1
102
RTVSPropertyOp4
 70
     1
102
RTVSPropertyOp5
 70
     1
102
RTVSPropertyOp6
 70
     1
102
RTVSPropertyOp7
 70
     1
102
RTVSPropertyOp8
 70
     1
102
RTVSPropertyOp9
 70
     1
102
RTVSPropertyOp10
 70
     1
102
RTVSPropertyOp11
 70
     1
102
RTVSPropertyOp12
 70
     1
102
RTVSPropertyOp13
 70
     1
102
RTVSPropertyOp14
 70
     1
102
RTVSPropertyOp15
 70
     1
102
RTVSPropertyOp16
 70
     1
102
RTVSPropertyOp17
 70
     1
102
RTVSPropertyOp18
 70
     1
102
RTVSPropertyOp19
 70
     1
102
RTVSPropertyOp20
 70
     1
102
RTVSPropertyOp21
 70
     1
102
RTVSPropertyOp22
 70
     1
102
RTVSPropertyOp23
 70
     1
102
RTVSPropertyOp24
 70
     1
102
RTVSPropertyOp25
 70
     1
102
RTVSPropertyOp26
 70
     1
102
RTVSPropertyOp27
 70
     1
102
RTVSPropertyOp28
 70
     1
102
RTVSPropertyOp29
 70
     1
102
RTVSPropertyOp30
 70
     1
102
RTVSPropertyOp31
 70
     1
102
RTVSPropertyOp32
 70
     1
102
RTVSPropertyOp33
 70
     1
102
RTVSPropertyOp34
 70
     1
102
RTVSPropertyOp35
 70
     1
102
RTVSPropertyOp36
 70
     1
102
RTVSPropertyOp37
 70
     1
102
RTVSPropertyOp38
 70
     1
102
RTVSPropertyOp39
 70
     1
102
RTVSPropertyOp40
 70
     1
102
RTVSPropertyOp41
 70
     1
102
RTVSPropertyOp42
 70
     1
102
RTVSPropertyOp43
 70
     1
102
RTVSPropertyOp44
 70
     1
102
RTVSPropertyOp45
 70
     1
102
RTVSPropertyOp46
 70
     1
102
RTVSPropertyOp47
 70
     1
102
RTVSPropertyOp48
 70
     1
102
RTVSPropertyOp49
 70
     1
102
RTVSPropertyOp50
 70
     1
102
RTVSPropertyOp51
 70
     0
102
RTVSPropertyOp52
 70
     0
102
RTVSPropertyOp53
 70
     1
102
RTVSPropertyOp54
 70
     1
102
RTVSPropertyOp55
 70
     1
102
RTVSPropertyOp56
 70
     1
102
RTVSPropertyOp57
 70
     1
102
RTVSPost2010Prop28
280
     0
102
RTVSPost2010PropOp28
 70
     1
102
RTVSPost2010Prop29
280
     1
102
RTVSPost2010PropOp29
 70
     1
102
RTVSPost2010Prop30
280
     1
102
RTVSPost2010PropOp30
 70
     1
102
RTVSPost2010Prop31
280
     0
102
RTVSPost2010PropOp31
 70
     1
102
RTVSPost2010Prop32
280
     0
102
RTVSPost2010PropOp32
 70
     1
102
RTVSPost2010Prop33
280
     0
102
RTVSPost2010PropOp33
 70
     1
102
RTVSPost2010Prop34
280
     0
102
RTVSPost2010PropOp34
 70
     1
102
RTVSPost2010Prop35
280
     0
102
RTVSPost2010PropOp35
 70
     1
102
RTVSPost2010Prop36
280
     0
102
RTVSPost2010PropOp36
 70
     1
102
RTVSPost2010Prop37
 90
       50
102
RTVSPost2010PropOp37
 70
     1
102
RTVSPost2010Prop38
140
0.0
102
RTVSPost2010PropOp38
 70
     1
102
RTVSPost2010Prop39
140
1.0
102
RTVSPost2010PropOp39
 70
     1
102
RTVSPost2010Prop40
 90
        0
102
RTVSPost2010PropOp40
 70
     1
102
RTVSPost2010Prop41ColorIndex
 90
       18
102
RTVSPost2010Prop41ColorRGB
 90
        0
102
RTVSPost2010PropOp41
 70
     1
102
RTVSPost2010Prop42
 90
       50
102
RTVSPost2010PropOp42
 70
     1
102
RTVSPost2010Prop43
 90
        3
102
RTVSPost2010PropOp43
 70
     1
102
RTVSPost2010Prop44ColorIndex
 90
        5
102
RTVSPost2010Prop44ColorRGB
 90
      255
102
RTVSPost2010PropOp44
 70
     1
102
RTVSPost2010Prop45
280
     0
102
RTVSPost2010PropOp45
 70
     1
102
RTVSPost2010Prop46
 90
       50
102
RTVSPost2010PropOp46
 70
     1
102
RTVSPost2010Prop47
 90
       50
102
RTVSPost2010PropOp47
 70
     1
102
RTVSPost2010Prop48
 90
       50
102
RTVSPost2010PropOp48
 70
     1
102
RTVSPost2010Prop49
280
     0
102
RTVSPost2010PropOp49
 70
     1
102
RTVSPost2010Prop50
 90
       50
102
RTVSPost2010PropOp50
 70
     1
102
RTVSPost2010Prop51ColorIndex
 90
      256
102
RTVSPost2010Prop51ColorRGB
 90
-16777216
102
RTVSPost2010PropOp51
 70
     0
102
RTVSPost2010Prop52
140
1.0
102
RTVSPost2010PropOp52
 70
     0
102
RTVSPost2010Prop53
 90
        2
102
RTVSPost2010PropOp53
 70
     1
102
RTVSPost2010Prop54
  1
strokes_ogs.tif
102
RTVSPost2010PropOp54
 70
     1
102
RTVSPost2010Prop55
280
     0
102
RTVSPost2010PropOp55
 70
     1
102
RTVSPost2010Prop56
140
1.0
102
RTVSPost2010PropOp56
 70
     1
102
RTVSPost2010Prop57
140
1.0
102
RTVSPost2010PropOp57
 70
     1
  0
XRECORD
  5
236
102
{ACAD_REACTORS
330
235
102
}
330
235
100
AcDbXrecord
280
     1
102
RTVSPropertyOp0
 70
     1
102
RTVSPropertyOp1
 70
     1
102
RTVSPropertyOp2
 70
     1
102
RTVSPropertyOp3
 70
     1
102
RTVSPropertyOp4
 70
     1
102
RTVSPropertyOp5
 70
     1
102
RTVSPropertyOp6
 70
     1
102
RTVSPropertyOp7
 70
     1
102
RTVSPropertyOp8
 70
     1
102
RTVSPropertyOp9
 70
     1
102
RTVSPropertyOp10
 70
     1
102
RTVSPropertyOp11
 70
     1
102
RTVSPropertyOp12
 70
     1
102
RTVSPropertyOp13
 70
     1
102
RTVSPropertyOp14
 70
     1
102
RTVSPropertyOp15
 70
     1
102
RTVSPropertyOp16
 70
     1
102
RTVSPropertyOp17
 70
     1
102
RTVSPropertyOp18
 70
     1
102
RTVSPropertyOp19
 70
     1
102
RTVSPropertyOp20
 70
     1
102
RTVSPropertyOp21
 70
     1
102
RTVSPropertyOp22
 70
     1
102
RTVSPropertyOp23
 70
     1
102
RTVSPropertyOp24
 70
     1
102
RTVSPropertyOp25
 70
     1
102
RTVSPropertyOp26
 70
     1
102
RTVSPropertyOp27
 70
     1
102
RTVSPropertyOp28
 70
     1
102
RTVSPropertyOp29
 70
     1
102
RTVSPropertyOp30
 70
     1
102
RTVSPropertyOp31
 70
     1
102
RTVSPropertyOp32
 70
     1
102
RTVSPropertyOp33
 70
     1
102
RTVSPropertyOp34
 70
     1
102
RTVSPropertyOp35
 70
     1
102
RTVSPropertyOp36
 70
     1
102
RTVSPropertyOp37
 70
     1
102
RTVSPropertyOp38
 70
     1
102
RTVSPropertyOp39
 70
     1
102
RTVSPropertyOp40
 70
     1
102
RTVSPropertyOp41
 70
     1
102
RTVSPropertyOp42
 70
     1
102
RTVSPropertyOp43
 70
     1
102
RTVSPropertyOp44
 70
     1
102
RTVSPropertyOp45
 70
     1
102
RTVSPropertyOp46
 70
     1
102
RTVSPropertyOp47
 70
     1
102
RTVSPropertyOp48
 70
     1
102
RTVSPropertyOp49
 70
     1
102
RTVSPropertyOp50
 70
     1
102
RTVSPropertyOp51
 70
     0
102
RTVSPropertyOp52
 70
     0
102
RTVSPropertyOp53
 70
     1
102
RTVSPropertyOp54
 70
     1
102
RTVSPropertyOp55
 70
     1
102
RTVSPropertyOp56
 70
     1
102
RTVSPropertyOp57
 70
     1
102
RTVSPost2010Prop28
280
     0
102
RTVSPost2010PropOp28
 70
     1
102
RTVSPost2010Prop29
280
     1
102
RTVSPost2010PropOp29
 70
     1
102
RTVSPost2010Prop30
280
     1
102
RTVSPost2010PropOp30
 70
     1
102
RTVSPost2010Prop31
280
     0
102
RTVSPost2010PropOp31
 70
     1
102
RTVSPost2010Prop32
280
     0
102
RTVSPost2010PropOp32
 70
     1
102
RTVSPost2010Prop33
280
     0
102
RTVSPost2010PropOp33
 70
     1
102
RTVSPost2010Prop34
280
     0
102
RTVSPost2010PropOp34
 70
     1
102
RTVSPost2010Prop35
280
     0
102
RTVSPost2010PropOp35
 70
     1
102
RTVSPost2010Prop36
280
     0
102
RTVSPost2010PropOp36
 70
     1
102
RTVSPost2010Prop37
 90
       50
102
RTVSPost2010PropOp37
 70
     1
102
RTVSPost2010Prop38
140
0.0
102
RTVSPost2010PropOp38
 70
     1
102
RTVSPost2010Prop39
140
1.0
102
RTVSPost2010PropOp39
 70
     1
102
RTVSPost2010Prop40
 90
        0
102
RTVSPost2010PropOp40
 70
     1
102
RTVSPost2010Prop41ColorIndex
 90
       18
102
RTVSPost2010Prop41ColorRGB
 90
        0
102
RTVSPost2010PropOp41
 70
     1
102
RTVSPost2010Prop42
 90
       50
102
RTVSPost2010PropOp42
 70
     1
102
RTVSPost2010Prop43
 90
        3
102
RTVSPost2010PropOp43
 70
     1
102
RTVSPost2010Prop44ColorIndex
 90
        5
102
RTVSPost2010Prop44ColorRGB
 90
      255
102
RTVSPost2010PropOp44
 70
     1
102
RTVSPost2010Prop45
280
     0
102
RTVSPost2010PropOp45
 70
     1
102
RTVSPost2010Prop46
 90
       50
102
RTVSPost2010PropOp46
 70
     1
102
RTVSPost2010Prop47
 90
       50
102
RTVSPost2010PropOp47
 70
     1
102
RTVSPost2010Prop48
 90
       50
102
RTVSPost2010PropOp48
 70
     1
102
RTVSPost2010Prop49
280
     0
102
RTVSPost2010PropOp49
 70
     1
102
RTVSPost2010Prop50
 90
       50
102
RTVSPost2010PropOp50
 70
     1
102
RTVSPost2010Prop51ColorIndex
 90
      256
102
RTVSPost2010Prop51ColorRGB
 90
-16777216
102
RTVSPost2010PropOp51
 70
     0
102
RTVSPost2010Prop52
140
1.0
102
RTVSPost2010PropOp52
 70
     0
102
RTVSPost2010Prop53
 90
        2
102
RTVSPost2010PropOp53
 70
     1
102
RTVSPost2010Prop54
  1
strokes_ogs.tif
102
RTVSPost2010PropOp54
 70
     1
102
RTVSPost2010Prop55
280
     0
102
RTVSPost2010PropOp55
 70
     1
102
RTVSPost2010Prop56
140
1.0
102
RTVSPost2010PropOp56
 70
     1
102
RTVSPost2010Prop57
140
1.0
102
RTVSPost2010PropOp57
 70
     1
  0
XRECORD
  5
238
102
{ACAD_REACTORS
330
237
102
}
330
237
100
AcDbXrecord
280
     1
102
RTVSPropertyOp0
 70
     1
102
RTVSPropertyOp1
 70
     1
102
RTVSPropertyOp2
 70
     1
102
RTVSPropertyOp3
 70
     1
102
RTVSPropertyOp4
 70
     1
102
RTVSPropertyOp5
 70
     1
102
RTVSPropertyOp6
 70
     1
102
RTVSPropertyOp7
 70
     1
102
RTVSPropertyOp8
 70
     1
102
RTVSPropertyOp9
 70
     1
102
RTVSPropertyOp10
 70
     1
102
RTVSPropertyOp11
 70
     1
102
RTVSPropertyOp12
 70
     1
102
RTVSPropertyOp13
 70
     1
102
RTVSPropertyOp14
 70
     1
102
RTVSPropertyOp15
 70
     1
102
RTVSPropertyOp16
 70
     1
102
RTVSPropertyOp17
 70
     1
102
RTVSPropertyOp18
 70
     1
102
RTVSPropertyOp19
 70
     1
102
RTVSPropertyOp20
 70
     1
102
RTVSPropertyOp21
 70
     1
102
RTVSPropertyOp22
 70
     1
102
RTVSPropertyOp23
 70
     1
102
RTVSPropertyOp24
 70
     1
102
RTVSPropertyOp25
 70
     1
102
RTVSPropertyOp26
 70
     1
102
RTVSPropertyOp27
 70
     1
102
RTVSPropertyOp28
 70
     1
102
RTVSPropertyOp29
 70
     1
102
RTVSPropertyOp30
 70
     1
102
RTVSPropertyOp31
 70
     1
102
RTVSPropertyOp32
 70
     1
102
RTVSPropertyOp33
 70
     1
102
RTVSPropertyOp34
 70
     1
102
RTVSPropertyOp35
 70
     1
102
RTVSPropertyOp36
 70
     1
102
RTVSPropertyOp37
 70
     1
102
RTVSPropertyOp38
 70
     1
102
RTVSPropertyOp39
 70
     1
102
RTVSPropertyOp40
 70
     1
102
RTVSPropertyOp41
 70
     1
102
RTVSPropertyOp42
 70
     1
102
RTVSPropertyOp43
 70
     1
102
RTVSPropertyOp44
 70
     1
102
RTVSPropertyOp45
 70
     1
102
RTVSPropertyOp46
 70
     1
102
RTVSPropertyOp47
 70
     1
102
RTVSPropertyOp48
 70
     1
102
RTVSPropertyOp49
 70
     1
102
RTVSPropertyOp50
 70
     1
102
RTVSPropertyOp51
 70
     0
102
RTVSPropertyOp52
 70
     0
102
RTVSPropertyOp53
 70
     1
102
RTVSPropertyOp54
 70
     1
102
RTVSPropertyOp55
 70
     1
102
RTVSPropertyOp56
 70
     1
102
RTVSPropertyOp57
 70
     1
102
RTVSPost2010Prop28
280
     0
102
RTVSPost2010PropOp28
 70
     1
102
RTVSPost2010Prop29
280
     1
102
RTVSPost2010PropOp29
 70
     1
102
RTVSPost2010Prop30
280
     1
102
RTVSPost2010PropOp30
 70
     1
102
RTVSPost2010Prop31
280
     0
102
RTVSPost2010PropOp31
 70
     1
102
RTVSPost2010Prop32
280
     0
102
RTVSPost2010PropOp32
 70
     1
102
RTVSPost2010Prop33
280
     0
102
RTVSPost2010PropOp33
 70
     1
102
RTVSPost2010Prop34
280
     0
102
RTVSPost2010PropOp34
 70
     1
102
RTVSPost2010Prop35
280
     0
102
RTVSPost2010PropOp35
 70
     1
102
RTVSPost2010Prop36
280
     0
102
RTVSPost2010PropOp36
 70
     1
102
RTVSPost2010Prop37
 90
       50
102
RTVSPost2010PropOp37
 70
     1
102
RTVSPost2010Prop38
140
0.0
102
RTVSPost2010PropOp38
 70
     1
102
RTVSPost2010Prop39
140
1.0
102
RTVSPost2010PropOp39
 70
     1
102
RTVSPost2010Prop40
 90
        0
102
RTVSPost2010PropOp40
 70
     1
102
RTVSPost2010Prop41ColorIndex
 90
       18
102
RTVSPost2010Prop41ColorRGB
 90
        0
102
RTVSPost2010PropOp41
 70
     1
102
RTVSPost2010Prop42
 90
       50
102
RTVSPost2010PropOp42
 70
     1
102
RTVSPost2010Prop43
 90
        3
102
RTVSPost2010PropOp43
 70
     1
102
RTVSPost2010Prop44ColorIndex
 90
        5
102
RTVSPost2010Prop44ColorRGB
 90
      255
102
RTVSPost2010PropOp44
 70
     1
102
RTVSPost2010Prop45
280
     0
102
RTVSPost2010PropOp45
 70
     1
102
RTVSPost2010Prop46
 90
       50
102
RTVSPost2010PropOp46
 70
     1
102
RTVSPost2010Prop47
 90
       50
102
RTVSPost2010PropOp47
 70
     1
102
RTVSPost2010Prop48
 90
       50
102
RTVSPost2010PropOp48
 70
     1
102
RTVSPost2010Prop49
280
     0
102
RTVSPost2010PropOp49
 70
     1
102
RTVSPost2010Prop50
 90
       50
102
RTVSPost2010PropOp50
 70
     1
102
RTVSPost2010Prop51ColorIndex
 90
      256
102
RTVSPost2010Prop51ColorRGB
 90
-16777216
102
RTVSPost2010PropOp51
 70
     0
102
RTVSPost2010Prop52
140
1.0
102
RTVSPost2010PropOp52
 70
     0
102
RTVSPost2010Prop53
 90
        2
102
RTVSPost2010PropOp53
 70
     1
102
RTVSPost2010Prop54
  1
strokes_ogs.tif
102
RTVSPost2010PropOp54
 70
     1
102
RTVSPost2010Prop55
280
     0
102
RTVSPost2010PropOp55
 70
     1
102
RTVSPost2010Prop56
140
1.0
102
RTVSPost2010PropOp56
 70
     1
102
RTVSPost2010Prop57
140
1.0
102
RTVSPost2010PropOp57
 70
     1
  0
XRECORD
  5
23E
102
{ACAD_REACTORS
330
23D
102
}
330
23D
100
AcDbXrecord
280
     1
102
RTVSPropertyOp0
 70
     1
102
RTVSPropertyOp1
 70
     1
102
RTVSPropertyOp2
 70
     1
102
RTVSPropertyOp3
 70
     1
102
RTVSPropertyOp4
 70
     1
102
RTVSPropertyOp5
 70
     1
102
RTVSPropertyOp6
 70
     1
102
RTVSPropertyOp7
 70
     1
102
RTVSPropertyOp8
 70
     1
102
RTVSPropertyOp9
 70
     1
102
RTVSPropertyOp10
 70
     1
102
RTVSPropertyOp11
 70
     1
102
RTVSPropertyOp12
 70
     1
102
RTVSPropertyOp13
 70
     1
102
RTVSPropertyOp14
 70
     1
102
RTVSPropertyOp15
 70
     1
102
RTVSPropertyOp16
 70
     1
102
RTVSPropertyOp17
 70
     1
102
RTVSPropertyOp18
 70
     1
102
RTVSPropertyOp19
 70
     1
102
RTVSPropertyOp20
 70
     1
102
RTVSPropertyOp21
 70
     1
102
RTVSPropertyOp22
 70
     1
102
RTVSPropertyOp23
 70
     1
102
RTVSPropertyOp24
 70
     1
102
RTVSPropertyOp25
 70
     1
102
RTVSPropertyOp26
 70
     1
102
RTVSPropertyOp27
 70
     1
102
RTVSPropertyOp28
 70
     1
102
RTVSPropertyOp29
 70
     1
102
RTVSPropertyOp30
 70
     1
102
RTVSPropertyOp31
 70
     1
102
RTVSPropertyOp32
 70
     1
102
RTVSPropertyOp33
 70
     1
102
RTVSPropertyOp34
 70
     1
102
RTVSPropertyOp35
 70
     1
102
RTVSPropertyOp36
 70
     1
102
RTVSPropertyOp37
 70
     1
102
RTVSPropertyOp38
 70
     1
102
RTVSPropertyOp39
 70
     1
102
RTVSPropertyOp40
 70
     1
102
RTVSPropertyOp41
 70
     1
102
RTVSPropertyOp42
 70
     1
102
RTVSPropertyOp43
 70
     1
102
RTVSPropertyOp44
 70
     1
102
RTVSPropertyOp45
 70
     1
102
RTVSPropertyOp46
 70
     1
102
RTVSPropertyOp47
 70
     1
102
RTVSPropertyOp48
 70
     1
102
RTVSPropertyOp49
 70
     1
102
RTVSPropertyOp50
 70
     1
102
RTVSPropertyOp51
 70
     0
102
RTVSPropertyOp52
 70
     0
102
RTVSPropertyOp53
 70
     1
102
RTVSPropertyOp54
 70
     1
102
RTVSPropertyOp55
 70
     1
102
RTVSPropertyOp56
 70
     1
102
RTVSPropertyOp57
 70
     1
102
RTVSPost2010Prop28
280
     0
102
RTVSPost2010PropOp28
 70
     1
102
RTVSPost2010Prop29
280
     1
102
RTVSPost2010PropOp29
 70
     1
102
RTVSPost2010Prop30
280
     1
102
RTVSPost2010PropOp30
 70
     1
102
RTVSPost2010Prop31
280
     0
102
RTVSPost2010PropOp31
 70
     1
102
RTVSPost2010Prop32
280
     0
102
RTVSPost2010PropOp32
 70
     1
102
RTVSPost2010Prop33
280
     0
102
RTVSPost2010PropOp33
 70
     1
102
RTVSPost2010Prop34
280
     0
102
RTVSPost2010PropOp34
 70
     1
102
RTVSPost2010Prop35
280
     0
102
RTVSPost2010PropOp35
 70
     1
102
RTVSPost2010Prop36
280
     0
102
RTVSPost2010PropOp36
 70
     1
102
RTVSPost2010Prop37
 90
       50
102
RTVSPost2010PropOp37
 70
     1
102
RTVSPost2010Prop38
140
0.0
102
RTVSPost2010PropOp38
 70
     1
102
RTVSPost2010Prop39
140
1.0
102
RTVSPost2010PropOp39
 70
     1
102
RTVSPost2010Prop40
 90
        0
102
RTVSPost2010PropOp40
 70
     1
102
RTVSPost2010Prop41ColorIndex
 90
       18
102
RTVSPost2010Prop41ColorRGB
 90
        0
102
RTVSPost2010PropOp41
 70
     1
102
RTVSPost2010Prop42
 90
       50
102
RTVSPost2010PropOp42
 70
     1
102
RTVSPost2010Prop43
 90
        3
102
RTVSPost2010PropOp43
 70
     1
102
RTVSPost2010Prop44ColorIndex
 90
        5
102
RTVSPost2010Prop44ColorRGB
 90
      255
102
RTVSPost2010PropOp44
 70
     1
102
RTVSPost2010Prop45
280
     0
102
RTVSPost2010PropOp45
 70
     1
102
RTVSPost2010Prop46
 90
       50
102
RTVSPost2010PropOp46
 70
     1
102
RTVSPost2010Prop47
 90
       50
102
RTVSPost2010PropOp47
 70
     1
102
RTVSPost2010Prop48
 90
       50
102
RTVSPost2010PropOp48
 70
     1
102
RTVSPost2010Prop49
280
     0
102
RTVSPost2010PropOp49
 70
     1
102
RTVSPost2010Prop50
 90
       50
102
RTVSPost2010PropOp50
 70
     1
102
RTVSPost2010Prop51ColorIndex
 90
      256
102
RTVSPost2010Prop51ColorRGB
 90
-16777216
102
RTVSPost2010PropOp51
 70
     0
102
RTVSPost2010Prop52
140
1.0
102
RTVSPost2010PropOp52
 70
     0
102
RTVSPost2010Prop53
 90
        2
102
RTVSPost2010PropOp53
 70
     1
102
RTVSPost2010Prop54
  1
strokes_ogs.tif
102
RTVSPost2010PropOp54
 70
     1
102
RTVSPost2010Prop55
280
     0
102
RTVSPost2010PropOp55
 70
     1
102
RTVSPost2010Prop56
140
1.0
102
RTVSPost2010PropOp56
 70
     1
102
RTVSPost2010Prop57
140
1.0
102
RTVSPost2010PropOp57
 70
     1
  0
XRECORD
  5
252
102
{ACAD_REACTORS
330
251
102
}
330
251
100
AcDbXrecord
280
     1
102
RTVSPropertyOp0
 70
     0
102
RTVSPropertyOp1
 70
     0
102
RTVSPropertyOp2
 70
     0
102
RTVSPropertyOp3
 70
     0
102
RTVSPropertyOp4
 70
     0
102
RTVSPropertyOp5
 70
     0
102
RTVSPropertyOp6
 70
     0
102
RTVSPropertyOp7
 70
     0
102
RTVSPropertyOp8
 70
     0
102
RTVSPropertyOp9
 70
     0
102
RTVSPropertyOp10
 70
     0
102
RTVSPropertyOp11
 70
     0
102
RTVSPropertyOp12
 70
     0
102
RTVSPropertyOp13
 70
     0
102
RTVSPropertyOp14
 70
     2
102
RTVSPropertyOp15
 70
     0
102
RTVSPropertyOp16
 70
     0
102
RTVSPropertyOp17
 70
     0
102
RTVSPropertyOp18
 70
     0
102
RTVSPropertyOp19
 70
     0
102
RTVSPropertyOp20
 70
     0
102
RTVSPropertyOp21
 70
     0
102
RTVSPropertyOp22
 70
     0
102
RTVSPropertyOp23
 70
     0
102
RTVSPropertyOp24
 70
     0
102
RTVSPropertyOp25
 70
     0
102
RTVSPropertyOp26
 70
     0
102
RTVSPropertyOp27
 70
     0
102
RTVSPropertyOp28
 70
     0
102
RTVSPropertyOp29
 70
     0
102
RTVSPropertyOp30
 70
     0
102
RTVSPropertyOp31
 70
     0
102
RTVSPropertyOp32
 70
     0
102
RTVSPropertyOp33
 70
     0
102
RTVSPropertyOp34
 70
     0
102
RTVSPropertyOp35
 70
     0
102
RTVSPropertyOp36
 70
     0
102
RTVSPropertyOp37
 70
     0
102
RTVSPropertyOp38
 70
     0
102
RTVSPropertyOp39
 70
     0
102
RTVSPropertyOp40
 70
     0
102
RTVSPropertyOp41
 70
     0
102
RTVSPropertyOp42
 70
     0
102
RTVSPropertyOp43
 70
     0
102
RTVSPropertyOp44
 70
     0
102
RTVSPropertyOp45
 70
     0
102
RTVSPropertyOp46
 70
     0
102
RTVSPropertyOp47
 70
     0
102
RTVSPropertyOp48
 70
     0
102
RTVSPropertyOp49
 70
     0
102
RTVSPropertyOp50
 70
     0
102
RTVSPropertyOp51
 70
     0
102
RTVSPropertyOp52
 70
     0
102
RTVSPropertyOp53
 70
     0
102
RTVSPropertyOp54
 70
     0
102
RTVSPropertyOp55
 70
     0
102
RTVSPropertyOp56
 70
     0
102
RTVSPropertyOp57
 70
     0
102
RTVSPost2010Prop28
280
     0
102
RTVSPost2010PropOp28
 70
     0
102
RTVSPost2010Prop29
280
     1
102
RTVSPost2010PropOp29
 70
     0
102
RTVSPost2010Prop30
280
     1
102
RTVSPost2010PropOp30
 70
     0
102
RTVSPost2010Prop31
280
     0
102
RTVSPost2010PropOp31
 70
     0
102
RTVSPost2010Prop32
280
     0
102
RTVSPost2010PropOp32
 70
     0
102
RTVSPost2010Prop33
280
     0
102
RTVSPost2010PropOp33
 70
     0
102
RTVSPost2010Prop34
280
     0
102
RTVSPost2010PropOp34
 70
     0
102
RTVSPost2010Prop35
280
     0
102
RTVSPost2010PropOp35
 70
     0
102
RTVSPost2010Prop36
280
     0
102
RTVSPost2010PropOp36
 70
     0
102
RTVSPost2010Prop37
 90
       50
102
RTVSPost2010PropOp37
 70
     0
102
RTVSPost2010Prop38
140
0.0
102
RTVSPost2010PropOp38
 70
     0
102
RTVSPost2010Prop39
140
1.0
102
RTVSPost2010PropOp39
 70
     0
102
RTVSPost2010Prop40
 90
        0
102
RTVSPost2010PropOp40
 70
     0
102
RTVSPost2010Prop41ColorIndex
 90
       18
102
RTVSPost2010Prop41ColorRGB
 90
        0
102
RTVSPost2010PropOp41
 70
     0
102
RTVSPost2010Prop42
 90
       50
102
RTVSPost2010PropOp42
 70
     0
102
RTVSPost2010Prop43
 90
        3
102
RTVSPost2010PropOp43
 70
     0
102
RTVSPost2010Prop44ColorIndex
 90
        5
102
RTVSPost2010Prop44ColorRGB
 90
      255
102
RTVSPost2010PropOp44
 70
     0
102
RTVSPost2010Prop45
280
     0
102
RTVSPost2010PropOp45
 70
     0
102
RTVSPost2010Prop46
 90
       50
102
RTVSPost2010PropOp46
 70
     0
102
RTVSPost2010Prop47
 90
       50
102
RTVSPost2010PropOp47
 70
     0
102
RTVSPost2010Prop48
 90
       50
102
RTVSPost2010PropOp48
 70
     0
102
RTVSPost2010Prop49
280
     0
102
RTVSPost2010PropOp49
 70
     0
102
RTVSPost2010Prop50
 90
       50
102
RTVSPost2010PropOp50
 70
     0
102
RTVSPost2010Prop51ColorIndex
 90
      256
102
RTVSPost2010Prop51ColorRGB
 90
-16777216
102
RTVSPost2010PropOp51
 70
     0
102
RTVSPost2010Prop52
140
1.0
102
RTVSPost2010PropOp52
 70
     0
102
RTVSPost2010Prop53
 90
        2
102
RTVSPost2010PropOp53
 70
     0
102
RTVSPost2010Prop54
  1
strokes_ogs.tif
102
RTVSPost2010PropOp54
 70
     0
102
RTVSPost2010Prop55
280
     0
102
RTVSPost2010PropOp55
 70
     0
102
RTVSPost2010Prop56
140
1.0
102
RTVSPost2010PropOp56
 70
     0
102
RTVSPost2010Prop57
140
1.0
102
RTVSPost2010PropOp57
 70
     0
  0
XRECORD
  5
24C
102
{ACAD_REACTORS
330
24B
102
}
330
24B
100
AcDbXrecord
280
     1
102
RTVSPropertyOp0
 70
     1
102
RTVSPropertyOp1
 70
     1
102
RTVSPropertyOp2
 70
     1
102
RTVSPropertyOp3
 70
     1
102
RTVSPropertyOp4
 70
     1
102
RTVSPropertyOp5
 70
     1
102
RTVSPropertyOp6
 70
     1
102
RTVSPropertyOp7
 70
     1
102
RTVSPropertyOp8
 70
     1
102
RTVSPropertyOp9
 70
     1
102
RTVSPropertyOp10
 70
     1
102
RTVSPropertyOp11
 70
     1
102
RTVSPropertyOp12
 70
     1
102
RTVSPropertyOp13
 70
     1
102
RTVSPropertyOp14
 70
     1
102
RTVSPropertyOp15
 70
     1
102
RTVSPropertyOp16
 70
     1
102
RTVSPropertyOp17
 70
     1
102
RTVSPropertyOp18
 70
     1
102
RTVSPropertyOp19
 70
     1
102
RTVSPropertyOp20
 70
     1
102
RTVSPropertyOp21
 70
     1
102
RTVSPropertyOp22
 70
     1
102
RTVSPropertyOp23
 70
     1
102
RTVSPropertyOp24
 70
     1
102
RTVSPropertyOp25
 70
     1
102
RTVSPropertyOp26
 70
     1
102
RTVSPropertyOp27
 70
     1
102
RTVSPropertyOp28
 70
     1
102
RTVSPropertyOp29
 70
     1
102
RTVSPropertyOp30
 70
     1
102
RTVSPropertyOp31
 70
     1
102
RTVSPropertyOp32
 70
     1
102
RTVSPropertyOp33
 70
     1
102
RTVSPropertyOp34
 70
     1
102
RTVSPropertyOp35
 70
     1
102
RTVSPropertyOp36
 70
     1
102
RTVSPropertyOp37
 70
     1
102
RTVSPropertyOp38
 70
     1
102
RTVSPropertyOp39
 70
     1
102
RTVSPropertyOp40
 70
     1
102
RTVSPropertyOp41
 70
     1
102
RTVSPropertyOp42
 70
     1
102
RTVSPropertyOp43
 70
     1
102
RTVSPropertyOp44
 70
     1
102
RTVSPropertyOp45
 70
     1
102
RTVSPropertyOp46
 70
     1
102
RTVSPropertyOp47
 70
     1
102
RTVSPropertyOp48
 70
     1
102
RTVSPropertyOp49
 70
     1
102
RTVSPropertyOp50
 70
     1
102
RTVSPropertyOp51
 70
     0
102
RTVSPropertyOp52
 70
     0
102
RTVSPropertyOp53
 70
     1
102
RTVSPropertyOp54
 70
     1
102
RTVSPropertyOp55
 70
     1
102
RTVSPropertyOp56
 70
     1
102
RTVSPropertyOp57
 70
     1
102
RTVSPost2010Prop28
280
     0
102
RTVSPost2010PropOp28
 70
     1
102
RTVSPost2010Prop29
280
     1
102
RTVSPost2010PropOp29
 70
     1
102
RTVSPost2010Prop30
280
     1
102
RTVSPost2010PropOp30
 70
     1
102
RTVSPost2010Prop31
280
     0
102
RTVSPost2010PropOp31
 70
     1
102
RTVSPost2010Prop32
280
     0
102
RTVSPost2010PropOp32
 70
     1
102
RTVSPost2010Prop33
280
     0
102
RTVSPost2010PropOp33
 70
     1
102
RTVSPost2010Prop34
280
     0
102
RTVSPost2010PropOp34
 70
     1
102
RTVSPost2010Prop35
280
     0
102
RTVSPost2010PropOp35
 70
     1
102
RTVSPost2010Prop36
280
     0
102
RTVSPost2010PropOp36
 70
     1
102
RTVSPost2010Prop37
 90
       50
102
RTVSPost2010PropOp37
 70
     1
102
RTVSPost2010Prop38
140
0.0
102
RTVSPost2010PropOp38
 70
     1
102
RTVSPost2010Prop39
140
1.0
102
RTVSPost2010PropOp39
 70
     1
102
RTVSPost2010Prop40
 90
        0
102
RTVSPost2010PropOp40
 70
     1
102
RTVSPost2010Prop41ColorIndex
 90
       18
102
RTVSPost2010Prop41ColorRGB
 90
        0
102
RTVSPost2010PropOp41
 70
     1
102
RTVSPost2010Prop42
 90
       50
102
RTVSPost2010PropOp42
 70
     1
102
RTVSPost2010Prop43
 90
        3
102
RTVSPost2010PropOp43
 70
     1
102
RTVSPost2010Prop44ColorIndex
 90
        5
102
RTVSPost2010Prop44ColorRGB
 90
      255
102
RTVSPost2010PropOp44
 70
     1
102
RTVSPost2010Prop45
280
     0
102
RTVSPost2010PropOp45
 70
     1
102
RTVSPost2010Prop46
 90
       50
102
RTVSPost2010PropOp46
 70
     1
102
RTVSPost2010Prop47
 90
       50
102
RTVSPost2010PropOp47
 70
     1
102
RTVSPost2010Prop48
 90
       50
102
RTVSPost2010PropOp48
 70
     1
102
RTVSPost2010Prop49
280
     0
102
RTVSPost2010PropOp49
 70
     1
102
RTVSPost2010Prop50
 90
       50
102
RTVSPost2010PropOp50
 70
     1
102
RTVSPost2010Prop51ColorIndex
 90
      256
102
RTVSPost2010Prop51ColorRGB
 90
-16777216
102
RTVSPost2010PropOp51
 70
     0
102
RTVSPost2010Prop52
140
1.0
102
RTVSPost2010PropOp52
 70
     0
102
RTVSPost2010Prop53
 90
        2
102
RTVSPost2010PropOp53
 70
     1
102
RTVSPost2010Prop54
  1
strokes_ogs.tif
102
RTVSPost2010PropOp54
 70
     1
102
RTVSPost2010Prop55
280
     0
102
RTVSPost2010PropOp55
 70
     1
102
RTVSPost2010Prop56
140
1.0
102
RTVSPost2010PropOp56
 70
     1
102
RTVSPost2010Prop57
140
1.0
102
RTVSPost2010PropOp57
 70
     1
  0
XRECORD
  5
254
102
{ACAD_REACTORS
330
253
102
}
330
253
100
AcDbXrecord
280
     1
102
RTVSPropertyOp0
 70
     0
102
RTVSPropertyOp1
 70
     0
102
RTVSPropertyOp2
 70
     0
102
RTVSPropertyOp3
 70
     0
102
RTVSPropertyOp4
 70
     0
102
RTVSPropertyOp5
 70
     0
102
RTVSPropertyOp6
 70
     0
102
RTVSPropertyOp7
 70
     0
102
RTVSPropertyOp8
 70
     0
102
RTVSPropertyOp9
 70
     0
102
RTVSPropertyOp10
 70
     0
102
RTVSPropertyOp11
 70
     0
102
RTVSPropertyOp12
 70
     0
102
RTVSPropertyOp13
 70
     0
102
RTVSPropertyOp14
 70
     2
102
RTVSPropertyOp15
 70
     0
102
RTVSPropertyOp16
 70
     0
102
RTVSPropertyOp17
 70
     0
102
RTVSPropertyOp18
 70
     0
102
RTVSPropertyOp19
 70
     0
102
RTVSPropertyOp20
 70
     0
102
RTVSPropertyOp21
 70
     0
102
RTVSPropertyOp22
 70
     0
102
RTVSPropertyOp23
 70
     0
102
RTVSPropertyOp24
 70
     0
102
RTVSPropertyOp25
 70
     0
102
RTVSPropertyOp26
 70
     0
102
RTVSPropertyOp27
 70
     0
102
RTVSPropertyOp28
 70
     0
102
RTVSPropertyOp29
 70
     0
102
RTVSPropertyOp30
 70
     0
102
RTVSPropertyOp31
 70
     0
102
RTVSPropertyOp32
 70
     0
102
RTVSPropertyOp33
 70
     0
102
RTVSPropertyOp34
 70
     0
102
RTVSPropertyOp35
 70
     0
102
RTVSPropertyOp36
 70
     0
102
RTVSPropertyOp37
 70
     0
102
RTVSPropertyOp38
 70
     0
102
RTVSPropertyOp39
 70
     0
102
RTVSPropertyOp40
 70
     0
102
RTVSPropertyOp41
 70
     0
102
RTVSPropertyOp42
 70
     0
102
RTVSPropertyOp43
 70
     0
102
RTVSPropertyOp44
 70
     0
102
RTVSPropertyOp45
 70
     0
102
RTVSPropertyOp46
 70
     0
102
RTVSPropertyOp47
 70
     0
102
RTVSPropertyOp48
 70
     0
102
RTVSPropertyOp49
 70
     0
102
RTVSPropertyOp50
 70
     0
102
RTVSPropertyOp51
 70
     0
102
RTVSPropertyOp52
 70
     0
102
RTVSPropertyOp53
 70
     0
102
RTVSPropertyOp54
 70
     0
102
RTVSPropertyOp55
 70
     0
102
RTVSPropertyOp56
 70
     0
102
RTVSPropertyOp57
 70
     0
102
RTVSPost2010Prop28
280
     0
102
RTVSPost2010PropOp28
 70
     0
102
RTVSPost2010Prop29
280
     1
102
RTVSPost2010PropOp29
 70
     0
102
RTVSPost2010Prop30
280
     1
102
RTVSPost2010PropOp30
 70
     0
102
RTVSPost2010Prop31
280
     0
102
RTVSPost2010PropOp31
 70
     0
102
RTVSPost2010Prop32
280
     0
102
RTVSPost2010PropOp32
 70
     0
102
RTVSPost2010Prop33
280
     0
102
RTVSPost2010PropOp33
 70
     0
102
RTVSPost2010Prop34
280
     0
102
RTVSPost2010PropOp34
 70
     0
102
RTVSPost2010Prop35
280
     0
102
RTVSPost2010PropOp35
 70
     0
102
RTVSPost2010Prop36
280
     0
102
RTVSPost2010PropOp36
 70
     0
102
RTVSPost2010Prop37
 90
       50
102
RTVSPost2010PropOp37
 70
     0
102
RTVSPost2010Prop38
140
0.0
102
RTVSPost2010PropOp38
 70
     0
102
RTVSPost2010Prop39
140
1.0
102
RTVSPost2010PropOp39
 70
     0
102
RTVSPost2010Prop40
 90
        0
102
RTVSPost2010PropOp40
 70
     0
102
RTVSPost2010Prop41ColorIndex
 90
       18
102
RTVSPost2010Prop41ColorRGB
 90
        0
102
RTVSPost2010PropOp41
 70
     0
102
RTVSPost2010Prop42
 90
       50
102
RTVSPost2010PropOp42
 70
     0
102
RTVSPost2010Prop43
 90
        3
102
RTVSPost2010PropOp43
 70
     0
102
RTVSPost2010Prop44ColorIndex
 90
        5
102
RTVSPost2010Prop44ColorRGB
 90
      255
102
RTVSPost2010PropOp44
 70
     0
102
RTVSPost2010Prop45
280
     0
102
RTVSPost2010PropOp45
 70
     0
102
RTVSPost2010Prop46
 90
       50
102
RTVSPost2010PropOp46
 70
     0
102
RTVSPost2010Prop47
 90
       50
102
RTVSPost2010PropOp47
 70
     0
102
RTVSPost2010Prop48
 90
       50
102
RTVSPost2010PropOp48
 70
     0
102
RTVSPost2010Prop49
280
     0
102
RTVSPost2010PropOp49
 70
     0
102
RTVSPost2010Prop50
 90
       50
102
RTVSPost2010PropOp50
 70
     0
102
RTVSPost2010Prop51ColorIndex
 90
      256
102
RTVSPost2010Prop51ColorRGB
 90
-16777216
102
RTVSPost2010PropOp51
 70
     0
102
RTVSPost2010Prop52
140
1.0
102
RTVSPost2010PropOp52
 70
     0
102
RTVSPost2010Prop53
 90
        2
102
RTVSPost2010PropOp53
 70
     0
102
RTVSPost2010Prop54
  1
strokes_ogs.tif
102
RTVSPost2010PropOp54
 70
     0
102
RTVSPost2010Prop55
280
     0
102
RTVSPost2010PropOp55
 70
     0
102
RTVSPost2010Prop56
140
1.0
102
RTVSPost2010PropOp56
 70
     0
102
RTVSPost2010Prop57
140
1.0
102
RTVSPost2010PropOp57
 70
     0
  0
XRECORD
  5
242
102
{ACAD_REACTORS
330
241
102
}
330
241
100
AcDbXrecord
280
     1
102
RTVSPropertyOp0
 70
     1
102
RTVSPropertyOp1
 70
     1
102
RTVSPropertyOp2
 70
     1
102
RTVSPropertyOp3
 70
     1
102
RTVSPropertyOp4
 70
     1
102
RTVSPropertyOp5
 70
     1
102
RTVSPropertyOp6
 70
     1
102
RTVSPropertyOp7
 70
     1
102
RTVSPropertyOp8
 70
     1
102
RTVSPropertyOp9
 70
     1
102
RTVSPropertyOp10
 70
     1
102
RTVSPropertyOp11
 70
     1
102
RTVSPropertyOp12
 70
     1
102
RTVSPropertyOp13
 70
     1
102
RTVSPropertyOp14
 70
     1
102
RTVSPropertyOp15
 70
     1
102
RTVSPropertyOp16
 70
     1
102
RTVSPropertyOp17
 70
     1
102
RTVSPropertyOp18
 70
     1
102
RTVSPropertyOp19
 70
     1
102
RTVSPropertyOp20
 70
     1
102
RTVSPropertyOp21
 70
     1
102
RTVSPropertyOp22
 70
     1
102
RTVSPropertyOp23
 70
     1
102
RTVSPropertyOp24
 70
     1
102
RTVSPropertyOp25
 70
     1
102
RTVSPropertyOp26
 70
     1
102
RTVSPropertyOp27
 70
     1
102
RTVSPropertyOp28
 70
     1
102
RTVSPropertyOp29
 70
     1
102
RTVSPropertyOp30
 70
     1
102
RTVSPropertyOp31
 70
     1
102
RTVSPropertyOp32
 70
     1
102
RTVSPropertyOp33
 70
     1
102
RTVSPropertyOp34
 70
     1
102
RTVSPropertyOp35
 70
     1
102
RTVSPropertyOp36
 70
     1
102
RTVSPropertyOp37
 70
     1
102
RTVSPropertyOp38
 70
     1
102
RTVSPropertyOp39
 70
     1
102
RTVSPropertyOp40
 70
     1
102
RTVSPropertyOp41
 70
     1
102
RTVSPropertyOp42
 70
     1
102
RTVSPropertyOp43
 70
     1
102
RTVSPropertyOp44
 70
     1
102
RTVSPropertyOp45
 70
     1
102
RTVSPropertyOp46
 70
     1
102
RTVSPropertyOp47
 70
     1
102
RTVSPropertyOp48
 70
     1
102
RTVSPropertyOp49
 70
     1
102
RTVSPropertyOp50
 70
     1
102
RTVSPropertyOp51
 70
     0
102
RTVSPropertyOp52
 70
     0
102
RTVSPropertyOp53
 70
     1
102
RTVSPropertyOp54
 70
     1
102
RTVSPropertyOp55
 70
     1
102
RTVSPropertyOp56
 70
     1
102
RTVSPropertyOp57
 70
     1
102
RTVSPost2010Prop28
280
     0
102
RTVSPost2010PropOp28
 70
     1
102
RTVSPost2010Prop29
280
     1
102
RTVSPost2010PropOp29
 70
     1
102
RTVSPost2010Prop30
280
     1
102
RTVSPost2010PropOp30
 70
     1
102
RTVSPost2010Prop31
280
     0
102
RTVSPost2010PropOp31
 70
     1
102
RTVSPost2010Prop32
280
     0
102
RTVSPost2010PropOp32
 70
     1
102
RTVSPost2010Prop33
280
     0
102
RTVSPost2010PropOp33
 70
     1
102
RTVSPost2010Prop34
280
     0
102
RTVSPost2010PropOp34
 70
     1
102
RTVSPost2010Prop35
280
     0
102
RTVSPost2010PropOp35
 70
     1
102
RTVSPost2010Prop36
280
     0
102
RTVSPost2010PropOp36
 70
     1
102
RTVSPost2010Prop37
 90
       50
102
RTVSPost2010PropOp37
 70
     1
102
RTVSPost2010Prop38
140
0.0
102
RTVSPost2010PropOp38
 70
     1
102
RTVSPost2010Prop39
140
1.0
102
RTVSPost2010PropOp39
 70
     1
102
RTVSPost2010Prop40
 90
        0
102
RTVSPost2010PropOp40
 70
     1
102
RTVSPost2010Prop41ColorIndex
 90
       18
102
RTVSPost2010Prop41ColorRGB
 90
        0
102
RTVSPost2010PropOp41
 70
     1
102
RTVSPost2010Prop42
 90
       50
102
RTVSPost2010PropOp42
 70
     1
102
RTVSPost2010Prop43
 90
        3
102
RTVSPost2010PropOp43
 70
     1
102
RTVSPost2010Prop44ColorIndex
 90
        5
102
RTVSPost2010Prop44ColorRGB
 90
      255
102
RTVSPost2010PropOp44
 70
     1
102
RTVSPost2010Prop45
280
     0
102
RTVSPost2010PropOp45
 70
     1
102
RTVSPost2010Prop46
 90
       50
102
RTVSPost2010PropOp46
 70
     1
102
RTVSPost2010Prop47
 90
       50
102
RTVSPost2010PropOp47
 70
     1
102
RTVSPost2010Prop48
 90
       50
102
RTVSPost2010PropOp48
 70
     1
102
RTVSPost2010Prop49
280
     0
102
RTVSPost2010PropOp49
 70
     1
102
RTVSPost2010Prop50
 90
       50
102
RTVSPost2010PropOp50
 70
     1
102
RTVSPost2010Prop51ColorIndex
 90
      256
102
RTVSPost2010Prop51ColorRGB
 90
-16777216
102
RTVSPost2010PropOp51
 70
     0
102
RTVSPost2010Prop52
140
1.0
102
RTVSPost2010PropOp52
 70
     0
102
RTVSPost2010Prop53
 90
        2
102
RTVSPost2010PropOp53
 70
     1
102
RTVSPost2010Prop54
  1
strokes_ogs.tif
102
RTVSPost2010PropOp54
 70
     1
102
RTVSPost2010Prop55
280
     0
102
RTVSPost2010PropOp55
 70
     1
102
RTVSPost2010Prop56
140
1.0
102
RTVSPost2010PropOp56
 70
     1
102
RTVSPost2010Prop57
140
1.0
102
RTVSPost2010PropOp57
 70
     1
  0
XRECORD
  5
260
102
{ACAD_REACTORS
330
25F
102
}
330
25F
100
AcDbXrecord
280
     1
102
RTVSPropertyOp0
 70
     1
102
RTVSPropertyOp1
 70
     1
102
RTVSPropertyOp2
 70
     1
102
RTVSPropertyOp3
 70
     1
102
RTVSPropertyOp4
 70
     1
102
RTVSPropertyOp5
 70
     1
102
RTVSPropertyOp6
 70
     1
102
RTVSPropertyOp7
 70
     1
102
RTVSPropertyOp8
 70
     1
102
RTVSPropertyOp9
 70
     1
102
RTVSPropertyOp10
 70
     1
102
RTVSPropertyOp11
 70
     1
102
RTVSPropertyOp12
 70
     1
102
RTVSPropertyOp13
 70
     1
102
RTVSPropertyOp14
 70
     1
102
RTVSPropertyOp15
 70
     1
102
RTVSPropertyOp16
 70
     1
102
RTVSPropertyOp17
 70
     1
102
RTVSPropertyOp18
 70
     1
102
RTVSPropertyOp19
 70
     1
102
RTVSPropertyOp20
 70
     1
102
RTVSPropertyOp21
 70
     1
102
RTVSPropertyOp22
 70
     1
102
RTVSPropertyOp23
 70
     1
102
RTVSPropertyOp24
 70
     1
102
RTVSPropertyOp25
 70
     1
102
RTVSPropertyOp26
 70
     1
102
RTVSPropertyOp27
 70
     1
102
RTVSPropertyOp28
 70
     1
102
RTVSPropertyOp29
 70
     1
102
RTVSPropertyOp30
 70
     1
102
RTVSPropertyOp31
 70
     1
102
RTVSPropertyOp32
 70
     1
102
RTVSPropertyOp33
 70
     1
102
RTVSPropertyOp34
 70
     1
102
RTVSPropertyOp35
 70
     1
102
RTVSPropertyOp36
 70
     1
102
RTVSPropertyOp37
 70
     1
102
RTVSPropertyOp38
 70
     1
102
RTVSPropertyOp39
 70
     1
102
RTVSPropertyOp40
 70
     1
102
RTVSPropertyOp41
 70
     1
102
RTVSPropertyOp42
 70
     1
102
RTVSPropertyOp43
 70
     1
102
RTVSPropertyOp44
 70
     1
102
RTVSPropertyOp45
 70
     1
102
RTVSPropertyOp46
 70
     1
102
RTVSPropertyOp47
 70
     1
102
RTVSPropertyOp48
 70
     1
102
RTVSPropertyOp49
 70
     1
102
RTVSPropertyOp50
 70
     1
102
RTVSPropertyOp51
 70
     0
102
RTVSPropertyOp52
 70
     0
102
RTVSPropertyOp53
 70
     1
102
RTVSPropertyOp54
 70
     1
102
RTVSPropertyOp55
 70
     1
102
RTVSPropertyOp56
 70
     1
102
RTVSPropertyOp57
 70
     1
102
RTVSPost2010Prop28
280
     0
102
RTVSPost2010PropOp28
 70
     1
102
RTVSPost2010Prop29
280
     1
102
RTVSPost2010PropOp29
 70
     1
102
RTVSPost2010Prop30
280
     1
102
RTVSPost2010PropOp30
 70
     1
102
RTVSPost2010Prop31
280
     0
102
RTVSPost2010PropOp31
 70
     1
102
RTVSPost2010Prop32
280
     0
102
RTVSPost2010PropOp32
 70
     1
102
RTVSPost2010Prop33
280
     0
102
RTVSPost2010PropOp33
 70
     1
102
RTVSPost2010Prop34
280
     0
102
RTVSPost2010PropOp34
 70
     1
102
RTVSPost2010Prop35
280
     0
102
RTVSPost2010PropOp35
 70
     1
102
RTVSPost2010Prop36
280
     0
102
RTVSPost2010PropOp36
 70
     1
102
RTVSPost2010Prop37
 90
       50
102
RTVSPost2010PropOp37
 70
     1
102
RTVSPost2010Prop38
140
0.0
102
RTVSPost2010PropOp38
 70
     1
102
RTVSPost2010Prop39
140
1.0
102
RTVSPost2010PropOp39
 70
     1
102
RTVSPost2010Prop40
 90
        0
102
RTVSPost2010PropOp40
 70
     1
102
RTVSPost2010Prop41ColorIndex
 90
       18
102
RTVSPost2010Prop41ColorRGB
 90
        0
102
RTVSPost2010PropOp41
 70
     1
102
RTVSPost2010Prop42
 90
       50
102
RTVSPost2010PropOp42
 70
     1
102
RTVSPost2010Prop43
 90
        3
102
RTVSPost2010PropOp43
 70
     1
102
RTVSPost2010Prop44ColorIndex
 90
        5
102
RTVSPost2010Prop44ColorRGB
 90
      255
102
RTVSPost2010PropOp44
 70
     1
102
RTVSPost2010Prop45
280
     0
102
RTVSPost2010PropOp45
 70
     1
102
RTVSPost2010Prop46
 90
       50
102
RTVSPost2010PropOp46
 70
     1
102
RTVSPost2010Prop47
 90
       50
102
RTVSPost2010PropOp47
 70
     1
102
RTVSPost2010Prop48
 90
       50
102
RTVSPost2010PropOp48
 70
     1
102
RTVSPost2010Prop49
280
     0
102
RTVSPost2010PropOp49
 70
     1
102
RTVSPost2010Prop50
 90
       50
102
RTVSPost2010PropOp50
 70
     1
102
RTVSPost2010Prop51ColorIndex
 90
      256
102
RTVSPost2010Prop51ColorRGB
 90
-16777216
102
RTVSPost2010PropOp51
 70
     0
102
RTVSPost2010Prop52
140
1.0
102
RTVSPost2010PropOp52
 70
     0
102
RTVSPost2010Prop53
 90
        2
102
RTVSPost2010PropOp53
 70
     1
102
RTVSPost2010Prop54
  1
strokes_ogs.tif
102
RTVSPost2010PropOp54
 70
     1
102
RTVSPost2010Prop55
280
     0
102
RTVSPost2010PropOp55
 70
     1
102
RTVSPost2010Prop56
140
1.0
102
RTVSPost2010PropOp56
 70
     1
102
RTVSPost2010Prop57
140
1.0
102
RTVSPost2010PropOp57
 70
     1
  0
XRECORD
  5
25E
102
{ACAD_REACTORS
330
25D
102
}
330
25D
100
AcDbXrecord
280
     1
102
RTVSPropertyOp0
 70
     1
102
RTVSPropertyOp1
 70
     1
102
RTVSPropertyOp2
 70
     1
102
RTVSPropertyOp3
 70
     1
102
RTVSPropertyOp4
 70
     1
102
RTVSPropertyOp5
 70
     1
102
RTVSPropertyOp6
 70
     1
102
RTVSPropertyOp7
 70
     1
102
RTVSPropertyOp8
 70
     1
102
RTVSPropertyOp9
 70
     1
102
RTVSPropertyOp10
 70
     1
102
RTVSPropertyOp11
 70
     1
102
RTVSPropertyOp12
 70
     1
102
RTVSPropertyOp13
 70
     1
102
RTVSPropertyOp14
 70
     1
102
RTVSPropertyOp15
 70
     1
102
RTVSPropertyOp16
 70
     1
102
RTVSPropertyOp17
 70
     1
102
RTVSPropertyOp18
 70
     1
102
RTVSPropertyOp19
 70
     1
102
RTVSPropertyOp20
 70
     1
102
RTVSPropertyOp21
 70
     1
102
RTVSPropertyOp22
 70
     1
102
RTVSPropertyOp23
 70
     1
102
RTVSPropertyOp24
 70
     1
102
RTVSPropertyOp25
 70
     1
102
RTVSPropertyOp26
 70
     1
102
RTVSPropertyOp27
 70
     1
102
RTVSPropertyOp28
 70
     1
102
RTVSPropertyOp29
 70
     1
102
RTVSPropertyOp30
 70
     1
102
RTVSPropertyOp31
 70
     1
102
RTVSPropertyOp32
 70
     1
102
RTVSPropertyOp33
 70
     1
102
RTVSPropertyOp34
 70
     1
102
RTVSPropertyOp35
 70
     1
102
RTVSPropertyOp36
 70
     1
102
RTVSPropertyOp37
 70
     1
102
RTVSPropertyOp38
 70
     1
102
RTVSPropertyOp39
 70
     1
102
RTVSPropertyOp40
 70
     1
102
RTVSPropertyOp41
 70
     1
102
RTVSPropertyOp42
 70
     1
102
RTVSPropertyOp43
 70
     1
102
RTVSPropertyOp44
 70
     1
102
RTVSPropertyOp45
 70
     1
102
RTVSPropertyOp46
 70
     1
102
RTVSPropertyOp47
 70
     1
102
RTVSPropertyOp48
 70
     1
102
RTVSPropertyOp49
 70
     1
102
RTVSPropertyOp50
 70
     1
102
RTVSPropertyOp51
 70
     0
102
RTVSPropertyOp52
 70
     0
102
RTVSPropertyOp53
 70
     1
102
RTVSPropertyOp54
 70
     1
102
RTVSPropertyOp55
 70
     1
102
RTVSPropertyOp56
 70
     1
102
RTVSPropertyOp57
 70
     1
102
RTVSPost2010Prop28
280
     0
102
RTVSPost2010PropOp28
 70
     1
102
RTVSPost2010Prop29
280
     1
102
RTVSPost2010PropOp29
 70
     1
102
RTVSPost2010Prop30
280
     1
102
RTVSPost2010PropOp30
 70
     1
102
RTVSPost2010Prop31
280
     0
102
RTVSPost2010PropOp31
 70
     1
102
RTVSPost2010Prop32
280
     0
102
RTVSPost2010PropOp32
 70
     1
102
RTVSPost2010Prop33
280
     0
102
RTVSPost2010PropOp33
 70
     1
102
RTVSPost2010Prop34
280
     0
102
RTVSPost2010PropOp34
 70
     1
102
RTVSPost2010Prop35
280
     0
102
RTVSPost2010PropOp35
 70
     1
102
RTVSPost2010Prop36
280
     0
102
RTVSPost2010PropOp36
 70
     1
102
RTVSPost2010Prop37
 90
       50
102
RTVSPost2010PropOp37
 70
     1
102
RTVSPost2010Prop38
140
0.0
102
RTVSPost2010PropOp38
 70
     1
102
RTVSPost2010Prop39
140
1.0
102
RTVSPost2010PropOp39
 70
     1
102
RTVSPost2010Prop40
 90
        0
102
RTVSPost2010PropOp40
 70
     1
102
RTVSPost2010Prop41ColorIndex
 90
       18
102
RTVSPost2010Prop41ColorRGB
 90
        0
102
RTVSPost2010PropOp41
 70
     1
102
RTVSPost2010Prop42
 90
       50
102
RTVSPost2010PropOp42
 70
     1
102
RTVSPost2010Prop43
 90
        3
102
RTVSPost2010PropOp43
 70
     1
102
RTVSPost2010Prop44ColorIndex
 90
        5
102
RTVSPost2010Prop44ColorRGB
 90
      255
102
RTVSPost2010PropOp44
 70
     1
102
RTVSPost2010Prop45
280
     0
102
RTVSPost2010PropOp45
 70
     1
102
RTVSPost2010Prop46
 90
       50
102
RTVSPost2010PropOp46
 70
     1
102
RTVSPost2010Prop47
 90
       50
102
RTVSPost2010PropOp47
 70
     1
102
RTVSPost2010Prop48
 90
       50
102
RTVSPost2010PropOp48
 70
     1
102
RTVSPost2010Prop49
280
     0
102
RTVSPost2010PropOp49
 70
     1
102
RTVSPost2010Prop50
 90
       50
102
RTVSPost2010PropOp50
 70
     1
102
RTVSPost2010Prop51ColorIndex
 90
      256
102
RTVSPost2010Prop51ColorRGB
 90
-16777216
102
RTVSPost2010PropOp51
 70
     0
102
RTVSPost2010Prop52
140
1.0
102
RTVSPost2010PropOp52
 70
     0
102
RTVSPost2010Prop53
 90
        2
102
RTVSPost2010PropOp53
 70
     1
102
RTVSPost2010Prop54
  1
strokes_ogs.tif
102
RTVSPost2010PropOp54
 70
     1
102
RTVSPost2010Prop55
280
     0
102
RTVSPost2010PropOp55
 70
     1
102
RTVSPost2010Prop56
140
1.0
102
RTVSPost2010PropOp56
 70
     1
102
RTVSPost2010Prop57
140
1.0
102
RTVSPost2010PropOp57
 70
     1
  0
XRECORD
  5
258
102
{ACAD_REACTORS
330
257
102
}
330
257
100
AcDbXrecord
280
     1
102
RTVSPropertyOp0
 70
     1
102
RTVSPropertyOp1
 70
     1
102
RTVSPropertyOp2
 70
     1
102
RTVSPropertyOp3
 70
     1
102
RTVSPropertyOp4
 70
     1
102
RTVSPropertyOp5
 70
     1
102
RTVSPropertyOp6
 70
     1
102
RTVSPropertyOp7
 70
     1
102
RTVSPropertyOp8
 70
     1
102
RTVSPropertyOp9
 70
     1
102
RTVSPropertyOp10
 70
     1
102
RTVSPropertyOp11
 70
     1
102
RTVSPropertyOp12
 70
     1
102
RTVSPropertyOp13
 70
     1
102
RTVSPropertyOp14
 70
     1
102
RTVSPropertyOp15
 70
     1
102
RTVSPropertyOp16
 70
     1
102
RTVSPropertyOp17
 70
     1
102
RTVSPropertyOp18
 70
     1
102
RTVSPropertyOp19
 70
     1
102
RTVSPropertyOp20
 70
     1
102
RTVSPropertyOp21
 70
     1
102
RTVSPropertyOp22
 70
     1
102
RTVSPropertyOp23
 70
     1
102
RTVSPropertyOp24
 70
     1
102
RTVSPropertyOp25
 70
     1
102
RTVSPropertyOp26
 70
     1
102
RTVSPropertyOp27
 70
     1
102
RTVSPropertyOp28
 70
     1
102
RTVSPropertyOp29
 70
     1
102
RTVSPropertyOp30
 70
     1
102
RTVSPropertyOp31
 70
     1
102
RTVSPropertyOp32
 70
     1
102
RTVSPropertyOp33
 70
     1
102
RTVSPropertyOp34
 70
     1
102
RTVSPropertyOp35
 70
     1
102
RTVSPropertyOp36
 70
     1
102
RTVSPropertyOp37
 70
     1
102
RTVSPropertyOp38
 70
     1
102
RTVSPropertyOp39
 70
     1
102
RTVSPropertyOp40
 70
     1
102
RTVSPropertyOp41
 70
     1
102
RTVSPropertyOp42
 70
     1
102
RTVSPropertyOp43
 70
     1
102
RTVSPropertyOp44
 70
     1
102
RTVSPropertyOp45
 70
     1
102
RTVSPropertyOp46
 70
     1
102
RTVSPropertyOp47
 70
     1
102
RTVSPropertyOp48
 70
     1
102
RTVSPropertyOp49
 70
     1
102
RTVSPropertyOp50
 70
     1
102
RTVSPropertyOp51
 70
     0
102
RTVSPropertyOp52
 70
     0
102
RTVSPropertyOp53
 70
     1
102
RTVSPropertyOp54
 70
     1
102
RTVSPropertyOp55
 70
     1
102
RTVSPropertyOp56
 70
     1
102
RTVSPropertyOp57
 70
     1
102
RTVSPost2010Prop28
280
     0
102
RTVSPost2010PropOp28
 70
     1
102
RTVSPost2010Prop29
280
     1
102
RTVSPost2010PropOp29
 70
     1
102
RTVSPost2010Prop30
280
     1
102
RTVSPost2010PropOp30
 70
     1
102
RTVSPost2010Prop31
280
     0
102
RTVSPost2010PropOp31
 70
     1
102
RTVSPost2010Prop32
280
     0
102
RTVSPost2010PropOp32
 70
     1
102
RTVSPost2010Prop33
280
     0
102
RTVSPost2010PropOp33
 70
     1
102
RTVSPost2010Prop34
280
     0
102
RTVSPost2010PropOp34
 70
     1
102
RTVSPost2010Prop35
280
     0
102
RTVSPost2010PropOp35
 70
     1
102
RTVSPost2010Prop36
280
     0
102
RTVSPost2010PropOp36
 70
     1
102
RTVSPost2010Prop37
 90
       50
102
RTVSPost2010PropOp37
 70
     1
102
RTVSPost2010Prop38
140
0.0
102
RTVSPost2010PropOp38
 70
     1
102
RTVSPost2010Prop39
140
1.0
102
RTVSPost2010PropOp39
 70
     1
102
RTVSPost2010Prop40
 90
        0
102
RTVSPost2010PropOp40
 70
     1
102
RTVSPost2010Prop41ColorIndex
 90
       18
102
RTVSPost2010Prop41ColorRGB
 90
        0
102
RTVSPost2010PropOp41
 70
     1
102
RTVSPost2010Prop42
 90
       50
102
RTVSPost2010PropOp42
 70
     1
102
RTVSPost2010Prop43
 90
        3
102
RTVSPost2010PropOp43
 70
     1
102
RTVSPost2010Prop44ColorIndex
 90
        5
102
RTVSPost2010Prop44ColorRGB
 90
      255
102
RTVSPost2010PropOp44
 70
     1
102
RTVSPost2010Prop45
280
     0
102
RTVSPost2010PropOp45
 70
     1
102
RTVSPost2010Prop46
 90
       50
102
RTVSPost2010PropOp46
 70
     1
102
RTVSPost2010Prop47
 90
       50
102
RTVSPost2010PropOp47
 70
     1
102
RTVSPost2010Prop48
 90
       50
102
RTVSPost2010PropOp48
 70
     1
102
RTVSPost2010Prop49
280
     0
102
RTVSPost2010PropOp49
 70
     1
102
RTVSPost2010Prop50
 90
       50
102
RTVSPost2010PropOp50
 70
     1
102
RTVSPost2010Prop51ColorIndex
 90
      256
102
RTVSPost2010Prop51ColorRGB
 90
-16777216
102
RTVSPost2010PropOp51
 70
     0
102
RTVSPost2010Prop52
140
1.0
102
RTVSPost2010PropOp52
 70
     0
102
RTVSPost2010Prop53
 90
        2
102
RTVSPost2010PropOp53
 70
     1
102
RTVSPost2010Prop54
  1
strokes_ogs.tif
102
RTVSPost2010PropOp54
 70
     1
102
RTVSPost2010Prop55
280
     0
102
RTVSPost2010PropOp55
 70
     1
102
RTVSPost2010Prop56
140
1.0
102
RTVSPost2010PropOp56
 70
     1
102
RTVSPost2010Prop57
140
1.0
102
RTVSPost2010PropOp57
 70
     1
  0
XRECORD
  5
25A
102
{ACAD_REACTORS
330
259
102
}
330
259
100
AcDbXrecord
280
     1
102
RTVSPropertyOp0
 70
     1
102
RTVSPropertyOp1
 70
     1
102
RTVSPropertyOp2
 70
     1
102
RTVSPropertyOp3
 70
     1
102
RTVSPropertyOp4
 70
     1
102
RTVSPropertyOp5
 70
     1
102
RTVSPropertyOp6
 70
     1
102
RTVSPropertyOp7
 70
     1
102
RTVSPropertyOp8
 70
     1
102
RTVSPropertyOp9
 70
     1
102
RTVSPropertyOp10
 70
     1
102
RTVSPropertyOp11
 70
     1
102
RTVSPropertyOp12
 70
     1
102
RTVSPropertyOp13
 70
     1
102
RTVSPropertyOp14
 70
     1
102
RTVSPropertyOp15
 70
     1
102
RTVSPropertyOp16
 70
     1
102
RTVSPropertyOp17
 70
     1
102
RTVSPropertyOp18
 70
     1
102
RTVSPropertyOp19
 70
     1
102
RTVSPropertyOp20
 70
     1
102
RTVSPropertyOp21
 70
     1
102
RTVSPropertyOp22
 70
     1
102
RTVSPropertyOp23
 70
     1
102
RTVSPropertyOp24
 70
     1
102
RTVSPropertyOp25
 70
     1
102
RTVSPropertyOp26
 70
     1
102
RTVSPropertyOp27
 70
     1
102
RTVSPropertyOp28
 70
     1
102
RTVSPropertyOp29
 70
     1
102
RTVSPropertyOp30
 70
     1
102
RTVSPropertyOp31
 70
     1
102
RTVSPropertyOp32
 70
     1
102
RTVSPropertyOp33
 70
     1
102
RTVSPropertyOp34
 70
     1
102
RTVSPropertyOp35
 70
     1
102
RTVSPropertyOp36
 70
     1
102
RTVSPropertyOp37
 70
     1
102
RTVSPropertyOp38
 70
     1
102
RTVSPropertyOp39
 70
     1
102
RTVSPropertyOp40
 70
     1
102
RTVSPropertyOp41
 70
     1
102
RTVSPropertyOp42
 70
     1
102
RTVSPropertyOp43
 70
     1
102
RTVSPropertyOp44
 70
     1
102
RTVSPropertyOp45
 70
     1
102
RTVSPropertyOp46
 70
     1
102
RTVSPropertyOp47
 70
     1
102
RTVSPropertyOp48
 70
     1
102
RTVSPropertyOp49
 70
     1
102
RTVSPropertyOp50
 70
     1
102
RTVSPropertyOp51
 70
     0
102
RTVSPropertyOp52
 70
     0
102
RTVSPropertyOp53
 70
     1
102
RTVSPropertyOp54
 70
     1
102
RTVSPropertyOp55
 70
     1
102
RTVSPropertyOp56
 70
     1
102
RTVSPropertyOp57
 70
     1
102
RTVSPost2010Prop28
280
     0
102
RTVSPost2010PropOp28
 70
     1
102
RTVSPost2010Prop29
280
     1
102
RTVSPost2010PropOp29
 70
     1
102
RTVSPost2010Prop30
280
     1
102
RTVSPost2010PropOp30
 70
     1
102
RTVSPost2010Prop31
280
     0
102
RTVSPost2010PropOp31
 70
     1
102
RTVSPost2010Prop32
280
     0
102
RTVSPost2010PropOp32
 70
     1
102
RTVSPost2010Prop33
280
     0
102
RTVSPost2010PropOp33
 70
     1
102
RTVSPost2010Prop34
280
     0
102
RTVSPost2010PropOp34
 70
     1
102
RTVSPost2010Prop35
280
     0
102
RTVSPost2010PropOp35
 70
     1
102
RTVSPost2010Prop36
280
     0
102
RTVSPost2010PropOp36
 70
     1
102
RTVSPost2010Prop37
 90
       50
102
RTVSPost2010PropOp37
 70
     1
102
RTVSPost2010Prop38
140
0.0
102
RTVSPost2010PropOp38
 70
     1
102
RTVSPost2010Prop39
140
1.0
102
RTVSPost2010PropOp39
 70
     1
102
RTVSPost2010Prop40
 90
        0
102
RTVSPost2010PropOp40
 70
     1
102
RTVSPost2010Prop41ColorIndex
 90
       18
102
RTVSPost2010Prop41ColorRGB
 90
        0
102
RTVSPost2010PropOp41
 70
     1
102
RTVSPost2010Prop42
 90
       50
102
RTVSPost2010PropOp42
 70
     1
102
RTVSPost2010Prop43
 90
        3
102
RTVSPost2010PropOp43
 70
     1
102
RTVSPost2010Prop44ColorIndex
 90
        5
102
RTVSPost2010Prop44ColorRGB
 90
      255
102
RTVSPost2010PropOp44
 70
     1
102
RTVSPost2010Prop45
280
     0
102
RTVSPost2010PropOp45
 70
     1
102
RTVSPost2010Prop46
 90
       50
102
RTVSPost2010PropOp46
 70
     1
102
RTVSPost2010Prop47
 90
       50
102
RTVSPost2010PropOp47
 70
     1
102
RTVSPost2010Prop48
 90
       50
102
RTVSPost2010PropOp48
 70
     1
102
RTVSPost2010Prop49
280
     0
102
RTVSPost2010PropOp49
 70
     1
102
RTVSPost2010Prop50
 90
       50
102
RTVSPost2010PropOp50
 70
     1
102
RTVSPost2010Prop51ColorIndex
 90
      256
102
RTVSPost2010Prop51ColorRGB
 90
-16777216
102
RTVSPost2010PropOp51
 70
     0
102
RTVSPost2010Prop52
140
1.0
102
RTVSPost2010PropOp52
 70
     0
102
RTVSPost2010Prop53
 90
        2
102
RTVSPost2010PropOp53
 70
     1
102
RTVSPost2010Prop54
  1
strokes_ogs.tif
102
RTVSPost2010PropOp54
 70
     1
102
RTVSPost2010Prop55
280
     0
102
RTVSPost2010PropOp55
 70
     1
102
RTVSPost2010Prop56
140
1.0
102
RTVSPost2010PropOp56
 70
     1
102
RTVSPost2010Prop57
140
1.0
102
RTVSPost2010PropOp57
 70
     1
  0
XRECORD
  5
24A
102
{ACAD_REACTORS
330
249
102
}
330
249
100
AcDbXrecord
280
     1
102
RTVSPropertyOp0
 70
     1
102
RTVSPropertyOp1
 70
     1
102
RTVSPropertyOp2
 70
     1
102
RTVSPropertyOp3
 70
     1
102
RTVSPropertyOp4
 70
     1
102
RTVSPropertyOp5
 70
     1
102
RTVSPropertyOp6
 70
     1
102
RTVSPropertyOp7
 70
     1
102
RTVSPropertyOp8
 70
     1
102
RTVSPropertyOp9
 70
     1
102
RTVSPropertyOp10
 70
     1
102
RTVSPropertyOp11
 70
     1
102
RTVSPropertyOp12
 70
     1
102
RTVSPropertyOp13
 70
     1
102
RTVSPropertyOp14
 70
     1
102
RTVSPropertyOp15
 70
     1
102
RTVSPropertyOp16
 70
     1
102
RTVSPropertyOp17
 70
     1
102
RTVSPropertyOp18
 70
     1
102
RTVSPropertyOp19
 70
     1
102
RTVSPropertyOp20
 70
     1
102
RTVSPropertyOp21
 70
     1
102
RTVSPropertyOp22
 70
     1
102
RTVSPropertyOp23
 70
     1
102
RTVSPropertyOp24
 70
     1
102
RTVSPropertyOp25
 70
     1
102
RTVSPropertyOp26
 70
     1
102
RTVSPropertyOp27
 70
     1
102
RTVSPropertyOp28
 70
     1
102
RTVSPropertyOp29
 70
     1
102
RTVSPropertyOp30
 70
     1
102
RTVSPropertyOp31
 70
     1
102
RTVSPropertyOp32
 70
     1
102
RTVSPropertyOp33
 70
     1
102
RTVSPropertyOp34
 70
     1
102
RTVSPropertyOp35
 70
     1
102
RTVSPropertyOp36
 70
     1
102
RTVSPropertyOp37
 70
     1
102
RTVSPropertyOp38
 70
     1
102
RTVSPropertyOp39
 70
     1
102
RTVSPropertyOp40
 70
     1
102
RTVSPropertyOp41
 70
     1
102
RTVSPropertyOp42
 70
     1
102
RTVSPropertyOp43
 70
     1
102
RTVSPropertyOp44
 70
     1
102
RTVSPropertyOp45
 70
     1
102
RTVSPropertyOp46
 70
     1
102
RTVSPropertyOp47
 70
     1
102
RTVSPropertyOp48
 70
     1
102
RTVSPropertyOp49
 70
     1
102
RTVSPropertyOp50
 70
     1
102
RTVSPropertyOp51
 70
     0
102
RTVSPropertyOp52
 70
     0
102
RTVSPropertyOp53
 70
     1
102
RTVSPropertyOp54
 70
     1
102
RTVSPropertyOp55
 70
     1
102
RTVSPropertyOp56
 70
     1
102
RTVSPropertyOp57
 70
     1
102
RTVSPost2010Prop28
280
     0
102
RTVSPost2010PropOp28
 70
     1
102
RTVSPost2010Prop29
280
     1
102
RTVSPost2010PropOp29
 70
     1
102
RTVSPost2010Prop30
280
     1
102
RTVSPost2010PropOp30
 70
     1
102
RTVSPost2010Prop31
280
     0
102
RTVSPost2010PropOp31
 70
     1
102
RTVSPost2010Prop32
280
     0
102
RTVSPost2010PropOp32
 70
     1
102
RTVSPost2010Prop33
280
     0
102
RTVSPost2010PropOp33
 70
     1
102
RTVSPost2010Prop34
280
     0
102
RTVSPost2010PropOp34
 70
     1
102
RTVSPost2010Prop35
280
     0
102
RTVSPost2010PropOp35
 70
     1
102
RTVSPost2010Prop36
280
     0
102
RTVSPost2010PropOp36
 70
     1
102
RTVSPost2010Prop37
 90
       50
102
RTVSPost2010PropOp37
 70
     1
102
RTVSPost2010Prop38
140
0.0
102
RTVSPost2010PropOp38
 70
     1
102
RTVSPost2010Prop39
140
1.0
102
RTVSPost2010PropOp39
 70
     1
102
RTVSPost2010Prop40
 90
        0
102
RTVSPost2010PropOp40
 70
     1
102
RTVSPost2010Prop41ColorIndex
 90
       18
102
RTVSPost2010Prop41ColorRGB
 90
        0
102
RTVSPost2010PropOp41
 70
     1
102
RTVSPost2010Prop42
 90
       50
102
RTVSPost2010PropOp42
 70
     1
102
RTVSPost2010Prop43
 90
        3
102
RTVSPost2010PropOp43
 70
     1
102
RTVSPost2010Prop44ColorIndex
 90
        5
102
RTVSPost2010Prop44ColorRGB
 90
      255
102
RTVSPost2010PropOp44
 70
     1
102
RTVSPost2010Prop45
280
     0
102
RTVSPost2010PropOp45
 70
     1
102
RTVSPost2010Prop46
 90
       50
102
RTVSPost2010PropOp46
 70
     1
102
RTVSPost2010Prop47
 90
       50
102
RTVSPost2010PropOp47
 70
     1
102
RTVSPost2010Prop48
 90
       50
102
RTVSPost2010PropOp48
 70
     1
102
RTVSPost2010Prop49
280
     0
102
RTVSPost2010PropOp49
 70
     1
102
RTVSPost2010Prop50
 90
       50
102
RTVSPost2010PropOp50
 70
     1
102
RTVSPost2010Prop51ColorIndex
 90
      256
102
RTVSPost2010Prop51ColorRGB
 90
-16777216
102
RTVSPost2010PropOp51
 70
     0
102
RTVSPost2010Prop52
140
1.0
102
RTVSPost2010PropOp52
 70
     0
102
RTVSPost2010Prop53
 90
        2
102
RTVSPost2010PropOp53
 70
     1
102
RTVSPost2010Prop54
  1
strokes_ogs.tif
102
RTVSPost2010PropOp54
 70
     1
102
RTVSPost2010Prop55
280
     0
102
RTVSPost2010PropOp55
 70
     1
102
RTVSPost2010Prop56
140
1.0
102
RTVSPost2010PropOp56
 70
     1
102
RTVSPost2010Prop57
140
1.0
102
RTVSPost2010PropOp57
 70
     1
  0
XRECORD
  5
23C
102
{ACAD_REACTORS
330
23B
102
}
330
23B
100
AcDbXrecord
280
     1
102
RTVSPropertyOp0
 70
     1
102
RTVSPropertyOp1
 70
     1
102
RTVSPropertyOp2
 70
     1
102
RTVSPropertyOp3
 70
     1
102
RTVSPropertyOp4
 70
     1
102
RTVSPropertyOp5
 70
     1
102
RTVSPropertyOp6
 70
     1
102
RTVSPropertyOp7
 70
     1
102
RTVSPropertyOp8
 70
     1
102
RTVSPropertyOp9
 70
     1
102
RTVSPropertyOp10
 70
     1
102
RTVSPropertyOp11
 70
     1
102
RTVSPropertyOp12
 70
     1
102
RTVSPropertyOp13
 70
     1
102
RTVSPropertyOp14
 70
     1
102
RTVSPropertyOp15
 70
     1
102
RTVSPropertyOp16
 70
     1
102
RTVSPropertyOp17
 70
     1
102
RTVSPropertyOp18
 70
     1
102
RTVSPropertyOp19
 70
     1
102
RTVSPropertyOp20
 70
     1
102
RTVSPropertyOp21
 70
     1
102
RTVSPropertyOp22
 70
     1
102
RTVSPropertyOp23
 70
     1
102
RTVSPropertyOp24
 70
     1
102
RTVSPropertyOp25
 70
     1
102
RTVSPropertyOp26
 70
     1
102
RTVSPropertyOp27
 70
     1
102
RTVSPropertyOp28
 70
     1
102
RTVSPropertyOp29
 70
     1
102
RTVSPropertyOp30
 70
     1
102
RTVSPropertyOp31
 70
     1
102
RTVSPropertyOp32
 70
     1
102
RTVSPropertyOp33
 70
     1
102
RTVSPropertyOp34
 70
     1
102
RTVSPropertyOp35
 70
     1
102
RTVSPropertyOp36
 70
     1
102
RTVSPropertyOp37
 70
     1
102
RTVSPropertyOp38
 70
     1
102
RTVSPropertyOp39
 70
     1
102
RTVSPropertyOp40
 70
     1
102
RTVSPropertyOp41
 70
     1
102
RTVSPropertyOp42
 70
     1
102
RTVSPropertyOp43
 70
     1
102
RTVSPropertyOp44
 70
     1
102
RTVSPropertyOp45
 70
     1
102
RTVSPropertyOp46
 70
     1
102
RTVSPropertyOp47
 70
     1
102
RTVSPropertyOp48
 70
     1
102
RTVSPropertyOp49
 70
     1
102
RTVSPropertyOp50
 70
     1
102
RTVSPropertyOp51
 70
     0
102
RTVSPropertyOp52
 70
     0
102
RTVSPropertyOp53
 70
     1
102
RTVSPropertyOp54
 70
     1
102
RTVSPropertyOp55
 70
     1
102
RTVSPropertyOp56
 70
     1
102
RTVSPropertyOp57
 70
     1
102
RTVSPost2010Prop28
280
     0
102
RTVSPost2010PropOp28
 70
     1
102
RTVSPost2010Prop29
280
     1
102
RTVSPost2010PropOp29
 70
     1
102
RTVSPost2010Prop30
280
     1
102
RTVSPost2010PropOp30
 70
     1
102
RTVSPost2010Prop31
280
     0
102
RTVSPost2010PropOp31
 70
     1
102
RTVSPost2010Prop32
280
     0
102
RTVSPost2010PropOp32
 70
     1
102
RTVSPost2010Prop33
280
     0
102
RTVSPost2010PropOp33
 70
     1
102
RTVSPost2010Prop34
280
     0
102
RTVSPost2010PropOp34
 70
     1
102
RTVSPost2010Prop35
280
     0
102
RTVSPost2010PropOp35
 70
     1
102
RTVSPost2010Prop36
280
     0
102
RTVSPost2010PropOp36
 70
     1
102
RTVSPost2010Prop37
 90
       50
102
RTVSPost2010PropOp37
 70
     1
102
RTVSPost2010Prop38
140
0.0
102
RTVSPost2010PropOp38
 70
     1
102
RTVSPost2010Prop39
140
1.0
102
RTVSPost2010PropOp39
 70
     1
102
RTVSPost2010Prop40
 90
        0
102
RTVSPost2010PropOp40
 70
     1
102
RTVSPost2010Prop41ColorIndex
 90
       18
102
RTVSPost2010Prop41ColorRGB
 90
        0
102
RTVSPost2010PropOp41
 70
     1
102
RTVSPost2010Prop42
 90
       50
102
RTVSPost2010PropOp42
 70
     1
102
RTVSPost2010Prop43
 90
        3
102
RTVSPost2010PropOp43
 70
     1
102
RTVSPost2010Prop44ColorIndex
 90
        5
102
RTVSPost2010Prop44ColorRGB
 90
      255
102
RTVSPost2010PropOp44
 70
     1
102
RTVSPost2010Prop45
280
     0
102
RTVSPost2010PropOp45
 70
     1
102
RTVSPost2010Prop46
 90
       50
102
RTVSPost2010PropOp46
 70
     1
102
RTVSPost2010Prop47
 90
       50
102
RTVSPost2010PropOp47
 70
     1
102
RTVSPost2010Prop48
 90
       50
102
RTVSPost2010PropOp48
 70
     1
102
RTVSPost2010Prop49
280
     0
102
RTVSPost2010PropOp49
 70
     1
102
RTVSPost2010Prop50
 90
       50
102
RTVSPost2010PropOp50
 70
     1
102
RTVSPost2010Prop51ColorIndex
 90
      256
102
RTVSPost2010Prop51ColorRGB
 90
-16777216
102
RTVSPost2010PropOp51
 70
     0
102
RTVSPost2010Prop52
140
1.0
102
RTVSPost2010PropOp52
 70
     0
102
RTVSPost2010Prop53
 90
        2
102
RTVSPost2010PropOp53
 70
     1
102
RTVSPost2010Prop54
  1
strokes_ogs.tif
102
RTVSPost2010PropOp54
 70
     1
102
RTVSPost2010Prop55
280
     0
102
RTVSPost2010PropOp55
 70
     1
102
RTVSPost2010Prop56
140
1.0
102
RTVSPost2010PropOp56
 70
     1
102
RTVSPost2010Prop57
140
1.0
102
RTVSPost2010PropOp57
 70
     1
  0
XRECORD
  5
25C
102
{ACAD_REACTORS
330
25B
102
}
330
25B
100
AcDbXrecord
280
     1
102
RTVSPropertyOp0
 70
     1
102
RTVSPropertyOp1
 70
     1
102
RTVSPropertyOp2
 70
     1
102
RTVSPropertyOp3
 70
     1
102
RTVSPropertyOp4
 70
     1
102
RTVSPropertyOp5
 70
     1
102
RTVSPropertyOp6
 70
     1
102
RTVSPropertyOp7
 70
     1
102
RTVSPropertyOp8
 70
     1
102
RTVSPropertyOp9
 70
     1
102
RTVSPropertyOp10
 70
     1
102
RTVSPropertyOp11
 70
     1
102
RTVSPropertyOp12
 70
     1
102
RTVSPropertyOp13
 70
     1
102
RTVSPropertyOp14
 70
     1
102
RTVSPropertyOp15
 70
     1
102
RTVSPropertyOp16
 70
     1
102
RTVSPropertyOp17
 70
     1
102
RTVSPropertyOp18
 70
     1
102
RTVSPropertyOp19
 70
     1
102
RTVSPropertyOp20
 70
     1
102
RTVSPropertyOp21
 70
     1
102
RTVSPropertyOp22
 70
     1
102
RTVSPropertyOp23
 70
     1
102
RTVSPropertyOp24
 70
     1
102
RTVSPropertyOp25
 70
     1
102
RTVSPropertyOp26
 70
     1
102
RTVSPropertyOp27
 70
     1
102
RTVSPropertyOp28
 70
     1
102
RTVSPropertyOp29
 70
     1
102
RTVSPropertyOp30
 70
     1
102
RTVSPropertyOp31
 70
     1
102
RTVSPropertyOp32
 70
     1
102
RTVSPropertyOp33
 70
     1
102
RTVSPropertyOp34
 70
     1
102
RTVSPropertyOp35
 70
     1
102
RTVSPropertyOp36
 70
     1
102
RTVSPropertyOp37
 70
     1
102
RTVSPropertyOp38
 70
     1
102
RTVSPropertyOp39
 70
     1
102
RTVSPropertyOp40
 70
     1
102
RTVSPropertyOp41
 70
     1
102
RTVSPropertyOp42
 70
     1
102
RTVSPropertyOp43
 70
     1
102
RTVSPropertyOp44
 70
     1
102
RTVSPropertyOp45
 70
     1
102
RTVSPropertyOp46
 70
     1
102
RTVSPropertyOp47
 70
     1
102
RTVSPropertyOp48
 70
     1
102
RTVSPropertyOp49
 70
     1
102
RTVSPropertyOp50
 70
     1
102
RTVSPropertyOp51
 70
     0
102
RTVSPropertyOp52
 70
     0
102
RTVSPropertyOp53
 70
     1
102
RTVSPropertyOp54
 70
     1
102
RTVSPropertyOp55
 70
     1
102
RTVSPropertyOp56
 70
     1
102
RTVSPropertyOp57
 70
     1
102
RTVSPost2010Prop28
280
     0
102
RTVSPost2010PropOp28
 70
     1
102
RTVSPost2010Prop29
280
     1
102
RTVSPost2010PropOp29
 70
     1
102
RTVSPost2010Prop30
280
     1
102
RTVSPost2010PropOp30
 70
     1
102
RTVSPost2010Prop31
280
     0
102
RTVSPost2010PropOp31
 70
     1
102
RTVSPost2010Prop32
280
     0
102
RTVSPost2010PropOp32
 70
     1
102
RTVSPost2010Prop33
280
     0
102
RTVSPost2010PropOp33
 70
     1
102
RTVSPost2010Prop34
280
     0
102
RTVSPost2010PropOp34
 70
     1
102
RTVSPost2010Prop35
280
     0
102
RTVSPost2010PropOp35
 70
     1
102
RTVSPost2010Prop36
280
     0
102
RTVSPost2010PropOp36
 70
     1
102
RTVSPost2010Prop37
 90
       50
102
RTVSPost2010PropOp37
 70
     1
102
RTVSPost2010Prop38
140
0.0
102
RTVSPost2010PropOp38
 70
     1
102
RTVSPost2010Prop39
140
1.0
102
RTVSPost2010PropOp39
 70
     1
102
RTVSPost2010Prop40
 90
        0
102
RTVSPost2010PropOp40
 70
     1
102
RTVSPost2010Prop41ColorIndex
 90
       18
102
RTVSPost2010Prop41ColorRGB
 90
        0
102
RTVSPost2010PropOp41
 70
     1
102
RTVSPost2010Prop42
 90
       50
102
RTVSPost2010PropOp42
 70
     1
102
RTVSPost2010Prop43
 90
        3
102
RTVSPost2010PropOp43
 70
     1
102
RTVSPost2010Prop44ColorIndex
 90
        5
102
RTVSPost2010Prop44ColorRGB
 90
      255
102
RTVSPost2010PropOp44
 70
     1
102
RTVSPost2010Prop45
280
     0
102
RTVSPost2010PropOp45
 70
     1
102
RTVSPost2010Prop46
 90
       50
102
RTVSPost2010PropOp46
 70
     1
102
RTVSPost2010Prop47
 90
       50
102
RTVSPost2010PropOp47
 70
     1
102
RTVSPost2010Prop48
 90
       50
102
RTVSPost2010PropOp48
 70
     1
102
RTVSPost2010Prop49
280
     0
102
RTVSPost2010PropOp49
 70
     1
102
RTVSPost2010Prop50
 90
       50
102
RTVSPost2010PropOp50
 70
     1
102
RTVSPost2010Prop51ColorIndex
 90
      256
102
RTVSPost2010Prop51ColorRGB
 90
-16777216
102
RTVSPost2010PropOp51
 70
     0
102
RTVSPost2010Prop52
140
1.0
102
RTVSPost2010PropOp52
 70
     0
102
RTVSPost2010Prop53
 90
        2
102
RTVSPost2010PropOp53
 70
     1
102
RTVSPost2010Prop54
  1
strokes_ogs.tif
102
RTVSPost2010PropOp54
 70
     1
102
RTVSPost2010Prop55
280
     0
102
RTVSPost2010PropOp55
 70
     1
102
RTVSPost2010Prop56
140
1.0
102
RTVSPost2010PropOp56
 70
     1
102
RTVSPost2010Prop57
140
1.0
102
RTVSPost2010PropOp57
 70
     1
  0
ENDSEC
  0
EOF
