  0
SECTION
  2
HEADER
  9
$ACADVER
  1
AC1024
  9
$ACADMAINTVER
 70
   226
  9
$DWGCODEPAGE
  3
ANSI_1252
  9
$LASTSAVEDBY
  1
micha
  9
$INSBASE
 10
0.0
 20
0.0
 30
0.0
  9
$EXTMIN
 10
-21.99999978286093
 20
-5.056351021210957
 30
0.0
  9
$EXTMAX
 10
138.2110552588047
 20
128.4062499999999
 30
0.0
  9
$LIMMIN
 10
0.0
 20
0.0
  9
$LIMMAX
 10
12.0
 20
9.0
  9
$ORTHOMODE
 70
     0
  9
$REGENMODE
 70
     1
  9
$FILLMODE
 70
     1
  9
$QTEXTMODE
 70
     0
  9
$MIRRTEXT
 70
     0
  9
$LTSCALE
 40
1.0
  9
$ATTMODE
 70
     1
  9
$TEXTSIZE
 40
0.2
  9
$TRACEWID
 40
0.05
  9
$TEXTSTYLE
  7
Standard
  9
$CLAYER
  8
0
  9
$CELTYPE
  6
ByLayer
  9
$CECOLOR
 62
   256
  9
$CELTSCALE
 40
1.0
  9
$DISPSILH
 70
     0
  9
$DIMSCALE
 40
1.0
  9
$DIMASZ
 40
0.18
  9
$DIMEXO
 40
0.0625
  9
$DIMDLI
 40
0.38
  9
$DIMRND
 40
0.0
  9
$DIMDLE
 40
0.0
  9
$DIMEXE
 40
0.18
  9
$DIMTP
 40
0.0
  9
$DIMTM
 40
0.0
  9
$DIMTXT
 40
0.18
  9
$DIMCEN
 40
0.09
  9
$DIMTSZ
 40
0.0
  9
$DIMTOL
 70
     0
  9
$DIMLIM
 70
     0
  9
$DIMTIH
 70
     1
  9
$DIMTOH
 70
     1
  9
$DIMSE1
 70
     0
  9
$DIMSE2
 70
     0
  9
$DIMTAD
 70
     0
  9
$DIMZIN
 70
     0
  9
$DIMBLK
  1

  9
$DIMASO
 70
     1
  9
$DIMSHO
 70
     1
  9
$DIMPOST
  1

  9
$DIMAPOST
  1

  9
$DIMALT
 70
     0
  9
$DIMALTD
 70
     2
  9
$DIMALTF
 40
25.4
  9
$DIMLFAC
 40
1.0
  9
$DIMTOFL
 70
     0
  9
$DIMTVP
 40
0.0
  9
$DIMTIX
 70
     0
  9
$DIMSOXD
 70
     0
  9
$DIMSAH
 70
     0
  9
$DIMBLK1
  1

  9
$DIMBLK2
  1

  9
$DIMSTYLE
  2
Standard
  9
$DIMCLRD
 70
     0
  9
$DIMCLRE
 70
     0
  9
$DIMCLRT
 70
     0
  9
$DIMTFAC
 40
1.0
  9
$DIMGAP
 40
0.09
  9
$DIMJUST
 70
     0
  9
$DIMSD1
 70
     0
  9
$DIMSD2
 70
     0
  9
$DIMTOLJ
 70
     1
  9
$DIMTZIN
 70
     0
  9
$DIMALTZ
 70
     0
  9
$DIMALTTZ
 70
     0
  9
$DIMUPT
 70
     0
  9
$DIMDEC
 70
     4
  9
$DIMTDEC
 70
     4
  9
$DIMALTU
 70
     4
  9
$DIMALTTD
 70
     2
  9
$DIMTXSTY
  7
Standard
  9
$DIMAUNIT
 70
     0
  9
$DIMADEC
 70
     0
  9
$DIMALTRND
 40
0.0
  9
$DIMAZIN
 70
     0
  9
$DIMDSEP
 70
    46
  9
$DIMATFIT
 70
     3
  9
$DIMFRAC
 70
     0
  9
$DIMLDRBLK
  1

  9
$DIMLUNIT
 70
     4
  9
$DIMLWD
 70
    -2
  9
$DIMLWE
 70
    -2
  9
$DIMTMOVE
 70
     0
  9
$DIMFXL
 40
1.0
  9
$DIMFXLON
 70
     0
  9
$DIMJOGANG
 40
0.7853981633974483
  9
$DIMTFILL
 70
     0
  9
$DIMTFILLCLR
 70
     0
  9
$DIMARCSYM
 70
     0
  9
$DIMLTYPE
  6

  9
$DIMLTEX1
  6

  9
$DIMLTEX2
  6

  9
$DIMTXTDIRECTION
 70
     0
  9
$LUNITS
 70
     4
  9
$LUPREC
 70
     4
  9
$SKETCHINC
 40
0.1
  9
$FILLETRAD
 40
0.0
  9
$AUNITS
 70
     0
  9
$AUPREC
 70
     0
  9
$MENU
  1
.
  9
$ELEVATION
 40
0.0
  9
$PELEVATION
 40
0.0
  9
$THICKNESS
 40
0.0
  9
$LIMCHECK
 70
     0
  9
$CHAMFERA
 40
0.0
  9
$CHAMFERB
 40
0.0
  9
$CHAMFERC
 40
0.0
  9
$CHAMFERD
 40
0.0
  9
$SKPOLY
 70
     0
  9
$TDCREATE
 40
2459240.599386574
  9
$TDUCREATE
 40
2459240.807719907
  9
$TDUPDATE
 40
2459240.614699074
  9
$TDUUPDATE
 40
2459240.823032408
  9
$TDINDWG
 40
0.0150462963
  9
$TDUSRTIMER
 40
0.0150462963
  9
$USRTIMER
 70
     1
  9
$ANGBASE
 50
0.0
  9
$ANGDIR
 70
     0
  9
$PDMODE
 70
     0
  9
$PDSIZE
 40
0.0
  9
$PLINEWID
 40
0.0
  9
$SPLFRAME
 70
     0
  9
$SPLINETYPE
 70
     6
  9
$SPLINESEGS
 70
     8
  9
$HANDSEED
  5
27F
  9
$SURFTAB1
 70
     6
  9
$SURFTAB2
 70
     6
  9
$SURFTYPE
 70
     6
  9
$SURFU
 70
     6
  9
$SURFV
 70
     6
  9
$UCSBASE
  2

  9
$UCSNAME
  2

  9
$UCSORG
 10
0.0
 20
0.0
 30
0.0
  9
$UCSXDIR
 10
1.0
 20
0.0
 30
0.0
  9
$UCSYDIR
 10
0.0
 20
1.0
 30
0.0
  9
$UCSORTHOREF
  2

  9
$UCSORTHOVIEW
 70
     0
  9
$UCSORGTOP
 10
0.0
 20
0.0
 30
0.0
  9
$UCSORGBOTTOM
 10
0.0
 20
0.0
 30
0.0
  9
$UCSORGLEFT
 10
0.0
 20
0.0
 30
0.0
  9
$UCSORGRIGHT
 10
0.0
 20
0.0
 30
0.0
  9
$UCSORGFRONT
 10
0.0
 20
0.0
 30
0.0
  9
$UCSORGBACK
 10
0.0
 20
0.0
 30
0.0
  9
$PUCSBASE
  2

  9
$PUCSNAME
  2

  9
$PUCSORG
 10
0.0
 20
0.0
 30
0.0
  9
$PUCSXDIR
 10
1.0
 20
0.0
 30
0.0
  9
$PUCSYDIR
 10
0.0
 20
1.0
 30
0.0
  9
$PUCSORTHOREF
  2

  9
$PUCSORTHOVIEW
 70
     0
  9
$PUCSORGTOP
 10
0.0
 20
0.0
 30
0.0
  9
$PUCSORGBOTTOM
 10
0.0
 20
0.0
 30
0.0
  9
$PUCSORGLEFT
 10
0.0
 20
0.0
 30
0.0
  9
$PUCSORGRIGHT
 10
0.0
 20
0.0
 30
0.0
  9
$PUCSORGFRONT
 10
0.0
 20
0.0
 30
0.0
  9
$PUCSORGBACK
 10
0.0
 20
0.0
 30
0.0
  9
$USERI1
 70
     0
  9
$USERI2
 70
     0
  9
$USERI3
 70
     0
  9
$USERI4
 70
     0
  9
$USERI5
 70
     0
  9
$USERR1
 40
0.0
  9
$USERR2
 40
0.0
  9
$USERR3
 40
0.0
  9
$USERR4
 40
0.0
  9
$USERR5
 40
0.0
  9
$WORLDVIEW
 70
     1
  9
$SHADEDGE
 70
     3
  9
$SHADEDIF
 70
    70
  9
$TILEMODE
 70
     1
  9
$MAXACTVP
 70
    64
  9
$PINSBASE
 10
0.0
 20
0.0
 30
0.0
  9
$PLIMCHECK
 70
     0
  9
$PEXTMIN
 10
1.000000000000000E+20
 20
1.000000000000000E+20
 30
1.000000000000000E+20
  9
$PEXTMAX
 10
-1.000000000000000E+20
 20
-1.000000000000000E+20
 30
-1.000000000000000E+20
  9
$PLIMMIN
 10
0.0
 20
0.0
  9
$PLIMMAX
 10
12.0
 20
9.0
  9
$UNITMODE
 70
     0
  9
$VISRETAIN
 70
     1
  9
$PLINEGEN
 70
     0
  9
$PSLTSCALE
 70
     1
  9
$TREEDEPTH
 70
  3020
  9
$CMLSTYLE
  2
Standard
  9
$CMLJUST
 70
     0
  9
$CMLSCALE
 40
1.0
  9
$PROXYGRAPHICS
 70
     1
  9
$MEASUREMENT
 70
     0
  9
$CELWEIGHT
370
    -1
  9
$ENDCAPS
280
     0
  9
$JOINSTYLE
280
     0
  9
$LWDISPLAY
290
     0
  9
$INSUNITS
 70
     1
  9
$HYPERLINKBASE
  1

  9
$STYLESHEET
  1

  9
$XEDIT
290
     1
  9
$CEPSNTYPE
380
     0
  9
$PSTYLEMODE
290
     1
  9
$FINGERPRINTGUID
  2
{45216767-477A-E447-B009-0181F0411CD4}
  9
$VERSIONGUID
  2
{4DBDF306-213F-9842-909D-33D4D7027174}
  9
$EXTNAMES
290
     1
  9
$PSVPSCALE
 40
0.0
  9
$OLESTARTUP
290
     0
  9
$SORTENTS
280
   127
  9
$INDEXCTL
280
     0
  9
$HIDETEXT
280
     1
  9
$XCLIPFRAME
280
     2
  9
$HALOGAP
280
     0
  9
$OBSCOLOR
 70
   257
  9
$OBSLTYPE
280
     0
  9
$INTERSECTIONDISPLAY
280
     0
  9
$INTERSECTIONCOLOR
 70
   257
  9
$DIMASSOC
280
     2
  9
$PROJECTNAME
  1

  9
$CAMERADISPLAY
290
     0
  9
$LENSLENGTH
 40
50.0
  9
$CAMERAHEIGHT
 40
0.0
  9
$STEPSPERSEC
 40
2.0
  9
$STEPSIZE
 40
6.0
  9
$3DDWFPREC
 40
2.0
  9
$PSOLWIDTH
 40
0.25
  9
$PSOLHEIGHT
 40
4.0
  9
$LOFTANG1
 40
1.570796326794896
  9
$LOFTANG2
 40
1.570796326794896
  9
$LOFTMAG1
 40
0.0
  9
$LOFTMAG2
 40
0.0
  9
$LOFTPARAM
 70
     7
  9
$LOFTNORMALS
280
     1
  9
$LATITUDE
 40
0.0
  9
$LONGITUDE
 40
0.0
  9
$NORTHDIRECTION
 40
0.0
  9
$TIMEZONE
 70
     0
  9
$LIGHTGLYPHDISPLAY
280
     1
  9
$TILEMODELIGHTSYNCH
280
     1
  9
$CMATERIAL
347
11
  9
$SOLIDHIST
280
     0
  9
$SHOWHIST
280
     1
  9
$DWFFRAME
280
     2
  9
$DGNFRAME
280
     0
  9
$REALWORLDSCALE
290
     1
  9
$INTERFERECOLOR
 62
     1
  9
$INTERFEREOBJVS
345
33
  9
$INTERFEREVPVS
346
30
  9
$CSHADOW
280
     0
  9
$SHADOWPLANELOCATION
 40
0.0
  0
ENDSEC
  0
SECTION
  2
CLASSES
  0
CLASS
  1
ACDBDICTIONARYWDFLT
  2
AcDbDictionaryWithDefault
  3
ObjectDBX Classes
 90
        0
 91
        1
280
     0
281
     0
  0
CLASS
  1
MATERIAL
  2
AcDbMaterial
  3
ObjectDBX Classes
 90
     1153
 91
        3
280
     0
281
     0
  0
CLASS
  1
VISUALSTYLE
  2
AcDbVisualStyle
  3
ObjectDBX Classes
 90
     4095
 91
       24
280
     0
281
     0
  0
CLASS
  1
SCALE
  2
AcDbScale
  3
ObjectDBX Classes
 90
     1153
 91
       17
280
     0
281
     0
  0
CLASS
  1
TABLESTYLE
  2
AcDbTableStyle
  3
ObjectDBX Classes
 90
     4095
 91
        1
280
     0
281
     0
  0
CLASS
  1
MLEADERSTYLE
  2
AcDbMLeaderStyle
  3
ACDB_MLEADERSTYLE_CLASS
 90
     4095
 91
        1
280
     0
281
     0
  0
CLASS
  1
ACDBSECTIONVIEWSTYLE
  2
AcDbSectionViewStyle
  3
ObjectDBX Classes
 90
     1025
 91
        1
280
     0
281
     0
  0
CLASS
  1
ACDBDETAILVIEWSTYLE
  2
AcDbDetailViewStyle
  3
ObjectDBX Classes
 90
     1025
 91
        1
280
     0
281
     0
  0
CLASS
  1
RASTERVARIABLES
  2
AcDbRasterVariables
  3
ISM
 90
        0
 91
        1
280
     0
281
     0
  0
CLASS
  1
DICTIONARYVAR
  2
AcDbDictionaryVar
  3
ObjectDBX Classes
 90
        0
 91
        5
280
     0
281
     0
  0
CLASS
  1
SORTENTSTABLE
  2
AcDbSortentsTable
  3
ObjectDBX Classes
 90
        0
 91
        3
280
     0
281
     0
  0
CLASS
  1
CELLSTYLEMAP
  2
AcDbCellStyleMap
  3
ObjectDBX Classes
 90
     1152
 91
        1
280
     0
281
     0
  0
ENDSEC
  0
SECTION
  2
TABLES
  0
TABLE
  2
VPORT
  5
8
330
0
100
AcDbSymbolTable
 70
     1
  0
VPORT
  5
57
330
8
100
AcDbSymbolTableRecord
100
AcDbViewportTableRecord
  2
*Active
 70
     0
 10
0.0
 20
0.0
 11
1.0
 21
1.0
 12
2.042678979967163
 22
0.9886861776306545
 13
0.0
 23
0.0
 14
1.0
 24
1.0
 15
0.0
 25
0.0
 16
0.0
 26
0.0
 36
1.0
 17
0.0
 27
0.0
 37
0.0
 40
54.93926677443631
 41
2.292712066905615
 42
50.0
 43
0.0
 44
0.0
 50
0.0
 51
0.0
 71
     0
 72
  1000
 73
     1
 74
     0
 75
     0
 76
     0
 77
     0
 78
     0
281
     0
 65
     1
110
0.0
120
0.0
130
0.0
111
1.0
121
0.0
131
0.0
112
0.0
122
1.0
132
0.0
 79
     0
146
0.0
348
2F
 60
     3
 61
     5
292
     1
282
     1
141
0.0
142
0.0
 63
   250
421
  3355443
1001
ACAD_NAV_VCDISPLAY
1070
     3
  0
ENDTAB
  0
TABLE
  2
LTYPE
  5
5
330
0
100
AcDbSymbolTable
 70
     2
  0
LTYPE
  5
5B
330
5
100
AcDbSymbolTableRecord
100
AcDbLinetypeTableRecord
  2
ByBlock
 70
     0
  3

 72
    65
 73
     0
 40
0.0
  0
LTYPE
  5
5C
330
5
100
AcDbSymbolTableRecord
100
AcDbLinetypeTableRecord
  2
ByLayer
 70
     0
  3

 72
    65
 73
     0
 40
0.0
  0
LTYPE
  5
5D
330
5
100
AcDbSymbolTableRecord
100
AcDbLinetypeTableRecord
  2
Continuous
 70
     0
  3
Solid line
 72
    65
 73
     0
 40
0.0
  0
ENDTAB
  0
TABLE
  2
LAYER
  5
2
330
0
100
AcDbSymbolTable
 70
     3
  0
LAYER
  5
54
330
2
100
AcDbSymbolTableRecord
100
AcDbLayerTableRecord
  2
0
 70
     0
 62
     7
  6
Continuous
370
    -3
390
F
347
21
  0
LAYER
  5
81
330
2
100
AcDbSymbolTableRecord
100
AcDbLayerTableRecord
  2
A-DETL-MBND
 70
     0
 62
     5
  6
Continuous
370
     9
390
F
347
21
  0
LAYER
  5
86
330
2
100
AcDbSymbolTableRecord
100
AcDbLayerTableRecord
  2
P-SANR-FIXT
 70
     0
 62
     6
  6
Continuous
370
     9
390
F
347
21
  0
ENDTAB
  0
TABLE
  2
STYLE
  5
3
330
0
100
AcDbSymbolTable
 70
     2
  0
STYLE
  5
55
330
3
100
AcDbSymbolTableRecord
100
AcDbTextStyleTableRecord
  2
Standard
 70
     0
 40
0.0
 41
1.0
 50
0.0
 71
     0
 42
0.2
  3
txt
  4

  0
STYLE
  5
5A
330
3
100
AcDbSymbolTableRecord
100
AcDbTextStyleTableRecord
  2
Annotative
 70
     0
 40
0.0
 41
1.0
 50
0.0
 71
     0
 42
0.2
  3
txt
  4

1001
AcadAnnotative
1000
AnnotativeData
1002
{
1070
     1
1070
     1
1002
}
  0
ENDTAB
  0
TABLE
  2
VIEW
  5
6
330
0
100
AcDbSymbolTable
 70
     0
  0
ENDTAB
  0
TABLE
  2
UCS
  5
7
330
0
100
AcDbSymbolTable
 70
     0
  0
ENDTAB
  0
TABLE
  2
APPID
  5
9
330
0
100
AcDbSymbolTable
 70
     5
  0
APPID
  5
56
330
9
100
AcDbSymbolTableRecord
100
AcDbRegAppTableRecord
  2
ACAD
 70
     0
  0
APPID
  5
5E
330
9
100
AcDbSymbolTableRecord
100
AcDbRegAppTableRecord
  2
AcadAnnotative
 70
     0
  0
APPID
  5
78
330
9
100
AcDbSymbolTableRecord
100
AcDbRegAppTableRecord
  2
REVIT
 70
     0
  0
APPID
  5
ED
330
9
100
AcDbSymbolTableRecord
100
AcDbRegAppTableRecord
  2
ACAD_NAV_VCDISPLAY
 70
     0
  0
APPID
  5
123
330
9
100
AcDbSymbolTableRecord
100
AcDbRegAppTableRecord
  2
ACAD_EXEMPT_FROM_CAD_STANDARDS
 70
     0
  0
ENDTAB
  0
TABLE
  2
DIMSTYLE
  5
A
330
0
100
AcDbSymbolTable
 70
     3
100
AcDbDimStyleTable
 71
     1
340
58
  0
DIMSTYLE
105
58
330
A
100
AcDbSymbolTableRecord
100
AcDbDimStyleTableRecord
  2
Standard
 70
     0
340
55
  0
DIMSTYLE
105
59
330
A
100
AcDbSymbolTableRecord
100
AcDbDimStyleTableRecord
  2
Annotative
 70
     0
340
55
1001
AcadAnnotative
1000
AnnotativeData
1002
{
1070
     1
1070
     1
1002
}
  0
ENDTAB
  0
TABLE
  2
BLOCK_RECORD
  5
1
330
0
100
AcDbSymbolTable
 70
    10
  0
BLOCK_RECORD
  5
70
102
{ACAD_XDICTIONARY
360
B0
102
}
330
1
100
AcDbSymbolTableRecord
100
AcDbBlockTableRecord
  2
*Model_Space
340
73
 70
     0
280
     1
281
     0
  0
BLOCK_RECORD
  5
6C
330
1
100
AcDbSymbolTableRecord
100
AcDbBlockTableRecord
  2
*Paper_Space
340
6F
 70
     0
280
     1
281
     0
  0
BLOCK_RECORD
  5
74
330
1
100
AcDbSymbolTableRecord
100
AcDbBlockTableRecord
  2
*Paper_Space0
340
77
 70
     0
280
     1
281
     0
  0
BLOCK_RECORD
  5
82
330
1
100
AcDbSymbolTableRecord
100
AcDbBlockTableRecord
  2
FamilyGeomCombination_15519-Ref_ Level
340
0
 70
     0
280
     1
281
     0
  0
BLOCK_RECORD
  5
BC
330
1
100
AcDbSymbolTableRecord
100
AcDbBlockTableRecord
  2
FamilyGeomCombination_15519-Left
340
0
102
{BLKREFS
102
}
 70
     0
280
     1
281
     0
  0
BLOCK_RECORD
  5
F6
330
1
100
AcDbSymbolTableRecord
100
AcDbBlockTableRecord
  2
FamilyGeomCombination_15519-Back
340
0
102
{BLKREFS
102
}
 70
     0
280
     1
281
     0
  0
BLOCK_RECORD
  5
1AD
330
1
100
AcDbSymbolTableRecord
100
AcDbBlockTableRecord
  2
Tub_Filler-DXV-Oak_Hill-D35155761_Series - Left View
340
0
310
2800000020000000200000000100200000000000001000000100000001000000000000000000000040091D79302821FF302821FF302821FF302821FF302821FF302821FF302821FF302821FF302821FF302821FF302821FF302821FF302821FF302821FF302821FF302821FF302821FF302821FF302821FF302821FF302821
310
FF302821FF302821FF302821FF302821FF302821FF302821FF302821FF302821FF302821FF302821FF302821FF302821FF302821FF302821FF302821FF302821FF302821FF302821FF302821FF302821FF302821FF302821FF302821FF302821FF302821FF302821FF302821FF302821FF302821FF302821FF302821FF3028
310
21FF302821FF302821FF302821FF302821FF302821FF302821FF302821FF302821FF302821FF302821FF302821FF302821FF302821FF302821FF302821FF302821FF302821FF302821FF302821FF302821FF302821FF302821FF302821FF302821FF302821FF302821FF302821FF302821FF302821FF302821FF302821FF30
310
2821FF302821FF302821FF302821FF302821FF302821FF302821FF302821FF302821FF302821FF302821FF302821FF302821FF302821FF302821FF302821FF302821FF302821FF302821FF302821FF302821FF302821FF302821FF302821FF302821FF302821FF302821FF302821FF302821FF302821FF302821FF302821FF
310
302821FF302821FF302821FF302821FF302821FF302821FF302821FF302821FF302821FF302821FF302821FF302821FF302821FF302821FF302821FF302821FF302821FF302821FF302821FF302821FF302821FF302821FF302821FF302821FF302821FF302821FF302821FF302821FF302821FF302821FF302821FF302821
310
FF302821FF302821FF302821FF302821FF302821FF302821FF302821FF302821FF302821FF302821FF302821FF302821FF302821FF302821FF302821FF302821FF302821FF302821FF302821FF302821FF302821FF302821FF302821FF302821FF302821FF302821FF302821FF302821FF302821FF302821FF302821FF3028
310
21FF302821FF302821FF302821FF302821FF302821FF302821FF302821FF302821FF302821FF302821FF302821FF302821FF302821FF302821FF302821FF302821FF302821FF302821FF302821FF302821FF302821FF302821FF302821FF302821FF302821FF302821FF302821FF302821FF302821FF302821FF302821FF30
310
2821FF302821FF302821FF302821FF302821FF302821FF302821FF302821FF302821FF302821FF302821FF302821FF302821FF302821FF302821FF302821FF302821FF302821FF302821FF302821FF302821FF302821FF302821FF302821FF302821FF302821FF302821FF302821FF302821FF302821FF302821FF302821FF
310
302821FF302821FF302821FF302821FF302821FF302821FF302821FF302821FF302821FF302821FF302821FF302821FF302821FF302821FF302821FF302821FF302821FF302821FF302821FF302821FF302821FF302821FF302821FF302821FF302821FF302821FF302821FF302821FF302821FF302821FF302821FF302821
310
FF302821FF302821FF302821FF302821FF302821FF302821FF302821FF302821FF302821FF302821FF302821FF302821FF302821FF302821FF302821FF302821FF302821FF302821FF302821FF302821FF302821FF302821FF302821FF302821FF302821FF302821FF302821FF302821FF302821FF302821FF302821FF3028
310
21FF302821FF302821FF302821FFFFFFFFFFFFFFFFFFFFFFFFFFFFFFFFFFFFFFFFFFFFFFFFFFFFFFFFFFFFFFFFFFFFFFFFFF302821FF302821FFFFFFFFFFFFFFFFFFFFFFFFFF302821FF302821FF302821FF302821FF302821FF302821FF302821FF302821FF302821FF302821FF302821FF302821FF302821FF302821FF30
310
2821FF302821FF302821FF302821FFFFFFFFFF302821FF302821FF302821FF302821FF302821FF302821FF302821FFFFFFFFFF302821FF302821FFFFFFFFFFFFFFFFFFFFFFFFFF302821FF302821FF302821FF302821FF302821FF302821FF302821FF302821FF302821FF302821FF302821FF302821FF302821FF302821FF
310
302821FF302821FF302821FFFFFFFFFF302821FF302821FF302821FF302821FF302821FF302821FF302821FFFFFFFFFF302821FF302821FF302821FFFFFFFFFFFFFFFFFFFFFFFFFFFFFFFFFFFFFFFFFF302821FF302821FF302821FF302821FF302821FF302821FF302821FF302821FF302821FF302821FF302821FF302821
310
FF302821FF302821FFFFFFFFFFFFFFFFFF302821FF302821FF302821FF302821FF302821FF302821FF302821FFFFFFFFFF302821FF302821FF302821FFFFFFFFFFFFFFFFFFFFFFFFFF302821FFFFFFFFFFFFFFFFFFFFFFFFFFFFFFFFFFFFFFFFFFFFFFFFFFFFFFFFFFFFFFFFFFFFFFFFFFFFFFFFFFFFFFFFFFFFFFFFFFFFFF
310
FFFFFFFFFFFFFFFFFFFFFFFFFFFF302821FF302821FF302821FF302821FF302821FF302821FF302821FF302821FFFFFFFFFF302821FF302821FF302821FFFFFFFFFFFFFFFFFFFFFFFFFF302821FF302821FF302821FF302821FF302821FF302821FF302821FF302821FF302821FF302821FF302821FF302821FF302821FF30
310
2821FF302821FF302821FF302821FF302821FF302821FF302821FF302821FF302821FF302821FF302821FFFFFFFFFF302821FF302821FF302821FF302821FFFFFFFFFFFFFFFFFFFFFFFFFF302821FF302821FF302821FF302821FF302821FF302821FF302821FF302821FF302821FF302821FF302821FF302821FF302821FF
310
302821FF302821FF302821FF302821FF302821FF302821FF302821FF302821FF302821FF302821FFFFFFFFFFFFFFFFFF302821FF302821FF302821FF302821FFFFFFFFFFFFFFFFFFFFFFFFFF302821FF302821FF302821FF302821FF302821FF302821FF302821FF302821FF302821FF302821FF302821FF302821FF302821
310
FF302821FF302821FF302821FF302821FF302821FF302821FF302821FF302821FF302821FF302821FFFFFFFFFF302821FF302821FF302821FF302821FF302821FFFFFFFFFFFFFFFFFFFFFFFFFF302821FF302821FF302821FF302821FF302821FF302821FF302821FF302821FF302821FF302821FF302821FF302821FF3028
310
21FF302821FF302821FF302821FF302821FF302821FF302821FF302821FF302821FFFFFFFFFFFFFFFFFFFFFFFFFF302821FF302821FF302821FF302821FF302821FFFFFFFFFFFFFFFFFFFFFFFFFF302821FF302821FF302821FF302821FF302821FF302821FF302821FF302821FF302821FF302821FF302821FF302821FF30
310
2821FF302821FF302821FF302821FF302821FF302821FFFFFFFFFFFFFFFFFFFFFFFFFFFFFFFFFF302821FFFFFFFFFF302821FF302821FF302821FF302821FF302821FFFFFFFFFFFFFFFFFFFFFFFFFFFFFFFFFFFFFFFFFFFFFFFFFFFFFFFFFFFFFFFFFFFFFFFFFFFFFFFFFFFFFFFFFFFFFFFFFFFFFFFFFFFFFFFFFFFFFFFFFF
310
FFFFFFFFFFFFFFFFFFFFFFFFFFFFFFFFFFFFFFFFFFFFFFFF302821FF302821FF302821FFFFFFFFFF302821FFFFFFFFFFFFFFFFFF302821FF302821FF302821FF302821FFFFFFFFFFFFFFFFFFFFFFFFFFFFFFFFFF302821FF302821FF302821FF302821FF302821FF302821FF302821FF302821FF302821FF302821FF302821
310
FF302821FF302821FF302821FF302821FF302821FF302821FF302821FF302821FFFFFFFFFFFFFFFFFF302821FF302821FFFFFFFFFF302821FF302821FF302821FF302821FFFFFFFFFFFFFFFFFFFFFFFFFF302821FF302821FF302821FF302821FF302821FF302821FF302821FF302821FF302821FF302821FF302821FF3028
310
21FF302821FF302821FF302821FF302821FF302821FF302821FF302821FF302821FFFFFFFFFFFFFFFFFFFFFFFFFFFFFFFFFFFFFFFFFF302821FF302821FF302821FF302821FFFFFFFFFFFFFFFFFF302821FF302821FF302821FF302821FF302821FF302821FF302821FF302821FF302821FF302821FF302821FF302821FF30
310
2821FF302821FF302821FF302821FF302821FF302821FF302821FF302821FF302821FF302821FF302821FF302821FF302821FF302821FF302821FF302821FF302821FF302821FF302821FF302821FF302821FF302821FF302821FF302821FF302821FF302821FF302821FF302821FF302821FF302821FF302821FF302821FF
310
302821FF302821FF302821FF302821FF302821FF302821FF302821FF302821FF302821FF302821FF302821FF302821FF302821FF302821FF302821FF302821FF302821FF302821FF302821FF302821FF302821FF302821FF302821FF302821FF302821FF302821FF302821FF302821FF302821FF302821FF302821FF302821
310
FF302821FF302821FF302821FF302821FF302821FF302821FF302821FF302821FF302821FF302821FF302821FF302821FF302821FF302821FF302821FF302821FF302821FF302821FF302821FF302821FF302821FF302821FF302821FF302821FF302821FF302821FF302821FF302821FF302821FF302821FF302821FF3028
310
21FF302821FF302821FF302821FF302821FF302821FF302821FF302821FF302821FF302821FF302821FF302821FF302821FF302821FF302821FF302821FF302821FF302821FF302821FF302821FF302821FF302821FF302821FF302821FF302821FF302821FF302821FF302821FF302821FF302821FF302821FF302821FF30
310
2821FF302821FF302821FF302821FF302821FF302821FF302821FF302821FF302821FF302821FF302821FF302821FF302821FF302821FF302821FF302821FF302821FF302821FF302821FF302821FF302821FF302821FF302821FF302821FF302821FF302821FF302821FF302821FF302821FF302821FF302821FF302821FF
310
302821FF302821FF302821FF302821FF302821FF302821FF302821FF302821FF302821FF302821FF302821FF302821FF302821FF302821FF302821FF302821FF302821FF302821FF302821FF302821FF302821FF302821FF302821FF302821FF302821FF302821FF302821FF302821FF302821FF302821FF302821FF302821
310
FF302821FF302821FF302821FF302821FF302821FF302821FF302821FF302821FF302821FF302821FF302821FF302821FF302821FF302821FF302821FF302821FF302821FF302821FF302821FF302821FF302821FF302821FF302821FF302821FF302821FF302821FF302821FF302821FF302821FF302821FF302821FF3028
310
21FF302821FF302821FF302821FF302821FF302821FF302821FF302821FF302821FF302821FF302821FF302821FF302821FF302821FF302821FF302821FF302821FF302821FF302821FF302821FF302821FF302821FF302821FF302821FF302821FF302821FF302821FF302821FF302821FF302821FF302821FF302821FF30
310
2821FF302821FF302821FF302821FF302821FF302821FF302821FF302821FF302821FF302821FF302821FF302821FF302821FF302821FF302821FF302821FF302821FF302821FF302821FF302821FF302821FF302821FF302821FF302821FF302821FF302821FF302821FF302821FF302821FF302821FF302821FF302821FF
310
302821FF302821FF302821FF302821FF302821FF302821FF302821FF302821FF302821FF302821FF302821FF302821FF302821FF302821FF302821FF302821FF302821FF302821FF
102
{BLKREFS
331
1D4
102
}
 70
     1
280
     1
281
     0
  0
BLOCK_RECORD
  5
1D5
330
1
100
AcDbSymbolTableRecord
100
AcDbBlockTableRecord
  2
Tub_Filler-DXV-Oak_Hill-D35155761_Series - Front View
340
0
310
2800000020000000200000000100200000000000001000000100000001000000000000000000000065003E00302821FF302821FF302821FF302821FF302821FF302821FF302821FF302821FF302821FF302821FF302821FF302821FF302821FF302821FF302821FF302821FF302821FF302821FF302821FF302821FF302821
310
FF302821FF302821FF302821FF302821FF302821FF302821FF302821FF302821FF302821FF302821FF302821FF302821FF302821FF302821FF302821FF302821FF302821FFFFFFFFFFFFFFFFFFFFFFFFFFFFFFFFFFFFFFFFFFFFFFFFFFFFFFFFFFFFFFFFFFFFFFFFFFFFFFFFFFFFFFFFFFFFFFFFFFFFFFFFFFFFFFFFFFFFFF
310
FFFFFFFFFFFFFFFFFFFFFFFFFFFFFFFFFFFFFFFFFFFF302821FF302821FF302821FF302821FF302821FF302821FF302821FF302821FF302821FF302821FF302821FF302821FFFFFFFFFF302821FF302821FF302821FF302821FF302821FF302821FF302821FF302821FF302821FF302821FF302821FF302821FF302821FF30
310
2821FF302821FF302821FF302821FF302821FFFFFFFFFF302821FF302821FF302821FF302821FF302821FF302821FF302821FF302821FF302821FF302821FF302821FF302821FF302821FFFFFFFFFF302821FF302821FF302821FF302821FF302821FF302821FF302821FF302821FF302821FF302821FF302821FF302821FF
310
302821FF302821FF302821FF302821FF302821FFFFFFFFFF302821FF302821FF302821FF302821FF302821FF302821FF302821FF302821FF302821FF302821FF302821FF302821FF302821FFFFFFFFFF302821FF302821FF302821FF302821FF302821FF302821FF302821FF302821FF302821FF302821FF302821FF302821
310
FF302821FF302821FF302821FF302821FFFFFFFFFF302821FF302821FF302821FF302821FF302821FF302821FF302821FF302821FF302821FF302821FF302821FF302821FF302821FF302821FFFFFFFFFF302821FF302821FF302821FF302821FF302821FF302821FF302821FF302821FF302821FF302821FF302821FF3028
310
21FF302821FF302821FF302821FF302821FFFFFFFFFF302821FF302821FF302821FF302821FF302821FF302821FF302821FF302821FF302821FF302821FF302821FF302821FF302821FFFFFFFFFFFFFFFFFF302821FF302821FF302821FF302821FF302821FF302821FF302821FF302821FF302821FF302821FF302821FF30
310
2821FF302821FF302821FF302821FF302821FFFFFFFFFFFFFFFFFF302821FF302821FF302821FF302821FF302821FF302821FF302821FF302821FF302821FF302821FF302821FFFFFFFFFFFFFFFFFFFFFFFFFF302821FF302821FF302821FF302821FF302821FF302821FF302821FF302821FF302821FF302821FF302821FF
310
302821FF302821FF302821FF302821FF302821FFFFFFFFFFFFFFFFFFFFFFFFFF302821FF302821FF302821FF302821FF302821FF302821FF302821FF302821FF302821FF302821FFFFFFFFFF302821FFFFFFFFFF302821FF302821FF302821FF302821FF302821FF302821FF302821FF302821FF302821FF302821FF302821
310
FF302821FF302821FF302821FF302821FF302821FFFFFFFFFF302821FFFFFFFFFFFFFFFFFF302821FF302821FF302821FF302821FF302821FF302821FF302821FF302821FFFFFFFFFFFFFFFFFFFFFFFFFFFFFFFFFF302821FF302821FF302821FF302821FF302821FF302821FF302821FF302821FF302821FF302821FF3028
310
21FF302821FF302821FF302821FF302821FF302821FFFFFFFFFFFFFFFFFFFFFFFFFFFFFFFFFF302821FF302821FF302821FF302821FF302821FF302821FF302821FFFFFFFFFFFFFFFFFF302821FF302821FFFFFFFFFF302821FF302821FF302821FF302821FF302821FF302821FF302821FF302821FF302821FF302821FF30
310
2821FF302821FF302821FF302821FF302821FF302821FFFFFFFFFF302821FF302821FFFFFFFFFFFFFFFFFF302821FF302821FF302821FF302821FF302821FF302821FFFFFFFFFFFFFFFFFF302821FF302821FFFFFFFFFF302821FF302821FF302821FF302821FF302821FF302821FF302821FF302821FF302821FF302821FF
310
302821FF302821FF302821FF302821FF302821FF302821FFFFFFFFFF302821FF302821FFFFFFFFFFFFFFFFFF302821FF302821FF302821FF302821FF302821FFFFFFFFFFFFFFFFFFFFFFFFFF302821FF302821FFFFFFFFFF302821FF302821FF302821FF302821FF302821FF302821FF302821FF302821FF302821FF302821
310
FF302821FF302821FF302821FF302821FF302821FF302821FFFFFFFFFF302821FF302821FFFFFFFFFFFFFFFFFF302821FF302821FF302821FF302821FF302821FFFFFFFFFF302821FFFFFFFFFF302821FF302821FF302821FFFFFFFFFF302821FF302821FF302821FF302821FF302821FF302821FF302821FF302821FF3028
310
21FF302821FF302821FF302821FF302821FF302821FFFFFFFFFF302821FF302821FF302821FFFFFFFFFF302821FFFFFFFFFF302821FF302821FF302821FF302821FFFFFFFFFF302821FFFFFFFFFF302821FF302821FF302821FFFFFFFFFF302821FF302821FF302821FF302821FF302821FF302821FF302821FF302821FF30
310
2821FF302821FF302821FF302821FF302821FF302821FFFFFFFFFF302821FF302821FF302821FFFFFFFFFF302821FFFFFFFFFF302821FF302821FF302821FF302821FFFFFFFFFF302821FFFFFFFFFF302821FF302821FF302821FFFFFFFFFF302821FF302821FF302821FF302821FFFFFFFFFFFFFFFFFFFFFFFFFFFFFFFFFF
310
FFFFFFFFFFFFFFFF302821FF302821FF302821FF302821FFFFFFFFFF302821FF302821FF302821FFFFFFFFFF302821FFFFFFFFFF302821FF302821FF302821FF302821FFFFFFFFFF302821FFFFFFFFFF302821FF302821FF302821FFFFFFFFFF302821FF302821FF302821FF302821FFFFFFFFFF302821FF302821FF302821
310
FF302821FFFFFFFFFF302821FF302821FF302821FF302821FFFFFFFFFF302821FF302821FF302821FFFFFFFFFF302821FFFFFFFFFF302821FF302821FF302821FF302821FFFFFFFFFF302821FFFFFFFFFF302821FF302821FF302821FF302821FFFFFFFFFF302821FF302821FF302821FFFFFFFFFF302821FF302821FF3028
310
21FF302821FFFFFFFFFF302821FF302821FF302821FF302821FFFFFFFFFF302821FF302821FF302821FFFFFFFFFF302821FFFFFFFFFF302821FF302821FF302821FF302821FFFFFFFFFF302821FFFFFFFFFF302821FF302821FF302821FF302821FFFFFFFFFF302821FF302821FF302821FFFFFFFFFF302821FF302821FF30
310
2821FF302821FFFFFFFFFF302821FF302821FF302821FFFFFFFFFF302821FF302821FF302821FF302821FFFFFFFFFF302821FFFFFFFFFF302821FF302821FF302821FF302821FFFFFFFFFF302821FFFFFFFFFF302821FF302821FF302821FF302821FFFFFFFFFF302821FF302821FF302821FFFFFFFFFF302821FF302821FF
310
302821FF302821FFFFFFFFFF302821FF302821FF302821FFFFFFFFFF302821FF302821FF302821FF302821FFFFFFFFFF302821FFFFFFFFFF302821FF302821FF302821FF302821FF302821FFFFFFFFFFFFFFFFFF302821FF302821FF302821FF302821FF302821FFFFFFFFFF302821FF302821FFFFFFFFFF302821FF302821
310
FF302821FF302821FFFFFFFFFF302821FF302821FFFFFFFFFF302821FF302821FF302821FF302821FF302821FFFFFFFFFFFFFFFFFFFFFFFFFF302821FF302821FF302821FF302821FF302821FFFFFFFFFFFFFFFFFF302821FF302821FF302821FF302821FF302821FFFFFFFFFFFFFFFFFF302821FFFFFFFFFF302821FF3028
310
21FF302821FF302821FFFFFFFFFF302821FFFFFFFFFFFFFFFFFF302821FF302821FF302821FF302821FF302821FFFFFFFFFFFFFFFFFF302821FF302821FF302821FF302821FF302821FF302821FFFFFFFFFFFFFFFFFF302821FF302821FF302821FF302821FF302821FF302821FF302821FFFFFFFFFFFFFFFFFF302821FF30
310
2821FF302821FF302821FFFFFFFFFFFFFFFFFF302821FF302821FF302821FF302821FF302821FF302821FF302821FFFFFFFFFFFFFFFFFF302821FF302821FF302821FF302821FF302821FF302821FF302821FFFFFFFFFF302821FF302821FF302821FF302821FF302821FF302821FF302821FFFFFFFFFFFFFFFFFF302821FF
310
302821FF302821FF302821FFFFFFFFFFFFFFFFFF302821FF302821FF302821FF302821FF302821FF302821FF302821FFFFFFFFFF302821FF302821FF302821FF302821FF302821FF302821FF302821FF302821FFFFFFFFFFFFFFFFFFFFFFFFFF302821FF302821FF302821FF302821FF302821FFFFFFFFFF302821FF302821
310
FF302821FF302821FF302821FF302821FFFFFFFFFF302821FF302821FF302821FF302821FF302821FFFFFFFFFFFFFFFFFFFFFFFFFF302821FF302821FF302821FF302821FF302821FF302821FF302821FF302821FF302821FFFFFFFFFFFFFFFFFFFFFFFFFFFFFFFFFF302821FF302821FF302821FFFFFFFFFF302821FF3028
310
21FF302821FF302821FF302821FF302821FFFFFFFFFF302821FF302821FF302821FFFFFFFFFFFFFFFFFFFFFFFFFFFFFFFFFF302821FF302821FF302821FF302821FF302821FF302821FF302821FF302821FF302821FF302821FF302821FFFFFFFFFFFFFFFFFF302821FFFFFFFFFFFFFFFFFFFFFFFFFFFFFFFFFF302821FF30
310
2821FF302821FF302821FF302821FF302821FFFFFFFFFFFFFFFFFFFFFFFFFFFFFFFFFF302821FFFFFFFFFFFFFFFFFF302821FF302821FF302821FF302821FF302821FF302821FF302821FF302821FF302821FF302821FF302821FF302821FF302821FFFFFFFFFFFFFFFFFF302821FF302821FFFFFFFFFF302821FF302821FF
310
302821FF302821FF302821FF302821FF302821FF302821FFFFFFFFFF302821FF302821FFFFFFFFFFFFFFFFFF302821FF302821FF302821FF302821FF302821FF302821FF302821FF302821FF302821FF302821FF302821FF302821FF302821FF302821FF302821FFFFFFFFFFFFFFFFFFFFFFFFFFFFFFFFFFFFFFFFFFFFFFFF
310
FFFFFFFFFFFFFFFFFFFFFFFFFFFFFFFFFFFFFFFFFFFFFFFFFFFFFFFFFFFFFFFFFFFFFFFFFF302821FF302821FF302821FF302821FF302821FF302821FF302821FF302821FF302821FF302821FF302821FF302821FF302821FF302821FF302821FF302821FF302821FF302821FF302821FFFFFFFFFFFFFFFFFFFFFFFFFFFFFF
310
FFFFFFFFFFFF302821FFFFFFFFFFFFFFFFFFFFFFFFFFFFFFFFFFFFFFFFFFFFFFFFFF302821FF302821FF302821FF302821FF302821FF302821FF302821FF302821FF302821FF302821FF302821FF302821FF302821FF302821FF302821FF302821FF302821FF302821FF302821FF302821FF302821FF302821FF302821FF30
310
2821FFFFFFFFFFFFFFFFFFFFFFFFFFFFFFFFFF302821FF302821FF302821FF302821FF302821FF302821FF302821FF302821FF302821FF302821FF302821FF302821FF302821FF302821FF302821FF302821FF302821FF302821FF302821FF302821FF302821FF302821FF302821FF302821FF302821FF302821FF302821FF
310
302821FF302821FF302821FF302821FF302821FF302821FF302821FF302821FF302821FF302821FF302821FF302821FF302821FF302821FF302821FF302821FF302821FF302821FF
102
{BLKREFS
331
1F3
102
}
 70
     1
280
     1
281
     0
  0
BLOCK_RECORD
  5
1F4
330
1
100
AcDbSymbolTableRecord
100
AcDbBlockTableRecord
  2
Tub_Filler-DXV-Oak_Hill-D35155761_Series - Top View
340
0
310
2800000020000000200000000100200000000000001000000100000001000000000000000000000001000000302821FF302821FF302821FF302821FF302821FF302821FF302821FF302821FF302821FF302821FF302821FF302821FF302821FF302821FF302821FF302821FF302821FF302821FF302821FF302821FF302821
310
FF302821FF302821FF302821FF302821FF302821FF302821FF302821FF302821FF302821FF302821FF302821FF302821FF302821FF302821FF302821FF302821FF302821FF302821FF302821FF302821FF302821FF302821FF302821FF302821FF302821FF302821FFFFFFFFFFFFFFFFFF302821FF302821FF302821FF3028
310
21FF302821FF302821FF302821FF302821FF302821FF302821FF302821FF302821FF302821FF302821FF302821FF302821FF302821FF302821FF302821FF302821FF302821FF302821FF302821FF302821FF302821FF302821FF302821FF302821FFFFFFFFFFFFFFFFFF302821FF302821FFFFFFFFFFFFFFFFFF302821FF30
310
2821FF302821FF302821FF302821FF302821FF302821FF302821FF302821FF302821FF302821FF302821FF302821FF302821FF302821FF302821FF302821FF302821FF302821FF302821FF302821FF302821FF302821FF302821FF302821FFFFFFFFFFFFFFFFFFFFFFFFFFFFFFFFFFFFFFFFFFFFFFFFFFFFFFFFFFFFFFFFFF
310
302821FF302821FF302821FF302821FF302821FF302821FF302821FF302821FF302821FF302821FF302821FF302821FF302821FF302821FF302821FF302821FF302821FF302821FF302821FF302821FF302821FF302821FF302821FF302821FFFFFFFFFF302821FFFFFFFFFF302821FF302821FFFFFFFFFF302821FFFFFFFF
310
FF302821FF302821FF302821FF302821FF302821FF302821FF302821FF302821FF302821FF302821FF302821FF302821FF302821FF302821FF302821FF302821FF302821FF302821FF302821FF302821FF302821FF302821FF302821FFFFFFFFFF302821FFFFFFFFFFFFFFFFFF302821FF302821FFFFFFFFFFFFFFFFFF3028
310
21FFFFFFFFFF302821FF302821FF302821FF302821FF302821FF302821FF302821FF302821FF302821FF302821FF302821FF302821FF302821FF302821FF302821FF302821FF302821FF302821FF302821FF302821FF302821FF302821FF302821FFFFFFFFFF302821FFFFFFFFFF302821FF302821FFFFFFFFFF302821FFFF
310
FFFFFF302821FF302821FF302821FF302821FF302821FF302821FF302821FF302821FF302821FF302821FF302821FF302821FF302821FF302821FF302821FF302821FF302821FF302821FF302821FF302821FF302821FF302821FF302821FF302821FFFFFFFFFF302821FFFFFFFFFFFFFFFFFFFFFFFFFFFFFFFFFF302821FF
310
FFFFFFFF302821FF302821FF302821FF302821FF302821FF302821FF302821FF302821FF302821FF302821FF302821FF302821FF302821FF302821FF302821FF302821FF302821FF302821FF302821FF302821FF302821FF302821FF302821FF302821FFFFFFFFFF302821FF302821FF302821FF302821FF302821FF302821
310
FFFFFFFFFF302821FF302821FF302821FF302821FF302821FF302821FF302821FF302821FF302821FF302821FF302821FF302821FF302821FF302821FF302821FF302821FF302821FF302821FF302821FF302821FF302821FF302821FF302821FF302821FFFFFFFFFF302821FF302821FF302821FF302821FF302821FF3028
310
21FFFFFFFFFF302821FF302821FF302821FF302821FF302821FF302821FF302821FF302821FF302821FF302821FF302821FF302821FF302821FF302821FF302821FF302821FF302821FF302821FF302821FF302821FF302821FF302821FF302821FF302821FFFFFFFFFF302821FF302821FF302821FF302821FF302821FF30
310
2821FFFFFFFFFF302821FF302821FF302821FF302821FF302821FF302821FF302821FF302821FF302821FF302821FF302821FF302821FF302821FF302821FF302821FF302821FF302821FF302821FF302821FF302821FF302821FF302821FF302821FF302821FFFFFFFFFF302821FF302821FF302821FF302821FF302821FF
310
302821FFFFFFFFFF302821FF302821FF302821FF302821FF302821FF302821FF302821FF302821FF302821FF302821FF302821FF302821FF302821FF302821FF302821FF302821FF302821FF302821FF302821FF302821FF302821FF302821FF302821FF302821FFFFFFFFFF302821FF302821FF302821FF302821FF302821
310
FF302821FFFFFFFFFF302821FF302821FF302821FF302821FF302821FF302821FF302821FF302821FF302821FF302821FF302821FF302821FF302821FF302821FF302821FF302821FF302821FF302821FF302821FF302821FF302821FF302821FF302821FF302821FFFFFFFFFF302821FF302821FF302821FF302821FF3028
310
21FF302821FFFFFFFFFF302821FF302821FF302821FF302821FF302821FF302821FF302821FF302821FF302821FF302821FF302821FF302821FF302821FF302821FF302821FF302821FF302821FF302821FF302821FF302821FF302821FF302821FF302821FF302821FFFFFFFFFF302821FF302821FF302821FF302821FF30
310
2821FF302821FFFFFFFFFF302821FF302821FF302821FF302821FF302821FF302821FF302821FF302821FF302821FF302821FF302821FF302821FF302821FF302821FF302821FF302821FF302821FF302821FF302821FF302821FF302821FF302821FF302821FF302821FFFFFFFFFF302821FF302821FF302821FF302821FF
310
302821FF302821FFFFFFFFFF302821FF302821FF302821FF302821FF302821FF302821FF302821FF302821FF302821FF302821FF302821FF302821FF302821FF302821FF302821FF302821FF302821FF302821FF302821FF302821FF302821FF302821FF302821FF302821FFFFFFFFFF302821FF302821FF302821FF302821
310
FF302821FF302821FFFFFFFFFF302821FF302821FF302821FF302821FF302821FF302821FF302821FF302821FF302821FF302821FF302821FF302821FF302821FF302821FF302821FF302821FF302821FF302821FF302821FF302821FF302821FF302821FF302821FF302821FFFFFFFFFF302821FF302821FF302821FF3028
310
21FF302821FF302821FFFFFFFFFF302821FF302821FF302821FF302821FF302821FF302821FF302821FF302821FF302821FF302821FF302821FF302821FF302821FF302821FF302821FF302821FF302821FF302821FF302821FF302821FF302821FF302821FF302821FF302821FFFFFFFFFF302821FF302821FF302821FF30
310
2821FF302821FF302821FFFFFFFFFF302821FF302821FF302821FF302821FF302821FF302821FF302821FF302821FF302821FF302821FF302821FF302821FF302821FF302821FF302821FF302821FF302821FF302821FF302821FF302821FF302821FF302821FF302821FF302821FFFFFFFFFF302821FF302821FF302821FF
310
302821FF302821FF302821FFFFFFFFFF302821FF302821FF302821FF302821FF302821FF302821FF302821FF302821FF302821FF302821FF302821FF302821FF302821FF302821FF302821FF302821FF302821FF302821FF302821FF302821FF302821FF302821FF302821FF302821FFFFFFFFFF302821FF302821FF302821
310
FF302821FF302821FF302821FFFFFFFFFF302821FF302821FF302821FF302821FF302821FF302821FF302821FF302821FF302821FF302821FF302821FF302821FF302821FF302821FF302821FF302821FF302821FF302821FF302821FF302821FF302821FF302821FF302821FF302821FFFFFFFFFF302821FF302821FF3028
310
21FF302821FF302821FF302821FFFFFFFFFF302821FF302821FF302821FF302821FF302821FF302821FF302821FF302821FF302821FF302821FF302821FF302821FF302821FF302821FF302821FF302821FF302821FF302821FF302821FF302821FF302821FF302821FF302821FF302821FFFFFFFFFF302821FF302821FF30
310
2821FF302821FF302821FF302821FFFFFFFFFF302821FF302821FF302821FF302821FF302821FF302821FF302821FF302821FF302821FF302821FF302821FF302821FF302821FF302821FF302821FF302821FF302821FF302821FF302821FF302821FF302821FF302821FF302821FF302821FFFFFFFFFF302821FF302821FF
310
302821FF302821FF302821FF302821FFFFFFFFFF302821FF302821FF302821FF302821FF302821FF302821FF302821FF302821FF302821FF302821FF302821FF302821FF302821FF302821FF302821FF302821FF302821FF302821FF302821FF302821FF302821FF302821FF302821FF302821FFFFFFFFFF302821FF302821
310
FF302821FF302821FF302821FF302821FFFFFFFFFF302821FF302821FF302821FF302821FF302821FF302821FF302821FF302821FF302821FF302821FF302821FF302821FF302821FF302821FF302821FF302821FF302821FF302821FF302821FF302821FF302821FF302821FF302821FF302821FFFFFFFFFF302821FF3028
310
21FF302821FF302821FF302821FF302821FFFFFFFFFF302821FF302821FF302821FF302821FF302821FF302821FF302821FF302821FF302821FF302821FF302821FF302821FF302821FF302821FF302821FF302821FF302821FF302821FF302821FF302821FF302821FF302821FF302821FF302821FFFFFFFFFF302821FF30
310
2821FF302821FF302821FF302821FF302821FFFFFFFFFF302821FF302821FF302821FF302821FF302821FF302821FF302821FF302821FF302821FF302821FF302821FF302821FF302821FF302821FF302821FF302821FF302821FF302821FF302821FF302821FF302821FF302821FF302821FF302821FFFFFFFFFF302821FF
310
302821FF302821FF302821FF302821FF302821FFFFFFFFFF302821FF302821FF302821FF302821FF302821FF302821FF302821FF302821FF302821FF302821FF302821FF302821FF302821FF302821FF302821FF302821FF302821FF302821FF302821FF302821FF302821FF302821FF302821FFFFFFFFFFFFFFFFFFFFFFFF
310
FFFFFFFFFFFFFFFFFFFFFFFFFFFFFFFFFFFFFFFFFFFFFFFFFFFFFFFFFF302821FF302821FF302821FF302821FF302821FF302821FF302821FF302821FF302821FF302821FF302821FF302821FF302821FF302821FF302821FF302821FF302821FF302821FF302821FF302821FF302821FFFFFFFFFFFFFFFFFFFFFFFFFFFFFF
310
FFFFFFFFFFFFFFFFFFFFFFFFFFFFFFFFFFFFFFFFFFFFFFFFFFFFFFFFFFFFFFFFFFFF302821FF302821FF302821FF302821FF302821FF302821FF302821FF302821FF302821FF302821FF302821FF302821FF302821FF302821FF302821FF302821FF302821FF302821FF302821FF302821FFFFFFFFFFFFFFFFFFFFFFFFFFFF
310
FFFFFFFFFFFFFFFFFFFFFFFFFFFFFFFFFFFFFFFFFFFFFFFFFFFFFFFFFFFFFFFFFFFFFF302821FF302821FF302821FF302821FF302821FF302821FF302821FF302821FF302821FF302821FF302821FF302821FF302821FF302821FF302821FF302821FF302821FF302821FF302821FF302821FF302821FF302821FF302821FF
310
302821FF302821FF302821FF302821FF302821FF302821FF302821FF302821FF302821FF302821FF302821FF302821FF302821FF302821FF302821FF302821FF302821FF302821FF
102
{BLKREFS
331
20F
102
}
 70
     1
280
     1
281
     0
  0
ENDTAB
  0
ENDSEC
  0
SECTION
  2
BLOCKS
  0
BLOCK
  5
71
330
70
100
AcDbEntity
  8
0
100
AcDbBlockBegin
  2
*Model_Space
 70
     0
 10
0.0
 20
0.0
 30
0.0
  3
*Model_Space
  1

  0
ENDBLK
  5
72
330
70
100
AcDbEntity
  8
0
100
AcDbBlockEnd
  0
BLOCK
  5
6D
330
6C
100
AcDbEntity
 67
     1
  8
0
100
AcDbBlockBegin
  2
*Paper_Space
 70
     0
 10
0.0
 20
0.0
 30
0.0
  3
*Paper_Space
  1

  0
ENDBLK
  5
6E
330
6C
100
AcDbEntity
 67
     1
  8
0
100
AcDbBlockEnd
  0
BLOCK
  5
75
330
74
100
AcDbEntity
 67
     1
  8
0
100
AcDbBlockBegin
  2
*Paper_Space0
 70
     0
 10
0.0
 20
0.0
 30
0.0
  3
*Paper_Space0
  1

  0
ENDBLK
  5
76
330
74
100
AcDbEntity
 67
     1
  8
0
100
AcDbBlockEnd
  0
BLOCK
  5
83
330
82
100
AcDbEntity
  8
0
100
AcDbBlockBegin
  2
FamilyGeomCombination_15519-Ref_ Level
 70
     0
 10
0.0
 20
0.0
 30
0.0
  3
FamilyGeomCombination_15519-Ref_ Level
  1

  0
LWPOLYLINE
  5
8B
330
82
100
AcDbEntity
  8
P-SANR-FIXT
100
AcDbPolyline
 90
       62
 70
   128
 43
0.0
 10
0.0000000000002438
 20
1.468750000002309
 10
-0.0587343345864815
 20
1.467575156660636
 10
-0.1173747067671908
 20
1.464052506134286
 10
-0.175827304455673
 20
1.458187683912669
 10
-0.2339986159648503
 20
1.449990072460252
 10
-0.291795579605528
 20
1.439472786206579
 10
-0.3491257325652381
 20
1.426652650566182
 10
-0.4058973588290286
 20
1.411550175021176
 10
-0.4620196359055119
 20
1.394189520310781
 10
-0.517402780123477
 20
1.374598459779114
 10
-0.5719581902666162
 20
1.352808334943844
 10
-0.6255985893165703
 20
1.328854005356397
 10
-0.6782381640775314
 20
1.302773792834088
 10
-0.7297927024590586
 20
1.274609420153509
 10
-0.7801797281974574
 20
1.244405944302883
 10
-0.8293186328002079
 20
1.21221168440045
 10
-0.8771308045023488
 20
1.178078144394347
 10
-0.9235397540285438
 20
1.142059930667158
 10
-0.9684712369596002
 20
1.104214664677357
 10
-1.011853372507699
 20
1.064602890777301
 10
-1.053616758510327
 20
1.02328797935516
 10
-1.093694582458924
 20
0.9803360254558695
 10
-1.132022728384654
 20
0.9358157430430152
 10
-1.168539879430271
 20
0.8897983550713631
 10
-1.203187615944013
 20
0.8423574795451072
 10
-1.235910508938578
 20
0.7935690117449212
 10
-1.266656208765688
 20
0.7435110028116511
 10
-1.295375528864353
 20
0.6922635348810999
 10
-1.322022524448876
 20
0.6399085929697392
 10
-1.346554566010711
 20
0.5865299338161804
 10
-1.368932407516581
 20
0.5322129518882405
 10
-1.389120249193765
 20
0.4770445427699598
 10
-1.407085794802086
 20
0.4211129641473618
 10
-1.422800303301016
 20
0.3645076946147511
 10
-1.436238634829209
 20
0.3073192905282269
 10
-1.447379290922909
 20
0.2496392411348367
 10
-1.456204448908913
 20
0.1915598222091645
 10
-1.462699990417044
 20
0.1331739484318532
 10
-1.46685552396653
 20
0.0745750247459895
 10
-1.468664401590158
 20
0.0158567969290289
 10
-1.468123729469605
 20
-0.0428867983804437
 10
-1.465234372564925
 20
-0.1015617839611806
 10
-1.460000953230803
 20
-0.1600742923529452
 10
-1.452431843821771
 20
-0.2183307160243046
 10
-1.442539153298224
 20
-0.2762378571247552
 10
-1.430338707854673
 20
-0.3337030765814148
 10
-1.415850025601207
 20
-0.3906344423017316
 10
-1.399096285338674
 20
-0.4469408762452786
 10
-1.380104289477554
 20
-0.5025323001291113
 10
-1.358904421159818
 20
-0.5573197795339339
 10
-1.335530595652374
 20
-0.6112156661800298
 10
-1.310020206089883
 20
-0.664133738145999
 10
-1.282414063653721
 20
-0.7159893378052046
 10
-1.25275633228279
 20
-0.7666995072601778
 10
-1.221094458020637
 20
-0.8161831210573849
 10
-1.187479093111907
 20
-0.8643610159706652
 10
-1.151964014969562
 20
-0.9111561176455891
 10
-1.114606040142483
 20
-0.9564935639018939
 10
-1.075464933421113
 20
-1.00030082449701
 10
-1.034603312226554
 20
-1.042507817159069
 10
-0.992086546436035
 20
-1.083047019703492
 10
-0.9487856123629642
 20
-1.12114706313504
1001
REVIT
1002
{
1070
     2
1000
-2001160
1002
}
  0
LWPOLYLINE
  5
8C
330
82
100
AcDbEntity
  8
P-SANR-FIXT
100
AcDbPolyline
 90
       63
 70
   128
 43
0.0
 10
0.9500332283956474
 20
-1.119744785050712
 10
0.9684712369601012
 20
-1.104214664677996
 10
1.011853372508199
 20
-1.06460289077794
 10
1.053616758510826
 20
-1.023287979355799
 10
1.093694582459423
 20
-0.980336025456509
 10
1.132022728385154
 20
-0.9358157430436547
 10
1.16853987943077
 20
-0.8897983550720026
 10
1.203187615944511
 20
-0.842357479545768
 10
1.235910508939076
 20
-0.7935690117455607
 10
1.266656208766187
 20
-0.7435110028122906
 10
1.295375528864853
 20
-0.6922635348817394
 10
1.322022524449374
 20
-0.6399085929703787
 10
1.34655456601121
 20
-0.5865299338168199
 10
1.36893240751708
 20
-0.5322129518889013
 10
1.389120249194263
 20
-0.4770445427706206
 10
1.407085794802584
 20
-0.4211129641480226
 10
1.422800303301514
 20
-0.3645076946153906
 10
1.436238634829707
 20
-0.3073192905288877
 10
1.447379290923406
 20
-0.2496392411354975
 10
1.45620444890941
 20
-0.1915598222098253
 10
1.462699990417541
 20
-0.1331739484324927
 10
1.466855523967026
 20
-0.0745750247466503
 10
1.468664401590655
 20
-0.0158567969296684
 10
1.468123729470102
 20
0.0428867983797829
 10
1.465234372565421
 20
0.1015617839605198
 10
1.460000953231299
 20
0.1600742923522844
 10
1.452431843822266
 20
0.2183307160236438
 10
1.44253915329872
 20
0.2762378571240944
 10
1.430338707855169
 20
0.3337030765807753
 10
1.415850025601703
 20
0.3906344423010921
 10
1.399096285339169
 20
0.4469408762446178
 10
1.380104289478049
 20
0.5025323001284718
 10
1.358904421160312
 20
0.5573197795332944
 10
1.335530595652867
 20
0.6112156661794116
 10
1.310020206090377
 20
0.6641337381453595
 10
1.282414063654215
 20
0.7159893378045651
 10
1.252756332283284
 20
0.7666995072595383
 10
1.22109445802113
 20
0.8161831210567454
 10
1.187479093112403
 20
0.8643610159700257
 10
1.151964014970056
 20
0.9111561176449496
 10
1.114606040142974
 20
0.9564935639012331
 10
1.075464933421607
 20
1.00030082449637
 10
1.034603312227047
 20
1.042507817158408
 10
0.9920865464365279
 20
1.083047019702853
 10
0.9479826538055531
 20
1.121853578053418
 10
0.9023621911540024
 20
1.15886540999515
 10
0.8552981414902735
 20
1.194023304492297
 10
0.8068657972540322
 20
1.227271016413638
 10
0.7571426398643765
 20
1.258555356512587
 10
0.7062082157660856
 20
1.287826276518614
 10
0.6541440091722869
 20
1.3150369492038
 10
0.6010333117070945
 20
1.340143843296523
 10
0.5469610891567722
 20
1.363106793122092
 10
0.4920138455426075
 20
1.383889062859253
 10
0.4362794847329301
 20
1.402457405309796
 10
0.3798471698156755
 20
1.41878211508677
 10
0.3228071804564578
 20
1.432837076136962
 10
0.2652507684703677
 20
1.444599803520979
 10
0.2072700118385384
 20
1.454051479384197
 10
0.1489576674030117
 20
1.461176983061512
 10
0.0904070224755831
 20
1.465964915267058
 10
0.0317117455979954
 20
1.468407616330686
 10
0.0000000000002438
 20
1.468750000002309
1001
REVIT
1002
{
1070
     2
1000
-2001160
1002
}
  0
LWPOLYLINE
  5
8D
330
82
100
AcDbEntity
  8
P-SANR-FIXT
100
AcDbPolyline
 90
       14
 70
   128
 43
0.0
 10
-0.2914668254602212
 20
0.6915476749787998
 10
-0.3181368001073763
 20
0.6815196296662406
 10
-0.41377774864638
 20
0.6288391776956956
 10
-0.5016202057100485
 20
0.5627279301061705
 10
-0.5789553023993367
 20
0.4852860287020206
 10
-0.6450103549365504
 20
0.397990801419688
 10
-0.6994060335232012
 20
0.3026513818090421
 10
-0.7430458782338087
 20
0.1995770781242925
 10
-0.8086898459402236
 20
-0.0423878789969194
 10
-0.8490680630617463
 20
-0.2710274687028331
 10
-0.8896637000960131
 20
-0.5675177284031249
 10
-0.9183982392041627
 20
-0.8118044330617093
 10
-0.9607356663440247
 20
-1.208015647826421
 10
-0.9999999999996925
 20
-1.593750000000212
1001
REVIT
1002
{
1070
     2
1000
-2001160
1002
}
  0
LWPOLYLINE
  5
8E
330
82
100
AcDbEntity
  8
P-SANR-FIXT
100
AcDbPolyline
 90
       14
 70
   128
 43
0.0
 10
0.2914668254608434
 20
0.6915476749787785
 10
0.3181368001079665
 20
0.6815196296662406
 10
0.4137777486469715
 20
0.6288391776956956
 10
0.50162020571064
 20
0.5627279301061705
 10
0.5789553023999283
 20
0.4852860287020206
 10
0.6450103549371419
 20
0.397990801419688
 10
0.6994060335237954
 20
0.3026513818090421
 10
0.7430458782344042
 20
0.1995770781242498
 10
0.8086898459408272
 20
-0.0423878789969621
 10
0.8490680630623565
 20
-0.2710274687028544
 10
0.8896637000966286
 20
-0.5675177284031462
 10
0.9183982392047797
 20
-0.8118044330617733
 10
0.9607356663446429
 20
-1.208015647826442
 10
1.000000000000309
 20
-1.593750000000234
1001
REVIT
1002
{
1070
     2
1000
-2001160
1002
}
  0
LINE
  5
8F
330
82
100
AcDbEntity
  8
P-SANR-FIXT
100
AcDbLine
 10
1.2110552588048
 20
0.6992030796730475
 30
0.0
 11
0.4560295994394985
 21
1.135117347352668
 31
0.0
1001
REVIT
1002
{
1070
     2
1000
-2001160
1002
}
  0
LINE
  5
90
330
82
100
AcDbEntity
  8
P-SANR-FIXT
100
AcDbLine
 10
0.1605221819998665
 20
1.305728634358977
 30
0.0
 11
0.0000000000007434
 21
1.398406159347096
 31
0.0
1001
REVIT
1002
{
1070
     2
1000
-2001160
1002
}
  0
LINE
  5
91
330
82
100
AcDbEntity
  8
P-SANR-FIXT
100
AcDbLine
 10
0.0000000000007434
 20
1.398406159347096
 30
0.0
 11
-0.1605221818346414
 21
1.305728634453515
 31
0.0
1001
REVIT
1002
{
1070
     2
1000
-2001160
1002
}
  0
LINE
  5
92
330
82
100
AcDbEntity
  8
P-SANR-FIXT
100
AcDbLine
 10
-0.4560295993161225
 20
1.135117347423054
 30
0.0
 11
-1.21105525880332
 21
0.6992030796730475
 31
0.0
1001
REVIT
1002
{
1070
     2
1000
-2001160
1002
}
  0
LINE
  5
93
330
82
100
AcDbEntity
  8
P-SANR-FIXT
100
AcDbLine
 10
-1.211055258803319
 20
0.6992030796730475
 30
0.0
 11
-1.211055258803327
 21
-0.6992030796750299
 31
0.0
1001
REVIT
1002
{
1070
     2
1000
-2001160
1002
}
  0
LINE
  5
94
330
82
100
AcDbEntity
  8
P-SANR-FIXT
100
AcDbLine
 10
-1.211055258803326
 20
-0.6992030796750299
 30
0.0
 11
-0.9214696668891811
 21
-0.8663953991200939
 31
0.0
1001
REVIT
1002
{
1070
     2
1000
-2001160
1002
}
  0
LINE
  5
95
330
82
100
AcDbEntity
  8
P-SANR-FIXT
100
AcDbLine
 10
0.9218214202262362
 20
-0.8661923142371035
 30
0.0
 11
1.21105525880479
 21
-0.6992030796750299
 31
0.0
1001
REVIT
1002
{
1070
     2
1000
-2001160
1002
}
  0
LINE
  5
96
330
82
100
AcDbEntity
  8
P-SANR-FIXT
100
AcDbLine
 10
1.21105525880479
 20
-0.6992030796750299
 30
0.0
 11
1.2110552588048
 21
0.6992030796730475
 31
0.0
1001
REVIT
1002
{
1070
     2
1000
-2001160
1002
}
  0
LWPOLYLINE
  5
97
330
82
100
AcDbEntity
  8
P-SANR-FIXT
100
AcDbPolyline
 90
        7
 70
   128
 43
0.0
 10
-0.4884446878636463
 20
1.254886192611344
 10
-0.4059530747428032
 20
1.272776533305879
 10
-0.3228120233010751
 20
1.287353778951356
 10
-0.2391545414849574
 20
1.298594609064373
 10
-0.1551144634193777
 20
1.306481040714757
 10
-0.0708262353016473
 20
1.311000457294141
 10
0.0000000000003091
 20
1.312189291750129
1001
REVIT
1002
{
1070
     2
1000
-2001160
1002
}
  0
LWPOLYLINE
  5
98
330
82
100
AcDbEntity
  8
P-SANR-FIXT
100
AcDbPolyline
 90
        7
 70
   128
 43
0.0
 10
0.0000000000003104
 20
1.312189291750129
 10
0.0843924222502404
 20
1.31050121822264
 10
0.1686498346273275
 20
1.305439698197772
 10
0.2526374432457227
 20
1.297012829027799
 10
0.3362208858480393
 20
1.285234091905777
 10
0.4192664467562976
 20
1.27012233029842
 10
0.4884446878642658
 20
1.254886192611344
1001
REVIT
1002
{
1070
     2
1000
-2001160
1002
}
  0
LWPOLYLINE
  5
99
330
82
100
AcDbEntity
  8
P-SANR-FIXT
100
AcDbPolyline
 90
       49
 70
   128
 43
0.0
 10
-0.5025690770853663
 20
1.219267613791508
 10
-0.5030677872024065
 20
1.220059230235733
 10
-0.5035344421900105
 20
1.220870156556749
 10
-0.5039682954997446
 20
1.221699095445479
 10
-0.5043686530588669
 20
1.222544720776518
 10
-0.5047348743806843
 20
1.223405679729672
 10
-0.5050663735892064
 20
1.224280594954357
 10
-0.5053626203564158
 20
1.22516806677278
 10
-0.5056231407506799
 20
1.226066675419388
 10
-0.5058475179949444
 20
1.226974983312054
 10
-0.5060353931334828
 20
1.227891537351886
 10
-0.5061864656061505
 20
1.228814871247926
 10
-0.506300493729217
 20
1.229743507862955
 10
-0.5063772950820117
 20
1.23067596157643
 10
-0.5064167467987545
 20
1.231610740661394
 10
-0.5064187857651116
 20
1.232546349670648
 10
-0.5063834087191749
 20
1.233481291829413
 10
-0.5063106722566699
 20
1.234414071429639
 10
-0.5062006927404198
 20
1.235343196222998
 10
-0.5060536461141897
 20
1.236267179807981
 10
-0.5058697676212138
 20
1.237184544007987
 10
-0.5056493514278552
 20
1.238093821235942
 10
-0.5053927501530042
 20
1.238993556842302
 10
-0.5051003743039621
 20
1.239882311442009
 10
-0.5047726916197152
 20
1.240758663217284
 10
-0.5044102263226597
 20
1.24162121019227
 10
-0.5040135582799445
 20
1.242468572475779
 10
-0.5035833220758254
 20
1.243299394468891
 10
-0.5031202059964452
 20
1.244112347033698
 10
-0.502624950928741
 20
1.244906129619493
 10
-0.5020983491751724
 20
1.245679472343496
 10
-0.5015412431862076
 20
1.246431138022273
 10
-0.5009545242125863
 20
1.247159924151105
 10
-0.5003391308795075
 20
1.247864664827673
 10
-0.4996960476850276
 20
1.248544232617213
 10
-0.499026303425071
 20
1.249197540356234
 10
-0.4983309695475854
 20
1.249823542891718
 10
-0.4976111584384463
 20
1.250421238753119
 10
-0.496868021641871
 20
1.250989671754609
 10
-0.4961027480182123
 20
1.251527932524623
 10
-0.4953165618420145
 20
1.252035159960761
 10
-0.4945107208434511
 20
1.25251054260731
 10
-0.4936865141962165
 20
1.252953319953448
 10
-0.4928452604551227
 20
1.25336278364989
 10
-0.4919883054467
 20
1.253738278642046
 10
-0.4911170201161523
 20
1.254079204218051
 10
-0.4902327983341452
 20
1.254385014969706
 10
-0.4893370546669055
 20
1.254655221665039
 10
-0.4884446878636463
 20
1.254886192611344
1001
REVIT
1002
{
1070
     2
1000
-2001160
1002
}
  0
LWPOLYLINE
  5
9A
330
82
100
AcDbEntity
  8
P-SANR-FIXT
100
AcDbPolyline
 90
       49
 70
   128
 43
0.0
 10
0.4884446878642658
 20
1.254886192611344
 10
0.489350381704126
 20
1.254651486318223
 10
0.4902459653371251
 20
1.254380749671447
 10
0.4911300060204961
 20
1.254074415791904
 10
0.4920010894777337
 20
1.253732974748466
 10
0.4928578221611235
 20
1.253356972774014
 10
0.4936988334811354
 20
1.252947011391412
 10
0.4945227779990637
 20
1.25250374645148
 10
0.4953283375794423
 20
1.252027887083528
 10
0.4961142234987874
 20
1.251520194561052
 10
0.4968791785072759
 20
1.25098148108379
 10
0.4976219788400757
 20
1.250412608478363
 10
0.4983414361751075
 20
1.249814486819623
 10
0.4990363995341131
 20
1.249188072974582
 10
0.4997057571239711
 20
1.248534369071819
 10
0.5003484381153215
 20
1.247854420898086
 10
0.5009634143556827
 20
1.247149316225431
 10
0.5015497020142523
 20
1.246420183070916
 10
0.5021063631558475
 20
1.245668187892043
 10
0.5026325072413859
 20
1.244894533720703
 10
0.5031272925525751
 20
1.244100458238491
 10
0.5035899275384609
 20
1.243287231796806
 10
0.5040196720817586
 20
1.242456155384509
 10
0.5044158386828723
 20
1.241608558546523
 10
0.5047777935597483
 20
1.240745797256998
 10
0.505104957661802
 20
1.239869251749929
 10
0.5053968075962562
 20
1.238980324311178
 10
0.505652876465477
 20
1.238080437035016
 10
0.5058727546138976
 20
1.237171029549081
 10
0.5060560902833861
 20
1.236253556711389
 10
0.5062025901759805
 20
1.235329486282786
 10
0.506312019923103
 20
1.234400296578769
 10
0.5063842044605024
 20
1.233467474104656
 10
0.5064190283083198
 20
1.23253251117746
 10
0.5064164357558245
 20
1.231596903538416
 10
0.5063764309505494
 20
1.230662147960131
 10
0.5062990778916471
 20
1.229729739852117
 10
0.5061845003275133
 20
1.22880117086845
 10
0.5060328815578061
 20
1.22787792652145
 10
0.5058444641402153
 20
1.226961483805091
 10
0.5056195495024145
 20
1.226053308832255
 10
0.505358497459845
 20
1.22515485448914
 10
0.5050617256400875
 20
1.22426755811103
 10
0.5047297088147453
 20
1.223392839182871
 10
0.5043629781399121
 20
1.222532097068316
 10
0.5039621203064359
 20
1.221686708771158
 10
0.5035277766013388
 20
1.220858026732372
 10
0.5030606418818939
 20
1.220047376666385
 10
0.5025690770859845
 20
1.219267613791508
1001
REVIT
1002
{
1070
     2
1000
-2001160
1002
}
  0
LWPOLYLINE
  5
9B
330
82
100
AcDbEntity
  8
P-SANR-FIXT
100
AcDbPolyline
 90
       11
 70
   128
 43
0.0
 10
-0.3434357462403472
 20
0.8262719358215589
 10
-0.3523330902804402
 20
0.8685737201957193
 10
-0.3629149375863298
 20
0.9104858687901538
 10
-0.3751643594596676
 20
0.9519413311078677
 10
-0.389061759438527
 20
0.9928737872525131
 10
-0.404584904647562
 20
1.033217754026089
 10
-0.4217089613658648
 20
1.072908689687963
 10
-0.4404065347556267
 20
1.111883097208057
 10
-0.460647712688023
 20
1.150078625848401
 10
-0.4824001135962525
 20
1.187434170911138
 10
-0.502569077085369
 20
1.219267613791529
1001
REVIT
1002
{
1070
     2
1000
-2001160
1002
}
  0
LWPOLYLINE
  5
9C
330
82
100
AcDbEntity
  8
P-SANR-FIXT
100
AcDbPolyline
 90
       11
 70
   128
 43
0.0
 10
0.5025690770859885
 20
1.219267613791529
 10
0.479527544972556
 20
1.182693148791009
 10
0.4579670321307829
 20
1.145226523933608
 10
0.4379220307818858
 20
1.106927677826575
 10
0.4194246086519872
 20
1.067857880453729
 10
0.4025043576705833
 20
1.02807963515643
 10
0.3871883466297885
 20
0.9876565786415268
 10
0.3735010778800234
 20
0.9466533791763891
 10
0.3614644481314943
 20
0.9051356331332341
 10
0.3510977134241199
 20
0.8631697600491106
 10
0.343435746240968
 20
0.8262719358215589
1001
REVIT
1002
{
1070
     2
1000
-2001160
1002
}
  0
LWPOLYLINE
  5
9D
330
82
100
AcDbEntity
  8
P-SANR-FIXT
100
AcDbPolyline
 90
       19
 70
   128
 43
0.0
 10
-0.3174338657093804
 20
0.7833347253811382
 10
-0.3196498020152391
 20
0.7851601977061619
 10
-0.3217909663855533
 20
0.7870728236655111
 10
-0.3238539334140857
 20
0.7890695434656365
 10
-0.32583540279367
 20
0.7911471627807955
 10
-0.3277322045959891
 20
0.7933023578633537
 10
-0.329541304342789
 20
0.7955316808608543
 10
-0.3312598078603956
 20
0.7978315653320535
 10
-0.3328849659097712
 20
0.8001983319525008
 10
-0.3344141785847254
 20
0.8026281944004336
 10
-0.3358449994711869
 20
0.8051172654142673
 10
-0.3371751395609674
 20
0.8076615630113648
 10
-0.3384024709136697
 20
0.8102570168583438
 10
-0.3395250300609444
 20
0.8128994747826679
 10
-0.3405410211476258
 20
0.8155847094153967
 10
-0.3414488188047051
 20
0.8183084249539474
 10
-0.3422469707495854
 20
0.8210662640344208
 10
-0.3429342001094193
 20
0.8238538147026657
 10
-0.3434357462403472
 20
0.8262719358215376
1001
REVIT
1002
{
1070
     2
1000
-2001160
1002
}
  0
LWPOLYLINE
  5
9E
330
82
100
AcDbEntity
  8
P-SANR-FIXT
100
AcDbPolyline
 90
       19
 70
   128
 43
0.0
 10
0.3434357462409667
 20
0.8262719358215376
 10
0.3428448147512495
 20
0.8234623944184702
 10
0.3421420042536182
 20
0.8206787313056976
 10
0.341328439094942
 20
0.8179253997503719
 10
0.3404054208059226
 20
0.8152068044956022
 10
0.3393744260189257
 20
0.8125272947139093
 10
0.3382371041056733
 20
0.8098911570493141
 10
0.3369952745386126
 20
0.807302608759741
 10
0.335650923980141
 20
0.8047657909702648
 10
0.3342062031043719
 20
0.802284762048181
 10
0.3326634231565179
 20
0.7998634911105355
 10
0.3310250522553843
 20
0.7975058516742805
 10
0.3292937114449143
 20
0.795215615459611
 10
0.3274721705010712
 20
0.7929964463558789
 10
0.3255633435007894
 20
0.7908518945602764
 10
0.3235702841600742
 20
0.7887853908981981
 10
0.32149618094871
 20
0.7868002413346388
 10
0.3193443519893826
 20
0.7848996216854544
 10
0.3174338657099999
 20
0.7833347253811382
1001
REVIT
1002
{
1070
     2
1000
-2001160
1002
}
  0
LWPOLYLINE
  5
9F
330
82
100
AcDbEntity
  8
P-SANR-FIXT
100
AcDbPolyline
 90
       24
 70
   128
 43
0.0
 10
-0.2957983311573979
 20
0.7386436520007606
 10
-0.2958439054359236
 20
0.7409220620904335
 10
-0.2959805553623779
 20
0.743196827209978
 10
-0.2962080623260274
 20
0.7454643082204839
 10
-0.296526062364264
 20
0.7477208776360555
 10
-0.296934046744862
 20
0.7499629254269564
 10
-0.2974313627798443
 20
0.7521868647950427
 10
-0.2980172148696436
 20
0.7543891379117226
 10
-0.2986906657758927
 20
0.7565662216097877
 10
-0.2994506381208021
 20
0.7587146330197782
 10
-0.3002959161107394
 20
0.7608309351416977
 10
-0.3012251474812361
 20
0.7629117423436539
 10
-0.3022368456603254
 20
0.7649537257779428
 10
-0.3033293921467383
 20
0.7669536187067294
 10
-0.3045010390991591
 20
0.7689082217279263
 10
-0.3057499121324047
 20
0.7708144078936385
 10
-0.3070740133160341
 20
0.7726691277126462
 10
-0.30847122437061
 20
0.7744694140289354
 10
-0.3099393100565031
 20
0.7762123867683641
 10
-0.3114759217497899
 20
0.7778952575463904
 10
-0.3130786011995558
 20
0.7795153341288028
 10
-0.3147447844605659
 20
0.7810700247386321
 10
-0.3164718059950377
 20
0.7825568422025526
 10
-0.3174338657093924
 20
0.7833347253811382
1001
REVIT
1002
{
1070
     2
1000
-2001160
1002
}
  0
LWPOLYLINE
  5
A0
330
82
100
AcDbEntity
  8
P-SANR-FIXT
100
AcDbPolyline
 90
       24
 70
   128
 43
0.0
 10
0.3174338657100133
 20
0.7833347253811382
 10
0.315674967599997
 20
0.7818857578210582
 10
0.3139754196688495
 20
0.7803676121161657
 10
0.3123379408307074
 20
0.7787827169757477
 10
0.310765150702402
 20
0.7771336078938801
 10
0.3092595654126308
 20
0.7754229230933447
 10
0.3078235935766784
 20
0.7736533993048979
 10
0.3064595324431613
 20
0.7718278673890992
 10
0.3051695642189069
 20
0.7699492478076237
 10
0.3039557525778975
 20
0.7680205459510105
 10
0.3028200393598248
 20
0.7660448473307965
 10
0.3017642414635641
 20
0.7640253126433478
 10
0.3007900479405289
 20
0.76196517271336
 10
0.2998990172925322
 20
0.7598677233251933
 10
0.299092574978542
 20
0.7577363199504603
 10
0.2983720111342234
 20
0.7555743723799253
 10
0.2977384785080157
 20
0.7533853392684761
 10
0.2971929906169785
 20
0.7511727226020994
 10
0.2967364201253674
 20
0.7489400620954711
 10
0.2963694974485773
 20
0.7466909295291799
 10
0.2960928095846142
 20
0.7444289230354925
 10
0.2959067991750417
 20
0.7421576613422757
 10
0.2958117637968293
 20
0.7398807779837284
 10
0.2957983311580187
 20
0.7386436520007606
1001
REVIT
1002
{
1070
     2
1000
-2001160
1002
}
  0
LINE
  5
A1
330
82
100
AcDbEntity
  8
P-SANR-FIXT
100
AcDbLine
 10
-0.2957983311573832
 20
0.7386436520007606
 30
0.0
 11
-0.2957983311573832
 21
0.098085018595782
 31
0.0
1001
REVIT
1002
{
1070
     2
1000
-2001160
1002
}
  0
LINE
  5
A2
330
82
100
AcDbEntity
  8
P-SANR-FIXT
100
AcDbLine
 10
0.2957983311580041
 20
0.098085018595782
 30
0.0
 11
0.2957983311580041
 21
0.7386436520007606
 31
0.0
1001
REVIT
1002
{
1070
     2
1000
-2001160
1002
}
  0
LWPOLYLINE
  5
A3
330
82
100
AcDbEntity
  8
P-SANR-FIXT
100
AcDbPolyline
 90
        7
 70
   128
 43
0.0
 10
0.0000000000003218
 20
-1.593750000000236
 10
-0.2588182274261059
 20
-1.593750000000233
 10
-0.4999665778679347
 20
-1.59375000000023
 10
-0.7071067811862294
 20
-1.593750000000226
 10
-0.8659851198929018
 20
-1.593750000000222
 10
-0.9658749524067571
 20
-1.593750000000217
 10
-0.9999999999996916
 20
-1.593750000000214
1001
REVIT
1002
{
1070
     2
1000
-2001160
1002
}
  0
SPLINE
  5
A4
330
82
100
AcDbEntity
  8
P-SANR-FIXT
100
AcDbSpline
210
0.0
220
0.0
230
1.0
 70
     8
 71
     3
 72
    25
 73
    21
 74
     0
 42
0.000000001
 43
0.0000000001
 40
-1.0
 40
-1.0
 40
-1.0
 40
-1.0
 40
-0.9444444444444444
 40
-0.9166666666666666
 40
-0.8888888888888889
 40
-0.861111111111111
 40
-0.8333333333333332
 40
-0.8055555555555555
 40
-0.7777777777777778
 40
-0.75
 40
-0.7222222222222223
 40
-0.6944444444444445
 40
-0.6666666666666666
 40
-0.6388888888888889
 40
-0.6111111111111112
 40
-0.5833333333333334
 40
-0.5555555555555556
 40
-0.5277777777777778
 40
-0.5
 40
-0.4798357025262908
 40
-0.4798357025262908
 40
-0.4798357025262908
 40
-0.4798357025262908
 10
0.0000000000003156
 20
-0.1353792737799908
 30
0.0
 10
-0.0206099468639453
 20
-0.1349813776402247
 30
0.0
 10
-0.0510245855150001
 20
-0.132597095549797
 30
0.0
 10
-0.0893761042774629
 20
-0.1257956451582264
 30
0.0
 10
-0.1167767326153765
 20
-0.1189784172479352
 30
0.0
 10
-0.1426619780415945
 20
-0.1100647944788124
 30
0.0
 10
-0.1668294972490024
 20
-0.0991373105658604
 30
0.0
 10
-0.1890413879412596
 20
-0.0866938925807242
 30
0.0
 10
-0.2091365755733774
 20
-0.0733471416584694
 30
0.0
 10
-0.2270072394463
 20
-0.058835569323842
 30
0.0
 10
-0.2427068363768065
 20
-0.0428509561731332
 30
0.0
 10
-0.2562833671941669
 20
-0.0259407065144688
 30
0.0
 10
-0.2678177448399506
 20
-0.0086021812372647
 30
0.0
 10
-0.2772682458469113
 20
0.0093227088060742
 30
0.0
 10
-0.2846901603594967
 20
0.0281223000136525
 30
0.0
 10
-0.2902171066949344
 20
0.0474012730427482
 30
0.0
 10
-0.2939242002375061
 20
0.0668129850952617
 30
0.0
 10
-0.295806523688348
 20
0.0864997429354384
 30
0.0
 10
-0.2959146458205582
 20
0.10481081349443
 30
0.0
 10
-0.2951403544565507
 20
0.1164802169468596
 30
0.0
 10
-0.2946644370250948
 20
0.1213818845534797
 30
0.0
1001
REVIT
1002
{
1070
     2
1000
-2001160
1002
}
  0
LWPOLYLINE
  5
A5
330
82
100
AcDbEntity
  8
P-SANR-FIXT
100
AcDbPolyline
 90
        7
 70
   128
 43
0.0
 10
1.000000000000308
 20
-1.593750000000234
 10
0.9658749524073806
 20
-1.593750000000237
 10
0.8659851198935321
 20
-1.593750000000239
 10
0.7071067811868646
 20
-1.59375000000024
 10
0.4999665778685743
 20
-1.59375000000024
 10
0.2588182274267488
 20
-1.593750000000239
 10
0.0000000000003218
 20
-1.593750000000236
1001
REVIT
1002
{
1070
     2
1000
-2001160
1002
}
  0
SPLINE
  5
A6
330
82
100
AcDbEntity
  8
P-SANR-FIXT
100
AcDbSpline
210
0.0
220
0.0
230
1.0
 70
     8
 71
     3
 72
    25
 73
    21
 74
     0
 42
0.000000001
 43
0.0000000001
 40
-0.5201642974736871
 40
-0.5201642974736871
 40
-0.5201642974736871
 40
-0.5201642974736871
 40
-0.5
 40
-0.4722222222222223
 40
-0.4444444444444445
 40
-0.4166666666666666
 40
-0.3888888888888888
 40
-0.3611111111111111
 40
-0.3333333333333333
 40
-0.3055555555555556
 40
-0.2777777777777778
 40
-0.25
 40
-0.2222222222222222
 40
-0.1944444444444444
 40
-0.1666666666666666
 40
-0.1388888888888889
 40
-0.1111111111111111
 40
-0.0833333333333333
 40
-0.0555555555555556
 40
0.0
 40
0.0
 40
0.0
 40
0.0
 10
0.294664437025715
 20
0.1213818845534635
 30
0.0
 10
0.2951403544571702
 20
0.1164802169468486
 30
0.0
 10
0.2959146458211772
 20
0.104810813494424
 30
0.0
 10
0.2958065236889675
 20
0.0864997429354393
 30
0.0
 10
0.2939242002381263
 20
0.0668129850952614
 30
0.0
 10
0.2902171066955554
 20
0.0474012730427488
 30
0.0
 10
0.2846901603601178
 20
0.0281223000136526
 30
0.0
 10
0.2772682458475333
 20
0.0093227088060751
 30
0.0
 10
0.2678177448405725
 20
-0.008602181237264
 30
0.0
 10
0.2562833671947897
 20
-0.0259407065144681
 30
0.0
 10
0.2427068363774299
 20
-0.0428509561731325
 30
0.0
 10
0.2270072394469242
 20
-0.0588355693238413
 30
0.0
 10
0.2091365755740026
 20
-0.0733471416584687
 30
0.0
 10
0.1890413879418856
 20
-0.0866938925807237
 30
0.0
 10
0.1668294972496294
 20
-0.0991373105658592
 30
0.0
 10
0.1426619780422228
 20
-0.1100647944788115
 30
0.0
 10
0.1167767326160058
 20
-0.1189784172479344
 30
0.0
 10
0.0893761042780935
 20
-0.1257956451582247
 30
0.0
 10
0.0510245855156313
 20
-0.1325970955497968
 30
0.0
 10
0.0206099468645777
 20
-0.1349813776402245
 30
0.0
 10
0.0000000000003175
 20
-0.1353792737799908
 30
0.0
1001
REVIT
1002
{
1070
     2
1000
-2001160
1002
}
  0
SPLINE
  5
A7
330
82
100
AcDbEntity
  8
P-SANR-FIXT
100
AcDbSpline
210
0.0
220
0.0
230
1.0
 70
     8
 71
     3
 72
    16
 73
    12
 74
     0
 42
0.000000001
 43
0.0000000001
 40
0.0
 40
0.0
 40
0.0
 40
0.0
 40
0.1666666666666666
 40
0.3333333333333333
 40
0.4166666666666666
 40
0.5
 40
0.5833333333333333
 40
0.6666666666666666
 40
0.75
 40
0.8333333333333332
 40
1.0
 40
1.0
 40
1.0
 40
1.0
 10
0.0000000000007444
 20
1.398406159347076
 30
0.0
 10
0.0000096754116951
 20
1.398400573245959
 30
0.0
 10
-0.0000037904262971
 20
1.397081979405082
 30
0.0
 10
-0.0000016705885808
 20
1.392218270131747
 30
0.0
 10
0.0000037651469375
 20
1.38660411516618
 30
0.0
 10
-0.0000017213703664
 20
1.381613739797142
 30
0.0
 10
0.0000031203389923
 20
1.375916694492251
 30
0.0
 10
-0.0000007635841292
 20
1.369621650326299
 30
0.0
 10
-0.0000000659980119
 20
1.362828579528117
 30
0.0
 10
0.0000097707706736
 20
1.353260643725678
 30
0.0
 10
-0.0000486558526387
 20
1.345737555465479
 30
0.0
 10
0.0000000000007437
 20
1.340671132428112
 30
0.0
1001
REVIT
1002
{
1070
     2
1000
-2001160
1002
}
  0
SPLINE
  5
A8
330
82
100
AcDbEntity
  8
P-SANR-FIXT
100
AcDbSpline
210
0.0
220
0.0
230
1.0
 70
     8
 71
     3
 72
    16
 73
    12
 74
     0
 42
0.000000001
 43
0.0000000001
 40
0.0
 40
0.0
 40
0.0
 40
0.0
 40
0.1666666666666666
 40
0.3333333333333333
 40
0.4166666666666666
 40
0.5
 40
0.5833333333333333
 40
0.6666666666666666
 40
0.75
 40
0.8333333333333332
 40
1.0
 40
1.0
 40
1.0
 40
1.0
 10
-1.211055258803319
 20
0.6992030796730444
 30
0.0
 10
-1.211045583392368
 20
0.6992086657741615
 30
0.0
 10
-1.20991038054789
 20
0.6985377070959384
 30
0.0
 10
-1.205697224841703
 20
0.6961076882925847
 30
0.0
 10
-1.20083250615298
 20
0.6933053182948483
 30
0.0
 10
-1.196513457567625
 20
0.6908053791469659
 30
0.0
 10
-1.191577250752399
 20
0.6879610495378224
 30
0.0
 10
-1.1861275245483
 20
0.6848101638787576
 30
0.0
 10
-1.18024420387431
 20
0.681414232606965
 30
0.0
 10
-1.171953210023277
 20
0.6766387835973191
 30
0.0
 10
-1.165467237786687
 20
0.6728266405271722
 30
0.0
 10
-1.161055258803318
 20
0.6703355662135619
 30
0.0
1001
REVIT
1002
{
1070
     2
1000
-2001160
1002
}
  0
SPLINE
  5
A9
330
82
100
AcDbEntity
  8
P-SANR-FIXT
100
AcDbSpline
210
0.0
220
0.0
230
1.0
 70
     8
 71
     3
 72
    16
 73
    12
 74
     0
 42
0.000000001
 43
0.0000000001
 40
0.0
 40
0.0
 40
0.0
 40
0.0
 40
0.1666666666666666
 40
0.3333333333333333
 40
0.4166666666666666
 40
0.5
 40
0.5833333333333333
 40
0.6666666666666666
 40
0.75
 40
0.8333333333333332
 40
1.0
 40
1.0
 40
1.0
 40
1.0
 10
-1.211055258803326
 20
-0.6992030796750233
 30
0.0
 10
-1.211055258803326
 20
-0.6991919074727895
 30
0.0
 10
-1.209906590120856
 20
-0.6985442723101347
 30
0.0
 10
-1.205695554252384
 20
-0.6961105818401539
 30
0.0
 10
-1.20083627129918
 20
-0.6932987968723227
 30
0.0
 10
-1.196511736196521
 20
-0.6908083606511668
 30
0.0
 10
-1.191580371090652
 20
-0.6879556449554194
 30
0.0
 10
-1.186126760963434
 20
-0.6848114864485333
 30
0.0
 10
-1.180244137875561
 20
-0.6814143469221431
 30
0.0
 10
-1.171962980793213
 20
-0.6766218601293508
 30
0.0
 10
-1.16541858193331
 20
-0.6729109149392967
 30
0.0
 10
-1.161055258803325
 20
-0.6703355662155419
 30
0.0
1001
REVIT
1002
{
1070
     2
1000
-2001160
1002
}
  0
SPLINE
  5
AA
330
82
100
AcDbEntity
  8
P-SANR-FIXT
100
AcDbSpline
210
0.0
220
0.0
230
1.0
 70
     8
 71
     3
 72
    16
 73
    12
 74
     0
 42
0.000000001
 43
0.0000000001
 40
0.0
 40
0.0
 40
0.0
 40
0.0
 40
0.1666666666666666
 40
0.3333333333333333
 40
0.4166666666666666
 40
0.5
 40
0.5833333333333333
 40
0.6666666666666666
 40
0.75
 40
0.8333333333333332
 40
1.0
 40
1.0
 40
1.0
 40
1.0
 10
1.211055258804788
 20
-0.699203079675038
 30
0.0
 10
1.211045583393838
 20
-0.6992086657761548
 30
0.0
 10
1.20991038054936
 20
-0.6985377070979319
 30
0.0
 10
1.205697224843172
 20
-0.6961076882945783
 30
0.0
 10
1.20083250615445
 20
-0.693305318296842
 30
0.0
 10
1.196513457569094
 20
-0.6908053791489597
 30
0.0
 10
1.191577250753868
 20
-0.6879610495398162
 30
0.0
 10
1.186127524549771
 20
-0.6848101638807515
 30
0.0
 10
1.18024420387578
 20
-0.6814142326089591
 30
0.0
 10
1.171953210024747
 20
-0.676638783599313
 30
0.0
 10
1.165467237788155
 20
-0.6728266405291664
 30
0.0
 10
1.161055258804788
 20
-0.6703355662155559
 30
0.0
1001
REVIT
1002
{
1070
     2
1000
-2001160
1002
}
  0
SPLINE
  5
AB
330
82
100
AcDbEntity
  8
P-SANR-FIXT
100
AcDbSpline
210
0.0
220
0.0
230
1.0
 70
     8
 71
     3
 72
    16
 73
    12
 74
     0
 42
0.000000001
 43
0.0000000001
 40
-1.0
 40
-1.0
 40
-1.0
 40
-1.0
 40
-0.8333333333333333
 40
-0.75
 40
-0.6666666666666666
 40
-0.5833333333333333
 40
-0.5
 40
-0.4166666666666666
 40
-0.3333333333333333
 40
-0.1666666666666666
 40
0.0
 40
0.0
 40
0.0
 40
0.0
 10
1.161055258804797
 20
0.6703355662135479
 30
0.0
 10
1.165418581934783
 20
0.6729109149373024
 30
0.0
 10
1.171962980794685
 20
0.6766218601273565
 30
0.0
 10
1.180244137877034
 20
0.6814143469201495
 30
0.0
 10
1.186126760964907
 20
0.6848114864465388
 30
0.0
 10
1.191580371092126
 20
0.6879556449534253
 30
0.0
 10
1.196511736197994
 20
0.690808360649173
 30
0.0
 10
1.200836271300652
 20
0.6932987968703282
 30
0.0
 10
1.205695554253856
 20
0.6961105818381589
 30
0.0
 10
1.209906590122328
 20
0.6985442723081407
 30
0.0
 10
1.211055258804798
 20
0.6991919074707953
 30
0.0
 10
1.211055258804798
 20
0.6992030796730289
 30
0.0
1001
REVIT
1002
{
1070
     2
1000
-2001160
1002
}
  0
ENDBLK
  5
84
330
82
100
AcDbEntity
  8
0
100
AcDbBlockEnd
  0
BLOCK
  5
BD
330
BC
100
AcDbEntity
  8
0
100
AcDbBlockBegin
  2
FamilyGeomCombination_15519-Left
 70
     0
 10
0.0
 20
0.0
 30
0.0
  3
FamilyGeomCombination_15519-Left
  1

  0
LINE
  5
BE
330
BC
100
AcDbEntity
  8
P-SANR-FIXT
100
AcDbLine
 10
-0.7458021851497775
 20
4.406250000000027
 30
0.0
 11
-0.7458021851498202
 21
1.337255807475983
 31
0.0
1001
REVIT
1002
{
1070
     2
1000
-2001160
1002
}
  0
LINE
  5
BF
330
BC
100
AcDbEntity
  8
P-SANR-FIXT
100
AcDbLine
 10
0.7458021851505023
 20
1.337255807475962
 30
0.0
 11
0.7458021851505449
 21
4.406249999999992
 31
0.0
1001
REVIT
1002
{
1070
     2
1000
-2001160
1002
}
  0
LWPOLYLINE
  5
C0
330
BC
100
AcDbEntity
  8
P-SANR-FIXT
100
AcDbPolyline
 90
       12
 70
   128
 43
0.0
 10
0.7458021851504597
 20
1.337255807475962
 10
0.7472184254403657
 20
1.266453234835629
 10
0.7514648806276369
 20
1.195763931207776
 10
0.7585347572899152
 20
1.125300984398628
 10
0.7684167451326544
 20
1.055177120091788
 10
0.781095035083382
 20
0.9855045215111854
 10
0.7965493445827007
 20
0.916394649951853
 10
0.8147549500322098
 20
0.8479580664656335
 10
0.8356827263467819
 20
0.7803042549870813
 10
0.8592991935486933
 20
0.7135414471825147
 10
0.8855665703283433
 20
0.6477764493024511
 10
0.8930988504064883
 20
0.6302254590867599
1001
REVIT
1002
{
1070
     2
1000
-2001160
1002
}
  0
LWPOLYLINE
  5
C1
330
BC
100
AcDbEntity
  8
P-SANR-FIXT
100
AcDbPolyline
 90
       12
 70
   128
 43
0.0
 10
-0.8930988504058062
 20
0.6302254590867852
 10
-0.8661235961924729
 20
0.6957032850217812
 10
-0.8417883339684236
 20
0.7622074581354665
 10
-0.8201319949619685
 20
0.8296315859376564
 10
-0.8011892246957613
 20
0.8978678042069166
 10
-0.7849903275613314
 20
0.9668069495502992
 10
-0.7715612183384621
 20
1.036338734041488
 10
-0.7609233807372604
 20
1.106351921657954
 10
-0.7530938330285295
 20
1.17673450623486
 10
-0.748085100818443
 20
1.247373890651034
 10
-0.7459051970100247
 20
1.31815706696034
 10
-0.7458021851497989
 20
1.337255807475983
1001
REVIT
1002
{
1070
     2
1000
-2001160
1002
}
  0
LWPOLYLINE
  5
C2
330
BC
100
AcDbEntity
  8
P-SANR-FIXT
100
AcDbPolyline
 90
       30
 70
   128
 43
0.0
 10
0.8930988504064883
 20
0.6302254590867613
 10
0.8978267551286974
 20
0.6199378810299092
 10
0.9029622714283147
 20
0.6098475977001607
 10
0.9084971835747166
 20
0.5999707513983598
 10
0.9144226368892914
 20
0.5903231429716453
 10
0.9207291519106631
 20
0.5809202065354508
 10
0.9274066395601606
 20
0.5717769847822227
 10
0.9344444172820159
 20
0.5629081049163153
 10
0.9418312261331605
 20
0.5543277552535883
 10
0.9495552487952279
 20
0.546049662523123
 10
0.9576041284796231
 20
0.5380870699073914
 10
0.9659649886959014
 20
0.5304527158559819
 10
0.974624453851227
 20
0.5231588137068023
 10
0.9835686706486368
 20
0.5162170321473409
 10
0.992783330249196
 20
0.5096384765472588
 10
1.002253691163317
 20
0.5034336711921643
 10
1.011964602833714
 20
0.4976125424470074
 10
1.021900529873285
 20
0.4921844028760027
 10
1.032045576918328
 20
0.4871579363445235
 10
1.04238351405771
 20
0.482541184126767
 10
1.05289780279736
 20
0.4783415320414219
 10
1.063571622518139
 20
0.4745656986359518
 10
1.074387897385541
 20
0.4712197244383347
 10
1.085329323667082
 20
0.4683089622935163
 10
1.096378397414752
 20
0.465838068800001
 10
1.107517442467624
 20
0.4638109968602805
 10
1.118728638729727
 20
0.4622309893570428
 10
1.129994050678703
 20
0.4611005739652385
 10
1.141295656058566
 20
0.4604215591083531
 10
1.152615374711593
 20
0.4601950310653122
1001
REVIT
1002
{
1070
     2
1000
-2001160
1002
}
  0
LWPOLYLINE
  5
C3
330
BC
100
AcDbEntity
  8
P-SANR-FIXT
100
AcDbPolyline
 90
       30
 70
   128
 43
0.0
 10
-1.152617961346841
 20
0.4601950310535256
 10
-1.141298240624322
 20
0.4604214556587296
 10
-1.129996629040185
 20
0.4611003672432723
 10
-1.118731206762127
 20
0.4622306796934454
 10
-1.107519996062613
 20
0.463810584750449
 10
-1.096380932487171
 20
0.4658375549032225
 10
-1.085331836161294
 20
0.468308347431916
 10
-1.074390383282128
 20
0.471219009595559
 10
-1.063574077840207
 20
0.4745648849555981
 10
-1.052900223616852
 20
0.4783406208252061
 10
-1.042385896501904
 20
0.4825401768324404
 10
-1.032047917175787
 20
0.4871568345835424
 10
-1.021902824200125
 20
0.4921832084109478
 10
-1.011966847559463
 20
0.4976112571887689
 10
-1.002255882696885
 20
0.5034322971968814
 10
-0.9927854650846297
 20
0.5096370160130305
 10
-0.9835707453705991
 20
0.5162154874107116
 10
-0.9746264651406447
 20
0.5231571872390206
 10
-0.9659669333351457
 20
0.5304510102590502
 10
-0.9576060033577105
 20
0.5380852879098991
 10
-0.9495570509126805
 20
0.5460478069758871
 10
-0.9418329526070364
 20
0.5543258291250876
 10
-0.9344460653503004
 20
0.5629061112879463
 10
-0.9274082065863067
 20
0.5717749268433633
 10
-0.9207306353877269
 20
0.5809180875783663
 10
-0.9144240344440246
 20
0.5903209663862134
 10
-0.9084984929713824
 20
0.5999685206666551
 10
-0.9029634905720767
 20
0.6098453163908752
 10
-0.8978278820692649
 20
0.6199355527926555
 10
-0.8930998833409516
 20
0.6302230876462173
1001
REVIT
1002
{
1070
     2
1000
-2001160
1002
}
  0
LWPOLYLINE
  5
C4
330
BC
100
AcDbEntity
  8
P-SANR-FIXT
100
AcDbPolyline
 90
       80
 70
   128
 43
0.0
 10
1.406250000002962
 20
0.2290877180930666
 10
1.405125149994965
 20
0.2290877180930666
 10
1.401752399491037
 20
0.2290877180930679
 10
1.396137144172456
 20
0.2290877180930679
 10
1.38828836724992
 20
0.2290877180930692
 10
1.378218625092152
 20
0.2290877180930692
 10
1.365944027138567
 20
0.2290877180930692
 10
1.351484210127374
 20
0.2290877180930706
 10
1.334862306681259
 20
0.2290877180930706
 10
1.316104908299891
 20
0.2290877180930732
 10
1.295242022819316
 20
0.2290877180930732
 10
1.27230702640579
 20
0.2290877180930745
 10
1.247336610161056
 20
0.2290877180930745
 10
1.220370721424309
 20
0.2290877180930759
 10
1.191452499865199
 20
0.2290877180930759
 10
1.160628208469233
 20
0.2290877180930772
 10
1.127947159527238
 20
0.2290877180930799
 10
1.093461635745867
 20
0.2290877180930799
 10
1.057226806606692
 20
0.2290877180930812
 10
1.019300640106642
 20
0.2290877180930812
 10
0.9797438100216096
 20
0.2290877180930825
 10
0.9386195988414341
 20
0.2290877180930825
 10
0.8959937965312503
 20
0.2290877180930839
 10
0.8519345952818111
 20
0.2290877180930865
 10
0.806512480416252
 20
0.2290877180930865
 10
0.7598001176288349
 20
0.2290877180930879
 10
0.7118722367352603
 20
0.2290877180930879
 10
0.662805512120876
 20
0.2290877180930892
 10
0.6126784400781133
 20
0.2290877180930892
 10
0.5615712132289658
 20
0.2290877180930905
 10
0.509565592234118
 20
0.2290877180930932
 10
0.4567447749932114
 20
0.2290877180930932
 10
0.4031932635460222
 20
0.2290877180930945
 10
0.3489967288871369
 20
0.2290877180930945
 10
0.2942418739106784
 20
0.2290877180930959
 10
0.2390162947042355
 20
0.2290877180930959
 10
0.1834083404136848
 20
0.2290877180930972
 10
0.1275069719035144
 20
0.2290877180930972
 10
0.0714016194383049
 20
0.2290877180930999
 10
0.0151820396135563
 20
0.2290877180930999
 10
-0.0410618282359465
 20
0.2290877180931012
 10
-0.0972400059196303
 20
0.2290877180931012
 10
-0.1532626203373013
 20
0.2290877180931025
 10
-0.2090400472566784
 20
0.2290877180931025
 10
-0.2644830546932936
 20
0.2290877180931025
 10
-0.3195029456624141
 20
0.2290877180931039
 10
-0.3740117000755205
 20
0.2290877180931039
 10
-0.4279221155533647
 20
0.2290877180931065
 10
-0.4811479469315287
 20
0.2290877180931065
 10
-0.5336040442340035
 20
0.2290877180931065
 10
-0.5852064888951886
 20
0.2290877180931065
 10
-0.6358727280115203
 20
0.2290877180931079
 10
-0.6855217064086502
 20
0.2290877180931079
 10
-0.7340739963123539
 20
0.2290877180931079
 10
-0.781451924416082
 20
0.2290877180931079
 10
-0.827579696141562
 20
0.2290877180931092
 10
-0.8723835168941461
 20
0.2290877180931092
 10
-0.9157917101182418
 20
0.2290877180931092
 10
-0.9577348319646715
 20
0.2290877180931092
 10
-0.9981457823858049
 20
0.2290877180931092
 10
-1.036959912481499
 20
0.2290877180931092
 10
-1.074115127923569
 20
0.2290877180931092
 10
-1.109551988293283
 20
0.2290877180931092
 10
-1.143213802173533
 20
0.2290877180931092
 10
-1.175046717842924
 20
0.2290877180931092
 10
-1.204999809427036
 20
0.2290877180931092
 10
-1.233025158368959
 20
0.2290877180931092
 10
-1.259077930088828
 20
0.2290877180931092
 10
-1.283116445709545
 20
0.2290877180931092
 10
-1.305102248734008
 20
0.2290877180931092
 10
-1.325000166567484
 20
0.2290877180931092
 10
-1.342778366786042
 20
0.2290877180931079
 10
-1.358408408061883
 20
0.2290877180931079
 10
-1.371865285663154
 20
0.2290877180931079
 10
-1.38312747145634
 20
0.2290877180931079
 10
-1.392176948346658
 20
0.2290877180931079
 10
-1.398999239101556
 20
0.2290877180931065
 10
-1.403583429511122
 20
0.2290877180931065
 10
-1.405922185848623
 20
0.2290877180931065
 10
-1.406250000002323
 20
0.2290877180931039
1001
REVIT
1002
{
1070
     2
1000
-2001160
1002
}
  0
LWPOLYLINE
  5
C5
330
BC
100
AcDbEntity
  8
P-SANR-FIXT
100
AcDbPolyline
 90
       41
 70
   128
 43
0.0
 10
1.406250000002962
 20
0.2290877180930666
 10
1.408749333389635
 20
0.2290377247593777
 10
1.411244668376042
 20
0.2288878247369789
 10
1.413732012958526
 20
0.2286382578339329
 10
1.416207387916358
 20
0.2282894233040431
 10
1.418666833177652
 20
0.2278418792081442
 10
1.421106414154671
 20
0.2272963415213169
 10
1.423522228038222
 20
0.226653682987489
 10
1.425910410041481
 20
0.2259149317232189
 10
1.428267139582665
 20
0.2250812695729358
 10
1.430588646397268
 20
0.2241540302182474
 10
1.432871216569587
 20
0.2231346970443137
 10
1.435111198474295
 20
0.222024900766772
 10
1.43730500861821
 20
0.2208264168229194
 10
1.43944913737301
 20
0.2195411625314052
 10
1.441540154590157
 20
0.2181711940249213
 10
1.443574715088111
 20
0.2167187029608341
 10
1.445549564004103
 20
0.2151860130149993
 10
1.447461542001192
 20
0.2135755761643718
 10
1.449307590322376
 20
0.2118899687643724
 10
1.45108475568417
 20
0.2101318874272628
 10
1.452790195001149
 20
0.2083041447081477
 10
1.454421179934158
 20
0.2064096646054771
 10
1.455975101255248
 20
0.2044514778832828
 10
1.457449473021789
 20
0.2024327172225941
 10
1.458841936553468
 20
0.2003566122098252
 10
1.460150264205679
 20
0.1982264841701151
 10
1.46137236293326
 20
0.1960457408539242
 10
1.462506277638986
 20
0.1938178709853608
 10
1.463550194301198
 20
0.1915464386809575
 10
1.464502442875911
 20
0.1892350777478588
 10
1.465361499968572
 20
0.1868874858704887
 10
1.466125991271048
 20
0.1845074186950639
 10
1.466794693760355
 20
0.1820986838213398
 10
1.467366537655173
 20
0.1796651347112807
 10
1.467840608127246
 20
0.1772106645243321
 10
1.468216146764959
 20
0.1747391998892014
 10
1.468492552786571
 20
0.1722546946220844
 10
1.468669384001436
 20
0.1697611234014142
 10
1.46874635751736
 20
0.1672624754092075
 10
1.468750000002969
 20
0.1665877180930635
1001
REVIT
1002
{
1070
     2
1000
-2001160
1002
}
  0
LWPOLYLINE
  5
C6
330
BC
100
AcDbEntity
  8
P-SANR-FIXT
100
AcDbPolyline
 90
       41
 70
   128
 43
0.0
 10
-1.46875000000233
 20
0.1665877180931034
 10
-1.468700006668633
 20
0.1690870514797686
 10
-1.468550106646233
 20
0.1715823864661776
 10
-1.468300539743175
 20
0.1740697310486614
 10
-1.467951705213316
 20
0.1765451060064951
 10
-1.46750416111741
 20
0.1790045512677949
 10
-1.466958623430578
 20
0.1814441322447999
 10
-1.466315964896743
 20
0.183859946128361
 10
-1.465577213632464
 20
0.1862481281316115
 10
-1.464743551482186
 20
0.1886048576727965
 10
-1.463816312127491
 20
0.1909263644873955
 10
-1.462796978953569
 20
0.1932089346597281
 10
-1.461687182676037
 20
0.1954489165644468
 10
-1.460488698732184
 20
0.1976427267083376
 10
-1.459203444440646
 20
0.199786855463159
 10
-1.457833475934179
 20
0.2018778726802938
 10
-1.456380984870072
 20
0.2039124331782544
 10
-1.454848294924253
 20
0.2058872820942587
 10
-1.453237858073627
 20
0.2077992600913201
 10
-1.451552250673642
 20
0.2096453084125147
 10
-1.449794169336513
 20
0.2114224737743235
 10
-1.447966426617398
 20
0.2131279130912835
 10
-1.446071946514727
 20
0.2147588980242893
 10
-1.444113759792536
 20
0.216312819345378
 10
-1.44209499913186
 20
0.2177871911119164
 10
-1.440018894119091
 20
0.2191796546435988
 10
-1.437888766079374
 20
0.2204879822958125
 10
-1.435708022763165
 20
0.2217100810234136
 10
-1.433480152894609
 20
0.2228439957291366
 10
-1.43120872059022
 20
0.2238879123913393
 10
-1.428897359657106
 20
0.2248401609660573
 10
-1.426549767779753
 20
0.2256992180587014
 10
-1.424169700604302
 20
0.2264637093611816
 10
-1.421760965730598
 20
0.2271324118504951
 10
-1.419327416620532
 20
0.2277042557453117
 10
-1.416872946433585
 20
0.2281783262173835
 10
-1.414401481798442
 20
0.2285538648550851
 10
-1.411916976531344
 20
0.2288302708767067
 10
-1.409423405310668
 20
0.2290071020915789
 10
-1.406924757318456
 20
0.2290840756074774
 10
-1.406250000002323
 20
0.2290877180931039
1001
REVIT
1002
{
1070
     2
1000
-2001160
1002
}
  0
LWPOLYLINE
  5
C7
330
BC
100
AcDbEntity
  8
P-SANR-FIXT
100
AcDbPolyline
 90
        9
 70
   128
 43
0.0
 10
-1.406250000002323
 20
0.2290877180931039
 10
-1.405125149994304
 20
0.2290877180931039
 10
-1.401752399490355
 20
0.2290877180931039
 10
-1.396137144171795
 20
0.2290877180931025
 10
-1.388288367249259
 20
0.2290877180931025
 10
-1.378218625091512
 20
0.2290877180931012
 10
-1.365944027137906
 20
0.2290877180931012
 10
-1.351484210126734
 20
0.2290877180931012
 10
-1.342009344272682
 20
0.2290877180930999
1001
REVIT
1002
{
1070
     2
1000
-2001160
1002
}
  0
LWPOLYLINE
  5
C8
330
BC
100
AcDbEntity
  8
P-SANR-FIXT
100
AcDbPolyline
 90
        9
 70
   128
 43
0.0
 10
1.342778366786681
 20
0.2290877180930626
 10
1.358408408062544
 20
0.2290877180930626
 10
1.371865285663815
 20
0.2290877180930626
 10
1.383127471457001
 20
0.2290877180930639
 10
1.392176948347319
 20
0.2290877180930639
 10
1.398999239102195
 20
0.2290877180930639
 10
1.403583429511762
 20
0.2290877180930666
 10
1.405922185849263
 20
0.2290877180930666
 10
1.406250000002962
 20
0.2290877180930666
1001
REVIT
1002
{
1070
     2
1000
-2001160
1002
}
  0
LINE
  5
C9
330
BC
100
AcDbEntity
  8
P-SANR-FIXT
100
AcDbLine
 10
-1.468750000002309
 20
0.1665877180931034
 30
0.0
 11
-1.468750000002309
 21
-0.0000000000000293
 31
0.0
1001
REVIT
1002
{
1070
     2
1000
-2001160
1002
}
  0
LINE
  5
CA
330
BC
100
AcDbEntity
  8
P-SANR-FIXT
100
AcDbLine
 10
1.468750000002948
 20
-0.0000000000000693
 30
0.0
 11
1.468750000002948
 21
0.1665877180930635
 31
0.0
1001
REVIT
1002
{
1070
     2
1000
-2001160
1002
}
  0
LWPOLYLINE
  5
CB
330
BC
100
AcDbEntity
  8
P-SANR-FIXT
100
AcDbPolyline
 90
        4
 70
   128
 43
0.0
 10
0.7458021851503531
 20
4.406249999999992
 10
0.9327875052791936
 20
4.787854750973184
 10
1.254507798312303
 20
4.99383043795077
 10
1.593750000000212
 20
4.999999999999969
1001
REVIT
1002
{
1070
     2
1000
-2001160
1002
}
  0
LWPOLYLINE
  5
CC
330
BC
100
AcDbEntity
  8
P-SANR-FIXT
100
AcDbPolyline
 90
        3
 70
   128
 43
0.0
 10
-0.3844273322726508
 20
5.836101099280272
 10
-0.6803519654215861
 20
5.142079707478343
 10
-0.7458021851499481
 20
4.406250000000032
1001
REVIT
1002
{
1070
     2
1000
-2001160
1002
}
  0
LWPOLYLINE
  5
CD
330
BC
100
AcDbEntity
  8
P-SANR-FIXT
100
AcDbPolyline
 90
        3
 70
   128
 43
0.0
 10
1.593750000000212
 20
6.999999999999971
 10
0.811911046686667
 20
6.826260070221984
 10
0.1353792737799821
 20
6.427697761595661
1001
REVIT
1002
{
1070
     2
1000
-2001160
1002
}
  0
LWPOLYLINE
  5
CE
330
BC
100
AcDbEntity
  8
P-SANR-FIXT
100
AcDbPolyline
 90
        3
 70
   128
 43
0.0
 10
0.1353792737799821
 20
6.427697761595661
 10
0.811911046686667
 20
6.826260070221984
 10
1.593750000000212
 20
6.999999999999971
1001
REVIT
1002
{
1070
     2
1000
-2001160
1002
}
  0
LWPOLYLINE
  5
CF
330
BC
100
AcDbEntity
  8
P-SANR-FIXT
100
AcDbPolyline
 90
        3
 70
   128
 43
0.0
 10
-0.7458021851499481
 20
4.406250000000032
 10
-0.6803519654215861
 20
5.142079707478343
 10
-0.3844273322726508
 20
5.836101099280273
1001
REVIT
1002
{
1070
     2
1000
-2001160
1002
}
  0
LWPOLYLINE
  5
D0
330
BC
100
AcDbEntity
  8
P-SANR-FIXT
100
AcDbPolyline
 90
        4
 70
   128
 43
0.0
 10
1.593750000000212
 20
4.999999999999969
 10
1.254507798312303
 20
4.99383043795077
 10
0.9327875052791936
 20
4.787854750973184
 10
0.7458021851503531
 20
4.406249999999992
1001
REVIT
1002
{
1070
     2
1000
-2001160
1002
}
  0
LINE
  5
D1
330
BC
100
AcDbEntity
  8
P-SANR-FIXT
100
AcDbLine
 10
-0.6703355662135663
 20
0.4601950373089791
 30
0.0
 11
-1.340671132428134
 21
0.4601950373089791
 31
0.0
1001
REVIT
1002
{
1070
     2
1000
-2001160
1002
}
  0
LINE
  5
D2
330
BC
100
AcDbEntity
  8
P-SANR-FIXT
100
AcDbLine
 10
0.6703355662155487
 20
0.4601950373089791
 30
0.0
 11
-0.6703355662135663
 21
0.4601950373089791
 31
0.0
1001
REVIT
1002
{
1070
     2
1000
-2001160
1002
}
  0
LINE
  5
D3
330
BC
100
AcDbEntity
  8
P-SANR-FIXT
100
AcDbLine
 10
1.340671132430095
 20
0.4601950373089791
 30
0.0
 11
0.6703355662155487
 21
0.4601950373089791
 31
0.0
1001
REVIT
1002
{
1070
     2
1000
-2001160
1002
}
  0
LWPOLYLINE
  5
D4
330
BC
100
AcDbEntity
  8
P-SANR-FIXT
100
AcDbPolyline
 90
        7
 70
   128
 43
0.0
 10
-1.312189291750108
 20
6.131899430437963
 10
-1.31050121822264
 20
6.216291852687893
 10
-1.305439698197772
 20
6.300549265064979
 10
-1.297012829027799
 20
6.384536873683376
 10
-1.285234091905756
 20
6.468120316285692
 10
-1.27012233029842
 20
6.551165877193949
 10
-1.254886192611365
 20
6.620344118301917
1001
REVIT
1002
{
1070
     2
1000
-2001160
1002
}
  0
LWPOLYLINE
  5
D5
330
BC
100
AcDbEntity
  8
P-SANR-FIXT
100
AcDbPolyline
 90
        7
 70
   128
 43
0.0
 10
-1.254886192611365
 20
5.643454742574006
 10
-1.272776533305858
 20
5.725946355694849
 10
-1.287353778951334
 20
5.809087407136577
 10
-1.298594609064394
 20
5.892744888952696
 10
-1.306481040714736
 20
5.976784967018277
 10
-1.31100045729412
 20
6.061073195136007
 10
-1.312189291750108
 20
6.13189943043796
1001
REVIT
1002
{
1070
     2
1000
-2001160
1002
}
  0
LWPOLYLINE
  5
D6
330
BC
100
AcDbEntity
  8
P-SANR-FIXT
100
AcDbPolyline
 90
       49
 70
   128
 43
0.0
 10
-1.254886192611365
 20
6.620344118301917
 10
-1.254651486318223
 20
6.621249812141779
 10
-1.254380749671426
 20
6.622145395774777
 10
-1.254074415791904
 20
6.623029436458149
 10
-1.253732974748487
 20
6.623900519915385
 10
-1.253356972774014
 20
6.624757252598776
 10
-1.252947011391412
 20
6.62559826391879
 10
-1.25250374645148
 20
6.626422208436715
 10
-1.252027887083528
 20
6.627227768017093
 10
-1.251520194561073
 20
6.628013653936439
 10
-1.25098148108379
 20
6.628778608944927
 10
-1.250412608478363
 20
6.629521409277727
 10
-1.249814486819623
 20
6.630240866612759
 10
-1.249188072974582
 20
6.630935829971766
 10
-1.248534369071819
 20
6.631605187561624
 10
-1.247854420898086
 20
6.632247868552977
 10
-1.247149316225431
 20
6.632862844793335
 10
-1.246420183070938
 20
6.633449132451904
 10
-1.245668187892043
 20
6.634005793593499
 10
-1.244894533720703
 20
6.634531937679039
 10
-1.244100458238491
 20
6.635026722990228
 10
-1.243287231796806
 20
6.635489357976114
 10
-1.242456155384509
 20
6.63591910251941
 10
-1.241608558546523
 20
6.636315269120523
 10
-1.240745797256998
 20
6.636677223997401
 10
-1.239869251749929
 20
6.637004388099454
 10
-1.238980324311199
 20
6.637296238033909
 10
-1.238080437035016
 20
6.637552306903131
 10
-1.237171029549102
 20
6.63777218505155
 10
-1.23625355671141
 20
6.637955520721037
 10
-1.235329486282765
 20
6.638102020613632
 10
-1.234400296578747
 20
6.638211450360754
 10
-1.233467474104678
 20
6.638283634898155
 10
-1.23253251117746
 20
6.638318458745971
 10
-1.231596903538416
 20
6.638315866193477
 10
-1.23066214796011
 20
6.638275861388202
 10
-1.229729739852096
 20
6.6381985083293
 10
-1.22880117086845
 20
6.638083930765165
 10
-1.22787792652145
 20
6.63793231199546
 10
-1.226961483805112
 20
6.637743894577868
 10
-1.226053308832255
 20
6.637518979940067
 10
-1.225154854489119
 20
6.637257927897498
 10
-1.22426755811103
 20
6.63696115607774
 10
-1.223392839182849
 20
6.636629139252397
 10
-1.222532097068316
 20
6.636262408577564
 10
-1.22168670877118
 20
6.635861550744087
 10
-1.220858026732372
 20
6.63542720703899
 10
-1.220047376666385
 20
6.634960072319545
 10
-1.219267613791508
 20
6.634468507523637
1001
REVIT
1002
{
1070
     2
1000
-2001160
1002
}
  0
LWPOLYLINE
  5
D7
330
BC
100
AcDbEntity
  8
P-SANR-FIXT
100
AcDbPolyline
 90
       49
 70
   128
 43
0.0
 10
-1.219267613791508
 20
5.629330353352287
 10
-1.220059230235733
 20
5.628831643235248
 10
-1.22087015655677
 20
5.628364988247644
 10
-1.221699095445479
 20
5.627931134937909
 10
-1.222544720776518
 20
5.627530777378787
 10
-1.223405679729694
 20
5.627164556056968
 10
-1.224280594954357
 20
5.626833056848447
 10
-1.22516806677278
 20
5.626536810081237
 10
-1.226066675419388
 20
5.626276289686972
 10
-1.226974983312054
 20
5.626051912442709
 10
-1.227891537351886
 20
5.62586403730417
 10
-1.228814871247948
 20
5.625712964831504
 10
-1.229743507862955
 20
5.625598936708437
 10
-1.23067596157643
 20
5.625522135355641
 10
-1.231610740661394
 20
5.6254826836389
 10
-1.23254634967067
 20
5.62548064467254
 10
-1.233481291829413
 20
5.625516021718478
 10
-1.234414071429661
 20
5.625588758180984
 10
-1.23534319622302
 20
5.625698737697233
 10
-1.236267179807981
 20
5.625845784323463
 10
-1.237184544007966
 20
5.626029662816439
 10
-1.238093821235942
 20
5.626250079009797
 10
-1.238993556842302
 20
5.626506680284649
 10
-1.23988231144203
 20
5.626799056133691
 10
-1.240758663217306
 20
5.627126738817938
 10
-1.241621210192249
 20
5.627489204114994
 10
-1.242468572475779
 20
5.627885872157708
 10
-1.243299394468891
 20
5.628316108361828
 10
-1.244112347033698
 20
5.628779224441208
 10
-1.244906129619493
 20
5.629274479508912
 10
-1.245679472343496
 20
5.629801081262482
 10
-1.246431138022273
 20
5.630358187251446
 10
-1.247159924151105
 20
5.630944906225066
 10
-1.247864664827673
 20
5.631560299558145
 10
-1.248544232617234
 20
5.632203382752626
 10
-1.249197540356234
 20
5.632873127012582
 10
-1.249823542891718
 20
5.633568460890066
 10
-1.25042123875314
 20
5.634288271999207
 10
-1.250989671754609
 20
5.635031408795781
 10
-1.251527932524645
 20
5.63579668241944
 10
-1.252035159960761
 20
5.636582868595638
 10
-1.25251054260731
 20
5.637388709594202
 10
-1.252953319953448
 20
5.638212916241437
 10
-1.25336278364989
 20
5.63905416998253
 10
-1.253738278642025
 20
5.639911124990955
 10
-1.254079204218051
 20
5.640782410321502
 10
-1.254385014969706
 20
5.641666632103508
 10
-1.254655221665018
 20
5.642562375770748
 10
-1.254886192611365
 20
5.643454742574006
1001
REVIT
1002
{
1070
     2
1000
-2001160
1002
}
  0
LWPOLYLINE
  5
D8
330
BC
100
AcDbEntity
  8
P-SANR-FIXT
100
AcDbPolyline
 90
       11
 70
   128
 43
0.0
 10
-1.219267613791508
 20
6.634468507523641
 10
-1.182693148791031
 20
6.611426975410209
 10
-1.145226523933608
 20
6.589866462568435
 10
-1.106927677826597
 20
6.56982146121954
 10
-1.06785788045375
 20
6.55132403908964
 10
-1.028079635156408
 20
6.534403788108237
 10
-0.9876565786415268
 20
6.519087777067441
 10
-0.9466533791763891
 20
6.505400508317676
 10
-0.9051356331332554
 20
6.493363878569147
 10
-0.8631697600491106
 20
6.482997143861773
 10
-0.8262719358215589
 20
6.475335176678621
1001
REVIT
1002
{
1070
     2
1000
-2001160
1002
}
  0
LWPOLYLINE
  5
D9
330
BC
100
AcDbEntity
  8
P-SANR-FIXT
100
AcDbPolyline
 90
       11
 70
   128
 43
0.0
 10
-0.8262719358215589
 20
5.788463684197306
 10
-0.8685737201957193
 20
5.779566340157214
 10
-0.9104858687901538
 20
5.768984492851323
 10
-0.951941331107889
 20
5.756735070977986
 10
-0.9928737872525131
 20
5.742837670999128
 10
-1.033217754026089
 20
5.727314525790093
 10
-1.072908689687963
 20
5.710190469071789
 10
-1.111883097208035
 20
5.691492895682028
 10
-1.150078625848401
 20
5.671251717749631
 10
-1.187434170911138
 20
5.649499316841402
 10
-1.219267613791508
 20
5.629330353352284
1001
REVIT
1002
{
1070
     2
1000
-2001160
1002
}
  0
LWPOLYLINE
  5
DA
330
BC
100
AcDbEntity
  8
P-SANR-FIXT
100
AcDbPolyline
 90
       19
 70
   128
 43
0.0
 10
-0.8262719358215589
 20
6.475335176678621
 10
-0.8234623944184702
 20
6.474744245188904
 10
-0.8206787313057189
 20
6.474041434691272
 10
-0.8179253997503506
 20
6.473227869532594
 10
-0.8152068044956235
 20
6.472304851243577
 10
-0.8125272947139093
 20
6.47127385645658
 10
-0.8098911570493141
 20
6.470136534543326
 10
-0.807302608759741
 20
6.468894704976265
 10
-0.8047657909702648
 20
6.467550354417793
 10
-0.8022847620482023
 20
6.466105633542026
 10
-0.7998634911105568
 20
6.464562853594171
 10
-0.7975058516742805
 20
6.46292448269304
 10
-0.795215615459611
 20
6.461193141882568
 10
-0.7929964463558789
 20
6.459371600938724
 10
-0.7908518945602764
 20
6.457462773938443
 10
-0.7887853908981981
 20
6.45546971459773
 10
-0.7868002413346601
 20
6.453395611386365
 10
-0.7848996216854544
 20
6.451243782427036
 10
-0.7833347253811382
 20
6.449333296147655
1001
REVIT
1002
{
1070
     2
1000
-2001160
1002
}
  0
LWPOLYLINE
  5
DB
330
BC
100
AcDbEntity
  8
P-SANR-FIXT
100
AcDbPolyline
 90
       19
 70
   128
 43
0.0
 10
-0.7833347253811382
 20
5.814465564728275
 10
-0.7851601977061406
 20
5.812249628422416
 10
-0.7870728236655111
 20
5.810108464052103
 10
-0.7890695434656365
 20
5.808045497023568
 10
-0.7911471627807955
 20
5.806064027643984
 10
-0.7933023578633324
 20
5.804167225841665
 10
-0.795531680860833
 20
5.802358126094866
 10
-0.7978315653320748
 20
5.80063962257726
 10
-0.8001983319525221
 20
5.799014464527882
 10
-0.8026281944004123
 20
5.797485251852929
 10
-0.8051172654142673
 20
5.796054430966466
 10
-0.8076615630113648
 20
5.794724290876686
 10
-0.8102570168583438
 20
5.793496959523985
 10
-0.8128994747826679
 20
5.79237440037671
 10
-0.8155847094153967
 20
5.791358409290029
 10
-0.8183084249539261
 20
5.790450611632949
 10
-0.8210662640344422
 20
5.789652459688068
 10
-0.823853814702687
 20
5.788965230328235
 10
-0.8262719358215589
 20
5.788463684197306
1001
REVIT
1002
{
1070
     2
1000
-2001160
1002
}
  0
LWPOLYLINE
  5
DC
330
BC
100
AcDbEntity
  8
P-SANR-FIXT
100
AcDbPolyline
 90
       24
 70
   128
 43
0.0
 10
-0.7833347253811382
 20
6.449333296147669
 10
-0.7818857578210582
 20
6.447574398037651
 10
-0.7803676121161871
 20
6.445874850106504
 10
-0.7787827169757477
 20
6.444237371268362
 10
-0.7771336078939015
 20
6.442664581140057
 10
-0.7754229230933447
 20
6.441158995850285
 10
-0.7736533993048766
 20
6.439723024014332
 10
-0.7718278673890992
 20
6.438358962880815
 10
-0.7699492478076024
 20
6.437068994656561
 10
-0.7680205459510105
 20
6.435855183015552
 10
-0.7660448473307965
 20
6.434719469797479
 10
-0.7640253126433478
 20
6.43366367190122
 10
-0.76196517271336
 20
6.432689478378182
 10
-0.7598677233251933
 20
6.431798447730187
 10
-0.7577363199504816
 20
6.430992005416195
 10
-0.7555743723799253
 20
6.430271441571878
 10
-0.7533853392684548
 20
6.42963790894567
 10
-0.7511727226020781
 20
6.429092421054631
 10
-0.7489400620954924
 20
6.428635850563021
 10
-0.7466909295292012
 20
6.428268927886231
 10
-0.7444289230354925
 20
6.427992240022268
 10
-0.7421576613422757
 20
6.427806229612696
 10
-0.7398807779837284
 20
6.427711194234484
 10
-0.7386436520007819
 20
6.427697761595674
1001
REVIT
1002
{
1070
     2
1000
-2001160
1002
}
  0
LWPOLYLINE
  5
DD
330
BC
100
AcDbEntity
  8
P-SANR-FIXT
100
AcDbPolyline
 90
       24
 70
   128
 43
0.0
 10
-0.7386436520007819
 20
5.836101099280256
 10
-0.7409220620904335
 20
5.83605552500173
 10
-0.7431968272099993
 20
5.835918875075276
 10
-0.7454643082205052
 20
5.835691368111626
 10
-0.7477208776360768
 20
5.83537336807339
 10
-0.7499629254269777
 20
5.834965383692791
 10
-0.7521868647950427
 20
5.834468067657809
 10
-0.7543891379117226
 20
5.833882215568008
 10
-0.7565662216097877
 20
5.83320876466176
 10
-0.7587146330197995
 20
5.832448792316851
 10
-0.760830935141719
 20
5.831603514326914
 10
-0.7629117423436539
 20
5.830674282956417
 10
-0.7649537257779428
 20
5.829662584777327
 10
-0.7669536187067294
 20
5.828570038290915
 10
-0.768908221727905
 20
5.827398391338493
 10
-0.7708144078936385
 20
5.826149518305247
 10
-0.7726691277126462
 20
5.82482541712162
 10
-0.7744694140289354
 20
5.823428206067043
 10
-0.7762123867683428
 20
5.821960120381151
 10
-0.7778952575464117
 20
5.820423508687863
 10
-0.7795153341288028
 20
5.818820829238097
 10
-0.7810700247386321
 20
5.817154645977086
 10
-0.7825568422025739
 20
5.815427624442614
 10
-0.7833347253811382
 20
5.81446556472826
1001
REVIT
1002
{
1070
     2
1000
-2001160
1002
}
  0
LINE
  5
DE
330
BC
100
AcDbEntity
  8
P-SANR-FIXT
100
AcDbLine
 10
-0.7386436520007819
 20
5.836101099280271
 30
0.0
 11
-0.3844273322726508
 21
5.836101099280273
 31
0.0
1001
REVIT
1002
{
1070
     2
1000
-2001160
1002
}
  0
LINE
  5
DF
330
BC
100
AcDbEntity
  8
P-SANR-FIXT
100
AcDbLine
 10
0.1353792737799821
 20
6.427697761595661
 30
0.0
 11
-0.7386436520007819
 21
6.427697761595656
 31
0.0
1001
REVIT
1002
{
1070
     2
1000
-2001160
1002
}
  0
LINE
  5
E0
330
BC
100
AcDbEntity
  8
P-SANR-FIXT
100
AcDbLine
 10
1.468750000002956
 20
-0.0000000000000699
 30
0.0
 11
-1.468750000002293
 21
-0.0000000000000292
 31
0.0
1001
REVIT
1002
{
1070
     2
1000
-2001160
1002
}
  0
SPLINE
  5
E1
330
BC
100
AcDbEntity
  8
P-SANR-FIXT
100
AcDbSpline
210
0.0
220
0.0
230
1.0
 70
     8
 71
     3
 72
    16
 73
    12
 74
     0
 42
0.000000001
 43
0.0000000001
 40
0.0
 40
0.0
 40
0.0
 40
0.0
 40
0.1111111111111111
 40
0.2222222222222222
 40
0.3333333333333333
 40
0.4444444444444445
 40
0.5555555555555556
 40
0.6666666666666666
 40
0.7777777777777778
 40
0.8888888888888889
 40
1.0
 40
1.0
 40
1.0
 40
1.0
 10
0.7458021851505505
 20
4.406249999999988
 30
0.0
 10
0.7458021851505505
 20
4.406250991226755
 30
0.0
 10
0.7151691046795726
 20
4.406273760809936
 30
0.0
 10
0.5828855672740362
 20
4.406394434278726
 30
0.0
 10
0.3802797989337408
 20
4.406529153726308
 30
0.0
 10
0.1318390869526
 20
4.406685209776938
 30
0.0
 10
-0.1324653427012666
 20
4.406772846029395
 30
0.0
 10
-0.3807684988616317
 20
4.406723116257034
 30
0.0
 10
-0.583150427145044
 20
4.406585535152286
 30
0.0
 10
-0.7152287780983499
 20
4.406318581970027
 30
0.0
 10
-0.7458021851497647
 20
4.406263948311792
 30
0.0
 10
-0.7458021851497651
 20
4.406250000000023
 30
0.0
1001
REVIT
1002
{
1070
     2
1000
-2001160
1002
}
  0
LWPOLYLINE
  5
E2
330
BC
100
AcDbEntity
  8
P-SANR-FIXT
100
AcDbPolyline
 90
       13
 70
   128
 43
0.0
 10
1.593750000000236
 20
6.999999999999966
 10
1.593750000000233
 20
6.96587509220673
 10
1.59375000000023
 20
6.865984700494114
 10
1.593750000000226
 20
6.707106781186523
 10
1.593750000000222
 20
6.499968954463002
 10
1.593750000000217
 20
6.258812216039633
 10
1.593750000000214
 20
5.99999999999998
 10
1.593750000000211
 20
5.741187783960325
 10
1.593750000000209
 20
5.500031045536953
 10
1.593750000000208
 20
5.292893218813429
 10
1.593750000000208
 20
5.134015299505834
 10
1.593750000000209
 20
5.034124907793207
 10
1.593750000000212
 20
4.999999999999965
1001
REVIT
1002
{
1070
     2
1000
-2001160
1002
}
  0
SPLINE
  5
E3
330
BC
100
AcDbEntity
  8
P-SANR-FIXT
100
AcDbSpline
210
0.0
220
0.0
230
1.0
 70
     8
 71
     3
 72
    47
 73
    43
 74
     0
 42
0.000000001
 43
0.0000000001
 40
-1.0
 40
-1.0
 40
-1.0
 40
-1.0
 40
-0.9444444444444444
 40
-0.9166666666666666
 40
-0.8888888888888889
 40
-0.861111111111111
 40
-0.8333333333333332
 40
-0.8055555555555555
 40
-0.7777777777777778
 40
-0.75
 40
-0.7222222222222223
 40
-0.6944444444444445
 40
-0.6666666666666666
 40
-0.6388888888888889
 40
-0.6111111111111112
 40
-0.5833333333333334
 40
-0.5555555555555556
 40
-0.5277777777777778
 40
-0.5
 40
-0.4722222222222223
 40
-0.4444444444444445
 40
-0.4166666666666666
 40
-0.3888888888888888
 40
-0.3611111111111111
 40
-0.3472222222222222
 40
-0.3333333333333333
 40
-0.3194444444444444
 40
-0.3055555555555556
 40
-0.2777777777777778
 40
-0.25
 40
-0.2361111111111111
 40
-0.2222222222222222
 40
-0.2083333333333333
 40
-0.1944444444444444
 40
-0.1666666666666666
 40
-0.1388888888888889
 40
-0.125
 40
-0.1111111111111111
 40
-0.0972222222222222
 40
-0.0833333333333333
 40
-0.0555555555555556
 40
0.0
 40
0.0
 40
0.0
 40
0.0
 10
0.1353792737799908
 20
6.427697761595654
 30
0.0
 10
0.1349813776402247
 20
6.427697761595654
 30
0.0
 10
0.1325970955497969
 20
6.424456589865543
 30
0.0
 10
0.1257956451582264
 20
6.414384682464001
 30
0.0
 10
0.1189784172479352
 20
6.404186452246567
 30
0.0
 10
0.1100647944788124
 20
6.391546492845396
 30
0.0
 10
0.0991373105658604
 20
6.376700654478189
 30
0.0
 10
0.0866938925807242
 20
6.359961181007563
 30
0.0
 10
0.0733471416584694
 20
6.341656780040503
 30
0.0
 10
0.0588355693238419
 20
6.322140950204602
 30
0.0
 10
0.0428509561731332
 20
6.301626191733137
 30
0.0
 10
0.0259407065144688
 20
6.280306996129494
 30
0.0
 10
0.0086021812372647
 20
6.258280486515432
 30
0.0
 10
-0.0093227088060742
 20
6.235875250028964
 30
0.0
 10
-0.0281223000136525
 20
6.213336546998686
 30
0.0
 10
-0.0474012730427482
 20
6.190646336984719
 30
0.0
 10
-0.0668129850952617
 20
6.167723364306498
 30
0.0
 10
-0.0864997429354385
 20
6.144846601153823
 30
0.0
 10
-0.106651955143152
 20
6.122271823023917
 30
0.0
 10
-0.1269567202532535
 20
6.099879625187822
 30
0.0
 10
-0.1471027219453128
 20
6.077534923686036
 30
0.0
 10
-0.1672756133650674
 20
6.055523764843507
 30
0.0
 10
-0.1876312640894342
 20
6.034095402106628
 30
0.0
 10
-0.2044175663178068
 20
6.016566375052248
 30
0.0
 10
-0.2176364058904511
 20
6.002730099202768
 30
0.0
 10
-0.2273699884150329
 20
5.992417935822277
 30
0.0
 10
-0.2370474227553334
 20
5.982257936414903
 30
0.0
 10
-0.2500056523417788
 20
5.969017259830994
 30
0.0
 10
-0.2660639872946065
 20
5.952962133436111
 30
0.0
 10
-0.2815509677574243
 20
5.937546250399805
 30
0.0
 10
-0.2933820293724222
 20
5.925610134203782
 30
0.0
 10
-0.3018479635272658
 20
5.916853943629396
 30
0.0
 10
-0.3101282497281346
 20
5.908358626119537
 30
0.0
 10
-0.3211526802449854
 20
5.897474247074173
 30
0.0
 10
-0.3344633566041912
 20
5.884720196997344
 30
0.0
 10
-0.3464669697570473
 20
5.873274133988508
 30
0.0
 10
-0.3548647076316516
 20
5.865020454134982
 30
0.0
 10
-0.3604095857713462
 20
5.859313741637352
 30
0.0
 10
-0.3652741934491507
 20
5.854134685498213
 30
0.0
 10
-0.3710948495846373
 20
5.847994440736479
 30
0.0
 10
-0.3793791052361973
 20
5.839380269519893
 30
0.0
 10
-0.3832678164747003
 20
5.836101099280265
 30
0.0
 10
-0.3844273322726534
 20
5.836101099280267
 30
0.0
1001
REVIT
1002
{
1070
     2
1000
-2001160
1002
}
  0
LINE
  5
E4
330
BC
100
AcDbEntity
  8
P-SANR-FIXT
100
AcDbLine
 10
-0.6992030796730432
 20
0.4101950373089773
 30
0.0
 11
-0.6992030796730432
 21
0.2290877180930958
 31
0.0
1001
REVIT
1002
{
1070
     2
1000
-2001160
1002
}
  0
LINE
  5
E5
330
BC
100
AcDbEntity
  8
P-SANR-FIXT
100
AcDbLine
 10
0.699203079675023
 20
0.2290877180930958
 30
0.0
 11
0.699203079675023
 21
0.4101950373089773
 31
0.0
1001
REVIT
1002
{
1070
     2
1000
-2001160
1002
}
  0
LINE
  5
E6
330
BC
100
AcDbEntity
  8
P-SANR-FIXT
100
AcDbLine
 10
1.398406159349063
 20
0.2290877180930958
 30
0.0
 11
1.398406159349063
 21
0.4101950373089773
 31
0.0
1001
REVIT
1002
{
1070
     2
1000
-2001160
1002
}
  0
LINE
  5
E7
330
BC
100
AcDbEntity
  8
P-SANR-FIXT
100
AcDbLine
 10
-1.398406159347075
 20
0.2290877180930958
 30
0.0
 11
-1.398406159347075
 21
0.4101950373089773
 31
0.0
1001
REVIT
1002
{
1070
     2
1000
-2001160
1002
}
  0
SPLINE
  5
E8
330
BC
100
AcDbEntity
  8
P-SANR-FIXT
100
AcDbSpline
210
0.0
220
0.0
230
1.0
 70
     8
 71
     3
 72
    16
 73
    12
 74
     0
 42
0.000000001
 43
0.0000000001
 40
0.0
 40
0.0
 40
0.0
 40
0.0
 40
0.1666666666666666
 40
0.3333333333333333
 40
0.4166666666666666
 40
0.5
 40
0.5833333333333333
 40
0.6666666666666666
 40
0.75
 40
0.8333333333333332
 40
1.0
 40
1.0
 40
1.0
 40
1.0
 10
-1.398406159347076
 20
0.4101950373089775
 30
0.0
 10
-1.398400573245959
 20
0.4145583604389634
 30
0.0
 10
-1.397081979405082
 20
0.4232847561408656
 30
0.0
 10
-1.392218270131747
 20
0.4334489178844344
 30
0.0
 10
-1.38660411516618
 20
0.4407201085067787
 30
0.0
 10
-1.381613739797142
 20
0.445651502989349
 30
0.0
 10
-1.375916694492251
 20
0.4499761377456574
 30
0.0
 10
-1.369621650326299
 20
0.4536201719692598
 30
0.0
 10
-1.362828579528117
 20
0.4565210193665019
 30
0.0
 10
-1.353260643725678
 20
0.4593327724404794
 30
0.0
 10
-1.345737555465479
 20
0.4601950373089775
 30
0.0
 10
-1.340671132428112
 20
0.4601950373089771
 30
0.0
1001
REVIT
1002
{
1070
     2
1000
-2001160
1002
}
  0
SPLINE
  5
E9
330
BC
100
AcDbEntity
  8
P-SANR-FIXT
100
AcDbSpline
210
0.0
220
0.0
230
1.0
 70
     8
 71
     3
 72
    16
 73
    12
 74
     0
 42
0.000000001
 43
0.0000000001
 40
0.0
 40
0.0
 40
0.0
 40
0.0
 40
0.1666666666666666
 40
0.3333333333333333
 40
0.4166666666666666
 40
0.5
 40
0.5833333333333333
 40
0.6666666666666666
 40
0.75
 40
0.8333333333333332
 40
1.0
 40
1.0
 40
1.0
 40
1.0
 10
-0.6992030796730444
 20
0.4101950373089775
 30
0.0
 10
-0.6992086657741615
 20
0.4145583604389635
 30
0.0
 10
-0.6985377070959384
 20
0.4232847561408656
 30
0.0
 10
-0.6961076882925847
 20
0.4334489178844347
 30
0.0
 10
-0.6933053182948483
 20
0.4407201085067786
 30
0.0
 10
-0.6908053791469659
 20
0.4456515029893492
 30
0.0
 10
-0.6879610495378224
 20
0.4499761377456576
 30
0.0
 10
-0.6848101638787576
 20
0.4536201719692599
 30
0.0
 10
-0.681414232606965
 20
0.456521019366502
 30
0.0
 10
-0.6766387835973191
 20
0.4593327724404794
 30
0.0
 10
-0.6728266405271722
 20
0.4601950373089775
 30
0.0
 10
-0.6703355662135619
 20
0.4601950373089773
 30
0.0
1001
REVIT
1002
{
1070
     2
1000
-2001160
1002
}
  0
SPLINE
  5
EA
330
BC
100
AcDbEntity
  8
P-SANR-FIXT
100
AcDbSpline
210
0.0
220
0.0
230
1.0
 70
     8
 71
     3
 72
    16
 73
    12
 74
     0
 42
0.000000001
 43
0.0000000001
 40
0.0
 40
0.0
 40
0.0
 40
0.0
 40
0.1666666666666666
 40
0.3333333333333333
 40
0.4166666666666666
 40
0.5
 40
0.5833333333333333
 40
0.6666666666666666
 40
0.75
 40
0.8333333333333332
 40
1.0
 40
1.0
 40
1.0
 40
1.0
 10
0.6992030796750233
 20
0.4101950373089775
 30
0.0
 10
0.6991919074727895
 20
0.4145583604389635
 30
0.0
 10
0.6985442723101347
 20
0.4232847561408655
 30
0.0
 10
0.6961105818401539
 20
0.4334489178844345
 30
0.0
 10
0.6932987968723227
 20
0.4407201085067787
 30
0.0
 10
0.6908083606511668
 20
0.4456515029893492
 30
0.0
 10
0.6879556449554194
 20
0.4499761377456572
 30
0.0
 10
0.6848114864485333
 20
0.4536201719692599
 30
0.0
 10
0.6814143469221431
 20
0.4565210193665018
 30
0.0
 10
0.6766218601293508
 20
0.4593327724404793
 30
0.0
 10
0.6729109149392967
 20
0.4601950373089775
 30
0.0
 10
0.6703355662155419
 20
0.4601950373089771
 30
0.0
1001
REVIT
1002
{
1070
     2
1000
-2001160
1002
}
  0
SPLINE
  5
EB
330
BC
100
AcDbEntity
  8
P-SANR-FIXT
100
AcDbSpline
210
0.0
220
0.0
230
1.0
 70
     8
 71
     3
 72
    16
 73
    12
 74
     0
 42
0.000000001
 43
0.0000000001
 40
0.0
 40
0.0
 40
0.0
 40
0.0
 40
0.1666666666666666
 40
0.3333333333333333
 40
0.4166666666666666
 40
0.5
 40
0.5833333333333333
 40
0.6666666666666666
 40
0.75
 40
0.8333333333333332
 40
1.0
 40
1.0
 40
1.0
 40
1.0
 10
1.398406159349064
 20
0.4101950373089775
 30
0.0
 10
1.398400573247948
 20
0.4145583604389634
 30
0.0
 10
1.39708197940707
 20
0.4232847561408655
 30
0.0
 10
1.392218270133736
 20
0.4334489178844346
 30
0.0
 10
1.386604115168168
 20
0.4407201085067786
 30
0.0
 10
1.381613739799129
 20
0.445651502989349
 30
0.0
 10
1.375916694494238
 20
0.4499761377456576
 30
0.0
 10
1.369621650328288
 20
0.4536201719692599
 30
0.0
 10
1.362828579530105
 20
0.4565210193665022
 30
0.0
 10
1.353260643727667
 20
0.4593327724404793
 30
0.0
 10
1.345737555467465
 20
0.4601950373089775
 30
0.0
 10
1.340671132430101
 20
0.4601950373089771
 30
0.0
1001
REVIT
1002
{
1070
     2
1000
-2001160
1002
}
  0
ENDBLK
  5
EC
330
BC
100
AcDbEntity
  8
0
100
AcDbBlockEnd
  0
BLOCK
  5
F7
330
F6
100
AcDbEntity
  8
0
100
AcDbBlockBegin
  2
FamilyGeomCombination_15519-Back
 70
     0
 10
0.0
 20
0.0
 30
0.0
  3
FamilyGeomCombination_15519-Back
  1

  0
LINE
  5
F8
330
F6
100
AcDbEntity
  8
P-SANR-FIXT
100
AcDbLine
 10
0.7458021851498841
 20
1.33725580747598
 30
0.0
 11
0.7458021851498628
 21
4.406723191252859
 31
0.0
1001
REVIT
1002
{
1070
     2
1000
-2001160
1002
}
  0
LINE
  5
F9
330
F6
100
AcDbEntity
  8
P-SANR-FIXT
100
AcDbLine
 10
-0.7458021851504383
 20
4.40672319125286
 30
0.0
 11
-0.745802185150417
 21
1.337255807475966
 31
0.0
1001
REVIT
1002
{
1070
     2
1000
-2001160
1002
}
  0
LWPOLYLINE
  5
FA
330
F6
100
AcDbEntity
  8
P-SANR-FIXT
100
AcDbPolyline
 90
       12
 70
   128
 43
0.0
 10
0.7458021851498841
 20
1.33725580747598
 10
0.7472184254397475
 20
1.266453234835647
 10
0.7514648806270614
 20
1.195763931207794
 10
0.7585347572893184
 20
1.125300984398648
 10
0.7684167451320575
 20
1.055177120091807
 10
0.7810950350828065
 20
0.985504521511204
 10
0.7965493445821252
 20
0.9163946499518729
 10
0.8147549500316129
 20
0.8479580664656548
 10
0.8356827263461637
 20
0.7803042549871013
 10
0.8592991935480965
 20
0.713541447182536
 10
0.8855665703277251
 20
0.6477764493024738
 10
0.8930988504058914
 20
0.6302254590867826
1001
REVIT
1002
{
1070
     2
1000
-2001160
1002
}
  0
LWPOLYLINE
  5
FB
330
F6
100
AcDbEntity
  8
P-SANR-FIXT
100
AcDbPolyline
 90
       12
 70
   128
 43
0.0
 10
-0.893098850406403
 20
0.6302254590867639
 10
-0.8661235961930698
 20
0.6957032850217612
 10
-0.8417883339689991
 20
0.7622074581354465
 10
-0.8201319949625654
 20
0.8296315859376377
 10
-0.8011892246963581
 20
0.8978678042068979
 10
-0.7849903275619283
 20
0.9668069495502818
 10
-0.7715612183390589
 20
1.036338734041469
 10
-0.7609233807378359
 20
1.106351921657935
 10
-0.7530938330291263
 20
1.176734506234841
 10
-0.7480851008190398
 20
1.247373890651016
 10
-0.7459051970106216
 20
1.318157066960324
 10
-0.7458021851503957
 20
1.337255807475966
1001
REVIT
1002
{
1070
     2
1000
-2001160
1002
}
  0
LWPOLYLINE
  5
FC
330
F6
100
AcDbEntity
  8
P-SANR-FIXT
100
AcDbPolyline
 90
       30
 70
   128
 43
0.0
 10
0.8930988504058914
 20
0.6302254590867826
 10
0.8978267551281005
 20
0.6199378810299318
 10
0.9029622714276966
 20
0.6098475977001833
 10
0.9084971835741411
 20
0.5999707513983825
 10
0.9144226368886945
 20
0.5903231429716679
 10
0.9207291519100662
 20
0.5809202065354734
 10
0.927406639559585
 20
0.5717769847822453
 10
0.9344444172814403
 20
0.5629081049163393
 10
0.9418312261326063
 20
0.5543277552536109
 10
0.9495552487946737
 20
0.546049662523147
 10
0.9576041284790475
 20
0.5380870699074153
 10
0.9659649886953046
 20
0.5304527158560059
 10
0.9746244538506514
 20
0.5231588137068263
 10
0.98356867064804
 20
0.5162170321473649
 10
0.9927833302486204
 20
0.5096384765472827
 10
1.002253691162742
 20
0.5034336711921896
 10
1.011964602833138
 20
0.4976125424470314
 10
1.021900529872709
 20
0.492184402876028
 10
1.032045576917731
 20
0.4871579363445501
 10
1.042383514057135
 20
0.4825411841267923
 10
1.052897802796763
 20
0.4783415320414485
 10
1.063571622517563
 20
0.4745656986359771
 10
1.074387897384944
 20
0.47121972443836
 10
1.085329323666506
 20
0.468308962293543
 10
1.096378397414198
 20
0.4658380688000276
 10
1.107517442467027
 20
0.4638109968603072
 10
1.118728638729151
 20
0.4622309893570695
 10
1.129994050678106
 20
0.4611005739652651
 10
1.141295656057991
 20
0.4604215591083824
 10
1.152615374711018
 20
0.4601950310653402
1001
REVIT
1002
{
1070
     2
1000
-2001160
1002
}
  0
LWPOLYLINE
  5
FD
330
F6
100
AcDbEntity
  8
P-SANR-FIXT
100
AcDbPolyline
 90
       30
 70
   128
 43
0.0
 10
-1.152617961347459
 20
0.460195031053499
 10
-1.141298240624919
 20
0.4604214556587029
 10
-1.12999662904076
 20
0.4611003672432443
 10
-1.118731206762724
 20
0.4622306796934188
 10
-1.10751999606321
 20
0.4638105847504236
 10
-1.096380932487747
 20
0.4658375549031958
 10
-1.085331836161891
 20
0.4683083474318907
 10
-1.074390383282704
 20
0.4712190095955337
 10
-1.063574077840783
 20
0.4745648849555728
 10
-1.052900223617448
 20
0.4783406208251821
 10
-1.042385896502501
 20
0.4825401768324151
 10
-1.032047917176384
 20
0.4871568345835171
 10
-1.021902824200679
 20
0.4921832084109238
 10
-1.011966847560017
 20
0.4976112571887449
 10
-1.002255882697461
 20
0.5034322971968587
 10
-0.9927854650852053
 20
0.5096370160130079
 10
-0.9835707453711746
 20
0.516215487410689
 10
-0.9746264651412202
 20
0.5231571872389979
 10
-0.9659669333357213
 20
0.5304510102590276
 10
-0.9576060033582647
 20
0.5380852879098765
 10
-0.949557050913256
 20
0.5460478069758645
 10
-0.9418329526076119
 20
0.554325829125065
 10
-0.9344460653508759
 20
0.5629061112879236
 10
-0.9274082065868823
 20
0.571774926843342
 10
-0.9207306353882811
 20
0.580918087578345
 10
-0.9144240344446215
 20
0.5903209663861921
 10
-0.9084984929719579
 20
0.5999685206666338
 10
-0.9029634905726735
 20
0.6098453163908539
 10
-0.8978278820698404
 20
0.6199355527926342
 10
-0.8930998833415484
 20
0.6302230876461973
1001
REVIT
1002
{
1070
     2
1000
-2001160
1002
}
  0
LWPOLYLINE
  5
FE
330
F6
100
AcDbEntity
  8
P-SANR-FIXT
100
AcDbPolyline
 90
       41
 70
   128
 43
0.0
 10
1.406250000002408
 20
0.2290877180931012
 10
1.408749333389039
 20
0.229037724759411
 10
1.411244668375466
 20
0.2288878247370149
 10
1.41373201295795
 20
0.2286382578339676
 10
1.416207387915804
 20
0.2282894233040764
 10
1.418666833177098
 20
0.2278418792081788
 10
1.421106414154095
 20
0.2272963415213529
 10
1.423522228037647
 20
0.2266536829875249
 10
1.425910410040905
 20
0.2259149317232536
 10
1.428267139582068
 20
0.2250812695729704
 10
1.430588646396692
 20
0.2241540302182807
 10
1.432871216569033
 20
0.2231346970443497
 10
1.435111198473719
 20
0.2220249007668053
 10
1.437305008617634
 20
0.2208264168229541
 10
1.439449137372456
 20
0.2195411625314398
 10
1.441540154589581
 20
0.2181711940249559
 10
1.443574715087556
 20
0.2167187029608701
 10
1.445549564003549
 20
0.215186013015034
 10
1.447461542000617
 20
0.2135755761644078
 10
1.449307590321801
 20
0.2118899687644084
 10
1.451084755683616
 20
0.2101318874273001
 10
1.452790195000573
 20
0.2083041447081823
 10
1.454421179933582
 20
0.2064096646055131
 10
1.455975101254651
 20
0.2044514778833175
 10
1.457449473021192
 20
0.2024327172226314
 10
1.458841936552893
 20
0.2003566122098598
 10
1.460150264205104
 20
0.1982264841701511
 10
1.461372362932706
 20
0.1960457408539602
 10
1.462506277638411
 20
0.1938178709853968
 10
1.463550194300623
 20
0.1915464386809935
 10
1.464502442875357
 20
0.1892350777478948
 10
1.465361499967997
 20
0.186887485870526
 10
1.466125991270473
 20
0.1845074186950985
 10
1.466794693759801
 20
0.1820986838213745
 10
1.467366537654598
 20
0.1796651347113154
 10
1.467840608126671
 20
0.1772106645243667
 10
1.468216146764383
 20
0.1747391998892347
 10
1.468492552785995
 20
0.1722546946221204
 10
1.468669384000861
 20
0.1697611234014502
 10
1.468746357516763
 20
0.1672624754092435
 10
1.468750000002394
 20
0.1665877180930981
1001
REVIT
1002
{
1070
     2
1000
-2001160
1002
}
  0
LWPOLYLINE
  5
FF
330
F6
100
AcDbEntity
  8
P-SANR-FIXT
100
AcDbPolyline
 90
       15
 70
   128
 43
0.0
 10
1.212755944562978
 20
0.2290877180930879
 10
1.240253165934042
 20
0.2290877180930892
 10
1.265766246812837
 20
0.2290877180930905
 10
1.289254371712459
 20
0.2290877180930905
 10
1.310679964643632
 20
0.2290877180930932
 10
1.330008749228163
 20
0.2290877180930932
 10
1.347209803534006
 20
0.2290877180930945
 10
1.362255609543623
 20
0.2290877180930945
 10
1.375122097176983
 20
0.2290877180930959
 10
1.385788682798619
 20
0.2290877180930959
 10
1.394238302146952
 20
0.2290877180930972
 10
1.40045743763342
 20
0.2290877180930972
 10
1.404436139968055
 20
0.2290877180930999
 10
1.406168044075776
 20
0.2290877180930999
 10
1.406250000002408
 20
0.2290877180931012
1001
REVIT
1002
{
1070
     2
1000
-2001160
1002
}
  0
LWPOLYLINE
  5
100
330
F6
100
AcDbEntity
  8
P-SANR-FIXT
100
AcDbPolyline
 90
       41
 70
   128
 43
0.0
 10
1.406250000002408
 20
0.2290877180931012
 10
1.40512514999439
 20
0.2290877180931012
 10
1.40175239949044
 20
0.2290877180931012
 10
1.39613714417188
 20
0.2290877180931025
 10
1.388288367249344
 20
0.2290877180931025
 10
1.378218625091576
 20
0.2290877180931039
 10
1.365944027137991
 20
0.2290877180931039
 10
1.351484210126819
 20
0.2290877180931039
 10
1.334862306680704
 20
0.2290877180931065
 10
1.316104908299337
 20
0.2290877180931065
 10
1.29524202281874
 20
0.2290877180931065
 10
1.272307026405215
 20
0.2290877180931079
 10
1.247336610160459
 20
0.2290877180931079
 10
1.220370721423733
 20
0.2290877180931079
 10
1.191452499864602
 20
0.2290877180931079
 10
1.160628208468679
 20
0.2290877180931092
 10
1.127947159526662
 20
0.2290877180931092
 10
1.093461635745313
 20
0.2290877180931092
 10
1.057226806606116
 20
0.2290877180931092
 10
1.019300640106066
 20
0.2290877180931092
 10
0.9797438100210554
 20
0.2290877180931092
 10
0.9386195988408372
 20
0.2290877180931092
 10
0.8959937965306961
 20
0.2290877180931092
 10
0.8519345952812143
 20
0.2290877180931092
 10
0.8065124804156551
 20
0.2290877180931092
 10
0.7598001176282593
 20
0.2290877180931092
 10
0.7118722367346848
 20
0.2290877180931092
 10
0.6628055121203004
 20
0.2290877180931092
 10
0.6126784400775378
 20
0.2290877180931092
 10
0.561571213228369
 20
0.2290877180931092
 10
0.5095655922335424
 20
0.2290877180931092
 10
0.4567447749926358
 20
0.2290877180931092
 10
0.4031932635454467
 20
0.2290877180931092
 10
0.3489967288865614
 20
0.2290877180931079
 10
0.2942418739101029
 20
0.2290877180931079
 10
0.2390162947036813
 20
0.2290877180931079
 10
0.1834083404130879
 20
0.2290877180931079
 10
0.1275069719029176
 20
0.2290877180931065
 10
0.0714016194377294
 20
0.2290877180931065
 10
0.0151820396129807
 20
0.2290877180931065
 10
-0.0000000000002345
 20
0.2290877180931065
1001
REVIT
1002
{
1070
     2
1000
-2001160
1002
}
  0
LWPOLYLINE
  5
101
330
F6
100
AcDbEntity
  8
P-SANR-FIXT
100
AcDbPolyline
 90
       41
 70
   128
 43
0.0
 10
-1.468750000002884
 20
0.1665877180930688
 10
-1.468700006669209
 20
0.1690870514797327
 10
-1.468550106646809
 20
0.1715823864661416
 10
-1.468300539743751
 20
0.1740697310486267
 10
-1.467951705213849
 20
0.1765451060064591
 10
-1.467504161117964
 20
0.1790045512677589
 10
-1.466958623431132
 20
0.1814441322447653
 10
-1.466315964897319
 20
0.1838599461283263
 10
-1.465577213633039
 20
0.1862481281315755
 10
-1.464743551482761
 20
0.1886048576727619
 10
-1.463816312128066
 20
0.1909263644873582
 10
-1.462796978954145
 20
0.1932089346596934
 10
-1.461687182676612
 20
0.1954489165644122
 10
-1.460488698732738
 20
0.1976427267083029
 10
-1.459203444441221
 20
0.1997868554631243
 10
-1.457833475934755
 20
0.2018778726802579
 10
-1.456380984870669
 20
0.2039124331782198
 10
-1.454848294924829
 20
0.2058872820942241
 10
-1.453237858074203
 20
0.2077992600912867
 10
-1.451552250674197
 20
0.2096453084124787
 10
-1.449794169337088
 20
0.2114224737742902
 10
-1.447966426617973
 20
0.2131279130912475
 10
-1.446071946515303
 20
0.214758898024256
 10
-1.444113759793111
 20
0.2163128193453434
 10
-1.442094999132414
 20
0.2177871911118818
 10
-1.440018894119645
 20
0.2191796546435642
 10
-1.437888766079929
 20
0.2204879822957792
 10
-1.43570802276374
 20
0.2217100810233803
 10
-1.433480152895185
 20
0.2228439957291019
 10
-1.431208720590795
 20
0.223887912391306
 10
-1.428897359657703
 20
0.2248401609660213
 10
-1.426549767780329
 20
0.2256992180586681
 10
-1.424169700604877
 20
0.2264637093611483
 10
-1.421760965731152
 20
0.2271324118504631
 10
-1.419327416621129
 20
0.2277042557452784
 10
-1.416872946434139
 20
0.2281783262173502
 10
-1.414401481799039
 20
0.2285538648550518
 10
-1.411916976531898
 20
0.2288302708766747
 10
-1.409423405311222
 20
0.2290071020915456
 10
-1.406924757319032
 20
0.2290840756074441
 10
-1.406250000002877
 20
0.2290877180930706
1001
REVIT
1002
{
1070
     2
1000
-2001160
1002
}
  0
LWPOLYLINE
  5
102
330
F6
100
AcDbEntity
  8
P-SANR-FIXT
100
AcDbPolyline
 90
       41
 70
   128
 43
0.0
 10
-0.0000000000002345
 20
0.2290877180931065
 10
-0.0562350012003066
 20
0.2290877180931039
 10
-0.1123800383946189
 20
0.2290877180931039
 10
-0.1683452915006
 20
0.2290877180931025
 10
-0.224041228051945
 20
0.2290877180931025
 10
-0.2793787464313268
 20
0.2290877180931025
 10
-0.3342693184140159
 20
0.2290877180931012
 10
-0.38862513079426
 20
0.2290877180931012
 10
-0.4423592258674915
 20
0.2290877180930999
 10
-0.4953856405442849
 20
0.2290877180930999
 10
-0.5476195438728197
 20
0.2290877180930972
 10
-0.5989773727504186
 20
0.2290877180930972
 10
-0.6493769656066703
 20
0.2290877180930959
 10
-0.6987376938443148
 20
0.2290877180930959
 10
-0.7469805908278814
 20
0.2290877180930945
 10
-0.7940284782135051
 20
0.2290877180930945
 10
-0.839806089417692
 20
0.2290877180930932
 10
-0.8842401900278813
 20
0.2290877180930905
 10
-0.9272596949618685
 20
0.2290877180930905
 10
-0.9687957821887847
 20
0.2290877180930892
 10
-1.008782002829611
 20
0.2290877180930892
 10
-1.047154387461226
 20
0.2290877180930879
 10
-1.083851548453949
 20
0.2290877180930879
 10
-1.118814778178496
 20
0.2290877180930865
 10
-1.151988142925681
 20
0.2290877180930839
 10
-1.183318572388571
 20
0.2290877180930839
 10
-1.212755944563489
 20
0.2290877180930825
 10
-1.240253165934553
 20
0.2290877180930825
 10
-1.265766246813327
 20
0.2290877180930812
 10
-1.28925437171297
 20
0.2290877180930812
 10
-1.310679964644122
 20
0.2290877180930799
 10
-1.330008749228653
 20
0.2290877180930772
 10
-1.347209803534518
 20
0.2290877180930772
 10
-1.362255609544135
 20
0.2290877180930759
 10
-1.375122097177495
 20
0.2290877180930759
 10
-1.38578868279913
 20
0.2290877180930745
 10
-1.394238302147421
 20
0.2290877180930745
 10
-1.400457437633931
 20
0.2290877180930732
 10
-1.404436139968545
 20
0.2290877180930732
 10
-1.406168044076288
 20
0.2290877180930706
 10
-1.406250000002877
 20
0.2290877180930706
1001
REVIT
1002
{
1070
     2
1000
-2001160
1002
}
  0
LWPOLYLINE
  5
103
330
F6
100
AcDbEntity
  8
P-SANR-FIXT
100
AcDbPolyline
 90
       15
 70
   128
 43
0.0
 10
-1.406250000002877
 20
0.2290877180930706
 10
-1.405125149994901
 20
0.2290877180930706
 10
-1.401752399490952
 20
0.2290877180930692
 10
-1.396137144172392
 20
0.2290877180930692
 10
-1.388288367249834
 20
0.2290877180930679
 10
-1.378218625092088
 20
0.2290877180930679
 10
-1.365944027138482
 20
0.2290877180930679
 10
-1.351484210127331
 20
0.2290877180930666
 10
-1.334862306681173
 20
0.2290877180930666
 10
-1.316104908299805
 20
0.2290877180930666
 10
-1.295242022819252
 20
0.2290877180930639
 10
-1.272307026405726
 20
0.2290877180930639
 10
-1.247336610160971
 20
0.2290877180930639
 10
-1.220370721424245
 20
0.2290877180930639
 10
-1.211055258804804
 20
0.2290877180930639
1001
REVIT
1002
{
1070
     2
1000
-2001160
1002
}
  0
LINE
  5
104
330
F6
100
AcDbEntity
  8
P-SANR-FIXT
100
AcDbLine
 10
1.468750000002373
 20
-0.0000000000000346
 30
0.0
 11
1.468750000002373
 21
0.1665877180930981
 31
0.0
1001
REVIT
1002
{
1070
     2
1000
-2001160
1002
}
  0
LINE
  5
105
330
F6
100
AcDbEntity
  8
P-SANR-FIXT
100
AcDbLine
 10
-1.468750000002884
 20
0.1665877180930688
 30
0.0
 11
-1.468750000002884
 21
-0.0000000000000639
 31
0.0
1001
REVIT
1002
{
1070
     2
1000
-2001160
1002
}
  0
LWPOLYLINE
  5
106
330
F6
100
AcDbEntity
  8
P-SANR-FIXT
100
AcDbPolyline
 90
        9
 70
   128
 43
0.0
 10
0.8989156273283567
 20
5.636971868478889
 10
0.8988006742151311
 20
5.636535581997157
 10
0.8953374276127588
 20
5.621852384486961
 10
0.8819525138838313
 20
5.553152399846327
 10
0.8671455368285874
 20
5.462526611180749
 10
0.8382513402395657
 20
5.252726362656102
 10
0.8155092956510541
 20
5.063645835290897
 10
0.7804154267312384
 20
4.742717623064464
 10
0.7458502312255461
 20
4.406723176472917
1001
REVIT
1002
{
1070
     2
1000
-2001160
1002
}
  0
LWPOLYLINE
  5
107
330
F6
100
AcDbEntity
  8
P-SANR-FIXT
100
AcDbPolyline
 90
       10
 70
   128
 43
0.0
 10
-0.7458502312261217
 20
4.40672317647292
 10
-0.7779359124368738
 20
4.71907678944538
 10
-0.8055761909487484
 20
4.975857523739323
 10
-0.8292713678574655
 20
5.180244356937951
 10
-0.8493875628282976
 20
5.338121355437674
 10
-0.866165134373112
 20
5.456075876292678
 10
-0.8797034278978157
 20
5.540263617144557
 10
-0.8899337087807024
 20
5.59595719781741
 10
-0.8965422511152921
 20
5.627185694633828
 10
-0.8989156273289323
 20
5.636971868478868
1001
REVIT
1002
{
1070
     2
1000
-2001160
1002
}
  0
LINE
  5
108
330
F6
100
AcDbEntity
  8
P-SANR-FIXT
100
AcDbLine
 10
-0.0000000000007461
 20
0.4601950373089778
 30
0.0
 11
-1.161055258804786
 21
0.4601950373089778
 31
0.0
1001
REVIT
1002
{
1070
     2
1000
-2001160
1002
}
  0
LINE
  5
109
330
F6
100
AcDbEntity
  8
P-SANR-FIXT
100
AcDbLine
 10
1.161055258803315
 20
0.4601950373089778
 30
0.0
 11
-0.0000000000007461
 21
0.4601950373089778
 31
0.0
1001
REVIT
1002
{
1070
     2
1000
-2001160
1002
}
  0
LWPOLYLINE
  5
10A
330
F6
100
AcDbEntity
  8
P-SANR-FIXT
100
AcDbPolyline
 90
       80
 70
   128
 43
0.0
 10
-0.0000000000002984
 20
5.625476930407278
 10
0.0202514985930478
 20
5.625882014391785
 10
0.040470599108744
 20
5.627096618297339
 10
0.0606249552991471
 20
5.629118799016795
 10
0.0806823244937078
 20
5.631945321492378
 10
0.1006106191803653
 20
5.635571663891085
 10
0.1203779583387785
 20
5.639992024838657
 10
0.1399527184431335
 20
5.645199332700539
 10
0.1593035840529708
 20
5.651185256894983
 10
0.178399597911266
 20
5.657940221220209
 10
0.1972102104694428
 20
5.665453419174277
 10
0.2157053287601726
 20
5.673712831243193
 10
0.2338553645395151
 20
5.682705244129557
 10
0.2516312816221102
 20
5.692416271891034
 10
0.2690046423325966
 20
5.702830378954778
 10
0.2859476529999298
 20
5.713930904971046
 10
0.3024332084213767
 20
5.725700091466197
 10
0.3184349352249924
 20
5.738119110252466
 10
0.3339272340614058
 20
5.751168093549045
 10
0.3488853205573434
 20
5.76482616576629
 10
0.3632852649652775
 20
5.779071476902226
 10
0.3771040304459774
 20
5.793881237497869
 10
0.3903195099225698
 20
5.809231755095513
 10
0.4029105614469798
 20
5.825098472141606
 10
0.4148570420227528
 20
5.841456005273593
 10
0.4261398398293891
 20
5.858278185927884
 10
0.4367409047972898
 20
5.875538102203971
 10
0.4466432774839645
 20
5.893208141917732
 10
0.4558311162054593
 20
5.911260036775034
 10
0.4642897223797959
 20
5.929664907594969
 10
0.4720055640415381
 20
5.948393310510389
 10
0.4789662974899471
 20
5.967415284071808
 10
0.4851607870364063
 20
5.986700397179336
 10
0.4905791228190778
 20
6.006217797765933
 10
0.4952126366565039
 20
6.025936262154155
 10
0.4990539159150202
 20
6.045824245007359
 10
0.5020968153672171
 20
6.065849929795526
 10
0.5043364670231156
 20
6.085981279694913
 10
0.5057692879178148
 20
6.106186088840138
 10
0.5063929858435258
 20
6.126432033846701
 10
0.5062065630166543
 20
6.146686725521493
 10
0.5052103176739208
 20
6.166917760678605
 10
0.5034058435953454
 20
6.187092773977513
 10
0.5007960275545428
 20
6.207179489700709
 10
0.4973850447004437
 20
6.227145773387973
 10
0.4931783518779866
 20
6.246959683244655
 10
0.4881826788982905
 20
6.266589521241723
 10
0.4824060177724192
 20
6.286003883825857
 10
0.4758576099259173
 20
6.305171712158437
 10
0.4685479314144131
 20
6.324062341803045
 10
0.4604886761642248
 20
6.342645551782037
 10
0.4516927372644872
 20
6.360891612923654
 10
0.4421741863411341
 20
6.378771335422353
 10
0.4319482510450498
 20
6.396256115536275
 10
0.4210312906913742
 20
6.413317981347125
 10
0.4094407700878193
 20
6.429929637509276
 10
0.3971952315948215
 20
6.446064508916499
 10
0.3843142654617182
 20
6.461696783216466
 10
0.370818478486548
 20
6.476801452105004
 10
0.3567294610495466
 20
6.491354351334048
 10
0.3420697525730744
 20
6.505332199369285
 10
0.3268628054634845
 20
6.518712634635639
 10
0.3111329475921422
 20
6.531474251291029
 10
0.2949053433761577
 20
6.543596633471135
 10
0.2782059535205618
 20
6.55506038795044
 10
0.2610614934867498
 20
6.565847175167249
 10
0.2434993907535059
 20
6.575939738563073
 10
0.2255477409388646
 20
6.585321932189443
 10
0.2072352628529614
 20
6.593978746537986
 10
0.1885912525543673
 20
6.601896332552432
 10
0.1696455364822782
 20
6.609062023784154
 10
0.1504284237409763
 20
6.615464356655779
 10
0.130970657611364
 20
6.621093088800472
 10
0.111303366368503
 20
6.625939215447533
 10
0.0914580134828995
 20
6.629994983828113
 10
0.0714663472857069
 20
6.633253905577983
 10
0.0513603501782285
 20
6.635710767117549
 10
0.0311721874667228
 20
6.637361637992447
 10
0.0109341559049838
 20
6.638203877161444
 10
-0.0000000000003197
 20
6.638321930468651
1001
REVIT
1002
{
1070
     2
1000
-2001160
1002
}
  0
LWPOLYLINE
  5
10B
330
F6
100
AcDbEntity
  8
P-SANR-FIXT
100
AcDbPolyline
 90
       80
 70
   128
 43
0.0
 10
-0.0000000000003197
 20
6.638321930468651
 10
-0.0202514985936659
 20
6.637916846484146
 10
-0.0404705991093621
 20
6.63670224257859
 10
-0.0606249552997653
 20
6.634680061859134
 10
-0.080682324494326
 20
6.631853539383551
 10
-0.1006106191809834
 20
6.628227196984844
 10
-0.120377958339418
 20
6.623806836037271
 10
-0.139952718443773
 20
6.61859952817539
 10
-0.159303584053589
 20
6.612613603980946
 10
-0.1783995979118842
 20
6.60585863965572
 10
-0.197210210470061
 20
6.598345441701651
 10
-0.2157053287607695
 20
6.590086029632736
 10
-0.2338553645401333
 20
6.581093616746371
 10
-0.2516312816227497
 20
6.571382588984895
 10
-0.2690046423332148
 20
6.560968481921151
 10
-0.2859476530005267
 20
6.549867955904883
 10
-0.3024332084219949
 20
6.538098769409732
 10
-0.3184349352256106
 20
6.525679750623462
 10
-0.333927234062024
 20
6.512630767326884
 10
-0.3488853205579616
 20
6.498972695109637
 10
-0.3632852649658957
 20
6.484727383973702
 10
-0.3771040304466168
 20
6.46991762337806
 10
-0.3903195099231666
 20
6.454567105780415
 10
-0.402910561447598
 20
6.438700388734322
 10
-0.414857042023371
 20
6.422342855602336
 10
-0.4261398398300073
 20
6.405520674948046
 10
-0.4367409047979293
 20
6.388260758671957
 10
-0.4466432774845614
 20
6.370590718958196
 10
-0.4558311162060775
 20
6.352538824100895
 10
-0.4642897223804141
 20
6.33413395328096
 10
-0.4720055640421563
 20
6.315405550365539
 10
-0.4789662974905652
 20
6.29638357680412
 10
-0.4851607870370244
 20
6.277098463696593
 10
-0.4905791228196747
 20
6.257581063109995
 10
-0.4952126366571221
 20
6.237862598721775
 10
-0.4990539159156384
 20
6.217974615868567
 10
-0.5020968153678353
 20
6.197948931080401
 10
-0.5043364670237124
 20
6.177817581181015
 10
-0.505769287918433
 20
6.157612772035789
 10
-0.506392985844144
 20
6.137366827029228
 10
-0.5062065630172725
 20
6.117112135354435
 10
-0.505210317674539
 20
6.096881100197322
 10
-0.5034058435959849
 20
6.076706086898415
 10
-0.500796027555161
 20
6.056619371175218
 10
-0.4973850447010832
 20
6.036653087487954
 10
-0.4931783518786048
 20
6.016839177631275
 10
-0.4881826788989087
 20
5.997209339634206
 10
-0.4824060177730373
 20
5.97779497705007
 10
-0.4758576099265567
 20
5.958627148717491
 10
-0.4685479314150526
 20
5.939736519072883
 10
-0.4604886761648216
 20
5.921153309093892
 10
-0.4516927372651267
 20
5.902907247952275
 10
-0.4421741863417523
 20
5.885027525453576
 10
-0.4319482510457106
 20
5.867542745339654
 10
-0.4210312906920137
 20
5.850480879528803
 10
-0.4094407700884374
 20
5.833869223366654
 10
-0.3971952315954396
 20
5.81773435195943
 10
-0.3843142654623363
 20
5.802102077659463
 10
-0.3708184784871875
 20
5.786997408770925
 10
-0.3567294610501647
 20
5.772444509541881
 10
-0.3420697525736926
 20
5.758466661506644
 10
-0.3268628054641027
 20
5.745086226240288
 10
-0.3111329475927817
 20
5.7323246095849
 10
-0.2949053433767758
 20
5.720202227404794
 10
-0.27820595352118
 20
5.708738472925488
 10
-0.261061493487368
 20
5.697951685708679
 10
-0.2434993907541667
 20
5.687859122312856
 10
-0.2255477409394828
 20
5.678476928686486
 10
-0.2072352628535796
 20
5.669820114337943
 10
-0.1885912525549642
 20
5.661902528323497
 10
-0.1696455364828963
 20
5.654736837091775
 10
-0.1504284237415945
 20
5.648334504220149
 10
-0.1309706576119822
 20
5.642705772075457
 10
-0.1113033663690998
 20
5.637859645428396
 10
-0.0914580134835177
 20
5.633803877047817
 10
-0.0714663472863251
 20
5.630544955297945
 10
-0.0513603501788467
 20
5.62808809375838
 10
-0.031172187467341
 20
5.626437222883482
 10
-0.010934155905602
 20
5.625594983714484
 10
-0.0000000000002984
 20
5.625476930407278
1001
REVIT
1002
{
1070
     2
1000
-2001160
1002
}
  0
LINE
  5
10C
330
F6
100
AcDbEntity
  8
P-SANR-FIXT
100
AcDbLine
 10
1.468750000002378
 20
-0.0000000000000345
 30
0.0
 11
-0.0000000000002419
 21
-0.0000000000000292
 31
0.0
1001
REVIT
1002
{
1070
     2
1000
-2001160
1002
}
  0
LINE
  5
10D
330
F6
100
AcDbEntity
  8
P-SANR-FIXT
100
AcDbLine
 10
-0.0000000000002419
 20
-0.0000000000000292
 30
0.0
 11
-1.468750000002871
 21
-0.0000000000000646
 31
0.0
1001
REVIT
1002
{
1070
     2
1000
-2001160
1002
}
  0
SPLINE
  5
10E
330
F6
100
AcDbEntity
  8
P-SANR-FIXT
100
AcDbSpline
210
0.0
220
0.0
230
1.0
 70
     8
 71
     3
 72
     8
 73
     4
 74
     0
 42
0.000000001
 43
0.0000000001
 40
0.4444444444444445
 40
0.4444444444444445
 40
0.4444444444444445
 40
0.4444444444444445
 40
0.4998580324928926
 40
0.4998580324928926
 40
0.4998580324928926
 40
0.4998580324928926
 10
0.7345267297541313
 20
4.406673806477242
 30
0.0
 10
0.7420230568502684
 20
4.406694062274583
 30
0.0
 10
0.7456681021873645
 20
4.406711433801365
 30
0.0
 10
0.7456172831343945
 20
4.406724567473064
 30
0.0
1001
REVIT
1002
{
1070
     2
1000
-2001160
1002
}
  0
SPLINE
  5
10F
330
F6
100
AcDbEntity
  8
P-SANR-FIXT
100
AcDbSpline
210
0.0
220
0.0
230
1.0
 70
     8
 71
     3
 72
    12
 73
     8
 74
     0
 42
0.000000001
 43
0.0000000001
 40
0.4998675190590358
 40
0.4998675190590358
 40
0.4998675190590358
 40
0.4998675190590358
 40
0.5555555555555556
 40
0.6666666666666666
 40
0.7777777777777778
 40
0.8888888888888889
 40
1.0
 40
1.0
 40
1.0
 40
1.0
 10
0.7457725250785084
 20
4.406724646410022
 30
0.0
 10
0.7457724336233684
 20
4.4067378679651
 30
0.0
 10
0.7344372882092003
 20
4.406764577498743
 30
0.0
 10
0.6589995574318781
 20
4.406723116257037
 30
0.0
 10
0.4890807760263664
 20
4.406585535152286
 30
0.0
 10
0.2602053549872359
 20
4.406318581970028
 30
0.0
 10
0.08674119344632
 20
4.406263948311792
 30
0.0
 10
-0.0000000000002895
 20
4.406250000000023
 30
0.0
1001
REVIT
1002
{
1070
     2
1000
-2001160
1002
}
  0
SPLINE
  5
110
330
F6
100
AcDbEntity
  8
P-SANR-FIXT
100
AcDbSpline
210
0.0
220
0.0
230
1.0
 70
     8
 71
     3
 72
    12
 73
     8
 74
     0
 42
0.000000001
 43
0.0000000001
 40
0.0
 40
0.0
 40
0.0
 40
0.0
 40
0.1111111111111111
 40
0.2222222222222222
 40
0.3333333333333333
 40
0.4444444444444445
 40
0.5001324809409664
 40
0.5001324809409664
 40
0.5001324809409664
 40
0.5001324809409664
 10
-0.0000000000002895
 20
4.406250000000023
 30
0.0
 10
-0.0867411934468988
 20
4.406263948311791
 30
0.0
 10
-0.2602053549878156
 20
4.406318581970029
 30
0.0
 10
-0.4890807760269463
 20
4.406585535152284
 30
0.0
 10
-0.6589995574324603
 20
4.406723116257037
 30
0.0
 10
-0.7344372882097833
 20
4.406764577498743
 30
0.0
 10
-0.7457724336239524
 20
4.406737867965102
 30
0.0
 10
-0.7457725250790923
 20
4.406724646410023
 30
0.0
1001
REVIT
1002
{
1070
     2
1000
-2001160
1002
}
  0
SPLINE
  5
111
330
F6
100
AcDbEntity
  8
P-SANR-FIXT
100
AcDbSpline
210
0.0
220
0.0
230
1.0
 70
     8
 71
     3
 72
     8
 73
     4
 74
     0
 42
0.000000001
 43
0.0000000001
 40
0.5001419675071098
 40
0.5001419675071098
 40
0.5001419675071098
 40
0.5001419675071098
 40
0.5555555555555556
 40
0.5555555555555556
 40
0.5555555555555556
 40
0.5555555555555556
 10
-0.7457725247963728
 20
4.406724639652695
 30
0.0
 10
-0.7457713328317293
 20
4.406711481798468
 30
0.0
 10
-0.741911712184745
 20
4.406694123726873
 30
0.0
 10
-0.734526729754716
 20
4.406673806477245
 30
0.0
1001
REVIT
1002
{
1070
     2
1000
-2001160
1002
}
  0
LWPOLYLINE
  5
112
330
F6
100
AcDbEntity
  8
P-SANR-FIXT
100
AcDbPolyline
 90
        9
 70
   128
 43
0.0
 10
-0.0000000000003218
 20
6.999999999999966
 10
0.2588182274261059
 20
6.96587509220673
 10
0.4999665778679347
 20
6.865984700494114
 10
0.7071067811862294
 20
6.707106781186523
 10
0.8659851198929018
 20
6.499968954463002
 10
0.9658749524067571
 20
6.258812216039633
 10
0.9999999999996916
 20
5.99999999999998
 10
0.9658749524067649
 20
5.741187783960325
 10
0.8799098779581624
 20
5.524939035155393
1001
REVIT
1002
{
1070
     2
1000
-2001160
1002
}
  0
LWPOLYLINE
  5
113
330
F6
100
AcDbEntity
  8
P-SANR-FIXT
100
AcDbPolyline
 90
        9
 70
   128
 43
0.0
 10
-0.8798159809859818
 20
5.524765359967792
 10
-0.9658749524073744
 20
5.7411877839603
 10
-1.000000000000308
 20
5.999999999999953
 10
-0.9658749524073806
 20
6.258812216039609
 10
-0.8659851198935321
 20
6.499968954462981
 10
-0.7071067811868646
 20
6.707106781186504
 10
-0.4999665778685743
 20
6.8659847004941
 10
-0.2588182274267488
 20
6.965875092206723
 10
-0.0000000000003218
 20
6.999999999999966
1001
REVIT
1002
{
1070
     2
1000
-2001160
1002
}
  0
LINE
  5
114
330
F6
100
AcDbEntity
  8
P-SANR-FIXT
100
AcDbLine
 10
1.211055258803318
 20
0.4101950373089773
 30
0.0
 11
1.211055258803318
 21
0.2290877180930958
 31
0.0
1001
REVIT
1002
{
1070
     2
1000
-2001160
1002
}
  0
LINE
  5
115
330
F6
100
AcDbEntity
  8
P-SANR-FIXT
100
AcDbLine
 10
-1.211055258804798
 20
0.2290877180930958
 30
0.0
 11
-1.211055258804798
 21
0.4101950373089773
 31
0.0
1001
REVIT
1002
{
1070
     2
1000
-2001160
1002
}
  0
LINE
  5
116
330
F6
100
AcDbEntity
  8
P-SANR-FIXT
100
AcDbLine
 10
-0.0000000000007441
 20
0.2290877180930958
 30
0.0
 11
-0.0000000000007441
 21
0.4101950373089773
 31
0.0
1001
REVIT
1002
{
1070
     2
1000
-2001160
1002
}
  0
SPLINE
  5
117
330
F6
100
AcDbEntity
  8
P-SANR-FIXT
100
AcDbSpline
210
0.0
220
0.0
230
1.0
 70
     8
 71
     3
 72
    16
 73
    12
 74
     0
 42
0.000000001
 43
0.0000000001
 40
0.0
 40
0.0
 40
0.0
 40
0.0
 40
0.1666666666666666
 40
0.3333333333333333
 40
0.4166666666666666
 40
0.5
 40
0.5833333333333333
 40
0.6666666666666666
 40
0.75
 40
0.8333333333333332
 40
1.0
 40
1.0
 40
1.0
 40
1.0
 10
-0.0000000000007444
 20
0.4101950373089775
 30
0.0
 10
-0.0000096754116951
 20
0.4145583604389634
 30
0.0
 10
0.0000037904262971
 20
0.4232847561408656
 30
0.0
 10
0.0000016705885808
 20
0.4334489178844344
 30
0.0
 10
-0.0000037651469375
 20
0.4407201085067787
 30
0.0
 10
0.0000017213703664
 20
0.445651502989349
 30
0.0
 10
-0.0000031203389923
 20
0.4499761377456574
 30
0.0
 10
0.0000007635841292
 20
0.4536201719692598
 30
0.0
 10
0.0000000659980119
 20
0.4565210193665019
 30
0.0
 10
-0.0000097707706736
 20
0.4593327724404794
 30
0.0
 10
0.0000486558526387
 20
0.4601950373089775
 30
0.0
 10
-0.0000000000007437
 20
0.4601950373089771
 30
0.0
1001
REVIT
1002
{
1070
     2
1000
-2001160
1002
}
  0
SPLINE
  5
118
330
F6
100
AcDbEntity
  8
P-SANR-FIXT
100
AcDbSpline
210
0.0
220
0.0
230
1.0
 70
     8
 71
     3
 72
    16
 73
    12
 74
     0
 42
0.000000001
 43
0.0000000001
 40
0.0
 40
0.0
 40
0.0
 40
0.0
 40
0.1666666666666666
 40
0.3333333333333333
 40
0.4166666666666666
 40
0.5
 40
0.5833333333333333
 40
0.6666666666666666
 40
0.75
 40
0.8333333333333332
 40
1.0
 40
1.0
 40
1.0
 40
1.0
 10
1.211055258803319
 20
0.4101950373089775
 30
0.0
 10
1.211045583392368
 20
0.4145583604389635
 30
0.0
 10
1.20991038054789
 20
0.4232847561408656
 30
0.0
 10
1.205697224841703
 20
0.4334489178844347
 30
0.0
 10
1.20083250615298
 20
0.4407201085067786
 30
0.0
 10
1.196513457567625
 20
0.4456515029893492
 30
0.0
 10
1.191577250752399
 20
0.4499761377456576
 30
0.0
 10
1.1861275245483
 20
0.4536201719692599
 30
0.0
 10
1.18024420387431
 20
0.456521019366502
 30
0.0
 10
1.171953210023277
 20
0.4593327724404794
 30
0.0
 10
1.165467237786687
 20
0.4601950373089775
 30
0.0
 10
1.161055258803318
 20
0.4601950373089773
 30
0.0
1001
REVIT
1002
{
1070
     2
1000
-2001160
1002
}
  0
SPLINE
  5
119
330
F6
100
AcDbEntity
  8
P-SANR-FIXT
100
AcDbSpline
210
0.0
220
0.0
230
1.0
 70
     8
 71
     3
 72
    16
 73
    12
 74
     0
 42
0.000000001
 43
0.0000000001
 40
-1.0
 40
-1.0
 40
-1.0
 40
-1.0
 40
-0.8333333333333333
 40
-0.75
 40
-0.6666666666666666
 40
-0.5833333333333333
 40
-0.5
 40
-0.4166666666666666
 40
-0.3333333333333333
 40
-0.1666666666666666
 40
0.0
 40
0.0
 40
0.0
 40
0.0
 10
-1.161055258804797
 20
0.4601950373089773
 30
0.0
 10
-1.165418581934783
 20
0.4601950373089775
 30
0.0
 10
-1.171962980794685
 20
0.4593327724404791
 30
0.0
 10
-1.180244137877034
 20
0.4565210193665016
 30
0.0
 10
-1.186126760964907
 20
0.4536201719692597
 30
0.0
 10
-1.191580371092126
 20
0.4499761377456569
 30
0.0
 10
-1.196511736197994
 20
0.4456515029893488
 30
0.0
 10
-1.200836271300652
 20
0.4407201085067781
 30
0.0
 10
-1.205695554253856
 20
0.4334489178844341
 30
0.0
 10
-1.209906590122328
 20
0.4232847561408652
 30
0.0
 10
-1.211055258804798
 20
0.4145583604389633
 30
0.0
 10
-1.211055258804798
 20
0.4101950373089775
 30
0.0
1001
REVIT
1002
{
1070
     2
1000
-2001160
1002
}
  0
ENDBLK
  5
11A
330
F6
100
AcDbEntity
  8
0
100
AcDbBlockEnd
  0
BLOCK
  5
1AE
330
1AD
100
AcDbEntity
  8
0
100
AcDbBlockBegin
  2
Tub_Filler-DXV-Oak_Hill-D35155761_Series - Left View
 70
     0
 10
0.0
 20
0.0
 30
0.0
  3
Tub_Filler-DXV-Oak_Hill-D35155761_Series - Left View
  1

  0
LINE
  5
1B0
330
1AD
100
AcDbEntity
  8
P-SANR-FIXT
 62
     0
100
AcDbLine
 10
-10.44923542691567
 20
0.7458021851498003
 30
0.0
 11
-13.51822961943972
 21
0.7458021851498435
 31
0.0
1001
REVIT
1002
{
1070
     2
1000
-2001160
1002
}
  0
LINE
  5
1B1
330
1AD
100
AcDbEntity
  8
P-SANR-FIXT
 62
     0
100
AcDbLine
 10
-13.51822961943974
 20
-0.7458021851504788
 30
0.0
 11
-10.44923542691571
 21
-0.7458021851505221
 31
0.0
1001
REVIT
1002
{
1070
     2
1000
-2001160
1002
}
  0
LWPOLYLINE
  5
1B2
330
1AD
100
AcDbEntity
  8
P-SANR-FIXT
 62
     0
100
AcDbPolyline
 90
       12
 70
   128
 43
0.0
 10
-13.51822961943974
 20
-0.7458021851504362
 10
-13.58903219208007
 20
-0.7472184254403423
 10
-13.65972149570793
 20
-0.7514648806276134
 10
-13.73018444251707
 20
-0.7585347572898917
 10
-13.80030830682391
 20
-0.7684167451326309
 10
-13.86998090540451
 20
-0.7810950350833585
 10
-13.93909077696385
 20
-0.7965493445826772
 10
-14.00752736045007
 20
-0.8147549500321863
 10
-14.07518117192862
 20
-0.8356827263467584
 10
-14.14194397973319
 20
-0.8592991935486697
 10
-14.20770897761325
 20
-0.8855665703283197
 10
-14.22525996782894
 20
-0.8930988504064647
1001
REVIT
1002
{
1070
     2
1000
-2001160
1002
}
  0
LWPOLYLINE
  5
1B3
330
1AD
100
AcDbEntity
  8
P-SANR-FIXT
 62
     0
100
AcDbPolyline
 90
       12
 70
   128
 43
0.0
 10
-14.22525996782892
 20
0.8930988504058298
 10
-14.15978214189392
 20
0.8661235961924965
 10
-14.09327796878023
 20
0.8417883339684472
 10
-14.02585384097804
 20
0.8201319949619922
 10
-13.95761762270878
 20
0.8011892246957849
 10
-13.8886784773654
 20
0.784990327561355
 10
-13.81914669287421
 20
0.7715612183384856
 10
-13.74913350525775
 20
0.7609233807372839
 10
-13.67875092068084
 20
0.753093833028553
 10
-13.60811153626467
 20
0.7480851008184665
 10
-13.53732835995536
 20
0.7459051970100481
 10
-13.51822961943972
 20
0.7458021851498222
1001
REVIT
1002
{
1070
     2
1000
-2001160
1002
}
  0
LWPOLYLINE
  5
1B4
330
1AD
100
AcDbEntity
  8
P-SANR-FIXT
 62
     0
100
AcDbPolyline
 90
       30
 70
   128
 43
0.0
 10
-14.22525996782894
 20
-0.8930988504064647
 10
-14.23554754588579
 20
-0.8978267551286737
 10
-14.24563782921554
 20
-0.9029622714282911
 10
-14.25551467551734
 20
-0.908497183574693
 10
-14.26516228394406
 20
-0.9144226368892677
 10
-14.27456522038025
 20
-0.9207291519106394
 10
-14.28370844213348
 20
-0.9274066395601369
 10
-14.29257732199938
 20
-0.9344444172819923
 10
-14.30115767166211
 20
-0.9418312261331369
 10
-14.30943576439258
 20
-0.9495552487952043
 10
-14.31739835700831
 20
-0.9576041284795994
 10
-14.32503271105972
 20
-0.9659649886958778
 10
-14.3323266132089
 20
-0.9746244538512033
 10
-14.33926839476836
 20
-0.9835686706486132
 10
-14.34584695036844
 20
-0.9927833302491723
 10
-14.35205175572354
 20
-1.002253691163294
 10
-14.35787288446869
 20
-1.01196460283369
 10
-14.3633010240397
 20
-1.021900529873261
 10
-14.36832749057118
 20
-1.032045576918304
 10
-14.37294424278893
 20
-1.042383514057687
 10
-14.37714389487428
 20
-1.052897802797336
 10
-14.38091972827975
 20
-1.063571622518115
 10
-14.38426570247736
 20
-1.074387897385517
 10
-14.38717646462218
 20
-1.085329323667058
 10
-14.3896473581157
 20
-1.096378397414729
 10
-14.39167443005542
 20
-1.1075174424676
 10
-14.39325443755866
 20
-1.118728638729703
 10
-14.39438485295046
 20
-1.129994050678679
 10
-14.39506386780735
 20
-1.141295656058542
 10
-14.39529039585039
 20
-1.15261537471157
1001
REVIT
1002
{
1070
     2
1000
-2001160
1002
}
  0
LWPOLYLINE
  5
1B5
330
1AD
100
AcDbEntity
  8
P-SANR-FIXT
 62
     0
100
AcDbPolyline
 90
       30
 70
   128
 43
0.0
 10
-14.39529039586217
 20
1.152617961346865
 10
-14.39506397125697
 20
1.141298240624346
 10
-14.39438505967243
 20
1.129996629040209
 10
-14.39325474722225
 20
1.118731206762151
 10
-14.39167484216525
 20
1.107519996062637
 10
-14.38964787201248
 20
1.096380932487195
 10
-14.38717707948378
 20
1.085331836161318
 10
-14.38426641732014
 20
1.074390383282152
 10
-14.3809205419601
 20
1.063574077840231
 10
-14.3771448060905
 20
1.052900223616875
 10
-14.37294525008326
 20
1.042385896501928
 10
-14.36832859233216
 20
1.032047917175811
 10
-14.36330221850475
 20
1.021902824200149
 10
-14.35787416972693
 20
1.011966847559487
 10
-14.35205312971882
 20
1.002255882696909
 10
-14.34584841090267
 20
0.9927854650846533
 10
-14.33926993950499
 20
0.9835707453706227
 10
-14.33232823967668
 20
0.9746264651406683
 10
-14.32503441665665
 20
0.9659669333351693
 10
-14.3174001390058
 20
0.9576060033577341
 10
-14.30943761993981
 20
0.9495570509127041
 10
-14.30115959779061
 20
0.94183295260706
 10
-14.29257931562776
 20
0.934446065350324
 10
-14.28371050007234
 20
0.9274082065863304
 10
-14.27456733933733
 20
0.9207306353877505
 10
-14.26516446052949
 20
0.9144240344440483
 10
-14.25551690624905
 20
0.908498492971406
 10
-14.24564011052482
 20
0.9029634905721003
 10
-14.23554987412305
 20
0.8978278820692885
 10
-14.22526233926948
 20
0.8930998833409752
1001
REVIT
1002
{
1070
     2
1000
-2001160
1002
}
  0
LWPOLYLINE
  5
1B6
330
1AD
100
AcDbEntity
  8
P-SANR-FIXT
 62
     0
100
AcDbPolyline
 90
        2
 70
   128
 43
0.0
 10
-14.62639770882264
 20
-1.406250000002938
 10
-14.6263977088226
 20
1.406250000002347
1001
REVIT
1002
{
1070
     2
1000
-2001160
1002
}
  0
LWPOLYLINE
  5
1B7
330
1AD
100
AcDbEntity
  8
P-SANR-FIXT
 62
     0
100
AcDbPolyline
 90
       41
 70
   128
 43
0.0
 10
-14.62639770882264
 20
-1.406250000002938
 10
-14.62644770215632
 20
-1.408749333389612
 10
-14.62659760217872
 20
-1.411244668376018
 10
-14.62684716908177
 20
-1.413732012958502
 10
-14.62719600361166
 20
-1.416207387916334
 10
-14.62764354770756
 20
-1.418666833177629
 10
-14.62818908539438
 20
-1.421106414154647
 10
-14.62883174392821
 20
-1.423522228038199
 10
-14.62957049519248
 20
-1.425910410041457
 10
-14.63040415734276
 20
-1.428267139582641
 10
-14.63133139669745
 20
-1.430588646397244
 10
-14.63235072987139
 20
-1.432871216569563
 10
-14.63346052614893
 20
-1.435111198474271
 10
-14.63465901009278
 20
-1.437305008618186
 10
-14.6359442643843
 20
-1.439449137372986
 10
-14.63731423289078
 20
-1.441540154590133
 10
-14.63876672395486
 20
-1.443574715088087
 10
-14.6402994139007
 20
-1.445549564004079
 10
-14.64190985075133
 20
-1.447461542001168
 10
-14.64359545815133
 20
-1.449307590322352
 10
-14.64535353948844
 20
-1.451084755684147
 10
-14.64718128220755
 20
-1.452790195001125
 10
-14.64907576231022
 20
-1.454421179934134
 10
-14.65103394903242
 20
-1.455975101255224
 10
-14.65305270969311
 20
-1.457449473021765
 10
-14.65512881470588
 20
-1.458841936553445
 10
-14.65725894274559
 20
-1.460150264205656
 10
-14.65943968606178
 20
-1.461372362933237
 10
-14.66166755593034
 20
-1.462506277638962
 10
-14.66393898823474
 20
-1.463550194301174
 10
-14.66625034916784
 20
-1.464502442875887
 10
-14.66859794104521
 20
-1.465361499968548
 10
-14.67097800822064
 20
-1.466125991271025
 10
-14.67338674309436
 20
-1.466794693760332
 10
-14.67582029220442
 20
-1.467366537655149
 10
-14.67827476239137
 20
-1.467840608127223
 10
-14.6807462270265
 20
-1.468216146764935
 10
-14.68323073229362
 20
-1.468492552786547
 10
-14.68572430351429
 20
-1.468669384001413
 10
-14.68822295150649
 20
-1.468746357517336
 10
-14.68889770882264
 20
-1.468750000002946
1001
REVIT
1002
{
1070
     2
1000
-2001160
1002
}
  0
LWPOLYLINE
  5
1B8
330
1AD
100
AcDbEntity
  8
P-SANR-FIXT
 62
     0
100
AcDbPolyline
 90
       41
 70
   128
 43
0.0
 10
-14.6888977088226
 20
1.468750000002354
 10
-14.68639837543593
 20
1.468700006668657
 10
-14.68390304044952
 20
1.468550106646257
 10
-14.68141569586704
 20
1.468300539743199
 10
-14.67894032090921
 20
1.467951705213339
 10
-14.67648087564791
 20
1.467504161117434
 10
-14.6740412946709
 20
1.466958623430601
 10
-14.67162548078734
 20
1.466315964896767
 10
-14.66923729878409
 20
1.465577213632487
 10
-14.6668805692429
 20
1.46474355148221
 10
-14.66455906242831
 20
1.463816312127514
 10
-14.66227649225597
 20
1.462796978953593
 10
-14.66003651035125
 20
1.46168718267606
 10
-14.65784270020736
 20
1.460488698732208
 10
-14.65569857145254
 20
1.45920344444067
 10
-14.65360755423541
 20
1.457833475934203
 10
-14.65157299373745
 20
1.456380984870096
 10
-14.64959814482144
 20
1.454848294924277
 10
-14.64768616682438
 20
1.453237858073651
 10
-14.64584011850319
 20
1.451552250673666
 10
-14.64406295314138
 20
1.449794169336537
 10
-14.64235751382442
 20
1.447966426617421
 10
-14.64072652889141
 20
1.446071946514751
 10
-14.63917260757032
 20
1.444113759792559
 10
-14.63769823580378
 20
1.442094999131884
 10
-14.6363057722721
 20
1.440018894119115
 10
-14.63499744461989
 20
1.437888766079398
 10
-14.63377534589229
 20
1.435708022763189
 10
-14.63264143118656
 20
1.433480152894633
 10
-14.63159751452436
 20
1.431208720590243
 10
-14.63064526594964
 20
1.42889735965713
 10
-14.629786208857
 20
1.426549767779777
 10
-14.62902171755452
 20
1.424169700604326
 10
-14.62835301506521
 20
1.421760965730622
 10
-14.62778117117039
 20
1.419327416620556
 10
-14.62730710069832
 20
1.416872946433608
 10
-14.62693156206062
 20
1.414401481798466
 10
-14.62665515603899
 20
1.411916976531367
 10
-14.62647832482412
 20
1.409423405310692
 10
-14.62640135130822
 20
1.40692475731848
 10
-14.6263977088226
 20
1.406250000002347
1001
REVIT
1002
{
1070
     2
1000
-2001160
1002
}
  0
LINE
  5
1B9
330
1AD
100
AcDbEntity
  8
P-SANR-FIXT
 62
     0
100
AcDbLine
 10
-14.6888977088226
 20
1.468750000002332
 30
0.0
 11
-14.85548542691573
 21
1.468750000002332
 31
0.0
1001
REVIT
1002
{
1070
     2
1000
-2001160
1002
}
  0
LINE
  5
1BA
330
1AD
100
AcDbEntity
  8
P-SANR-FIXT
 62
     0
100
AcDbLine
 10
-14.85548542691577
 20
-1.468750000002924
 30
0.0
 11
-14.68889770882264
 21
-1.468750000002924
 31
0.0
1001
REVIT
1002
{
1070
     2
1000
-2001160
1002
}
  0
LINE
  5
1BB
330
1AD
100
AcDbEntity
  8
P-SANR-FIXT
 62
     0
100
AcDbLine
 10
-14.39529038960672
 20
-1.340671132430071
 30
0.0
 11
-14.39529038960672
 21
1.340671132428158
 31
0.0
1001
REVIT
1002
{
1070
     2
1000
-2001160
1002
}
  0
LWPOLYLINE
  5
1BC
330
1AD
100
AcDbEntity
  8
P-SANR-FIXT
 62
     0
100
AcDbPolyline
 90
        7
 70
   128
 43
0.0
 10
-8.723585996477739
 20
1.31218929175013
 10
-8.639193574227808
 20
1.310501218222662
 10
-8.554936161850722
 20
1.305439698197795
 10
-8.470948553232325
 20
1.297012829027822
 10
-8.38736511063001
 20
1.285234091905778
 10
-8.304319549721753
 20
1.270122330298442
 10
-8.235141308613783
 20
1.254886192611387
1001
REVIT
1002
{
1070
     2
1000
-2001160
1002
}
  0
LWPOLYLINE
  5
1BD
330
1AD
100
AcDbEntity
  8
P-SANR-FIXT
 62
     0
100
AcDbPolyline
 90
        7
 70
   128
 43
0.0
 10
-9.212030684341694
 20
1.254886192611388
 10
-9.129539071220852
 20
1.27277653330588
 10
-9.046398019779125
 20
1.287353778951357
 10
-8.962740537963005
 20
1.298594609064417
 10
-8.878700459897425
 20
1.306481040714758
 10
-8.794412231779695
 20
1.311000457294142
 10
-8.723585996477741
 20
1.31218929175013
1001
REVIT
1002
{
1070
     2
1000
-2001160
1002
}
  0
LWPOLYLINE
  5
1BE
330
1AD
100
AcDbEntity
  8
P-SANR-FIXT
 62
     0
100
AcDbPolyline
 90
       49
 70
   128
 43
0.0
 10
-8.235141308613783
 20
1.254886192611387
 10
-8.234235614773922
 20
1.254651486318245
 10
-8.233340031140926
 20
1.254380749671448
 10
-8.232455990457552
 20
1.254074415791927
 10
-8.231584907000318
 20
1.253732974748509
 10
-8.230728174316926
 20
1.253356972774036
 10
-8.229887162996913
 20
1.252947011391434
 10
-8.229063218478987
 20
1.252503746451502
 10
-8.228257658898609
 20
1.25202788708355
 10
-8.227471772979264
 20
1.251520194561096
 10
-8.226706817970775
 20
1.250981481083812
 10
-8.225964017637974
 20
1.250412608478385
 10
-8.225244560302943
 20
1.249814486819645
 10
-8.224549596943937
 20
1.249188072974604
 10
-8.223880239354077
 20
1.248534369071841
 10
-8.223237558362725
 20
1.247854420898108
 10
-8.222622582122365
 20
1.247149316225453
 10
-8.222036294463798
 20
1.24642018307096
 10
-8.221479633322203
 20
1.245668187892065
 10
-8.220953489236663
 20
1.244894533720725
 10
-8.220458703925473
 20
1.244100458238514
 10
-8.219996068939588
 20
1.243287231796828
 10
-8.219566324396293
 20
1.242456155384531
 10
-8.219170157795179
 20
1.241608558546545
 10
-8.2188082029183
 20
1.24074579725702
 10
-8.218481038816248
 20
1.239869251749951
 10
-8.218189188881794
 20
1.238980324311221
 10
-8.21793312001257
 20
1.238080437035038
 10
-8.217713241864151
 20
1.237171029549124
 10
-8.217529906194664
 20
1.236253556711432
 10
-8.217383406302069
 20
1.235329486282787
 10
-8.217273976554947
 20
1.23440029657877
 10
-8.217201792017547
 20
1.2334674741047
 10
-8.217166968169731
 20
1.232532511177482
 10
-8.217169560722226
 20
1.231596903538439
 10
-8.2172095655275
 20
1.230662147960132
 10
-8.217286918586403
 20
1.229729739852118
 10
-8.217401496150536
 20
1.228801170868472
 10
-8.217553114920242
 20
1.227877926521472
 10
-8.217741532337834
 20
1.226961483805134
 10
-8.217966446975633
 20
1.226053308832278
 10
-8.218227499018205
 20
1.225154854489141
 10
-8.218524270837962
 20
1.224267558111052
 10
-8.218856287663305
 20
1.223392839182871
 10
-8.219223018338137
 20
1.222532097068339
 10
-8.219623876171613
 20
1.221686708771202
 10
-8.220058219876712
 20
1.220858026732394
 10
-8.220525354596157
 20
1.220047376666408
 10
-8.221016919392065
 20
1.21926761379153
1001
REVIT
1002
{
1070
     2
1000
-2001160
1002
}
  0
LWPOLYLINE
  5
1BF
330
1AD
100
AcDbEntity
  8
P-SANR-FIXT
 62
     0
100
AcDbPolyline
 90
       49
 70
   128
 43
0.0
 10
-9.226155073563415
 20
1.21926761379153
 10
-9.226653783680454
 20
1.220059230235755
 10
-9.227120438668059
 20
1.220870156556792
 10
-9.227554291977792
 20
1.221699095445502
 10
-9.227954649536915
 20
1.22254472077654
 10
-9.228320870858734
 20
1.223405679729716
 10
-9.228652370067255
 20
1.22428059495438
 10
-9.228948616834465
 20
1.225168066772803
 10
-9.22920913722873
 20
1.226066675419411
 10
-9.229433514472994
 20
1.226974983312076
 10
-9.229621389611532
 20
1.227891537351909
 10
-9.229772462084198
 20
1.22881487124797
 10
-9.229886490207265
 20
1.229743507862978
 10
-9.229963291560061
 20
1.230675961576452
 10
-9.230002743276802
 20
1.231610740661417
 10
-9.230004782243161
 20
1.232546349670692
 10
-9.229969405197223
 20
1.233481291829435
 10
-9.229896668734717
 20
1.234414071429683
 10
-9.229786689218467
 20
1.235343196223042
 10
-9.229639642592239
 20
1.236267179808003
 10
-9.229455764099263
 20
1.237184544007988
 10
-9.229235347905905
 20
1.238093821235964
 10
-9.228978746631053
 20
1.238993556842324
 10
-9.228686370782011
 20
1.239882311442053
 10
-9.228358688097763
 20
1.240758663217328
 10
-9.227996222800708
 20
1.241621210192271
 10
-9.227599554757993
 20
1.242468572475801
 10
-9.227169318553873
 20
1.243299394468913
 10
-9.226706202474494
 20
1.244112347033721
 10
-9.226210947406791
 20
1.244906129619516
 10
-9.22568434565322
 20
1.245679472343518
 10
-9.225127239664256
 20
1.246431138022296
 10
-9.224540520690634
 20
1.247159924151127
 10
-9.223925127357556
 20
1.247864664827695
 10
-9.223282044163076
 20
1.248544232617256
 10
-9.222612299903119
 20
1.249197540356257
 10
-9.221916966025634
 20
1.24982354289174
 10
-9.221197154916495
 20
1.250421238753163
 10
-9.220454018119919
 20
1.250989671754632
 10
-9.219688744496261
 20
1.251527932524667
 10
-9.218902558320063
 20
1.252035159960784
 10
-9.2180967173215
 20
1.252510542607333
 10
-9.217272510674265
 20
1.25295331995347
 10
-9.216431256933171
 20
1.253362783649913
 10
-9.215574301924746
 20
1.253738278642047
 10
-9.214703016594199
 20
1.254079204218073
 10
-9.213818794812194
 20
1.254385014969728
 10
-9.212923051144954
 20
1.25465522166504
 10
-9.212030684341694
 20
1.254886192611388
1001
REVIT
1002
{
1070
     2
1000
-2001160
1002
}
  0
LWPOLYLINE
  5
1C0
330
1AD
100
AcDbEntity
  8
P-SANR-FIXT
 62
     0
100
AcDbPolyline
 90
       11
 70
   128
 43
0.0
 10
-8.221016919392059
 20
1.21926761379153
 10
-8.244058451505493
 20
1.182693148791053
 10
-8.265618964347266
 20
1.14522652393363
 10
-8.285663965696162
 20
1.106927677826619
 10
-8.304161387826063
 20
1.067857880453772
 10
-8.321081638807465
 20
1.028079635156431
 10
-8.336397649848262
 20
0.9876565786415492
 10
-8.350084918598025
 20
0.9466533791764115
 10
-8.362121548346554
 20
0.9051356331332778
 10
-8.372488283053929
 20
0.863169760049133
 10
-8.380150250237081
 20
0.8262719358215813
1001
REVIT
1002
{
1070
     2
1000
-2001160
1002
}
  0
LWPOLYLINE
  5
1C1
330
1AD
100
AcDbEntity
  8
P-SANR-FIXT
 62
     0
100
AcDbPolyline
 90
       11
 70
   128
 43
0.0
 10
-9.067021742718395
 20
0.8262719358215814
 10
-9.075919086758489
 20
0.8685737201957419
 10
-9.086500934064378
 20
0.9104858687901764
 10
-9.098750355937715
 20
0.9519413311079116
 10
-9.112647755916574
 20
0.9928737872525356
 10
-9.12817090112561
 20
1.033217754026112
 10
-9.145294957843912
 20
1.072908689687985
 10
-9.163992531233674
 20
1.111883097208058
 10
-9.184233709166072
 20
1.150078625848423
 10
-9.205986110074299
 20
1.187434170911161
 10
-9.226155073563418
 20
1.21926761379153
1001
REVIT
1002
{
1070
     2
1000
-2001160
1002
}
  0
LWPOLYLINE
  5
1C2
330
1AD
100
AcDbEntity
  8
P-SANR-FIXT
 62
     0
100
AcDbPolyline
 90
       19
 70
   128
 43
0.0
 10
-8.380150250237081
 20
0.8262719358215813
 10
-8.380741181726797
 20
0.8234623944184926
 10
-8.381443992224429
 20
0.8206787313057413
 10
-8.382257557383107
 20
0.817925399750373
 10
-8.383180575672124
 20
0.8152068044956459
 10
-8.384211570459122
 20
0.8125272947139317
 10
-8.385348892372377
 20
0.8098911570493365
 10
-8.386590721939437
 20
0.8073026087597634
 10
-8.387935072497908
 20
0.8047657909702872
 10
-8.389379793373676
 20
0.8022847620482247
 10
-8.390922573321532
 20
0.7998634911105791
 10
-8.392560944222662
 20
0.7975058516743028
 10
-8.394292285033134
 20
0.7952156154596333
 10
-8.396113825976978
 20
0.7929964463559012
 10
-8.398022652977259
 20
0.7908518945602987
 10
-8.400015712317973
 20
0.7887853908982203
 10
-8.402089815529336
 20
0.7868002413346824
 10
-8.404241644488665
 20
0.7848996216854767
 10
-8.406152130768045
 20
0.7833347253811605
1001
REVIT
1002
{
1070
     2
1000
-2001160
1002
}
  0
LWPOLYLINE
  5
1C3
330
1AD
100
AcDbEntity
  8
P-SANR-FIXT
 62
     0
100
AcDbPolyline
 90
       19
 70
   128
 43
0.0
 10
-9.041019862187427
 20
0.7833347253811606
 10
-9.043235798493284
 20
0.785160197706163
 10
-9.045376962863599
 20
0.7870728236655335
 10
-9.047439929892133
 20
0.7890695434656588
 10
-9.049421399271718
 20
0.7911471627808179
 10
-9.051318201074035
 20
0.7933023578633548
 10
-9.053127300820836
 20
0.7955316808608554
 10
-9.054845804338441
 20
0.7978315653320972
 10
-9.05647096238782
 20
0.8001983319525447
 10
-9.058000175062772
 20
0.8026281944004349
 10
-9.059430995949234
 20
0.8051172654142899
 10
-9.060761136039015
 20
0.8076615630113874
 10
-9.061988467391717
 20
0.8102570168583664
 10
-9.063111026538992
 20
0.8128994747826904
 10
-9.064127017625672
 20
0.8155847094154193
 10
-9.065034815282754
 20
0.8183084249539486
 10
-9.065832967227635
 20
0.8210662640344647
 10
-9.066520196587466
 20
0.8238538147027096
 10
-9.067021742718395
 20
0.8262719358215814
1001
REVIT
1002
{
1070
     2
1000
-2001160
1002
}
  0
LWPOLYLINE
  5
1C4
330
1AD
100
AcDbEntity
  8
P-SANR-FIXT
 62
     0
100
AcDbPolyline
 90
       24
 70
   128
 43
0.0
 10
-8.406152130768033
 20
0.7833347253811605
 10
-8.40791102887805
 20
0.7818857578210805
 10
-8.409610576809198
 20
0.7803676121162093
 10
-8.411248055647341
 20
0.77878271697577
 10
-8.412820845775645
 20
0.7771336078939238
 10
-8.414326431065417
 20
0.775422923093367
 10
-8.41576240290137
 20
0.7736533993048989
 10
-8.417126464034886
 20
0.7718278673891215
 10
-8.418416432259141
 20
0.7699492478076247
 10
-8.419630243900151
 20
0.7680205459510328
 10
-8.420765957118224
 20
0.7660448473308188
 10
-8.421821755014482
 20
0.7640253126433701
 10
-8.422795948537519
 20
0.7619651727133823
 10
-8.423686979185514
 20
0.7598677233252156
 10
-8.424493421499507
 20
0.7577363199505039
 10
-8.425213985343823
 20
0.7555743723799476
 10
-8.425847517970032
 20
0.7533853392684771
 10
-8.42639300586107
 20
0.7511727226021004
 10
-8.42684957635268
 20
0.7489400620955147
 10
-8.427216499029469
 20
0.7466909295292235
 10
-8.427493186893434
 20
0.7444289230355148
 10
-8.427679197303007
 20
0.742157661342298
 10
-8.427774232681219
 20
0.7398807779837507
 10
-8.427787665320028
 20
0.7386436520008042
1001
REVIT
1002
{
1070
     2
1000
-2001160
1002
}
  0
LWPOLYLINE
  5
1C5
330
1AD
100
AcDbEntity
  8
P-SANR-FIXT
 62
     0
100
AcDbPolyline
 90
       24
 70
   128
 43
0.0
 10
-9.019384327635446
 20
0.7386436520008043
 10
-9.019429901913973
 20
0.7409220620904559
 10
-9.019566551840426
 20
0.7431968272100217
 10
-9.019794058804077
 20
0.7454643082205276
 10
-9.020112058842311
 20
0.7477208776360992
 10
-9.02052004322291
 20
0.7499629254270001
 10
-9.021017359257893
 20
0.752186864795065
 10
-9.021603211347693
 20
0.754389137911745
 10
-9.022276662253942
 20
0.75656622160981
 10
-9.023036634598851
 20
0.7587146330198219
 10
-9.023881912588787
 20
0.7608309351417414
 10
-9.024811143959285
 20
0.7629117423436763
 10
-9.025822842138374
 20
0.7649537257779652
 10
-9.026915388624786
 20
0.7669536187067517
 10
-9.028087035577208
 20
0.7689082217279274
 10
-9.029335908610455
 20
0.7708144078936609
 10
-9.030660009794083
 20
0.7726691277126686
 10
-9.03205722084866
 20
0.7744694140289578
 10
-9.033525306534551
 20
0.7762123867683651
 10
-9.035061918227839
 20
0.7778952575464341
 10
-9.036664597677605
 20
0.7795153341288251
 10
-9.038330780938615
 20
0.7810700247386545
 10
-9.040057802473087
 20
0.7825568422025963
 10
-9.041019862187441
 20
0.7833347253811606
1001
REVIT
1002
{
1070
     2
1000
-2001160
1002
}
  0
LINE
  5
1C6
330
1AD
100
AcDbEntity
  8
P-SANR-FIXT
 62
     0
100
AcDbLine
 10
-9.019384327635432
 20
0.7386436520008043
 30
0.0
 11
-9.019384327635428
 21
0.3775691804180878
 31
0.0
1001
REVIT
1002
{
1070
     2
1000
-2001160
1002
}
  0
LINE
  5
1C7
330
1AD
100
AcDbEntity
  8
P-SANR-FIXT
 62
     0
100
AcDbLine
 10
-8.427787665320041
 20
-0.1359311923768689
 30
0.0
 11
-8.427787665320046
 21
0.7386436520008042
 31
0.0
1001
REVIT
1002
{
1070
     2
1000
-2001160
1002
}
  0
LINE
  5
1C8
330
1AD
100
AcDbEntity
  8
P-SANR-FIXT
 62
     0
100
AcDbLine
 10
-14.85548542691577
 20
-1.468750000002933
 30
0.0
 11
-14.85548542691573
 21
1.468750000002316
 31
0.0
1001
REVIT
1002
{
1070
     2
1000
-2001160
1002
}
  0
LWPOLYLINE
  5
1C9
330
1AD
100
AcDbEntity
  8
P-SANR-FIXT
 62
     0
100
AcDbPolyline
 90
        2
 70
   128
 43
0.0
 10
-7.855485426915736
 20
-1.593750000000214
 10
-9.855485426915738
 20
-1.593750000000189
1001
REVIT
1002
{
1070
     2
1000
-2001160
1002
}
  0
LINE
  5
1CA
330
1AD
100
AcDbEntity
  8
P-SANR-FIXT
 62
     0
100
AcDbLine
 10
-14.44529038960672
 20
0.6992030796730669
 30
0.0
 11
-14.6263977088226
 21
0.699203079673067
 31
0.0
1001
REVIT
1002
{
1070
     2
1000
-2001160
1002
}
  0
LINE
  5
1CB
330
1AD
100
AcDbEntity
  8
P-SANR-FIXT
 62
     0
100
AcDbLine
 10
-14.6263977088226
 20
-0.6992030796749993
 30
0.0
 11
-14.44529038960672
 21
-0.6992030796749994
 31
0.0
1001
REVIT
1002
{
1070
     2
1000
-2001160
1002
}
  0
LINE
  5
1CC
330
1AD
100
AcDbEntity
  8
P-SANR-FIXT
 62
     0
100
AcDbLine
 10
-14.6263977088226
 20
-1.398406159349039
 30
0.0
 11
-14.44529038960672
 21
-1.398406159349039
 31
0.0
1001
REVIT
1002
{
1070
     2
1000
-2001160
1002
}
  0
LINE
  5
1CD
330
1AD
100
AcDbEntity
  8
P-SANR-FIXT
 62
     0
100
AcDbLine
 10
-14.6263977088226
 20
1.398406159347098
 30
0.0
 11
-14.44529038960672
 21
1.398406159347098
 31
0.0
1001
REVIT
1002
{
1070
     2
1000
-2001160
1002
}
  0
SPLINE
  5
1CE
330
1AD
100
AcDbEntity
  8
P-SANR-FIXT
 62
     0
100
AcDbSpline
210
0.0
220
0.0
230
1.0
 70
     8
 71
     3
 72
    16
 73
    12
 74
     0
 42
0.000000001
 43
0.0000000001
 40
0.0
 40
0.0
 40
0.0
 40
0.0
 40
0.1666666666666666
 40
0.3333333333333333
 40
0.4166666666666666
 40
0.5
 40
0.5833333333333333
 40
0.6666666666666666
 40
0.75
 40
0.8333333333333332
 40
1.0
 40
1.0
 40
1.0
 40
1.0
 10
-14.44529038960672
 20
1.3984061593471
 30
0.0
 10
-14.44092706647674
 20
1.398400573245983
 30
0.0
 10
-14.43220067077484
 20
1.397081979405105
 30
0.0
 10
-14.42203650903127
 20
1.39221827013177
 30
0.0
 10
-14.41476531840892
 20
1.386604115166204
 30
0.0
 10
-14.40983392392635
 20
1.381613739797166
 30
0.0
 10
-14.40550928917004
 20
1.375916694492274
 30
0.0
 10
-14.40186525494644
 20
1.369621650326322
 30
0.0
 10
-14.3989644075492
 20
1.362828579528141
 30
0.0
 10
-14.39615265447522
 20
1.353260643725702
 30
0.0
 10
-14.39529038960672
 20
1.345737555465503
 30
0.0
 10
-14.39529038960672
 20
1.340671132428136
 30
0.0
1001
REVIT
1002
{
1070
     2
1000
-2001160
1002
}
  0
SPLINE
  5
1CF
330
1AD
100
AcDbEntity
  8
P-SANR-FIXT
 62
     0
100
AcDbSpline
210
0.0
220
0.0
230
1.0
 70
     8
 71
     3
 72
    16
 73
    12
 74
     0
 42
0.000000001
 43
0.0000000001
 40
0.0
 40
0.0
 40
0.0
 40
0.0
 40
0.1666666666666666
 40
0.3333333333333333
 40
0.4166666666666666
 40
0.5
 40
0.5833333333333333
 40
0.6666666666666666
 40
0.75
 40
0.8333333333333332
 40
1.0
 40
1.0
 40
1.0
 40
1.0
 10
-14.44529038960672
 20
0.6992030796730681
 30
0.0
 10
-14.44092706647674
 20
0.6992086657741851
 30
0.0
 10
-14.43220067077484
 20
0.6985377070959621
 30
0.0
 10
-14.42203650903127
 20
0.6961076882926083
 30
0.0
 10
-14.41476531840892
 20
0.6933053182948719
 30
0.0
 10
-14.40983392392635
 20
0.6908053791469895
 30
0.0
 10
-14.40550928917004
 20
0.687961049537846
 30
0.0
 10
-14.40186525494644
 20
0.6848101638787813
 30
0.0
 10
-14.3989644075492
 20
0.6814142326069887
 30
0.0
 10
-14.39615265447522
 20
0.6766387835973428
 30
0.0
 10
-14.39529038960672
 20
0.6728266405271958
 30
0.0
 10
-14.39529038960672
 20
0.6703355662135855
 30
0.0
1001
REVIT
1002
{
1070
     2
1000
-2001160
1002
}
  0
SPLINE
  5
1D0
330
1AD
100
AcDbEntity
  8
P-SANR-FIXT
 62
     0
100
AcDbSpline
210
0.0
220
0.0
230
1.0
 70
     8
 71
     3
 72
    16
 73
    12
 74
     0
 42
0.000000001
 43
0.0000000001
 40
0.0
 40
0.0
 40
0.0
 40
0.0
 40
0.1666666666666666
 40
0.3333333333333333
 40
0.4166666666666666
 40
0.5
 40
0.5833333333333333
 40
0.6666666666666666
 40
0.75
 40
0.8333333333333332
 40
1.0
 40
1.0
 40
1.0
 40
1.0
 10
-14.44529038960672
 20
-0.6992030796749997
 30
0.0
 10
-14.44092706647674
 20
-0.6991919074727658
 30
0.0
 10
-14.43220067077484
 20
-0.6985442723101111
 30
0.0
 10
-14.42203650903127
 20
-0.6961105818401303
 30
0.0
 10
-14.41476531840892
 20
-0.6932987968722991
 30
0.0
 10
-14.40983392392635
 20
-0.6908083606511432
 30
0.0
 10
-14.40550928917004
 20
-0.6879556449553958
 30
0.0
 10
-14.40186525494644
 20
-0.6848114864485097
 30
0.0
 10
-14.3989644075492
 20
-0.6814143469221195
 30
0.0
 10
-14.39615265447522
 20
-0.6766218601293272
 30
0.0
 10
-14.39529038960672
 20
-0.6729109149392731
 30
0.0
 10
-14.39529038960672
 20
-0.6703355662155183
 30
0.0
1001
REVIT
1002
{
1070
     2
1000
-2001160
1002
}
  0
SPLINE
  5
1D1
330
1AD
100
AcDbEntity
  8
P-SANR-FIXT
 62
     0
100
AcDbSpline
210
0.0
220
0.0
230
1.0
 70
     8
 71
     3
 72
    16
 73
    12
 74
     0
 42
0.000000001
 43
0.0000000001
 40
0.0
 40
0.0
 40
0.0
 40
0.0
 40
0.1666666666666666
 40
0.3333333333333333
 40
0.4166666666666666
 40
0.5
 40
0.5833333333333333
 40
0.6666666666666666
 40
0.75
 40
0.8333333333333332
 40
1.0
 40
1.0
 40
1.0
 40
1.0
 10
-14.44529038960672
 20
-1.398406159349041
 30
0.0
 10
-14.44092706647674
 20
-1.398400573247924
 30
0.0
 10
-14.43220067077484
 20
-1.397081979407047
 30
0.0
 10
-14.42203650903127
 20
-1.392218270133712
 30
0.0
 10
-14.41476531840892
 20
-1.386604115168144
 30
0.0
 10
-14.40983392392635
 20
-1.381613739799106
 30
0.0
 10
-14.40550928917004
 20
-1.375916694494214
 30
0.0
 10
-14.40186525494644
 20
-1.369621650328264
 30
0.0
 10
-14.3989644075492
 20
-1.362828579530081
 30
0.0
 10
-14.39615265447522
 20
-1.353260643727643
 30
0.0
 10
-14.39529038960672
 20
-1.345737555467441
 30
0.0
 10
-14.39529038960673
 20
-1.340671132430077
 30
0.0
1001
REVIT
1002
{
1070
     2
1000
-2001160
1002
}
  0
ARC
  5
1D2
330
1AD
100
AcDbEntity
  8
0
 62
     0
100
AcDbCircle
 10
-10.57633433434036
 20
-1.466651092575149
 30
0.0
 40
0.7319680864654672
100
AcDbArc
 50
350.0004782461734
 51
80.00047824617343
  0
ARC
  5
1D3
330
1AD
100
AcDbEntity
  8
0
 62
     0
100
AcDbCircle
 10
-10.32213651948974
 20
-1.720848907424206
 30
0.0
 40
2.469923428927488
100
AcDbArc
 50
2.949665810668637
 51
92.94966581066864
  0
ENDBLK
  5
1AF
330
1AD
100
AcDbEntity
  8
0
100
AcDbBlockEnd
  0
BLOCK
  5
1D6
330
1D5
100
AcDbEntity
  8
0
100
AcDbBlockBegin
  2
Tub_Filler-DXV-Oak_Hill-D35155761_Series - Front View
 70
     0
 10
0.0
 20
0.0
 30
0.0
  3
Tub_Filler-DXV-Oak_Hill-D35155761_Series - Front View
  1

  0
LWPOLYLINE
  5
1D8
330
1D5
100
AcDbEntity
  8
P-SANR-FIXT
 62
     0
100
AcDbPolyline
 90
       62
 70
   128
 43
0.0
 10
0.0000000000002438
 20
1.468750000002309
 10
-0.0587343345864815
 20
1.467575156660636
 10
-0.1173747067671908
 20
1.464052506134286
 10
-0.175827304455673
 20
1.458187683912669
 10
-0.2339986159648503
 20
1.449990072460252
 10
-0.291795579605528
 20
1.439472786206579
 10
-0.3491257325652381
 20
1.426652650566182
 10
-0.4058973588290286
 20
1.411550175021176
 10
-0.4620196359055119
 20
1.394189520310781
 10
-0.517402780123477
 20
1.374598459779114
 10
-0.5719581902666162
 20
1.352808334943844
 10
-0.6255985893165703
 20
1.328854005356397
 10
-0.6782381640775314
 20
1.302773792834088
 10
-0.7297927024590586
 20
1.274609420153509
 10
-0.7801797281974574
 20
1.244405944302883
 10
-0.8293186328002079
 20
1.21221168440045
 10
-0.8771308045023488
 20
1.178078144394347
 10
-0.9235397540285438
 20
1.142059930667158
 10
-0.9684712369596002
 20
1.104214664677357
 10
-1.011853372507699
 20
1.064602890777301
 10
-1.053616758510327
 20
1.02328797935516
 10
-1.093694582458924
 20
0.9803360254558695
 10
-1.132022728384654
 20
0.9358157430430152
 10
-1.168539879430271
 20
0.8897983550713631
 10
-1.203187615944013
 20
0.8423574795451072
 10
-1.235910508938578
 20
0.7935690117449212
 10
-1.266656208765688
 20
0.7435110028116511
 10
-1.295375528864353
 20
0.6922635348810999
 10
-1.322022524448876
 20
0.6399085929697392
 10
-1.346554566010711
 20
0.5865299338161804
 10
-1.368932407516581
 20
0.5322129518882405
 10
-1.389120249193765
 20
0.4770445427699598
 10
-1.407085794802086
 20
0.4211129641473618
 10
-1.422800303301016
 20
0.3645076946147511
 10
-1.436238634829209
 20
0.3073192905282269
 10
-1.447379290922909
 20
0.2496392411348367
 10
-1.456204448908913
 20
0.1915598222091645
 10
-1.462699990417044
 20
0.1331739484318532
 10
-1.46685552396653
 20
0.0745750247459895
 10
-1.468664401590158
 20
0.0158567969290289
 10
-1.468123729469605
 20
-0.0428867983804437
 10
-1.465234372564925
 20
-0.1015617839611806
 10
-1.460000953230803
 20
-0.1600742923529452
 10
-1.452431843821771
 20
-0.2183307160243046
 10
-1.442539153298224
 20
-0.2762378571247552
 10
-1.430338707854673
 20
-0.3337030765814148
 10
-1.415850025601207
 20
-0.3906344423017316
 10
-1.399096285338674
 20
-0.4469408762452786
 10
-1.380104289477554
 20
-0.5025323001291113
 10
-1.358904421159818
 20
-0.5573197795339339
 10
-1.335530595652374
 20
-0.6112156661800298
 10
-1.310020206089883
 20
-0.664133738145999
 10
-1.282414063653721
 20
-0.7159893378052046
 10
-1.25275633228279
 20
-0.7666995072601778
 10
-1.221094458020637
 20
-0.8161831210573849
 10
-1.187479093111907
 20
-0.8643610159706652
 10
-1.151964014969562
 20
-0.9111561176455891
 10
-1.114606040142483
 20
-0.9564935639018939
 10
-1.075464933421113
 20
-1.00030082449701
 10
-1.034603312226554
 20
-1.042507817159069
 10
-0.992086546436035
 20
-1.083047019703492
 10
-0.9512240024046516
 20
-1.119001548991291
1001
REVIT
1002
{
1070
     2
1000
-2001160
1002
}
  0
LWPOLYLINE
  5
1D9
330
1D5
100
AcDbEntity
  8
P-SANR-FIXT
 62
     0
100
AcDbPolyline
 90
       63
 70
   128
 43
0.0
 10
0.9511985395482442
 20
-1.118763257007256
 10
0.9684712369601012
 20
-1.104214664677996
 10
1.011853372508199
 20
-1.06460289077794
 10
1.053616758510826
 20
-1.023287979355799
 10
1.093694582459423
 20
-0.980336025456509
 10
1.132022728385154
 20
-0.9358157430436547
 10
1.16853987943077
 20
-0.8897983550720026
 10
1.203187615944511
 20
-0.842357479545768
 10
1.235910508939076
 20
-0.7935690117455607
 10
1.266656208766187
 20
-0.7435110028122906
 10
1.295375528864853
 20
-0.6922635348817394
 10
1.322022524449374
 20
-0.6399085929703787
 10
1.34655456601121
 20
-0.5865299338168199
 10
1.36893240751708
 20
-0.5322129518889013
 10
1.389120249194263
 20
-0.4770445427706206
 10
1.407085794802584
 20
-0.4211129641480226
 10
1.422800303301514
 20
-0.3645076946153906
 10
1.436238634829707
 20
-0.3073192905288877
 10
1.447379290923406
 20
-0.2496392411354975
 10
1.45620444890941
 20
-0.1915598222098253
 10
1.462699990417541
 20
-0.1331739484324927
 10
1.466855523967026
 20
-0.0745750247466503
 10
1.468664401590655
 20
-0.0158567969296684
 10
1.468123729470102
 20
0.0428867983797829
 10
1.465234372565421
 20
0.1015617839605198
 10
1.460000953231299
 20
0.1600742923522844
 10
1.452431843822266
 20
0.2183307160236438
 10
1.44253915329872
 20
0.2762378571240944
 10
1.430338707855169
 20
0.3337030765807753
 10
1.415850025601703
 20
0.3906344423010921
 10
1.399096285339169
 20
0.4469408762446178
 10
1.380104289478049
 20
0.5025323001284718
 10
1.358904421160312
 20
0.5573197795332944
 10
1.335530595652867
 20
0.6112156661794116
 10
1.310020206090377
 20
0.6641337381453595
 10
1.282414063654215
 20
0.7159893378045651
 10
1.252756332283284
 20
0.7666995072595383
 10
1.22109445802113
 20
0.8161831210567454
 10
1.187479093112403
 20
0.8643610159700257
 10
1.151964014970056
 20
0.9111561176449496
 10
1.114606040142974
 20
0.9564935639012331
 10
1.075464933421607
 20
1.00030082449637
 10
1.034603312227047
 20
1.042507817158408
 10
0.9920865464365279
 20
1.083047019702853
 10
0.9479826538055531
 20
1.121853578053418
 10
0.9023621911540024
 20
1.15886540999515
 10
0.8552981414902735
 20
1.194023304492297
 10
0.8068657972540322
 20
1.227271016413638
 10
0.7571426398643765
 20
1.258555356512587
 10
0.7062082157660856
 20
1.287826276518614
 10
0.6541440091722869
 20
1.3150369492038
 10
0.6010333117070945
 20
1.340143843296523
 10
0.5469610891567722
 20
1.363106793122092
 10
0.4920138455426075
 20
1.383889062859253
 10
0.4362794847329301
 20
1.402457405309796
 10
0.3798471698156755
 20
1.41878211508677
 10
0.3228071804564578
 20
1.432837076136962
 10
0.2652507684703677
 20
1.444599803520979
 10
0.2072700118385384
 20
1.454051479384197
 10
0.1489576674030117
 20
1.461176983061512
 10
0.0904070224755831
 20
1.465964915267058
 10
0.0317117455979954
 20
1.468407616330686
 10
0.0000000000002438
 20
1.468750000002309
1001
REVIT
1002
{
1070
     2
1000
-2001160
1002
}
  0
LWPOLYLINE
  5
1DA
330
1D5
100
AcDbEntity
  8
P-SANR-FIXT
 62
     0
100
AcDbPolyline
 90
       14
 70
   128
 43
0.0
 10
-0.2957983311573832
 20
0.6899190069362758
 10
-0.3181368001073763
 20
0.6815196296662406
 10
-0.41377774864638
 20
0.6288391776956956
 10
-0.5016202057100485
 20
0.5627279301061705
 10
-0.5789553023993367
 20
0.4852860287020206
 10
-0.6450103549365504
 20
0.397990801419688
 10
-0.6994060335232012
 20
0.3026513818090421
 10
-0.7430458782338087
 20
0.1995770781242925
 10
-0.8086898459402236
 20
-0.0423878789969194
 10
-0.8490680630617463
 20
-0.2710274687028331
 10
-0.8896637000960131
 20
-0.5675177284031249
 10
-0.9183982392041627
 20
-0.8118044330617093
 10
-0.9607356663440247
 20
-1.208015647826421
 10
-0.9999999999996925
 20
-1.593750000000212
1001
REVIT
1002
{
1070
     2
1000
-2001160
1002
}
  0
LWPOLYLINE
  5
1DB
330
1D5
100
AcDbEntity
  8
P-SANR-FIXT
 62
     0
100
AcDbPolyline
 90
       14
 70
   128
 43
0.0
 10
0.2957983311580041
 20
0.6899190069362565
 10
0.3181368001079665
 20
0.6815196296662406
 10
0.4137777486469715
 20
0.6288391776956956
 10
0.50162020571064
 20
0.5627279301061705
 10
0.5789553023999283
 20
0.4852860287020206
 10
0.6450103549371419
 20
0.397990801419688
 10
0.6994060335237954
 20
0.3026513818090421
 10
0.7430458782344042
 20
0.1995770781242498
 10
0.8086898459408272
 20
-0.0423878789969621
 10
0.8490680630623565
 20
-0.2710274687028544
 10
0.8896637000966286
 20
-0.5675177284031462
 10
0.9183982392047797
 20
-0.8118044330617733
 10
0.9607356663446429
 20
-1.208015647826442
 10
1.000000000000309
 20
-1.593750000000234
1001
REVIT
1002
{
1070
     2
1000
-2001160
1002
}
  0
LINE
  5
1DC
330
1D5
100
AcDbEntity
  8
P-SANR-FIXT
 62
     0
100
AcDbLine
 10
1.2110552588048
 20
0.6992030796730475
 30
0.0
 11
0.4534542575299031
 21
1.136604221697428
 31
0.0
1001
REVIT
1002
{
1070
     2
1000
-2001160
1002
}
  0
LINE
  5
1DD
330
1D5
100
AcDbEntity
  8
P-SANR-FIXT
 62
     0
100
AcDbLine
 10
0.1601368786086089
 20
1.30595108937564
 30
0.0
 11
0.0000000000007434
 21
1.398406159347096
 31
0.0
1001
REVIT
1002
{
1070
     2
1000
-2001160
1002
}
  0
LINE
  5
1DE
330
1D5
100
AcDbEntity
  8
P-SANR-FIXT
 62
     0
100
AcDbLine
 10
0.0000000000007434
 20
1.398406159347096
 30
0.0
 11
-0.1600155958872307
 21
1.30602111198662
 31
0.0
1001
REVIT
1002
{
1070
     2
1000
-2001160
1002
}
  0
LINE
  5
1DF
330
1D5
100
AcDbEntity
  8
P-SANR-FIXT
 62
     0
100
AcDbLine
 10
-0.4534947534909378
 20
1.136580841342579
 30
0.0
 11
-1.21105525880332
 21
0.6992030796730475
 31
0.0
1001
REVIT
1002
{
1070
     2
1000
-2001160
1002
}
  0
LINE
  5
1E0
330
1D5
100
AcDbEntity
  8
P-SANR-FIXT
 62
     0
100
AcDbLine
 10
-1.211055258803319
 20
0.6992030796730475
 30
0.0
 11
-1.211055258803327
 21
-0.6992030796750299
 31
0.0
1001
REVIT
1002
{
1070
     2
1000
-2001160
1002
}
  0
LINE
  5
1E1
330
1D5
100
AcDbEntity
  8
P-SANR-FIXT
 62
     0
100
AcDbLine
 10
-1.211055258803326
 20
-0.6992030796750299
 30
0.0
 11
-0.9240711042450874
 21
-0.8648934585623816
 31
0.0
1001
REVIT
1002
{
1070
     2
1000
-2001160
1002
}
  0
LINE
  5
1E2
330
1D5
100
AcDbEntity
  8
P-SANR-FIXT
 62
     0
100
AcDbLine
 10
0.9240711042457478
 20
-0.864893458562847
 30
0.0
 11
1.21105525880479
 21
-0.6992030796750299
 31
0.0
1001
REVIT
1002
{
1070
     2
1000
-2001160
1002
}
  0
LINE
  5
1E3
330
1D5
100
AcDbEntity
  8
P-SANR-FIXT
 62
     0
100
AcDbLine
 10
1.21105525880479
 20
-0.6992030796750299
 30
0.0
 11
1.2110552588048
 21
0.6992030796730475
 31
0.0
1001
REVIT
1002
{
1070
     2
1000
-2001160
1002
}
  0
LWPOLYLINE
  5
1E4
330
1D5
100
AcDbEntity
  8
P-SANR-FIXT
 62
     0
100
AcDbPolyline
 90
        7
 70
   128
 43
0.0
 10
-0.4884446878636463
 20
1.254886192611344
 10
-0.4059530747428032
 20
1.272776533305879
 10
-0.3228120233010751
 20
1.287353778951356
 10
-0.2391545414849574
 20
1.298594609064373
 10
-0.1551144634193777
 20
1.306481040714757
 10
-0.0708262353016473
 20
1.311000457294141
 10
0.0000000000003091
 20
1.312189291750129
1001
REVIT
1002
{
1070
     2
1000
-2001160
1002
}
  0
LWPOLYLINE
  5
1E5
330
1D5
100
AcDbEntity
  8
P-SANR-FIXT
 62
     0
100
AcDbPolyline
 90
        7
 70
   128
 43
0.0
 10
0.0000000000003104
 20
1.312189291750129
 10
0.0843924222502404
 20
1.31050121822264
 10
0.1686498346273275
 20
1.305439698197772
 10
0.2526374432457227
 20
1.297012829027799
 10
0.3362208858480393
 20
1.285234091905777
 10
0.4192664467562976
 20
1.27012233029842
 10
0.4884446878642658
 20
1.254886192611344
1001
REVIT
1002
{
1070
     2
1000
-2001160
1002
}
  0
LWPOLYLINE
  5
1E6
330
1D5
100
AcDbEntity
  8
P-SANR-FIXT
 62
     0
100
AcDbPolyline
 90
       49
 70
   128
 43
0.0
 10
-0.5025690770853663
 20
1.219267613791508
 10
-0.5030677872024065
 20
1.220059230235733
 10
-0.5035344421900105
 20
1.220870156556749
 10
-0.5039682954997446
 20
1.221699095445479
 10
-0.5043686530588669
 20
1.222544720776518
 10
-0.5047348743806843
 20
1.223405679729672
 10
-0.5050663735892064
 20
1.224280594954357
 10
-0.5053626203564158
 20
1.22516806677278
 10
-0.5056231407506799
 20
1.226066675419388
 10
-0.5058475179949444
 20
1.226974983312054
 10
-0.5060353931334828
 20
1.227891537351886
 10
-0.5061864656061505
 20
1.228814871247926
 10
-0.506300493729217
 20
1.229743507862955
 10
-0.5063772950820117
 20
1.23067596157643
 10
-0.5064167467987545
 20
1.231610740661394
 10
-0.5064187857651116
 20
1.232546349670648
 10
-0.5063834087191749
 20
1.233481291829413
 10
-0.5063106722566699
 20
1.234414071429639
 10
-0.5062006927404198
 20
1.235343196222998
 10
-0.5060536461141897
 20
1.236267179807981
 10
-0.5058697676212138
 20
1.237184544007987
 10
-0.5056493514278552
 20
1.238093821235942
 10
-0.5053927501530042
 20
1.238993556842302
 10
-0.5051003743039621
 20
1.239882311442009
 10
-0.5047726916197152
 20
1.240758663217284
 10
-0.5044102263226597
 20
1.24162121019227
 10
-0.5040135582799445
 20
1.242468572475779
 10
-0.5035833220758254
 20
1.243299394468891
 10
-0.5031202059964452
 20
1.244112347033698
 10
-0.502624950928741
 20
1.244906129619493
 10
-0.5020983491751724
 20
1.245679472343496
 10
-0.5015412431862076
 20
1.246431138022273
 10
-0.5009545242125863
 20
1.247159924151105
 10
-0.5003391308795075
 20
1.247864664827673
 10
-0.4996960476850276
 20
1.248544232617213
 10
-0.499026303425071
 20
1.249197540356234
 10
-0.4983309695475854
 20
1.249823542891718
 10
-0.4976111584384463
 20
1.250421238753119
 10
-0.496868021641871
 20
1.250989671754609
 10
-0.4961027480182123
 20
1.251527932524623
 10
-0.4953165618420145
 20
1.252035159960761
 10
-0.4945107208434511
 20
1.25251054260731
 10
-0.4936865141962165
 20
1.252953319953448
 10
-0.4928452604551227
 20
1.25336278364989
 10
-0.4919883054467
 20
1.253738278642046
 10
-0.4911170201161523
 20
1.254079204218051
 10
-0.4902327983341452
 20
1.254385014969706
 10
-0.4893370546669055
 20
1.254655221665039
 10
-0.4884446878636463
 20
1.254886192611344
1001
REVIT
1002
{
1070
     2
1000
-2001160
1002
}
  0
LWPOLYLINE
  5
1E7
330
1D5
100
AcDbEntity
  8
P-SANR-FIXT
 62
     0
100
AcDbPolyline
 90
       49
 70
   128
 43
0.0
 10
0.4884446878642658
 20
1.254886192611344
 10
0.489350381704126
 20
1.254651486318223
 10
0.4902459653371251
 20
1.254380749671447
 10
0.4911300060204961
 20
1.254074415791904
 10
0.4920010894777337
 20
1.253732974748466
 10
0.4928578221611235
 20
1.253356972774014
 10
0.4936988334811354
 20
1.252947011391412
 10
0.4945227779990637
 20
1.25250374645148
 10
0.4953283375794423
 20
1.252027887083528
 10
0.4961142234987874
 20
1.251520194561052
 10
0.4968791785072759
 20
1.25098148108379
 10
0.4976219788400757
 20
1.250412608478363
 10
0.4983414361751075
 20
1.249814486819623
 10
0.4990363995341131
 20
1.249188072974582
 10
0.4997057571239711
 20
1.248534369071819
 10
0.5003484381153215
 20
1.247854420898086
 10
0.5009634143556827
 20
1.247149316225431
 10
0.5015497020142523
 20
1.246420183070916
 10
0.5021063631558475
 20
1.245668187892043
 10
0.5026325072413859
 20
1.244894533720703
 10
0.5031272925525751
 20
1.244100458238491
 10
0.5035899275384609
 20
1.243287231796806
 10
0.5040196720817586
 20
1.242456155384509
 10
0.5044158386828723
 20
1.241608558546523
 10
0.5047777935597483
 20
1.240745797256998
 10
0.505104957661802
 20
1.239869251749929
 10
0.5053968075962562
 20
1.238980324311178
 10
0.505652876465477
 20
1.238080437035016
 10
0.5058727546138976
 20
1.237171029549081
 10
0.5060560902833861
 20
1.236253556711389
 10
0.5062025901759805
 20
1.235329486282786
 10
0.506312019923103
 20
1.234400296578769
 10
0.5063842044605024
 20
1.233467474104656
 10
0.5064190283083198
 20
1.23253251117746
 10
0.5064164357558245
 20
1.231596903538416
 10
0.5063764309505494
 20
1.230662147960131
 10
0.5062990778916471
 20
1.229729739852117
 10
0.5061845003275133
 20
1.22880117086845
 10
0.5060328815578061
 20
1.22787792652145
 10
0.5058444641402153
 20
1.226961483805091
 10
0.5056195495024145
 20
1.226053308832255
 10
0.505358497459845
 20
1.22515485448914
 10
0.5050617256400875
 20
1.22426755811103
 10
0.5047297088147453
 20
1.223392839182871
 10
0.5043629781399121
 20
1.222532097068316
 10
0.5039621203064359
 20
1.221686708771158
 10
0.5035277766013388
 20
1.220858026732372
 10
0.5030606418818939
 20
1.220047376666385
 10
0.5025690770859845
 20
1.219267613791508
1001
REVIT
1002
{
1070
     2
1000
-2001160
1002
}
  0
LWPOLYLINE
  5
1E8
330
1D5
100
AcDbEntity
  8
P-SANR-FIXT
 62
     0
100
AcDbPolyline
 90
       11
 70
   128
 43
0.0
 10
-0.3434357462403472
 20
0.8262719358215589
 10
-0.3523330902804402
 20
0.8685737201957193
 10
-0.3629149375863298
 20
0.9104858687901538
 10
-0.3751643594596676
 20
0.9519413311078677
 10
-0.389061759438527
 20
0.9928737872525131
 10
-0.404584904647562
 20
1.033217754026089
 10
-0.4217089613658648
 20
1.072908689687963
 10
-0.4404065347556267
 20
1.111883097208057
 10
-0.460647712688023
 20
1.150078625848401
 10
-0.4824001135962525
 20
1.187434170911138
 10
-0.502569077085369
 20
1.219267613791529
1001
REVIT
1002
{
1070
     2
1000
-2001160
1002
}
  0
LWPOLYLINE
  5
1E9
330
1D5
100
AcDbEntity
  8
P-SANR-FIXT
 62
     0
100
AcDbPolyline
 90
       11
 70
   128
 43
0.0
 10
0.5025690770859885
 20
1.219267613791529
 10
0.479527544972556
 20
1.182693148791009
 10
0.4579670321307829
 20
1.145226523933608
 10
0.4379220307818858
 20
1.106927677826575
 10
0.4194246086519872
 20
1.067857880453729
 10
0.4025043576705833
 20
1.02807963515643
 10
0.3871883466297885
 20
0.9876565786415268
 10
0.3735010778800234
 20
0.9466533791763891
 10
0.3614644481314943
 20
0.9051356331332341
 10
0.3510977134241199
 20
0.8631697600491106
 10
0.343435746240968
 20
0.8262719358215589
1001
REVIT
1002
{
1070
     2
1000
-2001160
1002
}
  0
LWPOLYLINE
  5
1EA
330
1D5
100
AcDbEntity
  8
P-SANR-FIXT
 62
     0
100
AcDbPolyline
 90
       19
 70
   128
 43
0.0
 10
-0.3174338657093804
 20
0.7833347253811382
 10
-0.3196498020152391
 20
0.7851601977061619
 10
-0.3217909663855533
 20
0.7870728236655111
 10
-0.3238539334140857
 20
0.7890695434656365
 10
-0.32583540279367
 20
0.7911471627807955
 10
-0.3277322045959891
 20
0.7933023578633537
 10
-0.329541304342789
 20
0.7955316808608543
 10
-0.3312598078603956
 20
0.7978315653320535
 10
-0.3328849659097712
 20
0.8001983319525008
 10
-0.3344141785847254
 20
0.8026281944004336
 10
-0.3358449994711869
 20
0.8051172654142673
 10
-0.3371751395609674
 20
0.8076615630113648
 10
-0.3384024709136697
 20
0.8102570168583438
 10
-0.3395250300609444
 20
0.8128994747826679
 10
-0.3405410211476258
 20
0.8155847094153967
 10
-0.3414488188047051
 20
0.8183084249539474
 10
-0.3422469707495854
 20
0.8210662640344208
 10
-0.3429342001094193
 20
0.8238538147026657
 10
-0.3434357462403472
 20
0.8262719358215376
1001
REVIT
1002
{
1070
     2
1000
-2001160
1002
}
  0
LWPOLYLINE
  5
1EB
330
1D5
100
AcDbEntity
  8
P-SANR-FIXT
 62
     0
100
AcDbPolyline
 90
       19
 70
   128
 43
0.0
 10
0.3434357462409667
 20
0.8262719358215376
 10
0.3428448147512495
 20
0.8234623944184702
 10
0.3421420042536182
 20
0.8206787313056976
 10
0.341328439094942
 20
0.8179253997503719
 10
0.3404054208059226
 20
0.8152068044956022
 10
0.3393744260189257
 20
0.8125272947139093
 10
0.3382371041056733
 20
0.8098911570493141
 10
0.3369952745386126
 20
0.807302608759741
 10
0.335650923980141
 20
0.8047657909702648
 10
0.3342062031043719
 20
0.802284762048181
 10
0.3326634231565179
 20
0.7998634911105355
 10
0.3310250522553843
 20
0.7975058516742805
 10
0.3292937114449143
 20
0.795215615459611
 10
0.3274721705010712
 20
0.7929964463558789
 10
0.3255633435007894
 20
0.7908518945602764
 10
0.3235702841600742
 20
0.7887853908981981
 10
0.32149618094871
 20
0.7868002413346388
 10
0.3193443519893826
 20
0.7848996216854544
 10
0.3174338657099999
 20
0.7833347253811382
1001
REVIT
1002
{
1070
     2
1000
-2001160
1002
}
  0
LWPOLYLINE
  5
1EC
330
1D5
100
AcDbEntity
  8
P-SANR-FIXT
 62
     0
100
AcDbPolyline
 90
       24
 70
   128
 43
0.0
 10
-0.2957983311573979
 20
0.7386436520007606
 10
-0.2958439054359236
 20
0.7409220620904335
 10
-0.2959805553623779
 20
0.743196827209978
 10
-0.2962080623260274
 20
0.7454643082204839
 10
-0.296526062364264
 20
0.7477208776360555
 10
-0.296934046744862
 20
0.7499629254269564
 10
-0.2974313627798443
 20
0.7521868647950427
 10
-0.2980172148696436
 20
0.7543891379117226
 10
-0.2986906657758927
 20
0.7565662216097877
 10
-0.2994506381208021
 20
0.7587146330197782
 10
-0.3002959161107394
 20
0.7608309351416977
 10
-0.3012251474812361
 20
0.7629117423436539
 10
-0.3022368456603254
 20
0.7649537257779428
 10
-0.3033293921467383
 20
0.7669536187067294
 10
-0.3045010390991591
 20
0.7689082217279263
 10
-0.3057499121324047
 20
0.7708144078936385
 10
-0.3070740133160341
 20
0.7726691277126462
 10
-0.30847122437061
 20
0.7744694140289354
 10
-0.3099393100565031
 20
0.7762123867683641
 10
-0.3114759217497899
 20
0.7778952575463904
 10
-0.3130786011995558
 20
0.7795153341288028
 10
-0.3147447844605659
 20
0.7810700247386321
 10
-0.3164718059950377
 20
0.7825568422025526
 10
-0.3174338657093924
 20
0.7833347253811382
1001
REVIT
1002
{
1070
     2
1000
-2001160
1002
}
  0
LWPOLYLINE
  5
1ED
330
1D5
100
AcDbEntity
  8
P-SANR-FIXT
 62
     0
100
AcDbPolyline
 90
       24
 70
   128
 43
0.0
 10
0.3174338657100133
 20
0.7833347253811382
 10
0.315674967599997
 20
0.7818857578210582
 10
0.3139754196688495
 20
0.7803676121161657
 10
0.3123379408307074
 20
0.7787827169757477
 10
0.310765150702402
 20
0.7771336078938801
 10
0.3092595654126308
 20
0.7754229230933447
 10
0.3078235935766784
 20
0.7736533993048979
 10
0.3064595324431613
 20
0.7718278673890992
 10
0.3051695642189069
 20
0.7699492478076237
 10
0.3039557525778975
 20
0.7680205459510105
 10
0.3028200393598248
 20
0.7660448473307965
 10
0.3017642414635641
 20
0.7640253126433478
 10
0.3007900479405289
 20
0.76196517271336
 10
0.2998990172925322
 20
0.7598677233251933
 10
0.299092574978542
 20
0.7577363199504603
 10
0.2983720111342234
 20
0.7555743723799253
 10
0.2977384785080157
 20
0.7533853392684761
 10
0.2971929906169785
 20
0.7511727226020994
 10
0.2967364201253674
 20
0.7489400620954711
 10
0.2963694974485773
 20
0.7466909295291799
 10
0.2960928095846142
 20
0.7444289230354925
 10
0.2959067991750417
 20
0.7421576613422757
 10
0.2958117637968293
 20
0.7398807779837284
 10
0.2957983311580187
 20
0.7386436520007606
1001
REVIT
1002
{
1070
     2
1000
-2001160
1002
}
  0
LINE
  5
1EE
330
1D5
100
AcDbEntity
  8
P-SANR-FIXT
 62
     0
100
AcDbLine
 10
-0.2957983311573832
 20
0.7386436520007606
 30
0.0
 11
-0.2957983311573832
 21
0.098085018595782
 31
0.0
1001
REVIT
1002
{
1070
     2
1000
-2001160
1002
}
  0
LINE
  5
1EF
330
1D5
100
AcDbEntity
  8
P-SANR-FIXT
 62
     0
100
AcDbLine
 10
0.2957983311580041
 20
0.098085018595782
 30
0.0
 11
0.2957983311580041
 21
0.7386436520007606
 31
0.0
1001
REVIT
1002
{
1070
     2
1000
-2001160
1002
}
  0
SPLINE
  5
1F0
330
1D5
100
AcDbEntity
  8
P-SANR-FIXT
 62
     0
100
AcDbSpline
210
0.0
220
0.0
230
1.0
 70
     8
 71
     3
 72
    23
 73
    19
 74
     0
 42
0.000000001
 43
0.0000000001
 40
-1.0
 40
-1.0
 40
-1.0
 40
-1.0
 40
-0.9444444444444444
 40
-0.9166666666666666
 40
-0.8888888888888889
 40
-0.861111111111111
 40
-0.8333333333333332
 40
-0.8055555555555555
 40
-0.7777777777777778
 40
-0.75
 40
-0.7222222222222223
 40
-0.6944444444444445
 40
-0.6666666666666666
 40
-0.6388888888888889
 40
-0.6111111111111112
 40
-0.5833333333333334
 40
-0.5555555555555556
 40
-0.4798357025262908
 40
-0.4798357025262908
 40
-0.4798357025262908
 40
-0.4798357025262908
 10
0.0000000000003156
 20
-0.1353792737799908
 30
0.0
 10
-0.0206099468639453
 20
-0.1349813776402247
 30
0.0
 10
-0.0510245855150001
 20
-0.132597095549797
 30
0.0
 10
-0.0893761042774629
 20
-0.1257956451582264
 30
0.0
 10
-0.1167767326153765
 20
-0.1189784172479352
 30
0.0
 10
-0.1426619780415945
 20
-0.1100647944788124
 30
0.0
 10
-0.1668294972490024
 20
-0.0991373105658604
 30
0.0
 10
-0.1890413879412596
 20
-0.0866938925807242
 30
0.0
 10
-0.2091365755733774
 20
-0.0733471416584694
 30
0.0
 10
-0.2270072394463
 20
-0.058835569323842
 30
0.0
 10
-0.2427068363768065
 20
-0.0428509561731332
 30
0.0
 10
-0.2562833671941669
 20
-0.0259407065144688
 30
0.0
 10
-0.2678177448399506
 20
-0.0086021812372647
 30
0.0
 10
-0.2772682458469113
 20
0.0093227088060742
 30
0.0
 10
-0.2846901603594967
 20
0.0281223000136525
 30
0.0
 10
-0.2902171066949344
 20
0.0474012730427482
 30
0.0
 10
-0.2939242002375061
 20
0.0668129850952617
 30
0.0
 10
-0.295806523688348
 20
0.0864997429354384
 30
0.0
 10
-0.2957983311573832
 20
0.098085018595782
 30
0.0
1001
REVIT
1002
{
1070
     2
1000
-2001160
1002
}
  0
SPLINE
  5
1F1
330
1D5
100
AcDbEntity
  8
P-SANR-FIXT
 62
     0
100
AcDbSpline
210
0.0
220
0.0
230
1.0
 70
     8
 71
     3
 72
    23
 73
    19
 74
     0
 42
0.000000001
 43
0.0000000001
 40
-0.5201642974736871
 40
-0.5201642974736871
 40
-0.5201642974736871
 40
-0.5201642974736871
 40
-0.4444444444444445
 40
-0.4166666666666666
 40
-0.3888888888888888
 40
-0.3611111111111111
 40
-0.3333333333333333
 40
-0.3055555555555556
 40
-0.2777777777777778
 40
-0.25
 40
-0.2222222222222222
 40
-0.1944444444444444
 40
-0.1666666666666666
 40
-0.1388888888888889
 40
-0.1111111111111111
 40
-0.0833333333333333
 40
-0.0555555555555556
 40
0.0
 40
0.0
 40
0.0
 40
0.0
 10
0.2957983311580041
 20
0.098085018595782
 30
0.0
 10
0.2958065236889675
 20
0.0864997429354393
 30
0.0
 10
0.2939242002381263
 20
0.0668129850952614
 30
0.0
 10
0.2902171066955554
 20
0.0474012730427488
 30
0.0
 10
0.2846901603601178
 20
0.0281223000136526
 30
0.0
 10
0.2772682458475333
 20
0.0093227088060751
 30
0.0
 10
0.2678177448405725
 20
-0.008602181237264
 30
0.0
 10
0.2562833671947897
 20
-0.0259407065144681
 30
0.0
 10
0.2427068363774299
 20
-0.0428509561731325
 30
0.0
 10
0.2270072394469242
 20
-0.0588355693238413
 30
0.0
 10
0.2091365755740026
 20
-0.0733471416584687
 30
0.0
 10
0.1890413879418856
 20
-0.0866938925807237
 30
0.0
 10
0.1668294972496294
 20
-0.0991373105658592
 30
0.0
 10
0.1426619780422228
 20
-0.1100647944788115
 30
0.0
 10
0.1167767326160058
 20
-0.1189784172479344
 30
0.0
 10
0.0893761042780935
 20
-0.1257956451582247
 30
0.0
 10
0.0510245855156313
 20
-0.1325970955497968
 30
0.0
 10
0.0206099468645777
 20
-0.1349813776402245
 30
0.0
 10
0.0000000000003175
 20
-0.1353792737799908
 30
0.0
1001
REVIT
1002
{
1070
     2
1000
-2001160
1002
}
  0
LINE
  5
1F2
330
1D5
100
AcDbEntity
  8
P-SANR-FIXT
 62
     0
100
AcDbLine
 10
1.000000000000308
 20
-1.593750000000234
 30
0.0
 11
-0.9999999999996916
 21
-1.593750000000214
 31
0.0
  0
ENDBLK
  5
1D7
330
1D5
100
AcDbEntity
  8
0
100
AcDbBlockEnd
  0
BLOCK
  5
1F5
330
1F4
100
AcDbEntity
  8
0
100
AcDbBlockBegin
  2
Tub_Filler-DXV-Oak_Hill-D35155761_Series - Top View
 70
     0
 10
0.0
 20
0.0
 30
0.0
  3
Tub_Filler-DXV-Oak_Hill-D35155761_Series - Top View
  1

  0
LINE
  5
1F7
330
1F4
100
AcDbEntity
  8
P-SANR-FIXT
 62
     0
100
AcDbLine
 10
-0.7458021851495721
 20
12.58200322879243
 30
0.0
 11
-0.7458021851495512
 21
9.512535845015555
 31
0.0
1001
REVIT
1002
{
1070
     2
1000
-2001160
1002
}
  0
LINE
  5
1F8
330
1F4
100
AcDbEntity
  8
P-SANR-FIXT
 62
     0
100
AcDbLine
 10
0.7458021851507498
 20
9.512535845015554
 30
0.0
 11
0.745802185150729
 21
12.58200322879245
 31
0.0
1001
REVIT
1002
{
1070
     2
1000
-2001160
1002
}
  0
LWPOLYLINE
  5
1F9
330
1F4
100
AcDbEntity
  8
P-SANR-FIXT
 62
     0
100
AcDbPolyline
 90
       12
 70
   128
 43
0.0
 10
-0.7458021851495721
 20
12.58200322879243
 10
-0.7472184254394355
 20
12.65280580143276
 10
-0.7514648806267493
 20
12.72349510506062
 10
-0.7585347572890063
 20
12.79395805186976
 10
-0.7684167451317455
 20
12.86408191617661
 10
-0.7810950350824945
 20
12.93375451475721
 10
-0.7965493445818132
 20
13.00286438631654
 10
-0.814754950031301
 20
13.07130096980276
 10
-0.8356827263458518
 20
13.13895478128131
 10
-0.8592991935477845
 20
13.20571758908588
 10
-0.8855665703274132
 20
13.27148258696594
 10
-0.8930988504055795
 20
13.28903357718163
1001
REVIT
1002
{
1070
     2
1000
-2001160
1002
}
  0
LWPOLYLINE
  5
1FA
330
1F4
100
AcDbEntity
  8
P-SANR-FIXT
 62
     0
100
AcDbPolyline
 90
       12
 70
   128
 43
0.0
 10
0.8930988504067151
 20
13.28903357718165
 10
0.8661235961933819
 20
13.22355575124665
 10
0.8417883339693112
 20
13.15705157813297
 10
0.8201319949628775
 20
13.08962745033078
 10
0.8011892246966702
 20
13.02139123206151
 10
0.7849903275622402
 20
12.95245208671813
 10
0.7715612183393709
 20
12.88292030222694
 10
0.7609233807381478
 20
12.81290711461048
 10
0.7530938330294382
 20
12.74252453003357
 10
0.7480851008193518
 20
12.6718851456174
 10
0.7459051970109335
 20
12.60110196930809
 10
0.7458021851507076
 20
12.58200322879245
1001
REVIT
1002
{
1070
     2
1000
-2001160
1002
}
  0
LWPOLYLINE
  5
1FB
330
1F4
100
AcDbEntity
  8
P-SANR-FIXT
 62
     0
100
AcDbPolyline
 90
       30
 70
   128
 43
0.0
 10
-0.8930988504055795
 20
13.28903357718163
 10
-0.8978267551277886
 20
13.29932115523848
 10
-0.9029622714273846
 20
13.30941143856823
 10
-0.9084971835738292
 20
13.31928828487003
 10
-0.9144226368883826
 20
13.32893589329674
 10
-0.9207291519097543
 20
13.33833882973294
 10
-0.9274066395592731
 20
13.34748205148617
 10
-0.9344444172811284
 20
13.35635093135207
 10
-0.9418312261322943
 20
13.3649312810148
 10
-0.9495552487943617
 20
13.37320937374526
 10
-0.9576041284787356
 20
13.381171966361
 10
-0.9659649886949926
 20
13.38880632041241
 10
-0.9746244538503395
 20
13.39610022256159
 10
-0.9835686706477281
 20
13.40304200412105
 10
-0.9927833302483085
 20
13.40962055972113
 10
-1.00225369116243
 20
13.41582536507622
 10
-1.011964602832826
 20
13.42164649382138
 10
-1.021900529872397
 20
13.42707463339239
 10
-1.032045576917419
 20
13.43210109992386
 10
-1.042383514056823
 20
13.43671785214162
 10
-1.052897802796451
 20
13.44091750422697
 10
-1.063571622517252
 20
13.44469333763244
 10
-1.074387897384632
 20
13.44803931183005
 10
-1.085329323666194
 20
13.45095007397487
 10
-1.096378397413886
 20
13.45342096746839
 10
-1.107517442466715
 20
13.45544803940811
 10
-1.118728638728839
 20
13.45702804691134
 10
-1.129994050677794
 20
13.45815846230315
 10
-1.141295656057679
 20
13.45883747716003
 10
-1.152615374710706
 20
13.45906400520307
1001
REVIT
1002
{
1070
     2
1000
-2001160
1002
}
  0
LWPOLYLINE
  5
1FC
330
1F4
100
AcDbEntity
  8
P-SANR-FIXT
 62
     0
100
AcDbPolyline
 90
       30
 70
   128
 43
0.0
 10
1.152617961347771
 20
13.45906400521491
 10
1.141298240625231
 20
13.45883758060971
 10
1.129996629041072
 20
13.45815866902517
 10
1.118731206763036
 20
13.45702835657499
 10
1.107519996063522
 20
13.45544845151799
 10
1.096380932488059
 20
13.45342148136522
 10
1.085331836162203
 20
13.45095068883652
 10
1.074390383283016
 20
13.44804002667288
 10
1.063574077841095
 20
13.44469415131284
 10
1.05290022361776
 20
13.44091841544323
 10
1.042385896502813
 20
13.436718859436
 10
1.032047917176696
 20
13.43210220168489
 10
1.021902824200991
 20
13.42707582785749
 10
1.011966847560329
 20
13.42164777907967
 10
1.002255882697773
 20
13.41582673907155
 10
0.9927854650855174
 20
13.4096220202554
 10
0.9835707453714867
 20
13.40304354885772
 10
0.9746264651415323
 20
13.39610184902942
 10
0.9659669333360334
 20
13.38880802600938
 10
0.9576060033585768
 20
13.38117374835854
 10
0.9495570509135681
 20
13.37321122929255
 10
0.941832952607924
 20
13.36493320714335
 10
0.934446065351188
 20
13.35635292498049
 10
0.9274082065871944
 20
13.34748410942507
 10
0.9207306353885932
 20
13.33834094869007
 10
0.9144240344449336
 20
13.32893806988222
 10
0.90849849297227
 20
13.31929051560178
 10
0.9029634905729857
 20
13.30941371987756
 10
0.8978278820701525
 20
13.29932348347578
 10
0.8930998833418605
 20
13.28903594862222
1001
REVIT
1002
{
1070
     2
1000
-2001160
1002
}
  0
LWPOLYLINE
  5
1FD
330
1F4
100
AcDbEntity
  8
P-SANR-FIXT
 62
     0
100
AcDbPolyline
 90
       41
 70
   128
 43
0.0
 10
-1.406250000002096
 20
13.69017131817531
 10
-1.408749333388727
 20
13.690221311509
 10
-1.411244668375154
 20
13.6903712115314
 10
-1.413732012957638
 20
13.69062077843445
 10
-1.416207387915492
 20
13.69096961296434
 10
-1.418666833176786
 20
13.69141715706023
 10
-1.421106414153783
 20
13.69196269474706
 10
-1.423522228037335
 20
13.69260535328089
 10
-1.425910410040593
 20
13.69334410454516
 10
-1.428267139581756
 20
13.69417776669544
 10
-1.43058864639638
 20
13.69510500605013
 10
-1.432871216568721
 20
13.69612433922406
 10
-1.435111198473407
 20
13.69723413550161
 10
-1.437305008617322
 20
13.69843261944546
 10
-1.439449137372144
 20
13.69971787373697
 10
-1.441540154589269
 20
13.70108784224346
 10
-1.443574715087244
 20
13.70254033330754
 10
-1.445549564003237
 20
13.70407302325338
 10
-1.447461542000305
 20
13.70568346010401
 10
-1.449307590321489
 20
13.707369067504
 10
-1.451084755683304
 20
13.70912714884111
 10
-1.452790195000261
 20
13.71095489156023
 10
-1.45442117993327
 20
13.7128493716629
 10
-1.455975101254339
 20
13.7148075583851
 10
-1.45744947302088
 20
13.71682631904578
 10
-1.458841936552581
 20
13.71890242405855
 10
-1.460150264204792
 20
13.72103255209826
 10
-1.461372362932394
 20
13.72321329541445
 10
-1.462506277638099
 20
13.72544116528302
 10
-1.463550194300311
 20
13.72771259758742
 10
-1.464502442875045
 20
13.73002395852052
 10
-1.465361499967685
 20
13.73237155039789
 10
-1.466125991270161
 20
13.73475161757331
 10
-1.466794693759489
 20
13.73716035244704
 10
-1.467366537654286
 20
13.7395939015571
 10
-1.467840608126359
 20
13.74204837174405
 10
-1.468216146764071
 20
13.74451983637918
 10
-1.468492552785683
 20
13.74700434164629
 10
-1.468669384000549
 20
13.74949791286696
 10
-1.468746357516451
 20
13.75199656085917
 10
-1.468750000002082
 20
13.75267131817532
1001
REVIT
1002
{
1070
     2
1000
-2001160
1002
}
  0
LWPOLYLINE
  5
1FE
330
1F4
100
AcDbEntity
  8
P-SANR-FIXT
 62
     0
100
AcDbPolyline
 90
       41
 70
   128
 43
0.0
 10
1.468750000003196
 20
13.75267131817534
 10
1.468700006669521
 20
13.75017198478868
 10
1.46855010664712
 20
13.74767664980227
 10
1.468300539744062
 20
13.74518930521978
 10
1.467951705214161
 20
13.74271393026195
 10
1.467504161118276
 20
13.74025448500065
 10
1.466958623431444
 20
13.73781490402365
 10
1.46631596489763
 20
13.73539909014009
 10
1.465577213633351
 20
13.73301090813684
 10
1.464743551483073
 20
13.73065417859565
 10
1.463816312128378
 20
13.72833267178105
 10
1.462796978954457
 20
13.72605010160872
 10
1.461687182676924
 20
13.723810119704
 10
1.46048869873305
 20
13.72161630956011
 10
1.459203444441533
 20
13.71947218080529
 10
1.457833475935067
 20
13.71738116358815
 10
1.456380984870981
 20
13.71534660309019
 10
1.454848294925141
 20
13.71337175417419
 10
1.453237858074515
 20
13.71145977617713
 10
1.451552250674509
 20
13.70961372785593
 10
1.4497941693374
 20
13.70783656249412
 10
1.447966426618285
 20
13.70613112317716
 10
1.446071946515615
 20
13.70450013824416
 10
1.444113759793423
 20
13.70294621692307
 10
1.442094999132726
 20
13.70147184515653
 10
1.440018894119957
 20
13.70007938162485
 10
1.437888766080241
 20
13.69877105397263
 10
1.435708022764052
 20
13.69754895524503
 10
1.433480152895497
 20
13.69641504053931
 10
1.431208720591107
 20
13.69537112387711
 10
1.428897359658015
 20
13.69441887530239
 10
1.426549767780641
 20
13.69355981820974
 10
1.424169700605189
 20
13.69279532690726
 10
1.421760965731464
 20
13.69212662441795
 10
1.419327416621441
 20
13.69155478052313
 10
1.416872946434451
 20
13.69108071005106
 10
1.414401481799351
 20
13.69070517141336
 10
1.41191697653221
 20
13.69042876539174
 10
1.409423405311534
 20
13.69025193417687
 10
1.406924757319344
 20
13.69017496066097
 10
1.406250000003189
 20
13.69017131817534
1001
REVIT
1002
{
1070
     2
1000
-2001160
1002
}
  0
LINE
  5
1FF
330
1F4
100
AcDbEntity
  8
P-SANR-FIXT
 62
     0
100
AcDbLine
 10
-1.468750000002061
 20
13.91925903626845
 30
0.0
 11
-1.468750000002061
 21
13.75267131817532
 31
0.0
1001
REVIT
1002
{
1070
     2
1000
-2001160
1002
}
  0
LINE
  5
200
330
1F4
100
AcDbEntity
  8
P-SANR-FIXT
 62
     0
100
AcDbLine
 10
1.468750000003196
 20
13.75267131817534
 30
0.0
 11
1.468750000003196
 21
13.91925903626848
 31
0.0
1001
REVIT
1002
{
1070
     2
1000
-2001160
1002
}
  0
LWPOLYLINE
  5
201
330
1F4
100
AcDbEntity
  8
P-SANR-FIXT
 62
     0
100
AcDbPolyline
 90
        6
 70
   128
 43
0.0
 10
-0.8755515616913331
 20
8.405283528401003
 10
-0.867145536828276
 20
8.456732425087665
 10
-0.8382513402392543
 20
8.666532673612312
 10
-0.8155092956507427
 20
8.855613200977517
 10
-0.7804154267309268
 20
9.176541413203949
 10
-0.7458502312252345
 20
9.512535859795496
1001
REVIT
1002
{
1070
     2
1000
-2001160
1002
}
  0
LWPOLYLINE
  5
202
330
1F4
100
AcDbEntity
  8
P-SANR-FIXT
 62
     0
100
AcDbPolyline
 90
        7
 70
   128
 43
0.0
 10
0.7458502312264331
 20
9.512535859795494
 10
0.7779359124371853
 20
9.200182246823032
 10
0.80557619094906
 20
8.94340151252909
 10
0.8292713678577769
 20
8.739014679330463
 10
0.849387562828609
 20
8.581137680830739
 10
0.8661651343734234
 20
8.463183159975734
 10
0.8754424412751456
 20
8.405492321184247
1001
REVIT
1002
{
1070
     2
1000
-2001160
1002
}
  0
LINE
  5
203
330
1F4
100
AcDbEntity
  8
P-SANR-FIXT
 62
     0
100
AcDbLine
 10
-1.161055258803003
 20
13.45906399895943
 30
0.0
 11
1.161055258805098
 21
13.45906399895943
 31
0.0
1001
REVIT
1002
{
1070
     2
1000
-2001160
1002
}
  0
LWPOLYLINE
  5
204
330
1F4
100
AcDbEntity
  8
P-SANR-FIXT
 62
     0
100
AcDbPolyline
 90
       80
 70
   128
 43
0.0
 10
0.0000000000006098
 20
8.293782105861136
 10
-0.0202514985927364
 20
8.293377021876629
 10
-0.0404705991084326
 20
8.292162417971074
 10
-0.0606249552988357
 20
8.290140237251618
 10
-0.0806823244933964
 20
8.287313714776036
 10
-0.1006106191800539
 20
8.283687372377329
 10
-0.1203779583384671
 20
8.279267011429755
 10
-0.1399527184428221
 20
8.274059703567875
 10
-0.1593035840526594
 20
8.26807377937343
 10
-0.1783995979109546
 20
8.261318815048205
 10
-0.1972102104691314
 20
8.253805617094137
 10
-0.2157053287598613
 20
8.24554620502522
 10
-0.2338553645392038
 20
8.236553792138856
 10
-0.2516312816217988
 20
8.22684276437738
 10
-0.2690046423322853
 20
8.216428657313635
 10
-0.2859476529996184
 20
8.205328131297367
 10
-0.3024332084210654
 20
8.193558944802216
 10
-0.318434935224681
 20
8.181139926015948
 10
-0.3339272340610945
 20
8.168090942719368
 10
-0.348885320557032
 20
8.154432870502123
 10
-0.3632852649649662
 20
8.140187559366188
 10
-0.377104030445666
 20
8.125377798770545
 10
-0.3903195099222584
 20
8.1100272811729
 10
-0.4029105614466685
 20
8.094160564126807
 10
-0.4148570420224415
 20
8.077803030994822
 10
-0.4261398398290778
 20
8.060980850340531
 10
-0.4367409047969785
 20
8.043720934064442
 10
-0.4466432774836532
 20
8.026050894350682
 10
-0.455831116205148
 20
8.007998999493379
 10
-0.4642897223794846
 20
7.989594128673444
 10
-0.4720055640412268
 20
7.970865725758025
 10
-0.4789662974896358
 20
7.951843752196605
 10
-0.4851607870360949
 20
7.932558639089077
 10
-0.4905791228187665
 20
7.91304123850248
 10
-0.4952126366561926
 20
7.893322774114259
 10
-0.4990539159147089
 20
7.873434791261054
 10
-0.5020968153669058
 20
7.853409106472887
 10
-0.5043364670228043
 20
7.8332777565735
 10
-0.5057692879175035
 20
7.813072947428276
 10
-0.5063929858432145
 20
7.792827002421712
 10
-0.506206563016343
 20
7.77257231074692
 10
-0.5052103176736095
 20
7.752341275589809
 10
-0.5034058435950341
 20
7.732166262290901
 10
-0.5007960275542315
 20
7.712079546567705
 10
-0.4973850447001324
 20
7.69211326288044
 10
-0.4931783518776753
 20
7.672299353023759
 10
-0.4881826788979792
 20
7.652669515026691
 10
-0.4824060177721078
 20
7.633255152442556
 10
-0.4758576099256059
 20
7.614087324109976
 10
-0.4685479314141018
 20
7.595196694465368
 10
-0.4604886761639135
 20
7.576613484486376
 10
-0.4516927372641759
 20
7.558367423344759
 10
-0.4421741863408228
 20
7.54048770084606
 10
-0.4319482510447385
 20
7.523002920732138
 10
-0.4210312906910629
 20
7.505941054921288
 10
-0.409440770087508
 20
7.489329398759138
 10
-0.3971952315945102
 20
7.473194527351914
 10
-0.3843142654614069
 20
7.457562253051947
 10
-0.3708184784862367
 20
7.44245758416341
 10
-0.3567294610492353
 20
7.427904684934365
 10
-0.3420697525727631
 20
7.413926836899128
 10
-0.3268628054631732
 20
7.400546401632774
 10
-0.3111329475918309
 20
7.387784784977385
 10
-0.2949053433758463
 20
7.375662402797279
 10
-0.2782059535202505
 20
7.364198648317973
 10
-0.2610614934864385
 20
7.353411861101164
 10
-0.2434993907531946
 20
7.34331929770534
 10
-0.2255477409385533
 20
7.33393710407897
 10
-0.2072352628526501
 20
7.325280289730427
 10
-0.1885912525540561
 20
7.317362703715981
 10
-0.1696455364819669
 20
7.310197012484259
 10
-0.150428423740665
 20
7.303794679612634
 10
-0.1309706576110527
 20
7.298165947467941
 10
-0.1113033663681917
 20
7.29331982082088
 10
-0.0914580134825882
 20
7.289264052440301
 10
-0.0714663472853956
 20
7.28600513069043
 10
-0.0513603501779172
 20
7.283548269150864
 10
-0.0311721874664115
 20
7.281897398275966
 10
-0.0109341559046726
 20
7.281055159106969
 10
0.000000000000631
 20
7.280937105799762
1001
REVIT
1002
{
1070
     2
1000
-2001160
1002
}
  0
LWPOLYLINE
  5
205
330
1F4
100
AcDbEntity
  8
P-SANR-FIXT
 62
     0
100
AcDbPolyline
 90
       80
 70
   128
 43
0.0
 10
0.000000000000631
 20
7.280937105799762
 10
0.0202514985939772
 20
7.281342189784267
 10
0.0404705991096734
 20
7.282556793689823
 10
0.0606249553000766
 20
7.28457897440928
 10
0.0806823244946373
 20
7.287405496884862
 10
0.1006106191812947
 20
7.29103183928357
 10
0.1203779583397293
 20
7.295452200231142
 10
0.1399527184440843
 20
7.300659508093024
 10
0.1593035840539003
 20
7.306645432287467
 10
0.1783995979121955
 20
7.313400396612693
 10
0.1972102104703723
 20
7.320913594566762
 10
0.2157053287610808
 20
7.329173006635677
 10
0.2338553645404446
 20
7.338165419522042
 10
0.251631281623061
 20
7.347876447283518
 10
0.2690046423335261
 20
7.358290554347262
 10
0.285947653000838
 20
7.369391080363531
 10
0.3024332084223062
 20
7.381160266858682
 10
0.3184349352259219
 20
7.393579285644952
 10
0.3339272340623353
 20
7.406628268941529
 10
0.3488853205582729
 20
7.420286341158776
 10
0.363285264966207
 20
7.434531652294711
 10
0.3771040304469281
 20
7.449341412890353
 10
0.3903195099234779
 20
7.464691930487998
 10
0.4029105614479093
 20
7.480558647534091
 10
0.4148570420236823
 20
7.496916180666078
 10
0.4261398398303186
 20
7.513738361320368
 10
0.4367409047982406
 20
7.530998277596456
 10
0.4466432774848727
 20
7.548668317310218
 10
0.4558311162063888
 20
7.566720212167519
 10
0.4642897223807254
 20
7.585125082987453
 10
0.4720055640424676
 20
7.603853485902875
 10
0.4789662974908766
 20
7.622875459464293
 10
0.4851607870373357
 20
7.64216057257182
 10
0.490579122819986
 20
7.661677973158418
 10
0.4952126366574334
 20
7.681396437546639
 10
0.4990539159159497
 20
7.701284420399846
 10
0.5020968153681466
 20
7.721310105188012
 10
0.5043364670240237
 20
7.741441455087398
 10
0.5057692879187443
 20
7.761646264232624
 10
0.5063929858444553
 20
7.781892209239186
 10
0.5062065630175838
 20
7.802146900913978
 10
0.5052103176748503
 20
7.822377936071092
 10
0.5034058435962962
 20
7.842552949369999
 10
0.5007960275554723
 20
7.862639665093195
 10
0.4973850447013946
 20
7.88260594878046
 10
0.4931783518789162
 20
7.902419858637139
 10
0.4881826788992201
 20
7.922049696634207
 10
0.4824060177733487
 20
7.941464059218343
 10
0.4758576099268681
 20
7.960631887550922
 10
0.468547931415364
 20
7.979522517195531
 10
0.460488676165133
 20
7.998105727174522
 10
0.4516927372654381
 20
8.016351788316139
 10
0.4421741863420637
 20
8.034231510814837
 10
0.431948251046022
 20
8.051716290928759
 10
0.4210312906923251
 20
8.068778156739611
 10
0.4094407700887488
 20
8.085389812901759
 10
0.397195231595751
 20
8.101524684308984
 10
0.3843142654626477
 20
8.117156958608951
 10
0.3708184784874988
 20
8.132261627497488
 10
0.3567294610504761
 20
8.146814526726533
 10
0.342069752574004
 20
8.160792374761768
 10
0.326862805464414
 20
8.174172810028125
 10
0.3111329475930931
 20
8.186934426683514
 10
0.2949053433770872
 20
8.19905680886362
 10
0.2782059535214914
 20
8.210520563342925
 10
0.2610614934876794
 20
8.221307350559733
 10
0.2434993907544781
 20
8.231399913955558
 10
0.2255477409397942
 20
8.240782107581928
 10
0.207235262853891
 20
8.249438921930471
 10
0.1885912525552756
 20
8.257356507944916
 10
0.1696455364832077
 20
8.264522199176639
 10
0.1504284237419058
 20
8.270924532048265
 10
0.1309706576122936
 20
8.276553264192957
 10
0.1113033663694112
 20
8.281399390840018
 10
0.0914580134838291
 20
8.285455159220596
 10
0.0714663472866365
 20
8.288714080970468
 10
0.0513603501791581
 20
8.291170942510033
 10
0.0311721874676524
 20
8.292821813384932
 10
0.0109341559059134
 20
8.293664052553928
 10
0.0000000000006098
 20
8.293782105861136
1001
REVIT
1002
{
1070
     2
1000
-2001160
1002
}
  0
LINE
  5
206
330
1F4
100
AcDbEntity
  8
P-SANR-FIXT
 62
     0
100
AcDbLine
 10
-1.468750000002066
 20
13.91925903626845
 30
0.0
 11
1.468750000003183
 21
13.91925903626848
 31
0.0
1001
REVIT
1002
{
1070
     2
1000
-2001160
1002
}
  0
LINE
  5
207
330
1F4
100
AcDbEntity
  8
P-SANR-FIXT
 62
     0
100
AcDbLine
 10
-1.211055258803006
 20
13.50906399895944
 30
0.0
 11
-1.211055258803006
 21
13.69017131817532
 31
0.0
1001
REVIT
1002
{
1070
     2
1000
-2001160
1002
}
  0
LINE
  5
208
330
1F4
100
AcDbEntity
  8
P-SANR-FIXT
 62
     0
100
AcDbLine
 10
1.21105525880511
 20
13.69017131817532
 30
0.0
 11
1.21105525880511
 21
13.50906399895944
 31
0.0
1001
REVIT
1002
{
1070
     2
1000
-2001160
1002
}
  0
LINE
  5
209
330
1F4
100
AcDbEntity
  8
P-SANR-FIXT
 62
     0
100
AcDbLine
 10
0.0000000000010561
 20
13.69017131817532
 30
0.0
 11
0.0000000000010561
 21
13.50906399895944
 31
0.0
1001
REVIT
1002
{
1070
     2
1000
-2001160
1002
}
  0
SPLINE
  5
20A
330
1F4
100
AcDbEntity
  8
P-SANR-FIXT
 62
     0
100
AcDbSpline
210
0.0
220
0.0
230
1.0
 70
     8
 71
     3
 72
    16
 73
    12
 74
     0
 42
0.000000001
 43
0.0000000001
 40
0.0
 40
0.0
 40
0.0
 40
0.0
 40
0.1666666666666666
 40
0.3333333333333333
 40
0.4166666666666666
 40
0.5
 40
0.5833333333333333
 40
0.6666666666666666
 40
0.75
 40
0.8333333333333332
 40
1.0
 40
1.0
 40
1.0
 40
1.0
 10
0.0000000000010564
 20
13.50906399895944
 30
0.0
 10
0.0000096754120071
 20
13.50470067582945
 30
0.0
 10
-0.000003790425985
 20
13.49597428012755
 30
0.0
 10
-0.0000016705882688
 20
13.48581011838398
 30
0.0
 10
0.0000037651472496
 20
13.47853892776163
 30
0.0
 10
-0.0000017213700543
 20
13.47360753327906
 30
0.0
 10
0.0000031203393043
 20
13.46928289852275
 30
0.0
 10
-0.0000007635838172
 20
13.46563886429915
 30
0.0
 10
-0.0000000659976998
 20
13.46273801690191
 30
0.0
 10
0.0000097707709856
 20
13.45992626382793
 30
0.0
 10
-0.0000486558523267
 20
13.45906399895943
 30
0.0
 10
0.0000000000010558
 20
13.45906399895943
 30
0.0
1001
REVIT
1002
{
1070
     2
1000
-2001160
1002
}
  0
SPLINE
  5
20B
330
1F4
100
AcDbEntity
  8
P-SANR-FIXT
 62
     0
100
AcDbSpline
210
0.0
220
0.0
230
1.0
 70
     8
 71
     3
 72
    16
 73
    12
 74
     0
 42
0.000000001
 43
0.0000000001
 40
0.0
 40
0.0
 40
0.0
 40
0.0
 40
0.1666666666666666
 40
0.3333333333333333
 40
0.4166666666666666
 40
0.5
 40
0.5833333333333333
 40
0.6666666666666666
 40
0.75
 40
0.8333333333333332
 40
1.0
 40
1.0
 40
1.0
 40
1.0
 10
-1.211055258803007
 20
13.50906399895944
 30
0.0
 10
-1.211045583392056
 20
13.50470067582945
 30
0.0
 10
-1.209910380547578
 20
13.49597428012755
 30
0.0
 10
-1.205697224841391
 20
13.48581011838398
 30
0.0
 10
-1.200832506152668
 20
13.47853892776164
 30
0.0
 10
-1.196513457567313
 20
13.47360753327906
 30
0.0
 10
-1.191577250752087
 20
13.46928289852275
 30
0.0
 10
-1.186127524547988
 20
13.46563886429915
 30
0.0
 10
-1.180244203873998
 20
13.46273801690191
 30
0.0
 10
-1.171953210022965
 20
13.45992626382793
 30
0.0
 10
-1.165467237786375
 20
13.45906399895943
 30
0.0
 10
-1.161055258803006
 20
13.45906399895943
 30
0.0
1001
REVIT
1002
{
1070
     2
1000
-2001160
1002
}
  0
SPLINE
  5
20C
330
1F4
100
AcDbEntity
  8
P-SANR-FIXT
 62
     0
100
AcDbSpline
210
0.0
220
0.0
230
1.0
 70
     8
 71
     3
 72
    16
 73
    12
 74
     0
 42
0.000000001
 43
0.0000000001
 40
-1.0
 40
-1.0
 40
-1.0
 40
-1.0
 40
-0.8333333333333333
 40
-0.75
 40
-0.6666666666666666
 40
-0.5833333333333333
 40
-0.5
 40
-0.4166666666666666
 40
-0.3333333333333333
 40
-0.1666666666666666
 40
0.0
 40
0.0
 40
0.0
 40
0.0
 10
1.161055258805109
 20
13.45906399895943
 30
0.0
 10
1.165418581935095
 20
13.45906399895943
 30
0.0
 10
1.171962980794997
 20
13.45992626382793
 30
0.0
 10
1.180244137877346
 20
13.46273801690191
 30
0.0
 10
1.186126760965219
 20
13.46563886429915
 30
0.0
 10
1.191580371092438
 20
13.46928289852275
 30
0.0
 10
1.196511736198305
 20
13.47360753327906
 30
0.0
 10
1.200836271300965
 20
13.47853892776164
 30
0.0
 10
1.205695554254168
 20
13.48581011838398
 30
0.0
 10
1.20990659012264
 20
13.49597428012755
 30
0.0
 10
1.21105525880511
 20
13.50470067582945
 30
0.0
 10
1.21105525880511
 20
13.50906399895944
 30
0.0
1001
REVIT
1002
{
1070
     2
1000
-2001160
1002
}
  0
LINE
  5
20D
330
1F4
100
AcDbEntity
  8
P-SANR-FIXT
 62
     0
100
AcDbLine
 10
-1.406250000002096
 20
13.69017131817531
 30
0.0
 11
1.406250000003189
 21
13.69017131817534
 31
0.0
  0
ARC
  5
20E
330
1F4
100
AcDbEntity
  8
0
 62
     0
100
AcDbCircle
 10
0.0000030373282428
 20
7.922359061706291
 30
0.0
 40
0.9999059437750645
100
AcDbArc
 50
151.1204492676058
 51
28.89321490850867
  0
ENDBLK
  5
1F6
330
1F4
100
AcDbEntity
  8
0
100
AcDbBlockEnd
  0
ENDSEC
  0
SECTION
  2
ENTITIES
  0
INSERT
  5
1D4
330
70
100
AcDbEntity
  8
0
100
AcDbBlockReference
  2
Tub_Filler-DXV-Oak_Hill-D35155761_Series - Left View
 10
0.0
 20
0.0
 30
0.0
  0
INSERT
  5
1F3
330
70
100
AcDbEntity
  8
0
100
AcDbBlockReference
  2
Tub_Filler-DXV-Oak_Hill-D35155761_Series - Front View
 10
0.0
 20
0.0
 30
0.0
  0
INSERT
  5
20F
330
70
100
AcDbEntity
  8
0
100
AcDbBlockReference
  2
Tub_Filler-DXV-Oak_Hill-D35155761_Series - Top View
 10
0.0
 20
0.0
 30
0.0
  0
ENDSEC
  0
SECTION
  2
OBJECTS
  0
DICTIONARY
  5
C
330
0
100
AcDbDictionary
281
     1
  3
ACAD_CIP_PREVIOUS_PRODUCT_INFO
350
79
  3
ACAD_COLOR
350
63
  3
ACAD_DETAILVIEWSTYLE
350
6A
  3
ACAD_GROUP
350
D
  3
ACAD_IMAGE_VARS
350
7A
  3
ACAD_LAYOUT
350
62
  3
ACAD_MATERIAL
350
10
  3
ACAD_MLEADERSTYLE
350
66
  3
ACAD_MLINESTYLE
350
5F
  3
ACAD_PLOTSETTINGS
350
61
  3
ACAD_PLOTSTYLENAME
350
E
  3
ACAD_SCALELIST
350
42
  3
ACAD_SECTIONVIEWSTYLE
350
68
  3
ACAD_TABLESTYLE
350
64
  3
ACAD_VISUALSTYLE
350
29
  3
ACDB_RECOMPOSE_DATA
350
248
  3
AcDbVariableDictionary
350
B2
  3
REVIT_DICTIONARY
350
AC
  0
DICTIONARY
  5
B0
330
70
100
AcDbDictionary
280
     1
281
     1
  3
ACAD_SORTENTS
360
B1
  0
XRECORD
  5
79
102
{ACAD_REACTORS
330
C
102
}
330
C
100
AcDbXrecord
280
     1
300
ACD
300
2019
300

  0
DICTIONARY
  5
63
102
{ACAD_REACTORS
330
C
102
}
330
C
100
AcDbDictionary
281
     1
  0
DICTIONARY
  5
6A
102
{ACAD_REACTORS
330
C
102
}
330
C
100
AcDbDictionary
281
     1
  3
Imperial24
350
6B
  0
DICTIONARY
  5
D
102
{ACAD_REACTORS
330
C
102
}
330
C
100
AcDbDictionary
281
     1
  0
RASTERVARIABLES
  5
7A
102
{ACAD_REACTORS
330
C
102
}
330
C
100
AcDbRasterVariables
 90
        0
 70
     0
 71
     1
 72
     5
  0
DICTIONARY
  5
62
102
{ACAD_REACTORS
330
C
102
}
330
C
100
AcDbDictionary
281
     1
  3
Layout1
350
6F
  3
Layout2
350
77
  3
Model
350
73
  0
DICTIONARY
  5
10
102
{ACAD_REACTORS
330
C
102
}
330
C
100
AcDbDictionary
281
     1
  3
ByBlock
350
19
  3
ByLayer
350
11
  3
Global
350
21
  0
DICTIONARY
  5
66
102
{ACAD_REACTORS
330
C
102
}
330
C
100
AcDbDictionary
281
     1
  3
Standard
350
67
  0
DICTIONARY
  5
5F
102
{ACAD_REACTORS
330
C
102
}
330
C
100
AcDbDictionary
281
     1
  3
Standard
350
60
  0
DICTIONARY
  5
61
102
{ACAD_REACTORS
330
C
102
}
330
C
100
AcDbDictionary
281
     1
  0
ACDBDICTIONARYWDFLT
  5
E
102
{ACAD_REACTORS
330
C
102
}
330
C
100
AcDbDictionary
281
     1
  3
Normal
350
F
100
AcDbDictionaryWithDefault
340
F
  0
DICTIONARY
  5
42
102
{ACAD_REACTORS
330
C
102
}
330
C
100
AcDbDictionary
281
     1
  3
A0
350
43
  3
A1
350
44
  3
A2
350
45
  3
A3
350
46
  3
A4
350
47
  3
A5
350
48
  3
A6
350
49
  3
A7
350
4A
  3
A8
350
4B
  3
A9
350
4C
  3
B0
350
4D
  3
B1
350
4E
  3
B2
350
4F
  3
B3
350
50
  3
B4
350
51
  3
B5
350
52
  3
B6
350
53
  0
DICTIONARY
  5
68
102
{ACAD_REACTORS
330
C
102
}
330
C
100
AcDbDictionary
281
     1
  3
Imperial24
350
69
  0
DICTIONARY
  5
64
102
{ACAD_REACTORS
330
C
102
}
330
C
100
AcDbDictionary
281
     1
  3
Standard
350
65
  0
DICTIONARY
  5
29
102
{ACAD_REACTORS
330
C
102
}
330
C
100
AcDbDictionary
281
     1
  3
2dWireframe
350
2F
  3
Basic
350
2E
  3
Brighten
350
35
  3
ColorChange
350
39
  3
Conceptual
350
32
  3
Dim
350
34
  3
EdgeColorOff
350
41
  3
Facepattern
350
38
  3
Flat
350
2A
  3
FlatWithEdges
350
2B
  3
Gouraud
350
2C
  3
GouraudWithEdges
350
2D
  3
Hidden
350
31
  3
JitterOff
350
3F
  3
Linepattern
350
37
  3
OverhangOff
350
40
  3
Realistic
350
33
  3
Shaded
350
3E
  3
Shaded with edges
350
3D
  3
Shades of Gray
350
3A
  3
Sketchy
350
3B
  3
Thicken
350
36
  3
Wireframe
350
30
  3
X-Ray
350
3C
  0
XRECORD
  5
248
102
{ACAD_REACTORS
330
C
102
}
330
C
100
AcDbXrecord
280
     1
 90
        1
330
65
  0
DICTIONARY
  5
B2
102
{ACAD_REACTORS
330
C
102
}
330
C
100
AcDbDictionary
281
     1
  3
CANNOSCALE
350
B7
  3
CMLEADERSTYLE
350
B4
  3
CTABLESTYLE
350
B3
  3
CVIEWDETAILSTYLE
350
B5
  3
CVIEWSECTIONSTYLE
350
B6
  0
DICTIONARY
  5
AC
102
{ACAD_REACTORS
330
C
102
}
330
C
100
AcDbDictionary
281
     1
  3
DRAWING_TOOL
350
AF
  3
REVIT_CATEGORY_MAPPING
350
AD
  3
REVIT_SUB_CATEGORY_MAPPING
350
AE
  0
SORTENTSTABLE
  5
B1
102
{ACAD_REACTORS
330
B0
102
}
330
B0
100
AcDbSortentsTable
330
70
  0
ACDBDETAILVIEWSTYLE
  5
6B
102
{ACAD_XDICTIONARY
360
27D
102
}
102
{ACAD_REACTORS
330
6A
102
}
330
6A
100
AcDbModelDocViewStyle
 70
     0
  3
Imperial24
290
     0
100
AcDbDetailViewStyle
 70
     0
 71
     0
 90
        3
 71
     1
340
55
 62
   256
 40
0.24
340
0
 62
   256
 40
0.24
300

 40
0.36
280
     3
 71
     2
340
5D
 90
       25
 62
   256
 71
     3
340
55
 62
   256
 40
0.24
 90
        1
 40
0.75
 90
        1
300
%<\AcVar ViewType \f "%tc1">% %<\AcVar ViewDetailId>%\PSCALE %<\AcVar ViewScale \f "%sn">%
 71
     4
340
5D
 90
       25
 62
   256
340
5D
 90
       25
 62
   256
280
     0
  0
LAYOUT
  5
6F
102
{ACAD_REACTORS
330
62
102
}
330
62
100
AcDbPlotSettings
  1

  2

  4

  6

 40
0.0
 41
0.0
 42
0.0
 43
0.0
 44
0.0
 45
0.0
 46
0.0
 47
0.0
 48
0.0
 49
0.0
140
0.0
141
0.0
142
1.0
143
1.0
 70
   688
 72
     0
 73
     0
 74
     5
  7

 75
    16
147
1.0
 76
     0
 77
     2
 78
   300
148
0.0
149
0.0
100
AcDbLayout
  1
Layout1
 70
     1
 71
     1
 10
0.0
 20
0.0
 11
12.0
 21
9.0
 12
0.0
 22
0.0
 32
0.0
 14
1.000000000000000E+20
 24
1.000000000000000E+20
 34
1.000000000000000E+20
 15
-1.000000000000000E+20
 25
-1.000000000000000E+20
 35
-1.000000000000000E+20
146
0.0
 13
0.0
 23
0.0
 33
0.0
 16
1.0
 26
0.0
 36
0.0
 17
0.0
 27
1.0
 37
0.0
 76
     0
330
6C
  0
LAYOUT
  5
77
102
{ACAD_REACTORS
330
62
102
}
330
62
100
AcDbPlotSettings
  1

  2

  4

  6

 40
0.0
 41
0.0
 42
0.0
 43
0.0
 44
0.0
 45
0.0
 46
0.0
 47
0.0
 48
0.0
 49
0.0
140
0.0
141
0.0
142
1.0
143
1.0
 70
   688
 72
     0
 73
     0
 74
     5
  7

 75
    16
147
1.0
 76
     0
 77
     2
 78
   300
148
0.0
149
0.0
100
AcDbLayout
  1
Layout2
 70
     1
 71
     2
 10
0.0
 20
0.0
 11
12.0
 21
9.0
 12
0.0
 22
0.0
 32
0.0
 14
0.0
 24
0.0
 34
0.0
 15
0.0
 25
0.0
 35
0.0
146
0.0
 13
0.0
 23
0.0
 33
0.0
 16
1.0
 26
0.0
 36
0.0
 17
0.0
 27
1.0
 37
0.0
 76
     0
330
74
  0
LAYOUT
  5
73
102
{ACAD_REACTORS
330
62
102
}
330
62
100
AcDbPlotSettings
  1

  2

  4

  6

 40
0.0
 41
0.0
 42
0.0
 43
0.0
 44
0.0
 45
0.0
 46
0.0
 47
0.0
 48
0.0
 49
0.0
140
0.0
141
0.0
142
1.0
143
1.0
 70
  1712
 72
     0
 73
     0
 74
     0
  7

 75
     0
147
1.0
 76
     0
 77
     2
 78
   300
148
0.0
149
0.0
100
AcDbLayout
  1
Model
 70
     1
 71
     0
 10
0.0
 20
0.0
 11
12.0
 21
9.0
 12
0.0
 22
0.0
 32
0.0
 14
0.0
 24
0.0
 34
0.0
 15
0.0
 25
0.0
 35
0.0
146
0.0
 13
0.0
 23
0.0
 33
0.0
 16
1.0
 26
0.0
 36
0.0
 17
0.0
 27
1.0
 37
0.0
 76
     0
330
70
331
57
  0
MATERIAL
  5
19
102
{ACAD_XDICTIONARY
360
1A
102
}
102
{ACAD_REACTORS
330
10
102
}
330
10
100
AcDbMaterial
  1
ByBlock
 72
     0
 43
0.0208333333333333
 43
0.0
 43
0.0
 43
0.0
 43
0.0
 43
0.0208333333333333
 43
0.0
 43
0.0
 43
0.0
 43
0.0
 43
1.0
 43
0.0
 43
0.0
 43
0.0
 43
0.0
 43
1.0
 77
     0
 47
0.0208333333333333
 47
0.0
 47
0.0
 47
0.0
 47
0.0
 47
0.0208333333333333
 47
0.0
 47
0.0
 47
0.0
 47
0.0
 47
1.0
 47
0.0
 47
0.0
 47
0.0
 47
0.0
 47
1.0
171
     0
 49
0.0208333333333333
 49
0.0
 49
0.0
 49
0.0
 49
0.0
 49
0.0208333333333333
 49
0.0
 49
0.0
 49
0.0
 49
0.0
 49
1.0
 49
0.0
 49
0.0
 49
0.0
 49
0.0
 49
1.0
175
     0
142
0.0208333333333333
142
0.0
142
0.0
142
0.0
142
0.0
142
0.0208333333333333
142
0.0
142
0.0
142
0.0
142
0.0
142
1.0
142
0.0
142
0.0
142
0.0
142
0.0
142
1.0
179
     0
144
0.0208333333333333
144
0.0
144
0.0
144
0.0
144
0.0
144
0.0208333333333333
144
0.0
144
0.0
144
0.0
144
0.0
144
1.0
144
0.0
144
0.0
144
0.0
144
0.0
144
1.0
147
0.0208333333333333
147
0.0
147
0.0
147
0.0
147
0.0
147
0.0208333333333333
147
0.0
147
0.0
147
0.0
147
0.0
147
1.0
147
0.0
147
0.0
147
0.0
147
0.0
147
1.0
  0
MATERIAL
  5
11
102
{ACAD_XDICTIONARY
360
12
102
}
102
{ACAD_REACTORS
330
10
102
}
330
10
100
AcDbMaterial
  1
ByLayer
 72
     0
 43
0.0208333333333333
 43
0.0
 43
0.0
 43
0.0
 43
0.0
 43
0.0208333333333333
 43
0.0
 43
0.0
 43
0.0
 43
0.0
 43
1.0
 43
0.0
 43
0.0
 43
0.0
 43
0.0
 43
1.0
 77
     0
 47
0.0208333333333333
 47
0.0
 47
0.0
 47
0.0
 47
0.0
 47
0.0208333333333333
 47
0.0
 47
0.0
 47
0.0
 47
0.0
 47
1.0
 47
0.0
 47
0.0
 47
0.0
 47
0.0
 47
1.0
171
     0
 49
0.0208333333333333
 49
0.0
 49
0.0
 49
0.0
 49
0.0
 49
0.0208333333333333
 49
0.0
 49
0.0
 49
0.0
 49
0.0
 49
1.0
 49
0.0
 49
0.0
 49
0.0
 49
0.0
 49
1.0
175
     0
142
0.0208333333333333
142
0.0
142
0.0
142
0.0
142
0.0
142
0.0208333333333333
142
0.0
142
0.0
142
0.0
142
0.0
142
1.0
142
0.0
142
0.0
142
0.0
142
0.0
142
1.0
179
     0
144
0.0208333333333333
144
0.0
144
0.0
144
0.0
144
0.0
144
0.0208333333333333
144
0.0
144
0.0
144
0.0
144
0.0
144
1.0
144
0.0
144
0.0
144
0.0
144
0.0
144
1.0
147
0.0208333333333333
147
0.0
147
0.0
147
0.0
147
0.0
147
0.0208333333333333
147
0.0
147
0.0
147
0.0
147
0.0
147
1.0
147
0.0
147
0.0
147
0.0
147
0.0
147
1.0
  0
MATERIAL
  5
21
102
{ACAD_XDICTIONARY
360
22
102
}
102
{ACAD_REACTORS
330
10
102
}
330
10
100
AcDbMaterial
  1
Global
 72
     0
 43
0.0208333333333333
 43
0.0
 43
0.0
 43
0.0
 43
0.0
 43
0.0208333333333333
 43
0.0
 43
0.0
 43
0.0
 43
0.0
 43
1.0
 43
0.0
 43
0.0
 43
0.0
 43
0.0
 43
1.0
 77
     0
 47
0.0208333333333333
 47
0.0
 47
0.0
 47
0.0
 47
0.0
 47
0.0208333333333333
 47
0.0
 47
0.0
 47
0.0
 47
0.0
 47
1.0
 47
0.0
 47
0.0
 47
0.0
 47
0.0
 47
1.0
171
     0
 49
0.0208333333333333
 49
0.0
 49
0.0
 49
0.0
 49
0.0
 49
0.0208333333333333
 49
0.0
 49
0.0
 49
0.0
 49
0.0
 49
1.0
 49
0.0
 49
0.0
 49
0.0
 49
0.0
 49
1.0
175
     0
142
0.0208333333333333
142
0.0
142
0.0
142
0.0
142
0.0
142
0.0208333333333333
142
0.0
142
0.0
142
0.0
142
0.0
142
1.0
142
0.0
142
0.0
142
0.0
142
0.0
142
1.0
179
     0
144
0.0208333333333333
144
0.0
144
0.0
144
0.0
144
0.0
144
0.0208333333333333
144
0.0
144
0.0
144
0.0
144
0.0
144
1.0
144
0.0
144
0.0
144
0.0
144
0.0
144
1.0
147
0.0208333333333333
147
0.0
147
0.0
147
0.0
147
0.0
147
0.0208333333333333
147
0.0
147
0.0
147
0.0
147
0.0
147
1.0
147
0.0
147
0.0
147
0.0
147
0.0
147
1.0
  0
MLEADERSTYLE
  5
67
102
{ACAD_XDICTIONARY
360
279
102
}
102
{ACAD_REACTORS
330
66
102
}
330
66
100
AcDbMLeaderStyle
179
     2
170
     2
171
     1
172
     0
 90
        2
 40
0.0
 41
0.0
173
     1
 91
-1056964608
340
5B
 92
       -2
290
     1
 42
0.09
291
     1
 43
0.36
  3
Standard
 44
0.18
300

342
55
174
     1
178
     6
175
     1
176
     0
 93
-1056964608
 45
0.18
292
     0
297
     0
 46
0.18
 94
-1056964608
 47
1.0
 49
1.0
140
1.0
293
     1
141
0.0
294
     1
177
     0
142
1.0
295
     0
296
     0
143
0.125
271
     0
272
     9
273
     9
  0
MLINESTYLE
  5
60
102
{ACAD_REACTORS
330
5F
102
}
330
5F
100
AcDbMlineStyle
  2
STANDARD
 70
     0
  3

 62
   256
 51
90.0
 52
90.0
 71
     2
 49
0.5
 62
   256
  6
BYLAYER
 49
-0.5
 62
   256
  6
BYLAYER
  0
ACDBPLACEHOLDER
  5
F
102
{ACAD_REACTORS
330
E
102
}
330
E
  0
SCALE
  5
43
102
{ACAD_REACTORS
330
42
102
}
330
42
100
AcDbScale
 70
     0
300
1:1
140
1.0
141
1.0
290
     1
  0
SCALE
  5
44
102
{ACAD_REACTORS
330
42
102
}
330
42
100
AcDbScale
 70
     0
300
1/128" = 1'-0"
140
0.0078125
141
12.0
290
     0
  0
SCALE
  5
45
102
{ACAD_REACTORS
330
42
102
}
330
42
100
AcDbScale
 70
     0
300
1/64" = 1'-0"
140
0.015625
141
12.0
290
     0
  0
SCALE
  5
46
102
{ACAD_REACTORS
330
42
102
}
330
42
100
AcDbScale
 70
     0
300
1/32" = 1'-0"
140
0.03125
141
12.0
290
     0
  0
SCALE
  5
47
102
{ACAD_REACTORS
330
42
102
}
330
42
100
AcDbScale
 70
     0
300
1/16" = 1'-0"
140
0.0625
141
12.0
290
     0
  0
SCALE
  5
48
102
{ACAD_REACTORS
330
42
102
}
330
42
100
AcDbScale
 70
     0
300
3/32" = 1'-0"
140
0.09375
141
12.0
290
     0
  0
SCALE
  5
49
102
{ACAD_REACTORS
330
42
102
}
330
42
100
AcDbScale
 70
     0
300
1/8" = 1'-0"
140
0.125
141
12.0
290
     0
  0
SCALE
  5
4A
102
{ACAD_REACTORS
330
42
102
}
330
42
100
AcDbScale
 70
     0
300
3/16" = 1'-0"
140
0.1875
141
12.0
290
     0
  0
SCALE
  5
4B
102
{ACAD_REACTORS
330
42
102
}
330
42
100
AcDbScale
 70
     0
300
1/4" = 1'-0"
140
0.25
141
12.0
290
     0
  0
SCALE
  5
4C
102
{ACAD_REACTORS
330
42
102
}
330
42
100
AcDbScale
 70
     0
300
3/8" = 1'-0"
140
0.375
141
12.0
290
     0
  0
SCALE
  5
4D
102
{ACAD_REACTORS
330
42
102
}
330
42
100
AcDbScale
 70
     0
300
1/2" = 1'-0"
140
0.5
141
12.0
290
     0
  0
SCALE
  5
4E
102
{ACAD_REACTORS
330
42
102
}
330
42
100
AcDbScale
 70
     0
300
3/4" = 1'-0"
140
0.75
141
12.0
290
     0
  0
SCALE
  5
4F
102
{ACAD_REACTORS
330
42
102
}
330
42
100
AcDbScale
 70
     0
300
1" = 1'-0"
140
1.0
141
12.0
290
     0
  0
SCALE
  5
50
102
{ACAD_REACTORS
330
42
102
}
330
42
100
AcDbScale
 70
     0
300
1-1/2" = 1'-0"
140
1.5
141
12.0
290
     0
  0
SCALE
  5
51
102
{ACAD_REACTORS
330
42
102
}
330
42
100
AcDbScale
 70
     0
300
3" = 1'-0"
140
3.0
141
12.0
290
     0
  0
SCALE
  5
52
102
{ACAD_REACTORS
330
42
102
}
330
42
100
AcDbScale
 70
     0
300
6" = 1'-0"
140
6.0
141
12.0
290
     0
  0
SCALE
  5
53
102
{ACAD_REACTORS
330
42
102
}
330
42
100
AcDbScale
 70
     0
300
1'-0" = 1'-0"
140
12.0
141
12.0
290
     0
  0
ACDBSECTIONVIEWSTYLE
  5
69
102
{ACAD_XDICTIONARY
360
27B
102
}
102
{ACAD_REACTORS
330
68
102
}
330
68
100
AcDbModelDocViewStyle
 70
     0
  3
Imperial24
290
     0
100
AcDbSectionViewStyle
 70
     0
 71
     0
 90
       78
 71
     1
340
55
 62
   256
 40
0.24
340
0
340
0
 62
   256
 40
0.24
300
I, O, Q, S, X, Z
 40
0.48
 90
        3
 40
0.18
 90
        1
 71
     2
340
5D
 90
       25
 62
   256
340
5D
 90
       50
 62
   256
 40
0.24
 40
0.0
 40
0.24
 71
     3
340
55
 62
   256
 40
0.24
 90
        1
 40
0.75
 90
        1
300
%<\AcVar ViewType \f "%tc1">% %<\AcVar ViewSectionStartId>%-%<\AcVar ViewSectionEndId>%\PSCALE %<\AcVar ViewScale \f "%sn">%
 71
     4
 62
   256
 62
   257
300
ANSI31
 40
1.0
 90
        0
290
     0
290
     0
 90
        6
 40
0.0
 40
1.570796326794896
 40
0.2617993877991494
 40
1.308996938995747
 40
-0.2617993877991494
 40
1.832595714594046
  0
TABLESTYLE
  5
65
102
{ACAD_XDICTIONARY
360
246
102
}
102
{ACAD_REACTORS
330
64
102
}
330
64
100
AcDbTableStyle
280
     0
  3
Standard
 70
     0
 71
     0
 40
0.06
 41
0.06
280
     0
281
     0
  7
Standard
140
0.18
170
     2
 62
     0
 63
     7
283
     0
 90
      512
 91
        0
  1

274
    -2
284
     1
 64
     0
275
    -2
285
     1
 65
     0
276
    -2
286
     1
 66
     0
277
    -2
287
     1
 67
     0
278
    -2
288
     1
 68
     0
279
    -2
289
     1
 69
     0
  7
Standard
140
0.25
170
     5
 62
     0
 63
     7
283
     0
 90
      512
 91
        0
  1

274
    -2
284
     1
 64
     0
275
    -2
285
     1
 65
     0
276
    -2
286
     1
 66
     0
277
    -2
287
     1
 67
     0
278
    -2
288
     1
 68
     0
279
    -2
289
     1
 69
     0
  7
Standard
140
0.18
170
     5
 62
     0
 63
     7
283
     0
 90
      512
 91
        0
  1

274
    -2
284
     1
 64
     0
275
    -2
285
     1
 65
     0
276
    -2
286
     1
 66
     0
277
    -2
287
     1
 67
     0
278
    -2
288
     1
 68
     0
279
    -2
289
     1
 69
     0
  0
VISUALSTYLE
  5
2F
102
{ACAD_XDICTIONARY
360
253
102
}
102
{ACAD_REACTORS
330
29
102
}
330
29
100
AcDbVisualStyle
  2
2dWireframe
 70
     4
177
     2
291
     0
 71
     0
176
     1
 72
     2
176
     1
 73
     0
176
     1
 90
        0
176
     1
 40
0.6
176
     1
 41
30.0
176
     1
 63
     7
421
 16777215
176
     1
 74
     1
176
     1
 91
        4
176
     1
 64
     7
176
     1
 65
   257
176
     1
 75
     1
176
     1
175
     1
176
     1
 42
1.0
176
     1
 92
        0
176
     1
 66
   257
176
     1
 43
1.0
176
     1
 76
     1
176
     1
 77
     6
176
     1
 78
     2
176
     1
 67
     7
176
     1
 79
     5
176
     1
170
     0
176
     1
171
     0
176
     1
290
     0
176
     1
 93
        1
176
     1
 44
0.0
176
     1
173
     0
176
     1
1001
ACAD
1000
AcDbSavedByObjectVersion
1070
     0
  0
VISUALSTYLE
  5
2E
102
{ACAD_XDICTIONARY
360
251
102
}
102
{ACAD_REACTORS
330
29
102
}
330
29
100
AcDbVisualStyle
  2
Basic
 70
     7
177
     2
291
     1
 71
     1
176
     1
 72
     0
176
     1
 73
     1
176
     1
 90
        0
176
     1
 40
0.6
176
     1
 41
30.0
176
     1
 63
     7
421
 16777215
176
     1
 74
     0
176
     1
 91
        4
176
     1
 64
     7
176
     1
 65
   257
176
     1
 75
     1
176
     1
175
     1
176
     1
 42
1.0
176
     1
 92
        8
176
     1
 66
     7
176
     1
 43
1.0
176
     1
 76
     1
176
     1
 77
     6
176
     1
 78
     2
176
     1
 67
     7
176
     1
 79
     5
176
     1
170
     0
176
     1
171
     0
176
     1
290
     0
176
     1
 93
        1
176
     1
 44
0.0
176
     1
173
     0
176
     1
1001
ACAD
1000
AcDbSavedByObjectVersion
1070
     0
  0
VISUALSTYLE
  5
35
102
{ACAD_XDICTIONARY
360
25F
102
}
102
{ACAD_REACTORS
330
29
102
}
330
29
100
AcDbVisualStyle
  2
Brighten
 70
    12
177
     2
291
     1
 71
     2
176
     1
 72
     2
176
     1
 73
     0
176
     1
 90
        0
176
     1
 40
0.6
176
     1
 41
30.0
176
     1
 63
     7
421
 16777215
176
     1
 74
     1
176
     1
 91
        4
176
     1
 64
     7
176
     1
 65
   257
176
     1
 75
     1
176
     1
175
     1
176
     1
 42
1.0
176
     1
 92
        8
176
     1
 66
     7
176
     1
 43
1.0
176
     1
 76
     1
176
     1
 77
     6
176
     1
 78
     2
176
     1
 67
     7
176
     1
 79
     5
176
     1
170
     0
176
     1
171
     0
176
     1
290
     0
176
     1
 93
        1
176
     1
 44
50.0
176
     1
173
     0
176
     1
1001
ACAD
1000
AcDbSavedByObjectVersion
1070
     0
  0
VISUALSTYLE
  5
39
102
{ACAD_XDICTIONARY
360
267
102
}
102
{ACAD_REACTORS
330
29
102
}
330
29
100
AcDbVisualStyle
  2
ColorChange
 70
    16
177
     2
291
     1
 71
     2
176
     1
 72
     2
176
     1
 73
     3
176
     1
 90
        0
176
     1
 40
0.6
176
     1
 41
30.0
176
     1
 63
     8
421
  8421504
176
     1
 74
     1
176
     1
 91
        4
176
     1
 64
     7
176
     1
 65
   257
176
     1
 75
     1
176
     1
175
     1
176
     1
 42
1.0
176
     1
 92
        8
176
     1
 66
     8
424
  8421504
176
     1
 43
1.0
176
     1
 76
     1
176
     1
 77
     6
176
     1
 78
     2
176
     1
 67
     7
176
     1
 79
     5
176
     1
170
     0
176
     1
171
     0
176
     1
290
     0
176
     1
 93
        1
176
     1
 44
0.0
176
     1
173
     0
176
     1
1001
ACAD
1000
AcDbSavedByObjectVersion
1070
     0
  0
VISUALSTYLE
  5
32
102
{ACAD_XDICTIONARY
360
259
102
}
102
{ACAD_REACTORS
330
29
102
}
330
29
100
AcDbVisualStyle
  2
Conceptual
 70
     9
177
     2
291
     0
 71
     3
176
     1
 72
     2
176
     1
 73
     0
176
     1
 90
        0
176
     1
 40
0.6
176
     1
 41
30.0
176
     1
 63
     7
421
 16777215
176
     1
 74
     2
176
     1
 91
        2
176
     1
 64
     7
176
     1
 65
   257
176
     1
 75
     1
176
     1
175
     1
176
     1
 42
179.0
176
     1
 92
        8
176
     1
 66
     7
176
     1
 43
1.0
176
     1
 76
     1
176
     1
 77
     6
176
     1
 78
     2
176
     1
 67
     7
176
     1
 79
     3
176
     1
170
     0
176
     1
171
     0
176
     1
290
     0
176
     1
 93
        1
176
     1
 44
0.0
176
     1
173
     0
176
     1
1001
ACAD
1000
AcDbSavedByObjectVersion
1070
     0
  0
VISUALSTYLE
  5
34
102
{ACAD_XDICTIONARY
360
25D
102
}
102
{ACAD_REACTORS
330
29
102
}
330
29
100
AcDbVisualStyle
  2
Dim
 70
    11
177
     2
291
     1
 71
     2
176
     1
 72
     2
176
     1
 73
     0
176
     1
 90
        0
176
     1
 40
0.6
176
     1
 41
30.0
176
     1
 63
     7
421
 16777215
176
     1
 74
     1
176
     1
 91
        4
176
     1
 64
     7
176
     1
 65
   257
176
     1
 75
     1
176
     1
175
     1
176
     1
 42
1.0
176
     1
 92
        8
176
     1
 66
     7
176
     1
 43
1.0
176
     1
 76
     1
176
     1
 77
     6
176
     1
 78
     2
176
     1
 67
     7
176
     1
 79
     5
176
     1
170
     0
176
     1
171
     0
176
     1
290
     0
176
     1
 93
        1
176
     1
 44
-50.0
176
     1
173
     0
176
     1
1001
ACAD
1000
AcDbSavedByObjectVersion
1070
     0
  0
VISUALSTYLE
  5
41
102
{ACAD_XDICTIONARY
360
277
102
}
102
{ACAD_REACTORS
330
29
102
}
330
29
100
AcDbVisualStyle
  2
EdgeColorOff
 70
    22
177
     2
291
     1
 71
     2
176
     0
 72
     2
176
     0
 73
     0
176
     0
 90
        0
176
     0
 40
0.6
176
     0
 41
30.0
176
     0
 63
     7
421
 16777215
176
     0
 74
     1
176
     0
 91
        4
176
     0
 64
     7
176
     0
 65
   257
176
     0
 75
     1
176
     0
175
     1
176
     0
 42
1.0
176
     0
 92
        8
176
     2
 66
     7
176
     0
 43
1.0
176
     0
 76
     1
176
     0
 77
     6
176
     0
 78
     2
176
     0
 67
     7
176
     0
 79
     5
176
     0
170
     0
176
     0
171
     0
176
     0
290
     0
176
     0
 93
        1
176
     0
 44
0.0
176
     0
173
     0
176
     0
1001
ACAD
1000
AcDbSavedByObjectVersion
1070
     0
  0
VISUALSTYLE
  5
38
102
{ACAD_XDICTIONARY
360
265
102
}
102
{ACAD_REACTORS
330
29
102
}
330
29
100
AcDbVisualStyle
  2
Facepattern
 70
    15
177
     2
291
     1
 71
     2
176
     1
 72
     2
176
     1
 73
     0
176
     1
 90
        0
176
     1
 40
0.6
176
     1
 41
30.0
176
     1
 63
     7
421
 16777215
176
     1
 74
     1
176
     1
 91
        4
176
     1
 64
     7
176
     1
 65
   257
176
     1
 75
     1
176
     1
175
     1
176
     1
 42
1.0
176
     1
 92
        8
176
     1
 66
     7
176
     1
 43
1.0
176
     1
 76
     1
176
     1
 77
     6
176
     1
 78
     2
176
     1
 67
     7
176
     1
 79
     5
176
     1
170
     0
176
     1
171
     0
176
     1
290
     0
176
     1
 93
        1
176
     1
 44
0.0
176
     1
173
     0
176
     1
1001
ACAD
1000
AcDbSavedByObjectVersion
1070
     0
  0
VISUALSTYLE
  5
2A
102
{ACAD_XDICTIONARY
360
249
102
}
102
{ACAD_REACTORS
330
29
102
}
330
29
100
AcDbVisualStyle
  2
Flat
 70
     0
177
     2
291
     1
 71
     2
176
     1
 72
     1
176
     1
 73
     1
176
     1
 90
        2
176
     1
 40
0.6
176
     1
 41
30.0
176
     1
 63
     7
421
 16777215
176
     1
 74
     0
176
     1
 91
        0
176
     1
 64
     7
176
     1
 65
   257
176
     1
 75
     1
176
     1
175
     1
176
     1
 42
1.0
176
     1
 92
        8
176
     1
 66
     7
176
     1
 43
1.0
176
     1
 76
     1
176
     1
 77
     6
176
     1
 78
     2
176
     1
 67
     7
176
     1
 79
     5
176
     1
170
     0
176
     1
171
     0
176
     1
290
     0
176
     1
 93
       13
176
     1
 44
0.0
176
     1
173
     0
176
     1
1001
ACAD
1000
AcDbSavedByObjectVersion
1070
     0
  0
VISUALSTYLE
  5
2B
102
{ACAD_XDICTIONARY
360
24B
102
}
102
{ACAD_REACTORS
330
29
102
}
330
29
100
AcDbVisualStyle
  2
FlatWithEdges
 70
     1
177
     2
291
     1
 71
     2
176
     1
 72
     1
176
     1
 73
     1
176
     1
 90
        2
176
     1
 40
0.6
176
     1
 41
30.0
176
     1
 63
     7
421
 16777215
176
     1
 74
     1
176
     1
 91
        0
176
     1
 64
     7
176
     1
 65
   257
176
     1
 75
     1
176
     1
175
     1
176
     1
 42
1.0
176
     1
 92
        0
176
     1
 66
   257
176
     1
 43
1.0
176
     1
 76
     1
176
     1
 77
     6
176
     1
 78
     2
176
     1
 67
     7
176
     1
 79
     5
176
     1
170
     0
176
     1
171
     0
176
     1
290
     0
176
     1
 93
       13
176
     1
 44
0.0
176
     1
173
     0
176
     1
1001
ACAD
1000
AcDbSavedByObjectVersion
1070
     0
  0
VISUALSTYLE
  5
2C
102
{ACAD_XDICTIONARY
360
24D
102
}
102
{ACAD_REACTORS
330
29
102
}
330
29
100
AcDbVisualStyle
  2
Gouraud
 70
     2
177
     2
291
     1
 71
     2
176
     1
 72
     2
176
     1
 73
     1
176
     1
 90
        2
176
     1
 40
0.6
176
     1
 41
30.0
176
     1
 63
     7
421
 16777215
176
     1
 74
     0
176
     1
 91
        0
176
     1
 64
     7
176
     1
 65
   257
176
     1
 75
     1
176
     1
175
     1
176
     1
 42
1.0
176
     1
 92
        0
176
     1
 66
     7
176
     1
 43
1.0
176
     1
 76
     1
176
     1
 77
     6
176
     1
 78
     2
176
     1
 67
     7
176
     1
 79
     5
176
     1
170
     0
176
     1
171
     0
176
     1
290
     0
176
     1
 93
       13
176
     1
 44
0.0
176
     1
173
     0
176
     1
1001
ACAD
1000
AcDbSavedByObjectVersion
1070
     0
  0
VISUALSTYLE
  5
2D
102
{ACAD_XDICTIONARY
360
24F
102
}
102
{ACAD_REACTORS
330
29
102
}
330
29
100
AcDbVisualStyle
  2
GouraudWithEdges
 70
     3
177
     2
291
     1
 71
     2
176
     1
 72
     2
176
     1
 73
     1
176
     1
 90
        2
176
     1
 40
0.6
176
     1
 41
30.0
176
     1
 63
     7
421
 16777215
176
     1
 74
     1
176
     1
 91
        0
176
     1
 64
     7
176
     1
 65
   257
176
     1
 75
     1
176
     1
175
     1
176
     1
 42
1.0
176
     1
 92
        0
176
     1
 66
   257
176
     1
 43
1.0
176
     1
 76
     1
176
     1
 77
     6
176
     1
 78
     2
176
     1
 67
     7
176
     1
 79
     5
176
     1
170
     0
176
     1
171
     0
176
     1
290
     0
176
     1
 93
       13
176
     1
 44
0.0
176
     1
173
     0
176
     1
1001
ACAD
1000
AcDbSavedByObjectVersion
1070
     0
  0
VISUALSTYLE
  5
31
102
{ACAD_XDICTIONARY
360
257
102
}
102
{ACAD_REACTORS
330
29
102
}
330
29
100
AcDbVisualStyle
  2
Hidden
 70
     6
177
     2
291
     0
 71
     1
176
     1
 72
     2
176
     1
 73
     2
176
     1
 90
        0
176
     1
 40
0.6
176
     1
 41
30.0
176
     1
 63
     7
421
 16777215
176
     1
 74
     2
176
     1
 91
        2
176
     1
 64
     7
176
     1
 65
   257
176
     1
 75
     2
176
     1
175
     1
176
     1
 42
40.0
176
     1
 92
        0
176
     1
 66
   257
176
     1
 43
1.0
176
     1
 76
     1
176
     1
 77
     6
176
     1
 78
     2
176
     1
 67
     7
176
     1
 79
     3
176
     1
170
     0
176
     1
171
     0
176
     1
290
     0
176
     1
 93
        1
176
     1
 44
0.0
176
     1
173
     0
176
     1
1001
ACAD
1000
AcDbSavedByObjectVersion
1070
     0
  0
VISUALSTYLE
  5
3F
102
{ACAD_XDICTIONARY
360
273
102
}
102
{ACAD_REACTORS
330
29
102
}
330
29
100
AcDbVisualStyle
  2
JitterOff
 70
    20
177
     2
291
     1
 71
     2
176
     0
 72
     2
176
     0
 73
     0
176
     0
 90
        0
176
     0
 40
0.6
176
     0
 41
30.0
176
     0
 63
     7
421
 16777215
176
     0
 74
     1
176
     0
 91
        4
176
     0
 64
     7
176
     0
 65
   257
176
     0
 75
     1
176
     0
175
     1
176
     0
 42
1.0
176
     0
 92
       10
176
     2
 66
     7
176
     0
 43
1.0
176
     0
 76
     1
176
     0
 77
     6
176
     0
 78
     2
176
     0
 67
     7
176
     0
 79
     5
176
     0
170
     0
176
     0
171
     0
176
     0
290
     0
176
     0
 93
        1
176
     0
 44
0.0
176
     0
173
     0
176
     0
1001
ACAD
1000
AcDbSavedByObjectVersion
1070
     0
  0
VISUALSTYLE
  5
37
102
{ACAD_XDICTIONARY
360
263
102
}
102
{ACAD_REACTORS
330
29
102
}
330
29
100
AcDbVisualStyle
  2
Linepattern
 70
    14
177
     2
291
     1
 71
     2
176
     1
 72
     2
176
     1
 73
     0
176
     1
 90
        0
176
     1
 40
0.6
176
     1
 41
30.0
176
     1
 63
     7
421
 16777215
176
     1
 74
     1
176
     1
 91
        4
176
     1
 64
     7
176
     1
 65
   257
176
     1
 75
     7
176
     1
175
     7
176
     1
 42
1.0
176
     1
 92
        8
176
     1
 66
     7
176
     1
 43
1.0
176
     1
 76
     1
176
     1
 77
     6
176
     1
 78
     2
176
     1
 67
     7
176
     1
 79
     5
176
     1
170
     0
176
     1
171
     0
176
     1
290
     0
176
     1
 93
        1
176
     1
 44
0.0
176
     1
173
     0
176
     1
1001
ACAD
1000
AcDbSavedByObjectVersion
1070
     0
  0
VISUALSTYLE
  5
40
102
{ACAD_XDICTIONARY
360
275
102
}
102
{ACAD_REACTORS
330
29
102
}
330
29
100
AcDbVisualStyle
  2
OverhangOff
 70
    21
177
     2
291
     1
 71
     2
176
     0
 72
     2
176
     0
 73
     0
176
     0
 90
        0
176
     0
 40
0.6
176
     0
 41
30.0
176
     0
 63
     7
421
 16777215
176
     0
 74
     1
176
     0
 91
        4
176
     0
 64
     7
176
     0
 65
   257
176
     0
 75
     1
176
     0
175
     1
176
     0
 42
1.0
176
     0
 92
        9
176
     2
 66
     7
176
     0
 43
1.0
176
     0
 76
     1
176
     0
 77
     6
176
     0
 78
     2
176
     0
 67
     7
176
     0
 79
     5
176
     0
170
     0
176
     0
171
     0
176
     0
290
     0
176
     0
 93
        1
176
     0
 44
0.0
176
     0
173
     0
176
     0
1001
ACAD
1000
AcDbSavedByObjectVersion
1070
     0
  0
VISUALSTYLE
  5
33
102
{ACAD_XDICTIONARY
360
25B
102
}
102
{ACAD_REACTORS
330
29
102
}
330
29
100
AcDbVisualStyle
  2
Realistic
 70
     8
177
     2
291
     0
 71
     2
176
     1
 72
     3
176
     1
 73
     0
176
     1
 90
        2
176
     1
 40
0.6
176
     1
 41
30.0
176
     1
 63
     7
421
 16777215
176
     1
 74
     0
176
     1
 91
        0
176
     1
 64
     7
176
     1
 65
   257
176
     1
 75
     1
176
     1
175
     1
176
     1
 42
1.0
176
     1
 92
        8
176
     1
 66
   257
176
     1
 43
1.0
176
     1
 76
     1
176
     1
 77
     6
176
     1
 78
     2
176
     1
 67
     7
176
     1
 79
     3
176
     1
170
     0
176
     1
171
     0
176
     1
290
     0
176
     1
 93
       13
176
     1
 44
0.0
176
     1
173
     0
176
     1
1001
ACAD
1000
AcDbSavedByObjectVersion
1070
     0
  0
VISUALSTYLE
  5
3E
102
{ACAD_XDICTIONARY
360
271
102
}
102
{ACAD_REACTORS
330
29
102
}
330
29
100
AcDbVisualStyle
  2
Shaded
 70
    27
177
     2
291
     0
 71
     2
176
     1
 72
     2
176
     1
 73
     1
176
     1
 90
        2
176
     1
 40
0.6
176
     1
 41
30.0
176
     1
 63
     7
421
 16777215
176
     1
 74
     0
176
     1
 91
        4
176
     1
 64
     7
176
     1
 65
   257
176
     1
 75
     1
176
     1
175
     1
176
     1
 42
1.0
176
     1
 92
        8
176
     1
 66
   257
176
     1
 43
1.0
176
     1
 76
     1
176
     1
 77
     6
176
     1
 78
     2
176
     1
 67
     8
425
  7895160
176
     1
 79
     3
176
     1
170
     0
176
     1
171
     0
176
     1
290
     0
176
     1
 93
        5
176
     1
 44
0.0
176
     1
173
     0
176
     1
1001
ACAD
1000
AcDbSavedByObjectVersion
1070
     0
  0
VISUALSTYLE
  5
3D
102
{ACAD_XDICTIONARY
360
26F
102
}
102
{ACAD_REACTORS
330
29
102
}
330
29
100
AcDbVisualStyle
  2
Shaded with edges
 70
    26
177
     2
291
     0
 71
     2
176
     1
 72
     2
176
     1
 73
     1
176
     1
 90
        2
176
     1
 40
0.6
176
     1
 41
30.0
176
     1
 63
     7
421
 16777215
176
     1
 74
     1
176
     1
 91
        2
176
     1
 64
     7
176
     1
 65
   257
176
     1
 75
     2
176
     1
175
     1
176
     1
 42
1.0
176
     1
 92
        8
176
     1
 66
   257
176
     1
 43
1.0
176
     1
 76
     1
176
     1
 77
     6
176
     1
 78
     2
176
     1
 67
     7
176
     1
 79
     3
176
     1
170
     0
176
     1
171
     0
176
     1
290
     0
176
     1
 93
        5
176
     1
 44
0.0
176
     1
173
     0
176
     1
1001
ACAD
1000
AcDbSavedByObjectVersion
1070
     0
  0
VISUALSTYLE
  5
3A
102
{ACAD_XDICTIONARY
360
269
102
}
102
{ACAD_REACTORS
330
29
102
}
330
29
100
AcDbVisualStyle
  2
Shades of Gray
 70
    23
177
     2
291
     0
 71
     2
176
     1
 72
     2
176
     1
 73
     3
176
     1
 90
        0
176
     1
 40
0.6
176
     1
 41
30.0
176
     1
 63
     7
421
 16777215
176
     1
 74
     2
176
     1
 91
        2
176
     1
 64
     7
176
     1
 65
     7
176
     1
 75
     1
176
     1
175
     1
176
     1
 42
40.0
176
     1
 92
        8
176
     1
 66
     7
176
     1
 43
1.0
176
     1
 76
     1
176
     1
 77
     6
176
     1
 78
     2
176
     1
 67
     7
176
     1
 79
     3
176
     1
170
     0
176
     1
171
     0
176
     1
290
     0
176
     1
 93
        1
176
     1
 44
0.0
176
     1
173
     0
176
     1
1001
ACAD
1000
AcDbSavedByObjectVersion
1070
     0
  0
VISUALSTYLE
  5
3B
102
{ACAD_XDICTIONARY
360
26B
102
}
102
{ACAD_REACTORS
330
29
102
}
330
29
100
AcDbVisualStyle
  2
Sketchy
 70
    24
177
     2
291
     0
 71
     1
176
     1
 72
     2
176
     1
 73
     2
176
     1
 90
        0
176
     1
 40
0.6
176
     1
 41
30.0
176
     1
 63
     7
421
 16777215
176
     1
 74
     2
176
     1
 91
        2
176
     1
 64
     7
176
     1
 65
     7
176
     1
 75
     1
176
     1
175
     1
176
     1
 42
40.0
176
     1
 92
       11
176
     1
 66
     7
176
     1
 43
1.0
176
     1
 76
     1
176
     1
 77
     6
176
     1
 78
     2
176
     1
 67
     7
176
     1
 79
     6
176
     1
170
     0
176
     1
171
     0
176
     1
290
     0
176
     1
 93
        1
176
     1
 44
0.0
176
     1
173
     0
176
     1
1001
ACAD
1000
AcDbSavedByObjectVersion
1070
     0
  0
VISUALSTYLE
  5
36
102
{ACAD_XDICTIONARY
360
261
102
}
102
{ACAD_REACTORS
330
29
102
}
330
29
100
AcDbVisualStyle
  2
Thicken
 70
    13
177
     2
291
     1
 71
     2
176
     1
 72
     2
176
     1
 73
     0
176
     1
 90
        0
176
     1
 40
0.6
176
     1
 41
30.0
176
     1
 63
     7
421
 16777215
176
     1
 74
     1
176
     1
 91
        4
176
     1
 64
     7
176
     1
 65
   257
176
     1
 75
     1
176
     1
175
     1
176
     1
 42
1.0
176
     1
 92
       12
176
     1
 66
     7
176
     1
 43
1.0
176
     1
 76
     1
176
     1
 77
     6
176
     1
 78
     2
176
     1
 67
     7
176
     1
 79
     5
176
     1
170
     0
176
     1
171
     0
176
     1
290
     0
176
     1
 93
        1
176
     1
 44
0.0
176
     1
173
     0
176
     1
1001
ACAD
1000
AcDbSavedByObjectVersion
1070
     0
  0
VISUALSTYLE
  5
30
102
{ACAD_XDICTIONARY
360
255
102
}
102
{ACAD_REACTORS
330
29
102
}
330
29
100
AcDbVisualStyle
  2
Wireframe
 70
     5
177
     2
291
     0
 71
     0
176
     1
 72
     2
176
     1
 73
     0
176
     1
 90
        0
176
     1
 40
0.6
176
     1
 41
30.0
176
     1
 63
     7
421
 16777215
176
     1
 74
     1
176
     1
 91
        4
176
     1
 64
     7
176
     1
 65
   257
176
     1
 75
     1
176
     1
175
     1
176
     1
 42
1.0
176
     1
 92
        0
176
     1
 66
   257
176
     1
 43
1.0
176
     1
 76
     1
176
     1
 77
     6
176
     1
 78
     2
176
     1
 67
     7
176
     1
 79
     3
176
     1
170
     0
176
     1
171
     0
176
     1
290
     0
176
     1
 93
        1
176
     1
 44
0.0
176
     1
173
     0
176
     1
1001
ACAD
1000
AcDbSavedByObjectVersion
1070
     0
  0
VISUALSTYLE
  5
3C
102
{ACAD_XDICTIONARY
360
26D
102
}
102
{ACAD_REACTORS
330
29
102
}
330
29
100
AcDbVisualStyle
  2
X-Ray
 70
    25
177
     2
291
     0
 71
     2
176
     1
 72
     2
176
     1
 73
     1
176
     1
 90
        1
176
     1
 40
0.5
176
     1
 41
30.0
176
     1
 63
     7
421
 16777215
176
     1
 74
     1
176
     1
 91
        0
176
     1
 64
     7
176
     1
 65
   257
176
     1
 75
     1
176
     1
175
     1
176
     1
 42
1.0
176
     1
 92
        8
176
     1
 66
     7
176
     1
 43
1.0
176
     1
 76
     1
176
     1
 77
     6
176
     1
 78
     2
176
     1
 67
     7
176
     1
 79
     3
176
     1
170
     0
176
     1
171
     0
176
     1
290
     0
176
     1
 93
       13
176
     1
 44
0.0
176
     1
173
     0
176
     1
1001
ACAD
1000
AcDbSavedByObjectVersion
1070
     0
  0
DICTIONARYVAR
  5
B7
102
{ACAD_REACTORS
330
B2
102
}
330
B2
100
DictionaryVariables
280
     0
  1
1:1
  0
DICTIONARYVAR
  5
B4
102
{ACAD_REACTORS
330
B2
102
}
330
B2
100
DictionaryVariables
280
     0
  1
STANDARD
  0
DICTIONARYVAR
  5
B3
102
{ACAD_REACTORS
330
B2
102
}
330
B2
100
DictionaryVariables
280
     0
  1
STANDARD
  0
DICTIONARYVAR
  5
B5
102
{ACAD_REACTORS
330
B2
102
}
330
B2
100
DictionaryVariables
280
     0
  1
Imperial24
  0
DICTIONARYVAR
  5
B6
102
{ACAD_REACTORS
330
B2
102
}
330
B2
100
DictionaryVariables
280
     0
  1
Imperial24
  0
XRECORD
  5
AF
102
{ACAD_REACTORS
330
AC
102
}
330
AC
100
AcDbXrecord
280
     1
  1
BUILDING_ID
  1
Tub_Filler-DXV-Oak_Hill-D35155761_Series
  1
FLOOR_ID
  1
1884
  0
XRECORD
  5
AD
102
{ACAD_REACTORS
330
AC
102
}
330
AC
100
AcDbXrecord
280
     1
  1
-2000051
  1
Lines
  1
-2001160
  1
Plumbing Fixtures
  0
XRECORD
  5
AE
102
{ACAD_REACTORS
330
AC
102
}
330
AC
100
AcDbXrecord
280
     1
  1
-2000287
  1
<Beyond>
  0
DICTIONARY
  5
27D
330
6B
100
AcDbDictionary
280
     1
281
     1
  3
ACAD_XREC_ROUNDTRIP
360
27E
  0
DICTIONARY
  5
1A
330
19
100
AcDbDictionary
280
     1
281
     1
  3
BUMPTILE
360
1C
  3
DIFFUSETILE
360
1B
  3
OPACITYTILE
360
1F
  3
REFLECTIONTILE
360
1E
  3
REFRACTIONTILE
360
20
  3
SPECULARTILE
360
1D
  0
DICTIONARY
  5
12
330
11
100
AcDbDictionary
280
     1
281
     1
  3
BUMPTILE
360
14
  3
DIFFUSETILE
360
13
  3
OPACITYTILE
360
17
  3
REFLECTIONTILE
360
16
  3
REFRACTIONTILE
360
18
  3
SPECULARTILE
360
15
  0
DICTIONARY
  5
22
330
21
100
AcDbDictionary
280
     1
281
     1
  3
BUMPTILE
360
24
  3
DIFFUSETILE
360
23
  3
OPACITYTILE
360
27
  3
REFLECTIONTILE
360
26
  3
REFRACTIONTILE
360
28
  3
SPECULARTILE
360
25
  0
DICTIONARY
  5
279
330
67
100
AcDbDictionary
280
     1
281
     1
  3
ACAD_XREC_ROUNDTRIP
360
27A
  0
DICTIONARY
  5
27B
330
69
100
AcDbDictionary
280
     1
281
     1
  3
ACAD_XREC_ROUNDTRIP
360
27C
  0
DICTIONARY
  5
246
330
65
100
AcDbDictionary
280
     1
281
     1
  3
ACAD_ROUNDTRIP_2008_TABLESTYLE_CELLSTYLEMAP
360
247
  0
DICTIONARY
  5
253
330
2F
100
AcDbDictionary
280
     1
281
     1
  3
ACAD_XREC_ROUNDTRIP
360
254
  0
DICTIONARY
  5
251
330
2E
100
AcDbDictionary
280
     1
281
     1
  3
ACAD_XREC_ROUNDTRIP
360
252
  0
DICTIONARY
  5
25F
330
35
100
AcDbDictionary
280
     1
281
     1
  3
ACAD_XREC_ROUNDTRIP
360
260
  0
DICTIONARY
  5
267
330
39
100
AcDbDictionary
280
     1
281
     1
  3
ACAD_XREC_ROUNDTRIP
360
268
  0
DICTIONARY
  5
259
330
32
100
AcDbDictionary
280
     1
281
     1
  3
ACAD_XREC_ROUNDTRIP
360
25A
  0
DICTIONARY
  5
25D
330
34
100
AcDbDictionary
280
     1
281
     1
  3
ACAD_XREC_ROUNDTRIP
360
25E
  0
DICTIONARY
  5
277
330
41
100
AcDbDictionary
280
     1
281
     1
  3
ACAD_XREC_ROUNDTRIP
360
278
  0
DICTIONARY
  5
265
330
38
100
AcDbDictionary
280
     1
281
     1
  3
ACAD_XREC_ROUNDTRIP
360
266
  0
DICTIONARY
  5
249
330
2A
100
AcDbDictionary
280
     1
281
     1
  3
ACAD_XREC_ROUNDTRIP
360
24A
  0
DICTIONARY
  5
24B
330
2B
100
AcDbDictionary
280
     1
281
     1
  3
ACAD_XREC_ROUNDTRIP
360
24C
  0
DICTIONARY
  5
24D
330
2C
100
AcDbDictionary
280
     1
281
     1
  3
ACAD_XREC_ROUNDTRIP
360
24E
  0
DICTIONARY
  5
24F
330
2D
100
AcDbDictionary
280
     1
281
     1
  3
ACAD_XREC_ROUNDTRIP
360
250
  0
DICTIONARY
  5
257
330
31
100
AcDbDictionary
280
     1
281
     1
  3
ACAD_XREC_ROUNDTRIP
360
258
  0
DICTIONARY
  5
273
330
3F
100
AcDbDictionary
280
     1
281
     1
  3
ACAD_XREC_ROUNDTRIP
360
274
  0
DICTIONARY
  5
263
330
37
100
AcDbDictionary
280
     1
281
     1
  3
ACAD_XREC_ROUNDTRIP
360
264
  0
DICTIONARY
  5
275
330
40
100
AcDbDictionary
280
     1
281
     1
  3
ACAD_XREC_ROUNDTRIP
360
276
  0
DICTIONARY
  5
25B
330
33
100
AcDbDictionary
280
     1
281
     1
  3
ACAD_XREC_ROUNDTRIP
360
25C
  0
DICTIONARY
  5
271
330
3E
100
AcDbDictionary
280
     1
281
     1
  3
ACAD_XREC_ROUNDTRIP
360
272
  0
DICTIONARY
  5
26F
330
3D
100
AcDbDictionary
280
     1
281
     1
  3
ACAD_XREC_ROUNDTRIP
360
270
  0
DICTIONARY
  5
269
330
3A
100
AcDbDictionary
280
     1
281
     1
  3
ACAD_XREC_ROUNDTRIP
360
26A
  0
DICTIONARY
  5
26B
330
3B
100
AcDbDictionary
280
     1
281
     1
  3
ACAD_XREC_ROUNDTRIP
360
26C
  0
DICTIONARY
  5
261
330
36
100
AcDbDictionary
280
     1
281
     1
  3
ACAD_XREC_ROUNDTRIP
360
262
  0
DICTIONARY
  5
255
330
30
100
AcDbDictionary
280
     1
281
     1
  3
ACAD_XREC_ROUNDTRIP
360
256
  0
DICTIONARY
  5
26D
330
3C
100
AcDbDictionary
280
     1
281
     1
  3
ACAD_XREC_ROUNDTRIP
360
26E
  0
XRECORD
  5
27E
102
{ACAD_REACTORS
330
27D
102
}
330
27D
100
AcDbXrecord
280
     1
102
DISPLAYNAME
  1
Imperial24
102
FLAGS
 90
        0
  0
XRECORD
  5
1C
102
{ACAD_REACTORS
330
1A
102
}
330
1A
100
AcDbXrecord
280
     1
270
     1
271
     1
  0
XRECORD
  5
1B
102
{ACAD_REACTORS
330
1A
102
}
330
1A
100
AcDbXrecord
280
     1
270
     1
271
     1
  0
XRECORD
  5
1F
102
{ACAD_REACTORS
330
1A
102
}
330
1A
100
AcDbXrecord
280
     1
270
     1
271
     1
  0
XRECORD
  5
1E
102
{ACAD_REACTORS
330
1A
102
}
330
1A
100
AcDbXrecord
280
     1
270
     1
271
     1
  0
XRECORD
  5
20
102
{ACAD_REACTORS
330
1A
102
}
330
1A
100
AcDbXrecord
280
     1
270
     1
271
     1
  0
XRECORD
  5
1D
102
{ACAD_REACTORS
330
1A
102
}
330
1A
100
AcDbXrecord
280
     1
270
     1
271
     1
  0
XRECORD
  5
14
102
{ACAD_REACTORS
330
12
102
}
330
12
100
AcDbXrecord
280
     1
270
     1
271
     1
  0
XRECORD
  5
13
102
{ACAD_REACTORS
330
12
102
}
330
12
100
AcDbXrecord
280
     1
270
     1
271
     1
  0
XRECORD
  5
17
102
{ACAD_REACTORS
330
12
102
}
330
12
100
AcDbXrecord
280
     1
270
     1
271
     1
  0
XRECORD
  5
16
102
{ACAD_REACTORS
330
12
102
}
330
12
100
AcDbXrecord
280
     1
270
     1
271
     1
  0
XRECORD
  5
18
102
{ACAD_REACTORS
330
12
102
}
330
12
100
AcDbXrecord
280
     1
270
     1
271
     1
  0
XRECORD
  5
15
102
{ACAD_REACTORS
330
12
102
}
330
12
100
AcDbXrecord
280
     1
270
     1
271
     1
  0
XRECORD
  5
24
102
{ACAD_REACTORS
330
22
102
}
330
22
100
AcDbXrecord
280
     1
270
     1
271
     1
  0
XRECORD
  5
23
102
{ACAD_REACTORS
330
22
102
}
330
22
100
AcDbXrecord
280
     1
270
     1
271
     1
  0
XRECORD
  5
27
102
{ACAD_REACTORS
330
22
102
}
330
22
100
AcDbXrecord
280
     1
270
     1
271
     1
  0
XRECORD
  5
26
102
{ACAD_REACTORS
330
22
102
}
330
22
100
AcDbXrecord
280
     1
270
     1
271
     1
  0
XRECORD
  5
28
102
{ACAD_REACTORS
330
22
102
}
330
22
100
AcDbXrecord
280
     1
270
     1
271
     1
  0
XRECORD
  5
25
102
{ACAD_REACTORS
330
22
102
}
330
22
100
AcDbXrecord
280
     1
270
     1
271
     1
  0
XRECORD
  5
27A
102
{ACAD_REACTORS
330
279
102
}
330
279
100
AcDbXrecord
280
     1
102
ACAD_ROUNDTRIP_2012_MLEADER_STYLE
298
     1
  0
XRECORD
  5
27C
102
{ACAD_REACTORS
330
27B
102
}
330
27B
100
AcDbXrecord
280
     1
102
DISPLAYNAME
  1
Imperial24
102
FLAGS
 90
        0
  0
CELLSTYLEMAP
  5
247
102
{ACAD_REACTORS
330
246
102
}
330
246
100
AcDbCellStyleMap
 90
        3
300
CELLSTYLE
  1
TABLEFORMAT_BEGIN
 90
        5
170
     1
 91
        0
 92
    32768
 62
   257
 93
        1
300
CONTENTFORMAT
  1
CONTENTFORMAT_BEGIN
 90
        0
 91
        0
 92
      512
 93
        0
300

 40
0.0
140
1.0
 94
        5
 62
     0
340
55
144
0.25
309
CONTENTFORMAT_END
171
     0
 94
        0
309
TABLEFORMAT_END
  1
CELLSTYLE_BEGIN
 90
        1
 91
        1
300
_TITLE
309
CELLSTYLE_END
300
CELLSTYLE
  1
TABLEFORMAT_BEGIN
 90
        5
170
     1
 91
        0
 92
        0
 62
   257
 93
        1
300
CONTENTFORMAT
  1
CONTENTFORMAT_BEGIN
 90
        0
 91
        0
 92
      512
 93
        0
300

 40
0.0
140
1.0
 94
        5
 62
     0
340
55
144
0.18
309
CONTENTFORMAT_END
171
     0
 94
        0
309
TABLEFORMAT_END
  1
CELLSTYLE_BEGIN
 90
        2
 91
        1
300
_HEADER
309
CELLSTYLE_END
300
CELLSTYLE
  1
TABLEFORMAT_BEGIN
 90
        5
170
     1
 91
        0
 92
        0
 62
   257
 93
        1
300
CONTENTFORMAT
  1
CONTENTFORMAT_BEGIN
 90
        0
 91
        0
 92
      512
 93
        0
300

 40
0.0
140
1.0
 94
        2
 62
     0
340
55
144
0.18
309
CONTENTFORMAT_END
171
     0
 94
        0
309
TABLEFORMAT_END
  1
CELLSTYLE_BEGIN
 90
        3
 91
        2
300
_DATA
309
CELLSTYLE_END
  0
XRECORD
  5
254
102
{ACAD_REACTORS
330
253
102
}
330
253
100
AcDbXrecord
280
     1
102
RTVSPost2010Prop28
280
     1
102
RTVSPost2010PropOp28
 70
     1
102
RTVSPost2010Prop29
280
     1
102
RTVSPost2010PropOp29
 70
     1
102
RTVSPost2010Prop30
280
     0
102
RTVSPost2010PropOp30
 70
     1
102
RTVSPost2010Prop31
280
     0
102
RTVSPost2010PropOp31
 70
     1
102
RTVSPost2010Prop32
280
     0
102
RTVSPost2010PropOp32
 70
     1
102
RTVSPost2010Prop33
280
     0
102
RTVSPost2010PropOp33
 70
     1
102
RTVSPost2010Prop34
280
     0
102
RTVSPost2010PropOp34
 70
     1
102
RTVSPost2010Prop35
280
     0
102
RTVSPost2010PropOp35
 70
     1
102
RTVSPost2010Prop36
280
     0
102
RTVSPost2010PropOp36
 70
     1
102
RTVSPost2010Prop37
 90
       50
102
RTVSPost2010PropOp37
 70
     1
102
RTVSPost2010Prop38
140
0.0
102
RTVSPost2010PropOp38
 70
     1
102
RTVSPost2010Prop39
140
1.0
102
RTVSPost2010PropOp39
 70
     1
102
RTVSPost2010Prop40
 90
        0
102
RTVSPost2010PropOp40
 70
     1
102
RTVSPost2010Prop41ColorIndex
 90
       18
102
RTVSPost2010Prop41ColorRGB
 90
        0
102
RTVSPost2010PropOp41
 70
     1
102
RTVSPost2010Prop42
 90
       50
102
RTVSPost2010PropOp42
 70
     1
102
RTVSPost2010Prop43
 90
        3
102
RTVSPost2010PropOp43
 70
     1
102
RTVSPost2010Prop44ColorIndex
 90
        5
102
RTVSPost2010Prop44ColorRGB
 90
      255
102
RTVSPost2010PropOp44
 70
     1
102
RTVSPost2010Prop45
280
     0
102
RTVSPost2010PropOp45
 70
     1
102
RTVSPost2010Prop46
 90
       50
102
RTVSPost2010PropOp46
 70
     1
102
RTVSPost2010Prop47
 90
       50
102
RTVSPost2010PropOp47
 70
     1
102
RTVSPost2010Prop48
 90
       50
102
RTVSPost2010PropOp48
 70
     1
102
RTVSPost2010Prop49
280
     0
102
RTVSPost2010PropOp49
 70
     1
102
RTVSPost2010Prop50
 90
       50
102
RTVSPost2010PropOp50
 70
     1
102
RTVSPost2010Prop51ColorIndex
 90
      256
102
RTVSPost2010Prop51ColorRGB
 90
-16777216
102
RTVSPost2010PropOp51
 70
     0
102
RTVSPost2010Prop52
140
1.0
102
RTVSPost2010PropOp52
 70
     0
102
RTVSPost2010Prop53
 90
        2
102
RTVSPost2010PropOp53
 70
     1
102
RTVSPost2010Prop54
  1
strokes_ogs.tif
102
RTVSPost2010PropOp54
 70
     1
102
RTVSPost2010Prop55
280
     0
102
RTVSPost2010PropOp55
 70
     1
102
RTVSPost2010Prop56
140
1.0
102
RTVSPost2010PropOp56
 70
     1
102
RTVSPost2010Prop57
140
1.0
102
RTVSPost2010PropOp57
 70
     1
  0
XRECORD
  5
252
102
{ACAD_REACTORS
330
251
102
}
330
251
100
AcDbXrecord
280
     1
102
RTVSPost2010Prop28
280
     0
102
RTVSPost2010PropOp28
 70
     1
102
RTVSPost2010Prop29
280
     1
102
RTVSPost2010PropOp29
 70
     1
102
RTVSPost2010Prop30
280
     1
102
RTVSPost2010PropOp30
 70
     1
102
RTVSPost2010Prop31
280
     0
102
RTVSPost2010PropOp31
 70
     1
102
RTVSPost2010Prop32
280
     0
102
RTVSPost2010PropOp32
 70
     1
102
RTVSPost2010Prop33
280
     0
102
RTVSPost2010PropOp33
 70
     1
102
RTVSPost2010Prop34
280
     0
102
RTVSPost2010PropOp34
 70
     1
102
RTVSPost2010Prop35
280
     0
102
RTVSPost2010PropOp35
 70
     1
102
RTVSPost2010Prop36
280
     0
102
RTVSPost2010PropOp36
 70
     1
102
RTVSPost2010Prop37
 90
       50
102
RTVSPost2010PropOp37
 70
     1
102
RTVSPost2010Prop38
140
0.0
102
RTVSPost2010PropOp38
 70
     1
102
RTVSPost2010Prop39
140
1.0
102
RTVSPost2010PropOp39
 70
     1
102
RTVSPost2010Prop40
 90
        0
102
RTVSPost2010PropOp40
 70
     1
102
RTVSPost2010Prop41ColorIndex
 90
       18
102
RTVSPost2010Prop41ColorRGB
 90
        0
102
RTVSPost2010PropOp41
 70
     1
102
RTVSPost2010Prop42
 90
       50
102
RTVSPost2010PropOp42
 70
     1
102
RTVSPost2010Prop43
 90
        3
102
RTVSPost2010PropOp43
 70
     1
102
RTVSPost2010Prop44ColorIndex
 90
        5
102
RTVSPost2010Prop44ColorRGB
 90
      255
102
RTVSPost2010PropOp44
 70
     1
102
RTVSPost2010Prop45
280
     0
102
RTVSPost2010PropOp45
 70
     1
102
RTVSPost2010Prop46
 90
       50
102
RTVSPost2010PropOp46
 70
     1
102
RTVSPost2010Prop47
 90
       50
102
RTVSPost2010PropOp47
 70
     1
102
RTVSPost2010Prop48
 90
       50
102
RTVSPost2010PropOp48
 70
     1
102
RTVSPost2010Prop49
280
     0
102
RTVSPost2010PropOp49
 70
     1
102
RTVSPost2010Prop50
 90
       50
102
RTVSPost2010PropOp50
 70
     1
102
RTVSPost2010Prop51ColorIndex
 90
      256
102
RTVSPost2010Prop51ColorRGB
 90
-16777216
102
RTVSPost2010PropOp51
 70
     0
102
RTVSPost2010Prop52
140
1.0
102
RTVSPost2010PropOp52
 70
     0
102
RTVSPost2010Prop53
 90
        2
102
RTVSPost2010PropOp53
 70
     1
102
RTVSPost2010Prop54
  1
strokes_ogs.tif
102
RTVSPost2010PropOp54
 70
     1
102
RTVSPost2010Prop55
280
     0
102
RTVSPost2010PropOp55
 70
     1
102
RTVSPost2010Prop56
140
1.0
102
RTVSPost2010PropOp56
 70
     1
102
RTVSPost2010Prop57
140
1.0
102
RTVSPost2010PropOp57
 70
     1
  0
XRECORD
  5
260
102
{ACAD_REACTORS
330
25F
102
}
330
25F
100
AcDbXrecord
280
     1
102
RTVSPost2010Prop28
280
     0
102
RTVSPost2010PropOp28
 70
     1
102
RTVSPost2010Prop29
280
     1
102
RTVSPost2010PropOp29
 70
     1
102
RTVSPost2010Prop30
280
     1
102
RTVSPost2010PropOp30
 70
     1
102
RTVSPost2010Prop31
280
     0
102
RTVSPost2010PropOp31
 70
     1
102
RTVSPost2010Prop32
280
     0
102
RTVSPost2010PropOp32
 70
     1
102
RTVSPost2010Prop33
280
     0
102
RTVSPost2010PropOp33
 70
     1
102
RTVSPost2010Prop34
280
     0
102
RTVSPost2010PropOp34
 70
     1
102
RTVSPost2010Prop35
280
     0
102
RTVSPost2010PropOp35
 70
     1
102
RTVSPost2010Prop36
280
     0
102
RTVSPost2010PropOp36
 70
     1
102
RTVSPost2010Prop37
 90
       50
102
RTVSPost2010PropOp37
 70
     1
102
RTVSPost2010Prop38
140
0.0
102
RTVSPost2010PropOp38
 70
     1
102
RTVSPost2010Prop39
140
1.0
102
RTVSPost2010PropOp39
 70
     1
102
RTVSPost2010Prop40
 90
        0
102
RTVSPost2010PropOp40
 70
     1
102
RTVSPost2010Prop41ColorIndex
 90
       18
102
RTVSPost2010Prop41ColorRGB
 90
        0
102
RTVSPost2010PropOp41
 70
     1
102
RTVSPost2010Prop42
 90
       50
102
RTVSPost2010PropOp42
 70
     1
102
RTVSPost2010Prop43
 90
        3
102
RTVSPost2010PropOp43
 70
     1
102
RTVSPost2010Prop44ColorIndex
 90
        5
102
RTVSPost2010Prop44ColorRGB
 90
      255
102
RTVSPost2010PropOp44
 70
     1
102
RTVSPost2010Prop45
280
     0
102
RTVSPost2010PropOp45
 70
     1
102
RTVSPost2010Prop46
 90
       50
102
RTVSPost2010PropOp46
 70
     1
102
RTVSPost2010Prop47
 90
       50
102
RTVSPost2010PropOp47
 70
     1
102
RTVSPost2010Prop48
 90
       50
102
RTVSPost2010PropOp48
 70
     1
102
RTVSPost2010Prop49
280
     0
102
RTVSPost2010PropOp49
 70
     1
102
RTVSPost2010Prop50
 90
       50
102
RTVSPost2010PropOp50
 70
     1
102
RTVSPost2010Prop51ColorIndex
 90
      256
102
RTVSPost2010Prop51ColorRGB
 90
-16777216
102
RTVSPost2010PropOp51
 70
     0
102
RTVSPost2010Prop52
140
1.0
102
RTVSPost2010PropOp52
 70
     0
102
RTVSPost2010Prop53
 90
        2
102
RTVSPost2010PropOp53
 70
     1
102
RTVSPost2010Prop54
  1
strokes_ogs.tif
102
RTVSPost2010PropOp54
 70
     1
102
RTVSPost2010Prop55
280
     0
102
RTVSPost2010PropOp55
 70
     1
102
RTVSPost2010Prop56
140
1.0
102
RTVSPost2010PropOp56
 70
     1
102
RTVSPost2010Prop57
140
1.0
102
RTVSPost2010PropOp57
 70
     1
  0
XRECORD
  5
268
102
{ACAD_REACTORS
330
267
102
}
330
267
100
AcDbXrecord
280
     1
102
RTVSPost2010Prop28
280
     0
102
RTVSPost2010PropOp28
 70
     1
102
RTVSPost2010Prop29
280
     1
102
RTVSPost2010PropOp29
 70
     1
102
RTVSPost2010Prop30
280
     1
102
RTVSPost2010PropOp30
 70
     1
102
RTVSPost2010Prop31
280
     0
102
RTVSPost2010PropOp31
 70
     1
102
RTVSPost2010Prop32
280
     0
102
RTVSPost2010PropOp32
 70
     1
102
RTVSPost2010Prop33
280
     0
102
RTVSPost2010PropOp33
 70
     1
102
RTVSPost2010Prop34
280
     0
102
RTVSPost2010PropOp34
 70
     1
102
RTVSPost2010Prop35
280
     0
102
RTVSPost2010PropOp35
 70
     1
102
RTVSPost2010Prop36
280
     0
102
RTVSPost2010PropOp36
 70
     1
102
RTVSPost2010Prop37
 90
       50
102
RTVSPost2010PropOp37
 70
     1
102
RTVSPost2010Prop38
140
0.0
102
RTVSPost2010PropOp38
 70
     1
102
RTVSPost2010Prop39
140
1.0
102
RTVSPost2010PropOp39
 70
     1
102
RTVSPost2010Prop40
 90
        0
102
RTVSPost2010PropOp40
 70
     1
102
RTVSPost2010Prop41ColorIndex
 90
       18
102
RTVSPost2010Prop41ColorRGB
 90
        0
102
RTVSPost2010PropOp41
 70
     1
102
RTVSPost2010Prop42
 90
       50
102
RTVSPost2010PropOp42
 70
     1
102
RTVSPost2010Prop43
 90
        3
102
RTVSPost2010PropOp43
 70
     1
102
RTVSPost2010Prop44ColorIndex
 90
        5
102
RTVSPost2010Prop44ColorRGB
 90
      255
102
RTVSPost2010PropOp44
 70
     1
102
RTVSPost2010Prop45
280
     0
102
RTVSPost2010PropOp45
 70
     1
102
RTVSPost2010Prop46
 90
       50
102
RTVSPost2010PropOp46
 70
     1
102
RTVSPost2010Prop47
 90
       50
102
RTVSPost2010PropOp47
 70
     1
102
RTVSPost2010Prop48
 90
       50
102
RTVSPost2010PropOp48
 70
     1
102
RTVSPost2010Prop49
280
     0
102
RTVSPost2010PropOp49
 70
     1
102
RTVSPost2010Prop50
 90
       50
102
RTVSPost2010PropOp50
 70
     1
102
RTVSPost2010Prop51ColorIndex
 90
      256
102
RTVSPost2010Prop51ColorRGB
 90
-16777216
102
RTVSPost2010PropOp51
 70
     0
102
RTVSPost2010Prop52
140
1.0
102
RTVSPost2010PropOp52
 70
     0
102
RTVSPost2010Prop53
 90
        2
102
RTVSPost2010PropOp53
 70
     1
102
RTVSPost2010Prop54
  1
strokes_ogs.tif
102
RTVSPost2010PropOp54
 70
     1
102
RTVSPost2010Prop55
280
     0
102
RTVSPost2010PropOp55
 70
     1
102
RTVSPost2010Prop56
140
1.0
102
RTVSPost2010PropOp56
 70
     1
102
RTVSPost2010Prop57
140
1.0
102
RTVSPost2010PropOp57
 70
     1
  0
XRECORD
  5
25A
102
{ACAD_REACTORS
330
259
102
}
330
259
100
AcDbXrecord
280
     1
102
RTVSPost2010Prop28
280
     0
102
RTVSPost2010PropOp28
 70
     1
102
RTVSPost2010Prop29
280
     1
102
RTVSPost2010PropOp29
 70
     1
102
RTVSPost2010Prop30
280
     1
102
RTVSPost2010PropOp30
 70
     1
102
RTVSPost2010Prop31
280
     0
102
RTVSPost2010PropOp31
 70
     1
102
RTVSPost2010Prop32
280
     0
102
RTVSPost2010PropOp32
 70
     1
102
RTVSPost2010Prop33
280
     0
102
RTVSPost2010PropOp33
 70
     1
102
RTVSPost2010Prop34
280
     0
102
RTVSPost2010PropOp34
 70
     1
102
RTVSPost2010Prop35
280
     0
102
RTVSPost2010PropOp35
 70
     1
102
RTVSPost2010Prop36
280
     0
102
RTVSPost2010PropOp36
 70
     1
102
RTVSPost2010Prop37
 90
       50
102
RTVSPost2010PropOp37
 70
     1
102
RTVSPost2010Prop38
140
0.0
102
RTVSPost2010PropOp38
 70
     1
102
RTVSPost2010Prop39
140
1.0
102
RTVSPost2010PropOp39
 70
     1
102
RTVSPost2010Prop40
 90
        0
102
RTVSPost2010PropOp40
 70
     1
102
RTVSPost2010Prop41ColorIndex
 90
       18
102
RTVSPost2010Prop41ColorRGB
 90
        0
102
RTVSPost2010PropOp41
 70
     1
102
RTVSPost2010Prop42
 90
       50
102
RTVSPost2010PropOp42
 70
     1
102
RTVSPost2010Prop43
 90
        3
102
RTVSPost2010PropOp43
 70
     1
102
RTVSPost2010Prop44ColorIndex
 90
        5
102
RTVSPost2010Prop44ColorRGB
 90
      255
102
RTVSPost2010PropOp44
 70
     1
102
RTVSPost2010Prop45
280
     0
102
RTVSPost2010PropOp45
 70
     1
102
RTVSPost2010Prop46
 90
       50
102
RTVSPost2010PropOp46
 70
     1
102
RTVSPost2010Prop47
 90
       50
102
RTVSPost2010PropOp47
 70
     1
102
RTVSPost2010Prop48
 90
       50
102
RTVSPost2010PropOp48
 70
     1
102
RTVSPost2010Prop49
280
     0
102
RTVSPost2010PropOp49
 70
     1
102
RTVSPost2010Prop50
 90
       50
102
RTVSPost2010PropOp50
 70
     1
102
RTVSPost2010Prop51ColorIndex
 90
      256
102
RTVSPost2010Prop51ColorRGB
 90
-16777216
102
RTVSPost2010PropOp51
 70
     0
102
RTVSPost2010Prop52
140
1.0
102
RTVSPost2010PropOp52
 70
     0
102
RTVSPost2010Prop53
 90
        2
102
RTVSPost2010PropOp53
 70
     1
102
RTVSPost2010Prop54
  1
strokes_ogs.tif
102
RTVSPost2010PropOp54
 70
     1
102
RTVSPost2010Prop55
280
     0
102
RTVSPost2010PropOp55
 70
     1
102
RTVSPost2010Prop56
140
1.0
102
RTVSPost2010PropOp56
 70
     1
102
RTVSPost2010Prop57
140
1.0
102
RTVSPost2010PropOp57
 70
     1
  0
XRECORD
  5
25E
102
{ACAD_REACTORS
330
25D
102
}
330
25D
100
AcDbXrecord
280
     1
102
RTVSPost2010Prop28
280
     0
102
RTVSPost2010PropOp28
 70
     1
102
RTVSPost2010Prop29
280
     1
102
RTVSPost2010PropOp29
 70
     1
102
RTVSPost2010Prop30
280
     1
102
RTVSPost2010PropOp30
 70
     1
102
RTVSPost2010Prop31
280
     0
102
RTVSPost2010PropOp31
 70
     1
102
RTVSPost2010Prop32
280
     0
102
RTVSPost2010PropOp32
 70
     1
102
RTVSPost2010Prop33
280
     0
102
RTVSPost2010PropOp33
 70
     1
102
RTVSPost2010Prop34
280
     0
102
RTVSPost2010PropOp34
 70
     1
102
RTVSPost2010Prop35
280
     0
102
RTVSPost2010PropOp35
 70
     1
102
RTVSPost2010Prop36
280
     0
102
RTVSPost2010PropOp36
 70
     1
102
RTVSPost2010Prop37
 90
       50
102
RTVSPost2010PropOp37
 70
     1
102
RTVSPost2010Prop38
140
0.0
102
RTVSPost2010PropOp38
 70
     1
102
RTVSPost2010Prop39
140
1.0
102
RTVSPost2010PropOp39
 70
     1
102
RTVSPost2010Prop40
 90
        0
102
RTVSPost2010PropOp40
 70
     1
102
RTVSPost2010Prop41ColorIndex
 90
       18
102
RTVSPost2010Prop41ColorRGB
 90
        0
102
RTVSPost2010PropOp41
 70
     1
102
RTVSPost2010Prop42
 90
       50
102
RTVSPost2010PropOp42
 70
     1
102
RTVSPost2010Prop43
 90
        3
102
RTVSPost2010PropOp43
 70
     1
102
RTVSPost2010Prop44ColorIndex
 90
        5
102
RTVSPost2010Prop44ColorRGB
 90
      255
102
RTVSPost2010PropOp44
 70
     1
102
RTVSPost2010Prop45
280
     0
102
RTVSPost2010PropOp45
 70
     1
102
RTVSPost2010Prop46
 90
       50
102
RTVSPost2010PropOp46
 70
     1
102
RTVSPost2010Prop47
 90
       50
102
RTVSPost2010PropOp47
 70
     1
102
RTVSPost2010Prop48
 90
       50
102
RTVSPost2010PropOp48
 70
     1
102
RTVSPost2010Prop49
280
     0
102
RTVSPost2010PropOp49
 70
     1
102
RTVSPost2010Prop50
 90
       50
102
RTVSPost2010PropOp50
 70
     1
102
RTVSPost2010Prop51ColorIndex
 90
      256
102
RTVSPost2010Prop51ColorRGB
 90
-16777216
102
RTVSPost2010PropOp51
 70
     0
102
RTVSPost2010Prop52
140
1.0
102
RTVSPost2010PropOp52
 70
     0
102
RTVSPost2010Prop53
 90
        2
102
RTVSPost2010PropOp53
 70
     1
102
RTVSPost2010Prop54
  1
strokes_ogs.tif
102
RTVSPost2010PropOp54
 70
     1
102
RTVSPost2010Prop55
280
     0
102
RTVSPost2010PropOp55
 70
     1
102
RTVSPost2010Prop56
140
1.0
102
RTVSPost2010PropOp56
 70
     1
102
RTVSPost2010Prop57
140
1.0
102
RTVSPost2010PropOp57
 70
     1
  0
XRECORD
  5
278
102
{ACAD_REACTORS
330
277
102
}
330
277
100
AcDbXrecord
280
     1
102
RTVSPost2010Prop28
280
     0
102
RTVSPost2010PropOp28
 70
     0
102
RTVSPost2010Prop29
280
     1
102
RTVSPost2010PropOp29
 70
     0
102
RTVSPost2010Prop30
280
     1
102
RTVSPost2010PropOp30
 70
     0
102
RTVSPost2010Prop31
280
     0
102
RTVSPost2010PropOp31
 70
     0
102
RTVSPost2010Prop32
280
     0
102
RTVSPost2010PropOp32
 70
     0
102
RTVSPost2010Prop33
280
     0
102
RTVSPost2010PropOp33
 70
     0
102
RTVSPost2010Prop34
280
     0
102
RTVSPost2010PropOp34
 70
     0
102
RTVSPost2010Prop35
280
     0
102
RTVSPost2010PropOp35
 70
     0
102
RTVSPost2010Prop36
280
     0
102
RTVSPost2010PropOp36
 70
     0
102
RTVSPost2010Prop37
 90
       50
102
RTVSPost2010PropOp37
 70
     0
102
RTVSPost2010Prop38
140
0.0
102
RTVSPost2010PropOp38
 70
     0
102
RTVSPost2010Prop39
140
1.0
102
RTVSPost2010PropOp39
 70
     0
102
RTVSPost2010Prop40
 90
        0
102
RTVSPost2010PropOp40
 70
     0
102
RTVSPost2010Prop41ColorIndex
 90
       18
102
RTVSPost2010Prop41ColorRGB
 90
        0
102
RTVSPost2010PropOp41
 70
     0
102
RTVSPost2010Prop42
 90
       50
102
RTVSPost2010PropOp42
 70
     0
102
RTVSPost2010Prop43
 90
        3
102
RTVSPost2010PropOp43
 70
     0
102
RTVSPost2010Prop44ColorIndex
 90
        5
102
RTVSPost2010Prop44ColorRGB
 90
      255
102
RTVSPost2010PropOp44
 70
     0
102
RTVSPost2010Prop45
280
     0
102
RTVSPost2010PropOp45
 70
     0
102
RTVSPost2010Prop46
 90
       50
102
RTVSPost2010PropOp46
 70
     0
102
RTVSPost2010Prop47
 90
       50
102
RTVSPost2010PropOp47
 70
     0
102
RTVSPost2010Prop48
 90
       50
102
RTVSPost2010PropOp48
 70
     0
102
RTVSPost2010Prop49
280
     0
102
RTVSPost2010PropOp49
 70
     0
102
RTVSPost2010Prop50
 90
       50
102
RTVSPost2010PropOp50
 70
     0
102
RTVSPost2010Prop51ColorIndex
 90
      256
102
RTVSPost2010Prop51ColorRGB
 90
-16777216
102
RTVSPost2010PropOp51
 70
     0
102
RTVSPost2010Prop52
140
1.0
102
RTVSPost2010PropOp52
 70
     0
102
RTVSPost2010Prop53
 90
        2
102
RTVSPost2010PropOp53
 70
     0
102
RTVSPost2010Prop54
  1
strokes_ogs.tif
102
RTVSPost2010PropOp54
 70
     0
102
RTVSPost2010Prop55
280
     0
102
RTVSPost2010PropOp55
 70
     0
102
RTVSPost2010Prop56
140
1.0
102
RTVSPost2010PropOp56
 70
     0
102
RTVSPost2010Prop57
140
1.0
102
RTVSPost2010PropOp57
 70
     0
  0
XRECORD
  5
266
102
{ACAD_REACTORS
330
265
102
}
330
265
100
AcDbXrecord
280
     1
102
RTVSPost2010Prop28
280
     0
102
RTVSPost2010PropOp28
 70
     1
102
RTVSPost2010Prop29
280
     1
102
RTVSPost2010PropOp29
 70
     1
102
RTVSPost2010Prop30
280
     1
102
RTVSPost2010PropOp30
 70
     1
102
RTVSPost2010Prop31
280
     0
102
RTVSPost2010PropOp31
 70
     1
102
RTVSPost2010Prop32
280
     0
102
RTVSPost2010PropOp32
 70
     1
102
RTVSPost2010Prop33
280
     0
102
RTVSPost2010PropOp33
 70
     1
102
RTVSPost2010Prop34
280
     0
102
RTVSPost2010PropOp34
 70
     1
102
RTVSPost2010Prop35
280
     0
102
RTVSPost2010PropOp35
 70
     1
102
RTVSPost2010Prop36
280
     0
102
RTVSPost2010PropOp36
 70
     1
102
RTVSPost2010Prop37
 90
       50
102
RTVSPost2010PropOp37
 70
     1
102
RTVSPost2010Prop38
140
0.0
102
RTVSPost2010PropOp38
 70
     1
102
RTVSPost2010Prop39
140
1.0
102
RTVSPost2010PropOp39
 70
     1
102
RTVSPost2010Prop40
 90
        0
102
RTVSPost2010PropOp40
 70
     1
102
RTVSPost2010Prop41ColorIndex
 90
       18
102
RTVSPost2010Prop41ColorRGB
 90
        0
102
RTVSPost2010PropOp41
 70
     1
102
RTVSPost2010Prop42
 90
       50
102
RTVSPost2010PropOp42
 70
     1
102
RTVSPost2010Prop43
 90
        3
102
RTVSPost2010PropOp43
 70
     1
102
RTVSPost2010Prop44ColorIndex
 90
        5
102
RTVSPost2010Prop44ColorRGB
 90
      255
102
RTVSPost2010PropOp44
 70
     1
102
RTVSPost2010Prop45
280
     0
102
RTVSPost2010PropOp45
 70
     1
102
RTVSPost2010Prop46
 90
       50
102
RTVSPost2010PropOp46
 70
     1
102
RTVSPost2010Prop47
 90
       50
102
RTVSPost2010PropOp47
 70
     1
102
RTVSPost2010Prop48
 90
       50
102
RTVSPost2010PropOp48
 70
     1
102
RTVSPost2010Prop49
280
     0
102
RTVSPost2010PropOp49
 70
     1
102
RTVSPost2010Prop50
 90
       50
102
RTVSPost2010PropOp50
 70
     1
102
RTVSPost2010Prop51ColorIndex
 90
      256
102
RTVSPost2010Prop51ColorRGB
 90
-16777216
102
RTVSPost2010PropOp51
 70
     0
102
RTVSPost2010Prop52
140
1.0
102
RTVSPost2010PropOp52
 70
     0
102
RTVSPost2010Prop53
 90
        2
102
RTVSPost2010PropOp53
 70
     1
102
RTVSPost2010Prop54
  1
strokes_ogs.tif
102
RTVSPost2010PropOp54
 70
     1
102
RTVSPost2010Prop55
280
     0
102
RTVSPost2010PropOp55
 70
     1
102
RTVSPost2010Prop56
140
1.0
102
RTVSPost2010PropOp56
 70
     1
102
RTVSPost2010Prop57
140
1.0
102
RTVSPost2010PropOp57
 70
     1
  0
XRECORD
  5
24A
102
{ACAD_REACTORS
330
249
102
}
330
249
100
AcDbXrecord
280
     1
102
RTVSPost2010Prop28
280
     0
102
RTVSPost2010PropOp28
 70
     1
102
RTVSPost2010Prop29
280
     1
102
RTVSPost2010PropOp29
 70
     1
102
RTVSPost2010Prop30
280
     1
102
RTVSPost2010PropOp30
 70
     1
102
RTVSPost2010Prop31
280
     0
102
RTVSPost2010PropOp31
 70
     1
102
RTVSPost2010Prop32
280
     0
102
RTVSPost2010PropOp32
 70
     1
102
RTVSPost2010Prop33
280
     0
102
RTVSPost2010PropOp33
 70
     1
102
RTVSPost2010Prop34
280
     0
102
RTVSPost2010PropOp34
 70
     1
102
RTVSPost2010Prop35
280
     0
102
RTVSPost2010PropOp35
 70
     1
102
RTVSPost2010Prop36
280
     0
102
RTVSPost2010PropOp36
 70
     1
102
RTVSPost2010Prop37
 90
       50
102
RTVSPost2010PropOp37
 70
     1
102
RTVSPost2010Prop38
140
0.0
102
RTVSPost2010PropOp38
 70
     1
102
RTVSPost2010Prop39
140
1.0
102
RTVSPost2010PropOp39
 70
     1
102
RTVSPost2010Prop40
 90
        0
102
RTVSPost2010PropOp40
 70
     1
102
RTVSPost2010Prop41ColorIndex
 90
       18
102
RTVSPost2010Prop41ColorRGB
 90
        0
102
RTVSPost2010PropOp41
 70
     1
102
RTVSPost2010Prop42
 90
       50
102
RTVSPost2010PropOp42
 70
     1
102
RTVSPost2010Prop43
 90
        3
102
RTVSPost2010PropOp43
 70
     1
102
RTVSPost2010Prop44ColorIndex
 90
        5
102
RTVSPost2010Prop44ColorRGB
 90
      255
102
RTVSPost2010PropOp44
 70
     1
102
RTVSPost2010Prop45
280
     0
102
RTVSPost2010PropOp45
 70
     1
102
RTVSPost2010Prop46
 90
       50
102
RTVSPost2010PropOp46
 70
     1
102
RTVSPost2010Prop47
 90
       50
102
RTVSPost2010PropOp47
 70
     1
102
RTVSPost2010Prop48
 90
       50
102
RTVSPost2010PropOp48
 70
     1
102
RTVSPost2010Prop49
280
     0
102
RTVSPost2010PropOp49
 70
     1
102
RTVSPost2010Prop50
 90
       50
102
RTVSPost2010PropOp50
 70
     1
102
RTVSPost2010Prop51ColorIndex
 90
      256
102
RTVSPost2010Prop51ColorRGB
 90
-16777216
102
RTVSPost2010PropOp51
 70
     0
102
RTVSPost2010Prop52
140
1.0
102
RTVSPost2010PropOp52
 70
     0
102
RTVSPost2010Prop53
 90
        2
102
RTVSPost2010PropOp53
 70
     1
102
RTVSPost2010Prop54
  1
strokes_ogs.tif
102
RTVSPost2010PropOp54
 70
     1
102
RTVSPost2010Prop55
280
     0
102
RTVSPost2010PropOp55
 70
     1
102
RTVSPost2010Prop56
140
1.0
102
RTVSPost2010PropOp56
 70
     1
102
RTVSPost2010Prop57
140
1.0
102
RTVSPost2010PropOp57
 70
     1
  0
XRECORD
  5
24C
102
{ACAD_REACTORS
330
24B
102
}
330
24B
100
AcDbXrecord
280
     1
102
RTVSPost2010Prop28
280
     0
102
RTVSPost2010PropOp28
 70
     1
102
RTVSPost2010Prop29
280
     1
102
RTVSPost2010PropOp29
 70
     1
102
RTVSPost2010Prop30
280
     1
102
RTVSPost2010PropOp30
 70
     1
102
RTVSPost2010Prop31
280
     0
102
RTVSPost2010PropOp31
 70
     1
102
RTVSPost2010Prop32
280
     0
102
RTVSPost2010PropOp32
 70
     1
102
RTVSPost2010Prop33
280
     0
102
RTVSPost2010PropOp33
 70
     1
102
RTVSPost2010Prop34
280
     0
102
RTVSPost2010PropOp34
 70
     1
102
RTVSPost2010Prop35
280
     0
102
RTVSPost2010PropOp35
 70
     1
102
RTVSPost2010Prop36
280
     0
102
RTVSPost2010PropOp36
 70
     1
102
RTVSPost2010Prop37
 90
       50
102
RTVSPost2010PropOp37
 70
     1
102
RTVSPost2010Prop38
140
0.0
102
RTVSPost2010PropOp38
 70
     1
102
RTVSPost2010Prop39
140
1.0
102
RTVSPost2010PropOp39
 70
     1
102
RTVSPost2010Prop40
 90
        0
102
RTVSPost2010PropOp40
 70
     1
102
RTVSPost2010Prop41ColorIndex
 90
       18
102
RTVSPost2010Prop41ColorRGB
 90
        0
102
RTVSPost2010PropOp41
 70
     1
102
RTVSPost2010Prop42
 90
       50
102
RTVSPost2010PropOp42
 70
     1
102
RTVSPost2010Prop43
 90
        3
102
RTVSPost2010PropOp43
 70
     1
102
RTVSPost2010Prop44ColorIndex
 90
        5
102
RTVSPost2010Prop44ColorRGB
 90
      255
102
RTVSPost2010PropOp44
 70
     1
102
RTVSPost2010Prop45
280
     0
102
RTVSPost2010PropOp45
 70
     1
102
RTVSPost2010Prop46
 90
       50
102
RTVSPost2010PropOp46
 70
     1
102
RTVSPost2010Prop47
 90
       50
102
RTVSPost2010PropOp47
 70
     1
102
RTVSPost2010Prop48
 90
       50
102
RTVSPost2010PropOp48
 70
     1
102
RTVSPost2010Prop49
280
     0
102
RTVSPost2010PropOp49
 70
     1
102
RTVSPost2010Prop50
 90
       50
102
RTVSPost2010PropOp50
 70
     1
102
RTVSPost2010Prop51ColorIndex
 90
      256
102
RTVSPost2010Prop51ColorRGB
 90
-16777216
102
RTVSPost2010PropOp51
 70
     0
102
RTVSPost2010Prop52
140
1.0
102
RTVSPost2010PropOp52
 70
     0
102
RTVSPost2010Prop53
 90
        2
102
RTVSPost2010PropOp53
 70
     1
102
RTVSPost2010Prop54
  1
strokes_ogs.tif
102
RTVSPost2010PropOp54
 70
     1
102
RTVSPost2010Prop55
280
     0
102
RTVSPost2010PropOp55
 70
     1
102
RTVSPost2010Prop56
140
1.0
102
RTVSPost2010PropOp56
 70
     1
102
RTVSPost2010Prop57
140
1.0
102
RTVSPost2010PropOp57
 70
     1
  0
XRECORD
  5
24E
102
{ACAD_REACTORS
330
24D
102
}
330
24D
100
AcDbXrecord
280
     1
102
RTVSPost2010Prop28
280
     0
102
RTVSPost2010PropOp28
 70
     1
102
RTVSPost2010Prop29
280
     1
102
RTVSPost2010PropOp29
 70
     1
102
RTVSPost2010Prop30
280
     1
102
RTVSPost2010PropOp30
 70
     1
102
RTVSPost2010Prop31
280
     0
102
RTVSPost2010PropOp31
 70
     1
102
RTVSPost2010Prop32
280
     0
102
RTVSPost2010PropOp32
 70
     1
102
RTVSPost2010Prop33
280
     0
102
RTVSPost2010PropOp33
 70
     1
102
RTVSPost2010Prop34
280
     0
102
RTVSPost2010PropOp34
 70
     1
102
RTVSPost2010Prop35
280
     0
102
RTVSPost2010PropOp35
 70
     1
102
RTVSPost2010Prop36
280
     0
102
RTVSPost2010PropOp36
 70
     1
102
RTVSPost2010Prop37
 90
       50
102
RTVSPost2010PropOp37
 70
     1
102
RTVSPost2010Prop38
140
0.0
102
RTVSPost2010PropOp38
 70
     1
102
RTVSPost2010Prop39
140
1.0
102
RTVSPost2010PropOp39
 70
     1
102
RTVSPost2010Prop40
 90
        0
102
RTVSPost2010PropOp40
 70
     1
102
RTVSPost2010Prop41ColorIndex
 90
       18
102
RTVSPost2010Prop41ColorRGB
 90
        0
102
RTVSPost2010PropOp41
 70
     1
102
RTVSPost2010Prop42
 90
       50
102
RTVSPost2010PropOp42
 70
     1
102
RTVSPost2010Prop43
 90
        3
102
RTVSPost2010PropOp43
 70
     1
102
RTVSPost2010Prop44ColorIndex
 90
        5
102
RTVSPost2010Prop44ColorRGB
 90
      255
102
RTVSPost2010PropOp44
 70
     1
102
RTVSPost2010Prop45
280
     0
102
RTVSPost2010PropOp45
 70
     1
102
RTVSPost2010Prop46
 90
       50
102
RTVSPost2010PropOp46
 70
     1
102
RTVSPost2010Prop47
 90
       50
102
RTVSPost2010PropOp47
 70
     1
102
RTVSPost2010Prop48
 90
       50
102
RTVSPost2010PropOp48
 70
     1
102
RTVSPost2010Prop49
280
     0
102
RTVSPost2010PropOp49
 70
     1
102
RTVSPost2010Prop50
 90
       50
102
RTVSPost2010PropOp50
 70
     1
102
RTVSPost2010Prop51ColorIndex
 90
      256
102
RTVSPost2010Prop51ColorRGB
 90
-16777216
102
RTVSPost2010PropOp51
 70
     0
102
RTVSPost2010Prop52
140
1.0
102
RTVSPost2010PropOp52
 70
     0
102
RTVSPost2010Prop53
 90
        2
102
RTVSPost2010PropOp53
 70
     1
102
RTVSPost2010Prop54
  1
strokes_ogs.tif
102
RTVSPost2010PropOp54
 70
     1
102
RTVSPost2010Prop55
280
     0
102
RTVSPost2010PropOp55
 70
     1
102
RTVSPost2010Prop56
140
1.0
102
RTVSPost2010PropOp56
 70
     1
102
RTVSPost2010Prop57
140
1.0
102
RTVSPost2010PropOp57
 70
     1
  0
XRECORD
  5
250
102
{ACAD_REACTORS
330
24F
102
}
330
24F
100
AcDbXrecord
280
     1
102
RTVSPost2010Prop28
280
     0
102
RTVSPost2010PropOp28
 70
     1
102
RTVSPost2010Prop29
280
     1
102
RTVSPost2010PropOp29
 70
     1
102
RTVSPost2010Prop30
280
     1
102
RTVSPost2010PropOp30
 70
     1
102
RTVSPost2010Prop31
280
     0
102
RTVSPost2010PropOp31
 70
     1
102
RTVSPost2010Prop32
280
     0
102
RTVSPost2010PropOp32
 70
     1
102
RTVSPost2010Prop33
280
     0
102
RTVSPost2010PropOp33
 70
     1
102
RTVSPost2010Prop34
280
     0
102
RTVSPost2010PropOp34
 70
     1
102
RTVSPost2010Prop35
280
     0
102
RTVSPost2010PropOp35
 70
     1
102
RTVSPost2010Prop36
280
     0
102
RTVSPost2010PropOp36
 70
     1
102
RTVSPost2010Prop37
 90
       50
102
RTVSPost2010PropOp37
 70
     1
102
RTVSPost2010Prop38
140
0.0
102
RTVSPost2010PropOp38
 70
     1
102
RTVSPost2010Prop39
140
1.0
102
RTVSPost2010PropOp39
 70
     1
102
RTVSPost2010Prop40
 90
        0
102
RTVSPost2010PropOp40
 70
     1
102
RTVSPost2010Prop41ColorIndex
 90
       18
102
RTVSPost2010Prop41ColorRGB
 90
        0
102
RTVSPost2010PropOp41
 70
     1
102
RTVSPost2010Prop42
 90
       50
102
RTVSPost2010PropOp42
 70
     1
102
RTVSPost2010Prop43
 90
        3
102
RTVSPost2010PropOp43
 70
     1
102
RTVSPost2010Prop44ColorIndex
 90
        5
102
RTVSPost2010Prop44ColorRGB
 90
      255
102
RTVSPost2010PropOp44
 70
     1
102
RTVSPost2010Prop45
280
     0
102
RTVSPost2010PropOp45
 70
     1
102
RTVSPost2010Prop46
 90
       50
102
RTVSPost2010PropOp46
 70
     1
102
RTVSPost2010Prop47
 90
       50
102
RTVSPost2010PropOp47
 70
     1
102
RTVSPost2010Prop48
 90
       50
102
RTVSPost2010PropOp48
 70
     1
102
RTVSPost2010Prop49
280
     0
102
RTVSPost2010PropOp49
 70
     1
102
RTVSPost2010Prop50
 90
       50
102
RTVSPost2010PropOp50
 70
     1
102
RTVSPost2010Prop51ColorIndex
 90
      256
102
RTVSPost2010Prop51ColorRGB
 90
-16777216
102
RTVSPost2010PropOp51
 70
     0
102
RTVSPost2010Prop52
140
1.0
102
RTVSPost2010PropOp52
 70
     0
102
RTVSPost2010Prop53
 90
        2
102
RTVSPost2010PropOp53
 70
     1
102
RTVSPost2010Prop54
  1
strokes_ogs.tif
102
RTVSPost2010PropOp54
 70
     1
102
RTVSPost2010Prop55
280
     0
102
RTVSPost2010PropOp55
 70
     1
102
RTVSPost2010Prop56
140
1.0
102
RTVSPost2010PropOp56
 70
     1
102
RTVSPost2010Prop57
140
1.0
102
RTVSPost2010PropOp57
 70
     1
  0
XRECORD
  5
258
102
{ACAD_REACTORS
330
257
102
}
330
257
100
AcDbXrecord
280
     1
102
RTVSPost2010Prop28
280
     0
102
RTVSPost2010PropOp28
 70
     1
102
RTVSPost2010Prop29
280
     1
102
RTVSPost2010PropOp29
 70
     1
102
RTVSPost2010Prop30
280
     1
102
RTVSPost2010PropOp30
 70
     1
102
RTVSPost2010Prop31
280
     0
102
RTVSPost2010PropOp31
 70
     1
102
RTVSPost2010Prop32
280
     0
102
RTVSPost2010PropOp32
 70
     1
102
RTVSPost2010Prop33
280
     0
102
RTVSPost2010PropOp33
 70
     1
102
RTVSPost2010Prop34
280
     0
102
RTVSPost2010PropOp34
 70
     1
102
RTVSPost2010Prop35
280
     0
102
RTVSPost2010PropOp35
 70
     1
102
RTVSPost2010Prop36
280
     0
102
RTVSPost2010PropOp36
 70
     1
102
RTVSPost2010Prop37
 90
       50
102
RTVSPost2010PropOp37
 70
     1
102
RTVSPost2010Prop38
140
0.0
102
RTVSPost2010PropOp38
 70
     1
102
RTVSPost2010Prop39
140
1.0
102
RTVSPost2010PropOp39
 70
     1
102
RTVSPost2010Prop40
 90
        0
102
RTVSPost2010PropOp40
 70
     1
102
RTVSPost2010Prop41ColorIndex
 90
       18
102
RTVSPost2010Prop41ColorRGB
 90
        0
102
RTVSPost2010PropOp41
 70
     1
102
RTVSPost2010Prop42
 90
       50
102
RTVSPost2010PropOp42
 70
     1
102
RTVSPost2010Prop43
 90
        3
102
RTVSPost2010PropOp43
 70
     1
102
RTVSPost2010Prop44ColorIndex
 90
        5
102
RTVSPost2010Prop44ColorRGB
 90
      255
102
RTVSPost2010PropOp44
 70
     1
102
RTVSPost2010Prop45
280
     0
102
RTVSPost2010PropOp45
 70
     1
102
RTVSPost2010Prop46
 90
       50
102
RTVSPost2010PropOp46
 70
     1
102
RTVSPost2010Prop47
 90
       50
102
RTVSPost2010PropOp47
 70
     1
102
RTVSPost2010Prop48
 90
       50
102
RTVSPost2010PropOp48
 70
     1
102
RTVSPost2010Prop49
280
     0
102
RTVSPost2010PropOp49
 70
     1
102
RTVSPost2010Prop50
 90
       50
102
RTVSPost2010PropOp50
 70
     1
102
RTVSPost2010Prop51ColorIndex
 90
      256
102
RTVSPost2010Prop51ColorRGB
 90
-16777216
102
RTVSPost2010PropOp51
 70
     0
102
RTVSPost2010Prop52
140
1.0
102
RTVSPost2010PropOp52
 70
     0
102
RTVSPost2010Prop53
 90
        2
102
RTVSPost2010PropOp53
 70
     1
102
RTVSPost2010Prop54
  1
strokes_ogs.tif
102
RTVSPost2010PropOp54
 70
     1
102
RTVSPost2010Prop55
280
     0
102
RTVSPost2010PropOp55
 70
     1
102
RTVSPost2010Prop56
140
1.0
102
RTVSPost2010PropOp56
 70
     1
102
RTVSPost2010Prop57
140
1.0
102
RTVSPost2010PropOp57
 70
     1
  0
XRECORD
  5
274
102
{ACAD_REACTORS
330
273
102
}
330
273
100
AcDbXrecord
280
     1
102
RTVSPost2010Prop28
280
     0
102
RTVSPost2010PropOp28
 70
     0
102
RTVSPost2010Prop29
280
     1
102
RTVSPost2010PropOp29
 70
     0
102
RTVSPost2010Prop30
280
     1
102
RTVSPost2010PropOp30
 70
     0
102
RTVSPost2010Prop31
280
     0
102
RTVSPost2010PropOp31
 70
     0
102
RTVSPost2010Prop32
280
     0
102
RTVSPost2010PropOp32
 70
     0
102
RTVSPost2010Prop33
280
     0
102
RTVSPost2010PropOp33
 70
     0
102
RTVSPost2010Prop34
280
     0
102
RTVSPost2010PropOp34
 70
     0
102
RTVSPost2010Prop35
280
     0
102
RTVSPost2010PropOp35
 70
     0
102
RTVSPost2010Prop36
280
     0
102
RTVSPost2010PropOp36
 70
     0
102
RTVSPost2010Prop37
 90
       50
102
RTVSPost2010PropOp37
 70
     0
102
RTVSPost2010Prop38
140
0.0
102
RTVSPost2010PropOp38
 70
     0
102
RTVSPost2010Prop39
140
1.0
102
RTVSPost2010PropOp39
 70
     0
102
RTVSPost2010Prop40
 90
        0
102
RTVSPost2010PropOp40
 70
     0
102
RTVSPost2010Prop41ColorIndex
 90
       18
102
RTVSPost2010Prop41ColorRGB
 90
        0
102
RTVSPost2010PropOp41
 70
     0
102
RTVSPost2010Prop42
 90
       50
102
RTVSPost2010PropOp42
 70
     0
102
RTVSPost2010Prop43
 90
        3
102
RTVSPost2010PropOp43
 70
     0
102
RTVSPost2010Prop44ColorIndex
 90
        5
102
RTVSPost2010Prop44ColorRGB
 90
      255
102
RTVSPost2010PropOp44
 70
     0
102
RTVSPost2010Prop45
280
     0
102
RTVSPost2010PropOp45
 70
     0
102
RTVSPost2010Prop46
 90
       50
102
RTVSPost2010PropOp46
 70
     0
102
RTVSPost2010Prop47
 90
       50
102
RTVSPost2010PropOp47
 70
     0
102
RTVSPost2010Prop48
 90
       50
102
RTVSPost2010PropOp48
 70
     0
102
RTVSPost2010Prop49
280
     0
102
RTVSPost2010PropOp49
 70
     0
102
RTVSPost2010Prop50
 90
       50
102
RTVSPost2010PropOp50
 70
     0
102
RTVSPost2010Prop51ColorIndex
 90
      256
102
RTVSPost2010Prop51ColorRGB
 90
-16777216
102
RTVSPost2010PropOp51
 70
     0
102
RTVSPost2010Prop52
140
1.0
102
RTVSPost2010PropOp52
 70
     0
102
RTVSPost2010Prop53
 90
        2
102
RTVSPost2010PropOp53
 70
     0
102
RTVSPost2010Prop54
  1
strokes_ogs.tif
102
RTVSPost2010PropOp54
 70
     0
102
RTVSPost2010Prop55
280
     0
102
RTVSPost2010PropOp55
 70
     0
102
RTVSPost2010Prop56
140
1.0
102
RTVSPost2010PropOp56
 70
     0
102
RTVSPost2010Prop57
140
1.0
102
RTVSPost2010PropOp57
 70
     0
  0
XRECORD
  5
264
102
{ACAD_REACTORS
330
263
102
}
330
263
100
AcDbXrecord
280
     1
102
RTVSPost2010Prop28
280
     0
102
RTVSPost2010PropOp28
 70
     1
102
RTVSPost2010Prop29
280
     1
102
RTVSPost2010PropOp29
 70
     1
102
RTVSPost2010Prop30
280
     1
102
RTVSPost2010PropOp30
 70
     1
102
RTVSPost2010Prop31
280
     0
102
RTVSPost2010PropOp31
 70
     1
102
RTVSPost2010Prop32
280
     0
102
RTVSPost2010PropOp32
 70
     1
102
RTVSPost2010Prop33
280
     0
102
RTVSPost2010PropOp33
 70
     1
102
RTVSPost2010Prop34
280
     0
102
RTVSPost2010PropOp34
 70
     1
102
RTVSPost2010Prop35
280
     0
102
RTVSPost2010PropOp35
 70
     1
102
RTVSPost2010Prop36
280
     0
102
RTVSPost2010PropOp36
 70
     1
102
RTVSPost2010Prop37
 90
       50
102
RTVSPost2010PropOp37
 70
     1
102
RTVSPost2010Prop38
140
0.0
102
RTVSPost2010PropOp38
 70
     1
102
RTVSPost2010Prop39
140
1.0
102
RTVSPost2010PropOp39
 70
     1
102
RTVSPost2010Prop40
 90
        0
102
RTVSPost2010PropOp40
 70
     1
102
RTVSPost2010Prop41ColorIndex
 90
       18
102
RTVSPost2010Prop41ColorRGB
 90
        0
102
RTVSPost2010PropOp41
 70
     1
102
RTVSPost2010Prop42
 90
       50
102
RTVSPost2010PropOp42
 70
     1
102
RTVSPost2010Prop43
 90
        3
102
RTVSPost2010PropOp43
 70
     1
102
RTVSPost2010Prop44ColorIndex
 90
        5
102
RTVSPost2010Prop44ColorRGB
 90
      255
102
RTVSPost2010PropOp44
 70
     1
102
RTVSPost2010Prop45
280
     0
102
RTVSPost2010PropOp45
 70
     1
102
RTVSPost2010Prop46
 90
       50
102
RTVSPost2010PropOp46
 70
     1
102
RTVSPost2010Prop47
 90
       50
102
RTVSPost2010PropOp47
 70
     1
102
RTVSPost2010Prop48
 90
       50
102
RTVSPost2010PropOp48
 70
     1
102
RTVSPost2010Prop49
280
     0
102
RTVSPost2010PropOp49
 70
     1
102
RTVSPost2010Prop50
 90
       50
102
RTVSPost2010PropOp50
 70
     1
102
RTVSPost2010Prop51ColorIndex
 90
      256
102
RTVSPost2010Prop51ColorRGB
 90
-16777216
102
RTVSPost2010PropOp51
 70
     0
102
RTVSPost2010Prop52
140
1.0
102
RTVSPost2010PropOp52
 70
     0
102
RTVSPost2010Prop53
 90
        2
102
RTVSPost2010PropOp53
 70
     1
102
RTVSPost2010Prop54
  1
strokes_ogs.tif
102
RTVSPost2010PropOp54
 70
     1
102
RTVSPost2010Prop55
280
     0
102
RTVSPost2010PropOp55
 70
     1
102
RTVSPost2010Prop56
140
1.0
102
RTVSPost2010PropOp56
 70
     1
102
RTVSPost2010Prop57
140
1.0
102
RTVSPost2010PropOp57
 70
     1
  0
XRECORD
  5
276
102
{ACAD_REACTORS
330
275
102
}
330
275
100
AcDbXrecord
280
     1
102
RTVSPost2010Prop28
280
     0
102
RTVSPost2010PropOp28
 70
     0
102
RTVSPost2010Prop29
280
     1
102
RTVSPost2010PropOp29
 70
     0
102
RTVSPost2010Prop30
280
     1
102
RTVSPost2010PropOp30
 70
     0
102
RTVSPost2010Prop31
280
     0
102
RTVSPost2010PropOp31
 70
     0
102
RTVSPost2010Prop32
280
     0
102
RTVSPost2010PropOp32
 70
     0
102
RTVSPost2010Prop33
280
     0
102
RTVSPost2010PropOp33
 70
     0
102
RTVSPost2010Prop34
280
     0
102
RTVSPost2010PropOp34
 70
     0
102
RTVSPost2010Prop35
280
     0
102
RTVSPost2010PropOp35
 70
     0
102
RTVSPost2010Prop36
280
     0
102
RTVSPost2010PropOp36
 70
     0
102
RTVSPost2010Prop37
 90
       50
102
RTVSPost2010PropOp37
 70
     0
102
RTVSPost2010Prop38
140
0.0
102
RTVSPost2010PropOp38
 70
     0
102
RTVSPost2010Prop39
140
1.0
102
RTVSPost2010PropOp39
 70
     0
102
RTVSPost2010Prop40
 90
        0
102
RTVSPost2010PropOp40
 70
     0
102
RTVSPost2010Prop41ColorIndex
 90
       18
102
RTVSPost2010Prop41ColorRGB
 90
        0
102
RTVSPost2010PropOp41
 70
     0
102
RTVSPost2010Prop42
 90
       50
102
RTVSPost2010PropOp42
 70
     0
102
RTVSPost2010Prop43
 90
        3
102
RTVSPost2010PropOp43
 70
     0
102
RTVSPost2010Prop44ColorIndex
 90
        5
102
RTVSPost2010Prop44ColorRGB
 90
      255
102
RTVSPost2010PropOp44
 70
     0
102
RTVSPost2010Prop45
280
     0
102
RTVSPost2010PropOp45
 70
     0
102
RTVSPost2010Prop46
 90
       50
102
RTVSPost2010PropOp46
 70
     0
102
RTVSPost2010Prop47
 90
       50
102
RTVSPost2010PropOp47
 70
     0
102
RTVSPost2010Prop48
 90
       50
102
RTVSPost2010PropOp48
 70
     0
102
RTVSPost2010Prop49
280
     0
102
RTVSPost2010PropOp49
 70
     0
102
RTVSPost2010Prop50
 90
       50
102
RTVSPost2010PropOp50
 70
     0
102
RTVSPost2010Prop51ColorIndex
 90
      256
102
RTVSPost2010Prop51ColorRGB
 90
-16777216
102
RTVSPost2010PropOp51
 70
     0
102
RTVSPost2010Prop52
140
1.0
102
RTVSPost2010PropOp52
 70
     0
102
RTVSPost2010Prop53
 90
        2
102
RTVSPost2010PropOp53
 70
     0
102
RTVSPost2010Prop54
  1
strokes_ogs.tif
102
RTVSPost2010PropOp54
 70
     0
102
RTVSPost2010Prop55
280
     0
102
RTVSPost2010PropOp55
 70
     0
102
RTVSPost2010Prop56
140
1.0
102
RTVSPost2010PropOp56
 70
     0
102
RTVSPost2010Prop57
140
1.0
102
RTVSPost2010PropOp57
 70
     0
  0
XRECORD
  5
25C
102
{ACAD_REACTORS
330
25B
102
}
330
25B
100
AcDbXrecord
280
     1
102
RTVSPost2010Prop28
280
     0
102
RTVSPost2010PropOp28
 70
     1
102
RTVSPost2010Prop29
280
     1
102
RTVSPost2010PropOp29
 70
     1
102
RTVSPost2010Prop30
280
     1
102
RTVSPost2010PropOp30
 70
     1
102
RTVSPost2010Prop31
280
     0
102
RTVSPost2010PropOp31
 70
     1
102
RTVSPost2010Prop32
280
     0
102
RTVSPost2010PropOp32
 70
     1
102
RTVSPost2010Prop33
280
     0
102
RTVSPost2010PropOp33
 70
     1
102
RTVSPost2010Prop34
280
     0
102
RTVSPost2010PropOp34
 70
     1
102
RTVSPost2010Prop35
280
     0
102
RTVSPost2010PropOp35
 70
     1
102
RTVSPost2010Prop36
280
     0
102
RTVSPost2010PropOp36
 70
     1
102
RTVSPost2010Prop37
 90
       50
102
RTVSPost2010PropOp37
 70
     1
102
RTVSPost2010Prop38
140
0.0
102
RTVSPost2010PropOp38
 70
     1
102
RTVSPost2010Prop39
140
1.0
102
RTVSPost2010PropOp39
 70
     1
102
RTVSPost2010Prop40
 90
        0
102
RTVSPost2010PropOp40
 70
     1
102
RTVSPost2010Prop41ColorIndex
 90
       18
102
RTVSPost2010Prop41ColorRGB
 90
        0
102
RTVSPost2010PropOp41
 70
     1
102
RTVSPost2010Prop42
 90
       50
102
RTVSPost2010PropOp42
 70
     1
102
RTVSPost2010Prop43
 90
        3
102
RTVSPost2010PropOp43
 70
     1
102
RTVSPost2010Prop44ColorIndex
 90
        5
102
RTVSPost2010Prop44ColorRGB
 90
      255
102
RTVSPost2010PropOp44
 70
     1
102
RTVSPost2010Prop45
280
     0
102
RTVSPost2010PropOp45
 70
     1
102
RTVSPost2010Prop46
 90
       50
102
RTVSPost2010PropOp46
 70
     1
102
RTVSPost2010Prop47
 90
       50
102
RTVSPost2010PropOp47
 70
     1
102
RTVSPost2010Prop48
 90
       50
102
RTVSPost2010PropOp48
 70
     1
102
RTVSPost2010Prop49
280
     0
102
RTVSPost2010PropOp49
 70
     1
102
RTVSPost2010Prop50
 90
       50
102
RTVSPost2010PropOp50
 70
     1
102
RTVSPost2010Prop51ColorIndex
 90
      256
102
RTVSPost2010Prop51ColorRGB
 90
-16777216
102
RTVSPost2010PropOp51
 70
     0
102
RTVSPost2010Prop52
140
1.0
102
RTVSPost2010PropOp52
 70
     0
102
RTVSPost2010Prop53
 90
        2
102
RTVSPost2010PropOp53
 70
     1
102
RTVSPost2010Prop54
  1
strokes_ogs.tif
102
RTVSPost2010PropOp54
 70
     1
102
RTVSPost2010Prop55
280
     0
102
RTVSPost2010PropOp55
 70
     1
102
RTVSPost2010Prop56
140
1.0
102
RTVSPost2010PropOp56
 70
     1
102
RTVSPost2010Prop57
140
1.0
102
RTVSPost2010PropOp57
 70
     1
  0
XRECORD
  5
272
102
{ACAD_REACTORS
330
271
102
}
330
271
100
AcDbXrecord
280
     1
102
RTVSPost2010Prop28
280
     0
102
RTVSPost2010PropOp28
 70
     1
102
RTVSPost2010Prop29
280
     1
102
RTVSPost2010PropOp29
 70
     1
102
RTVSPost2010Prop30
280
     1
102
RTVSPost2010PropOp30
 70
     1
102
RTVSPost2010Prop31
280
     0
102
RTVSPost2010PropOp31
 70
     1
102
RTVSPost2010Prop32
280
     0
102
RTVSPost2010PropOp32
 70
     1
102
RTVSPost2010Prop33
280
     0
102
RTVSPost2010PropOp33
 70
     1
102
RTVSPost2010Prop34
280
     0
102
RTVSPost2010PropOp34
 70
     1
102
RTVSPost2010Prop35
280
     0
102
RTVSPost2010PropOp35
 70
     1
102
RTVSPost2010Prop36
280
     0
102
RTVSPost2010PropOp36
 70
     1
102
RTVSPost2010Prop37
 90
       50
102
RTVSPost2010PropOp37
 70
     1
102
RTVSPost2010Prop38
140
0.0
102
RTVSPost2010PropOp38
 70
     1
102
RTVSPost2010Prop39
140
1.0
102
RTVSPost2010PropOp39
 70
     1
102
RTVSPost2010Prop40
 90
        0
102
RTVSPost2010PropOp40
 70
     1
102
RTVSPost2010Prop41ColorIndex
 90
       18
102
RTVSPost2010Prop41ColorRGB
 90
        0
102
RTVSPost2010PropOp41
 70
     1
102
RTVSPost2010Prop42
 90
       50
102
RTVSPost2010PropOp42
 70
     1
102
RTVSPost2010Prop43
 90
        3
102
RTVSPost2010PropOp43
 70
     1
102
RTVSPost2010Prop44ColorIndex
 90
        5
102
RTVSPost2010Prop44ColorRGB
 90
      255
102
RTVSPost2010PropOp44
 70
     1
102
RTVSPost2010Prop45
280
     0
102
RTVSPost2010PropOp45
 70
     1
102
RTVSPost2010Prop46
 90
       50
102
RTVSPost2010PropOp46
 70
     1
102
RTVSPost2010Prop47
 90
       50
102
RTVSPost2010PropOp47
 70
     1
102
RTVSPost2010Prop48
 90
       50
102
RTVSPost2010PropOp48
 70
     1
102
RTVSPost2010Prop49
280
     0
102
RTVSPost2010PropOp49
 70
     1
102
RTVSPost2010Prop50
 90
       50
102
RTVSPost2010PropOp50
 70
     1
102
RTVSPost2010Prop51ColorIndex
 90
      256
102
RTVSPost2010Prop51ColorRGB
 90
-16777216
102
RTVSPost2010PropOp51
 70
     0
102
RTVSPost2010Prop52
140
1.0
102
RTVSPost2010PropOp52
 70
     0
102
RTVSPost2010Prop53
 90
        2
102
RTVSPost2010PropOp53
 70
     1
102
RTVSPost2010Prop54
  1
strokes_ogs.tif
102
RTVSPost2010PropOp54
 70
     1
102
RTVSPost2010Prop55
280
     0
102
RTVSPost2010PropOp55
 70
     1
102
RTVSPost2010Prop56
140
1.0
102
RTVSPost2010PropOp56
 70
     1
102
RTVSPost2010Prop57
140
1.0
102
RTVSPost2010PropOp57
 70
     1
  0
XRECORD
  5
270
102
{ACAD_REACTORS
330
26F
102
}
330
26F
100
AcDbXrecord
280
     1
102
RTVSPost2010Prop28
280
     0
102
RTVSPost2010PropOp28
 70
     1
102
RTVSPost2010Prop29
280
     1
102
RTVSPost2010PropOp29
 70
     1
102
RTVSPost2010Prop30
280
     1
102
RTVSPost2010PropOp30
 70
     1
102
RTVSPost2010Prop31
280
     0
102
RTVSPost2010PropOp31
 70
     1
102
RTVSPost2010Prop32
280
     0
102
RTVSPost2010PropOp32
 70
     1
102
RTVSPost2010Prop33
280
     0
102
RTVSPost2010PropOp33
 70
     1
102
RTVSPost2010Prop34
280
     0
102
RTVSPost2010PropOp34
 70
     1
102
RTVSPost2010Prop35
280
     0
102
RTVSPost2010PropOp35
 70
     1
102
RTVSPost2010Prop36
280
     0
102
RTVSPost2010PropOp36
 70
     1
102
RTVSPost2010Prop37
 90
       50
102
RTVSPost2010PropOp37
 70
     1
102
RTVSPost2010Prop38
140
0.0
102
RTVSPost2010PropOp38
 70
     1
102
RTVSPost2010Prop39
140
1.0
102
RTVSPost2010PropOp39
 70
     1
102
RTVSPost2010Prop40
 90
        0
102
RTVSPost2010PropOp40
 70
     1
102
RTVSPost2010Prop41ColorIndex
 90
       18
102
RTVSPost2010Prop41ColorRGB
 90
        0
102
RTVSPost2010PropOp41
 70
     1
102
RTVSPost2010Prop42
 90
       50
102
RTVSPost2010PropOp42
 70
     1
102
RTVSPost2010Prop43
 90
        3
102
RTVSPost2010PropOp43
 70
     1
102
RTVSPost2010Prop44ColorIndex
 90
        5
102
RTVSPost2010Prop44ColorRGB
 90
      255
102
RTVSPost2010PropOp44
 70
     1
102
RTVSPost2010Prop45
280
     0
102
RTVSPost2010PropOp45
 70
     1
102
RTVSPost2010Prop46
 90
       50
102
RTVSPost2010PropOp46
 70
     1
102
RTVSPost2010Prop47
 90
       50
102
RTVSPost2010PropOp47
 70
     1
102
RTVSPost2010Prop48
 90
       50
102
RTVSPost2010PropOp48
 70
     1
102
RTVSPost2010Prop49
280
     0
102
RTVSPost2010PropOp49
 70
     1
102
RTVSPost2010Prop50
 90
       50
102
RTVSPost2010PropOp50
 70
     1
102
RTVSPost2010Prop51ColorIndex
 90
      256
102
RTVSPost2010Prop51ColorRGB
 90
-16777216
102
RTVSPost2010PropOp51
 70
     0
102
RTVSPost2010Prop52
140
1.0
102
RTVSPost2010PropOp52
 70
     0
102
RTVSPost2010Prop53
 90
        2
102
RTVSPost2010PropOp53
 70
     1
102
RTVSPost2010Prop54
  1
strokes_ogs.tif
102
RTVSPost2010PropOp54
 70
     1
102
RTVSPost2010Prop55
280
     0
102
RTVSPost2010PropOp55
 70
     1
102
RTVSPost2010Prop56
140
1.0
102
RTVSPost2010PropOp56
 70
     1
102
RTVSPost2010Prop57
140
1.0
102
RTVSPost2010PropOp57
 70
     1
  0
XRECORD
  5
26A
102
{ACAD_REACTORS
330
269
102
}
330
269
100
AcDbXrecord
280
     1
102
RTVSPost2010Prop28
280
     0
102
RTVSPost2010PropOp28
 70
     1
102
RTVSPost2010Prop29
280
     1
102
RTVSPost2010PropOp29
 70
     1
102
RTVSPost2010Prop30
280
     1
102
RTVSPost2010PropOp30
 70
     1
102
RTVSPost2010Prop31
280
     0
102
RTVSPost2010PropOp31
 70
     1
102
RTVSPost2010Prop32
280
     0
102
RTVSPost2010PropOp32
 70
     1
102
RTVSPost2010Prop33
280
     0
102
RTVSPost2010PropOp33
 70
     1
102
RTVSPost2010Prop34
280
     0
102
RTVSPost2010PropOp34
 70
     1
102
RTVSPost2010Prop35
280
     0
102
RTVSPost2010PropOp35
 70
     1
102
RTVSPost2010Prop36
280
     0
102
RTVSPost2010PropOp36
 70
     1
102
RTVSPost2010Prop37
 90
       50
102
RTVSPost2010PropOp37
 70
     1
102
RTVSPost2010Prop38
140
0.0
102
RTVSPost2010PropOp38
 70
     1
102
RTVSPost2010Prop39
140
1.0
102
RTVSPost2010PropOp39
 70
     1
102
RTVSPost2010Prop40
 90
        0
102
RTVSPost2010PropOp40
 70
     1
102
RTVSPost2010Prop41ColorIndex
 90
       18
102
RTVSPost2010Prop41ColorRGB
 90
        0
102
RTVSPost2010PropOp41
 70
     1
102
RTVSPost2010Prop42
 90
       50
102
RTVSPost2010PropOp42
 70
     1
102
RTVSPost2010Prop43
 90
        3
102
RTVSPost2010PropOp43
 70
     1
102
RTVSPost2010Prop44ColorIndex
 90
        5
102
RTVSPost2010Prop44ColorRGB
 90
      255
102
RTVSPost2010PropOp44
 70
     1
102
RTVSPost2010Prop45
280
     0
102
RTVSPost2010PropOp45
 70
     1
102
RTVSPost2010Prop46
 90
       50
102
RTVSPost2010PropOp46
 70
     1
102
RTVSPost2010Prop47
 90
       50
102
RTVSPost2010PropOp47
 70
     1
102
RTVSPost2010Prop48
 90
       50
102
RTVSPost2010PropOp48
 70
     1
102
RTVSPost2010Prop49
280
     0
102
RTVSPost2010PropOp49
 70
     1
102
RTVSPost2010Prop50
 90
       50
102
RTVSPost2010PropOp50
 70
     1
102
RTVSPost2010Prop51ColorIndex
 90
      256
102
RTVSPost2010Prop51ColorRGB
 90
-16777216
102
RTVSPost2010PropOp51
 70
     0
102
RTVSPost2010Prop52
140
1.0
102
RTVSPost2010PropOp52
 70
     0
102
RTVSPost2010Prop53
 90
        2
102
RTVSPost2010PropOp53
 70
     1
102
RTVSPost2010Prop54
  1
strokes_ogs.tif
102
RTVSPost2010PropOp54
 70
     1
102
RTVSPost2010Prop55
280
     0
102
RTVSPost2010PropOp55
 70
     1
102
RTVSPost2010Prop56
140
1.0
102
RTVSPost2010PropOp56
 70
     1
102
RTVSPost2010Prop57
140
1.0
102
RTVSPost2010PropOp57
 70
     1
  0
XRECORD
  5
26C
102
{ACAD_REACTORS
330
26B
102
}
330
26B
100
AcDbXrecord
280
     1
102
RTVSPost2010Prop28
280
     0
102
RTVSPost2010PropOp28
 70
     1
102
RTVSPost2010Prop29
280
     1
102
RTVSPost2010PropOp29
 70
     1
102
RTVSPost2010Prop30
280
     1
102
RTVSPost2010PropOp30
 70
     1
102
RTVSPost2010Prop31
280
     0
102
RTVSPost2010PropOp31
 70
     1
102
RTVSPost2010Prop32
280
     0
102
RTVSPost2010PropOp32
 70
     1
102
RTVSPost2010Prop33
280
     0
102
RTVSPost2010PropOp33
 70
     1
102
RTVSPost2010Prop34
280
     0
102
RTVSPost2010PropOp34
 70
     1
102
RTVSPost2010Prop35
280
     0
102
RTVSPost2010PropOp35
 70
     1
102
RTVSPost2010Prop36
280
     0
102
RTVSPost2010PropOp36
 70
     1
102
RTVSPost2010Prop37
 90
       50
102
RTVSPost2010PropOp37
 70
     1
102
RTVSPost2010Prop38
140
0.0
102
RTVSPost2010PropOp38
 70
     1
102
RTVSPost2010Prop39
140
1.0
102
RTVSPost2010PropOp39
 70
     1
102
RTVSPost2010Prop40
 90
        0
102
RTVSPost2010PropOp40
 70
     1
102
RTVSPost2010Prop41ColorIndex
 90
       18
102
RTVSPost2010Prop41ColorRGB
 90
        0
102
RTVSPost2010PropOp41
 70
     1
102
RTVSPost2010Prop42
 90
       50
102
RTVSPost2010PropOp42
 70
     1
102
RTVSPost2010Prop43
 90
        3
102
RTVSPost2010PropOp43
 70
     1
102
RTVSPost2010Prop44ColorIndex
 90
        5
102
RTVSPost2010Prop44ColorRGB
 90
      255
102
RTVSPost2010PropOp44
 70
     1
102
RTVSPost2010Prop45
280
     0
102
RTVSPost2010PropOp45
 70
     1
102
RTVSPost2010Prop46
 90
       50
102
RTVSPost2010PropOp46
 70
     1
102
RTVSPost2010Prop47
 90
       50
102
RTVSPost2010PropOp47
 70
     1
102
RTVSPost2010Prop48
 90
       50
102
RTVSPost2010PropOp48
 70
     1
102
RTVSPost2010Prop49
280
     0
102
RTVSPost2010PropOp49
 70
     1
102
RTVSPost2010Prop50
 90
       50
102
RTVSPost2010PropOp50
 70
     1
102
RTVSPost2010Prop51ColorIndex
 90
      256
102
RTVSPost2010Prop51ColorRGB
 90
-16777216
102
RTVSPost2010PropOp51
 70
     0
102
RTVSPost2010Prop52
140
1.0
102
RTVSPost2010PropOp52
 70
     0
102
RTVSPost2010Prop53
 90
        2
102
RTVSPost2010PropOp53
 70
     1
102
RTVSPost2010Prop54
  1
strokes_ogs.tif
102
RTVSPost2010PropOp54
 70
     1
102
RTVSPost2010Prop55
280
     0
102
RTVSPost2010PropOp55
 70
     1
102
RTVSPost2010Prop56
140
1.0
102
RTVSPost2010PropOp56
 70
     1
102
RTVSPost2010Prop57
140
1.0
102
RTVSPost2010PropOp57
 70
     1
  0
XRECORD
  5
262
102
{ACAD_REACTORS
330
261
102
}
330
261
100
AcDbXrecord
280
     1
102
RTVSPost2010Prop28
280
     0
102
RTVSPost2010PropOp28
 70
     1
102
RTVSPost2010Prop29
280
     1
102
RTVSPost2010PropOp29
 70
     1
102
RTVSPost2010Prop30
280
     1
102
RTVSPost2010PropOp30
 70
     1
102
RTVSPost2010Prop31
280
     0
102
RTVSPost2010PropOp31
 70
     1
102
RTVSPost2010Prop32
280
     0
102
RTVSPost2010PropOp32
 70
     1
102
RTVSPost2010Prop33
280
     0
102
RTVSPost2010PropOp33
 70
     1
102
RTVSPost2010Prop34
280
     0
102
RTVSPost2010PropOp34
 70
     1
102
RTVSPost2010Prop35
280
     0
102
RTVSPost2010PropOp35
 70
     1
102
RTVSPost2010Prop36
280
     0
102
RTVSPost2010PropOp36
 70
     1
102
RTVSPost2010Prop37
 90
       50
102
RTVSPost2010PropOp37
 70
     1
102
RTVSPost2010Prop38
140
0.0
102
RTVSPost2010PropOp38
 70
     1
102
RTVSPost2010Prop39
140
1.0
102
RTVSPost2010PropOp39
 70
     1
102
RTVSPost2010Prop40
 90
        0
102
RTVSPost2010PropOp40
 70
     1
102
RTVSPost2010Prop41ColorIndex
 90
       18
102
RTVSPost2010Prop41ColorRGB
 90
        0
102
RTVSPost2010PropOp41
 70
     1
102
RTVSPost2010Prop42
 90
       50
102
RTVSPost2010PropOp42
 70
     1
102
RTVSPost2010Prop43
 90
        3
102
RTVSPost2010PropOp43
 70
     1
102
RTVSPost2010Prop44ColorIndex
 90
        5
102
RTVSPost2010Prop44ColorRGB
 90
      255
102
RTVSPost2010PropOp44
 70
     1
102
RTVSPost2010Prop45
280
     0
102
RTVSPost2010PropOp45
 70
     1
102
RTVSPost2010Prop46
 90
       50
102
RTVSPost2010PropOp46
 70
     1
102
RTVSPost2010Prop47
 90
       50
102
RTVSPost2010PropOp47
 70
     1
102
RTVSPost2010Prop48
 90
       50
102
RTVSPost2010PropOp48
 70
     1
102
RTVSPost2010Prop49
280
     0
102
RTVSPost2010PropOp49
 70
     1
102
RTVSPost2010Prop50
 90
       50
102
RTVSPost2010PropOp50
 70
     1
102
RTVSPost2010Prop51ColorIndex
 90
      256
102
RTVSPost2010Prop51ColorRGB
 90
-16777216
102
RTVSPost2010PropOp51
 70
     0
102
RTVSPost2010Prop52
140
1.0
102
RTVSPost2010PropOp52
 70
     0
102
RTVSPost2010Prop53
 90
        2
102
RTVSPost2010PropOp53
 70
     1
102
RTVSPost2010Prop54
  1
strokes_ogs.tif
102
RTVSPost2010PropOp54
 70
     1
102
RTVSPost2010Prop55
280
     0
102
RTVSPost2010PropOp55
 70
     1
102
RTVSPost2010Prop56
140
1.0
102
RTVSPost2010PropOp56
 70
     1
102
RTVSPost2010Prop57
140
1.0
102
RTVSPost2010PropOp57
 70
     1
  0
XRECORD
  5
256
102
{ACAD_REACTORS
330
255
102
}
330
255
100
AcDbXrecord
280
     1
102
RTVSPost2010Prop28
280
     0
102
RTVSPost2010PropOp28
 70
     1
102
RTVSPost2010Prop29
280
     1
102
RTVSPost2010PropOp29
 70
     1
102
RTVSPost2010Prop30
280
     1
102
RTVSPost2010PropOp30
 70
     1
102
RTVSPost2010Prop31
280
     0
102
RTVSPost2010PropOp31
 70
     1
102
RTVSPost2010Prop32
280
     0
102
RTVSPost2010PropOp32
 70
     1
102
RTVSPost2010Prop33
280
     0
102
RTVSPost2010PropOp33
 70
     1
102
RTVSPost2010Prop34
280
     0
102
RTVSPost2010PropOp34
 70
     1
102
RTVSPost2010Prop35
280
     0
102
RTVSPost2010PropOp35
 70
     1
102
RTVSPost2010Prop36
280
     0
102
RTVSPost2010PropOp36
 70
     1
102
RTVSPost2010Prop37
 90
       50
102
RTVSPost2010PropOp37
 70
     1
102
RTVSPost2010Prop38
140
0.0
102
RTVSPost2010PropOp38
 70
     1
102
RTVSPost2010Prop39
140
1.0
102
RTVSPost2010PropOp39
 70
     1
102
RTVSPost2010Prop40
 90
        0
102
RTVSPost2010PropOp40
 70
     1
102
RTVSPost2010Prop41ColorIndex
 90
       18
102
RTVSPost2010Prop41ColorRGB
 90
        0
102
RTVSPost2010PropOp41
 70
     1
102
RTVSPost2010Prop42
 90
       50
102
RTVSPost2010PropOp42
 70
     1
102
RTVSPost2010Prop43
 90
        3
102
RTVSPost2010PropOp43
 70
     1
102
RTVSPost2010Prop44ColorIndex
 90
        5
102
RTVSPost2010Prop44ColorRGB
 90
      255
102
RTVSPost2010PropOp44
 70
     1
102
RTVSPost2010Prop45
280
     0
102
RTVSPost2010PropOp45
 70
     1
102
RTVSPost2010Prop46
 90
       50
102
RTVSPost2010PropOp46
 70
     1
102
RTVSPost2010Prop47
 90
       50
102
RTVSPost2010PropOp47
 70
     1
102
RTVSPost2010Prop48
 90
       50
102
RTVSPost2010PropOp48
 70
     1
102
RTVSPost2010Prop49
280
     0
102
RTVSPost2010PropOp49
 70
     1
102
RTVSPost2010Prop50
 90
       50
102
RTVSPost2010PropOp50
 70
     1
102
RTVSPost2010Prop51ColorIndex
 90
      256
102
RTVSPost2010Prop51ColorRGB
 90
-16777216
102
RTVSPost2010PropOp51
 70
     0
102
RTVSPost2010Prop52
140
1.0
102
RTVSPost2010PropOp52
 70
     0
102
RTVSPost2010Prop53
 90
        2
102
RTVSPost2010PropOp53
 70
     1
102
RTVSPost2010Prop54
  1
strokes_ogs.tif
102
RTVSPost2010PropOp54
 70
     1
102
RTVSPost2010Prop55
280
     0
102
RTVSPost2010PropOp55
 70
     1
102
RTVSPost2010Prop56
140
1.0
102
RTVSPost2010PropOp56
 70
     1
102
RTVSPost2010Prop57
140
1.0
102
RTVSPost2010PropOp57
 70
     1
  0
XRECORD
  5
26E
102
{ACAD_REACTORS
330
26D
102
}
330
26D
100
AcDbXrecord
280
     1
102
RTVSPost2010Prop28
280
     0
102
RTVSPost2010PropOp28
 70
     1
102
RTVSPost2010Prop29
280
     1
102
RTVSPost2010PropOp29
 70
     1
102
RTVSPost2010Prop30
280
     1
102
RTVSPost2010PropOp30
 70
     1
102
RTVSPost2010Prop31
280
     0
102
RTVSPost2010PropOp31
 70
     1
102
RTVSPost2010Prop32
280
     0
102
RTVSPost2010PropOp32
 70
     1
102
RTVSPost2010Prop33
280
     0
102
RTVSPost2010PropOp33
 70
     1
102
RTVSPost2010Prop34
280
     0
102
RTVSPost2010PropOp34
 70
     1
102
RTVSPost2010Prop35
280
     0
102
RTVSPost2010PropOp35
 70
     1
102
RTVSPost2010Prop36
280
     0
102
RTVSPost2010PropOp36
 70
     1
102
RTVSPost2010Prop37
 90
       50
102
RTVSPost2010PropOp37
 70
     1
102
RTVSPost2010Prop38
140
0.0
102
RTVSPost2010PropOp38
 70
     1
102
RTVSPost2010Prop39
140
1.0
102
RTVSPost2010PropOp39
 70
     1
102
RTVSPost2010Prop40
 90
        0
102
RTVSPost2010PropOp40
 70
     1
102
RTVSPost2010Prop41ColorIndex
 90
       18
102
RTVSPost2010Prop41ColorRGB
 90
        0
102
RTVSPost2010PropOp41
 70
     1
102
RTVSPost2010Prop42
 90
       50
102
RTVSPost2010PropOp42
 70
     1
102
RTVSPost2010Prop43
 90
        3
102
RTVSPost2010PropOp43
 70
     1
102
RTVSPost2010Prop44ColorIndex
 90
        5
102
RTVSPost2010Prop44ColorRGB
 90
      255
102
RTVSPost2010PropOp44
 70
     1
102
RTVSPost2010Prop45
280
     0
102
RTVSPost2010PropOp45
 70
     1
102
RTVSPost2010Prop46
 90
       50
102
RTVSPost2010PropOp46
 70
     1
102
RTVSPost2010Prop47
 90
       50
102
RTVSPost2010PropOp47
 70
     1
102
RTVSPost2010Prop48
 90
       50
102
RTVSPost2010PropOp48
 70
     1
102
RTVSPost2010Prop49
280
     0
102
RTVSPost2010PropOp49
 70
     1
102
RTVSPost2010Prop50
 90
       50
102
RTVSPost2010PropOp50
 70
     1
102
RTVSPost2010Prop51ColorIndex
 90
      256
102
RTVSPost2010Prop51ColorRGB
 90
-16777216
102
RTVSPost2010PropOp51
 70
     0
102
RTVSPost2010Prop52
140
1.0
102
RTVSPost2010PropOp52
 70
     0
102
RTVSPost2010Prop53
 90
        2
102
RTVSPost2010PropOp53
 70
     1
102
RTVSPost2010Prop54
  1
strokes_ogs.tif
102
RTVSPost2010PropOp54
 70
     1
102
RTVSPost2010Prop55
280
     0
102
RTVSPost2010PropOp55
 70
     1
102
RTVSPost2010Prop56
140
1.0
102
RTVSPost2010PropOp56
 70
     1
102
RTVSPost2010Prop57
140
1.0
102
RTVSPost2010PropOp57
 70
     1
  0
ENDSEC
  0
EOF
