  0
SECTION
  2
HEADER
  9
$ACADVER
  1
AC1015
  9
$ACADMAINTVER
 70
     6
  9
$DWGCODEPAGE
  3
ANSI_1252
  9
$INSBASE
 10
0.0
 20
0.0
 30
0.0
  9
$EXTMIN
 10
0.0
 20
0.0
 30
0.0
  9
$EXTMAX
 10
1682.0
 20
2378.0
 30
0.0
  9
$LIMMIN
 10
0.0
 20
0.0
  9
$LIMMAX
 10
1682.0
 20
2378.0
  9
$ORTHOMODE
 70
     0
  9
$REGENMODE
 70
     1
  9
$FILLMODE
 70
     1
  9
$QTEXTMODE
 70
     0
  9
$MIRRTEXT
 70
     1
  9
$LTSCALE
 40
1.0
  9
$ATTMODE
 70
     1
  9
$TEXTSIZE
 40
2.5
  9
$TRACEWID
 40
1.0
  9
$TEXTSTYLE
  7
Standard
  9
$CLAYER
  8
0
  9
$CELTYPE
  6
ByLayer
  9
$CECOLOR
 62
   256
  9
$CELTSCALE
 40
1.0
  9
$DISPSILH
 70
     0
  9
$DIMSCALE
 40
1.0
  9
$DIMASZ
 40
2.5
  9
$DIMEXO
 40
0.625
  9
$DIMDLI
 40
3.75
  9
$DIMRND
 40
0.0
  9
$DIMDLE
 40
0.0
  9
$DIMEXE
 40
1.25
  9
$DIMTP
 40
0.0
  9
$DIMTM
 40
0.0
  9
$DIMTXT
 40
2.5
  9
$DIMCEN
 40
2.5
  9
$DIMTSZ
 40
0.0
  9
$DIMTOL
 70
     0
  9
$DIMLIM
 70
     0
  9
$DIMTIH
 70
     0
  9
$DIMTOH
 70
     0
  9
$DIMSE1
 70
     0
  9
$DIMSE2
 70
     0
  9
$DIMTAD
 70
     1
  9
$DIMZIN
 70
     8
  9
$DIMBLK
  1

  9
$DIMASO
 70
     1
  9
$DIMSHO
 70
     1
  9
$DIMPOST
  1

  9
$DIMAPOST
  1

  9
$DIMALT
 70
     0
  9
$DIMALTD
 70
     3
  9
$DIMALTF
 40
0.0393700787
  9
$DIMLFAC
 40
1.0
  9
$DIMTOFL
 70
     1
  9
$DIMTVP
 40
0.0
  9
$DIMTIX
 70
     0
  9
$DIMSOXD
 70
     0
  9
$DIMSAH
 70
     0
  9
$DIMBLK1
  1

  9
$DIMBLK2
  1

  9
$DIMSTYLE
  2
ISO-25
  9
$DIMCLRD
 70
     0
  9
$DIMCLRE
 70
     0
  9
$DIMCLRT
 70
     0
  9
$DIMTFAC
 40
1.0
  9
$DIMGAP
 40
0.625
  9
$DIMJUST
 70
     0
  9
$DIMSD1
 70
     0
  9
$DIMSD2
 70
     0
  9
$DIMTOLJ
 70
     0
  9
$DIMTZIN
 70
     8
  9
$DIMALTZ
 70
     0
  9
$DIMALTTZ
 70
     0
  9
$DIMUPT
 70
     0
  9
$DIMDEC
 70
     2
  9
$DIMTDEC
 70
     2
  9
$DIMALTU
 70
     2
  9
$DIMALTTD
 70
     3
  9
$DIMTXSTY
  7
Standard
  9
$DIMAUNIT
 70
     0
  9
$DIMADEC
 70
     0
  9
$DIMALTRND
 40
0.0
  9
$DIMAZIN
 70
     0
  9
$DIMDSEP
 70
    44
  9
$DIMATFIT
 70
     3
  9
$DIMFRAC
 70
     0
  9
$DIMLDRBLK
  1

  9
$DIMLUNIT
 70
     2
  9
$DIMLWD
 70
    -2
  9
$DIMLWE
 70
    -2
  9
$DIMTMOVE
 70
     0
  9
$LUNITS
 70
     2
  9
$LUPREC
 70
     4
  9
$SKETCHINC
 40
1.0
  9
$FILLETRAD
 40
10.0
  9
$AUNITS
 70
     0
  9
$AUPREC
 70
     0
  9
$MENU
  1
.
  9
$ELEVATION
 40
0.0
  9
$PELEVATION
 40
0.0
  9
$THICKNESS
 40
0.0
  9
$LIMCHECK
 70
     0
  9
$CHAMFERA
 40
10.0
  9
$CHAMFERB
 40
10.0
  9
$CHAMFERC
 40
20.0
  9
$CHAMFERD
 40
0.0
  9
$SKPOLY
 70
     0
  9
$TDCREATE
 40
2455455.56953397
  9
$TDUCREATE
 40
2455455.486200637
  9
$TDUPDATE
 40
2455455.569533981
  9
$TDUUPDATE
 40
2455455.486200648
  9
$TDINDWG
 40
0.0000000116
  9
$TDUSRTIMER
 40
0.0000000116
  9
$USRTIMER
 70
     1
  9
$ANGBASE
 50
0.0
  9
$ANGDIR
 70
     0
  9
$PDMODE
 70
     0
  9
$PDSIZE
 40
0.0
  9
$PLINEWID
 40
0.0
  9
$SPLFRAME
 70
     0
  9
$SPLINETYPE
 70
     6
  9
$SPLINESEGS
 70
     8
  9
$HANDSEED
  5
D5
  9
$SURFTAB1
 70
     6
  9
$SURFTAB2
 70
     6
  9
$SURFTYPE
 70
     6
  9
$SURFU
 70
     6
  9
$SURFV
 70
     6
  9
$UCSBASE
  2

  9
$UCSNAME
  2

  9
$UCSORG
 10
0.0
 20
0.0
 30
0.0
  9
$UCSXDIR
 10
1.0
 20
0.0
 30
0.0
  9
$UCSYDIR
 10
0.0
 20
1.0
 30
0.0
  9
$UCSORTHOREF
  2

  9
$UCSORTHOVIEW
 70
     0
  9
$UCSORGTOP
 10
0.0
 20
0.0
 30
0.0
  9
$UCSORGBOTTOM
 10
0.0
 20
0.0
 30
0.0
  9
$UCSORGLEFT
 10
0.0
 20
0.0
 30
0.0
  9
$UCSORGRIGHT
 10
0.0
 20
0.0
 30
0.0
  9
$UCSORGFRONT
 10
0.0
 20
0.0
 30
0.0
  9
$UCSORGBACK
 10
0.0
 20
0.0
 30
0.0
  9
$PUCSBASE
  2

  9
$PUCSNAME
  2

  9
$PUCSORG
 10
0.0
 20
0.0
 30
0.0
  9
$PUCSXDIR
 10
1.0
 20
0.0
 30
0.0
  9
$PUCSYDIR
 10
0.0
 20
1.0
 30
0.0
  9
$PUCSORTHOREF
  2

  9
$PUCSORTHOVIEW
 70
     0
  9
$PUCSORGTOP
 10
0.0
 20
0.0
 30
0.0
  9
$PUCSORGBOTTOM
 10
0.0
 20
0.0
 30
0.0
  9
$PUCSORGLEFT
 10
0.0
 20
0.0
 30
0.0
  9
$PUCSORGRIGHT
 10
0.0
 20
0.0
 30
0.0
  9
$PUCSORGFRONT
 10
0.0
 20
0.0
 30
0.0
  9
$PUCSORGBACK
 10
0.0
 20
0.0
 30
0.0
  9
$USERI1
 70
     0
  9
$USERI2
 70
     0
  9
$USERI3
 70
     0
  9
$USERI4
 70
     0
  9
$USERI5
 70
     0
  9
$USERR1
 40
0.0
  9
$USERR2
 40
0.0
  9
$USERR3
 40
0.0
  9
$USERR4
 40
0.0
  9
$USERR5
 40
0.0
  9
$WORLDVIEW
 70
     1
  9
$SHADEDGE
 70
     3
  9
$SHADEDIF
 70
    70
  9
$TILEMODE
 70
     1
  9
$MAXACTVP
 70
    64
  9
$PINSBASE
 10
0.0
 20
0.0
 30
0.0
  9
$PLIMCHECK
 70
     0
  9
$PEXTMIN
 10
0.0
 20
0.0
 30
0.0
  9
$PEXTMAX
 10
1682.0
 20
2378.0
 30
0.0
  9
$PLIMMIN
 10
0.0
 20
0.0
  9
$PLIMMAX
 10
1682.0
 20
2378.0
  9
$UNITMODE
 70
     0
  9
$VISRETAIN
 70
     1
  9
$PLINEGEN
 70
     0
  9
$PSLTSCALE
 70
     1
  9
$TREEDEPTH
 70
  3020
  9
$CMLSTYLE
  2
Standard
  9
$CMLJUST
 70
     0
  9
$CMLSCALE
 40
20.0
  9
$PROXYGRAPHICS
 70
     1
  9
$MEASUREMENT
 70
     1
  9
$CELWEIGHT
370
    -1
  9
$ENDCAPS
280
     0
  9
$JOINSTYLE
280
     0
  9
$LWDISPLAY
290
     0
  9
$INSUNITS
 70
     4
  9
$HYPERLINKBASE
  1

  9
$STYLESHEET
  1

  9
$XEDIT
290
     1
  9
$CEPSNTYPE
380
     0
  9
$PSTYLEMODE
290
     1
  9
$FINGERPRINTGUID
  2
{7655F892-49AD-4C4D-9409-2F601DA0FA3C}
  9
$VERSIONGUID
  2
{FAEB1C32-E019-11D5-929B-00C0DF256EC4}
  9
$EXTNAMES
290
     1
  9
$PSVPSCALE
 40
0.0
  9
$OLESTARTUP
290
     0
  0
ENDSEC
  0
SECTION
  2
CLASSES
  0
CLASS
  1
ACDBDICTIONARYWDFLT
  2
AcDbDictionaryWithDefault
  3
ObjectDBX Classes
 90
        0
280
     0
281
     0
  0
CLASS
  1
VISUALSTYLE
  2
AcDbVisualStyle
  3
ObjectDBX Classes
 90
     4095
280
     0
281
     0
  0
CLASS
  1
SCALE
  2
AcDbScale
  3
ObjectDBX Classes
 90
     1153
280
     0
281
     0
  0
CLASS
  1
DICTIONARYVAR
  2
AcDbDictionaryVar
  3
ObjectDBX Classes
 90
        0
280
     0
281
     0
  0
CLASS
  1
ACDBPLACEHOLDER
  2
AcDbPlaceHolder
  3
ObjectDBX Classes
 90
        0
280
     0
281
     0
  0
CLASS
  1
LAYOUT
  2
AcDbLayout
  3
ObjectDBX Classes
 90
        0
280
     0
281
     0
  0
ENDSEC
  0
SECTION
  2
TABLES
  0
TABLE
  2
VPORT
  5
8
330
0
100
AcDbSymbolTable
 70
     1
  0
VPORT
  5
29
330
8
100
AcDbSymbolTableRecord
100
AcDbViewportTableRecord
  2
*Active
 70
     0
 10
0.0
 20
0.0
 11
1.0
 21
1.0
 12
344.1869158879
 22
148.5
 13
0.0
 23
0.0
 14
10.0
 24
10.0
 15
10.0
 25
10.0
 16
0.0
 26
0.0
 36
1.0
 17
0.0
 27
0.0
 37
0.0
 40
297.0
 41
1.9729729729
 42
50.0
 43
0.0
 44
0.0
 50
0.0
 51
0.0
 71
     0
 72
   100
 73
     1
 74
     3
 75
     0
 76
     0
 77
     0
 78
     0
281
     0
 65
     1
110
0.0
120
0.0
130
0.0
111
1.0
121
0.0
131
0.0
112
0.0
122
1.0
132
0.0
 79
     0
146
0.0
  0
ENDTAB
  0
TABLE
  2
LTYPE
  5
5
330
0
100
AcDbSymbolTable
 70
     2
  0
LTYPE
  5
14
330
5
100
AcDbSymbolTableRecord
100
AcDbLinetypeTableRecord
  2
ByBlock
 70
     0
  3

 72
    65
 73
     0
 40
0.0
  0
LTYPE
  5
15
330
5
100
AcDbSymbolTableRecord
100
AcDbLinetypeTableRecord
  2
ByLayer
 70
     0
  3

 72
    65
 73
     0
 40
0.0
  0
LTYPE
  5
16
330
5
100
AcDbSymbolTableRecord
100
AcDbLinetypeTableRecord
  2
Continuous
 70
     0
  3
Solid line
 72
    65
 73
     0
 40
0.0
  0
LTYPE
  5
60
330
5
100
AcDbSymbolTableRecord
100
AcDbLinetypeTableRecord
  2
CENTER2
 70
     0
  3
Center (.5x) ___ _ ___ _ ___ _ ___ _ ___ _ ___
 72
    65
 73
     4
 40
28.575
 49
19.05
 74
     4
 75
     0
340
0
 46
0.0
 50
0.0
 44
0.0
 45
0.0
 49
-3.175
 74
     4
 75
     0
340
0
 46
0.0
 50
0.0
 44
0.0
 45
0.0
 49
3.175
 74
     4
 75
     0
340
0
 46
0.0
 50
0.0
 44
0.0
 45
0.0
 49
-3.175
 74
     4
 75
     0
340
0
 46
0.0
 50
0.0
 44
0.0
 45
0.0
  0
ENDTAB
  0
TABLE
  2
LAYER
  5
2
330
0
100
AcDbSymbolTable
 70
     5
  0
LAYER
  5
10
330
2
100
AcDbSymbolTableRecord
100
AcDbLayerTableRecord
  2
0
 70
     0
 62
     7
  6
Continuous
370
    -3
390
F
  0
LAYER
  5
5D
330
2
100
AcDbSymbolTableRecord
100
AcDbLayerTableRecord
  2
Default
 70
     0
 62
     7
  6
Continuous
370
    -3
390
F
  0
LAYER
  5
77
330
2
100
AcDbSymbolTableRecord
100
AcDbLayerTableRecord
  2
09330038_AUSLAUF
 70
     0
 62
     7
  6
Continuous
370
    -3
390
F
  0
LAYER
  5
7D
330
2
100
AcDbSymbolTableRecord
100
AcDbLayerTableRecord
  2
09331038_ROSETTE
 70
     0
 62
     7
  6
Continuous
370
    -3
390
F
  0
LAYER
  5
84
330
2
100
AcDbSymbolTableRecord
100
AcDbLayerTableRecord
  2
09328038_GEH_SIS
 70
     0
 62
     7
  6
Continuous
370
    -3
390
F
  0
ENDTAB
  0
TABLE
  2
STYLE
  5
3
330
0
100
AcDbSymbolTable
 70
     2
  0
STYLE
  5
11
330
3
100
AcDbSymbolTableRecord
100
AcDbTextStyleTableRecord
  2
Standard
 70
     0
 40
0.0
 41
1.0
 50
0.0
 71
     0
 42
2.5
  3
txt
  4

  0
STYLE
  5
C4
330
3
100
AcDbSymbolTableRecord
100
AcDbTextStyleTableRecord
  2
SEACAD_seiso_ttf
 70
     0
 40
0.0
 41
1.0
 50
0.0
 71
     0
 42
0.2
  3
seiso.ttf
  4

  0
ENDTAB
  0
TABLE
  2
VIEW
  5
6
330
0
100
AcDbSymbolTable
 70
     0
  0
ENDTAB
  0
TABLE
  2
UCS
  5
7
330
0
100
AcDbSymbolTable
 70
     0
  0
ENDTAB
  0
TABLE
  2
APPID
  5
9
330
0
100
AcDbSymbolTable
 70
     1
  0
APPID
  5
12
330
9
100
AcDbSymbolTableRecord
100
AcDbRegAppTableRecord
  2
ACAD
 70
     0
  0
ENDTAB
  0
TABLE
  2
DIMSTYLE
  5
A
330
0
100
AcDbSymbolTable
 70
     1
100
AcDbDimStyleTable
  0
DIMSTYLE
105
27
330
A
100
AcDbSymbolTableRecord
100
AcDbDimStyleTableRecord
  2
ISO-25
 70
     0
 41
2.5
 42
0.625
 43
3.75
 44
1.25
 73
     0
 74
     0
 77
     1
 78
     8
140
2.5
141
2.5
143
0.0393700787
147
0.625
171
     3
172
     1
271
     2
272
     2
274
     3
278
    44
283
     0
284
     8
340
11
  0
ENDTAB
  0
TABLE
  2
BLOCK_RECORD
  5
1
330
0
100
AcDbSymbolTable
 70
     7
  0
BLOCK_RECORD
  5
1F
330
1
100
AcDbSymbolTableRecord
100
AcDbBlockTableRecord
  2
*Model_Space
340
22
  0
BLOCK_RECORD
  5
1B
330
1
100
AcDbSymbolTableRecord
100
AcDbBlockTableRecord
  2
*Paper_Space
340
1E
  0
BLOCK_RECORD
  5
5E
330
1
100
AcDbSymbolTableRecord
100
AcDbBlockTableRecord
  2
SEANNOT_GROUP
340
0
102
{BLKREFS
331
5F
102
}
  0
BLOCK_RECORD
  5
69
330
1
100
AcDbSymbolTableRecord
100
AcDbBlockTableRecord
  2
SEANNOT_GROUP1
340
0
102
{BLKREFS
331
6A
102
}
  0
BLOCK_RECORD
  5
6F
330
1
100
AcDbSymbolTableRecord
100
AcDbBlockTableRecord
  2
SEANNOT_GROUP2
340
0
102
{BLKREFS
331
70
102
}
  0
BLOCK_RECORD
  5
75
330
1
100
AcDbSymbolTableRecord
100
AcDbBlockTableRecord
  2
SE
340
0
102
{BLKREFS
331
76
102
}
  0
BLOCK_RECORD
  5
91
330
1
100
AcDbSymbolTableRecord
100
AcDbBlockTableRecord
  2
SE1
340
0
102
{BLKREFS
331
92
102
}
  0
BLOCK_RECORD
  5
B4
330
1
100
AcDbSymbolTableRecord
100
AcDbBlockTableRecord
  2
SE2
340
0
102
{BLKREFS
331
B5
102
}
  0
ENDTAB
  0
ENDSEC
  0
SECTION
  2
BLOCKS
  0
BLOCK
  5
20
330
1F
100
AcDbEntity
  8
0
100
AcDbBlockBegin
  2
*Model_Space
 70
     0
 10
0.0
 20
0.0
 30
0.0
  3
*Model_Space
  1

  0
ENDBLK
  5
21
330
1F
100
AcDbEntity
  8
0
100
AcDbBlockEnd
  0
BLOCK
  5
1C
330
1B
100
AcDbEntity
 67
     1
  8
0
100
AcDbBlockBegin
  2
*Paper_Space
 70
     0
 10
0.0
 20
0.0
 30
0.0
  3
*Paper_Space
  1

  0
ENDBLK
  5
1D
330
1B
100
AcDbEntity
 67
     1
  8
0
100
AcDbBlockEnd
  0
BLOCK
  5
67
330
5E
100
AcDbEntity
  8
0
100
AcDbBlockBegin
  2
SEANNOT_GROUP
 70
     0
 10
0.0
 20
0.0
 30
0.0
  3
SEANNOT_GROUP
  1

  0
LINE
  5
61
330
5E
100
AcDbEntity
  8
Default
  6
CENTER2
 62
     7
100
AcDbLine
 10
107.6493997326
 20
412.7383306103
 30
0.0
 11
67.6494006267
 21
412.7383306103
 31
0.0
  0
LINE
  5
62
330
5E
100
AcDbEntity
  8
Default
  6
CENTER2
 62
     7
100
AcDbLine
 10
87.6494001796
 20
432.7383301633
 30
0.0
 11
87.6494001796
 21
392.7383310573
 31
0.0
  0
LINE
  5
63
330
5E
100
AcDbEntity
  8
Default
  6
CENTER2
 62
     7
100
AcDbLine
 10
112.6493996209
 20
412.7383306103
 30
0.0
 11
121.1494001796
 21
412.7383306103
 31
0.0
  0
LINE
  5
64
330
5E
100
AcDbEntity
  8
Default
  6
CENTER2
 62
     7
100
AcDbLine
 10
87.6494001796
 20
437.7383300515
 30
0.0
 11
87.6494001796
 21
446.2383306103
 31
0.0
  0
LINE
  5
65
330
5E
100
AcDbEntity
  8
Default
  6
CENTER2
 62
     7
100
AcDbLine
 10
62.6494007384
 20
412.7383306103
 30
0.0
 11
54.1494001796
 21
412.7383306103
 31
0.0
  0
LINE
  5
66
330
5E
100
AcDbEntity
  8
Default
  6
CENTER2
 62
     7
100
AcDbLine
 10
87.6494001796
 20
387.7383311691
 30
0.0
 11
87.6494001796
 21
379.2383306103
 31
0.0
  0
ENDBLK
  5
68
330
5E
100
AcDbEntity
  8
0
100
AcDbBlockEnd
  0
BLOCK
  5
6D
330
69
100
AcDbEntity
  8
0
100
AcDbBlockBegin
  2
SEANNOT_GROUP1
 70
     0
 10
0.0
 20
0.0
 30
0.0
  3
SEANNOT_GROUP1
  1

  0
LINE
  5
6B
330
69
100
AcDbEntity
  8
Default
  6
CENTER2
 62
     7
100
AcDbLine
 10
200.1881509387
 20
412.7383306103
 30
0.0
 11
160.1881518327
 21
412.7383306103
 31
0.0
  0
LINE
  5
6C
330
69
100
AcDbEntity
  8
Default
  6
CENTER2
 62
     7
100
AcDbLine
 10
180.1881513857
 20
432.7383301633
 30
0.0
 11
180.1881513857
 21
392.7383310573
 31
0.0
  0
ENDBLK
  5
6E
330
69
100
AcDbEntity
  8
0
100
AcDbBlockEnd
  0
BLOCK
  5
73
330
6F
100
AcDbEntity
  8
0
100
AcDbBlockBegin
  2
SEANNOT_GROUP2
 70
     0
 10
0.0
 20
0.0
 30
0.0
  3
SEANNOT_GROUP2
  1

  0
LINE
  5
71
330
6F
100
AcDbEntity
  8
Default
  6
CENTER2
 62
     7
100
AcDbLine
 10
107.6493997326
 20
308.9837224773
 30
0.0
 11
67.6494006267
 21
308.9837224773
 31
0.0
  0
LINE
  5
72
330
6F
100
AcDbEntity
  8
Default
  6
CENTER2
 62
     7
100
AcDbLine
 10
87.6494001796
 20
328.9837220303
 30
0.0
 11
87.6494001796
 21
288.9837229243
 31
0.0
  0
ENDBLK
  5
74
330
6F
100
AcDbEntity
  8
0
100
AcDbBlockEnd
  0
BLOCK
  5
8F
330
75
100
AcDbEntity
  8
0
100
AcDbBlockBegin
  2
SE
 70
     0
 10
0.0
 20
0.0
 30
0.0
  3
SE
  1

  0
SPLINE
  5
78
330
75
100
AcDbEntity
  8
09330038_AUSLAUF
  6
Continuous
 62
     7
100
AcDbSpline
210
0.0
220
0.0
230
1.0
 70
    11
 71
     3
 72
    47
 73
    43
 74
     0
 42
0.0000000001030877
 43
0.0000000001
 40
0.0
 40
0.0
 40
0.0
 40
0.0
 40
0.0078201094465772
 40
0.0156505346811108
 40
0.0312874671930654
 40
0.0625321230191973
 40
0.0937769692491579
 40
0.1250222433153564
 40
0.1562672625916731
 40
0.1875121215748771
 40
0.2187567588029615
 40
0.2500019814309126
 40
0.2812468040201369
 40
0.3124911079231528
 40
0.3437288890882545
 40
0.3749846192387726
 40
0.4062266623967657
 40
0.4374693695446961
 40
0.468711546419306
 40
0.4843523853508443
 40
0.4921781709723937
 40
0.4999954100402159
 40
0.5078138808663449
 40
0.5156389191728731
 40
0.5312828520152633
 40
0.5625277739516282
 40
0.5937729181662008
 40
0.6250180978945169
 40
0.65625560658344
 40
0.687513233354519
 40
0.7187589860582511
 40
0.7500034499933342
 40
0.781247949240973
 40
0.8124921588857794
 40
0.843736822944626
 40
0.8749805348277612
 40
0.9062250530837552
 40
0.9374694845447136
 40
0.968713408145761
 40
0.9843549469485241
 40
0.9921782496554095
 40
1.0
 40
1.0
 40
1.0
 40
1.0
 10
87.64939976072976
 20
377.0269042997678
 30
0.0
 10
87.90519313204511
 20
377.0268937200034
 30
0.0
 10
88.41711864740213
 20
377.0389915921303
 30
0.0
 10
89.4380242582085
 20
377.1118304849814
 30
0.0
 10
91.21063600687069
 20
377.3655850306811
 30
0.0
 10
93.67297655703923
 20
378.0868435576451
 30
0.0
 10
96.39367064473734
 20
379.491721087803
 30
0.0
 10
98.77890354549099
 20
381.3824492913253
 30
0.0
 10
100.7362622816451
 20
383.6863032490275
 30
0.0
 10
102.1907226949889
 20
386.3147310280215
 30
0.0
 10
103.0863622169781
 20
389.1667376916118
 30
0.0
 10
103.3887633230065
 20
392.132724358036
 30
0.0
 10
103.0862863633568
 20
395.0986834389882
 30
0.0
 10
102.1907083233818
 20
397.9504650347321
 30
0.0
 10
100.7360436845028
 20
400.5788755125389
 30
0.0
 10
98.77878734250322
 20
402.8828490975713
 30
0.0
 10
96.39332351607177
 20
404.7735751233874
 30
0.0
 10
93.67284451447651
 20
406.1783086904015
 30
0.0
 10
91.21052143868216
 20
406.899514418032
 30
0.0
 10
89.43801713636984
 20
407.1533062784446
 30
0.0
 10
88.41722480302671
 20
407.2260685134984
 30
0.0
 10
87.6498062392794
 20
407.2442701846472
 30
0.0
 10
86.8824150374293
 20
407.2260202652198
 30
0.0
 10
85.86149844414003
 20
407.1533709548834
 30
0.0
 10
84.08880649733322
 20
406.8996676659214
 30
0.0
 10
81.62621077251946
 20
406.1784189661504
 30
0.0
 10
78.90545566308815
 20
404.7736046953743
 30
0.0
 10
76.52039158951935
 20
402.8830546386926
 30
0.0
 10
74.56271846051337
 20
400.5792517575317
 30
0.0
 10
73.10817969139177
 20
397.9506016784342
 30
0.0
 10
72.2123952474141
 20
395.098212255437
 30
0.0
 10
71.91005009852428
 20
392.1322167540849
 30
0.0
 10
72.21253023463824
 20
389.1662918652046
 30
0.0
 10
73.10824272062335
 20
386.3143495424741
 30
0.0
 10
74.56274701849999
 20
383.6860149082281
 30
0.0
 10
76.52010781366592
 20
381.3822569073089
 30
0.0
 10
78.905304643657
 20
379.4916158220435
 30
0.0
 10
81.62595732853106
 20
378.0867794136724
 30
0.0
 10
84.08841756391276
 20
377.3655583779523
 30
0.0
 10
85.86092392282303
 20
377.1117739107654
 30
0.0
 10
86.88180919597579
 20
377.0390533907698
 30
0.0
 10
87.39355271614579
 20
377.0269148817522
 30
0.0
 10
87.64939976072976
 20
377.0269042997678
 30
0.0
  0
SPLINE
  5
79
330
75
100
AcDbEntity
  8
09330038_AUSLAUF
  6
Continuous
 62
     7
100
AcDbSpline
210
0.0
220
0.0
230
1.0
 70
    11
 71
     3
 72
    54
 73
    50
 74
     0
 42
0.0000000000947846
 43
0.0000000001
 40
0.0
 40
0.0
 40
0.0
 40
0.0
 40
0.015625
 40
0.015625
 40
0.0312499999999999
 40
0.0312499999999999
 40
0.0624999999999998
 40
0.0624999999999998
 40
0.1249999999999996
 40
0.1249999999999996
 40
0.1562499999999996
 40
0.1562499999999996
 40
0.1874999999999996
 40
0.1874999999999996
 40
0.2187499999999995
 40
0.2187499999999995
 40
0.2499999999999995
 40
0.2499999999999995
 40
0.3124999999999996
 40
0.3124999999999996
 40
0.3749999999999996
 40
0.3749999999999996
 40
0.4374999999999996
 40
0.4374999999999996
 40
0.4999999999999997
 40
0.4999999999999997
 40
0.5312499999999997
 40
0.5312499999999997
 40
0.5624999999999997
 40
0.5624999999999997
 40
0.5937499999999998
 40
0.5937499999999998
 40
0.6249999999999998
 40
0.6249999999999998
 40
0.6874999999999998
 40
0.6874999999999998
 40
0.7499999999999998
 40
0.7499999999999998
 40
0.8124999999999999
 40
0.8124999999999999
 40
0.8749999999999999
 40
0.8749999999999999
 40
0.9375
 40
0.9375
 40
0.96875
 40
0.96875
 40
0.984375
 40
0.984375
 40
1.0
 40
1.0
 40
1.0
 40
1.0
 10
87.64940041760052
 20
375.9767170599417
 30
0.0
 10
87.08969492179965
 20
375.9736737954723
 30
0.0
 10
86.5316235095524
 20
376.0034057717118
 30
0.0
 10
85.41872083935232
 20
376.1097529565158
 30
0.0
 10
84.86520672581376
 20
376.1895680024378
 30
0.0
 10
83.22432610684041
 20
376.5064220258374
 30
0.0
 10
82.1479596098656
 20
376.8240435700528
 30
0.0
 10
79.0854110239323
 20
378.0535593321868
 30
0.0
 10
77.20289419963238
 20
379.2650515184066
 30
0.0
 10
74.83013365329091
 20
381.5608215185123
 30
0.0
 10
74.12933295479156
 20
382.3886879892699
 30
0.0
 10
72.9025029237026
 20
384.1623619558732
 30
0.0
 10
72.37191315961165
 20
385.1194954853126
 30
0.0
 10
71.5206899134182
 20
387.1029109301155
 30
0.0
 10
71.19954982863769
 20
388.1233166183576
 30
0.0
 10
70.76393232761374
 20
390.2208849402069
 30
0.0
 10
70.65092909795534
 20
391.3039940248125
 30
0.0
 10
70.64638924351523
 20
394.538885061358
 30
0.0
 10
71.08750050470125
 20
396.6951743526017
 30
0.0
 10
72.80127095206753
 20
400.6919158041591
 30
0.0
 10
74.07457892943984
 20
402.5237060512377
 30
0.0
 10
77.21760181356778
 20
405.552214908932
 30
0.0
 10
79.09016372907924
 20
406.7616559854643
 30
0.0
 10
83.21621589439413
 20
408.4104663743952
 30
0.0
 10
85.44915684274856
 20
408.8322597256104
 30
0.0
 10
88.80384377462967
 20
408.8332262893804
 30
0.0
 10
89.92237171368491
 20
408.7207660000636
 30
0.0
 10
92.10258877617406
 20
408.2955533786264
 30
0.0
 10
93.15808375290669
 20
407.9831387121247
 30
0.0
 10
95.20092314456433
 20
407.1618092151346
 30
0.0
 10
96.19534200718329
 20
406.646298829624
 30
0.0
 10
98.03319735222037
 20
405.455902513741
 30
0.0
 10
98.88632563953546
 20
404.7788970452716
 30
0.0
 10
101.2451231043581
 20
402.4985190175825
 30
0.0
 10
102.5126233393857
 20
400.658756071297
 30
0.0
 10
104.20103634909
 20
396.7170392296727
 30
0.0
 10
104.6503476334637
 20
394.5403240590686
 30
0.0
 10
104.6484496118907
 20
390.2547567591553
 30
0.0
 10
104.2116208183419
 20
388.1176411531951
 30
0.0
 10
102.5040038805744
 20
384.1295560982979
 30
0.0
 10
101.234332622555
 20
382.3006946857254
 30
0.0
 10
98.11360545396757
 20
379.2831248922075
 30
0.0
 10
96.21395694407691
 20
378.0509604961422
 30
0.0
 10
93.12181412682312
 20
376.8138227454921
 30
0.0
 10
92.0446200008598
 20
376.4991929200629
 30
0.0
 10
90.41479762420447
 20
376.1866909147536
 30
0.0
 10
89.86745119779785
 20
376.1083261706943
 30
0.0
 10
88.76460336719043
 20
376.0033892359954
 30
0.0
 10
88.20910591340139
 20
375.9797603244111
 30
0.0
 10
87.64940041760052
 20
375.9767170599417
 30
0.0
  0
ARC
  5
7A
330
75
100
AcDbEntity
  8
09330038_AUSLAUF
  6
Continuous
 62
     7
100
AcDbCircle
 10
87.6494001796
 20
412.7383306103
 30
0.0
 40
17.00000000000001
100
AcDbArc
 50
0.0
 51
180.0
  0
LINE
  5
7B
330
75
100
AcDbEntity
  8
09330038_AUSLAUF
  6
Continuous
 62
     7
100
AcDbLine
 10
104.6494001796
 20
392.4045721323
 30
0.0
 11
104.6494001796
 21
412.7383306103
 31
0.0
  0
LINE
  5
7C
330
75
100
AcDbEntity
  8
09330038_AUSLAUF
  6
Continuous
 62
     7
100
AcDbLine
 10
70.6494001796
 20
412.7383306103
 30
0.0
 11
70.6494001796
 21
392.4045318103
 31
0.0
  0
ARC
  5
7E
330
75
100
AcDbEntity
  8
09331038_ROSETTE
  6
Continuous
 62
     7
100
AcDbCircle
 10
87.6494001796
 20
412.7383306103
 30
0.0
 40
17.05000000000003
100
AcDbArc
 50
355.6109893929
 51
0.0
  0
ARC
  5
7F
330
75
100
AcDbEntity
  8
09331038_ROSETTE
  6
Continuous
 62
     7
100
AcDbCircle
 10
87.6494001796
 20
412.7383306103
 30
0.0
 40
17.05000000000003
100
AcDbArc
 50
0.0
 51
184.3890106071
  0
ARC
  5
80
330
75
100
AcDbEntity
  8
09331038_ROSETTE
  6
Continuous
 62
     7
100
AcDbCircle
 10
87.6494001796
 20
412.7383306103
 30
0.0
 40
29.99999999999997
100
AcDbArc
 50
302.7490433488
 51
0.0
  0
ARC
  5
81
330
75
100
AcDbEntity
  8
09331038_ROSETTE
  6
Continuous
 62
     7
100
AcDbCircle
 10
87.6494001796
 20
412.7383306103
 30
0.0
 40
29.99999999999997
100
AcDbArc
 50
0.0
 51
237.2268136913
  0
ARC
  5
82
330
75
100
AcDbEntity
  8
09331038_ROSETTE
  6
Continuous
 62
     7
100
AcDbCircle
 10
87.6494001796
 20
412.7383306103
 30
0.0
 40
28.99999999999997
100
AcDbArc
 50
0.0
 51
235.0055154446
  0
ARC
  5
83
330
75
100
AcDbEntity
  8
09331038_ROSETTE
  6
Continuous
 62
     7
100
AcDbCircle
 10
87.6494001796
 20
412.7383306103
 30
0.0
 40
28.99999999999997
100
AcDbArc
 50
304.9599248734
 51
0.0
  0
ELLIPSE
  5
85
330
75
100
AcDbEntity
  8
09328038_GEH_SIS
  6
Continuous
 62
     7
100
AcDbEllipse
 10
87.6494001796
 20
374.9824493912
 30
0.0
 11
12.75
 21
0.0
 31
0.0
210
0.0
220
0.0
230
1.0
 40
0.2588190451
 41
3.624212767020527
 42
5.800565193748858
  0
ELLIPSE
  5
86
330
75
100
AcDbEntity
  8
09328038_GEH_SIS
  6
Continuous
 62
     7
100
AcDbEllipse
 10
87.6494001796
 20
375.6795463109
 30
0.0
 11
-14.0
 21
-1.387778780781446E-14
 31
0.0
210
0.0
220
0.0
230
1.0
 40
0.2588190451
 41
0.3802512066929257
 42
2.761341446896858
  0
ELLIPSE
  5
87
330
75
100
AcDbEntity
  8
09328038_GEH_SIS
  6
Continuous
 62
     7
100
AcDbEllipse
 10
87.6494001796
 20
372.5622667998
 30
0.0
 11
13.90911426404706
 21
-8.169013257662611
 31
0.0
210
0.0
220
0.0
230
0.9999999999999998
 40
0.194962592
 41
3.255600324046452
 42
3.635851530739394
  0
LINE
  5
88
330
75
100
AcDbEntity
  8
09328038_GEH_SIS
  6
Continuous
 62
     7
100
AcDbLine
 10
74.6494001796
 20
378.4672153143
 30
0.0
 11
74.6494001796
 21
374.3346831027
 31
0.0
  0
LINE
  5
89
330
75
100
AcDbEntity
  8
09328038_GEH_SIS
  6
Continuous
 62
     7
100
AcDbLine
 10
100.6494001796
 20
378.4672153143
 30
0.0
 11
100.6494001796
 21
374.3346831027
 31
0.0
  0
ELLIPSE
  5
8A
330
75
100
AcDbEntity
  8
09328038_GEH_SIS
  6
Continuous
 62
     7
100
AcDbEllipse
 10
87.6494001796
 20
372.5622667998
 30
0.0
 11
-13.90911426404682
 21
-8.16901325766249
 31
0.0
210
0.0
220
0.0
230
0.9999999999999998
 40
0.194962592
 41
-3.635851530739394
 42
-3.255600324046481
  0
LINE
  5
8B
330
75
100
AcDbEntity
  8
09328038_GEH_SIS
  6
Continuous
 62
     7
100
AcDbLine
 10
101.6494001796
 20
380.3697563474
 30
0.0
 11
101.6494001796
 21
383.0905795789
 31
0.0
  0
LINE
  5
8C
330
75
100
AcDbEntity
  8
09328038_GEH_SIS
  6
Continuous
 62
     7
100
AcDbLine
 10
73.6494001796
 20
383.1001862896
 30
0.0
 11
73.6494001796
 21
380.3697563474
 31
0.0
  0
LINE
  5
8D
330
75
100
AcDbEntity
  8
09328038_GEH_SIS
  6
Continuous
 62
     7
100
AcDbLine
 10
75.2484526593
 20
373.9978895949
 30
0.0
 11
76.3556801165
 21
373.4509405962
 31
0.0
  0
LINE
  5
8E
330
75
100
AcDbEntity
  8
09328038_GEH_SIS
  6
Continuous
 62
     7
100
AcDbLine
 10
98.9431202428
 20
373.4509405962
 30
0.0
 11
100.0503477
 21
373.9978895949
 31
0.0
  0
ENDBLK
  5
90
330
75
100
AcDbEntity
  8
0
100
AcDbBlockEnd
  0
BLOCK
  5
B2
330
91
100
AcDbEntity
  8
0
100
AcDbBlockBegin
  2
SE1
 70
     0
 10
0.0
 20
0.0
 30
0.0
  3
SE1
  1

  0
LINE
  5
93
330
91
100
AcDbEntity
  8
09330038_AUSLAUF
  6
Continuous
 62
     7
100
AcDbLine
 10
374.72558595
 20
377.0269042998
 30
0.0
 11
374.7258853459
 21
377.0280216293
 31
0.0
  0
LINE
  5
94
330
91
100
AcDbEntity
  8
09330038_AUSLAUF
  6
Continuous
 62
     7
100
AcDbLine
 10
382.8208067906
 20
407.2378364546
 30
0.0
 11
382.8209033684
 21
407.2381968776
 31
0.0
  0
SPLINE
  5
95
330
91
100
AcDbEntity
  8
09330038_AUSLAUF
  6
Continuous
 62
     7
100
AcDbSpline
210
0.0
220
0.0
230
1.0
 70
     8
 71
     3
 72
    30
 73
    26
 74
     0
 42
0.0000000001463031
 43
0.0000000001
 40
0.001904027859175
 40
0.001904027859175
 40
0.001904027859175
 40
0.001904027859175
 40
0.015625
 40
0.015625
 40
0.0312499999999999
 40
0.0312499999999999
 40
0.0624999999999998
 40
0.0624999999999998
 40
0.1249999999999997
 40
0.1249999999999997
 40
0.1562499999999997
 40
0.1562499999999997
 40
0.1874999999999996
 40
0.1874999999999996
 40
0.2187499999999996
 40
0.2187499999999996
 40
0.2499999999999996
 40
0.2499999999999996
 40
0.3124999999999997
 40
0.3124999999999997
 40
0.3749999999999997
 40
0.3749999999999997
 40
0.4374999999999998
 40
0.4374999999999998
 40
0.4996684441597496
 40
0.4996684441597496
 40
0.4996684441597496
 40
0.4996684441597496
 10
373.4468924538613
 20
375.9770477043571
 30
0.0
 10
373.4538685517156
 20
375.9812680329317
 30
0.0
 10
373.4521043475681
 20
376.0098853877954
 30
0.0
 10
373.4790086087681
 20
376.1097529565158
 30
0.0
 10
373.5001131302369
 20
376.1895680024378
 30
0.0
 10
373.58447052022
 20
376.5064220258374
 30
0.0
 10
373.6690552298521
 20
376.8240435700528
 30
0.0
 10
373.996511997696
 20
378.0535593321868
 30
0.0
 10
374.3191048883388
 20
379.2650515184066
 30
0.0
 10
374.9304075869606
 20
381.5608215185123
 30
0.0
 10
375.150845063799
 20
382.3886879892699
 30
0.0
 10
375.6231063400579
 20
384.1623619558732
 30
0.0
 10
375.8779482046813
 20
385.1194954853125
 30
0.0
 10
376.4060294640677
 20
387.1029109301155
 30
0.0
 10
376.6776894711541
 20
388.1233166183576
 30
0.0
 10
377.236129124166
 20
390.2208849402069
 30
0.0
 10
377.5244620708324
 20
391.3039940248126
 30
0.0
 10
378.3856300310069
 20
394.5388850613579
 30
0.0
 10
378.9597839086803
 20
396.6951743526017
 30
0.0
 10
380.0231048714335
 20
400.6919158041591
 30
0.0
 10
380.5109061209293
 20
402.5237060512377
 30
0.0
 10
381.3168888671822
 20
405.552214908932
 30
0.0
 10
381.6387407524477
 20
406.7616559854643
 30
0.0
 10
382.076338695237
 20
408.4060929926839
 30
0.0
 10
382.2086912909016
 20
408.8277732577826
 30
0.0
 10
382.1898312199582
 20
408.8328582933981
 30
0.0
  0
SPLINE
  5
96
330
91
100
AcDbEntity
  8
09330038_AUSLAUF
  6
Continuous
 62
     7
100
AcDbSpline
210
0.0
220
0.0
230
1.0
 70
     8
 71
     3
 72
    34
 73
    30
 74
     0
 42
0.0000000001503335
 43
0.0000000001
 40
0.1085228666468506
 40
0.1085228666468506
 40
0.1085228666468506
 40
0.1085228666468506
 40
0.1249999999999999
 40
0.1249999999999999
 40
0.1874999999999998
 40
0.1874999999999998
 40
0.2499999999999998
 40
0.2499999999999998
 40
0.3124999999999998
 40
0.3124999999999998
 40
0.3437499999999998
 40
0.3437499999999998
 40
0.3749999999999998
 40
0.3749999999999998
 40
0.4062499999999999
 40
0.4062499999999999
 40
0.4374999999999999
 40
0.4374999999999999
 40
0.4687499999999999
 40
0.4687499999999999
 40
0.4999999999999999
 40
0.4999999999999999
 40
0.5312499999999999
 40
0.5312499999999999
 40
0.5624999999999998
 40
0.5624999999999998
 40
0.5937499999999998
 40
0.5937499999999998
 40
0.6089320373853195
 40
0.6089320373853195
 40
0.6089320373853195
 40
0.6089320373853195
 10
342.2508694380885
 20
383.5001779072941
 30
0.0
 10
342.2508161278182
 20
383.5001549072943
 30
0.0
 10
342.285635989421
 20
383.517682725265
 30
0.0
 10
342.6197573896572
 20
383.6857948299731
 30
0.0
 10
343.3948595689876
 20
384.077637282157
 30
0.0
 10
345.5487855686721
 20
385.1013685670725
 30
0.0
 10
346.9406357055025
 20
385.7414063324271
 30
0.0
 10
350.0413602484224
 20
386.9617293008515
 30
0.0
 10
351.7940107136573
 20
387.5773672791704
 30
0.0
 10
354.6355618461321
 20
388.0630195164579
 30
0.0
 10
355.6313848103644
 20
388.1454538510013
 30
0.0
 10
357.6160412447773
 20
388.0093786708575
 30
0.0
 10
358.6157645271107
 20
387.7797622148336
 30
0.0
 10
360.4555879052418
 20
387.0260917061997
 30
0.0
 10
361.3111963584931
 20
386.5052097371408
 30
0.0
 10
362.8470321056546
 20
385.3599021905995
 30
0.0
 10
363.5507285474883
 20
384.7227896833938
 30
0.0
 10
364.8288491061841
 20
383.449496207591
 30
0.0
 10
365.4099307514137
 20
382.8074532491052
 30
0.0
 10
366.4890208652878
 20
381.5503372118609
 30
0.0
 10
366.9884826278278
 20
380.9317818784687
 30
0.0
 10
367.877968733388
 20
379.7950437768869
 30
0.0
 10
368.2729388718386
 20
379.2707685755353
 30
0.0
 10
368.9619716611883
 20
378.3396174846451
 30
0.0
 10
369.2566211054158
 20
377.9315087837247
 30
0.0
 10
369.7011332606542
 20
377.3105721195322
 30
0.0
 10
369.8570228360966
 20
377.0894820083619
 30
0.0
 10
369.9702511449173
 20
376.9288602395734
 30
0.0
 10
369.9888291008425
 20
376.9025119839876
 30
0.0
 10
369.9888442622905
 20
376.9024934942451
 30
0.0
  0
ARC
  5
97
330
91
100
AcDbEntity
  8
09330038_AUSLAUF
  6
Continuous
 62
     7
100
AcDbCircle
 10
372.9672316746
 20
377.8799027579
 30
0.0
 40
1.954292346767882
100
AcDbArc
 50
284.1275739413
 51
334.1284735221
  0
ARC
  5
98
330
91
100
AcDbEntity
  8
09330038_AUSLAUF
  6
Continuous
 62
     7
100
AcDbCircle
 10
380.8253088169
 20
407.3708187649
 30
0.0
 40
2.000023087029373
100
AcDbArc
 50
356.2013281258
 51
47.283892128
  0
ARC
  5
99
330
91
100
AcDbEntity
  8
09330038_AUSLAUF
  6
Continuous
 62
     7
100
AcDbCircle
 10
302.4977413857
 20
412.5710806103
 30
0.0
 40
80.50000000000001
100
AcDbArc
 50
333.7977074203
 51
356.2014629588
  0
LINE
  5
9A
330
91
100
AcDbEntity
  8
09330038_AUSLAUF
  6
Continuous
 62
     7
100
AcDbLine
 10
206.1881513857
 20
395.7383306103
 30
0.0
 11
225.1881513857
 21
395.7383306103
 31
0.0
  0
LINE
  5
9B
330
91
100
AcDbEntity
  8
09330038_AUSLAUF
  6
Continuous
 62
     7
100
AcDbLine
 10
225.1881513857
 20
429.7383306103
 30
0.0
 11
206.1881513857
 21
429.7383306103
 31
0.0
  0
ARC
  5
9C
330
91
100
AcDbEntity
  8
09330038_AUSLAUF
  6
Continuous
 62
     7
100
AcDbCircle
 10
225.1881513857
 20
-170.2616693897
 30
0.0
 40
566.0
100
AcDbArc
 50
74.8150876067
 51
75.177682168
  0
ARC
  5
9D
330
91
100
AcDbEntity
  8
09330038_AUSLAUF
  6
Continuous
 62
     7
100
AcDbCircle
 10
225.1881513857
 20
-170.2616693897
 30
0.0
 40
566.0
100
AcDbArc
 50
78.0636456074
 51
90.0
  0
ARC
  5
9E
330
91
100
AcDbEntity
  8
09330038_AUSLAUF
  6
Continuous
 62
     7
100
AcDbCircle
 10
225.1881513857
 20
-170.2616693897
 30
0.0
 40
600.0000000000001
100
AcDbArc
 50
74.8307470594
 51
90.0
  0
LINE
  5
9F
330
91
100
AcDbEntity
  8
09331038_ROSETTE
  6
Continuous
 62
     7
100
AcDbLine
 10
180.1881513857
 20
382.7383306103
 30
0.0
 11
180.1881513857
 21
442.7383306103
 31
0.0
  0
LINE
  5
A0
330
91
100
AcDbEntity
  8
09331038_ROSETTE
  6
Continuous
 62
     7
100
AcDbLine
 10
205.1881513857
 20
382.7383306103
 30
0.0
 11
205.1881513857
 21
442.7383306103
 31
0.0
  0
LINE
  5
A1
330
91
100
AcDbEntity
  8
09331038_ROSETTE
  6
Continuous
 62
     7
100
AcDbLine
 10
206.1881513857
 20
441.7383306103
 30
0.0
 11
206.1881513857
 21
383.7383306103
 31
0.0
  0
LINE
  5
A2
330
91
100
AcDbEntity
  8
09331038_ROSETTE
  6
Continuous
 62
     7
100
AcDbLine
 10
180.1881513857
 20
382.7383306103
 30
0.0
 11
205.1881513857
 21
382.7383306103
 31
0.0
  0
LINE
  5
A3
330
91
100
AcDbEntity
  8
09331038_ROSETTE
  6
Continuous
 62
     7
100
AcDbLine
 10
205.1881513857
 20
442.7383306103
 30
0.0
 11
180.1881513857
 21
442.7383306103
 31
0.0
  0
ARC
  5
A4
330
91
100
AcDbEntity
  8
09331038_ROSETTE
  6
Continuous
 62
     7
100
AcDbCircle
 10
205.1881513857
 20
441.7383306103
 30
0.0
 40
1.000000000000004
100
AcDbArc
 50
0.0
 51
90.0
  0
ARC
  5
A5
330
91
100
AcDbEntity
  8
09331038_ROSETTE
  6
Continuous
 62
     7
100
AcDbCircle
 10
205.1881513857
 20
383.7383306103
 30
0.0
 40
1.000000000000001
100
AcDbArc
 50
270.0
 51
0.0
  0
LINE
  5
A6
330
91
100
AcDbEntity
  8
09328038_GEH_SIS
  6
Continuous
 62
     7
100
AcDbLine
 10
367.0370139983
 20
371.6825065661
 30
0.0
 11
342.4059054279
 21
378.2823922162
 31
0.0
  0
LINE
  5
A7
330
91
100
AcDbEntity
  8
09328038_GEH_SIS
  6
Continuous
 62
     7
100
AcDbLine
 10
359.9273440922
 20
374.3346831027
 30
0.0
 11
368.4312078378
 21
372.0560796795
 31
0.0
  0
SPLINE
  5
A8
330
91
100
AcDbEntity
  8
09328038_GEH_SIS
  6
Continuous
 62
     7
100
AcDbSpline
210
0.0
220
0.0
230
1.0
 70
     8
 71
     3
 72
    16
 73
    12
 74
     0
 42
0.0000000009541893
 43
0.0000000001
 40
0.0
 40
0.0
 40
0.0
 40
0.0
 40
0.25
 40
0.25
 40
0.5
 40
0.5
 40
0.75
 40
0.75
 40
0.875
 40
0.875
 40
1.0
 40
1.0
 40
1.0
 40
1.0
 10
349.8891484473469
 20
377.0244095191837
 30
0.0
 10
350.6666028434738
 20
376.6266557719878
 30
0.0
 10
351.4690223794947
 20
376.2596583509956
 30
0.0
 10
353.0942671463309
 20
375.6204183319867
 30
0.0
 10
353.9196214704857
 20
375.3467427679032
 30
0.0
 10
355.5974214081817
 20
374.8971531901815
 30
0.0
 10
356.4498685240407
 20
374.7212445978025
 30
0.0
 10
357.7477489329373
 20
374.5267019051478
 30
0.0
 10
358.184828236846
 20
374.4732154219683
 30
0.0
 10
359.0572760675086
 20
374.3882903460985
 30
0.0
 10
359.492670581122
 20
374.3567425904421
 30
0.0
 10
359.9273440922005
 20
374.3346831026795
 30
0.0
  0
ELLIPSE
  5
A9
330
91
100
AcDbEntity
  8
09328038_GEH_SIS
  6
Continuous
 62
     7
100
AcDbEllipse
 10
354.0729737422
 20
372.5622667998
 30
0.0
 11
13.52296156804703
 21
-3.623466631435389
 31
0.0
210
0.0
220
0.0
230
1.0
 40
0.5773505684
 41
1.19054512010197
 42
1.951047533487834
  0
LINE
  5
AA
330
91
100
AcDbEntity
  8
09328038_GEH_SIS
  6
Continuous
 62
     7
100
AcDbLine
 10
350.9964571162
 20
381.1569417308
 30
0.0
 11
349.8891484473
 21
377.0244095192
 31
0.0
  0
LINE
  5
AB
330
91
100
AcDbEntity
  8
09328038_GEH_SIS
  6
Continuous
 62
     7
100
AcDbLine
 10
350.9964571162
 20
381.1569417308
 30
0.0
 11
361.034652761
 21
378.4672153143
 31
0.0
  0
LINE
  5
AC
330
91
100
AcDbEntity
  8
09328038_GEH_SIS
  6
Continuous
 62
     7
100
AcDbLine
 10
361.034652761
 20
378.4672153143
 30
0.0
 11
359.9273440922
 21
374.3346831027
 31
0.0
  0
LINE
  5
AD
330
91
100
AcDbEntity
  8
09328038_GEH_SIS
  6
Continuous
 62
     7
100
AcDbLine
 10
341.3852847017
 20
379.3030129424
 30
0.0
 11
349.8891484473
 21
377.0244095192
 31
0.0
  0
LINE
  5
AE
330
91
100
AcDbEntity
  8
09328038_GEH_SIS
  6
Continuous
 62
     7
100
AcDbLine
 10
368.4312078378
 20
372.0560796795
 30
0.0
 11
369.8010444235
 21
377.1683794153
 31
0.0
  0
LINE
  5
AF
330
91
100
AcDbEntity
  8
09328038_GEH_SIS
  6
Continuous
 62
     7
100
AcDbLine
 10
342.550202839
 20
383.6505466175
 30
0.0
 11
341.3852847017
 21
379.3030129424
 31
0.0
  0
LINE
  5
B0
330
91
100
AcDbEntity
  8
09328038_GEH_SIS
  6
Continuous
 62
     7
100
AcDbLine
 10
341.3852847017
 20
379.3030129424
 30
0.0
 11
342.4059054279
 21
378.2823922162
 31
0.0
  0
LINE
  5
B1
330
91
100
AcDbEntity
  8
09328038_GEH_SIS
  6
Continuous
 62
     7
100
AcDbLine
 10
367.0370139983
 20
371.6825065661
 30
0.0
 11
368.4312078378
 21
372.0560796795
 31
0.0
  0
ENDBLK
  5
B3
330
91
100
AcDbEntity
  8
0
100
AcDbBlockEnd
  0
BLOCK
  5
C2
330
B4
100
AcDbEntity
  8
0
100
AcDbBlockBegin
  2
SE2
 70
     0
 10
0.0
 20
0.0
 30
0.0
  3
SE2
  1

  0
SPLINE
  5
B6
330
B4
100
AcDbEntity
  8
09330038_AUSLAUF
  6
Continuous
 62
     7
100
AcDbSpline
210
0.0
220
0.0
230
1.0
 70
     8
 71
     3
 72
    28
 73
    24
 74
     0
 42
0.0000000001358645
 43
0.0000000001
 40
0.2500582149400442
 40
0.2500582149400442
 40
0.2500582149400442
 40
0.2500582149400442
 40
0.3125000000000007
 40
0.3125000000000007
 40
0.3750000000000006
 40
0.3750000000000006
 40
0.4375000000000006
 40
0.4375000000000006
 40
0.5000000000000006
 40
0.5000000000000006
 40
0.5312500000000006
 40
0.5312500000000006
 40
0.5625000000000004
 40
0.5625000000000004
 40
0.5937500000000004
 40
0.5937500000000004
 40
0.6250000000000003
 40
0.6250000000000003
 40
0.6875000000000002
 40
0.6875000000000002
 40
0.7500000000000001
 40
0.7500000000000001
 40
0.7501513199495763
 40
0.7501513199495763
 40
0.7501513199495763
 40
0.7501513199495763
 10
70.64940851189728
 20
111.3587515544502
 30
0.0
 10
70.64721134073176
 20
110.7851742901853
 30
0.0
 10
71.08829864105198
 20
110.2115947449904
 30
0.0
 10
72.80127095206753
 20
109.148768991566
 30
0.0
 10
74.07457892943984
 20
108.6609677420701
 30
0.0
 10
77.21760181356777
 20
107.8549849958174
 30
0.0
 10
79.09016372907924
 20
107.5331331105519
 30
0.0
 10
83.21621589439413
 20
107.094371375637
 30
0.0
 10
85.44915684274856
 20
106.9617732924606
 30
0.0
 10
88.80384377462967
 20
106.9926493164986
 30
0.0
 10
89.92237171368491
 20
107.0118004525327
 30
0.0
 10
92.10258877617406
 20
107.1249480721984
 30
0.0
 10
93.15808375290668
 20
107.2080734022991
 30
0.0
 10
95.20092314456433
 20
107.4266475916943
 30
0.0
 10
96.19534200718329
 20
107.5638292469498
 30
0.0
 10
98.03319735222037
 20
107.8806247492297
 30
0.0
 10
98.88632563953546
 20
108.0607815207767
 30
0.0
 10
101.2451231043581
 20
108.6676791380902
 30
0.0
 10
102.5126233393857
 20
109.1574940759928
 30
0.0
 10
104.20103634909
 20
110.2062759810874
 30
0.0
 10
104.6503476334637
 20
110.7858812673615
 30
0.0
 10
104.649396325009
 20
111.3576809308267
 30
0.0
 10
104.6493914722927
 20
111.3590619737678
 30
0.0
 10
104.6493840647967
 20
111.3604430076806
 30
0.0
  0
SPLINE
  5
B7
330
B4
100
AcDbEntity
  8
09330038_AUSLAUF
  6
Continuous
 62
     7
100
AcDbSpline
210
0.0
220
0.0
230
1.0
 70
     8
 71
     3
 72
    48
 73
    44
 74
     0
 42
0.0000000002794573
 43
0.0000000001
 40
0.0
 40
0.0
 40
0.0
 40
0.0
 40
0.0179713415884061
 40
0.0349310760849041
 40
0.0477128885421966
 40
0.05720750840461
 40
0.0669654088923365
 40
0.0880660398942354
 40
0.111517601278322
 40
0.1488240368759815
 40
0.1863310754909399
 40
0.221949551840751
 40
0.2496045127674174
 40
0.2792049968059691
 40
0.3107524377096691
 40
0.3442485221876724
 40
0.3796963701730287
 40
0.417097154757912
 40
0.4425444231995018
 40
0.4678576950516488
 40
0.492951234214335
 40
0.5180520640371131
 40
0.5429505046901429
 40
0.5677155555511746
 40
0.604612399865134
 40
0.6412233081801272
 40
0.6703163458784019
 40
0.6992344032092185
 40
0.7274644759321285
 40
0.7528247887090828
 40
0.7750661811073994
 40
0.7941841157745884
 40
0.8101748559549593
 40
0.8231577119745471
 40
0.8383376576188701
 40
0.8578743527956905
 40
0.8767398830976496
 40
0.8970489966301534
 40
0.9191354407360831
 40
0.9375601088479274
 40
0.9577072505478069
 40
0.9796240457061408
 40
1.0
 40
1.0
 40
1.0
 40
1.0
 10
70.84323089867523
 20
110.7059502878643
 30
0.0
 10
70.92839572300544
 20
110.5650950702296
 30
0.0
 10
71.06962198146715
 20
110.3354685856731
 30
0.0
 10
71.34492756944543
 20
110.0146238186998
 30
0.0
 10
71.58935712893764
 20
109.7729385769643
 30
0.0
 10
71.79549336351315
 20
109.5923485258743
 30
0.0
 10
72.06396554943454
 20
109.3778531995283
 30
0.0
 10
72.44745587429966
 20
109.1113282502795
 30
0.0
 10
73.07726076968723
 20
108.7447561103417
 30
0.0
 10
73.91677866801334
 20
108.3519525017689
 30
0.0
 10
74.97346527681448
 20
107.9620485159512
 30
0.0
 10
76.02152003958494
 20
107.6499819857928
 30
0.0
 10
77.06813469652742
 20
107.3897697804178
 30
0.0
 10
78.14083018892343
 20
107.1637559901768
 30
0.0
 10
79.35649718796887
 20
106.9507761623866
 30
0.0
 10
80.71985410272238
 20
106.7575373770702
 30
0.0
 10
82.2309425379006
 20
106.5916705039234
 30
0.0
 10
83.68055227574585
 20
106.4775474741594
 30
0.0
 10
85.00856931486922
 20
106.4064251069973
 30
0.0
 10
86.16511626353515
 20
106.3672801157966
 30
0.0
 10
87.32395615025516
 20
106.35
 30
0.0
 10
88.47815829044515
 20
106.3549845207237
 30
0.0
 10
89.62315239200693
 20
106.3813374965862
 30
0.0
 10
90.93723067707275
 20
106.4366006088011
 30
0.0
 10
92.40436393013053
 20
106.5338373441603
 30
0.0
 10
93.88760984836217
 20
106.6772023370048
 30
0.0
 10
95.20207493219496
 20
106.8426501062295
 30
0.0
 10
96.34936972670485
 20
107.0192275252575
 30
0.0
 10
97.39178951140367
 20
107.2113566259492
 30
0.0
 10
98.29704066469829
 20
107.4070902055282
 30
0.0
 10
99.0491975704245
 20
107.5937035753858
 30
0.0
 10
99.6608825811406
 20
107.7644961661736
 30
0.0
 10
100.1496450878495
 20
107.9155227050684
 30
0.0
 10
100.5784722814075
 20
108.0594763678158
 30
0.0
 10
101.0381487541377
 20
108.2272069132466
 30
0.0
 10
101.5365343389794
 20
108.4293963854395
 30
0.0
 10
102.0494599654601
 20
108.6662748393917
 30
0.0
 10
102.5524272702163
 20
108.9323066703756
 30
0.0
 10
103.0095520505225
 20
109.2160294583742
 30
0.0
 10
103.4413096813853
 20
109.5343983536206
 30
0.0
 10
103.8296376789259
 20
109.880314227683
 30
0.0
 10
104.1915728582354
 20
110.2799588301798
 30
0.0
 10
104.3600562112633
 20
110.550634512698
 30
0.0
 10
104.4548638980565
 20
110.7058816081756
 30
0.0
  0
LINE
  5
B8
330
B4
100
AcDbEntity
  8
09330038_AUSLAUF
  6
Continuous
 62
     7
100
AcDbLine
 10
70.6494001796
 20
282.9837224773
 30
0.0
 11
70.6494001796
 21
263.9837224773
 31
0.0
  0
LINE
  5
B9
330
B4
100
AcDbEntity
  8
09330038_AUSLAUF
  6
Continuous
 62
     7
100
AcDbLine
 10
104.6494001796
 20
263.9837224773
 30
0.0
 11
104.6494001796
 21
282.9837224773
 31
0.0
  0
LINE
  5
BA
330
B4
100
AcDbEntity
  8
09330038_AUSLAUF
  6
Continuous
 62
     7
100
AcDbLine
 10
104.6494001796
 20
111.3543831734
 30
0.0
 11
104.6494001796
 21
263.9837224773
 31
0.0
  0
LINE
  5
BB
330
B4
100
AcDbEntity
  8
09330038_AUSLAUF
  6
Continuous
 62
     7
100
AcDbLine
 10
70.6494001796
 20
263.9837224773
 30
0.0
 11
70.6494001796
 21
111.3542844783
 31
0.0
  0
LINE
  5
BC
330
B4
100
AcDbEntity
  8
09331038_ROSETTE
  6
Continuous
 62
     7
100
AcDbLine
 10
117.6494001796
 20
308.9837224773
 30
0.0
 11
57.6494001796
 21
308.9837224773
 31
0.0
  0
LINE
  5
BD
330
B4
100
AcDbEntity
  8
09331038_ROSETTE
  6
Continuous
 62
     7
100
AcDbLine
 10
58.6494001796
 20
282.9837224773
 30
0.0
 11
116.6494001796
 21
282.9837224773
 31
0.0
  0
LINE
  5
BE
330
B4
100
AcDbEntity
  8
09331038_ROSETTE
  6
Continuous
 62
     7
100
AcDbLine
 10
57.6494001796
 20
308.9837224773
 30
0.0
 11
57.6494001796
 21
283.9837224773
 31
0.0
  0
LINE
  5
BF
330
B4
100
AcDbEntity
  8
09331038_ROSETTE
  6
Continuous
 62
     7
100
AcDbLine
 10
117.6494001796
 20
283.9837224773
 30
0.0
 11
117.6494001796
 21
308.9837224773
 31
0.0
  0
ARC
  5
C0
330
B4
100
AcDbEntity
  8
09331038_ROSETTE
  6
Continuous
 62
     7
100
AcDbCircle
 10
116.6494001796
 20
283.9837224773
 30
0.0
 40
1.000000000000004
100
AcDbArc
 50
270.0
 51
0.0
  0
ARC
  5
C1
330
B4
100
AcDbEntity
  8
09331038_ROSETTE
  6
Continuous
 62
     7
100
AcDbCircle
 10
58.6494001796
 20
283.9837224773
 30
0.0
 40
1.000000000000001
100
AcDbArc
 50
180.0
 51
270.0
  0
ENDBLK
  5
C3
330
B4
100
AcDbEntity
  8
0
100
AcDbBlockEnd
  0
ENDSEC
  0
SECTION
  2
ENTITIES
  0
INSERT
  5
5F
330
1F
100
AcDbEntity
  8
Default
100
AcDbBlockReference
  2
SEANNOT_GROUP
 10
0.0
 20
0.0
 30
0.0
  0
INSERT
  5
6A
330
1F
100
AcDbEntity
  8
Default
100
AcDbBlockReference
  2
SEANNOT_GROUP1
 10
0.0
 20
0.0
 30
0.0
  0
INSERT
  5
70
330
1F
100
AcDbEntity
  8
Default
100
AcDbBlockReference
  2
SEANNOT_GROUP2
 10
0.0
 20
0.0
 30
0.0
  0
INSERT
  5
76
330
1F
100
AcDbEntity
  8
Default
100
AcDbBlockReference
  2
SE
 10
0.0
 20
0.0
 30
0.0
  0
INSERT
  5
92
330
1F
100
AcDbEntity
  8
Default
100
AcDbBlockReference
  2
SE1
 10
0.0
 20
0.0
 30
0.0
  0
INSERT
  5
B5
330
1F
100
AcDbEntity
  8
Default
100
AcDbBlockReference
  2
SE2
 10
0.0
 20
0.0
 30
0.0
  0
TEXT
  5
C5
330
1F
100
AcDbEntity
  8
Default
  6
Continuous
 62
     7
100
AcDbText
 10
5.9362635081
 20
53.4225120485
 30
0.0
 40
10.0
  1
Grohe AG^J
  7
SEACAD_seiso_ttf
 11
5.9362635081
 21
63.4225120485
 31
0.0
100
AcDbText
 73
     3
  0
TEXT
  5
C6
330
1F
100
AcDbEntity
  8
Default
  6
Continuous
 62
     7
100
AcDbText
 10
5.9362635081
 20
37.0588756849
 30
0.0
 40
10.0
  1
 
  7
SEACAD_seiso_ttf
 11
5.9362635081
 21
47.0588756849
 31
0.0
100
AcDbText
 73
     3
  0
TEXT
  5
C7
330
1F
100
AcDbEntity
  8
Default
  6
Continuous
 62
     7
100
AcDbText
 10
5.9362635081
 20
20.6952393213
 30
0.0
 40
10.0
  1
ecn: 
  7
SEACAD_seiso_ttf
 11
5.9362635081
 21
30.6952393213
 31
0.0
100
AcDbText
 73
     3
  0
TEXT
  5
C8
330
1F
100
AcDbEntity
  8
Default
  6
Continuous
 62
     7
100
AcDbText
 10
5.9362635081
 20
4.3316029576
 30
0.0
 40
10.0
  1
unit: mm
  7
SEACAD_seiso_ttf
 11
5.9362635081
 21
14.3316029576
 31
0.0
100
AcDbText
 73
     3
  0
LINE
  5
C9
330
1F
100
AcDbEntity
  8
Default
  6
Continuous
 62
     7
100
AcDbLine
 10
0.0
 20
0.0
 30
0.0
 11
100.0
 21
0.0
 31
0.0
  0
LINE
  5
CA
330
1F
100
AcDbEntity
  8
Default
  6
Continuous
 62
     7
100
AcDbLine
 10
0.0
 20
0.0
 30
0.0
 11
0.0
 21
100.0
 31
0.0
  0
TEXT
  5
CB
330
1F
100
AcDbEntity
  8
Default
  6
Continuous
 62
     7
100
AcDbText
 10
24.3923665681
 20
-18.2375342018
 30
0.0
 40
10.0
  1
100 mm
  7
SEACAD_seiso_ttf
 11
24.3923665681
 21
-8.2375342018
 31
0.0
100
AcDbText
 73
     3
  0
TEXT
  5
CC
330
1F
100
AcDbEntity
  8
Default
  6
Continuous
 62
     7
100
AcDbText
 10
-7.6150308803
 20
24.6231930421
 30
0.0
 40
10.0
  1
100 mm
 50
90.0
  7
SEACAD_seiso_ttf
 11
-17.6150308803
 21
24.6231930421
 31
0.0
100
AcDbText
 73
     3
  0
TEXT
  5
CD
330
1F
100
AcDbEntity
  8
Default
  6
Continuous
 62
     7
100
AcDbText
 10
28.4878128572
 20
20.0907663715
 30
0.0
 40
10.0
  1
84266
  7
SEACAD_seiso_ttf
 11
28.4878128572
 21
30.0907663715
 31
0.0
100
AcDbText
 73
     3
  0
TEXT
  5
CE
330
1F
100
AcDbEntity
  8
Default
  6
Continuous
 62
     7
100
AcDbText
 10
5.9012241913
 20
36.7242780188
 30
0.0
 40
10.0
  1
13144000
  7
SEACAD_seiso_ttf
 11
5.9012241913
 21
46.7242780188
 31
0.0
100
AcDbText
 73
     3
  0
ENDSEC
  0
SECTION
  2
OBJECTS
  0
DICTIONARY
  5
C
330
0
100
AcDbDictionary
281
     1
  3
ACAD_GROUP
350
D
  3
ACAD_LAYOUT
350
1A
  3
ACAD_MLEADERSTYLE
350
D2
  3
ACAD_MLINESTYLE
350
17
  3
ACAD_PLOTSETTINGS
350
19
  3
ACAD_PLOTSTYLENAME
350
E
  3
ACAD_SCALELIST
350
3B
  3
ACAD_TABLESTYLE
350
D1
  3
ACAD_VISUALSTYLE
350
2A
  3
AcDbVariableDictionary
350
CF
  0
DICTIONARY
  5
D
102
{ACAD_REACTORS
330
C
102
}
330
C
100
AcDbDictionary
281
     1
  0
DICTIONARY
  5
1A
102
{ACAD_REACTORS
330
C
102
}
330
C
100
AcDbDictionary
281
     1
  3
Layout1
350
1E
  3
Model
350
22
  0
DICTIONARY
  5
D2
102
{ACAD_REACTORS
330
C
102
}
330
C
100
AcDbDictionary
281
     1
  0
DICTIONARY
  5
17
102
{ACAD_REACTORS
330
C
102
}
330
C
100
AcDbDictionary
281
     1
  3
Standard
350
18
  0
DICTIONARY
  5
19
102
{ACAD_REACTORS
330
C
102
}
330
C
100
AcDbDictionary
281
     1
  0
ACDBDICTIONARYWDFLT
  5
E
102
{ACAD_REACTORS
330
C
102
}
330
C
100
AcDbDictionary
281
     1
  3
Normal
350
F
100
AcDbDictionaryWithDefault
340
F
  0
DICTIONARY
  5
3B
102
{ACAD_REACTORS
330
C
102
}
330
C
100
AcDbDictionary
281
     1
  3
A0
350
3C
  3
A1
350
3D
  3
A2
350
3E
  3
A3
350
3F
  3
A4
350
40
  3
A5
350
41
  3
A6
350
42
  3
A7
350
43
  3
A8
350
44
  3
A9
350
45
  3
B0
350
46
  3
B1
350
47
  3
B2
350
48
  3
B3
350
49
  3
B4
350
4A
  3
B5
350
4B
  3
B6
350
4C
  3
B7
350
4D
  3
B8
350
4E
  3
B9
350
4F
  3
C0
350
50
  3
C1
350
51
  3
C2
350
52
  3
C3
350
53
  3
C4
350
54
  3
C5
350
55
  3
C6
350
56
  3
C7
350
57
  3
C8
350
58
  3
C9
350
59
  3
D0
350
5A
  3
D1
350
5B
  3
D2
350
5C
  0
DICTIONARY
  5
D1
102
{ACAD_REACTORS
330
C
102
}
330
C
100
AcDbDictionary
281
     1
  0
DICTIONARY
  5
2A
102
{ACAD_REACTORS
330
C
102
}
330
C
100
AcDbDictionary
281
     1
  3
2dWireframe
350
2F
  3
3D Hidden
350
31
  3
3dWireframe
350
30
  3
Basic
350
32
  3
Brighten
350
36
  3
ColorChange
350
3A
  3
Conceptual
350
34
  3
Dim
350
35
  3
Facepattern
350
39
  3
Flat
350
2B
  3
FlatWithEdges
350
2C
  3
Gouraud
350
2D
  3
GouraudWithEdges
350
2E
  3
Linepattern
350
38
  3
Realistic
350
33
  3
Thicken
350
37
  0
DICTIONARY
  5
CF
102
{ACAD_REACTORS
330
C
102
}
330
C
100
AcDbDictionary
281
     1
  3
CANNOSCALE
350
D0
  3
PSOLHEIGHT
350
D4
  3
PSOLWIDTH
350
D3
  0
LAYOUT
  5
1E
102
{ACAD_REACTORS
330
1A
102
}
330
1A
100
AcDbPlotSettings
  1

  2
none_device
  4

  6

 40
0.0
 41
0.0
 42
0.0
 43
0.0
 44
0.0
 45
0.0
 46
0.0
 47
0.0
 48
0.0
 49
0.0
140
0.0
141
0.0
142
1.0
143
1.0
 70
   688
 72
     0
 73
     0
 74
     5
  7

 75
    16
147
1.0
148
0.0
149
0.0
100
AcDbLayout
  1
Layout1
 70
     1
 71
     1
 10
0.0
 20
0.0
 11
1682.0
 21
2378.0
 12
0.0
 22
0.0
 32
0.0
 14
0.0
 24
0.0
 34
0.0
 15
1682.0
 25
2378.0
 35
0.0
146
0.0
 13
0.0
 23
0.0
 33
0.0
 16
1.0
 26
0.0
 36
0.0
 17
0.0
 27
1.0
 37
0.0
 76
     0
330
1B
  0
LAYOUT
  5
22
102
{ACAD_REACTORS
330
1A
102
}
330
1A
100
AcDbPlotSettings
  1

  2
none_device
  4

  6

 40
0.0
 41
0.0
 42
0.0
 43
0.0
 44
0.0
 45
0.0
 46
0.0
 47
0.0
 48
0.0
 49
0.0
140
0.0
141
0.0
142
1.0
143
1.0
 70
  1712
 72
     0
 73
     0
 74
     0
  7

 75
     0
147
1.0
148
0.0
149
0.0
100
AcDbLayout
  1
Model
 70
     1
 71
     0
 10
0.0
 20
0.0
 11
1682.0
 21
2378.0
 12
0.0
 22
0.0
 32
0.0
 14
0.0
 24
0.0
 34
0.0
 15
1682.0
 25
2378.0
 35
0.0
146
0.0
 13
0.0
 23
0.0
 33
0.0
 16
1.0
 26
0.0
 36
0.0
 17
0.0
 27
1.0
 37
0.0
 76
     0
330
1F
331
29
  0
MLINESTYLE
  5
18
102
{ACAD_REACTORS
330
17
102
}
330
17
100
AcDbMlineStyle
  2
Standard
 70
     0
  3

 62
   256
 51
90.0
 52
90.0
 71
     2
 49
0.5
 62
   256
  6
BYLAYER
 49
-0.5
 62
   256
  6
BYLAYER
  0
ACDBPLACEHOLDER
  5
F
102
{ACAD_REACTORS
330
E
102
}
330
E
  0
SCALE
  5
3C
102
{ACAD_REACTORS
330
3B
102
}
330
3B
100
AcDbScale
 70
     0
300
1:1
140
1.0
141
1.0
290
     1
  0
SCALE
  5
3D
102
{ACAD_REACTORS
330
3B
102
}
330
3B
100
AcDbScale
 70
     0
300
1:2
140
1.0
141
2.0
290
     0
  0
SCALE
  5
3E
102
{ACAD_REACTORS
330
3B
102
}
330
3B
100
AcDbScale
 70
     0
300
1:4
140
1.0
141
4.0
290
     0
  0
SCALE
  5
3F
102
{ACAD_REACTORS
330
3B
102
}
330
3B
100
AcDbScale
 70
     0
300
1:5
140
1.0
141
5.0
290
     0
  0
SCALE
  5
40
102
{ACAD_REACTORS
330
3B
102
}
330
3B
100
AcDbScale
 70
     0
300
1:8
140
1.0
141
8.0
290
     0
  0
SCALE
  5
41
102
{ACAD_REACTORS
330
3B
102
}
330
3B
100
AcDbScale
 70
     0
300
1:10
140
1.0
141
10.0
290
     0
  0
SCALE
  5
42
102
{ACAD_REACTORS
330
3B
102
}
330
3B
100
AcDbScale
 70
     0
300
1:16
140
1.0
141
16.0
290
     0
  0
SCALE
  5
43
102
{ACAD_REACTORS
330
3B
102
}
330
3B
100
AcDbScale
 70
     0
300
1:20
140
1.0
141
20.0
290
     0
  0
SCALE
  5
44
102
{ACAD_REACTORS
330
3B
102
}
330
3B
100
AcDbScale
 70
     0
300
1:30
140
1.0
141
30.0
290
     0
  0
SCALE
  5
45
102
{ACAD_REACTORS
330
3B
102
}
330
3B
100
AcDbScale
 70
     0
300
1:40
140
1.0
141
40.0
290
     0
  0
SCALE
  5
46
102
{ACAD_REACTORS
330
3B
102
}
330
3B
100
AcDbScale
 70
     0
300
1:50
140
1.0
141
50.0
290
     0
  0
SCALE
  5
47
102
{ACAD_REACTORS
330
3B
102
}
330
3B
100
AcDbScale
 70
     0
300
1:100
140
1.0
141
100.0
290
     0
  0
SCALE
  5
48
102
{ACAD_REACTORS
330
3B
102
}
330
3B
100
AcDbScale
 70
     0
300
2:1
140
2.0
141
1.0
290
     0
  0
SCALE
  5
49
102
{ACAD_REACTORS
330
3B
102
}
330
3B
100
AcDbScale
 70
     0
300
4:1
140
4.0
141
1.0
290
     0
  0
SCALE
  5
4A
102
{ACAD_REACTORS
330
3B
102
}
330
3B
100
AcDbScale
 70
     0
300
8:1
140
8.0
141
1.0
290
     0
  0
SCALE
  5
4B
102
{ACAD_REACTORS
330
3B
102
}
330
3B
100
AcDbScale
 70
     0
300
10:1
140
10.0
141
1.0
290
     0
  0
SCALE
  5
4C
102
{ACAD_REACTORS
330
3B
102
}
330
3B
100
AcDbScale
 70
     0
300
100:1
140
100.0
141
1.0
290
     0
  0
SCALE
  5
4D
102
{ACAD_REACTORS
330
3B
102
}
330
3B
100
AcDbScale
 70
     0
300
1/128" = 1'-0"
140
0.0078125
141
12.0
290
     0
  0
SCALE
  5
4E
102
{ACAD_REACTORS
330
3B
102
}
330
3B
100
AcDbScale
 70
     0
300
1/64" = 1'-0"
140
0.015625
141
12.0
290
     0
  0
SCALE
  5
4F
102
{ACAD_REACTORS
330
3B
102
}
330
3B
100
AcDbScale
 70
     0
300
1/32" = 1'-0"
140
0.03125
141
12.0
290
     0
  0
SCALE
  5
50
102
{ACAD_REACTORS
330
3B
102
}
330
3B
100
AcDbScale
 70
     0
300
1/16" = 1'-0"
140
0.0625
141
12.0
290
     0
  0
SCALE
  5
51
102
{ACAD_REACTORS
330
3B
102
}
330
3B
100
AcDbScale
 70
     0
300
3/32" = 1'-0"
140
0.09375
141
12.0
290
     0
  0
SCALE
  5
52
102
{ACAD_REACTORS
330
3B
102
}
330
3B
100
AcDbScale
 70
     0
300
1/8" = 1'-0"
140
0.125
141
12.0
290
     0
  0
SCALE
  5
53
102
{ACAD_REACTORS
330
3B
102
}
330
3B
100
AcDbScale
 70
     0
300
3/16" = 1'-0"
140
0.1875
141
12.0
290
     0
  0
SCALE
  5
54
102
{ACAD_REACTORS
330
3B
102
}
330
3B
100
AcDbScale
 70
     0
300
1/4" = 1'-0"
140
0.25
141
12.0
290
     0
  0
SCALE
  5
55
102
{ACAD_REACTORS
330
3B
102
}
330
3B
100
AcDbScale
 70
     0
300
3/8" = 1'-0"
140
0.375
141
12.0
290
     0
  0
SCALE
  5
56
102
{ACAD_REACTORS
330
3B
102
}
330
3B
100
AcDbScale
 70
     0
300
1/2" = 1'-0"
140
0.5
141
12.0
290
     0
  0
SCALE
  5
57
102
{ACAD_REACTORS
330
3B
102
}
330
3B
100
AcDbScale
 70
     0
300
3/4" = 1'-0"
140
0.75
141
12.0
290
     0
  0
SCALE
  5
58
102
{ACAD_REACTORS
330
3B
102
}
330
3B
100
AcDbScale
 70
     0
300
1" = 1'-0"
140
1.0
141
12.0
290
     0
  0
SCALE
  5
59
102
{ACAD_REACTORS
330
3B
102
}
330
3B
100
AcDbScale
 70
     0
300
1-1/2" = 1'-0"
140
1.5
141
12.0
290
     0
  0
SCALE
  5
5A
102
{ACAD_REACTORS
330
3B
102
}
330
3B
100
AcDbScale
 70
     0
300
3" = 1'-0"
140
3.0
141
12.0
290
     0
  0
SCALE
  5
5B
102
{ACAD_REACTORS
330
3B
102
}
330
3B
100
AcDbScale
 70
     0
300
6" = 1'-0"
140
6.0
141
12.0
290
     0
  0
SCALE
  5
5C
102
{ACAD_REACTORS
330
3B
102
}
330
3B
100
AcDbScale
 70
     0
300
1'-0" = 1'-0"
140
12.0
141
12.0
290
     0
  0
VISUALSTYLE
  5
2F
102
{ACAD_REACTORS
330
2A
102
}
330
2A
100
AcDbVisualStyle
  2
2dWireframe
 70
     4
 71
     0
 72
     2
 73
     0
 90
        0
 40
-0.6
 41
-30.0
 62
     5
 63
     7
 74
     1
 91
        4
 64
     7
 65
   257
 75
     1
175
     1
 42
1.0
 92
        0
 66
   257
 43
1.0
 76
     1
 77
     6
 78
     2
 67
     7
 79
     5
170
     0
171
     0
290
     0
174
     0
 93
        1
 44
0.0
173
     0
291
     0
 45
0.0
1001
ACAD
1000
AcDbSavedByObjectVersion
1070
     0
  0
VISUALSTYLE
  5
31
102
{ACAD_REACTORS
330
2A
102
}
330
2A
100
AcDbVisualStyle
  2
3D Hidden
 70
     6
 71
     1
 72
     2
 73
     2
 90
        0
 40
-0.6
 41
-30.0
 62
     5
 63
     7
 74
     2
 91
        2
 64
     7
 65
   257
 75
     2
175
     1
 42
40.0
 92
        0
 66
   257
 43
1.0
 76
     1
 77
     6
 78
     2
 67
     7
 79
     3
170
     0
171
     0
290
     0
174
     0
 93
        1
 44
0.0
173
     0
291
     0
 45
0.0
1001
ACAD
1000
AcDbSavedByObjectVersion
1070
     0
  0
VISUALSTYLE
  5
30
102
{ACAD_REACTORS
330
2A
102
}
330
2A
100
AcDbVisualStyle
  2
3dWireframe
 70
     5
 71
     0
 72
     2
 73
     0
 90
        0
 40
-0.6
 41
-30.0
 62
     5
 63
     7
 74
     1
 91
        4
 64
     7
 65
   257
 75
     1
175
     1
 42
1.0
 92
        0
 66
   257
 43
1.0
 76
     1
 77
     6
 78
     2
 67
     7
 79
     5
170
     0
171
     0
290
     0
174
     0
 93
        1
 44
0.0
173
     0
291
     0
 45
0.0
1001
ACAD
1000
AcDbSavedByObjectVersion
1070
     0
  0
VISUALSTYLE
  5
32
102
{ACAD_REACTORS
330
2A
102
}
330
2A
100
AcDbVisualStyle
  2
Basic
 70
     7
 71
     1
 72
     0
 73
     1
 90
        0
 40
-0.6
 41
-30.0
 62
     5
 63
     7
 74
     0
 91
        4
 64
     7
 65
   257
 75
     1
175
     1
 42
1.0
 92
        8
 66
     7
 43
1.0
 76
     1
 77
     6
 78
     2
 67
     7
 79
     5
170
     0
171
     0
290
     0
174
     0
 93
        1
 44
0.0
173
     0
291
     1
 45
0.0
1001
ACAD
1000
AcDbSavedByObjectVersion
1070
     0
  0
VISUALSTYLE
  5
36
102
{ACAD_REACTORS
330
2A
102
}
330
2A
100
AcDbVisualStyle
  2
Brighten
 70
    12
 71
     2
 72
     2
 73
     0
 90
        0
 40
-0.6
 41
-30.0
 62
     5
 63
     7
 74
     1
 91
        4
 64
     7
 65
   257
 75
     1
175
     1
 42
1.0
 92
        8
 66
     7
 43
1.0
 76
     1
 77
     6
 78
     2
 67
     7
 79
     5
170
     0
171
     0
290
     0
174
     0
 93
        1
 44
50.0
173
     0
291
     1
 45
0.0
1001
ACAD
1000
AcDbSavedByObjectVersion
1070
     0
  0
VISUALSTYLE
  5
3A
102
{ACAD_REACTORS
330
2A
102
}
330
2A
100
AcDbVisualStyle
  2
ColorChange
 70
    16
 71
     2
 72
     2
 73
     3
 90
        0
 40
-0.6
 41
-30.0
 62
     5
 63
     8
 74
     1
 91
        4
 64
     7
 65
   257
 75
     1
175
     1
 42
1.0
 92
        8
 66
     8
 43
1.0
 76
     1
 77
     6
 78
     2
 67
     7
 79
     5
170
     0
171
     0
290
     0
174
     0
 93
        1
 44
0.0
173
     0
291
     1
 45
0.0
1001
ACAD
1000
AcDbSavedByObjectVersion
1070
     0
  0
VISUALSTYLE
  5
34
102
{ACAD_REACTORS
330
2A
102
}
330
2A
100
AcDbVisualStyle
  2
Conceptual
 70
     9
 71
     3
 72
     2
 73
     0
 90
        0
 40
-0.6
 41
-30.0
 62
     5
 63
     7
 74
     2
 91
        2
 64
     7
 65
   257
 75
     1
175
     1
 42
40.0
 92
        8
 66
     7
 43
1.0
 76
     1
 77
     6
 78
     2
 67
     7
 79
     3
170
     0
171
     0
290
     0
174
     0
 93
        1
 44
0.0
173
     0
291
     0
 45
0.0
1001
ACAD
1000
AcDbSavedByObjectVersion
1070
     0
  0
VISUALSTYLE
  5
35
102
{ACAD_REACTORS
330
2A
102
}
330
2A
100
AcDbVisualStyle
  2
Dim
 70
    11
 71
     2
 72
     2
 73
     0
 90
        0
 40
-0.6
 41
-30.0
 62
     5
 63
     7
 74
     1
 91
        4
 64
     7
 65
   257
 75
     1
175
     1
 42
1.0
 92
        8
 66
     7
 43
1.0
 76
     1
 77
     6
 78
     2
 67
     7
 79
     5
170
     0
171
     0
290
     0
174
     0
 93
        1
 44
-50.0
173
     0
291
     1
 45
0.0
1001
ACAD
1000
AcDbSavedByObjectVersion
1070
     0
  0
VISUALSTYLE
  5
39
102
{ACAD_REACTORS
330
2A
102
}
330
2A
100
AcDbVisualStyle
  2
Facepattern
 70
    15
 71
     2
 72
     2
 73
     0
 90
        0
 40
-0.6
 41
-30.0
 62
     5
 63
     7
 74
     1
 91
        4
 64
     7
 65
   257
 75
     1
175
     1
 42
1.0
 92
        8
 66
     7
 43
1.0
 76
     1
 77
     6
 78
     2
 67
     7
 79
     5
170
     0
171
     0
290
     0
174
     0
 93
        1
 44
0.0
173
     0
291
     1
 45
0.0
1001
ACAD
1000
AcDbSavedByObjectVersion
1070
     0
  0
VISUALSTYLE
  5
2B
102
{ACAD_REACTORS
330
2A
102
}
330
2A
100
AcDbVisualStyle
  2
Flat
 70
     0
 71
     2
 72
     1
 73
     1
 90
        2
 40
-0.6
 41
30.0
 62
     5
 63
     7
 74
     0
 91
        4
 64
     7
 65
   257
 75
     1
175
     1
 42
1.0
 92
        8
 66
     7
 43
1.0
 76
     1
 77
     6
 78
     2
 67
     7
 79
     5
170
     0
171
     0
290
     0
174
     0
 93
       13
 44
0.0
173
     0
291
     1
 45
0.0
1001
ACAD
1000
AcDbSavedByObjectVersion
1070
     0
  0
VISUALSTYLE
  5
2C
102
{ACAD_REACTORS
330
2A
102
}
330
2A
100
AcDbVisualStyle
  2
FlatWithEdges
 70
     1
 71
     2
 72
     1
 73
     1
 90
        2
 40
-0.6
 41
30.0
 62
     5
 63
     7
 74
     1
 91
        4
 64
     7
 65
   257
 75
     1
175
     1
 42
1.0
 92
        0
 66
   257
 43
1.0
 76
     1
 77
     6
 78
     2
 67
     7
 79
     5
170
     0
171
     0
290
     0
174
     0
 93
       13
 44
0.0
173
     0
291
     1
 45
0.0
1001
ACAD
1000
AcDbSavedByObjectVersion
1070
     0
  0
VISUALSTYLE
  5
2D
102
{ACAD_REACTORS
330
2A
102
}
330
2A
100
AcDbVisualStyle
  2
Gouraud
 70
     2
 71
     2
 72
     2
 73
     1
 90
        2
 40
-0.6
 41
30.0
 62
     5
 63
     7
 74
     0
 91
        4
 64
     7
 65
   257
 75
     1
175
     1
 42
1.0
 92
        0
 66
     7
 43
1.0
 76
     1
 77
     6
 78
     2
 67
     7
 79
     5
170
     0
171
     0
290
     0
174
     0
 93
       13
 44
0.0
173
     0
291
     1
 45
0.0
1001
ACAD
1000
AcDbSavedByObjectVersion
1070
     0
  0
VISUALSTYLE
  5
2E
102
{ACAD_REACTORS
330
2A
102
}
330
2A
100
AcDbVisualStyle
  2
GouraudWithEdges
 70
     3
 71
     2
 72
     2
 73
     1
 90
        2
 40
-0.6
 41
30.0
 62
     5
 63
     7
 74
     1
 91
        4
 64
     7
 65
   257
 75
     1
175
     1
 42
1.0
 92
        0
 66
   257
 43
1.0
 76
     1
 77
     6
 78
     2
 67
     7
 79
     5
170
     0
171
     0
290
     0
174
     0
 93
       13
 44
0.0
173
     0
291
     1
 45
0.0
1001
ACAD
1000
AcDbSavedByObjectVersion
1070
     0
  0
VISUALSTYLE
  5
38
102
{ACAD_REACTORS
330
2A
102
}
330
2A
100
AcDbVisualStyle
  2
Linepattern
 70
    14
 71
     2
 72
     2
 73
     0
 90
        0
 40
-0.6
 41
-30.0
 62
     5
 63
     7
 74
     1
 91
        4
 64
     7
 65
   257
 75
     7
175
     7
 42
1.0
 92
        8
 66
     7
 43
1.0
 76
     1
 77
     6
 78
     2
 67
     7
 79
     5
170
     0
171
     0
290
     0
174
     0
 93
        1
 44
0.0
173
     0
291
     1
 45
0.0
1001
ACAD
1000
AcDbSavedByObjectVersion
1070
     0
  0
VISUALSTYLE
  5
33
102
{ACAD_REACTORS
330
2A
102
}
330
2A
100
AcDbVisualStyle
  2
Realistic
 70
     8
 71
     2
 72
     2
 73
     0
 90
        0
 40
-0.6
 41
-30.0
 62
     5
 63
     7
 74
     1
 91
        0
 64
     7
 65
   257
 75
     1
175
     1
 42
1.0
 92
        8
 66
     8
 43
1.0
 76
     1
 77
     6
 78
     2
 67
     7
 79
     5
170
     0
171
     0
290
     0
174
     0
 93
       13
 44
0.0
173
     0
291
     0
 45
0.0
1001
ACAD
1000
AcDbSavedByObjectVersion
1070
     0
  0
VISUALSTYLE
  5
37
102
{ACAD_REACTORS
330
2A
102
}
330
2A
100
AcDbVisualStyle
  2
Thicken
 70
    13
 71
     2
 72
     2
 73
     0
 90
        0
 40
-0.6
 41
-30.0
 62
     5
 63
     7
 74
     1
 91
        4
 64
     7
 65
   257
 75
     1
175
     1
 42
1.0
 92
       12
 66
     7
 43
1.0
 76
     1
 77
     6
 78
     2
 67
     7
 79
     5
170
     0
171
     0
290
     0
174
     0
 93
        1
 44
0.0
173
     0
291
     1
 45
0.0
1001
ACAD
1000
AcDbSavedByObjectVersion
1070
     0
  0
DICTIONARYVAR
  5
D0
102
{ACAD_REACTORS
330
CF
102
}
330
CF
100
DictionaryVariables
280
     0
  1
1:1
  0
DICTIONARYVAR
  5
D4
102
{ACAD_REACTORS
330
CF
102
}
330
CF
100
DictionaryVariables
280
     0
  1
80.000000
  0
DICTIONARYVAR
  5
D3
102
{ACAD_REACTORS
330
CF
102
}
330
CF
100
DictionaryVariables
280
     0
  1
5.000000
  0
ENDSEC
  0
EOF
