  0
SECTION
  2
HEADER
  9
$ACADVER
  1
AC1015
  9
$ACADMAINTVER
 70
     6
  9
$DWGCODEPAGE
  3
ANSI_1252
  9
$INSBASE
 10
0.0
 20
0.0
 30
0.0
  9
$EXTMIN
 10
0.0
 20
0.0
 30
0.0
  9
$EXTMAX
 10
1682.0
 20
2378.0
 30
0.0
  9
$LIMMIN
 10
0.0
 20
0.0
  9
$LIMMAX
 10
1682.0
 20
2378.0
  9
$ORTHOMODE
 70
     0
  9
$REGENMODE
 70
     1
  9
$FILLMODE
 70
     1
  9
$QTEXTMODE
 70
     0
  9
$MIRRTEXT
 70
     1
  9
$LTSCALE
 40
1.0
  9
$ATTMODE
 70
     1
  9
$TEXTSIZE
 40
2.5
  9
$TRACEWID
 40
1.0
  9
$TEXTSTYLE
  7
Standard
  9
$CLAYER
  8
0
  9
$CELTYPE
  6
ByLayer
  9
$CECOLOR
 62
   256
  9
$CELTSCALE
 40
1.0
  9
$DISPSILH
 70
     0
  9
$DIMSCALE
 40
1.0
  9
$DIMASZ
 40
2.5
  9
$DIMEXO
 40
0.625
  9
$DIMDLI
 40
3.75
  9
$DIMRND
 40
0.0
  9
$DIMDLE
 40
0.0
  9
$DIMEXE
 40
1.25
  9
$DIMTP
 40
0.0
  9
$DIMTM
 40
0.0
  9
$DIMTXT
 40
2.5
  9
$DIMCEN
 40
2.5
  9
$DIMTSZ
 40
0.0
  9
$DIMTOL
 70
     0
  9
$DIMLIM
 70
     0
  9
$DIMTIH
 70
     0
  9
$DIMTOH
 70
     0
  9
$DIMSE1
 70
     0
  9
$DIMSE2
 70
     0
  9
$DIMTAD
 70
     1
  9
$DIMZIN
 70
     8
  9
$DIMBLK
  1

  9
$DIMASO
 70
     1
  9
$DIMSHO
 70
     1
  9
$DIMPOST
  1

  9
$DIMAPOST
  1

  9
$DIMALT
 70
     0
  9
$DIMALTD
 70
     3
  9
$DIMALTF
 40
0.0393700787
  9
$DIMLFAC
 40
1.0
  9
$DIMTOFL
 70
     1
  9
$DIMTVP
 40
0.0
  9
$DIMTIX
 70
     0
  9
$DIMSOXD
 70
     0
  9
$DIMSAH
 70
     0
  9
$DIMBLK1
  1

  9
$DIMBLK2
  1

  9
$DIMSTYLE
  2
ISO-25
  9
$DIMCLRD
 70
     0
  9
$DIMCLRE
 70
     0
  9
$DIMCLRT
 70
     0
  9
$DIMTFAC
 40
1.0
  9
$DIMGAP
 40
0.625
  9
$DIMJUST
 70
     0
  9
$DIMSD1
 70
     0
  9
$DIMSD2
 70
     0
  9
$DIMTOLJ
 70
     0
  9
$DIMTZIN
 70
     8
  9
$DIMALTZ
 70
     0
  9
$DIMALTTZ
 70
     0
  9
$DIMUPT
 70
     0
  9
$DIMDEC
 70
     2
  9
$DIMTDEC
 70
     2
  9
$DIMALTU
 70
     2
  9
$DIMALTTD
 70
     3
  9
$DIMTXSTY
  7
Standard
  9
$DIMAUNIT
 70
     0
  9
$DIMADEC
 70
     0
  9
$DIMALTRND
 40
0.0
  9
$DIMAZIN
 70
     0
  9
$DIMDSEP
 70
    44
  9
$DIMATFIT
 70
     3
  9
$DIMFRAC
 70
     0
  9
$DIMLDRBLK
  1

  9
$DIMLUNIT
 70
     2
  9
$DIMLWD
 70
    -2
  9
$DIMLWE
 70
    -2
  9
$DIMTMOVE
 70
     0
  9
$LUNITS
 70
     2
  9
$LUPREC
 70
     4
  9
$SKETCHINC
 40
1.0
  9
$FILLETRAD
 40
10.0
  9
$AUNITS
 70
     0
  9
$AUPREC
 70
     0
  9
$MENU
  1
.
  9
$ELEVATION
 40
0.0
  9
$PELEVATION
 40
0.0
  9
$THICKNESS
 40
0.0
  9
$LIMCHECK
 70
     0
  9
$CHAMFERA
 40
10.0
  9
$CHAMFERB
 40
10.0
  9
$CHAMFERC
 40
20.0
  9
$CHAMFERD
 40
0.0
  9
$SKPOLY
 70
     0
  9
$TDCREATE
 40
2455442.475045151
  9
$TDUCREATE
 40
2455442.391711817
  9
$TDUPDATE
 40
2455442.475045162
  9
$TDUUPDATE
 40
2455442.391711829
  9
$TDINDWG
 40
0.0000000116
  9
$TDUSRTIMER
 40
0.0000000116
  9
$USRTIMER
 70
     1
  9
$ANGBASE
 50
0.0
  9
$ANGDIR
 70
     0
  9
$PDMODE
 70
     0
  9
$PDSIZE
 40
0.0
  9
$PLINEWID
 40
0.0
  9
$SPLFRAME
 70
     0
  9
$SPLINETYPE
 70
     6
  9
$SPLINESEGS
 70
     8
  9
$HANDSEED
  5
14F
  9
$SURFTAB1
 70
     6
  9
$SURFTAB2
 70
     6
  9
$SURFTYPE
 70
     6
  9
$SURFU
 70
     6
  9
$SURFV
 70
     6
  9
$UCSBASE
  2

  9
$UCSNAME
  2

  9
$UCSORG
 10
0.0
 20
0.0
 30
0.0
  9
$UCSXDIR
 10
1.0
 20
0.0
 30
0.0
  9
$UCSYDIR
 10
0.0
 20
1.0
 30
0.0
  9
$UCSORTHOREF
  2

  9
$UCSORTHOVIEW
 70
     0
  9
$UCSORGTOP
 10
0.0
 20
0.0
 30
0.0
  9
$UCSORGBOTTOM
 10
0.0
 20
0.0
 30
0.0
  9
$UCSORGLEFT
 10
0.0
 20
0.0
 30
0.0
  9
$UCSORGRIGHT
 10
0.0
 20
0.0
 30
0.0
  9
$UCSORGFRONT
 10
0.0
 20
0.0
 30
0.0
  9
$UCSORGBACK
 10
0.0
 20
0.0
 30
0.0
  9
$PUCSBASE
  2

  9
$PUCSNAME
  2

  9
$PUCSORG
 10
0.0
 20
0.0
 30
0.0
  9
$PUCSXDIR
 10
1.0
 20
0.0
 30
0.0
  9
$PUCSYDIR
 10
0.0
 20
1.0
 30
0.0
  9
$PUCSORTHOREF
  2

  9
$PUCSORTHOVIEW
 70
     0
  9
$PUCSORGTOP
 10
0.0
 20
0.0
 30
0.0
  9
$PUCSORGBOTTOM
 10
0.0
 20
0.0
 30
0.0
  9
$PUCSORGLEFT
 10
0.0
 20
0.0
 30
0.0
  9
$PUCSORGRIGHT
 10
0.0
 20
0.0
 30
0.0
  9
$PUCSORGFRONT
 10
0.0
 20
0.0
 30
0.0
  9
$PUCSORGBACK
 10
0.0
 20
0.0
 30
0.0
  9
$USERI1
 70
     0
  9
$USERI2
 70
     0
  9
$USERI3
 70
     0
  9
$USERI4
 70
     0
  9
$USERI5
 70
     0
  9
$USERR1
 40
0.0
  9
$USERR2
 40
0.0
  9
$USERR3
 40
0.0
  9
$USERR4
 40
0.0
  9
$USERR5
 40
0.0
  9
$WORLDVIEW
 70
     1
  9
$SHADEDGE
 70
     3
  9
$SHADEDIF
 70
    70
  9
$TILEMODE
 70
     1
  9
$MAXACTVP
 70
    64
  9
$PINSBASE
 10
0.0
 20
0.0
 30
0.0
  9
$PLIMCHECK
 70
     0
  9
$PEXTMIN
 10
0.0
 20
0.0
 30
0.0
  9
$PEXTMAX
 10
1682.0
 20
2378.0
 30
0.0
  9
$PLIMMIN
 10
0.0
 20
0.0
  9
$PLIMMAX
 10
1682.0
 20
2378.0
  9
$UNITMODE
 70
     0
  9
$VISRETAIN
 70
     1
  9
$PLINEGEN
 70
     0
  9
$PSLTSCALE
 70
     1
  9
$TREEDEPTH
 70
  3020
  9
$CMLSTYLE
  2
Standard
  9
$CMLJUST
 70
     0
  9
$CMLSCALE
 40
20.0
  9
$PROXYGRAPHICS
 70
     1
  9
$MEASUREMENT
 70
     1
  9
$CELWEIGHT
370
    -1
  9
$ENDCAPS
280
     0
  9
$JOINSTYLE
280
     0
  9
$LWDISPLAY
290
     0
  9
$INSUNITS
 70
     4
  9
$HYPERLINKBASE
  1

  9
$STYLESHEET
  1

  9
$XEDIT
290
     1
  9
$CEPSNTYPE
380
     0
  9
$PSTYLEMODE
290
     1
  9
$FINGERPRINTGUID
  2
{C5B036AE-3097-4A68-B41C-04D57C652748}
  9
$VERSIONGUID
  2
{FAEB1C32-E019-11D5-929B-00C0DF256EC4}
  9
$EXTNAMES
290
     1
  9
$PSVPSCALE
 40
0.0
  9
$OLESTARTUP
290
     0
  0
ENDSEC
  0
SECTION
  2
CLASSES
  0
CLASS
  1
ACDBDICTIONARYWDFLT
  2
AcDbDictionaryWithDefault
  3
ObjectDBX Classes
 90
        0
280
     0
281
     0
  0
CLASS
  1
VISUALSTYLE
  2
AcDbVisualStyle
  3
ObjectDBX Classes
 90
     4095
280
     0
281
     0
  0
CLASS
  1
SCALE
  2
AcDbScale
  3
ObjectDBX Classes
 90
     1153
280
     0
281
     0
  0
CLASS
  1
DICTIONARYVAR
  2
AcDbDictionaryVar
  3
ObjectDBX Classes
 90
        0
280
     0
281
     0
  0
CLASS
  1
ACDBPLACEHOLDER
  2
AcDbPlaceHolder
  3
ObjectDBX Classes
 90
        0
280
     0
281
     0
  0
CLASS
  1
LAYOUT
  2
AcDbLayout
  3
ObjectDBX Classes
 90
        0
280
     0
281
     0
  0
ENDSEC
  0
SECTION
  2
TABLES
  0
TABLE
  2
VPORT
  5
8
330
0
100
AcDbSymbolTable
 70
     1
  0
VPORT
  5
29
330
8
100
AcDbSymbolTableRecord
100
AcDbViewportTableRecord
  2
*Active
 70
     0
 10
0.0
 20
0.0
 11
1.0
 21
1.0
 12
344.1869158879
 22
148.5
 13
0.0
 23
0.0
 14
10.0
 24
10.0
 15
10.0
 25
10.0
 16
0.0
 26
0.0
 36
1.0
 17
0.0
 27
0.0
 37
0.0
 40
297.0
 41
1.9729729729
 42
50.0
 43
0.0
 44
0.0
 50
0.0
 51
0.0
 71
     0
 72
   100
 73
     1
 74
     3
 75
     0
 76
     0
 77
     0
 78
     0
281
     0
 65
     1
110
0.0
120
0.0
130
0.0
111
1.0
121
0.0
131
0.0
112
0.0
122
1.0
132
0.0
 79
     0
146
0.0
  0
ENDTAB
  0
TABLE
  2
LTYPE
  5
5
330
0
100
AcDbSymbolTable
 70
     2
  0
LTYPE
  5
14
330
5
100
AcDbSymbolTableRecord
100
AcDbLinetypeTableRecord
  2
ByBlock
 70
     0
  3

 72
    65
 73
     0
 40
0.0
  0
LTYPE
  5
15
330
5
100
AcDbSymbolTableRecord
100
AcDbLinetypeTableRecord
  2
ByLayer
 70
     0
  3

 72
    65
 73
     0
 40
0.0
  0
LTYPE
  5
16
330
5
100
AcDbSymbolTableRecord
100
AcDbLinetypeTableRecord
  2
Continuous
 70
     0
  3
Solid line
 72
    65
 73
     0
 40
0.0
  0
LTYPE
  5
62
330
5
100
AcDbSymbolTableRecord
100
AcDbLinetypeTableRecord
  2
CENTER2
 70
     0
  3
Center (.5x) ___ _ ___ _ ___ _ ___ _ ___ _ ___
 72
    65
 73
     4
 40
28.575
 49
19.05
 74
     4
 75
     0
340
0
 46
0.0
 50
0.0
 44
0.0
 45
0.0
 49
-3.175
 74
     4
 75
     0
340
0
 46
0.0
 50
0.0
 44
0.0
 45
0.0
 49
3.175
 74
     4
 75
     0
340
0
 46
0.0
 50
0.0
 44
0.0
 45
0.0
 49
-3.175
 74
     4
 75
     0
340
0
 46
0.0
 50
0.0
 44
0.0
 45
0.0
  0
ENDTAB
  0
TABLE
  2
LAYER
  5
2
330
0
100
AcDbSymbolTable
 70
     8
  0
LAYER
  5
10
330
2
100
AcDbSymbolTableRecord
100
AcDbLayerTableRecord
  2
0
 70
     0
 62
     7
  6
Continuous
370
    -3
390
F
  0
LAYER
  5
5D
330
2
100
AcDbSymbolTableRecord
100
AcDbLayerTableRecord
  2
Default
 70
     0
 62
     7
  6
Continuous
370
    -3
390
F
  0
LAYER
  5
79
330
2
100
AcDbSymbolTableRecord
100
AcDbLayerTableRecord
  2
$DDT_AUDIT_GENERATED_(79)
 70
     0
 62
     7
  6
Continuous
370
    -3
390
F
  0
LAYER
  5
81
330
2
100
AcDbSymbolTableRecord
100
AcDbLayerTableRecord
  2
$DDT_AUDIT_GENERATED_(81)
 70
     0
 62
     7
  6
Continuous
370
    -3
390
F
  0
LAYER
  5
85
330
2
100
AcDbSymbolTableRecord
100
AcDbLayerTableRecord
  2
$DDT_AUDIT_GENERATED_(85)
 70
     0
 62
     7
  6
Continuous
370
    -3
390
F
  0
LAYER
  5
98
330
2
100
AcDbSymbolTableRecord
100
AcDbLayerTableRecord
  2
$DDT_AUDIT_GENERATED_(98)
 70
     0
 62
     7
  6
Continuous
370
    -3
390
F
  0
LAYER
  5
9D
330
2
100
AcDbSymbolTableRecord
100
AcDbLayerTableRecord
  2
$DDT_AUDIT_GENERATED_(9D)
 70
     0
 62
     7
  6
Continuous
370
    -3
390
F
  0
LAYER
  5
121
330
2
100
AcDbSymbolTableRecord
100
AcDbLayerTableRecord
  2
$DDT_AUDIT_GENERATED_(121)
 70
     0
 62
     7
  6
Continuous
370
    -3
390
F
  0
ENDTAB
  0
TABLE
  2
STYLE
  5
3
330
0
100
AcDbSymbolTable
 70
     2
  0
STYLE
  5
11
330
3
100
AcDbSymbolTableRecord
100
AcDbTextStyleTableRecord
  2
Standard
 70
     0
 40
0.0
 41
1.0
 50
0.0
 71
     0
 42
2.5
  3
txt
  4

  0
STYLE
  5
13E
330
3
100
AcDbSymbolTableRecord
100
AcDbTextStyleTableRecord
  2
SEACAD_seiso_ttf
 70
     0
 40
0.0
 41
1.0
 50
0.0
 71
     0
 42
0.2
  3
seiso.ttf
  4

  0
ENDTAB
  0
TABLE
  2
VIEW
  5
6
330
0
100
AcDbSymbolTable
 70
     0
  0
ENDTAB
  0
TABLE
  2
UCS
  5
7
330
0
100
AcDbSymbolTable
 70
     0
  0
ENDTAB
  0
TABLE
  2
APPID
  5
9
330
0
100
AcDbSymbolTable
 70
     1
  0
APPID
  5
12
330
9
100
AcDbSymbolTableRecord
100
AcDbRegAppTableRecord
  2
ACAD
 70
     0
  0
ENDTAB
  0
TABLE
  2
DIMSTYLE
  5
A
330
0
100
AcDbSymbolTable
 70
     1
100
AcDbDimStyleTable
  0
DIMSTYLE
105
27
330
A
100
AcDbSymbolTableRecord
100
AcDbDimStyleTableRecord
  2
ISO-25
 70
     0
 41
2.5
 42
0.625
 43
3.75
 44
1.25
 73
     0
 74
     0
 77
     1
 78
     8
140
2.5
141
2.5
143
0.0393700787
147
0.625
171
     3
172
     1
271
     2
272
     2
274
     3
278
    44
283
     0
284
     8
340
11
  0
ENDTAB
  0
TABLE
  2
BLOCK_RECORD
  5
1
330
0
100
AcDbSymbolTable
 70
     7
  0
BLOCK_RECORD
  5
1F
330
1
100
AcDbSymbolTableRecord
100
AcDbBlockTableRecord
  2
*Model_Space
340
22
  0
BLOCK_RECORD
  5
1B
330
1
100
AcDbSymbolTableRecord
100
AcDbBlockTableRecord
  2
*Paper_Space
340
1E
  0
BLOCK_RECORD
  5
60
330
1
100
AcDbSymbolTableRecord
100
AcDbBlockTableRecord
  2
SEANNOT_GROUP
340
0
102
{BLKREFS
331
61
102
}
  0
BLOCK_RECORD
  5
6B
330
1
100
AcDbSymbolTableRecord
100
AcDbBlockTableRecord
  2
SEANNOT_GROUP1
340
0
102
{BLKREFS
331
6C
102
}
  0
BLOCK_RECORD
  5
71
330
1
100
AcDbSymbolTableRecord
100
AcDbBlockTableRecord
  2
SEANNOT_GROUP2
340
0
102
{BLKREFS
331
72
102
}
  0
BLOCK_RECORD
  5
77
330
1
100
AcDbSymbolTableRecord
100
AcDbBlockTableRecord
  2
SE
340
0
102
{BLKREFS
331
78
102
}
  0
BLOCK_RECORD
  5
AC
330
1
100
AcDbSymbolTableRecord
100
AcDbBlockTableRecord
  2
SE1
340
0
102
{BLKREFS
331
AD
102
}
  0
BLOCK_RECORD
  5
E8
330
1
100
AcDbSymbolTableRecord
100
AcDbBlockTableRecord
  2
SE2
340
0
102
{BLKREFS
331
E9
102
}
  0
ENDTAB
  0
ENDSEC
  0
SECTION
  2
BLOCKS
  0
BLOCK
  5
20
330
1F
100
AcDbEntity
  8
0
100
AcDbBlockBegin
  2
*Model_Space
 70
     0
 10
0.0
 20
0.0
 30
0.0
  3
*Model_Space
  1

  0
ENDBLK
  5
21
330
1F
100
AcDbEntity
  8
0
100
AcDbBlockEnd
  0
BLOCK
  5
1C
330
1B
100
AcDbEntity
 67
     1
  8
0
100
AcDbBlockBegin
  2
*Paper_Space
 70
     0
 10
0.0
 20
0.0
 30
0.0
  3
*Paper_Space
  1

  0
ENDBLK
  5
1D
330
1B
100
AcDbEntity
 67
     1
  8
0
100
AcDbBlockEnd
  0
BLOCK
  5
69
330
60
100
AcDbEntity
  8
0
100
AcDbBlockBegin
  2
SEANNOT_GROUP
 70
     0
 10
0.0
 20
0.0
 30
0.0
  3
SEANNOT_GROUP
  1

  0
LINE
  5
63
330
60
100
AcDbEntity
  8
Default
  6
CENTER2
 62
     7
100
AcDbLine
 10
61.349999553
 20
340.8799104
 30
0.0
 11
21.350000447
 21
340.8799104
 31
0.0
  0
LINE
  5
64
330
60
100
AcDbEntity
  8
Default
  6
CENTER2
 62
     7
100
AcDbLine
 10
41.35
 20
360.8799099529
 30
0.0
 11
41.35
 21
320.879910847
 31
0.0
  0
LINE
  5
65
330
60
100
AcDbEntity
  8
Default
  6
CENTER2
 62
     7
100
AcDbLine
 10
66.3499994412
 20
340.8799104
 30
0.0
 11
71.1
 21
340.8799104
 31
0.0
  0
LINE
  5
66
330
60
100
AcDbEntity
  8
Default
  6
CENTER2
 62
     7
100
AcDbLine
 10
41.35
 20
365.8799098412
 30
0.0
 11
41.35
 21
370.6299104
 31
0.0
  0
LINE
  5
67
330
60
100
AcDbEntity
  8
Default
  6
CENTER2
 62
     7
100
AcDbLine
 10
16.3500005588
 20
340.8799104
 30
0.0
 11
11.6
 21
340.8799104
 31
0.0
  0
LINE
  5
68
330
60
100
AcDbEntity
  8
Default
  6
CENTER2
 62
     7
100
AcDbLine
 10
41.35
 20
315.8799109588
 30
0.0
 11
41.35
 21
311.1299104
 31
0.0
  0
ENDBLK
  5
6A
330
60
100
AcDbEntity
  8
0
100
AcDbBlockEnd
  0
BLOCK
  5
6F
330
6B
100
AcDbEntity
  8
0
100
AcDbBlockBegin
  2
SEANNOT_GROUP1
 70
     0
 10
0.0
 20
0.0
 30
0.0
  3
SEANNOT_GROUP1
  1

  0
LINE
  5
6D
330
6B
100
AcDbEntity
  8
Default
  6
CENTER2
 62
     7
100
AcDbLine
 10
212.8799099529
 20
340.8799104
 30
0.0
 11
172.879910847
 21
340.8799104
 31
0.0
  0
LINE
  5
6E
330
6B
100
AcDbEntity
  8
Default
  6
CENTER2
 62
     7
100
AcDbLine
 10
192.8799104
 20
360.8799099529
 30
0.0
 11
192.8799104
 21
320.879910847
 31
0.0
  0
ENDBLK
  5
70
330
6B
100
AcDbEntity
  8
0
100
AcDbBlockEnd
  0
BLOCK
  5
75
330
71
100
AcDbEntity
  8
0
100
AcDbBlockBegin
  2
SEANNOT_GROUP2
 70
     0
 10
0.0
 20
0.0
 30
0.0
  3
SEANNOT_GROUP2
  1

  0
LINE
  5
73
330
71
100
AcDbEntity
  8
Default
  6
CENTER2
 62
     7
100
AcDbLine
 10
61.349999553
 20
189.35
 30
0.0
 11
21.350000447
 21
189.35
 31
0.0
  0
LINE
  5
74
330
71
100
AcDbEntity
  8
Default
  6
CENTER2
 62
     7
100
AcDbLine
 10
41.35
 20
209.349999553
 30
0.0
 11
41.35
 21
169.350000447
 31
0.0
  0
ENDBLK
  5
76
330
71
100
AcDbEntity
  8
0
100
AcDbBlockEnd
  0
BLOCK
  5
AA
330
77
100
AcDbEntity
  8
0
100
AcDbBlockBegin
  2
SE
 70
     0
 10
0.0
 20
0.0
 30
0.0
  3
SE
  1

  0
ARC
  5
7A
330
77
100
AcDbEntity
  8
$DDT_AUDIT_GENERATED_(79)
  6
Continuous
 62
     7
100
AcDbCircle
 10
41.35
 20
340.8799104
 30
0.0
 40
15.0
100
AcDbArc
 50
240.0
 51
300.0
  0
ARC
  5
7B
330
77
100
AcDbEntity
  8
$DDT_AUDIT_GENERATED_(79)
  6
Continuous
 62
     7
100
AcDbCircle
 10
41.35
 20
340.8799104
 30
0.0
 40
15.0
100
AcDbArc
 50
120.0
 51
180.0
  0
ARC
  5
7C
330
77
100
AcDbEntity
  8
$DDT_AUDIT_GENERATED_(79)
  6
Continuous
 62
     7
100
AcDbCircle
 10
41.35
 20
340.8799104
 30
0.0
 40
15.0
100
AcDbArc
 50
0.0
 51
60.0
  0
ARC
  5
7D
330
77
100
AcDbEntity
  8
$DDT_AUDIT_GENERATED_(79)
  6
Continuous
 62
     7
100
AcDbCircle
 10
41.35
 20
340.8799104
 30
0.0
 40
18.0
100
AcDbArc
 50
354.6243183522
 51
0.0
  0
ARC
  5
7E
330
77
100
AcDbEntity
  8
$DDT_AUDIT_GENERATED_(79)
  6
Continuous
 62
     7
100
AcDbCircle
 10
41.35
 20
340.8799104
 30
0.0
 40
18.0
100
AcDbArc
 50
234.6243183522
 51
305.3756816478
  0
ARC
  5
7F
330
77
100
AcDbEntity
  8
$DDT_AUDIT_GENERATED_(79)
  6
Continuous
 62
     7
100
AcDbCircle
 10
41.35
 20
340.8799104
 30
0.0
 40
18.0
100
AcDbArc
 50
114.6243183522
 51
185.3756816478
  0
ARC
  5
80
330
77
100
AcDbEntity
  8
$DDT_AUDIT_GENERATED_(79)
  6
Continuous
 62
     7
100
AcDbCircle
 10
41.35
 20
340.8799104
 30
0.0
 40
18.0
100
AcDbArc
 50
0.0
 51
65.3756816478
  0
ARC
  5
82
330
77
100
AcDbEntity
  8
$DDT_AUDIT_GENERATED_(81)
  6
Continuous
 62
     7
100
AcDbCircle
 10
41.35
 20
340.8799104
 30
0.0
 40
14.85
100
AcDbArc
 50
240.3347050581
 51
299.6652949419
  0
ARC
  5
83
330
77
100
AcDbEntity
  8
$DDT_AUDIT_GENERATED_(81)
  6
Continuous
 62
     7
100
AcDbCircle
 10
41.35
 20
340.8799104
 30
0.0
 40
14.85
100
AcDbArc
 50
120.3347050581
 51
179.6652949419
  0
ARC
  5
84
330
77
100
AcDbEntity
  8
$DDT_AUDIT_GENERATED_(81)
  6
Continuous
 62
     7
100
AcDbCircle
 10
41.35
 20
340.8799104
 30
0.0
 40
14.85
100
AcDbArc
 50
0.3347050581
 51
59.6652949419
  0
LINE
  5
86
330
77
100
AcDbEntity
  8
$DDT_AUDIT_GENERATED_(85)
  6
Continuous
 62
     7
100
AcDbLine
 10
17.7532124827
 20
319.7507452754
 30
0.0
 11
11.2532124827
 21
331.0090755246
 31
0.0
  0
ARC
  5
87
330
77
100
AcDbEntity
  8
$DDT_AUDIT_GENERATED_(85)
  6
Continuous
 62
     7
100
AcDbCircle
 10
12.1192378865
 20
331.5090755246
 30
0.0
 40
0.9999999999999586
100
AcDbArc
 50
120.0
 51
210.0
  0
ARC
  5
88
330
77
100
AcDbEntity
  8
$DDT_AUDIT_GENERATED_(85)
  6
Continuous
 62
     7
100
AcDbCircle
 10
18.6192378865
 20
320.2507452754
 30
0.0
 40
0.9999999999999584
100
AcDbArc
 50
210.0
 51
300.0
  0
LINE
  5
89
330
77
100
AcDbEntity
  8
$DDT_AUDIT_GENERATED_(85)
  6
Continuous
 62
     7
100
AcDbLine
 10
11.6192378865
 20
332.3751009284
 30
0.0
 11
27.6
 21
341.6015982365
 31
0.0
  0
LINE
  5
8A
330
77
100
AcDbEntity
  8
$DDT_AUDIT_GENERATED_(85)
  6
Continuous
 62
     7
100
AcDbLine
 10
35.1
 20
328.6112171797
 30
0.0
 11
19.1192378865
 21
319.3847198716
 31
0.0
  0
ARC
  5
8B
330
77
100
AcDbEntity
  8
$DDT_AUDIT_GENERATED_(85)
  6
Continuous
 62
     7
100
AcDbCircle
 10
21.35
 20
352.4269157838
 30
0.0
 40
12.50000000000001
100
AcDbArc
 50
300.0
 51
0.0
  0
ARC
  5
8C
330
77
100
AcDbEntity
  8
$DDT_AUDIT_GENERATED_(85)
  6
Continuous
 62
     7
100
AcDbCircle
 10
41.35
 20
317.7858996324
 30
0.0
 40
12.49999999999998
100
AcDbArc
 50
60.0
 51
120.0
  0
LINE
  5
8D
330
77
100
AcDbEntity
  8
$DDT_AUDIT_GENERATED_(85)
  6
Continuous
 62
     7
100
AcDbLine
 10
33.85
 20
352.4269157838
 30
0.0
 11
33.85
 21
370.8799104
 31
0.0
  0
LINE
  5
8E
330
77
100
AcDbEntity
  8
$DDT_AUDIT_GENERATED_(85)
  6
Continuous
 62
     7
100
AcDbLine
 10
63.5807621135
 20
319.3847198716
 30
0.0
 11
47.6
 21
328.6112171797
 31
0.0
  0
ARC
  5
8F
330
77
100
AcDbEntity
  8
$DDT_AUDIT_GENERATED_(85)
  6
Continuous
 62
     7
100
AcDbCircle
 10
34.85
 20
370.8799104
 30
0.0
 40
0.9999999999999521
100
AcDbArc
 50
90.0
 51
180.0
  0
ARC
  5
90
330
77
100
AcDbEntity
  8
$DDT_AUDIT_GENERATED_(85)
  6
Continuous
 62
     7
100
AcDbCircle
 10
64.0807621135
 20
320.2507452754
 30
0.0
 40
0.9999999999999613
100
AcDbArc
 50
240.0
 51
330.0
  0
LINE
  5
91
330
77
100
AcDbEntity
  8
$DDT_AUDIT_GENERATED_(85)
  6
Continuous
 62
     7
100
AcDbLine
 10
34.85
 20
371.8799104
 30
0.0
 11
47.85
 21
371.8799104
 31
0.0
  0
LINE
  5
92
330
77
100
AcDbEntity
  8
$DDT_AUDIT_GENERATED_(85)
  6
Continuous
 62
     7
100
AcDbLine
 10
71.4467875173
 20
331.0090755246
 30
0.0
 11
64.9467875173
 21
319.7507452754
 31
0.0
  0
ARC
  5
93
330
77
100
AcDbEntity
  8
$DDT_AUDIT_GENERATED_(85)
  6
Continuous
 62
     7
100
AcDbCircle
 10
47.85
 20
370.8799104
 30
0.0
 40
0.9999999999999527
100
AcDbArc
 50
0.0
 51
90.0
  0
ARC
  5
94
330
77
100
AcDbEntity
  8
$DDT_AUDIT_GENERATED_(85)
  6
Continuous
 62
     7
100
AcDbCircle
 10
70.5807621135
 20
331.5090755246
 30
0.0
 40
0.9999999999999436
100
AcDbArc
 50
330.0
 51
60.0
  0
LINE
  5
95
330
77
100
AcDbEntity
  8
$DDT_AUDIT_GENERATED_(85)
  6
Continuous
 62
     7
100
AcDbLine
 10
48.85
 20
370.8799104
 30
0.0
 11
48.85
 21
352.4269157838
 31
0.0
  0
LINE
  5
96
330
77
100
AcDbEntity
  8
$DDT_AUDIT_GENERATED_(85)
  6
Continuous
 62
     7
100
AcDbLine
 10
55.1
 20
341.6015982365
 30
0.0
 11
71.0807621135
 21
332.3751009284
 31
0.0
  0
ARC
  5
97
330
77
100
AcDbEntity
  8
$DDT_AUDIT_GENERATED_(85)
  6
Continuous
 62
     7
100
AcDbCircle
 10
61.35
 20
352.4269157838
 30
0.0
 40
12.50000000000001
100
AcDbArc
 50
180.0
 51
240.0
  0
ARC
  5
99
330
77
100
AcDbEntity
  8
$DDT_AUDIT_GENERATED_(98)
  6
Continuous
 62
     7
100
AcDbCircle
 10
41.35
 20
340.8799104
 30
0.0
 40
26.2
100
AcDbArc
 50
346.6341521774
 51
0.0
  0
ARC
  5
9A
330
77
100
AcDbEntity
  8
$DDT_AUDIT_GENERATED_(98)
  6
Continuous
 62
     7
100
AcDbCircle
 10
41.35
 20
340.8799104
 30
0.0
 40
26.2
100
AcDbArc
 50
226.6341521774
 51
313.3658478226
  0
ARC
  5
9B
330
77
100
AcDbEntity
  8
$DDT_AUDIT_GENERATED_(98)
  6
Continuous
 62
     7
100
AcDbCircle
 10
41.35
 20
340.8799104
 30
0.0
 40
26.2
100
AcDbArc
 50
106.6341521774
 51
193.3658478226
  0
ARC
  5
9C
330
77
100
AcDbEntity
  8
$DDT_AUDIT_GENERATED_(98)
  6
Continuous
 62
     7
100
AcDbCircle
 10
41.35
 20
340.8799104
 30
0.0
 40
26.2
100
AcDbArc
 50
0.0
 51
73.3658478226
  0
LINE
  5
9E
330
77
100
AcDbEntity
  8
$DDT_AUDIT_GENERATED_(9D)
  6
Continuous
 62
     7
100
AcDbLine
 10
7.95
 20
375.8799104
 30
0.0
 11
74.75
 21
375.8799104
 31
0.0
  0
ARC
  5
9F
330
77
100
AcDbEntity
  8
$DDT_AUDIT_GENERATED_(9D)
  6
Continuous
 62
     7
100
AcDbCircle
 10
74.75
 20
374.2799104
 30
0.0
 40
1.599999999999997
100
AcDbArc
 50
0.0
 51
90.0
  0
ARC
  5
A0
330
77
100
AcDbEntity
  8
$DDT_AUDIT_GENERATED_(9D)
  6
Continuous
 62
     7
100
AcDbCircle
 10
7.95
 20
374.2799104
 30
0.0
 40
1.599999999999997
100
AcDbArc
 50
90.0
 51
180.0
  0
LINE
  5
A1
330
77
100
AcDbEntity
  8
$DDT_AUDIT_GENERATED_(9D)
  6
Continuous
 62
     7
100
AcDbLine
 10
76.35
 20
374.2799104
 30
0.0
 11
76.35
 21
307.4799104
 31
0.0
  0
LINE
  5
A2
330
77
100
AcDbEntity
  8
$DDT_AUDIT_GENERATED_(9D)
  6
Continuous
 62
     7
100
AcDbLine
 10
6.35
 20
307.4799104
 30
0.0
 11
6.35
 21
374.2799104
 31
0.0
  0
ARC
  5
A3
330
77
100
AcDbEntity
  8
$DDT_AUDIT_GENERATED_(9D)
  6
Continuous
 62
     7
100
AcDbCircle
 10
74.75
 20
307.4799104
 30
0.0
 40
1.599999999999997
100
AcDbArc
 50
270.0
 51
0.0
  0
ARC
  5
A4
330
77
100
AcDbEntity
  8
$DDT_AUDIT_GENERATED_(9D)
  6
Continuous
 62
     7
100
AcDbCircle
 10
7.95
 20
307.4799104
 30
0.0
 40
1.599999999999997
100
AcDbArc
 50
180.0
 51
270.0
  0
LINE
  5
A5
330
77
100
AcDbEntity
  8
$DDT_AUDIT_GENERATED_(9D)
  6
Continuous
 62
     7
100
AcDbLine
 10
74.75
 20
305.8799104
 30
0.0
 11
7.95
 21
305.8799104
 31
0.0
  0
ARC
  5
A6
330
77
100
AcDbEntity
  8
$DDT_AUDIT_GENERATED_(9D)
  6
Continuous
 62
     7
100
AcDbCircle
 10
41.35
 20
340.8799104
 30
0.0
 40
26.25
100
AcDbArc
 50
0.0
 51
73.398450401
  0
ARC
  5
A7
330
77
100
AcDbEntity
  8
$DDT_AUDIT_GENERATED_(9D)
  6
Continuous
 62
     7
100
AcDbCircle
 10
41.35
 20
340.8799104
 30
0.0
 40
26.25
100
AcDbArc
 50
106.601549599
 51
193.398450401
  0
ARC
  5
A8
330
77
100
AcDbEntity
  8
$DDT_AUDIT_GENERATED_(9D)
  6
Continuous
 62
     7
100
AcDbCircle
 10
41.35
 20
340.8799104
 30
0.0
 40
26.25
100
AcDbArc
 50
226.601549599
 51
313.398450401
  0
ARC
  5
A9
330
77
100
AcDbEntity
  8
$DDT_AUDIT_GENERATED_(9D)
  6
Continuous
 62
     7
100
AcDbCircle
 10
41.35
 20
340.8799104
 30
0.0
 40
26.25
100
AcDbArc
 50
346.601549599
 51
0.0
  0
ENDBLK
  5
AB
330
77
100
AcDbEntity
  8
0
100
AcDbBlockEnd
  0
BLOCK
  5
E6
330
AC
100
AcDbEntity
  8
0
100
AcDbBlockBegin
  2
SE1
 70
     0
 10
0.0
 20
0.0
 30
0.0
  3
SE1
  1

  0
LINE
  5
AE
330
AC
100
AcDbEntity
  8
$DDT_AUDIT_GENERATED_(79)
  6
Continuous
 62
     7
100
AcDbLine
 10
244.1799104
 20
358.3799104
 30
0.0
 11
244.1799104
 21
323.3799104
 31
0.0
  0
LINE
  5
AF
330
AC
100
AcDbEntity
  8
$DDT_AUDIT_GENERATED_(79)
  6
Continuous
 62
     7
100
AcDbLine
 10
203.1799104
 20
322.8799104
 30
0.0
 11
243.6799104
 21
322.8799104
 31
0.0
  0
LINE
  5
B0
330
AC
100
AcDbEntity
  8
$DDT_AUDIT_GENERATED_(79)
  6
Continuous
 62
     7
100
AcDbLine
 10
243.6799104
 20
358.8799104
 30
0.0
 11
203.1799104
 21
358.8799104
 31
0.0
  0
ARC
  5
B1
330
AC
100
AcDbEntity
  8
$DDT_AUDIT_GENERATED_(79)
  6
Continuous
 62
     7
100
AcDbCircle
 10
243.6799104
 20
323.3799104
 30
0.0
 40
0.5000000000000004
100
AcDbArc
 50
270.0
 51
0.0
  0
ARC
  5
B2
330
AC
100
AcDbEntity
  8
$DDT_AUDIT_GENERATED_(79)
  6
Continuous
 62
     7
100
AcDbCircle
 10
243.6799104
 20
358.3799104
 30
0.0
 40
0.5000000000000004
100
AcDbArc
 50
0.0
 51
90.0
  0
LINE
  5
B3
330
AC
100
AcDbEntity
  8
$DDT_AUDIT_GENERATED_(81)
  6
Continuous
 62
     7
100
AcDbLine
 10
248.3799104
 20
326.5299104
 30
0.0
 11
248.3799104
 21
355.2299104
 31
0.0
  0
LINE
  5
B4
330
AC
100
AcDbEntity
  8
$DDT_AUDIT_GENERATED_(81)
  6
Continuous
 62
     7
100
AcDbLine
 10
244.1799104
 20
326.0299104
 30
0.0
 11
247.8799104
 21
326.0299104
 31
0.0
  0
LINE
  5
B5
330
AC
100
AcDbEntity
  8
$DDT_AUDIT_GENERATED_(81)
  6
Continuous
 62
     7
100
AcDbLine
 10
247.8799104
 20
355.7299104
 30
0.0
 11
244.1799104
 21
355.7299104
 31
0.0
  0
ARC
  5
B6
330
AC
100
AcDbEntity
  8
$DDT_AUDIT_GENERATED_(81)
  6
Continuous
 62
     7
100
AcDbCircle
 10
247.8799104
 20
326.5299104
 30
0.0
 40
0.5000000000000004
100
AcDbArc
 50
270.0
 51
0.0
  0
ARC
  5
B7
330
AC
100
AcDbEntity
  8
$DDT_AUDIT_GENERATED_(81)
  6
Continuous
 62
     7
100
AcDbCircle
 10
247.8799104
 20
355.2299104
 30
0.0
 40
0.5000000000000004
100
AcDbArc
 50
0.0
 51
90.0
  0
LINE
  5
B8
330
AC
100
AcDbEntity
  8
$DDT_AUDIT_GENERATED_(85)
  6
Continuous
 62
     7
100
AcDbLine
 10
267.8799104
 20
370.8799104
 30
0.0
 11
267.8799104
 21
371.3799104
 31
0.0
  0
LINE
  5
B9
330
AC
100
AcDbEntity
  8
$DDT_AUDIT_GENERATED_(85)
  6
Continuous
 62
     7
100
AcDbLine
 10
267.8799104
 20
352.4269157838
 30
0.0
 11
267.8799104
 21
370.8799104
 31
0.0
  0
LINE
  5
BA
330
AC
100
AcDbEntity
  8
$DDT_AUDIT_GENERATED_(85)
  6
Continuous
 62
     7
100
AcDbLine
 10
267.8799104
 20
319.7507452754
 30
0.0
 11
267.8799104
 21
320.0007452754
 31
0.0
  0
LINE
  5
BB
330
AC
100
AcDbEntity
  8
$DDT_AUDIT_GENERATED_(85)
  6
Continuous
 62
     7
100
AcDbLine
 10
267.8799104
 20
320.0007452754
 30
0.0
 11
267.8799104
 21
331.2590755246
 31
0.0
  0
LINE
  5
BC
330
AC
100
AcDbEntity
  8
$DDT_AUDIT_GENERATED_(85)
  6
Continuous
 62
     7
100
AcDbLine
 10
267.8799104
 20
331.2590755246
 30
0.0
 11
267.8799104
 21
331.9420882265
 31
0.0
  0
LINE
  5
BD
330
AC
100
AcDbEntity
  8
$DDT_AUDIT_GENERATED_(85)
  6
Continuous
 62
     7
100
AcDbLine
 10
267.8799104
 20
331.9420882265
 30
0.0
 11
267.8799104
 21
341.1685855346
 31
0.0
  0
LINE
  5
BE
330
AC
100
AcDbEntity
  8
$DDT_AUDIT_GENERATED_(85)
  6
Continuous
 62
     7
100
AcDbLine
 10
267.8799104
 20
341.1685855346
 30
0.0
 11
267.8799104
 21
343.6859966271
 31
0.0
  0
LINE
  5
BF
330
AC
100
AcDbEntity
  8
$DDT_AUDIT_GENERATED_(85)
  6
Continuous
 62
     7
100
AcDbLine
 10
268.3799104
 20
371.8799104
 30
0.0
 11
275.2280916547
 21
371.8799104
 31
0.0
  0
ARC
  5
C0
330
AC
100
AcDbEntity
  8
$DDT_AUDIT_GENERATED_(85)
  6
Continuous
 62
     7
100
AcDbCircle
 10
268.3799104
 20
371.3799104
 30
0.0
 40
0.5000000000000004
100
AcDbArc
 50
90.0
 51
180.0
  0
LINE
  5
C1
330
AC
100
AcDbEntity
  8
$DDT_AUDIT_GENERATED_(85)
  6
Continuous
 62
     7
100
AcDbLine
 10
275.8640021644
 20
330.7843232547
 30
0.0
 11
275.8514421161
 21
329.0423822357
 31
0.0
  0
ELLIPSE
  5
C2
330
AC
100
AcDbEntity
  8
$DDT_AUDIT_GENERATED_(85)
  6
Continuous
 62
     7
100
AcDbEllipse
 10
-2927.5221404858
 20
334.8167653875
 30
0.0
 11
3203.394400387166
 21
2.777383861091165E-5
 31
0.0
210
0.0
220
0.0
230
1.0
 40
0.5000004903
 41
6.273818647099378
 42
6.279580120274375
  0
ELLIPSE
  5
C3
330
AC
100
AcDbEntity
  8
$DDT_AUDIT_GENERATED_(85)
  6
Continuous
 62
     7
100
AcDbEllipse
 10
-2927.5220678897
 20
346.9430144554
 30
0.0
 11
3203.394327782444
 21
2.683442594346442E-5
 31
0.0
210
0.0
220
0.0
230
1.0
 40
0.5000004959
 41
6.273818647139915
 42
6.27958012038031
  0
ARC
  5
C4
330
AC
100
AcDbEntity
  8
$DDT_AUDIT_GENERATED_(85)
  6
Continuous
 62
     7
100
AcDbCircle
 10
-2126.714300203
 20
325.6275297512
 30
0.0
 40
2402.448965058893
100
AcDbArc
 50
359.8657294898
 51
0.1342705102
  0
LINE
  5
C5
330
AC
100
AcDbEntity
  8
$DDT_AUDIT_GENERATED_(85)
  6
Continuous
 62
     7
100
AcDbLine
 10
275.2280916547
 20
331.0090755246
 30
0.0
 11
268.3799104
 21
331.0090755246
 31
0.0
  0
LINE
  5
C6
330
AC
100
AcDbEntity
  8
$DDT_AUDIT_GENERATED_(85)
  6
Continuous
 62
     7
100
AcDbLine
 10
275.3514465595
 20
341.6015982365
 30
0.0
 11
268.3799104
 21
341.6015982365
 31
0.0
  0
LINE
  5
C7
330
AC
100
AcDbEntity
  8
$DDT_AUDIT_GENERATED_(85)
  6
Continuous
 62
     7
100
AcDbLine
 10
275.2280916547
 20
371.8799104
 30
0.0
 11
275.2346875286
 21
371.8799104
 31
0.0
  0
ARC
  5
C8
330
AC
100
AcDbEntity
  8
$DDT_AUDIT_GENERATED_(85)
  6
Continuous
 62
     7
100
AcDbCircle
 10
275.2280916547
 20
371.3799104196
 30
0.0
 40
0.4999989701904491
100
AcDbArc
 50
25.1276387407
 51
90.0
  0
LINE
  5
C9
330
AC
100
AcDbEntity
  8
$DDT_AUDIT_GENERATED_(85)
  6
Continuous
 62
     7
100
AcDbLine
 10
267.8799104
 20
348.4638737437
 30
0.0
 11
267.8799104
 21
352.4269157838
 31
0.0
  0
ARC
  5
CA
330
AC
100
AcDbEntity
  8
$DDT_AUDIT_GENERATED_(85)
  6
Continuous
 62
     7
100
AcDbCircle
 10
283.1076108487
 20
348.710164372
 30
0.0
 40
15.22969205304947
100
AcDbArc
 50
180.9266128716
 51
181.2817766044
  0
ARC
  5
CB
330
AC
100
AcDbEntity
  8
$DDT_AUDIT_GENERATED_(85)
  6
Continuous
 62
     7
100
AcDbCircle
 10
283.4886754658
 20
343.4514914198
 30
0.0
 40
15.61052656294648
100
AcDbArc
 50
178.7605040949
 51
179.1392561934
  0
ELLIPSE
  5
CC
330
AC
100
AcDbEntity
  8
$DDT_AUDIT_GENERATED_(85)
  6
Continuous
 62
     7
100
AcDbEllipse
 10
267.5216815884
 20
330.2066379133
 30
0.0
 11
-0.3353184571526502
 21
-0.3708928852010577
 31
0.0
210
0.0
220
0.0
230
1.0
 40
0.984334743
 41
3.139223463870397
 42
3.174021520745979
  0
ARC
  5
CD
330
AC
100
AcDbEntity
  8
$DDT_AUDIT_GENERATED_(85)
  6
Continuous
 62
     7
100
AcDbCircle
 10
267.2052749703
 20
351.6049806456
 30
0.0
 40
0.5959106266845916
100
AcDbArc
 50
287.0410278117
 51
318.5117452574
  0
ARC
  5
CE
330
AC
100
AcDbEntity
  8
$DDT_AUDIT_GENERATED_(85)
  6
Continuous
 62
     7
100
AcDbCircle
 10
265.8320980507
 20
360.5547597875
 30
0.0
 40
9.644537625383512
100
AcDbArc
 50
257.7474023204
 51
279.2351010014
  0
LINE
  5
CF
330
AC
100
AcDbEntity
  8
$DDT_AUDIT_GENERATED_(85)
  6
Continuous
 62
     7
100
AcDbLine
 10
263.7854865582
 20
351.1299104
 30
0.0
 11
248.3799104
 21
351.1299104
 31
0.0
  0
LINE
  5
D0
330
AC
100
AcDbEntity
  8
$DDT_AUDIT_GENERATED_(85)
  6
Continuous
 62
     7
100
AcDbLine
 10
248.3799104
 20
330.6299104
 30
0.0
 11
267.5911015849
 21
330.6299104
 31
0.0
  0
ARC
  5
D1
330
AC
100
AcDbEntity
  8
$DDT_AUDIT_GENERATED_(85)
  6
Continuous
 62
     7
100
AcDbCircle
 10
-2927.5284229333
 20
340.8799104
 30
0.0
 40
3203.408333333315
100
AcDbArc
 50
359.8192783535
 51
0.5456127698
  0
LINE
  5
D2
330
AC
100
AcDbEntity
  8
$DDT_AUDIT_GENERATED_(85)
  6
Continuous
 62
     7
100
AcDbLine
 10
268.3799104
 20
319.2507452754
 30
0.0
 11
275.2295989222
 21
319.2507452754
 31
0.0
  0
ARC
  5
D3
330
AC
100
AcDbEntity
  8
$DDT_AUDIT_GENERATED_(85)
  6
Continuous
 62
     7
100
AcDbCircle
 10
268.3799104
 20
319.7507452754
 30
0.0
 40
0.499999999999997
100
AcDbArc
 50
180.0
 51
270.0
  0
ARC
  5
D4
330
AC
100
AcDbEntity
  8
$DDT_AUDIT_GENERATED_(85)
  6
Continuous
 62
     7
100
AcDbCircle
 10
275.2346875286
 20
371.3799104
 30
0.0
 40
0.5000000000003021
100
AcDbArc
 50
0.5456127698
 51
90.0
  0
ARC
  5
D5
330
AC
100
AcDbEntity
  8
$DDT_AUDIT_GENERATED_(85)
  6
Continuous
 62
     7
100
AcDbCircle
 10
275.2335697829
 20
319.7559938709
 30
0.0
 40
0.5012955107443278
100
AcDbArc
 50
269.4471747913
 51
6.4773943982
  0
ARC
  5
D6
330
AC
100
AcDbEntity
  8
$DDT_AUDIT_GENERATED_(85)
  6
Continuous
 62
     7
100
AcDbCircle
 10
267.7697739546
 20
330.4885537496
 30
0.0
 40
0.1061377553095503
100
AcDbArc
 50
356.9928461468
 51
45.4397767111
  0
ARC
  5
D7
330
AC
100
AcDbEntity
  8
$DDT_AUDIT_GENERATED_(85)
  6
Continuous
 62
     7
100
AcDbCircle
 10
267.614743849
 20
330.1509195247
 30
0.0
 40
0.475030071684338
100
AcDbArc
 50
59.3842992537
 51
92.7876111995
  0
ARC
  5
D8
330
AC
100
AcDbEntity
  8
$DDT_AUDIT_GENERATED_(85)
  6
Continuous
 62
     7
100
AcDbCircle
 10
267.3799104
 20
351.6299104
 30
0.0
 40
0.5000000000000004
100
AcDbArc
 50
302.928507235
 51
0.0
  0
LINE
  5
D9
330
AC
100
AcDbEntity
  8
$DDT_AUDIT_GENERATED_(98)
  6
Continuous
 62
     7
100
AcDbLine
 10
203.1799104
 20
314.6799104
 30
0.0
 11
203.1799104
 21
367.0799104
 31
0.0
  0
LINE
  5
DA
330
AC
100
AcDbEntity
  8
$DDT_AUDIT_GENERATED_(98)
  6
Continuous
 62
     7
100
AcDbLine
 10
202.8799104
 20
314.6799104
 30
0.0
 11
203.1799104
 21
314.6799104
 31
0.0
  0
LINE
  5
DB
330
AC
100
AcDbEntity
  8
$DDT_AUDIT_GENERATED_(98)
  6
Continuous
 62
     7
100
AcDbLine
 10
203.1799104
 20
367.0799104
 30
0.0
 11
202.8799104
 21
367.0799104
 31
0.0
  0
LINE
  5
DC
330
AC
100
AcDbEntity
  8
$DDT_AUDIT_GENERATED_(9D)
  6
Continuous
 62
     7
100
AcDbLine
 10
192.8799104
 20
374.2799104
 30
0.0
 11
192.8799104
 21
307.4799104
 31
0.0
  0
LINE
  5
DD
330
AC
100
AcDbEntity
  8
$DDT_AUDIT_GENERATED_(9D)
  6
Continuous
 62
     7
100
AcDbLine
 10
192.8799104
 20
374.2799104
 30
0.0
 11
192.8799104
 21
375.8799104
 31
0.0
  0
LINE
  5
DE
330
AC
100
AcDbEntity
  8
$DDT_AUDIT_GENERATED_(9D)
  6
Continuous
 62
     7
100
AcDbLine
 10
192.8799104
 20
375.8799104
 30
0.0
 11
201.6799104
 21
375.8799104
 31
0.0
  0
LINE
  5
DF
330
AC
100
AcDbEntity
  8
$DDT_AUDIT_GENERATED_(9D)
  6
Continuous
 62
     7
100
AcDbLine
 10
192.8799104
 20
305.8799104
 30
0.0
 11
192.8799104
 21
307.4799104
 31
0.0
  0
LINE
  5
E0
330
AC
100
AcDbEntity
  8
$DDT_AUDIT_GENERATED_(9D)
  6
Continuous
 62
     7
100
AcDbLine
 10
202.8799104
 20
307.4799104
 30
0.0
 11
202.8799104
 21
307.0799104
 31
0.0
  0
LINE
  5
E1
330
AC
100
AcDbEntity
  8
$DDT_AUDIT_GENERATED_(9D)
  6
Continuous
 62
     7
100
AcDbLine
 10
202.8799104
 20
374.2799104
 30
0.0
 11
202.8799104
 21
307.4799104
 31
0.0
  0
LINE
  5
E2
330
AC
100
AcDbEntity
  8
$DDT_AUDIT_GENERATED_(9D)
  6
Continuous
 62
     7
100
AcDbLine
 10
202.8799104
 20
374.6799104
 30
0.0
 11
202.8799104
 21
374.2799104
 31
0.0
  0
LINE
  5
E3
330
AC
100
AcDbEntity
  8
$DDT_AUDIT_GENERATED_(9D)
  6
Continuous
 62
     7
100
AcDbLine
 10
201.6799104
 20
305.8799104
 30
0.0
 11
192.8799104
 21
305.8799104
 31
0.0
  0
ARC
  5
E4
330
AC
100
AcDbEntity
  8
$DDT_AUDIT_GENERATED_(9D)
  6
Continuous
 62
     7
100
AcDbCircle
 10
201.6799104
 20
307.0799104
 30
0.0
 40
1.2
100
AcDbArc
 50
270.0
 51
0.0
  0
ARC
  5
E5
330
AC
100
AcDbEntity
  8
$DDT_AUDIT_GENERATED_(9D)
  6
Continuous
 62
     7
100
AcDbCircle
 10
201.6799104
 20
374.6799104
 30
0.0
 40
1.2
100
AcDbArc
 50
0.0
 51
90.0
  0
ENDBLK
  5
E7
330
AC
100
AcDbEntity
  8
0
100
AcDbBlockEnd
  0
BLOCK
  5
13C
330
E8
100
AcDbEntity
  8
0
100
AcDbBlockBegin
  2
SE2
 70
     0
 10
0.0
 20
0.0
 30
0.0
  3
SE2
  1

  0
LINE
  5
EA
330
E8
100
AcDbEntity
  8
$DDT_AUDIT_GENERATED_(79)
  6
Continuous
 62
     7
100
AcDbLine
 10
23.85
 20
138.05
 30
0.0
 11
58.85
 21
138.05
 31
0.0
  0
LINE
  5
EB
330
E8
100
AcDbEntity
  8
$DDT_AUDIT_GENERATED_(79)
  6
Continuous
 62
     7
100
AcDbLine
 10
23.35
 20
179.05
 30
0.0
 11
23.35
 21
138.55
 31
0.0
  0
LINE
  5
EC
330
E8
100
AcDbEntity
  8
$DDT_AUDIT_GENERATED_(79)
  6
Continuous
 62
     7
100
AcDbLine
 10
59.35
 20
138.55
 30
0.0
 11
59.35
 21
179.05
 31
0.0
  0
ARC
  5
ED
330
E8
100
AcDbEntity
  8
$DDT_AUDIT_GENERATED_(79)
  6
Continuous
 62
     7
100
AcDbCircle
 10
23.85
 20
138.55
 30
0.0
 40
0.5000000000000004
100
AcDbArc
 50
180.0
 51
270.0
  0
ARC
  5
EE
330
E8
100
AcDbEntity
  8
$DDT_AUDIT_GENERATED_(79)
  6
Continuous
 62
     7
100
AcDbCircle
 10
58.85
 20
138.55
 30
0.0
 40
0.5000000000000004
100
AcDbArc
 50
270.0
 51
0.0
  0
LINE
  5
EF
330
E8
100
AcDbEntity
  8
$DDT_AUDIT_GENERATED_(81)
  6
Continuous
 62
     7
100
AcDbLine
 10
27.0
 20
133.85
 30
0.0
 11
55.7
 21
133.85
 31
0.0
  0
LINE
  5
F0
330
E8
100
AcDbEntity
  8
$DDT_AUDIT_GENERATED_(81)
  6
Continuous
 62
     7
100
AcDbLine
 10
26.5
 20
138.05
 30
0.0
 11
26.5
 21
134.35
 31
0.0
  0
LINE
  5
F1
330
E8
100
AcDbEntity
  8
$DDT_AUDIT_GENERATED_(81)
  6
Continuous
 62
     7
100
AcDbLine
 10
56.2
 20
134.35
 30
0.0
 11
56.2
 21
138.05
 31
0.0
  0
ARC
  5
F2
330
E8
100
AcDbEntity
  8
$DDT_AUDIT_GENERATED_(81)
  6
Continuous
 62
     7
100
AcDbCircle
 10
27.0
 20
134.35
 30
0.0
 40
0.5000000000000004
100
AcDbArc
 50
180.0
 51
270.0
  0
ARC
  5
F3
330
E8
100
AcDbEntity
  8
$DDT_AUDIT_GENERATED_(81)
  6
Continuous
 62
     7
100
AcDbCircle
 10
55.7
 20
134.35
 30
0.0
 40
0.5000000000000004
100
AcDbArc
 50
270.0
 51
0.0
  0
LINE
  5
F4
330
E8
100
AcDbEntity
  8
$DDT_AUDIT_GENERATED_(85)
  6
Continuous
 62
     7
100
AcDbLine
 10
54.85
 20
114.35
 30
0.0
 11
70.8307621135
 21
114.35
 31
0.0
  0
LINE
  5
F5
330
E8
100
AcDbEntity
  8
$DDT_AUDIT_GENERATED_(85)
  6
Continuous
 62
     7
100
AcDbLine
 10
70.8307621135
 20
114.35
 30
0.0
 11
71.0807621135
 21
114.35
 31
0.0
  0
LINE
  5
F6
330
E8
100
AcDbEntity
  8
$DDT_AUDIT_GENERATED_(85)
  6
Continuous
 62
     7
100
AcDbLine
 10
48.35
 20
114.35
 30
0.0
 11
48.9687925553
 21
114.35
 31
0.0
  0
LINE
  5
F7
330
E8
100
AcDbEntity
  8
$DDT_AUDIT_GENERATED_(85)
  6
Continuous
 62
     7
100
AcDbLine
 10
47.85
 20
114.35
 30
0.0
 11
48.35
 21
114.35
 31
0.0
  0
LINE
  5
F8
330
E8
100
AcDbEntity
  8
$DDT_AUDIT_GENERATED_(85)
  6
Continuous
 62
     7
100
AcDbLine
 10
34.85
 20
114.35
 30
0.0
 11
47.85
 21
114.35
 31
0.0
  0
LINE
  5
F9
330
E8
100
AcDbEntity
  8
$DDT_AUDIT_GENERATED_(85)
  6
Continuous
 62
     7
100
AcDbLine
 10
34.35
 20
114.35
 30
0.0
 11
34.85
 21
114.35
 31
0.0
  0
LINE
  5
FA
330
E8
100
AcDbEntity
  8
$DDT_AUDIT_GENERATED_(85)
  6
Continuous
 62
     7
100
AcDbLine
 10
11.6192378865
 20
114.35
 30
0.0
 11
11.8692378865
 21
114.35
 31
0.0
  0
LINE
  5
FB
330
E8
100
AcDbEntity
  8
$DDT_AUDIT_GENERATED_(85)
  6
Continuous
 62
     7
100
AcDbLine
 10
11.8692378865
 20
114.35
 30
0.0
 11
27.85
 21
114.35
 31
0.0
  0
LINE
  5
FC
330
E8
100
AcDbEntity
  8
$DDT_AUDIT_GENERATED_(85)
  6
Continuous
 62
     7
100
AcDbLine
 10
27.85
 20
114.35
 30
0.0
 11
30.9726988053
 21
114.35
 31
0.0
  0
LINE
  5
FD
330
E8
100
AcDbEntity
  8
$DDT_AUDIT_GENERATED_(85)
  6
Continuous
 62
     7
100
AcDbLine
 10
48.85
 20
113.85
 30
0.0
 11
48.85
 21
106.9981500327
 31
0.0
  0
ARC
  5
FE
330
E8
100
AcDbEntity
  8
$DDT_AUDIT_GENERATED_(85)
  6
Continuous
 62
     7
100
AcDbCircle
 10
48.35
 20
113.85
 30
0.0
 40
0.4999999999999996
100
AcDbArc
 50
0.0
 51
90.0
  0
ARC
  5
FF
330
E8
100
AcDbEntity
  8
$DDT_AUDIT_GENERATED_(85)
  6
Continuous
 62
     7
100
AcDbCircle
 10
34.35
 20
113.85
 30
0.0
 40
0.4999999999999996
100
AcDbArc
 50
90.0
 51
180.0
  0
ARC
  5
100
330
E8
100
AcDbEntity
  8
$DDT_AUDIT_GENERATED_(85)
  6
Continuous
 62
     7
100
AcDbCircle
 10
51.6016001082
 20
442.939713903
 30
0.0
 40
336.5769419475302
100
AcDbArc
 50
269.4475096187
 51
270.5533452369
  0
ELLIPSE
  5
101
330
E8
100
AcDbEntity
  8
$DDT_AUDIT_GENERATED_(85)
  6
Continuous
 62
     7
100
AcDbEllipse
 10
44.8505780484
 20
3309.7527574771
 30
0.0
 11
-0.0001266785331658846
 21
-3203.395106949665
 31
0.0
210
0.0
220
0.0
230
1.0
 40
0.8660261575
 41
0.0036052164196353
 42
0.0093666889591192
  0
ARC
  5
102
330
E8
100
AcDbEntity
  8
$DDT_AUDIT_GENERATED_(85)
  6
Continuous
 62
     7
100
AcDbCircle
 10
31.0983998918
 20
442.8691170169
 30
0.0
 40
336.5063483543746
100
AcDbArc
 50
269.4465386766
 51
270.5525785401
  0
ELLIPSE
  5
103
330
E8
100
AcDbEntity
  8
$DDT_AUDIT_GENERATED_(85)
  6
Continuous
 62
     7
100
AcDbEllipse
 10
37.8494187614
 20
3309.7519782896
 30
0.0
 11
0.0001394393196003582
 21
-3203.394327769869
 31
0.0
210
0.0
220
0.0
230
1.0
 40
0.8660262628
 41
6.273818613631473
 42
6.279580086871841
  0
ARC
  5
104
330
E8
100
AcDbEntity
  8
$DDT_AUDIT_GENERATED_(85)
  6
Continuous
 62
     7
100
AcDbCircle
 10
11.6899944497
 20
102.9902927189
 30
0.0
 40
3.512225043512586
100
AcDbArc
 50
87.1498595996
 51
89.3824062291
  0
LINE
  5
105
330
E8
100
AcDbEntity
  8
$DDT_AUDIT_GENERATED_(85)
  6
Continuous
 62
     7
100
AcDbLine
 10
33.85
 20
106.9981500327
 30
0.0
 11
33.85
 21
113.85
 31
0.0
  0
LINE
  5
106
330
E8
100
AcDbEntity
  8
$DDT_AUDIT_GENERATED_(85)
  6
Continuous
 62
     7
100
AcDbLine
 10
33.85
 20
106.8784638404
 30
0.0
 11
33.85
 21
106.9981500327
 31
0.0
  0
LINE
  5
107
330
E8
100
AcDbEntity
  8
$DDT_AUDIT_GENERATED_(85)
  6
Continuous
 62
     7
100
AcDbLine
 10
48.85
 20
106.9981500327
 30
0.0
 11
48.85
 21
106.8784638404
 31
0.0
  0
ELLIPSE
  5
108
330
E8
100
AcDbEntity
  8
$DDT_AUDIT_GENERATED_(85)
  6
Continuous
 62
     7
100
AcDbEllipse
 10
48.35
 20
106.9981500327
 30
0.0
 11
-0.5000000000001497
 21
3.852126950754098E-11
 31
0.0
210
0.0
220
0.0
230
1.0
 40
0.9999561333
 41
2.383982553857666
 42
3.141592653589793
  0
ELLIPSE
  5
109
330
E8
100
AcDbEntity
  8
$DDT_AUDIT_GENERATED_(85)
  6
Continuous
 62
     7
100
AcDbEllipse
 10
34.35
 20
106.9981500327
 30
0.0
 11
0.4999999999989856
 21
4.334033132380455E-11
 31
0.0
210
0.0
220
0.0
230
1.0
 40
0.9999561333
 41
3.141592653502768
 42
3.929951892118348
  0
ARC
  5
10A
330
E8
100
AcDbEntity
  8
$DDT_AUDIT_GENERATED_(85)
  6
Continuous
 62
     7
100
AcDbCircle
 10
48.8378527099
 20
108.9709880643
 30
0.0
 40
5.380605416406898
100
AcDbArc
 50
87.9454459773
 51
88.6055395956
  0
LINE
  5
10B
330
E8
100
AcDbEntity
  8
$DDT_AUDIT_GENERATED_(85)
  6
Continuous
 62
     7
100
AcDbLine
 10
33.7312074447
 20
114.35
 30
0.0
 11
34.35
 21
114.35
 31
0.0
  0
ARC
  5
10C
330
E8
100
AcDbEntity
  8
$DDT_AUDIT_GENERATED_(85)
  6
Continuous
 62
     7
100
AcDbCircle
 10
33.8619869269
 20
108.9726830465
 30
0.0
 40
5.378907035027581
100
AcDbArc
 50
91.3931921063
 51
92.0411799203
  0
LINE
  5
10D
330
E8
100
AcDbEntity
  8
$DDT_AUDIT_GENERATED_(85)
  6
Continuous
 62
     7
100
AcDbLine
 10
51.7273011947
 20
114.35
 30
0.0
 11
54.85
 21
114.35
 31
0.0
  0
ARC
  5
10E
330
E8
100
AcDbEntity
  8
$DDT_AUDIT_GENERATED_(85)
  6
Continuous
 62
     7
100
AcDbCircle
 10
51.8793148244
 20
109.3471254974
 30
0.0
 40
5.005183456436842
100
AcDbArc
 50
91.7404115222
 51
92.330473364
  0
ARC
  5
10F
330
E8
100
AcDbEntity
  8
$DDT_AUDIT_GENERATED_(85)
  6
Continuous
 62
     7
100
AcDbCircle
 10
30.8205238716
 20
109.3455307147
 30
0.0
 40
5.006782403662227
100
AcDbArc
 50
87.6369106967
 51
88.258297704
  0
ARC
  5
110
330
E8
100
AcDbEntity
  8
$DDT_AUDIT_GENERATED_(85)
  6
Continuous
 62
     7
100
AcDbCircle
 10
41.35
 20
118.259477291
 30
0.0
 40
3.681908537726479
100
AcDbArc
 50
247.8208687736
 51
292.1791312264
  0
SPLINE
  5
111
330
E8
100
AcDbEntity
  8
$DDT_AUDIT_GENERATED_(85)
  6
Continuous
 62
     7
100
AcDbSpline
210
0.0
220
0.0
230
1.0
 70
     8
 71
     3
 72
    16
 73
    12
 74
     0
 42
0.0000000012161836
 43
0.0000000001
 40
0.1761466033238194
 40
0.1761466033238194
 40
0.1761466033238194
 40
0.1761466033238194
 40
0.212110198905815
 40
0.251728933005185
 40
0.3148642719185885
 40
0.3780433769119617
 40
0.5018767330373753
 40
0.6257204452338643
 40
0.6887547032301803
 40
0.7521075076353283
 40
0.8259810422611319
 40
0.8259810422611319
 40
0.8259810422611319
 40
0.8259810422611319
 10
42.99998725158972
 20
116.381042808696
 30
0.0
 10
42.99987483546145
 20
116.4771318000408
 30
0.0
 10
42.98222763271509
 20
116.6789416555934
 30
0.0
 10
42.88511436551671
 20
117.0364179015218
 30
0.0
 10
42.66816416570744
 20
117.4264829490944
 30
0.0
 10
42.19096227759191
 20
117.8920697183141
 30
0.0
 10
41.34863696107586
 20
118.1729423207913
 30
0.0
 10
40.50895683167978
 20
117.8921970033407
 30
0.0
 10
40.0288849417934
 20
117.4234461115436
 30
0.0
 10
39.77175138927551
 20
116.9584770133649
 30
0.0
 10
39.69695635484118
 20
116.5799885356295
 30
0.0
 10
39.69587636940337
 20
116.3803049444512
 30
0.0
  0
ARC
  5
112
330
E8
100
AcDbEntity
  8
$DDT_AUDIT_GENERATED_(85)
  6
Continuous
 62
     7
100
AcDbCircle
 10
41.35
 20
116.4584936863
 30
0.0
 40
1.707885930173835
100
AcDbArc
 50
230.5830706582
 51
309.4169293418
  0
SPLINE
  5
113
330
E8
100
AcDbEntity
  8
$DDT_AUDIT_GENERATED_(85)
  6
Continuous
 62
     7
100
AcDbSpline
210
0.0
220
0.0
230
1.0
 70
     8
 71
     3
 72
    21
 73
    17
 74
     0
 42
0.0000000009735458
 43
0.0000000001
 40
0.0
 40
0.0
 40
0.0
 40
0.0
 40
0.041576674725851
 40
0.0826849906264355
 40
0.1253312516637554
 40
0.1879796551940383
 40
0.2494201079095587
 40
0.3737335486429141
 40
0.5000340367339132
 40
0.5001478158918434
 40
0.6264534814739351
 40
0.7507038898554199
 40
0.8121035746916986
 40
0.8746742317153272
 40
0.9378431777079845
 40
1.0
 40
1.0
 40
1.0
 40
1.0
 10
39.96006651874682
 20
114.8500000000006
 30
0.0
 10
39.857749833962
 20
114.9427409906319
 30
0.0
 10
39.65426905590205
 20
115.1271782500231
 30
0.0
 10
39.43414465080448
 20
115.4853516313473
 30
0.0
 10
39.26863171741228
 20
115.9444360280288
 30
0.0
 10
39.2054593446092
 20
116.5056266855034
 30
0.0
 10
39.38826374248281
 20
117.3253018473151
 30
0.0
 10
40.08109979764191
 20
118.172301615769
 30
0.0
 10
40.92901464827649
 20
118.4440919733905
 30
0.0
 10
41.7698668651724
 20
118.4450973078491
 30
0.0
 10
42.61832787266641
 20
118.1740262402279
 30
0.0
 10
43.31073864496064
 20
117.3277718982683
 30
0.0
 10
43.4938255352465
 20
116.5075989708281
 30
0.0
 10
43.42270207170114
 20
115.8814076182448
 30
0.0
 10
43.18974553777882
 20
115.2860106995994
 30
0.0
 10
42.88906139748431
 20
114.9945522994382
 30
0.0
 10
42.73993348125354
 20
114.8500000000006
 30
0.0
  0
LINE
  5
114
330
E8
100
AcDbEntity
  8
$DDT_AUDIT_GENERATED_(85)
  6
Continuous
 62
     7
100
AcDbLine
 10
42.7399334813
 20
114.85
 30
0.0
 11
42.4344372131
 21
115.1390732524
 31
0.0
  0
LINE
  5
115
330
E8
100
AcDbEntity
  8
$DDT_AUDIT_GENERATED_(85)
  6
Continuous
 62
     7
100
AcDbLine
 10
40.2655627869
 20
115.1390732524
 30
0.0
 11
39.9600665187
 21
114.85
 31
0.0
  0
LINE
  5
116
330
E8
100
AcDbEntity
  8
$DDT_AUDIT_GENERATED_(85)
  6
Continuous
 62
     7
100
AcDbLine
 10
51.6
 20
114.85
 30
0.0
 11
51.6
 21
133.85
 31
0.0
  0
LINE
  5
117
330
E8
100
AcDbEntity
  8
$DDT_AUDIT_GENERATED_(85)
  6
Continuous
 62
     7
100
AcDbLine
 10
31.1
 20
133.85
 30
0.0
 11
31.1
 21
114.85
 31
0.0
  0
ARC
  5
118
330
E8
100
AcDbEntity
  8
$DDT_AUDIT_GENERATED_(85)
  6
Continuous
 62
     7
100
AcDbCircle
 10
41.35
 20
3309.7583333333
 30
0.0
 40
3203.408333333316
100
AcDbArc
 50
269.7495577819
 51
270.2504422181
  0
LINE
  5
119
330
E8
100
AcDbEntity
  8
$DDT_AUDIT_GENERATED_(85)
  6
Continuous
 62
     7
100
AcDbLine
 10
71.5807621135
 20
107.0016737363
 30
0.0
 11
71.5807621135
 21
113.85
 31
0.0
  0
LINE
  5
11A
330
E8
100
AcDbEntity
  8
$DDT_AUDIT_GENERATED_(85)
  6
Continuous
 62
     7
100
AcDbLine
 10
11.1192378865
 20
113.85
 30
0.0
 11
11.1192378865
 21
107.0016342387
 31
0.0
  0
ARC
  5
11B
330
E8
100
AcDbEntity
  8
$DDT_AUDIT_GENERATED_(85)
  6
Continuous
 62
     7
100
AcDbCircle
 10
71.0807621135
 20
113.85
 30
0.0
 40
0.5000000000000004
100
AcDbArc
 50
0.0
 51
90.0
  0
ARC
  5
11C
330
E8
100
AcDbEntity
  8
$DDT_AUDIT_GENERATED_(85)
  6
Continuous
 62
     7
100
AcDbCircle
 10
11.6192378865
 20
113.85
 30
0.0
 40
0.5000000000000004
100
AcDbArc
 50
90.0
 51
180.0
  0
ARC
  5
11D
330
E8
100
AcDbEntity
  8
$DDT_AUDIT_GENERATED_(85)
  6
Continuous
 62
     7
100
AcDbCircle
 10
71.080972993
 20
106.9933456534
 30
0.0
 40
0.4951644989235198
100
AcDbArc
 50
264.3230873407
 51
0.9590625666
  0
SPLINE
  5
11E
330
E8
100
AcDbEntity
  8
$DDT_AUDIT_GENERATED_(85)
  6
Continuous
 62
     7
100
AcDbSpline
210
0.0
220
0.0
230
1.0
 70
     8
 71
     3
 72
    22
 73
    18
 74
     0
 42
0.0000000111172211
 43
0.0000000001
 40
0.0
 40
0.0
 40
0.0
 40
0.0
 40
0.0788047993211008
 40
0.2111531640891483
 40
0.3242021600601006
 40
0.4231936550253474
 40
0.5092461099117388
 40
0.5819918595980252
 40
0.6401701459618107
 40
0.6816673576883903
 40
0.6992466960628669
 40
0.7108846235020261
 40
0.7242429131722098
 40
0.748675395828473
 40
0.8276215657880297
 40
0.9705015851731901
 40
1.0
 40
1.0
 40
1.0
 40
1.0
 10
11.12491204629518
 20
107.0014703829566
 30
0.0
 10
11.12380617322399
 20
106.970296991672
 30
0.0
 10
11.12219664219176
 20
106.8987538274081
 30
0.0
 10
11.16345179321495
 20
106.7836078767045
 30
0.0
 10
11.23090006070152
 20
106.6796631337053
 30
0.0
 10
11.30945460868557
 20
106.6049803459794
 30
0.0
 10
11.38837721290167
 20
106.5553971231137
 30
0.0
 10
11.46100036027904
 20
106.5256430768459
 30
0.0
 10
11.52104023603279
 20
106.5104134823769
 30
0.0
 10
11.56313381645673
 20
106.5045046208696
 30
0.0
 10
11.58637542226469
 20
106.5026959614875
 30
0.0
 10
11.59634122063193
 20
106.5021525757487
 30
0.0
 10
11.60404916613974
 20
106.501828740573
 30
0.0
 10
11.61580325744209
 20
106.5014648807447
 30
0.0
 10
11.63918403575779
 20
106.5009999081117
 30
0.0
 10
11.6778997589658
 20
106.5003696637851
 30
0.0
 10
11.72051927790242
 20
106.4998622311029
 30
0.0
 10
11.72902533619791
 20
106.4997610643469
 30
0.0
  0
ARC
  5
11F
330
E8
100
AcDbEntity
  8
$DDT_AUDIT_GENERATED_(85)
  6
Continuous
 62
     7
100
AcDbCircle
 10
30.6
 20
114.85
 30
0.0
 40
0.5000000000000022
100
AcDbArc
 50
270.0
 51
0.0
  0
ARC
  5
120
330
E8
100
AcDbEntity
  8
$DDT_AUDIT_GENERATED_(85)
  6
Continuous
 62
     7
100
AcDbCircle
 10
52.1
 20
114.85
 30
0.0
 40
0.5000000000000004
100
AcDbArc
 50
180.0
 51
270.0
  0
ELLIPSE
  5
122
330
E8
100
AcDbEntity
  8
$DDT_AUDIT_GENERATED_(121)
  6
Continuous
 62
     7
100
AcDbEllipse
 10
41.35
 20
116.3892883747
 30
0.0
 11
-1.570500000000004
 21
5.134781488891349E-13
 31
0.0
210
0.0
220
0.0
230
1.0
 40
0.9953961984
 41
0.0
 42
6.283185307179586
  0
ELLIPSE
  5
123
330
E8
100
AcDbEntity
  8
$DDT_AUDIT_GENERATED_(121)
  6
Continuous
 62
     7
100
AcDbEllipse
 10
41.35
 20
116.348122624
 30
0.0
 11
-1.999999999999982
 21
2.435551760271437E-12
 31
0.0
210
0.0
220
0.0
230
1.0
 40
0.9953961984
 41
3.141592653589793
 42
6.283185307179586
  0
LINE
  5
124
330
E8
100
AcDbEntity
  8
$DDT_AUDIT_GENERATED_(121)
  6
Continuous
 62
     7
100
AcDbLine
 10
40.1952994616
 20
116.3892883747
 30
0.0
 11
40.7726497308
 21
117.3846845731
 31
0.0
  0
LINE
  5
125
330
E8
100
AcDbEntity
  8
$DDT_AUDIT_GENERATED_(121)
  6
Continuous
 62
     7
100
AcDbLine
 10
40.7726497308
 20
117.3846845731
 30
0.0
 11
41.9273502692
 21
117.3846845731
 31
0.0
  0
LINE
  5
126
330
E8
100
AcDbEntity
  8
$DDT_AUDIT_GENERATED_(121)
  6
Continuous
 62
     7
100
AcDbLine
 10
40.7726497308
 20
117.192993068
 30
0.0
 11
40.7726497308
 21
117.3846845731
 31
0.0
  0
LINE
  5
127
330
E8
100
AcDbEntity
  8
$DDT_AUDIT_GENERATED_(121)
  6
Continuous
 62
     7
100
AcDbLine
 10
41.9273502692
 20
117.3846845731
 30
0.0
 11
42.5047005384
 21
116.3892883747
 31
0.0
  0
LINE
  5
128
330
E8
100
AcDbEntity
  8
$DDT_AUDIT_GENERATED_(121)
  6
Continuous
 62
     7
100
AcDbLine
 10
41.9273502692
 20
117.192993068
 30
0.0
 11
41.9273502692
 21
117.3846845731
 31
0.0
  0
LINE
  5
129
330
E8
100
AcDbEntity
  8
$DDT_AUDIT_GENERATED_(121)
  6
Continuous
 62
     7
100
AcDbLine
 10
42.5047005384
 20
116.3892883747
 30
0.0
 11
41.9273502692
 21
115.3938921763
 31
0.0
  0
LINE
  5
12A
330
E8
100
AcDbEntity
  8
$DDT_AUDIT_GENERATED_(121)
  6
Continuous
 62
     7
100
AcDbLine
 10
41.9273502692
 20
115.3938921763
 30
0.0
 11
40.7726497308
 21
115.3938921763
 31
0.0
  0
LINE
  5
12B
330
E8
100
AcDbEntity
  8
$DDT_AUDIT_GENERATED_(121)
  6
Continuous
 62
     7
100
AcDbLine
 10
40.7726497308
 20
115.3938921763
 30
0.0
 11
40.1952994616
 21
116.3892883747
 31
0.0
  0
ARC
  5
12C
330
E8
100
AcDbEntity
  8
$DDT_AUDIT_GENERATED_(121)
  6
Continuous
 62
     7
100
AcDbCircle
 10
7.1581126936
 20
136.0249803464
 30
0.0
 40
38.53025882448797
100
AcDbArc
 50
329.191384368
 51
330.7409932083
  0
ARC
  5
12D
330
E8
100
AcDbEntity
  8
$DDT_AUDIT_GENERATED_(121)
  6
Continuous
 62
     7
100
AcDbCircle
 10
41.35
 20
136.7626307101
 30
0.0
 40
19.57815238412737
100
AcDbArc
 50
268.3101301142
 51
271.6898698858
  0
ARC
  5
12E
330
E8
100
AcDbEntity
  8
$DDT_AUDIT_GENERATED_(121)
  6
Continuous
 62
     7
100
AcDbCircle
 10
75.5451569143
 20
136.0268767862
 30
0.0
 40
38.53403819400619
100
AcDbArc
 50
209.2590907149
 51
210.8112835817
  0
LINE
  5
12F
330
E8
100
AcDbEntity
  8
$DDT_AUDIT_GENERATED_(98)
  6
Continuous
 62
     7
100
AcDbLine
 10
15.15
 20
179.05
 30
0.0
 11
67.55
 21
179.05
 31
0.0
  0
LINE
  5
130
330
E8
100
AcDbEntity
  8
$DDT_AUDIT_GENERATED_(98)
  6
Continuous
 62
     7
100
AcDbLine
 10
15.15
 20
179.35
 30
0.0
 11
15.15
 21
179.05
 31
0.0
  0
LINE
  5
131
330
E8
100
AcDbEntity
  8
$DDT_AUDIT_GENERATED_(98)
  6
Continuous
 62
     7
100
AcDbLine
 10
67.55
 20
179.05
 30
0.0
 11
67.55
 21
179.35
 31
0.0
  0
LINE
  5
132
330
E8
100
AcDbEntity
  8
$DDT_AUDIT_GENERATED_(9D)
  6
Continuous
 62
     7
100
AcDbLine
 10
74.75
 20
189.35
 30
0.0
 11
7.95
 21
189.35
 31
0.0
  0
LINE
  5
133
330
E8
100
AcDbEntity
  8
$DDT_AUDIT_GENERATED_(9D)
  6
Continuous
 62
     7
100
AcDbLine
 10
74.75
 20
189.35
 30
0.0
 11
76.35
 21
189.35
 31
0.0
  0
LINE
  5
134
330
E8
100
AcDbEntity
  8
$DDT_AUDIT_GENERATED_(9D)
  6
Continuous
 62
     7
100
AcDbLine
 10
76.35
 20
189.35
 30
0.0
 11
76.35
 21
180.55
 31
0.0
  0
LINE
  5
135
330
E8
100
AcDbEntity
  8
$DDT_AUDIT_GENERATED_(9D)
  6
Continuous
 62
     7
100
AcDbLine
 10
6.35
 20
189.35
 30
0.0
 11
7.95
 21
189.35
 31
0.0
  0
LINE
  5
136
330
E8
100
AcDbEntity
  8
$DDT_AUDIT_GENERATED_(9D)
  6
Continuous
 62
     7
100
AcDbLine
 10
7.95
 20
179.35
 30
0.0
 11
7.55
 21
179.35
 31
0.0
  0
LINE
  5
137
330
E8
100
AcDbEntity
  8
$DDT_AUDIT_GENERATED_(9D)
  6
Continuous
 62
     7
100
AcDbLine
 10
75.15
 20
179.35
 30
0.0
 11
74.75
 21
179.35
 31
0.0
  0
LINE
  5
138
330
E8
100
AcDbEntity
  8
$DDT_AUDIT_GENERATED_(9D)
  6
Continuous
 62
     7
100
AcDbLine
 10
74.75
 20
179.35
 30
0.0
 11
7.95
 21
179.35
 31
0.0
  0
LINE
  5
139
330
E8
100
AcDbEntity
  8
$DDT_AUDIT_GENERATED_(9D)
  6
Continuous
 62
     7
100
AcDbLine
 10
6.35
 20
180.55
 30
0.0
 11
6.35
 21
189.35
 31
0.0
  0
ARC
  5
13A
330
E8
100
AcDbEntity
  8
$DDT_AUDIT_GENERATED_(9D)
  6
Continuous
 62
     7
100
AcDbCircle
 10
75.15
 20
180.55
 30
0.0
 40
1.2
100
AcDbArc
 50
270.0
 51
0.0
  0
ARC
  5
13B
330
E8
100
AcDbEntity
  8
$DDT_AUDIT_GENERATED_(9D)
  6
Continuous
 62
     7
100
AcDbCircle
 10
7.55
 20
180.55
 30
0.0
 40
1.2
100
AcDbArc
 50
180.0
 51
270.0
  0
ENDBLK
  5
13D
330
E8
100
AcDbEntity
  8
0
100
AcDbBlockEnd
  0
ENDSEC
  0
SECTION
  2
ENTITIES
  0
LINE
  5
5E
330
1F
100
AcDbEntity
  8
Default
  6
Continuous
 62
     7
100
AcDbLine
 10
267.8799104
 20
348.4638737437
 30
0.0
 11
267.8799104
 21
343.6859966271
 31
0.0
  0
LINE
  5
5F
330
1F
100
AcDbEntity
  8
Default
  6
Continuous
 62
     7
100
AcDbLine
 10
30.9726988053
 20
114.35
 30
0.0
 11
51.7273011947
 21
114.35
 31
0.0
  0
INSERT
  5
61
330
1F
100
AcDbEntity
  8
Default
100
AcDbBlockReference
  2
SEANNOT_GROUP
 10
0.0
 20
0.0
 30
0.0
  0
INSERT
  5
6C
330
1F
100
AcDbEntity
  8
Default
100
AcDbBlockReference
  2
SEANNOT_GROUP1
 10
0.0
 20
0.0
 30
0.0
  0
INSERT
  5
72
330
1F
100
AcDbEntity
  8
Default
100
AcDbBlockReference
  2
SEANNOT_GROUP2
 10
0.0
 20
0.0
 30
0.0
  0
INSERT
  5
78
330
1F
100
AcDbEntity
  8
Default
100
AcDbBlockReference
  2
SE
 10
0.0
 20
0.0
 30
0.0
  0
INSERT
  5
AD
330
1F
100
AcDbEntity
  8
Default
100
AcDbBlockReference
  2
SE1
 10
0.0
 20
0.0
 30
0.0
  0
INSERT
  5
E9
330
1F
100
AcDbEntity
  8
Default
100
AcDbBlockReference
  2
SE2
 10
0.0
 20
0.0
 30
0.0
  0
TEXT
  5
13F
330
1F
100
AcDbEntity
  8
Default
  6
Continuous
 62
     7
100
AcDbText
 10
5.9362635081
 20
53.4225120485
 30
0.0
 40
10.0
  1
Grohe AG^J
  7
SEACAD_seiso_ttf
 11
5.9362635081
 21
63.4225120485
 31
0.0
100
AcDbText
 73
     3
  0
TEXT
  5
140
330
1F
100
AcDbEntity
  8
Default
  6
Continuous
 62
     7
100
AcDbText
 10
5.9362635081
 20
37.0588756849
 30
0.0
 40
10.0
  1
 
  7
SEACAD_seiso_ttf
 11
5.9362635081
 21
47.0588756849
 31
0.0
100
AcDbText
 73
     3
  0
TEXT
  5
141
330
1F
100
AcDbEntity
  8
Default
  6
Continuous
 62
     7
100
AcDbText
 10
5.9362635081
 20
20.6952393213
 30
0.0
 40
10.0
  1
ecn: 
  7
SEACAD_seiso_ttf
 11
5.9362635081
 21
30.6952393213
 31
0.0
100
AcDbText
 73
     3
  0
TEXT
  5
142
330
1F
100
AcDbEntity
  8
Default
  6
Continuous
 62
     7
100
AcDbText
 10
5.9362635081
 20
4.3316029576
 30
0.0
 40
10.0
  1
unit: mm
  7
SEACAD_seiso_ttf
 11
5.9362635081
 21
14.3316029576
 31
0.0
100
AcDbText
 73
     3
  0
LINE
  5
143
330
1F
100
AcDbEntity
  8
Default
  6
Continuous
 62
     7
100
AcDbLine
 10
0.0
 20
0.0
 30
0.0
 11
100.0
 21
0.0
 31
0.0
  0
LINE
  5
144
330
1F
100
AcDbEntity
  8
Default
  6
Continuous
 62
     7
100
AcDbLine
 10
0.0
 20
0.0
 30
0.0
 11
0.0
 21
100.0
 31
0.0
  0
TEXT
  5
145
330
1F
100
AcDbEntity
  8
Default
  6
Continuous
 62
     7
100
AcDbText
 10
24.3923665681
 20
-18.2375342018
 30
0.0
 40
10.0
  1
100 mm
  7
SEACAD_seiso_ttf
 11
24.3923665681
 21
-8.2375342018
 31
0.0
100
AcDbText
 73
     3
  0
TEXT
  5
146
330
1F
100
AcDbEntity
  8
Default
  6
Continuous
 62
     7
100
AcDbText
 10
-7.6150308803
 20
24.6231930421
 30
0.0
 40
10.0
  1
100 mm
 50
90.0
  7
SEACAD_seiso_ttf
 11
-17.6150308803
 21
24.6231930421
 31
0.0
100
AcDbText
 73
     3
  0
TEXT
  5
147
330
1F
100
AcDbEntity
  8
Default
  6
Continuous
 62
     7
100
AcDbText
 10
28.4878128572
 20
20.0907663715
 30
0.0
 40
10.0
  1
212723
  7
SEACAD_seiso_ttf
 11
28.4878128572
 21
30.0907663715
 31
0.0
100
AcDbText
 73
     3
  0
TEXT
  5
148
330
1F
100
AcDbEntity
  8
Default
  6
Continuous
 62
     7
100
AcDbText
 10
5.9012241913
 20
36.7242780188
 30
0.0
 40
10.0
  1
19423000
  7
SEACAD_seiso_ttf
 11
5.9012241913
 21
46.7242780188
 31
0.0
100
AcDbText
 73
     3
  0
ENDSEC
  0
SECTION
  2
OBJECTS
  0
DICTIONARY
  5
C
330
0
100
AcDbDictionary
281
     1
  3
ACAD_GROUP
350
D
  3
ACAD_LAYOUT
350
1A
  3
ACAD_MLEADERSTYLE
350
14C
  3
ACAD_MLINESTYLE
350
17
  3
ACAD_PLOTSETTINGS
350
19
  3
ACAD_PLOTSTYLENAME
350
E
  3
ACAD_SCALELIST
350
3B
  3
ACAD_TABLESTYLE
350
14B
  3
ACAD_VISUALSTYLE
350
2A
  3
AcDbVariableDictionary
350
149
  0
DICTIONARY
  5
D
102
{ACAD_REACTORS
330
C
102
}
330
C
100
AcDbDictionary
281
     1
  0
DICTIONARY
  5
1A
102
{ACAD_REACTORS
330
C
102
}
330
C
100
AcDbDictionary
281
     1
  3
Layout1
350
1E
  3
Model
350
22
  0
DICTIONARY
  5
14C
102
{ACAD_REACTORS
330
C
102
}
330
C
100
AcDbDictionary
281
     1
  0
DICTIONARY
  5
17
102
{ACAD_REACTORS
330
C
102
}
330
C
100
AcDbDictionary
281
     1
  3
Standard
350
18
  0
DICTIONARY
  5
19
102
{ACAD_REACTORS
330
C
102
}
330
C
100
AcDbDictionary
281
     1
  0
ACDBDICTIONARYWDFLT
  5
E
102
{ACAD_REACTORS
330
C
102
}
330
C
100
AcDbDictionary
281
     1
  3
Normal
350
F
100
AcDbDictionaryWithDefault
340
F
  0
DICTIONARY
  5
3B
102
{ACAD_REACTORS
330
C
102
}
330
C
100
AcDbDictionary
281
     1
  3
A0
350
3C
  3
A1
350
3D
  3
A2
350
3E
  3
A3
350
3F
  3
A4
350
40
  3
A5
350
41
  3
A6
350
42
  3
A7
350
43
  3
A8
350
44
  3
A9
350
45
  3
B0
350
46
  3
B1
350
47
  3
B2
350
48
  3
B3
350
49
  3
B4
350
4A
  3
B5
350
4B
  3
B6
350
4C
  3
B7
350
4D
  3
B8
350
4E
  3
B9
350
4F
  3
C0
350
50
  3
C1
350
51
  3
C2
350
52
  3
C3
350
53
  3
C4
350
54
  3
C5
350
55
  3
C6
350
56
  3
C7
350
57
  3
C8
350
58
  3
C9
350
59
  3
D0
350
5A
  3
D1
350
5B
  3
D2
350
5C
  0
DICTIONARY
  5
14B
102
{ACAD_REACTORS
330
C
102
}
330
C
100
AcDbDictionary
281
     1
  0
DICTIONARY
  5
2A
102
{ACAD_REACTORS
330
C
102
}
330
C
100
AcDbDictionary
281
     1
  3
2dWireframe
350
2F
  3
3D Hidden
350
31
  3
3dWireframe
350
30
  3
Basic
350
32
  3
Brighten
350
36
  3
ColorChange
350
3A
  3
Conceptual
350
34
  3
Dim
350
35
  3
Facepattern
350
39
  3
Flat
350
2B
  3
FlatWithEdges
350
2C
  3
Gouraud
350
2D
  3
GouraudWithEdges
350
2E
  3
Linepattern
350
38
  3
Realistic
350
33
  3
Thicken
350
37
  0
DICTIONARY
  5
149
102
{ACAD_REACTORS
330
C
102
}
330
C
100
AcDbDictionary
281
     1
  3
CANNOSCALE
350
14A
  3
PSOLHEIGHT
350
14E
  3
PSOLWIDTH
350
14D
  0
LAYOUT
  5
1E
102
{ACAD_REACTORS
330
1A
102
}
330
1A
100
AcDbPlotSettings
  1

  2
none_device
  4

  6

 40
0.0
 41
0.0
 42
0.0
 43
0.0
 44
0.0
 45
0.0
 46
0.0
 47
0.0
 48
0.0
 49
0.0
140
0.0
141
0.0
142
1.0
143
1.0
 70
   688
 72
     0
 73
     0
 74
     5
  7

 75
    16
147
1.0
148
0.0
149
0.0
100
AcDbLayout
  1
Layout1
 70
     1
 71
     1
 10
0.0
 20
0.0
 11
1682.0
 21
2378.0
 12
0.0
 22
0.0
 32
0.0
 14
0.0
 24
0.0
 34
0.0
 15
1682.0
 25
2378.0
 35
0.0
146
0.0
 13
0.0
 23
0.0
 33
0.0
 16
1.0
 26
0.0
 36
0.0
 17
0.0
 27
1.0
 37
0.0
 76
     0
330
1B
  0
LAYOUT
  5
22
102
{ACAD_REACTORS
330
1A
102
}
330
1A
100
AcDbPlotSettings
  1

  2
none_device
  4

  6

 40
0.0
 41
0.0
 42
0.0
 43
0.0
 44
0.0
 45
0.0
 46
0.0
 47
0.0
 48
0.0
 49
0.0
140
0.0
141
0.0
142
1.0
143
1.0
 70
  1712
 72
     0
 73
     0
 74
     0
  7

 75
     0
147
1.0
148
0.0
149
0.0
100
AcDbLayout
  1
Model
 70
     1
 71
     0
 10
0.0
 20
0.0
 11
1682.0
 21
2378.0
 12
0.0
 22
0.0
 32
0.0
 14
0.0
 24
0.0
 34
0.0
 15
1682.0
 25
2378.0
 35
0.0
146
0.0
 13
0.0
 23
0.0
 33
0.0
 16
1.0
 26
0.0
 36
0.0
 17
0.0
 27
1.0
 37
0.0
 76
     0
330
1F
331
29
  0
MLINESTYLE
  5
18
102
{ACAD_REACTORS
330
17
102
}
330
17
100
AcDbMlineStyle
  2
Standard
 70
     0
  3

 62
   256
 51
90.0
 52
90.0
 71
     2
 49
0.5
 62
   256
  6
BYLAYER
 49
-0.5
 62
   256
  6
BYLAYER
  0
ACDBPLACEHOLDER
  5
F
102
{ACAD_REACTORS
330
E
102
}
330
E
  0
SCALE
  5
3C
102
{ACAD_REACTORS
330
3B
102
}
330
3B
100
AcDbScale
 70
     0
300
1:1
140
1.0
141
1.0
290
     1
  0
SCALE
  5
3D
102
{ACAD_REACTORS
330
3B
102
}
330
3B
100
AcDbScale
 70
     0
300
1:2
140
1.0
141
2.0
290
     0
  0
SCALE
  5
3E
102
{ACAD_REACTORS
330
3B
102
}
330
3B
100
AcDbScale
 70
     0
300
1:4
140
1.0
141
4.0
290
     0
  0
SCALE
  5
3F
102
{ACAD_REACTORS
330
3B
102
}
330
3B
100
AcDbScale
 70
     0
300
1:5
140
1.0
141
5.0
290
     0
  0
SCALE
  5
40
102
{ACAD_REACTORS
330
3B
102
}
330
3B
100
AcDbScale
 70
     0
300
1:8
140
1.0
141
8.0
290
     0
  0
SCALE
  5
41
102
{ACAD_REACTORS
330
3B
102
}
330
3B
100
AcDbScale
 70
     0
300
1:10
140
1.0
141
10.0
290
     0
  0
SCALE
  5
42
102
{ACAD_REACTORS
330
3B
102
}
330
3B
100
AcDbScale
 70
     0
300
1:16
140
1.0
141
16.0
290
     0
  0
SCALE
  5
43
102
{ACAD_REACTORS
330
3B
102
}
330
3B
100
AcDbScale
 70
     0
300
1:20
140
1.0
141
20.0
290
     0
  0
SCALE
  5
44
102
{ACAD_REACTORS
330
3B
102
}
330
3B
100
AcDbScale
 70
     0
300
1:30
140
1.0
141
30.0
290
     0
  0
SCALE
  5
45
102
{ACAD_REACTORS
330
3B
102
}
330
3B
100
AcDbScale
 70
     0
300
1:40
140
1.0
141
40.0
290
     0
  0
SCALE
  5
46
102
{ACAD_REACTORS
330
3B
102
}
330
3B
100
AcDbScale
 70
     0
300
1:50
140
1.0
141
50.0
290
     0
  0
SCALE
  5
47
102
{ACAD_REACTORS
330
3B
102
}
330
3B
100
AcDbScale
 70
     0
300
1:100
140
1.0
141
100.0
290
     0
  0
SCALE
  5
48
102
{ACAD_REACTORS
330
3B
102
}
330
3B
100
AcDbScale
 70
     0
300
2:1
140
2.0
141
1.0
290
     0
  0
SCALE
  5
49
102
{ACAD_REACTORS
330
3B
102
}
330
3B
100
AcDbScale
 70
     0
300
4:1
140
4.0
141
1.0
290
     0
  0
SCALE
  5
4A
102
{ACAD_REACTORS
330
3B
102
}
330
3B
100
AcDbScale
 70
     0
300
8:1
140
8.0
141
1.0
290
     0
  0
SCALE
  5
4B
102
{ACAD_REACTORS
330
3B
102
}
330
3B
100
AcDbScale
 70
     0
300
10:1
140
10.0
141
1.0
290
     0
  0
SCALE
  5
4C
102
{ACAD_REACTORS
330
3B
102
}
330
3B
100
AcDbScale
 70
     0
300
100:1
140
100.0
141
1.0
290
     0
  0
SCALE
  5
4D
102
{ACAD_REACTORS
330
3B
102
}
330
3B
100
AcDbScale
 70
     0
300
1/128" = 1'-0"
140
0.0078125
141
12.0
290
     0
  0
SCALE
  5
4E
102
{ACAD_REACTORS
330
3B
102
}
330
3B
100
AcDbScale
 70
     0
300
1/64" = 1'-0"
140
0.015625
141
12.0
290
     0
  0
SCALE
  5
4F
102
{ACAD_REACTORS
330
3B
102
}
330
3B
100
AcDbScale
 70
     0
300
1/32" = 1'-0"
140
0.03125
141
12.0
290
     0
  0
SCALE
  5
50
102
{ACAD_REACTORS
330
3B
102
}
330
3B
100
AcDbScale
 70
     0
300
1/16" = 1'-0"
140
0.0625
141
12.0
290
     0
  0
SCALE
  5
51
102
{ACAD_REACTORS
330
3B
102
}
330
3B
100
AcDbScale
 70
     0
300
3/32" = 1'-0"
140
0.09375
141
12.0
290
     0
  0
SCALE
  5
52
102
{ACAD_REACTORS
330
3B
102
}
330
3B
100
AcDbScale
 70
     0
300
1/8" = 1'-0"
140
0.125
141
12.0
290
     0
  0
SCALE
  5
53
102
{ACAD_REACTORS
330
3B
102
}
330
3B
100
AcDbScale
 70
     0
300
3/16" = 1'-0"
140
0.1875
141
12.0
290
     0
  0
SCALE
  5
54
102
{ACAD_REACTORS
330
3B
102
}
330
3B
100
AcDbScale
 70
     0
300
1/4" = 1'-0"
140
0.25
141
12.0
290
     0
  0
SCALE
  5
55
102
{ACAD_REACTORS
330
3B
102
}
330
3B
100
AcDbScale
 70
     0
300
3/8" = 1'-0"
140
0.375
141
12.0
290
     0
  0
SCALE
  5
56
102
{ACAD_REACTORS
330
3B
102
}
330
3B
100
AcDbScale
 70
     0
300
1/2" = 1'-0"
140
0.5
141
12.0
290
     0
  0
SCALE
  5
57
102
{ACAD_REACTORS
330
3B
102
}
330
3B
100
AcDbScale
 70
     0
300
3/4" = 1'-0"
140
0.75
141
12.0
290
     0
  0
SCALE
  5
58
102
{ACAD_REACTORS
330
3B
102
}
330
3B
100
AcDbScale
 70
     0
300
1" = 1'-0"
140
1.0
141
12.0
290
     0
  0
SCALE
  5
59
102
{ACAD_REACTORS
330
3B
102
}
330
3B
100
AcDbScale
 70
     0
300
1-1/2" = 1'-0"
140
1.5
141
12.0
290
     0
  0
SCALE
  5
5A
102
{ACAD_REACTORS
330
3B
102
}
330
3B
100
AcDbScale
 70
     0
300
3" = 1'-0"
140
3.0
141
12.0
290
     0
  0
SCALE
  5
5B
102
{ACAD_REACTORS
330
3B
102
}
330
3B
100
AcDbScale
 70
     0
300
6" = 1'-0"
140
6.0
141
12.0
290
     0
  0
SCALE
  5
5C
102
{ACAD_REACTORS
330
3B
102
}
330
3B
100
AcDbScale
 70
     0
300
1'-0" = 1'-0"
140
12.0
141
12.0
290
     0
  0
VISUALSTYLE
  5
2F
102
{ACAD_REACTORS
330
2A
102
}
330
2A
100
AcDbVisualStyle
  2
2dWireframe
 70
     4
 71
     0
 72
     2
 73
     0
 90
        0
 40
-0.6
 41
-30.0
 62
     5
 63
     7
 74
     1
 91
        4
 64
     7
 65
   257
 75
     1
175
     1
 42
1.0
 92
        0
 66
   257
 43
1.0
 76
     1
 77
     6
 78
     2
 67
     7
 79
     5
170
     0
171
     0
290
     0
174
     0
 93
        1
 44
0.0
173
     0
291
     0
 45
0.0
1001
ACAD
1000
AcDbSavedByObjectVersion
1070
     0
  0
VISUALSTYLE
  5
31
102
{ACAD_REACTORS
330
2A
102
}
330
2A
100
AcDbVisualStyle
  2
3D Hidden
 70
     6
 71
     1
 72
     2
 73
     2
 90
        0
 40
-0.6
 41
-30.0
 62
     5
 63
     7
 74
     2
 91
        2
 64
     7
 65
   257
 75
     2
175
     1
 42
40.0
 92
        0
 66
   257
 43
1.0
 76
     1
 77
     6
 78
     2
 67
     7
 79
     3
170
     0
171
     0
290
     0
174
     0
 93
        1
 44
0.0
173
     0
291
     0
 45
0.0
1001
ACAD
1000
AcDbSavedByObjectVersion
1070
     0
  0
VISUALSTYLE
  5
30
102
{ACAD_REACTORS
330
2A
102
}
330
2A
100
AcDbVisualStyle
  2
3dWireframe
 70
     5
 71
     0
 72
     2
 73
     0
 90
        0
 40
-0.6
 41
-30.0
 62
     5
 63
     7
 74
     1
 91
        4
 64
     7
 65
   257
 75
     1
175
     1
 42
1.0
 92
        0
 66
   257
 43
1.0
 76
     1
 77
     6
 78
     2
 67
     7
 79
     5
170
     0
171
     0
290
     0
174
     0
 93
        1
 44
0.0
173
     0
291
     0
 45
0.0
1001
ACAD
1000
AcDbSavedByObjectVersion
1070
     0
  0
VISUALSTYLE
  5
32
102
{ACAD_REACTORS
330
2A
102
}
330
2A
100
AcDbVisualStyle
  2
Basic
 70
     7
 71
     1
 72
     0
 73
     1
 90
        0
 40
-0.6
 41
-30.0
 62
     5
 63
     7
 74
     0
 91
        4
 64
     7
 65
   257
 75
     1
175
     1
 42
1.0
 92
        8
 66
     7
 43
1.0
 76
     1
 77
     6
 78
     2
 67
     7
 79
     5
170
     0
171
     0
290
     0
174
     0
 93
        1
 44
0.0
173
     0
291
     1
 45
0.0
1001
ACAD
1000
AcDbSavedByObjectVersion
1070
     0
  0
VISUALSTYLE
  5
36
102
{ACAD_REACTORS
330
2A
102
}
330
2A
100
AcDbVisualStyle
  2
Brighten
 70
    12
 71
     2
 72
     2
 73
     0
 90
        0
 40
-0.6
 41
-30.0
 62
     5
 63
     7
 74
     1
 91
        4
 64
     7
 65
   257
 75
     1
175
     1
 42
1.0
 92
        8
 66
     7
 43
1.0
 76
     1
 77
     6
 78
     2
 67
     7
 79
     5
170
     0
171
     0
290
     0
174
     0
 93
        1
 44
50.0
173
     0
291
     1
 45
0.0
1001
ACAD
1000
AcDbSavedByObjectVersion
1070
     0
  0
VISUALSTYLE
  5
3A
102
{ACAD_REACTORS
330
2A
102
}
330
2A
100
AcDbVisualStyle
  2
ColorChange
 70
    16
 71
     2
 72
     2
 73
     3
 90
        0
 40
-0.6
 41
-30.0
 62
     5
 63
     8
 74
     1
 91
        4
 64
     7
 65
   257
 75
     1
175
     1
 42
1.0
 92
        8
 66
     8
 43
1.0
 76
     1
 77
     6
 78
     2
 67
     7
 79
     5
170
     0
171
     0
290
     0
174
     0
 93
        1
 44
0.0
173
     0
291
     1
 45
0.0
1001
ACAD
1000
AcDbSavedByObjectVersion
1070
     0
  0
VISUALSTYLE
  5
34
102
{ACAD_REACTORS
330
2A
102
}
330
2A
100
AcDbVisualStyle
  2
Conceptual
 70
     9
 71
     3
 72
     2
 73
     0
 90
        0
 40
-0.6
 41
-30.0
 62
     5
 63
     7
 74
     2
 91
        2
 64
     7
 65
   257
 75
     1
175
     1
 42
40.0
 92
        8
 66
     7
 43
1.0
 76
     1
 77
     6
 78
     2
 67
     7
 79
     3
170
     0
171
     0
290
     0
174
     0
 93
        1
 44
0.0
173
     0
291
     0
 45
0.0
1001
ACAD
1000
AcDbSavedByObjectVersion
1070
     0
  0
VISUALSTYLE
  5
35
102
{ACAD_REACTORS
330
2A
102
}
330
2A
100
AcDbVisualStyle
  2
Dim
 70
    11
 71
     2
 72
     2
 73
     0
 90
        0
 40
-0.6
 41
-30.0
 62
     5
 63
     7
 74
     1
 91
        4
 64
     7
 65
   257
 75
     1
175
     1
 42
1.0
 92
        8
 66
     7
 43
1.0
 76
     1
 77
     6
 78
     2
 67
     7
 79
     5
170
     0
171
     0
290
     0
174
     0
 93
        1
 44
-50.0
173
     0
291
     1
 45
0.0
1001
ACAD
1000
AcDbSavedByObjectVersion
1070
     0
  0
VISUALSTYLE
  5
39
102
{ACAD_REACTORS
330
2A
102
}
330
2A
100
AcDbVisualStyle
  2
Facepattern
 70
    15
 71
     2
 72
     2
 73
     0
 90
        0
 40
-0.6
 41
-30.0
 62
     5
 63
     7
 74
     1
 91
        4
 64
     7
 65
   257
 75
     1
175
     1
 42
1.0
 92
        8
 66
     7
 43
1.0
 76
     1
 77
     6
 78
     2
 67
     7
 79
     5
170
     0
171
     0
290
     0
174
     0
 93
        1
 44
0.0
173
     0
291
     1
 45
0.0
1001
ACAD
1000
AcDbSavedByObjectVersion
1070
     0
  0
VISUALSTYLE
  5
2B
102
{ACAD_REACTORS
330
2A
102
}
330
2A
100
AcDbVisualStyle
  2
Flat
 70
     0
 71
     2
 72
     1
 73
     1
 90
        2
 40
-0.6
 41
30.0
 62
     5
 63
     7
 74
     0
 91
        4
 64
     7
 65
   257
 75
     1
175
     1
 42
1.0
 92
        8
 66
     7
 43
1.0
 76
     1
 77
     6
 78
     2
 67
     7
 79
     5
170
     0
171
     0
290
     0
174
     0
 93
       13
 44
0.0
173
     0
291
     1
 45
0.0
1001
ACAD
1000
AcDbSavedByObjectVersion
1070
     0
  0
VISUALSTYLE
  5
2C
102
{ACAD_REACTORS
330
2A
102
}
330
2A
100
AcDbVisualStyle
  2
FlatWithEdges
 70
     1
 71
     2
 72
     1
 73
     1
 90
        2
 40
-0.6
 41
30.0
 62
     5
 63
     7
 74
     1
 91
        4
 64
     7
 65
   257
 75
     1
175
     1
 42
1.0
 92
        0
 66
   257
 43
1.0
 76
     1
 77
     6
 78
     2
 67
     7
 79
     5
170
     0
171
     0
290
     0
174
     0
 93
       13
 44
0.0
173
     0
291
     1
 45
0.0
1001
ACAD
1000
AcDbSavedByObjectVersion
1070
     0
  0
VISUALSTYLE
  5
2D
102
{ACAD_REACTORS
330
2A
102
}
330
2A
100
AcDbVisualStyle
  2
Gouraud
 70
     2
 71
     2
 72
     2
 73
     1
 90
        2
 40
-0.6
 41
30.0
 62
     5
 63
     7
 74
     0
 91
        4
 64
     7
 65
   257
 75
     1
175
     1
 42
1.0
 92
        0
 66
     7
 43
1.0
 76
     1
 77
     6
 78
     2
 67
     7
 79
     5
170
     0
171
     0
290
     0
174
     0
 93
       13
 44
0.0
173
     0
291
     1
 45
0.0
1001
ACAD
1000
AcDbSavedByObjectVersion
1070
     0
  0
VISUALSTYLE
  5
2E
102
{ACAD_REACTORS
330
2A
102
}
330
2A
100
AcDbVisualStyle
  2
GouraudWithEdges
 70
     3
 71
     2
 72
     2
 73
     1
 90
        2
 40
-0.6
 41
30.0
 62
     5
 63
     7
 74
     1
 91
        4
 64
     7
 65
   257
 75
     1
175
     1
 42
1.0
 92
        0
 66
   257
 43
1.0
 76
     1
 77
     6
 78
     2
 67
     7
 79
     5
170
     0
171
     0
290
     0
174
     0
 93
       13
 44
0.0
173
     0
291
     1
 45
0.0
1001
ACAD
1000
AcDbSavedByObjectVersion
1070
     0
  0
VISUALSTYLE
  5
38
102
{ACAD_REACTORS
330
2A
102
}
330
2A
100
AcDbVisualStyle
  2
Linepattern
 70
    14
 71
     2
 72
     2
 73
     0
 90
        0
 40
-0.6
 41
-30.0
 62
     5
 63
     7
 74
     1
 91
        4
 64
     7
 65
   257
 75
     7
175
     7
 42
1.0
 92
        8
 66
     7
 43
1.0
 76
     1
 77
     6
 78
     2
 67
     7
 79
     5
170
     0
171
     0
290
     0
174
     0
 93
        1
 44
0.0
173
     0
291
     1
 45
0.0
1001
ACAD
1000
AcDbSavedByObjectVersion
1070
     0
  0
VISUALSTYLE
  5
33
102
{ACAD_REACTORS
330
2A
102
}
330
2A
100
AcDbVisualStyle
  2
Realistic
 70
     8
 71
     2
 72
     2
 73
     0
 90
        0
 40
-0.6
 41
-30.0
 62
     5
 63
     7
 74
     1
 91
        0
 64
     7
 65
   257
 75
     1
175
     1
 42
1.0
 92
        8
 66
     8
 43
1.0
 76
     1
 77
     6
 78
     2
 67
     7
 79
     5
170
     0
171
     0
290
     0
174
     0
 93
       13
 44
0.0
173
     0
291
     0
 45
0.0
1001
ACAD
1000
AcDbSavedByObjectVersion
1070
     0
  0
VISUALSTYLE
  5
37
102
{ACAD_REACTORS
330
2A
102
}
330
2A
100
AcDbVisualStyle
  2
Thicken
 70
    13
 71
     2
 72
     2
 73
     0
 90
        0
 40
-0.6
 41
-30.0
 62
     5
 63
     7
 74
     1
 91
        4
 64
     7
 65
   257
 75
     1
175
     1
 42
1.0
 92
       12
 66
     7
 43
1.0
 76
     1
 77
     6
 78
     2
 67
     7
 79
     5
170
     0
171
     0
290
     0
174
     0
 93
        1
 44
0.0
173
     0
291
     1
 45
0.0
1001
ACAD
1000
AcDbSavedByObjectVersion
1070
     0
  0
DICTIONARYVAR
  5
14A
102
{ACAD_REACTORS
330
149
102
}
330
149
100
DictionaryVariables
280
     0
  1
1:1
  0
DICTIONARYVAR
  5
14E
102
{ACAD_REACTORS
330
149
102
}
330
149
100
DictionaryVariables
280
     0
  1
80.000000
  0
DICTIONARYVAR
  5
14D
102
{ACAD_REACTORS
330
149
102
}
330
149
100
DictionaryVariables
280
     0
  1
5.000000
  0
ENDSEC
  0
EOF
