999
Converted by 3D Exploration 
999
XDimension Software, LLC
999
http://www.xdsoft.com/explorer/
0
SECTION
2
HEADER
9
$ACADVER
1
AC1008
9
$UCSORG
10
0.0
20
0.0
30
0.0
9
$UCSXDIR
10
1.0
20
0.0
30
0.0
9
$TILEMODE
70
1
9
$UCSYDIR
10
0.0
20
1.0
30
0.0
9
$EXTMIN
10
0.000000
20
-427.000000
30
-427.000000
9
$EXTMAX
10
59.999001
20
427.000000
30
27.000000
0
ENDSEC
0
SECTION
2
TABLES
0
TABLE
2
LTYPE
70
1
0
LTYPE
2
CONTINUOUS
70
64
3
Solid line
72
65
73
0
40
0.0
0
ENDTAB
0
TABLE
2
LAYER
70
28
0
LAYER
2
OBJECT__0
70
0
62
253
6
CONTINUOUS
0
LAYER
2
OBJECT__1
70
0
62
253
6
CONTINUOUS
0
LAYER
2
OBJECT__3
70
0
62
253
6
CONTINUOUS
0
LAYER
2
OBJECT__4
70
0
62
253
6
CONTINUOUS
0
LAYER
2
OBJECT__5
70
0
62
253
6
CONTINUOUS
0
LAYER
2
OBJECT__6
70
0
62
253
6
CONTINUOUS
0
LAYER
2
OBJECT__7
70
0
62
253
6
CONTINUOUS
0
LAYER
2
OBJECT__8
70
0
62
253
6
CONTINUOUS
0
LAYER
2
OBJECT__9
70
0
62
253
6
CONTINUOUS
0
LAYER
2
OBJECT__10
70
0
62
253
6
CONTINUOUS
0
LAYER
2
OBJECT__11
70
0
62
253
6
CONTINUOUS
0
LAYER
2
OBJECT__12
70
0
62
253
6
CONTINUOUS
0
LAYER
2
OBJECT__13
70
0
62
253
6
CONTINUOUS
0
LAYER
2
OBJECT__14
70
0
62
253
6
CONTINUOUS
0
LAYER
2
OBJECT__15
70
0
62
253
6
CONTINUOUS
0
LAYER
2
OBJECT__16
70
0
62
253
6
CONTINUOUS
0
LAYER
2
OBJECT__17
70
0
62
253
6
CONTINUOUS
0
LAYER
2
OBJECT__18
70
0
62
253
6
CONTINUOUS
0
LAYER
2
OBJECT__19
70
0
62
253
6
CONTINUOUS
0
LAYER
2
OBJECT__20
70
0
62
253
6
CONTINUOUS
0
LAYER
2
OBJECT__21
70
0
62
253
6
CONTINUOUS
0
LAYER
2
OBJECT__22
70
0
62
253
6
CONTINUOUS
0
LAYER
2
OBJECT__23
70
0
62
253
6
CONTINUOUS
0
LAYER
2
OBJECT__24
70
0
62
253
6
CONTINUOUS
0
LAYER
2
OBJECT__25
70
0
62
253
6
CONTINUOUS
0
LAYER
2
OBJECT__26
70
0
62
253
6
CONTINUOUS
0
LAYER
2
OBJECT__27
70
0
62
253
6
CONTINUOUS
0
ENDTAB
0
TABLE
2
STYLE
70
1
0
STYLE
2
STANDARD
70
0
40
0.0
41
1.0
50
0.0
71
0
42
0.2
3
txt
4
1
0
ENDTAB
0
TABLE
2
UCS
70
0
0
ENDTAB
0
ENDSEC
0
SECTION
2
ENTITIES
0
POLYLINE
8
OBJECT__0
66
1
70
64
71
7
72
5
62
253
0
VERTEX
8
OBJECT__0
10
59.999001
20
396.095001
30
8.109000
70
192
0
VERTEX
8
OBJECT__0
10
59.999001
20
391.226013
30
2.003000
70
192
0
VERTEX
8
OBJECT__0
10
59.999001
20
392.963989
30
-5.611000
70
192
0
VERTEX
8
OBJECT__0
10
59.999001
20
407.036011
30
-5.611000
70
192
0
VERTEX
8
OBJECT__0
10
59.999001
20
408.773987
30
2.003000
70
192
0
VERTEX
8
OBJECT__0
10
59.999001
20
403.904999
30
8.109000
70
192
0
VERTEX
8
OBJECT__0
10
59.999001
20
400.000000
30
-9.000000
70
192
0
VERTEX
8
OBJECT__0
10
0
20
0
30
0
70
128
71
1
72
2
73
3
0
VERTEX
8
OBJECT__0
10
0
20
0
30
0
70
128
71
4
72
5
73
6
0
VERTEX
8
OBJECT__0
10
0
20
0
30
0
70
128
71
3
72
7
73
1
0
VERTEX
8
OBJECT__0
10
0
20
0
30
0
70
128
71
7
72
4
73
1
0
VERTEX
8
OBJECT__0
10
0
20
0
30
0
70
128
71
6
72
1
73
4
0
SEQEND
8
OBJECT__0
0
POLYLINE
8
OBJECT__1
66
1
70
64
71
28
72
28
62
253
0
VERTEX
8
OBJECT__1
10
59.999001
20
407.036011
30
-5.611000
70
192
0
VERTEX
8
OBJECT__1
10
59.999001
20
400.000000
30
-9.000000
70
192
0
VERTEX
8
OBJECT__1
10
46.999001
20
403.904999
30
-8.109000
70
192
0
VERTEX
8
OBJECT__1
10
46.999001
20
400.000000
30
-9.000000
70
192
0
VERTEX
8
OBJECT__1
10
59.999001
20
408.773987
30
2.003000
70
192
0
VERTEX
8
OBJECT__1
10
46.999001
20
408.773987
30
-2.003000
70
192
0
VERTEX
8
OBJECT__1
10
46.999001
20
407.036011
30
-5.611000
70
192
0
VERTEX
8
OBJECT__1
10
59.999001
20
403.904999
30
8.109000
70
192
0
VERTEX
8
OBJECT__1
10
46.999001
20
407.036011
30
5.611000
70
192
0
VERTEX
8
OBJECT__1
10
46.999001
20
408.773987
30
2.003000
70
192
0
VERTEX
8
OBJECT__1
10
59.999001
20
396.095001
30
8.109000
70
192
0
VERTEX
8
OBJECT__1
10
46.999001
20
400.000000
30
9.000000
70
192
0
VERTEX
8
OBJECT__1
10
46.999001
20
403.904999
30
8.109000
70
192
0
VERTEX
8
OBJECT__1
10
50.160999
20
391.532990
30
2.983000
70
192
0
VERTEX
8
OBJECT__1
10
50.630001
20
391.239990
30
1.998000
70
192
0
VERTEX
8
OBJECT__1
10
50.006001
20
391.630005
30
3.307000
70
192
0
VERTEX
8
OBJECT__1
10
48.777000
20
392.300995
30
4.661000
70
192
0
VERTEX
8
OBJECT__1
10
46.999001
20
396.095001
30
8.109000
70
192
0
VERTEX
8
OBJECT__1
10
46.999001
20
393.000000
30
5.657000
70
192
0
VERTEX
8
OBJECT__1
10
59.999001
20
392.963989
30
-5.611000
70
192
0
VERTEX
8
OBJECT__1
10
50.695000
20
391.200012
30
-1.887000
70
192
0
VERTEX
8
OBJECT__1
10
50.108002
20
391.558014
30
-2.951000
70
192
0
VERTEX
8
OBJECT__1
10
59.999001
20
391.226013
30
2.003000
70
192
0
VERTEX
8
OBJECT__1
10
50.999001
20
391.001007
30
0.113000
70
192
0
VERTEX
8
OBJECT__1
10
50.721001
20
391.183014
30
1.807000
70
192
0
VERTEX
8
OBJECT__1
10
49.632000
20
391.847992
30
-3.814000
70
192
0
VERTEX
8
OBJECT__1
10
47.070000
20
392.968994
30
-5.608000
70
192
0
VERTEX
8
OBJECT__1
10
46.999001
20
393.000000
30
-5.657000
70
192
0
VERTEX
8
OBJECT__1
10
0
20
0
30
0
70
128
71
1
72
2
73
3
0
VERTEX
8
OBJECT__1
10
0
20
0
30
0
70
128
71
2
72
4
73
3
0
VERTEX
8
OBJECT__1
10
0
20
0
30
0
70
128
71
5
72
1
73
6
0
VERTEX
8
OBJECT__1
10
0
20
0
30
0
70
128
71
1
72
7
73
6
0
VERTEX
8
OBJECT__1
10
0
20
0
30
0
70
128
71
8
72
5
73
9
0
VERTEX
8
OBJECT__1
10
0
20
0
30
0
70
128
71
5
72
10
73
9
0
VERTEX
8
OBJECT__1
10
0
20
0
30
0
70
128
71
11
72
8
73
12
0
VERTEX
8
OBJECT__1
10
0
20
0
30
0
70
128
71
8
72
13
73
12
0
VERTEX
8
OBJECT__1
10
0
20
0
30
0
70
128
71
11
72
14
73
15
0
VERTEX
8
OBJECT__1
10
0
20
0
30
0
70
128
71
11
72
16
73
14
0
VERTEX
8
OBJECT__1
10
0
20
0
30
0
70
128
71
11
72
17
73
16
0
VERTEX
8
OBJECT__1
10
0
20
0
30
0
70
128
71
11
72
18
73
19
0
VERTEX
8
OBJECT__1
10
0
20
0
30
0
70
128
71
19
72
17
73
11
0
VERTEX
8
OBJECT__1
10
0
20
0
30
0
70
128
71
20
72
21
73
22
0
VERTEX
8
OBJECT__1
10
0
20
0
30
0
70
128
71
20
72
23
73
24
0
VERTEX
8
OBJECT__1
10
0
20
0
30
0
70
128
71
23
72
15
73
25
0
VERTEX
8
OBJECT__1
10
0
20
0
30
0
70
128
71
25
72
24
73
23
0
VERTEX
8
OBJECT__1
10
0
20
0
30
0
70
128
71
24
72
21
73
20
0
VERTEX
8
OBJECT__1
10
0
20
0
30
0
70
128
71
22
72
26
73
20
0
VERTEX
8
OBJECT__1
10
0
20
0
30
0
70
128
71
2
72
20
73
27
0
VERTEX
8
OBJECT__1
10
0
20
0
30
0
70
128
71
27
72
4
73
2
0
VERTEX
8
OBJECT__1
10
0
20
0
30
0
70
128
71
27
72
28
73
4
0
VERTEX
8
OBJECT__1
10
0
20
0
30
0
70
128
71
26
72
27
73
20
0
VERTEX
8
OBJECT__1
10
0
20
0
30
0
70
128
71
15
72
23
73
11
0
VERTEX
8
OBJECT__1
10
0
20
0
30
0
70
128
71
12
72
18
73
11
0
VERTEX
8
OBJECT__1
10
0
20
0
30
0
70
128
71
9
72
13
73
8
0
VERTEX
8
OBJECT__1
10
0
20
0
30
0
70
128
71
6
72
10
73
5
0
VERTEX
8
OBJECT__1
10
0
20
0
30
0
70
128
71
3
72
7
73
1
0
SEQEND
8
OBJECT__1
0
POLYLINE
8
OBJECT__3
66
1
70
64
71
21
72
19
62
253
0
VERTEX
8
OBJECT__3
10
46.999001
20
403.904999
30
-8.109000
70
192
0
VERTEX
8
OBJECT__3
10
46.999001
20
400.000000
30
-9.000000
70
192
0
VERTEX
8
OBJECT__3
10
46.999001
20
400.894012
30
-8.453000
70
192
0
VERTEX
8
OBJECT__3
10
46.999001
20
403.904999
30
8.109000
70
192
0
VERTEX
8
OBJECT__3
10
46.999001
20
404.756012
30
7.045000
70
192
0
VERTEX
8
OBJECT__3
10
46.999001
20
400.894012
30
8.453000
70
192
0
VERTEX
8
OBJECT__3
10
46.999001
20
407.036011
30
5.611000
70
192
0
VERTEX
8
OBJECT__3
10
46.999001
20
407.506012
30
3.989000
70
192
0
VERTEX
8
OBJECT__3
10
46.999001
20
408.773987
30
-2.003000
70
192
0
VERTEX
8
OBJECT__3
10
46.999001
20
407.036011
30
-5.611000
70
192
0
VERTEX
8
OBJECT__3
10
46.999001
20
407.506012
30
-3.989000
70
192
0
VERTEX
8
OBJECT__3
10
46.999001
20
404.756012
30
-7.045000
70
192
0
VERTEX
8
OBJECT__3
10
46.999001
20
402.911987
30
-7.986000
70
192
0
VERTEX
8
OBJECT__3
10
46.999001
20
408.773987
30
2.003000
70
192
0
VERTEX
8
OBJECT__3
10
46.999001
20
408.500000
30
0.000000
70
192
0
VERTEX
8
OBJECT__3
10
46.999001
20
393.656006
30
5.657000
70
192
0
VERTEX
8
OBJECT__3
10
46.999001
20
396.095001
30
8.109000
70
192
0
VERTEX
8
OBJECT__3
10
46.999001
20
393.000000
30
-5.657000
70
192
0
VERTEX
8
OBJECT__3
10
46.999001
20
393.656006
30
-5.657000
70
192
0
VERTEX
8
OBJECT__3
10
46.999001
20
400.000000
30
9.000000
70
192
0
VERTEX
8
OBJECT__3
10
46.999001
20
393.000000
30
5.657000
70
192
0
VERTEX
8
OBJECT__3
10
0
20
0
30
0
70
128
71
1
72
2
73
3
0
VERTEX
8
OBJECT__3
10
0
20
0
30
0
70
128
71
4
72
5
73
6
0
VERTEX
8
OBJECT__3
10
0
20
0
30
0
70
128
71
7
72
8
73
5
0
VERTEX
8
OBJECT__3
10
0
20
0
30
0
70
128
71
9
72
10
73
11
0
VERTEX
8
OBJECT__3
10
0
20
0
30
0
70
128
71
10
72
1
73
12
0
VERTEX
8
OBJECT__3
10
0
20
0
30
0
70
128
71
3
72
13
73
1
0
VERTEX
8
OBJECT__3
10
0
20
0
30
0
70
128
71
5
72
4
73
7
0
VERTEX
8
OBJECT__3
10
0
20
0
30
0
70
128
71
14
72
15
73
8
0
VERTEX
8
OBJECT__3
10
0
20
0
30
0
70
128
71
11
72
15
73
9
0
VERTEX
8
OBJECT__3
10
0
20
0
30
0
70
128
71
13
72
12
73
1
0
VERTEX
8
OBJECT__3
10
0
20
0
30
0
70
128
71
8
72
7
73
14
0
VERTEX
8
OBJECT__3
10
0
20
0
30
0
70
128
71
12
72
11
73
10
0
VERTEX
8
OBJECT__3
10
0
20
0
30
0
70
128
71
6
72
16
73
17
0
VERTEX
8
OBJECT__3
10
0
20
0
30
0
70
128
71
15
72
14
73
9
0
VERTEX
8
OBJECT__3
10
0
20
0
30
0
70
128
71
2
72
18
73
19
0
VERTEX
8
OBJECT__3
10
0
20
0
30
0
70
128
71
17
72
20
73
6
0
VERTEX
8
OBJECT__3
10
0
20
0
30
0
70
128
71
19
72
3
73
2
0
VERTEX
8
OBJECT__3
10
0
20
0
30
0
70
128
71
6
72
20
73
4
0
VERTEX
8
OBJECT__3
10
0
20
0
30
0
70
128
71
16
72
21
73
17
0
SEQEND
8
OBJECT__3
0
POLYLINE
8
OBJECT__4
66
1
70
64
71
22
72
20
62
253
0
VERTEX
8
OBJECT__4
10
46.999001
20
407.506012
30
-3.989000
70
192
0
VERTEX
8
OBJECT__4
10
46.999001
20
404.756012
30
-7.045000
70
192
0
VERTEX
8
OBJECT__4
10
46.015999
20
405.812988
30
-6.202000
70
192
0
VERTEX
8
OBJECT__4
10
46.999001
20
402.911987
30
-7.986000
70
192
0
VERTEX
8
OBJECT__4
10
46.015999
20
400.739014
30
-8.020000
70
192
0
VERTEX
8
OBJECT__4
10
46.999001
20
400.894012
30
-8.453000
70
192
0
VERTEX
8
OBJECT__4
10
46.999001
20
408.500000
30
0.000000
70
192
0
VERTEX
8
OBJECT__4
10
46.015999
20
408.500000
30
0.000000
70
192
0
VERTEX
8
OBJECT__4
10
46.015999
20
406.888000
30
3.721000
70
192
0
VERTEX
8
OBJECT__4
10
46.015999
20
406.888000
30
-3.721000
70
192
0
VERTEX
8
OBJECT__4
10
46.015999
20
400.739014
30
8.020000
70
192
0
VERTEX
8
OBJECT__4
10
46.999001
20
400.894012
30
8.453000
70
192
0
VERTEX
8
OBJECT__4
10
46.999001
20
404.756012
30
7.045000
70
192
0
VERTEX
8
OBJECT__4
10
46.999001
20
407.506012
30
3.989000
70
192
0
VERTEX
8
OBJECT__4
10
46.015999
20
405.812988
30
6.202000
70
192
0
VERTEX
8
OBJECT__4
10
46.681999
20
393.748993
30
-5.760000
70
192
0
VERTEX
8
OBJECT__4
10
46.015999
20
393.894012
30
-5.913000
70
192
0
VERTEX
8
OBJECT__4
10
46.015999
20
399.450012
30
-8.482000
70
192
0
VERTEX
8
OBJECT__4
10
46.999001
20
393.656006
30
-5.657000
70
192
0
VERTEX
8
OBJECT__4
10
46.999001
20
393.656006
30
5.657000
70
192
0
VERTEX
8
OBJECT__4
10
46.015999
20
399.450012
30
8.482000
70
192
0
VERTEX
8
OBJECT__4
10
46.015999
20
393.894012
30
5.913000
70
192
0
VERTEX
8
OBJECT__4
10
0
20
0
30
0
70
128
71
1
72
2
73
3
0
VERTEX
8
OBJECT__4
10
0
20
0
30
0
70
128
71
3
72
2
73
4
0
VERTEX
8
OBJECT__4
10
0
20
0
30
0
70
128
71
4
72
5
73
3
0
VERTEX
8
OBJECT__4
10
0
20
0
30
0
70
128
71
4
72
6
73
5
0
VERTEX
8
OBJECT__4
10
0
20
0
30
0
70
128
71
7
72
8
73
9
0
VERTEX
8
OBJECT__4
10
0
20
0
30
0
70
128
71
7
72
1
73
10
0
VERTEX
8
OBJECT__4
10
0
20
0
30
0
70
128
71
10
72
8
73
7
0
VERTEX
8
OBJECT__4
10
0
20
0
30
0
70
128
71
11
72
12
73
13
0
VERTEX
8
OBJECT__4
10
0
20
0
30
0
70
128
71
14
72
9
73
15
0
VERTEX
8
OBJECT__4
10
0
20
0
30
0
70
128
71
15
72
13
73
14
0
VERTEX
8
OBJECT__4
10
0
20
0
30
0
70
128
71
16
72
17
73
18
0
VERTEX
8
OBJECT__4
10
0
20
0
30
0
70
128
71
18
72
6
73
16
0
VERTEX
8
OBJECT__4
10
0
20
0
30
0
70
128
71
6
72
19
73
16
0
VERTEX
8
OBJECT__4
10
0
20
0
30
0
70
128
71
20
72
12
73
21
0
VERTEX
8
OBJECT__4
10
0
20
0
30
0
70
128
71
12
72
11
73
21
0
VERTEX
8
OBJECT__4
10
0
20
0
30
0
70
128
71
21
72
22
73
20
0
VERTEX
8
OBJECT__4
10
0
20
0
30
0
70
128
71
18
72
5
73
6
0
VERTEX
8
OBJECT__4
10
0
20
0
30
0
70
128
71
13
72
15
73
11
0
VERTEX
8
OBJECT__4
10
0
20
0
30
0
70
128
71
9
72
14
73
7
0
VERTEX
8
OBJECT__4
10
0
20
0
30
0
70
128
71
3
72
10
73
1
0
SEQEND
8
OBJECT__4
0
POLYLINE
8
OBJECT__5
66
1
70
64
71
18
72
16
62
253
0
VERTEX
8
OBJECT__5
10
46.015999
20
405.812988
30
6.202000
70
192
0
VERTEX
8
OBJECT__5
10
45.999001
20
406.153992
30
6.567000
70
192
0
VERTEX
8
OBJECT__5
10
46.015999
20
399.450012
30
8.482000
70
192
0
VERTEX
8
OBJECT__5
10
46.015999
20
400.739014
30
8.020000
70
192
0
VERTEX
8
OBJECT__5
10
45.999001
20
399.416992
30
8.981000
70
192
0
VERTEX
8
OBJECT__5
10
45.999001
20
409.000000
30
0.000000
70
192
0
VERTEX
8
OBJECT__5
10
46.015999
20
406.888000
30
3.721000
70
192
0
VERTEX
8
OBJECT__5
10
46.015999
20
408.500000
30
0.000000
70
192
0
VERTEX
8
OBJECT__5
10
46.015999
20
406.888000
30
-3.721000
70
192
0
VERTEX
8
OBJECT__5
10
45.999001
20
406.153992
30
-6.567000
70
192
0
VERTEX
8
OBJECT__5
10
46.015999
20
405.812988
30
-6.202000
70
192
0
VERTEX
8
OBJECT__5
10
46.015999
20
400.739014
30
-8.020000
70
192
0
VERTEX
8
OBJECT__5
10
45.999001
20
399.416992
30
-8.981000
70
192
0
VERTEX
8
OBJECT__5
10
46.015999
20
399.450012
30
-8.482000
70
192
0
VERTEX
8
OBJECT__5
10
46.015999
20
393.894012
30
5.913000
70
192
0
VERTEX
8
OBJECT__5
10
45.999001
20
393.217987
30
5.916000
70
192
0
VERTEX
8
OBJECT__5
10
46.015999
20
393.894012
30
-5.913000
70
192
0
VERTEX
8
OBJECT__5
10
45.999001
20
393.217987
30
-5.916000
70
192
0
VERTEX
8
OBJECT__5
10
0
20
0
30
0
70
128
71
2
72
3
73
4
0
VERTEX
8
OBJECT__5
10
0
20
0
30
0
70
128
71
2
72
4
73
1
0
VERTEX
8
OBJECT__5
10
0
20
0
30
0
70
128
71
2
72
5
73
3
0
VERTEX
8
OBJECT__5
10
0
20
0
30
0
70
128
71
6
72
2
73
7
0
VERTEX
8
OBJECT__5
10
0
20
0
30
0
70
128
71
2
72
1
73
7
0
VERTEX
8
OBJECT__5
10
0
20
0
30
0
70
128
71
6
72
8
73
9
0
VERTEX
8
OBJECT__5
10
0
20
0
30
0
70
128
71
9
72
10
73
6
0
VERTEX
8
OBJECT__5
10
0
20
0
30
0
70
128
71
10
72
11
73
12
0
VERTEX
8
OBJECT__5
10
0
20
0
30
0
70
128
71
12
72
13
73
10
0
VERTEX
8
OBJECT__5
10
0
20
0
30
0
70
128
71
12
72
14
73
13
0
VERTEX
8
OBJECT__5
10
0
20
0
30
0
70
128
71
5
72
15
73
3
0
VERTEX
8
OBJECT__5
10
0
20
0
30
0
70
128
71
5
72
16
73
15
0
VERTEX
8
OBJECT__5
10
0
20
0
30
0
70
128
71
13
72
14
73
17
0
VERTEX
8
OBJECT__5
10
0
20
0
30
0
70
128
71
17
72
18
73
13
0
VERTEX
8
OBJECT__5
10
0
20
0
30
0
70
128
71
9
72
11
73
10
0
VERTEX
8
OBJECT__5
10
0
20
0
30
0
70
128
71
7
72
8
73
6
0
SEQEND
8
OBJECT__5
0
POLYLINE
8
OBJECT__6
66
1
70
64
71
22
72
20
62
253
0
VERTEX
8
OBJECT__6
10
45.999001
20
399.416992
30
-8.981000
70
192
0
VERTEX
8
OBJECT__6
10
43.999001
20
399.416992
30
-8.981000
70
192
0
VERTEX
8
OBJECT__6
10
43.999001
20
403.036011
30
-8.472000
70
192
0
VERTEX
8
OBJECT__6
10
45.999001
20
406.153992
30
-6.567000
70
192
0
VERTEX
8
OBJECT__6
10
45.999001
20
409.000000
30
0.000000
70
192
0
VERTEX
8
OBJECT__6
10
43.999001
20
408.257996
30
-3.578000
70
192
0
VERTEX
8
OBJECT__6
10
43.999001
20
406.153992
30
-6.567000
70
192
0
VERTEX
8
OBJECT__6
10
43.999001
20
409.000000
30
0.000000
70
192
0
VERTEX
8
OBJECT__6
10
43.999001
20
406.153992
30
6.567000
70
192
0
VERTEX
8
OBJECT__6
10
45.999001
20
406.153992
30
6.567000
70
192
0
VERTEX
8
OBJECT__6
10
43.999001
20
408.257996
30
3.578000
70
192
0
VERTEX
8
OBJECT__6
10
43.999001
20
399.416992
30
8.981000
70
192
0
VERTEX
8
OBJECT__6
10
45.999001
20
399.416992
30
8.981000
70
192
0
VERTEX
8
OBJECT__6
10
43.999001
20
403.036011
30
8.472000
70
192
0
VERTEX
8
OBJECT__6
10
45.000999
20
393.265015
30
5.970000
70
192
0
VERTEX
8
OBJECT__6
10
45.356998
20
393.282013
30
5.989000
70
192
0
VERTEX
8
OBJECT__6
10
43.999001
20
393.217987
30
5.916000
70
192
0
VERTEX
8
OBJECT__6
10
45.000000
20
393.291992
30
-6.000000
70
192
0
VERTEX
8
OBJECT__6
10
43.999001
20
393.217987
30
-5.916000
70
192
0
VERTEX
8
OBJECT__6
10
43.999001
20
396.010986
30
-8.068000
70
192
0
VERTEX
8
OBJECT__6
10
45.999001
20
393.217987
30
-5.916000
70
192
0
VERTEX
8
OBJECT__6
10
45.999001
20
393.217987
30
5.916000
70
192
0
VERTEX
8
OBJECT__6
10
0
20
0
30
0
70
128
71
1
72
2
73
3
0
VERTEX
8
OBJECT__6
10
0
20
0
30
0
70
128
71
3
72
4
73
1
0
VERTEX
8
OBJECT__6
10
0
20
0
30
0
70
128
71
5
72
4
73
6
0
VERTEX
8
OBJECT__6
10
0
20
0
30
0
70
128
71
4
72
7
73
6
0
VERTEX
8
OBJECT__6
10
0
20
0
30
0
70
128
71
6
72
8
73
5
0
VERTEX
8
OBJECT__6
10
0
20
0
30
0
70
128
71
10
72
8
73
11
0
VERTEX
8
OBJECT__6
10
0
20
0
30
0
70
128
71
10
72
11
73
9
0
VERTEX
8
OBJECT__6
10
0
20
0
30
0
70
128
71
10
72
5
73
8
0
VERTEX
8
OBJECT__6
10
0
20
0
30
0
70
128
71
13
72
14
73
12
0
VERTEX
8
OBJECT__6
10
0
20
0
30
0
70
128
71
13
72
10
73
14
0
VERTEX
8
OBJECT__6
10
0
20
0
30
0
70
128
71
10
72
9
73
14
0
VERTEX
8
OBJECT__6
10
0
20
0
30
0
70
128
71
12
72
15
73
16
0
VERTEX
8
OBJECT__6
10
0
20
0
30
0
70
128
71
12
72
17
73
15
0
VERTEX
8
OBJECT__6
10
0
20
0
30
0
70
128
71
16
72
13
73
12
0
VERTEX
8
OBJECT__6
10
0
20
0
30
0
70
128
71
18
72
19
73
20
0
VERTEX
8
OBJECT__6
10
0
20
0
30
0
70
128
71
20
72
1
73
18
0
VERTEX
8
OBJECT__6
10
0
20
0
30
0
70
128
71
1
72
21
73
18
0
VERTEX
8
OBJECT__6
10
0
20
0
30
0
70
128
71
20
72
2
73
1
0
VERTEX
8
OBJECT__6
10
0
20
0
30
0
70
128
71
16
72
22
73
13
0
VERTEX
8
OBJECT__6
10
0
20
0
30
0
70
128
71
3
72
7
73
4
0
SEQEND
8
OBJECT__6
0
POLYLINE
8
OBJECT__7
66
1
70
64
71
23
72
21
62
253
0
VERTEX
8
OBJECT__7
10
43.999001
20
393.217987
30
-5.916000
70
192
0
VERTEX
8
OBJECT__7
10
43.999001
20
393.897003
30
-5.916000
70
192
0
VERTEX
8
OBJECT__7
10
43.999001
20
395.382996
30
-7.137000
70
192
0
VERTEX
8
OBJECT__7
10
43.999001
20
403.036011
30
-8.472000
70
192
0
VERTEX
8
OBJECT__7
10
43.999001
20
400.898987
30
-8.452000
70
192
0
VERTEX
8
OBJECT__7
10
43.999001
20
404.759003
30
-7.043000
70
192
0
VERTEX
8
OBJECT__7
10
43.999001
20
399.416992
30
-8.981000
70
192
0
VERTEX
8
OBJECT__7
10
43.999001
20
396.010986
30
-8.068000
70
192
0
VERTEX
8
OBJECT__7
10
43.999001
20
397.105011
30
-7.992000
70
192
0
VERTEX
8
OBJECT__7
10
43.999001
20
406.153992
30
-6.567000
70
192
0
VERTEX
8
OBJECT__7
10
43.999001
20
407.506989
30
-3.987000
70
192
0
VERTEX
8
OBJECT__7
10
43.999001
20
406.153992
30
6.567000
70
192
0
VERTEX
8
OBJECT__7
10
43.999001
20
408.257996
30
3.578000
70
192
0
VERTEX
8
OBJECT__7
10
43.999001
20
407.506989
30
3.987000
70
192
0
VERTEX
8
OBJECT__7
10
43.999001
20
408.500000
30
0.000000
70
192
0
VERTEX
8
OBJECT__7
10
43.999001
20
409.000000
30
0.000000
70
192
0
VERTEX
8
OBJECT__7
10
43.999001
20
408.257996
30
-3.578000
70
192
0
VERTEX
8
OBJECT__7
10
43.999001
20
403.036011
30
8.472000
70
192
0
VERTEX
8
OBJECT__7
10
43.999001
20
404.759003
30
7.043000
70
192
0
VERTEX
8
OBJECT__7
10
43.999001
20
400.898987
30
8.452000
70
192
0
VERTEX
8
OBJECT__7
10
43.999001
20
399.416992
30
8.981000
70
192
0
VERTEX
8
OBJECT__7
10
43.999001
20
393.897003
30
5.916000
70
192
0
VERTEX
8
OBJECT__7
10
43.999001
20
393.217987
30
5.916000
70
192
0
VERTEX
8
OBJECT__7
10
0
20
0
30
0
70
128
71
1
72
2
73
3
0
VERTEX
8
OBJECT__7
10
0
20
0
30
0
70
128
71
4
72
5
73
6
0
VERTEX
8
OBJECT__7
10
0
20
0
30
0
70
128
71
7
72
8
73
9
0
VERTEX
8
OBJECT__7
10
0
20
0
30
0
70
128
71
3
72
8
73
1
0
VERTEX
8
OBJECT__7
10
0
20
0
30
0
70
128
71
4
72
7
73
5
0
VERTEX
8
OBJECT__7
10
0
20
0
30
0
70
128
71
3
72
9
73
8
0
VERTEX
8
OBJECT__7
10
0
20
0
30
0
70
128
71
10
72
6
73
11
0
VERTEX
8
OBJECT__7
10
0
20
0
30
0
70
128
71
9
72
5
73
7
0
VERTEX
8
OBJECT__7
10
0
20
0
30
0
70
128
71
12
72
13
73
14
0
VERTEX
8
OBJECT__7
10
0
20
0
30
0
70
128
71
15
72
14
73
13
0
VERTEX
8
OBJECT__7
10
0
20
0
30
0
70
128
71
15
72
16
73
17
0
VERTEX
8
OBJECT__7
10
0
20
0
30
0
70
128
71
6
72
10
73
4
0
VERTEX
8
OBJECT__7
10
0
20
0
30
0
70
128
71
18
72
12
73
19
0
VERTEX
8
OBJECT__7
10
0
20
0
30
0
70
128
71
13
72
16
73
15
0
VERTEX
8
OBJECT__7
10
0
20
0
30
0
70
128
71
11
72
17
73
10
0
VERTEX
8
OBJECT__7
10
0
20
0
30
0
70
128
71
19
72
20
73
18
0
VERTEX
8
OBJECT__7
10
0
20
0
30
0
70
128
71
17
72
11
73
15
0
VERTEX
8
OBJECT__7
10
0
20
0
30
0
70
128
71
21
72
20
73
22
0
VERTEX
8
OBJECT__7
10
0
20
0
30
0
70
128
71
14
72
19
73
12
0
VERTEX
8
OBJECT__7
10
0
20
0
30
0
70
128
71
20
72
21
73
18
0
VERTEX
8
OBJECT__7
10
0
20
0
30
0
70
128
71
22
72
23
73
21
0
SEQEND
8
OBJECT__7
0
POLYLINE
8
OBJECT__8
66
1
70
64
71
23
72
21
62
253
0
VERTEX
8
OBJECT__8
10
43.999001
20
407.506989
30
-3.987000
70
192
0
VERTEX
8
OBJECT__8
10
43.999001
20
404.759003
30
-7.043000
70
192
0
VERTEX
8
OBJECT__8
10
43.015999
20
405.733002
30
-6.275000
70
192
0
VERTEX
8
OBJECT__8
10
43.015999
20
400.733002
30
-7.960000
70
192
0
VERTEX
8
OBJECT__8
10
43.999001
20
400.898987
30
-8.452000
70
192
0
VERTEX
8
OBJECT__8
10
43.999001
20
408.500000
30
0.000000
70
192
0
VERTEX
8
OBJECT__8
10
43.015999
20
408.500000
30
0.000000
70
192
0
VERTEX
8
OBJECT__8
10
43.015999
20
406.865997
30
3.705000
70
192
0
VERTEX
8
OBJECT__8
10
43.015999
20
406.865997
30
-3.705000
70
192
0
VERTEX
8
OBJECT__8
10
43.015999
20
400.733002
30
7.960000
70
192
0
VERTEX
8
OBJECT__8
10
43.999001
20
400.898987
30
8.452000
70
192
0
VERTEX
8
OBJECT__8
10
43.999001
20
404.759003
30
7.043000
70
192
0
VERTEX
8
OBJECT__8
10
43.999001
20
407.506989
30
3.987000
70
192
0
VERTEX
8
OBJECT__8
10
43.015999
20
405.733002
30
6.275000
70
192
0
VERTEX
8
OBJECT__8
10
43.999001
20
393.897003
30
5.916000
70
192
0
VERTEX
8
OBJECT__8
10
43.015999
20
399.234009
30
8.465000
70
192
0
VERTEX
8
OBJECT__8
10
43.015999
20
399.234009
30
-8.465000
70
192
0
VERTEX
8
OBJECT__8
10
43.999001
20
397.105011
30
-7.992000
70
192
0
VERTEX
8
OBJECT__8
10
43.999001
20
395.382996
30
-7.137000
70
192
0
VERTEX
8
OBJECT__8
10
43.396000
20
393.769012
30
-5.782000
70
192
0
VERTEX
8
OBJECT__8
10
43.999001
20
393.897003
30
-5.916000
70
192
0
VERTEX
8
OBJECT__8
10
43.015999
20
393.661011
30
-5.663000
70
192
0
VERTEX
8
OBJECT__8
10
43.015999
20
393.661011
30
5.663000
70
192
0
VERTEX
8
OBJECT__8
10
0
20
0
30
0
70
128
71
1
72
2
73
3
0
VERTEX
8
OBJECT__8
10
0
20
0
30
0
70
128
71
4
72
3
73
2
0
VERTEX
8
OBJECT__8
10
0
20
0
30
0
70
128
71
2
72
5
73
4
0
VERTEX
8
OBJECT__8
10
0
20
0
30
0
70
128
71
6
72
7
73
8
0
VERTEX
8
OBJECT__8
10
0
20
0
30
0
70
128
71
6
72
1
73
9
0
VERTEX
8
OBJECT__8
10
0
20
0
30
0
70
128
71
9
72
7
73
6
0
VERTEX
8
OBJECT__8
10
0
20
0
30
0
70
128
71
10
72
11
73
12
0
VERTEX
8
OBJECT__8
10
0
20
0
30
0
70
128
71
13
72
8
73
14
0
VERTEX
8
OBJECT__8
10
0
20
0
30
0
70
128
71
14
72
12
73
13
0
VERTEX
8
OBJECT__8
10
0
20
0
30
0
70
128
71
15
72
11
73
16
0
VERTEX
8
OBJECT__8
10
0
20
0
30
0
70
128
71
11
72
10
73
16
0
VERTEX
8
OBJECT__8
10
0
20
0
30
0
70
128
71
17
72
18
73
19
0
VERTEX
8
OBJECT__8
10
0
20
0
30
0
70
128
71
19
72
20
73
17
0
VERTEX
8
OBJECT__8
10
0
20
0
30
0
70
128
71
5
72
18
73
17
0
VERTEX
8
OBJECT__8
10
0
20
0
30
0
70
128
71
17
72
4
73
5
0
VERTEX
8
OBJECT__8
10
0
20
0
30
0
70
128
71
19
72
21
73
20
0
VERTEX
8
OBJECT__8
10
0
20
0
30
0
70
128
71
20
72
22
73
17
0
VERTEX
8
OBJECT__8
10
0
20
0
30
0
70
128
71
16
72
23
73
15
0
VERTEX
8
OBJECT__8
10
0
20
0
30
0
70
128
71
12
72
14
73
10
0
VERTEX
8
OBJECT__8
10
0
20
0
30
0
70
128
71
8
72
13
73
6
0
VERTEX
8
OBJECT__8
10
0
20
0
30
0
70
128
71
3
72
9
73
1
0
SEQEND
8
OBJECT__8
0
POLYLINE
8
OBJECT__9
66
1
70
64
71
23
72
21
62
253
0
VERTEX
8
OBJECT__9
10
43.015999
20
400.733002
30
7.960000
70
192
0
VERTEX
8
OBJECT__9
10
43.015999
20
405.733002
30
6.275000
70
192
0
VERTEX
8
OBJECT__9
10
42.999001
20
403.683014
30
7.449000
70
192
0
VERTEX
8
OBJECT__9
10
42.999001
20
406.071014
30
6.644000
70
192
0
VERTEX
8
OBJECT__9
10
42.999001
20
399.188995
30
8.963000
70
192
0
VERTEX
8
OBJECT__9
10
43.015999
20
399.234009
30
8.465000
70
192
0
VERTEX
8
OBJECT__9
10
43.015999
20
408.500000
30
0.000000
70
192
0
VERTEX
8
OBJECT__9
10
42.999001
20
409.000000
30
0.000000
70
192
0
VERTEX
8
OBJECT__9
10
42.999001
20
408.223999
30
1.760000
70
192
0
VERTEX
8
OBJECT__9
10
43.015999
20
406.865997
30
3.705000
70
192
0
VERTEX
8
OBJECT__9
10
43.015999
20
405.733002
30
-6.275000
70
192
0
VERTEX
8
OBJECT__9
10
42.999001
20
406.071014
30
-6.644000
70
192
0
VERTEX
8
OBJECT__9
10
42.999001
20
406.609009
30
-5.423000
70
192
0
VERTEX
8
OBJECT__9
10
43.015999
20
406.865997
30
-3.705000
70
192
0
VERTEX
8
OBJECT__9
10
43.015999
20
399.234009
30
-8.465000
70
192
0
VERTEX
8
OBJECT__9
10
42.999001
20
399.188995
30
-8.963000
70
192
0
VERTEX
8
OBJECT__9
10
42.999001
20
399.906006
30
-8.722000
70
192
0
VERTEX
8
OBJECT__9
10
43.015999
20
400.733002
30
-7.960000
70
192
0
VERTEX
8
OBJECT__9
10
43.015999
20
393.661011
30
5.663000
70
192
0
VERTEX
8
OBJECT__9
10
42.999001
20
396.427002
30
7.488000
70
192
0
VERTEX
8
OBJECT__9
10
43.015999
20
393.661011
30
-5.663000
70
192
0
VERTEX
8
OBJECT__9
10
42.999001
20
393.000000
30
-5.657000
70
192
0
VERTEX
8
OBJECT__9
10
42.999001
20
393.000000
30
5.657000
70
192
0
VERTEX
8
OBJECT__9
10
0
20
0
30
0
70
128
71
1
72
2
73
3
0
VERTEX
8
OBJECT__9
10
0
20
0
30
0
70
128
71
2
72
4
73
3
0
VERTEX
8
OBJECT__9
10
0
20
0
30
0
70
128
71
5
72
6
73
1
0
VERTEX
8
OBJECT__9
10
0
20
0
30
0
70
128
71
7
72
8
73
9
0
VERTEX
8
OBJECT__9
10
0
20
0
30
0
70
128
71
4
72
2
73
10
0
VERTEX
8
OBJECT__9
10
0
20
0
30
0
70
128
71
10
72
9
73
4
0
VERTEX
8
OBJECT__9
10
0
20
0
30
0
70
128
71
11
72
12
73
13
0
VERTEX
8
OBJECT__9
10
0
20
0
30
0
70
128
71
8
72
7
73
14
0
VERTEX
8
OBJECT__9
10
0
20
0
30
0
70
128
71
14
72
13
73
8
0
VERTEX
8
OBJECT__9
10
0
20
0
30
0
70
128
71
15
72
16
73
17
0
VERTEX
8
OBJECT__9
10
0
20
0
30
0
70
128
71
12
72
11
73
18
0
VERTEX
8
OBJECT__9
10
0
20
0
30
0
70
128
71
18
72
17
73
12
0
VERTEX
8
OBJECT__9
10
0
20
0
30
0
70
128
71
19
72
6
73
20
0
VERTEX
8
OBJECT__9
10
0
20
0
30
0
70
128
71
6
72
5
73
20
0
VERTEX
8
OBJECT__9
10
0
20
0
30
0
70
128
71
16
72
15
73
21
0
VERTEX
8
OBJECT__9
10
0
20
0
30
0
70
128
71
21
72
22
73
16
0
VERTEX
8
OBJECT__9
10
0
20
0
30
0
70
128
71
20
72
23
73
19
0
VERTEX
8
OBJECT__9
10
0
20
0
30
0
70
128
71
17
72
18
73
15
0
VERTEX
8
OBJECT__9
10
0
20
0
30
0
70
128
71
13
72
14
73
11
0
VERTEX
8
OBJECT__9
10
0
20
0
30
0
70
128
71
9
72
10
73
7
0
VERTEX
8
OBJECT__9
10
0
20
0
30
0
70
128
71
3
72
5
73
1
0
SEQEND
8
OBJECT__9
0
POLYLINE
8
OBJECT__10
66
1
70
64
71
46
72
46
62
253
0
VERTEX
8
OBJECT__10
10
10.147000
20
406.062988
30
-6.651000
70
192
0
VERTEX
8
OBJECT__10
10
10.147000
20
406.916992
30
-5.521000
70
192
0
VERTEX
8
OBJECT__10
10
42.999001
20
406.609009
30
-5.423000
70
192
0
VERTEX
8
OBJECT__10
10
42.999001
20
406.071014
30
-6.644000
70
192
0
VERTEX
8
OBJECT__10
10
42.999001
20
399.906006
30
-8.722000
70
192
0
VERTEX
8
OBJECT__10
10
10.147000
20
403.251007
30
-8.392000
70
192
0
VERTEX
8
OBJECT__10
10
10.147000
20
400.000000
30
-9.000000
70
192
0
VERTEX
8
OBJECT__10
10
10.147000
20
408.700012
30
1.996000
70
192
0
VERTEX
8
OBJECT__10
10
42.999001
20
408.223999
30
1.760000
70
192
0
VERTEX
8
OBJECT__10
10
42.999001
20
409.000000
30
0.000000
70
192
0
VERTEX
8
OBJECT__10
10
10.147000
20
408.056000
30
-4.012000
70
192
0
VERTEX
8
OBJECT__10
10
10.147000
20
408.962006
30
-0.830000
70
192
0
VERTEX
8
OBJECT__10
10
10.147000
20
404.738007
30
7.652000
70
192
0
VERTEX
8
OBJECT__10
10
42.999001
20
403.683014
30
7.449000
70
192
0
VERTEX
8
OBJECT__10
10
42.999001
20
406.071014
30
6.644000
70
192
0
VERTEX
8
OBJECT__10
10
10.147000
20
407.182007
30
5.424000
70
192
0
VERTEX
8
OBJECT__10
10
10.147000
20
408.656006
30
2.463000
70
192
0
VERTEX
8
OBJECT__10
10
42.999001
20
396.427002
30
7.488000
70
192
0
VERTEX
8
OBJECT__10
10
42.999001
20
399.188995
30
8.963000
70
192
0
VERTEX
8
OBJECT__10
10
10.147000
20
398.346008
30
8.847000
70
192
0
VERTEX
8
OBJECT__10
10
10.147000
20
401.653992
30
8.847000
70
192
0
VERTEX
8
OBJECT__10
10
10.147000
20
403.859985
30
7.992000
70
192
0
VERTEX
8
OBJECT__10
10
42.999001
20
393.000000
30
-5.657000
70
192
0
VERTEX
8
OBJECT__10
10
10.147000
20
393.937012
30
-6.651000
70
192
0
VERTEX
8
OBJECT__10
10
10.147000
20
396.748993
30
-8.392000
70
192
0
VERTEX
8
OBJECT__10
10
42.999001
20
399.188995
30
-8.963000
70
192
0
VERTEX
8
OBJECT__10
10
42.902000
20
392.964996
30
-5.610000
70
192
0
VERTEX
8
OBJECT__10
10
10.147000
20
393.083008
30
-5.521000
70
192
0
VERTEX
8
OBJECT__10
10
10.147000
20
391.299988
30
1.996000
70
192
0
VERTEX
8
OBJECT__10
10
10.147000
20
391.037994
30
-0.830000
70
192
0
VERTEX
8
OBJECT__10
10
39.051998
20
391.035004
30
-0.788000
70
192
0
VERTEX
8
OBJECT__10
10
39.089001
20
391.058990
30
1.028000
70
192
0
VERTEX
8
OBJECT__10
10
39.495998
20
391.322998
30
-2.390000
70
192
0
VERTEX
8
OBJECT__10
10
40.389999
20
391.859985
30
-3.840000
70
192
0
VERTEX
8
OBJECT__10
10
39.853001
20
391.537994
30
-2.969000
70
192
0
VERTEX
8
OBJECT__10
10
41.852001
20
392.589996
30
-5.108000
70
192
0
VERTEX
8
OBJECT__10
10
10.147000
20
391.944000
30
-4.012000
70
192
0
VERTEX
8
OBJECT__10
10
10.147000
20
396.140015
30
7.992000
70
192
0
VERTEX
8
OBJECT__10
10
40.925999
20
392.152008
30
4.405000
70
192
0
VERTEX
8
OBJECT__10
10
39.647999
20
391.419006
30
2.713000
70
192
0
VERTEX
8
OBJECT__10
10
39.842999
20
391.529999
30
2.971000
70
192
0
VERTEX
8
OBJECT__10
10
10.147000
20
391.343994
30
2.463000
70
192
0
VERTEX
8
OBJECT__10
10
39.409000
20
391.265015
30
1.994000
70
192
0
VERTEX
8
OBJECT__10
10
10.147000
20
392.817993
30
5.424000
70
192
0
VERTEX
8
OBJECT__10
10
10.147000
20
395.261993
30
7.652000
70
192
0
VERTEX
8
OBJECT__10
10
42.999001
20
393.000000
30
5.657000
70
192
0
VERTEX
8
OBJECT__10
10
0
20
0
30
0
70
128
71
1
72
2
73
3
0
VERTEX
8
OBJECT__10
10
0
20
0
30
0
70
128
71
4
72
5
73
6
0
VERTEX
8
OBJECT__10
10
0
20
0
30
0
70
128
71
5
72
7
73
6
0
VERTEX
8
OBJECT__10
10
0
20
0
30
0
70
128
71
6
72
1
73
4
0
VERTEX
8
OBJECT__10
10
0
20
0
30
0
70
128
71
8
72
9
73
10
0
VERTEX
8
OBJECT__10
10
0
20
0
30
0
70
128
71
10
72
3
73
11
0
VERTEX
8
OBJECT__10
10
0
20
0
30
0
70
128
71
11
72
12
73
10
0
VERTEX
8
OBJECT__10
10
0
20
0
30
0
70
128
71
3
72
2
73
11
0
VERTEX
8
OBJECT__10
10
0
20
0
30
0
70
128
71
13
72
14
73
15
0
VERTEX
8
OBJECT__10
10
0
20
0
30
0
70
128
71
15
72
16
73
13
0
VERTEX
8
OBJECT__10
10
0
20
0
30
0
70
128
71
9
72
17
73
16
0
VERTEX
8
OBJECT__10
10
0
20
0
30
0
70
128
71
16
72
15
73
9
0
VERTEX
8
OBJECT__10
10
0
20
0
30
0
70
128
71
9
72
8
73
17
0
VERTEX
8
OBJECT__10
10
0
20
0
30
0
70
128
71
18
72
19
73
20
0
VERTEX
8
OBJECT__10
10
0
20
0
30
0
70
128
71
19
72
14
73
21
0
VERTEX
8
OBJECT__10
10
0
20
0
30
0
70
128
71
21
72
20
73
19
0
VERTEX
8
OBJECT__10
10
0
20
0
30
0
70
128
71
14
72
22
73
21
0
VERTEX
8
OBJECT__10
10
0
20
0
30
0
70
128
71
23
72
24
73
25
0
VERTEX
8
OBJECT__10
10
0
20
0
30
0
70
128
71
25
72
26
73
23
0
VERTEX
8
OBJECT__10
10
0
20
0
30
0
70
128
71
7
72
5
73
26
0
VERTEX
8
OBJECT__10
10
0
20
0
30
0
70
128
71
24
72
23
73
27
0
VERTEX
8
OBJECT__10
10
0
20
0
30
0
70
128
71
27
72
28
73
24
0
VERTEX
8
OBJECT__10
10
0
20
0
30
0
70
128
71
29
72
30
73
31
0
VERTEX
8
OBJECT__10
10
0
20
0
30
0
70
128
71
31
72
32
73
29
0
VERTEX
8
OBJECT__10
10
0
20
0
30
0
70
128
71
28
72
33
73
31
0
VERTEX
8
OBJECT__10
10
0
20
0
30
0
70
128
71
28
72
34
73
35
0
VERTEX
8
OBJECT__10
10
0
20
0
30
0
70
128
71
35
72
33
73
28
0
VERTEX
8
OBJECT__10
10
0
20
0
30
0
70
128
71
28
72
27
73
36
0
VERTEX
8
OBJECT__10
10
0
20
0
30
0
70
128
71
36
72
34
73
28
0
VERTEX
8
OBJECT__10
10
0
20
0
30
0
70
128
71
31
72
37
73
28
0
VERTEX
8
OBJECT__10
10
0
20
0
30
0
70
128
71
30
72
37
73
31
0
VERTEX
8
OBJECT__10
10
0
20
0
30
0
70
128
71
18
72
38
73
39
0
VERTEX
8
OBJECT__10
10
0
20
0
30
0
70
128
71
38
72
40
73
41
0
VERTEX
8
OBJECT__10
10
0
20
0
30
0
70
128
71
42
72
29
73
43
0
VERTEX
8
OBJECT__10
10
0
20
0
30
0
70
128
71
40
72
44
73
42
0
VERTEX
8
OBJECT__10
10
0
20
0
30
0
70
128
71
40
72
45
73
44
0
VERTEX
8
OBJECT__10
10
0
20
0
30
0
70
128
71
40
72
38
73
45
0
VERTEX
8
OBJECT__10
10
0
20
0
30
0
70
128
71
43
72
40
73
42
0
VERTEX
8
OBJECT__10
10
0
20
0
30
0
70
128
71
41
72
39
73
38
0
VERTEX
8
OBJECT__10
10
0
20
0
30
0
70
128
71
39
72
46
73
18
0
VERTEX
8
OBJECT__10
10
0
20
0
30
0
70
128
71
32
72
43
73
29
0
VERTEX
8
OBJECT__10
10
0
20
0
30
0
70
128
71
25
72
7
73
26
0
VERTEX
8
OBJECT__10
10
0
20
0
30
0
70
128
71
20
72
38
73
18
0
VERTEX
8
OBJECT__10
10
0
20
0
30
0
70
128
71
13
72
22
73
14
0
VERTEX
8
OBJECT__10
10
0
20
0
30
0
70
128
71
10
72
12
73
8
0
VERTEX
8
OBJECT__10
10
0
20
0
30
0
70
128
71
3
72
4
73
1
0
SEQEND
8
OBJECT__10
0
POLYLINE
8
OBJECT__11
66
1
70
64
71
102
72
153
62
253
0
VERTEX
8
OBJECT__11
10
10.144000
20
403.778992
30
-9.754000
70
192
0
VERTEX
8
OBJECT__11
10
10.147000
20
403.251007
30
-8.392000
70
192
0
VERTEX
8
OBJECT__11
10
10.147000
20
400.000000
30
-9.000000
70
192
0
VERTEX
8
OBJECT__11
10
10.144000
20
407.046997
30
-7.730000
70
192
0
VERTEX
8
OBJECT__11
10
10.147000
20
406.062988
30
-6.651000
70
192
0
VERTEX
8
OBJECT__11
10
10.144000
20
409.363007
30
-4.662000
70
192
0
VERTEX
8
OBJECT__11
10
10.147000
20
408.056000
30
-4.012000
70
192
0
VERTEX
8
OBJECT__11
10
10.147000
20
406.916992
30
-5.521000
70
192
0
VERTEX
8
OBJECT__11
10
10.144000
20
410.415009
30
-0.965000
70
192
0
VERTEX
8
OBJECT__11
10
10.147000
20
408.962006
30
-0.830000
70
192
0
VERTEX
8
OBJECT__11
10
10.144000
20
410.061005
30
2.863000
70
192
0
VERTEX
8
OBJECT__11
10
10.147000
20
408.700012
30
1.996000
70
192
0
VERTEX
8
OBJECT__11
10
10.147000
20
408.656006
30
2.463000
70
192
0
VERTEX
8
OBJECT__11
10
10.144000
20
408.346985
30
6.304000
70
192
0
VERTEX
8
OBJECT__11
10
10.147000
20
407.182007
30
5.424000
70
192
0
VERTEX
8
OBJECT__11
10
10.144000
20
405.506012
30
8.893000
70
192
0
VERTEX
8
OBJECT__11
10
10.147000
20
404.738007
30
7.652000
70
192
0
VERTEX
8
OBJECT__11
10
10.144000
20
401.921997
30
10.282000
70
192
0
VERTEX
8
OBJECT__11
10
10.147000
20
401.653992
30
8.847000
70
192
0
VERTEX
8
OBJECT__11
10
10.147000
20
403.859985
30
7.992000
70
192
0
VERTEX
8
OBJECT__11
10
10.144000
20
398.078003
30
10.282000
70
192
0
VERTEX
8
OBJECT__11
10
10.147000
20
398.346008
30
8.847000
70
192
0
VERTEX
8
OBJECT__11
10
10.144000
20
394.493988
30
8.893000
70
192
0
VERTEX
8
OBJECT__11
10
10.147000
20
396.140015
30
7.992000
70
192
0
VERTEX
8
OBJECT__11
10
10.147000
20
395.261993
30
7.652000
70
192
0
VERTEX
8
OBJECT__11
10
10.144000
20
391.653015
30
6.304000
70
192
0
VERTEX
8
OBJECT__11
10
10.147000
20
392.817993
30
5.424000
70
192
0
VERTEX
8
OBJECT__11
10
10.144000
20
389.938995
30
2.863000
70
192
0
VERTEX
8
OBJECT__11
10
10.147000
20
391.343994
30
2.463000
70
192
0
VERTEX
8
OBJECT__11
10
10.144000
20
389.584991
30
-0.965000
70
192
0
VERTEX
8
OBJECT__11
10
10.147000
20
391.037994
30
-0.830000
70
192
0
VERTEX
8
OBJECT__11
10
10.147000
20
391.299988
30
1.996000
70
192
0
VERTEX
8
OBJECT__11
10
10.144000
20
390.636993
30
-4.662000
70
192
0
VERTEX
8
OBJECT__11
10
10.147000
20
391.944000
30
-4.012000
70
192
0
VERTEX
8
OBJECT__11
10
10.144000
20
392.953003
30
-7.730000
70
192
0
VERTEX
8
OBJECT__11
10
10.147000
20
393.083008
30
-5.521000
70
192
0
VERTEX
8
OBJECT__11
10
10.147000
20
393.937012
30
-6.651000
70
192
0
VERTEX
8
OBJECT__11
10
10.144000
20
396.221008
30
-9.754000
70
192
0
VERTEX
8
OBJECT__11
10
10.147000
20
396.748993
30
-8.392000
70
192
0
VERTEX
8
OBJECT__11
10
10.144000
20
400.000000
30
-10.460000
70
192
0
VERTEX
8
OBJECT__11
10
10.110000
20
400.000000
30
-19.134001
70
192
0
VERTEX
8
OBJECT__11
10
10.110000
20
406.911987
30
-17.841999
70
192
0
VERTEX
8
OBJECT__11
10
10.110000
20
412.890015
30
-14.140000
70
192
0
VERTEX
8
OBJECT__11
10
10.110000
20
417.127991
30
-8.529000
70
192
0
VERTEX
8
OBJECT__11
10
10.110000
20
419.052002
30
-1.765000
70
192
0
VERTEX
8
OBJECT__11
10
10.110000
20
418.403015
30
5.236000
70
192
0
VERTEX
8
OBJECT__11
10
10.110000
20
415.269012
30
11.531000
70
192
0
VERTEX
8
OBJECT__11
10
10.110000
20
410.072998
30
16.268000
70
192
0
VERTEX
8
OBJECT__11
10
10.110000
20
403.515991
30
18.808001
70
192
0
VERTEX
8
OBJECT__11
10
10.110000
20
396.484009
30
18.808001
70
192
0
VERTEX
8
OBJECT__11
10
10.110000
20
389.927002
30
16.268000
70
192
0
VERTEX
8
OBJECT__11
10
10.110000
20
384.730988
30
11.531000
70
192
0
VERTEX
8
OBJECT__11
10
10.110000
20
381.596985
30
5.236000
70
192
0
VERTEX
8
OBJECT__11
10
10.110000
20
380.947998
30
-1.765000
70
192
0
VERTEX
8
OBJECT__11
10
10.110000
20
382.872009
30
-8.529000
70
192
0
VERTEX
8
OBJECT__11
10
10.110000
20
387.109985
30
-14.140000
70
192
0
VERTEX
8
OBJECT__11
10
10.110000
20
393.088013
30
-17.841999
70
192
0
VERTEX
8
OBJECT__11
10
10.060000
20
400.000000
30
-24.937000
70
192
0
VERTEX
8
OBJECT__11
10
10.060000
20
409.007996
30
-23.253000
70
192
0
VERTEX
8
OBJECT__11
10
10.060000
20
416.799988
30
-18.429001
70
192
0
VERTEX
8
OBJECT__11
10
10.060000
20
422.322998
30
-11.116000
70
192
0
VERTEX
8
OBJECT__11
10
10.060000
20
424.830994
30
-2.301000
70
192
0
VERTEX
8
OBJECT__11
10
10.060000
20
423.984985
30
6.824000
70
192
0
VERTEX
8
OBJECT__11
10
10.060000
20
419.899994
30
15.028000
70
192
0
VERTEX
8
OBJECT__11
10
10.060000
20
413.127991
30
21.202000
70
192
0
VERTEX
8
OBJECT__11
10
10.060000
20
404.582001
30
24.513000
70
192
0
VERTEX
8
OBJECT__11
10
10.060000
20
395.417999
30
24.513000
70
192
0
VERTEX
8
OBJECT__11
10
10.060000
20
386.872009
30
21.202000
70
192
0
VERTEX
8
OBJECT__11
10
10.060000
20
380.100006
30
15.028000
70
192
0
VERTEX
8
OBJECT__11
10
10.060000
20
376.015015
30
6.824000
70
192
0
VERTEX
8
OBJECT__11
10
10.060000
20
375.169006
30
-2.301000
70
192
0
VERTEX
8
OBJECT__11
10
10.060000
20
377.677002
30
-11.116000
70
192
0
VERTEX
8
OBJECT__11
10
10.060000
20
383.200012
30
-18.429001
70
192
0
VERTEX
8
OBJECT__11
10
10.060000
20
390.992004
30
-23.253000
70
192
0
VERTEX
8
OBJECT__11
10
10.000000
20
400.000000
30
-27.000000
70
192
0
VERTEX
8
OBJECT__11
10
10.000000
20
409.752991
30
-25.176001
70
192
0
VERTEX
8
OBJECT__11
10
10.000000
20
413.265015
30
-23.002001
70
192
0
VERTEX
8
OBJECT__11
10
10.000000
20
418.190002
30
-19.952999
70
192
0
VERTEX
8
OBJECT__11
10
10.000000
20
423.178986
30
-13.346000
70
192
0
VERTEX
8
OBJECT__11
10
10.000000
20
426.884003
30
-2.491000
70
192
0
VERTEX
8
OBJECT__11
10
10.000000
20
426.657013
30
-0.032000
70
192
0
VERTEX
8
OBJECT__11
10
10.000000
20
425.968994
30
7.389000
70
192
0
VERTEX
8
OBJECT__11
10
10.000000
20
423.016998
30
13.318000
70
192
0
VERTEX
8
OBJECT__11
10
10.000000
20
414.213013
30
22.955999
70
192
0
VERTEX
8
OBJECT__11
10
10.000000
20
413.449005
30
23.252001
70
192
0
VERTEX
8
OBJECT__11
10
10.000000
20
404.960999
30
26.540001
70
192
0
VERTEX
8
OBJECT__11
10
10.000000
20
400.000000
30
26.540001
70
192
0
VERTEX
8
OBJECT__11
10
10.000000
20
395.039001
30
26.540001
70
192
0
VERTEX
8
OBJECT__11
10
10.000000
20
386.550995
30
23.252001
70
192
0
VERTEX
8
OBJECT__11
10
10.000000
20
385.786987
30
22.955999
70
192
0
VERTEX
8
OBJECT__11
10
10.000000
20
378.454010
30
16.271000
70
192
0
VERTEX
8
OBJECT__11
10
10.000000
20
376.983002
30
13.318000
70
192
0
VERTEX
8
OBJECT__11
10
10.000000
20
374.031006
30
7.389000
70
192
0
VERTEX
8
OBJECT__11
10
10.000000
20
373.342987
30
-0.032000
70
192
0
VERTEX
8
OBJECT__11
10
10.000000
20
373.115997
30
-2.491000
70
192
0
VERTEX
8
OBJECT__11
10
10.000000
20
375.830994
30
-12.035000
70
192
0
VERTEX
8
OBJECT__11
10
10.000000
20
376.821014
30
-13.346000
70
192
0
VERTEX
8
OBJECT__11
10
10.000000
20
381.809998
30
-19.952999
70
192
0
VERTEX
8
OBJECT__11
10
10.000000
20
386.734985
30
-23.002001
70
192
0
VERTEX
8
OBJECT__11
10
10.000000
20
390.247009
30
-25.176001
70
192
0
VERTEX
8
OBJECT__11
10
10.000000
20
421.545990
30
16.271000
70
192
0
VERTEX
8
OBJECT__11
10
10.000000
20
424.169006
30
-12.035000
70
192
0
VERTEX
8
OBJECT__11
10
0
20
0
30
0
70
128
71
1
72
2
73
3
0
VERTEX
8
OBJECT__11
10
0
20
0
30
0
70
128
71
4
72
5
73
2
0
VERTEX
8
OBJECT__11
10
0
20
0
30
0
70
128
71
6
72
7
73
8
0
VERTEX
8
OBJECT__11
10
0
20
0
30
0
70
128
71
8
72
4
73
6
0
VERTEX
8
OBJECT__11
10
0
20
0
30
0
70
128
71
6
72
9
73
10
0
VERTEX
8
OBJECT__11
10
0
20
0
30
0
70
128
71
9
72
11
73
12
0
VERTEX
8
OBJECT__11
10
0
20
0
30
0
70
128
71
11
72
13
73
12
0
VERTEX
8
OBJECT__11
10
0
20
0
30
0
70
128
71
11
72
14
73
15
0
VERTEX
8
OBJECT__11
10
0
20
0
30
0
70
128
71
16
72
17
73
15
0
VERTEX
8
OBJECT__11
10
0
20
0
30
0
70
128
71
18
72
19
73
20
0
VERTEX
8
OBJECT__11
10
0
20
0
30
0
70
128
71
20
72
16
73
18
0
VERTEX
8
OBJECT__11
10
0
20
0
30
0
70
128
71
18
72
21
73
22
0
VERTEX
8
OBJECT__11
10
0
20
0
30
0
70
128
71
21
72
23
73
24
0
VERTEX
8
OBJECT__11
10
0
20
0
30
0
70
128
71
23
72
25
73
24
0
VERTEX
8
OBJECT__11
10
0
20
0
30
0
70
128
71
23
72
26
73
27
0
VERTEX
8
OBJECT__11
10
0
20
0
30
0
70
128
71
26
72
28
73
29
0
VERTEX
8
OBJECT__11
10
0
20
0
30
0
70
128
71
30
72
31
73
32
0
VERTEX
8
OBJECT__11
10
0
20
0
30
0
70
128
71
32
72
28
73
30
0
VERTEX
8
OBJECT__11
10
0
20
0
30
0
70
128
71
33
72
34
73
31
0
VERTEX
8
OBJECT__11
10
0
20
0
30
0
70
128
71
33
72
35
73
36
0
VERTEX
8
OBJECT__11
10
0
20
0
30
0
70
128
71
35
72
37
73
36
0
VERTEX
8
OBJECT__11
10
0
20
0
30
0
70
128
71
35
72
38
73
39
0
VERTEX
8
OBJECT__11
10
0
20
0
30
0
70
128
71
38
72
40
73
3
0
VERTEX
8
OBJECT__11
10
0
20
0
30
0
70
128
71
41
72
42
73
1
0
VERTEX
8
OBJECT__11
10
0
20
0
30
0
70
128
71
42
72
43
73
4
0
VERTEX
8
OBJECT__11
10
0
20
0
30
0
70
128
71
43
72
44
73
6
0
VERTEX
8
OBJECT__11
10
0
20
0
30
0
70
128
71
44
72
45
73
9
0
VERTEX
8
OBJECT__11
10
0
20
0
30
0
70
128
71
45
72
46
73
11
0
VERTEX
8
OBJECT__11
10
0
20
0
30
0
70
128
71
46
72
47
73
14
0
VERTEX
8
OBJECT__11
10
0
20
0
30
0
70
128
71
47
72
48
73
16
0
VERTEX
8
OBJECT__11
10
0
20
0
30
0
70
128
71
48
72
49
73
18
0
VERTEX
8
OBJECT__11
10
0
20
0
30
0
70
128
71
49
72
50
73
21
0
VERTEX
8
OBJECT__11
10
0
20
0
30
0
70
128
71
50
72
51
73
23
0
VERTEX
8
OBJECT__11
10
0
20
0
30
0
70
128
71
51
72
52
73
26
0
VERTEX
8
OBJECT__11
10
0
20
0
30
0
70
128
71
52
72
53
73
28
0
VERTEX
8
OBJECT__11
10
0
20
0
30
0
70
128
71
53
72
54
73
30
0
VERTEX
8
OBJECT__11
10
0
20
0
30
0
70
128
71
54
72
55
73
33
0
VERTEX
8
OBJECT__11
10
0
20
0
30
0
70
128
71
55
72
56
73
35
0
VERTEX
8
OBJECT__11
10
0
20
0
30
0
70
128
71
56
72
57
73
38
0
VERTEX
8
OBJECT__11
10
0
20
0
30
0
70
128
71
57
72
41
73
40
0
VERTEX
8
OBJECT__11
10
0
20
0
30
0
70
128
71
58
72
59
73
42
0
VERTEX
8
OBJECT__11
10
0
20
0
30
0
70
128
71
59
72
60
73
43
0
VERTEX
8
OBJECT__11
10
0
20
0
30
0
70
128
71
60
72
61
73
44
0
VERTEX
8
OBJECT__11
10
0
20
0
30
0
70
128
71
61
72
62
73
45
0
VERTEX
8
OBJECT__11
10
0
20
0
30
0
70
128
71
62
72
63
73
46
0
VERTEX
8
OBJECT__11
10
0
20
0
30
0
70
128
71
63
72
64
73
47
0
VERTEX
8
OBJECT__11
10
0
20
0
30
0
70
128
71
64
72
65
73
48
0
VERTEX
8
OBJECT__11
10
0
20
0
30
0
70
128
71
65
72
66
73
49
0
VERTEX
8
OBJECT__11
10
0
20
0
30
0
70
128
71
66
72
67
73
50
0
VERTEX
8
OBJECT__11
10
0
20
0
30
0
70
128
71
67
72
68
73
51
0
VERTEX
8
OBJECT__11
10
0
20
0
30
0
70
128
71
68
72
69
73
52
0
VERTEX
8
OBJECT__11
10
0
20
0
30
0
70
128
71
69
72
70
73
53
0
VERTEX
8
OBJECT__11
10
0
20
0
30
0
70
128
71
70
72
71
73
54
0
VERTEX
8
OBJECT__11
10
0
20
0
30
0
70
128
71
71
72
72
73
55
0
VERTEX
8
OBJECT__11
10
0
20
0
30
0
70
128
71
72
72
73
73
56
0
VERTEX
8
OBJECT__11
10
0
20
0
30
0
70
128
71
73
72
74
73
57
0
VERTEX
8
OBJECT__11
10
0
20
0
30
0
70
128
71
74
72
58
73
41
0
VERTEX
8
OBJECT__11
10
0
20
0
30
0
70
128
71
75
72
76
73
59
0
VERTEX
8
OBJECT__11
10
0
20
0
30
0
70
128
71
60
72
59
73
77
0
VERTEX
8
OBJECT__11
10
0
20
0
30
0
70
128
71
59
72
76
73
77
0
VERTEX
8
OBJECT__11
10
0
20
0
30
0
70
128
71
60
72
78
73
79
0
VERTEX
8
OBJECT__11
10
0
20
0
30
0
70
128
71
79
72
61
73
60
0
VERTEX
8
OBJECT__11
10
0
20
0
30
0
70
128
71
80
72
62
73
61
0
VERTEX
8
OBJECT__11
10
0
20
0
30
0
70
128
71
63
72
62
73
81
0
VERTEX
8
OBJECT__11
10
0
20
0
30
0
70
128
71
62
72
80
73
81
0
VERTEX
8
OBJECT__11
10
0
20
0
30
0
70
128
71
63
72
82
73
83
0
VERTEX
8
OBJECT__11
10
0
20
0
30
0
70
128
71
83
72
64
73
63
0
VERTEX
8
OBJECT__11
10
0
20
0
30
0
70
128
71
84
72
65
73
64
0
VERTEX
8
OBJECT__11
10
0
20
0
30
0
70
128
71
66
72
65
73
85
0
VERTEX
8
OBJECT__11
10
0
20
0
30
0
70
128
71
65
72
84
73
85
0
VERTEX
8
OBJECT__11
10
0
20
0
30
0
70
128
71
66
72
86
73
87
0
VERTEX
8
OBJECT__11
10
0
20
0
30
0
70
128
71
87
72
67
73
66
0
VERTEX
8
OBJECT__11
10
0
20
0
30
0
70
128
71
67
72
88
73
89
0
VERTEX
8
OBJECT__11
10
0
20
0
30
0
70
128
71
89
72
68
73
67
0
VERTEX
8
OBJECT__11
10
0
20
0
30
0
70
128
71
90
72
91
73
69
0
VERTEX
8
OBJECT__11
10
0
20
0
30
0
70
128
71
70
72
69
73
92
0
VERTEX
8
OBJECT__11
10
0
20
0
30
0
70
128
71
69
72
91
73
92
0
VERTEX
8
OBJECT__11
10
0
20
0
30
0
70
128
71
70
72
93
73
94
0
VERTEX
8
OBJECT__11
10
0
20
0
30
0
70
128
71
94
72
71
73
70
0
VERTEX
8
OBJECT__11
10
0
20
0
30
0
70
128
71
95
72
96
73
72
0
VERTEX
8
OBJECT__11
10
0
20
0
30
0
70
128
71
73
72
72
73
97
0
VERTEX
8
OBJECT__11
10
0
20
0
30
0
70
128
71
72
72
96
73
97
0
VERTEX
8
OBJECT__11
10
0
20
0
30
0
70
128
71
73
72
98
73
99
0
VERTEX
8
OBJECT__11
10
0
20
0
30
0
70
128
71
99
72
74
73
73
0
VERTEX
8
OBJECT__11
10
0
20
0
30
0
70
128
71
100
72
75
73
58
0
VERTEX
8
OBJECT__11
10
0
20
0
30
0
70
128
71
58
72
74
73
100
0
VERTEX
8
OBJECT__11
10
0
20
0
30
0
70
128
71
99
72
100
73
74
0
VERTEX
8
OBJECT__11
10
0
20
0
30
0
70
128
71
97
72
98
73
73
0
VERTEX
8
OBJECT__11
10
0
20
0
30
0
70
128
71
72
72
71
73
95
0
VERTEX
8
OBJECT__11
10
0
20
0
30
0
70
128
71
94
72
95
73
71
0
VERTEX
8
OBJECT__11
10
0
20
0
30
0
70
128
71
92
72
93
73
70
0
VERTEX
8
OBJECT__11
10
0
20
0
30
0
70
128
71
69
72
68
73
90
0
VERTEX
8
OBJECT__11
10
0
20
0
30
0
70
128
71
89
72
90
73
68
0
VERTEX
8
OBJECT__11
10
0
20
0
30
0
70
128
71
87
72
88
73
67
0
VERTEX
8
OBJECT__11
10
0
20
0
30
0
70
128
71
85
72
86
73
66
0
VERTEX
8
OBJECT__11
10
0
20
0
30
0
70
128
71
64
72
101
73
84
0
VERTEX
8
OBJECT__11
10
0
20
0
30
0
70
128
71
83
72
101
73
64
0
VERTEX
8
OBJECT__11
10
0
20
0
30
0
70
128
71
81
72
82
73
63
0
VERTEX
8
OBJECT__11
10
0
20
0
30
0
70
128
71
61
72
102
73
80
0
VERTEX
8
OBJECT__11
10
0
20
0
30
0
70
128
71
79
72
102
73
61
0
VERTEX
8
OBJECT__11
10
0
20
0
30
0
70
128
71
77
72
78
73
60
0
VERTEX
8
OBJECT__11
10
0
20
0
30
0
70
128
71
59
72
58
73
75
0
VERTEX
8
OBJECT__11
10
0
20
0
30
0
70
128
71
41
72
57
73
74
0
VERTEX
8
OBJECT__11
10
0
20
0
30
0
70
128
71
57
72
56
73
73
0
VERTEX
8
OBJECT__11
10
0
20
0
30
0
70
128
71
56
72
55
73
72
0
VERTEX
8
OBJECT__11
10
0
20
0
30
0
70
128
71
55
72
54
73
71
0
VERTEX
8
OBJECT__11
10
0
20
0
30
0
70
128
71
54
72
53
73
70
0
VERTEX
8
OBJECT__11
10
0
20
0
30
0
70
128
71
53
72
52
73
69
0
VERTEX
8
OBJECT__11
10
0
20
0
30
0
70
128
71
52
72
51
73
68
0
VERTEX
8
OBJECT__11
10
0
20
0
30
0
70
128
71
51
72
50
73
67
0
VERTEX
8
OBJECT__11
10
0
20
0
30
0
70
128
71
50
72
49
73
66
0
VERTEX
8
OBJECT__11
10
0
20
0
30
0
70
128
71
49
72
48
73
65
0
VERTEX
8
OBJECT__11
10
0
20
0
30
0
70
128
71
48
72
47
73
64
0
VERTEX
8
OBJECT__11
10
0
20
0
30
0
70
128
71
47
72
46
73
63
0
VERTEX
8
OBJECT__11
10
0
20
0
30
0
70
128
71
46
72
45
73
62
0
VERTEX
8
OBJECT__11
10
0
20
0
30
0
70
128
71
45
72
44
73
61
0
VERTEX
8
OBJECT__11
10
0
20
0
30
0
70
128
71
44
72
43
73
60
0
VERTEX
8
OBJECT__11
10
0
20
0
30
0
70
128
71
43
72
42
73
59
0
VERTEX
8
OBJECT__11
10
0
20
0
30
0
70
128
71
42
72
41
73
58
0
VERTEX
8
OBJECT__11
10
0
20
0
30
0
70
128
71
40
72
38
73
57
0
VERTEX
8
OBJECT__11
10
0
20
0
30
0
70
128
71
38
72
35
73
56
0
VERTEX
8
OBJECT__11
10
0
20
0
30
0
70
128
71
35
72
33
73
55
0
VERTEX
8
OBJECT__11
10
0
20
0
30
0
70
128
71
33
72
30
73
54
0
VERTEX
8
OBJECT__11
10
0
20
0
30
0
70
128
71
30
72
28
73
53
0
VERTEX
8
OBJECT__11
10
0
20
0
30
0
70
128
71
28
72
26
73
52
0
VERTEX
8
OBJECT__11
10
0
20
0
30
0
70
128
71
26
72
23
73
51
0
VERTEX
8
OBJECT__11
10
0
20
0
30
0
70
128
71
23
72
21
73
50
0
VERTEX
8
OBJECT__11
10
0
20
0
30
0
70
128
71
21
72
18
73
49
0
VERTEX
8
OBJECT__11
10
0
20
0
30
0
70
128
71
18
72
16
73
48
0
VERTEX
8
OBJECT__11
10
0
20
0
30
0
70
128
71
16
72
14
73
47
0
VERTEX
8
OBJECT__11
10
0
20
0
30
0
70
128
71
14
72
11
73
46
0
VERTEX
8
OBJECT__11
10
0
20
0
30
0
70
128
71
11
72
9
73
45
0
VERTEX
8
OBJECT__11
10
0
20
0
30
0
70
128
71
9
72
6
73
44
0
VERTEX
8
OBJECT__11
10
0
20
0
30
0
70
128
71
6
72
4
73
43
0
VERTEX
8
OBJECT__11
10
0
20
0
30
0
70
128
71
4
72
1
73
42
0
VERTEX
8
OBJECT__11
10
0
20
0
30
0
70
128
71
1
72
40
73
41
0
VERTEX
8
OBJECT__11
10
0
20
0
30
0
70
128
71
3
72
39
73
38
0
VERTEX
8
OBJECT__11
10
0
20
0
30
0
70
128
71
39
72
37
73
35
0
VERTEX
8
OBJECT__11
10
0
20
0
30
0
70
128
71
36
72
34
73
33
0
VERTEX
8
OBJECT__11
10
0
20
0
30
0
70
128
71
31
72
30
73
33
0
VERTEX
8
OBJECT__11
10
0
20
0
30
0
70
128
71
32
72
29
73
28
0
VERTEX
8
OBJECT__11
10
0
20
0
30
0
70
128
71
29
72
27
73
26
0
VERTEX
8
OBJECT__11
10
0
20
0
30
0
70
128
71
27
72
25
73
23
0
VERTEX
8
OBJECT__11
10
0
20
0
30
0
70
128
71
24
72
22
73
21
0
VERTEX
8
OBJECT__11
10
0
20
0
30
0
70
128
71
22
72
19
73
18
0
VERTEX
8
OBJECT__11
10
0
20
0
30
0
70
128
71
20
72
17
73
16
0
VERTEX
8
OBJECT__11
10
0
20
0
30
0
70
128
71
15
72
14
73
16
0
VERTEX
8
OBJECT__11
10
0
20
0
30
0
70
128
71
15
72
13
73
11
0
VERTEX
8
OBJECT__11
10
0
20
0
30
0
70
128
71
12
72
10
73
9
0
VERTEX
8
OBJECT__11
10
0
20
0
30
0
70
128
71
10
72
7
73
6
0
VERTEX
8
OBJECT__11
10
0
20
0
30
0
70
128
71
8
72
5
73
4
0
VERTEX
8
OBJECT__11
10
0
20
0
30
0
70
128
71
2
72
1
73
4
0
VERTEX
8
OBJECT__11
10
0
20
0
30
0
70
128
71
3
72
40
73
1
0
SEQEND
8
OBJECT__11
0
POLYLINE
8
OBJECT__12
66
1
70
64
71
40
72
40
62
253
0
VERTEX
8
OBJECT__12
10
0.000000
20
413.500000
30
23.382999
70
192
0
VERTEX
8
OBJECT__12
10
0.000000
20
400.000000
30
27.000000
70
192
0
VERTEX
8
OBJECT__12
10
10.000000
20
404.960999
30
26.540001
70
192
0
VERTEX
8
OBJECT__12
10
10.000000
20
400.000000
30
26.540001
70
192
0
VERTEX
8
OBJECT__12
10
10.000000
20
414.213013
30
22.955999
70
192
0
VERTEX
8
OBJECT__12
10
10.000000
20
421.545990
30
16.271000
70
192
0
VERTEX
8
OBJECT__12
10
0.000000
20
423.382996
30
13.500000
70
192
0
VERTEX
8
OBJECT__12
10
10.000000
20
413.449005
30
23.252001
70
192
0
VERTEX
8
OBJECT__12
10
0.000000
20
427.000000
30
0.000000
70
192
0
VERTEX
8
OBJECT__12
10
10.000000
20
425.968994
30
7.389000
70
192
0
VERTEX
8
OBJECT__12
10
10.000000
20
423.016998
30
13.318000
70
192
0
VERTEX
8
OBJECT__12
10
0.000000
20
423.382996
30
-13.500000
70
192
0
VERTEX
8
OBJECT__12
10
10.000000
20
426.884003
30
-2.491000
70
192
0
VERTEX
8
OBJECT__12
10
10.000000
20
426.657013
30
-0.032000
70
192
0
VERTEX
8
OBJECT__12
10
10.000000
20
424.169006
30
-12.035000
70
192
0
VERTEX
8
OBJECT__12
10
10.000000
20
423.178986
30
-13.346000
70
192
0
VERTEX
8
OBJECT__12
10
10.000000
20
418.190002
30
-19.952999
70
192
0
VERTEX
8
OBJECT__12
10
0.000000
20
413.500000
30
-23.382999
70
192
0
VERTEX
8
OBJECT__12
10
0.000000
20
400.000000
30
-27.000000
70
192
0
VERTEX
8
OBJECT__12
10
10.000000
20
409.752991
30
-25.176001
70
192
0
VERTEX
8
OBJECT__12
10
10.000000
20
413.265015
30
-23.002001
70
192
0
VERTEX
8
OBJECT__12
10
10.000000
20
400.000000
30
-27.000000
70
192
0
VERTEX
8
OBJECT__12
10
10.000000
20
390.247009
30
-25.176001
70
192
0
VERTEX
8
OBJECT__12
10
0.000000
20
386.500000
30
-23.382999
70
192
0
VERTEX
8
OBJECT__12
10
0.000000
20
376.617004
30
-13.500000
70
192
0
VERTEX
8
OBJECT__12
10
10.000000
20
381.809998
30
-19.952999
70
192
0
VERTEX
8
OBJECT__12
10
10.000000
20
386.734985
30
-23.002001
70
192
0
VERTEX
8
OBJECT__12
10
10.000000
20
375.830994
30
-12.035000
70
192
0
VERTEX
8
OBJECT__12
10
10.000000
20
373.115997
30
-2.491000
70
192
0
VERTEX
8
OBJECT__12
10
0.000000
20
373.000000
30
0.000000
70
192
0
VERTEX
8
OBJECT__12
10
10.000000
20
376.821014
30
-13.346000
70
192
0
VERTEX
8
OBJECT__12
10
10.000000
20
373.342987
30
-0.032000
70
192
0
VERTEX
8
OBJECT__12
10
10.000000
20
374.031006
30
7.389000
70
192
0
VERTEX
8
OBJECT__12
10
0.000000
20
376.617004
30
13.500000
70
192
0
VERTEX
8
OBJECT__12
10
0.000000
20
386.500000
30
23.382999
70
192
0
VERTEX
8
OBJECT__12
10
10.000000
20
378.454010
30
16.271000
70
192
0
VERTEX
8
OBJECT__12
10
10.000000
20
376.983002
30
13.318000
70
192
0
VERTEX
8
OBJECT__12
10
10.000000
20
385.786987
30
22.955999
70
192
0
VERTEX
8
OBJECT__12
10
10.000000
20
386.550995
30
23.252001
70
192
0
VERTEX
8
OBJECT__12
10
10.000000
20
395.039001
30
26.540001
70
192
0
VERTEX
8
OBJECT__12
10
0
20
0
30
0
70
128
71
1
72
2
73
3
0
VERTEX
8
OBJECT__12
10
0
20
0
30
0
70
128
71
2
72
4
73
3
0
VERTEX
8
OBJECT__12
10
0
20
0
30
0
70
128
71
1
72
5
73
6
0
VERTEX
8
OBJECT__12
10
0
20
0
30
0
70
128
71
6
72
7
73
1
0
VERTEX
8
OBJECT__12
10
0
20
0
30
0
70
128
71
1
72
8
73
5
0
VERTEX
8
OBJECT__12
10
0
20
0
30
0
70
128
71
9
72
7
73
10
0
VERTEX
8
OBJECT__12
10
0
20
0
30
0
70
128
71
7
72
11
73
10
0
VERTEX
8
OBJECT__12
10
0
20
0
30
0
70
128
71
12
72
9
73
13
0
VERTEX
8
OBJECT__12
10
0
20
0
30
0
70
128
71
9
72
14
73
13
0
VERTEX
8
OBJECT__12
10
0
20
0
30
0
70
128
71
13
72
15
73
12
0
VERTEX
8
OBJECT__12
10
0
20
0
30
0
70
128
71
12
72
16
73
17
0
VERTEX
8
OBJECT__12
10
0
20
0
30
0
70
128
71
17
72
18
73
12
0
VERTEX
8
OBJECT__12
10
0
20
0
30
0
70
128
71
19
72
18
73
20
0
VERTEX
8
OBJECT__12
10
0
20
0
30
0
70
128
71
18
72
21
73
20
0
VERTEX
8
OBJECT__12
10
0
20
0
30
0
70
128
71
19
72
22
73
23
0
VERTEX
8
OBJECT__12
10
0
20
0
30
0
70
128
71
23
72
24
73
19
0
VERTEX
8
OBJECT__12
10
0
20
0
30
0
70
128
71
25
72
24
73
26
0
VERTEX
8
OBJECT__12
10
0
20
0
30
0
70
128
71
24
72
27
73
26
0
VERTEX
8
OBJECT__12
10
0
20
0
30
0
70
128
71
25
72
28
73
29
0
VERTEX
8
OBJECT__12
10
0
20
0
30
0
70
128
71
29
72
30
73
25
0
VERTEX
8
OBJECT__12
10
0
20
0
30
0
70
128
71
25
72
31
73
28
0
VERTEX
8
OBJECT__12
10
0
20
0
30
0
70
128
71
30
72
32
73
33
0
VERTEX
8
OBJECT__12
10
0
20
0
30
0
70
128
71
33
72
34
73
30
0
VERTEX
8
OBJECT__12
10
0
20
0
30
0
70
128
71
35
72
34
73
36
0
VERTEX
8
OBJECT__12
10
0
20
0
30
0
70
128
71
34
72
37
73
36
0
VERTEX
8
OBJECT__12
10
0
20
0
30
0
70
128
71
36
72
38
73
35
0
VERTEX
8
OBJECT__12
10
0
20
0
30
0
70
128
71
35
72
39
73
40
0
VERTEX
8
OBJECT__12
10
0
20
0
30
0
70
128
71
40
72
2
73
35
0
VERTEX
8
OBJECT__12
10
0
20
0
30
0
70
128
71
40
72
4
73
2
0
VERTEX
8
OBJECT__12
10
0
20
0
30
0
70
128
71
38
72
39
73
35
0
VERTEX
8
OBJECT__12
10
0
20
0
30
0
70
128
71
33
72
37
73
34
0
VERTEX
8
OBJECT__12
10
0
20
0
30
0
70
128
71
29
72
32
73
30
0
VERTEX
8
OBJECT__12
10
0
20
0
30
0
70
128
71
26
72
31
73
25
0
VERTEX
8
OBJECT__12
10
0
20
0
30
0
70
128
71
23
72
27
73
24
0
VERTEX
8
OBJECT__12
10
0
20
0
30
0
70
128
71
20
72
22
73
19
0
VERTEX
8
OBJECT__12
10
0
20
0
30
0
70
128
71
17
72
21
73
18
0
VERTEX
8
OBJECT__12
10
0
20
0
30
0
70
128
71
15
72
16
73
12
0
VERTEX
8
OBJECT__12
10
0
20
0
30
0
70
128
71
10
72
14
73
9
0
VERTEX
8
OBJECT__12
10
0
20
0
30
0
70
128
71
6
72
11
73
7
0
VERTEX
8
OBJECT__12
10
0
20
0
30
0
70
128
71
3
72
8
73
1
0
SEQEND
8
OBJECT__12
0
POLYLINE
8
OBJECT__13
66
1
70
64
71
12
72
10
62
253
0
VERTEX
8
OBJECT__13
10
0.000000
20
386.500000
30
-23.382999
70
192
0
VERTEX
8
OBJECT__13
10
0.000000
20
376.617004
30
13.500000
70
192
0
VERTEX
8
OBJECT__13
10
0.000000
20
386.500000
30
23.382999
70
192
0
VERTEX
8
OBJECT__13
10
0.000000
20
413.500000
30
23.382999
70
192
0
VERTEX
8
OBJECT__13
10
0.000000
20
423.382996
30
-13.500000
70
192
0
VERTEX
8
OBJECT__13
10
0.000000
20
413.500000
30
-23.382999
70
192
0
VERTEX
8
OBJECT__13
10
0.000000
20
400.000000
30
27.000000
70
192
0
VERTEX
8
OBJECT__13
10
0.000000
20
376.617004
30
-13.500000
70
192
0
VERTEX
8
OBJECT__13
10
0.000000
20
400.000000
30
-27.000000
70
192
0
VERTEX
8
OBJECT__13
10
0.000000
20
423.382996
30
13.500000
70
192
0
VERTEX
8
OBJECT__13
10
0.000000
20
373.000000
30
0.000000
70
192
0
VERTEX
8
OBJECT__13
10
0.000000
20
427.000000
30
0.000000
70
192
0
VERTEX
8
OBJECT__13
10
0
20
0
30
0
70
128
71
1
72
2
73
3
0
VERTEX
8
OBJECT__13
10
0
20
0
30
0
70
128
71
4
72
5
73
6
0
VERTEX
8
OBJECT__13
10
0
20
0
30
0
70
128
71
3
72
7
73
1
0
VERTEX
8
OBJECT__13
10
0
20
0
30
0
70
128
71
2
72
1
73
8
0
VERTEX
8
OBJECT__13
10
0
20
0
30
0
70
128
71
6
72
9
73
4
0
VERTEX
8
OBJECT__13
10
0
20
0
30
0
70
128
71
5
72
4
73
10
0
VERTEX
8
OBJECT__13
10
0
20
0
30
0
70
128
71
8
72
11
73
2
0
VERTEX
8
OBJECT__13
10
0
20
0
30
0
70
128
71
10
72
12
73
5
0
VERTEX
8
OBJECT__13
10
0
20
0
30
0
70
128
71
9
72
1
73
4
0
VERTEX
8
OBJECT__13
10
0
20
0
30
0
70
128
71
7
72
4
73
1
0
SEQEND
8
OBJECT__13
0
POLYLINE
8
OBJECT__14
66
1
70
64
71
86
72
88
62
253
0
VERTEX
8
OBJECT__14
10
39.842999
20
391.529999
30
2.971000
70
192
0
VERTEX
8
OBJECT__14
10
39.304001
20
-391.200012
30
-1.887000
70
192
0
VERTEX
8
OBJECT__14
10
39.000999
20
-391.001007
30
0.113000
70
192
0
VERTEX
8
OBJECT__14
10
39.278000
20
-391.183014
30
1.807000
70
192
0
VERTEX
8
OBJECT__14
10
39.369999
20
-391.239990
30
1.998000
70
192
0
VERTEX
8
OBJECT__14
10
39.839001
20
-391.532990
30
2.983000
70
192
0
VERTEX
8
OBJECT__14
10
39.891998
20
-391.558014
30
-2.951000
70
192
0
VERTEX
8
OBJECT__14
10
39.089001
20
391.058990
30
1.028000
70
192
0
VERTEX
8
OBJECT__14
10
39.051998
20
391.035004
30
-0.788000
70
192
0
VERTEX
8
OBJECT__14
10
39.495998
20
391.322998
30
-2.390000
70
192
0
VERTEX
8
OBJECT__14
10
39.409000
20
391.265015
30
1.994000
70
192
0
VERTEX
8
OBJECT__14
10
39.647999
20
391.419006
30
2.713000
70
192
0
VERTEX
8
OBJECT__14
10
39.853001
20
391.537994
30
-2.969000
70
192
0
VERTEX
8
OBJECT__14
10
43.999001
20
393.217987
30
5.916000
70
192
0
VERTEX
8
OBJECT__14
10
42.999001
20
393.000000
30
5.657000
70
192
0
VERTEX
8
OBJECT__14
10
40.925999
20
392.152008
30
4.405000
70
192
0
VERTEX
8
OBJECT__14
10
43.999001
20
393.897003
30
5.916000
70
192
0
VERTEX
8
OBJECT__14
10
43.015999
20
393.661011
30
5.663000
70
192
0
VERTEX
8
OBJECT__14
10
43.999001
20
-393.217987
30
5.916000
70
192
0
VERTEX
8
OBJECT__14
10
45.000999
20
393.265015
30
5.970000
70
192
0
VERTEX
8
OBJECT__14
10
44.641998
20
-393.282013
30
5.989000
70
192
0
VERTEX
8
OBJECT__14
10
44.998001
20
-393.265015
30
5.970000
70
192
0
VERTEX
8
OBJECT__14
10
42.999001
20
-393.000000
30
5.657000
70
192
0
VERTEX
8
OBJECT__14
10
43.015999
20
-393.661011
30
5.663000
70
192
0
VERTEX
8
OBJECT__14
10
41.222000
20
-392.300995
30
4.661000
70
192
0
VERTEX
8
OBJECT__14
10
39.993000
20
-391.630005
30
3.307000
70
192
0
VERTEX
8
OBJECT__14
10
43.999001
20
-393.897003
30
5.916000
70
192
0
VERTEX
8
OBJECT__14
10
45.999001
20
-393.217987
30
5.916000
70
192
0
VERTEX
8
OBJECT__14
10
46.999001
20
-393.000000
30
5.657000
70
192
0
VERTEX
8
OBJECT__14
10
49.074001
20
-392.152008
30
4.405000
70
192
0
VERTEX
8
OBJECT__14
10
46.015999
20
-393.894012
30
5.913000
70
192
0
VERTEX
8
OBJECT__14
10
46.999001
20
-393.656006
30
5.657000
70
192
0
VERTEX
8
OBJECT__14
10
45.999001
20
393.217987
30
5.916000
70
192
0
VERTEX
8
OBJECT__14
10
50.157001
20
-391.529999
30
2.971000
70
192
0
VERTEX
8
OBJECT__14
10
50.160999
20
391.532990
30
2.983000
70
192
0
VERTEX
8
OBJECT__14
10
45.356998
20
393.282013
30
5.989000
70
192
0
VERTEX
8
OBJECT__14
10
46.999001
20
393.000000
30
5.657000
70
192
0
VERTEX
8
OBJECT__14
10
46.999001
20
393.656006
30
5.657000
70
192
0
VERTEX
8
OBJECT__14
10
48.777000
20
392.300995
30
4.661000
70
192
0
VERTEX
8
OBJECT__14
10
50.006001
20
391.630005
30
3.307000
70
192
0
VERTEX
8
OBJECT__14
10
46.015999
20
393.894012
30
5.913000
70
192
0
VERTEX
8
OBJECT__14
10
50.695000
20
391.200012
30
-1.887000
70
192
0
VERTEX
8
OBJECT__14
10
50.999001
20
391.001007
30
0.113000
70
192
0
VERTEX
8
OBJECT__14
10
50.721001
20
391.183014
30
1.807000
70
192
0
VERTEX
8
OBJECT__14
10
50.630001
20
391.239990
30
1.998000
70
192
0
VERTEX
8
OBJECT__14
10
50.108002
20
391.558014
30
-2.951000
70
192
0
VERTEX
8
OBJECT__14
10
50.910999
20
-391.058990
30
1.028000
70
192
0
VERTEX
8
OBJECT__14
10
50.948002
20
-391.035004
30
-0.788000
70
192
0
VERTEX
8
OBJECT__14
10
50.502998
20
-391.322998
30
-2.390000
70
192
0
VERTEX
8
OBJECT__14
10
50.590000
20
-391.265015
30
1.994000
70
192
0
VERTEX
8
OBJECT__14
10
50.351002
20
-391.419006
30
2.713000
70
192
0
VERTEX
8
OBJECT__14
10
50.146000
20
-391.537994
30
-2.969000
70
192
0
VERTEX
8
OBJECT__14
10
45.999001
20
393.217987
30
-5.916000
70
192
0
VERTEX
8
OBJECT__14
10
47.070000
20
392.968994
30
-5.608000
70
192
0
VERTEX
8
OBJECT__14
10
49.632000
20
391.847992
30
-3.814000
70
192
0
VERTEX
8
OBJECT__14
10
46.999001
20
393.000000
30
-5.657000
70
192
0
VERTEX
8
OBJECT__14
10
46.015999
20
393.894012
30
-5.913000
70
192
0
VERTEX
8
OBJECT__14
10
46.681999
20
393.748993
30
-5.760000
70
192
0
VERTEX
8
OBJECT__14
10
46.999001
20
393.656006
30
-5.657000
70
192
0
VERTEX
8
OBJECT__14
10
45.999001
20
-393.217987
30
-5.916000
70
192
0
VERTEX
8
OBJECT__14
10
45.000000
20
-393.291992
30
-6.000000
70
192
0
VERTEX
8
OBJECT__14
10
45.000000
20
393.291992
30
-6.000000
70
192
0
VERTEX
8
OBJECT__14
10
46.999001
20
-393.000000
30
-5.657000
70
192
0
VERTEX
8
OBJECT__14
10
46.999001
20
-393.656006
30
-5.657000
70
192
0
VERTEX
8
OBJECT__14
10
46.603001
20
-393.769012
30
-5.782000
70
192
0
VERTEX
8
OBJECT__14
10
48.147999
20
-392.589996
30
-5.108000
70
192
0
VERTEX
8
OBJECT__14
10
47.097000
20
-392.964996
30
-5.610000
70
192
0
VERTEX
8
OBJECT__14
10
48.471001
20
-392.412994
30
-4.894000
70
192
0
VERTEX
8
OBJECT__14
10
49.610001
20
-391.859985
30
-3.840000
70
192
0
VERTEX
8
OBJECT__14
10
46.015999
20
-393.894012
30
-5.913000
70
192
0
VERTEX
8
OBJECT__14
10
43.999001
20
-393.217987
30
-5.916000
70
192
0
VERTEX
8
OBJECT__14
10
42.929001
20
-392.968994
30
-5.608000
70
192
0
VERTEX
8
OBJECT__14
10
40.368000
20
-391.847992
30
-3.814000
70
192
0
VERTEX
8
OBJECT__14
10
42.999001
20
-393.000000
30
-5.657000
70
192
0
VERTEX
8
OBJECT__14
10
43.999001
20
-393.897003
30
-5.916000
70
192
0
VERTEX
8
OBJECT__14
10
43.318001
20
-393.748993
30
-5.760000
70
192
0
VERTEX
8
OBJECT__14
10
43.015999
20
-393.661011
30
-5.663000
70
192
0
VERTEX
8
OBJECT__14
10
43.999001
20
393.217987
30
-5.916000
70
192
0
VERTEX
8
OBJECT__14
10
42.999001
20
393.000000
30
-5.657000
70
192
0
VERTEX
8
OBJECT__14
10
43.015999
20
393.661011
30
-5.663000
70
192
0
VERTEX
8
OBJECT__14
10
43.396000
20
393.769012
30
-5.782000
70
192
0
VERTEX
8
OBJECT__14
10
41.852001
20
392.589996
30
-5.108000
70
192
0
VERTEX
8
OBJECT__14
10
42.902000
20
392.964996
30
-5.610000
70
192
0
VERTEX
8
OBJECT__14
10
41.528000
20
392.412994
30
-4.894000
70
192
0
VERTEX
8
OBJECT__14
10
40.389999
20
391.859985
30
-3.840000
70
192
0
VERTEX
8
OBJECT__14
10
43.999001
20
393.897003
30
-5.916000
70
192
0
VERTEX
8
OBJECT__14
10
0
20
0
30
0
70
128
71
1
72
2
73
3
0
VERTEX
8
OBJECT__14
10
0
20
0
30
0
70
128
71
4
72
5
73
1
0
VERTEX
8
OBJECT__14
10
0
20
0
30
0
70
128
71
3
72
4
73
1
0
VERTEX
8
OBJECT__14
10
0
20
0
30
0
70
128
71
5
72
6
73
1
0
VERTEX
8
OBJECT__14
10
0
20
0
30
0
70
128
71
7
72
8
73
9
0
VERTEX
8
OBJECT__14
10
0
20
0
30
0
70
128
71
9
72
10
73
7
0
VERTEX
8
OBJECT__14
10
0
20
0
30
0
70
128
71
7
72
11
73
8
0
VERTEX
8
OBJECT__14
10
0
20
0
30
0
70
128
71
7
72
12
73
11
0
VERTEX
8
OBJECT__14
10
0
20
0
30
0
70
128
71
10
72
13
73
7
0
VERTEX
8
OBJECT__14
10
0
20
0
30
0
70
128
71
2
72
1
73
12
0
VERTEX
8
OBJECT__14
10
0
20
0
30
0
70
128
71
12
72
7
73
2
0
VERTEX
8
OBJECT__14
10
0
20
0
30
0
70
128
71
14
72
15
73
16
0
VERTEX
8
OBJECT__14
10
0
20
0
30
0
70
128
71
14
72
17
73
18
0
VERTEX
8
OBJECT__14
10
0
20
0
30
0
70
128
71
18
72
15
73
14
0
VERTEX
8
OBJECT__14
10
0
20
0
30
0
70
128
71
19
72
14
73
1
0
VERTEX
8
OBJECT__14
10
0
20
0
30
0
70
128
71
19
72
20
73
14
0
VERTEX
8
OBJECT__14
10
0
20
0
30
0
70
128
71
1
72
6
73
19
0
VERTEX
8
OBJECT__14
10
0
20
0
30
0
70
128
71
19
72
21
73
20
0
VERTEX
8
OBJECT__14
10
0
20
0
30
0
70
128
71
21
72
22
73
20
0
VERTEX
8
OBJECT__14
10
0
20
0
30
0
70
128
71
19
72
23
73
24
0
VERTEX
8
OBJECT__14
10
0
20
0
30
0
70
128
71
19
72
25
73
23
0
VERTEX
8
OBJECT__14
10
0
20
0
30
0
70
128
71
25
72
19
73
6
0
VERTEX
8
OBJECT__14
10
0
20
0
30
0
70
128
71
6
72
26
73
25
0
VERTEX
8
OBJECT__14
10
0
20
0
30
0
70
128
71
24
72
27
73
19
0
VERTEX
8
OBJECT__14
10
0
20
0
30
0
70
128
71
28
72
29
73
30
0
VERTEX
8
OBJECT__14
10
0
20
0
30
0
70
128
71
28
72
31
73
32
0
VERTEX
8
OBJECT__14
10
0
20
0
30
0
70
128
71
32
72
29
73
28
0
VERTEX
8
OBJECT__14
10
0
20
0
30
0
70
128
71
33
72
28
73
34
0
VERTEX
8
OBJECT__14
10
0
20
0
30
0
70
128
71
33
72
22
73
28
0
VERTEX
8
OBJECT__14
10
0
20
0
30
0
70
128
71
34
72
35
73
33
0
VERTEX
8
OBJECT__14
10
0
20
0
30
0
70
128
71
33
72
36
73
22
0
VERTEX
8
OBJECT__14
10
0
20
0
30
0
70
128
71
36
72
20
73
22
0
VERTEX
8
OBJECT__14
10
0
20
0
30
0
70
128
71
33
72
37
73
38
0
VERTEX
8
OBJECT__14
10
0
20
0
30
0
70
128
71
33
72
39
73
37
0
VERTEX
8
OBJECT__14
10
0
20
0
30
0
70
128
71
39
72
33
73
35
0
VERTEX
8
OBJECT__14
10
0
20
0
30
0
70
128
71
35
72
40
73
39
0
VERTEX
8
OBJECT__14
10
0
20
0
30
0
70
128
71
38
72
41
73
33
0
VERTEX
8
OBJECT__14
10
0
20
0
30
0
70
128
71
34
72
42
73
43
0
VERTEX
8
OBJECT__14
10
0
20
0
30
0
70
128
71
44
72
45
73
34
0
VERTEX
8
OBJECT__14
10
0
20
0
30
0
70
128
71
43
72
44
73
34
0
VERTEX
8
OBJECT__14
10
0
20
0
30
0
70
128
71
45
72
35
73
34
0
VERTEX
8
OBJECT__14
10
0
20
0
30
0
70
128
71
46
72
47
73
48
0
VERTEX
8
OBJECT__14
10
0
20
0
30
0
70
128
71
48
72
49
73
46
0
VERTEX
8
OBJECT__14
10
0
20
0
30
0
70
128
71
46
72
50
73
47
0
VERTEX
8
OBJECT__14
10
0
20
0
30
0
70
128
71
46
72
51
73
50
0
VERTEX
8
OBJECT__14
10
0
20
0
30
0
70
128
71
49
72
52
73
46
0
VERTEX
8
OBJECT__14
10
0
20
0
30
0
70
128
71
42
72
34
73
51
0
VERTEX
8
OBJECT__14
10
0
20
0
30
0
70
128
71
51
72
46
73
42
0
VERTEX
8
OBJECT__14
10
0
20
0
30
0
70
128
71
53
72
54
73
55
0
VERTEX
8
OBJECT__14
10
0
20
0
30
0
70
128
71
53
72
56
73
54
0
VERTEX
8
OBJECT__14
10
0
20
0
30
0
70
128
71
53
72
57
73
58
0
VERTEX
8
OBJECT__14
10
0
20
0
30
0
70
128
71
58
72
56
73
53
0
VERTEX
8
OBJECT__14
10
0
20
0
30
0
70
128
71
58
72
59
73
56
0
VERTEX
8
OBJECT__14
10
0
20
0
30
0
70
128
71
53
72
46
73
52
0
VERTEX
8
OBJECT__14
10
0
20
0
30
0
70
128
71
52
72
60
73
53
0
VERTEX
8
OBJECT__14
10
0
20
0
30
0
70
128
71
61
72
62
73
53
0
VERTEX
8
OBJECT__14
10
0
20
0
30
0
70
128
71
63
72
64
73
65
0
VERTEX
8
OBJECT__14
10
0
20
0
30
0
70
128
71
65
72
60
73
63
0
VERTEX
8
OBJECT__14
10
0
20
0
30
0
70
128
71
66
72
67
73
68
0
VERTEX
8
OBJECT__14
10
0
20
0
30
0
70
128
71
68
72
69
73
66
0
VERTEX
8
OBJECT__14
10
0
20
0
30
0
70
128
71
60
72
68
73
67
0
VERTEX
8
OBJECT__14
10
0
20
0
30
0
70
128
71
60
72
52
73
69
0
VERTEX
8
OBJECT__14
10
0
20
0
30
0
70
128
71
69
72
68
73
60
0
VERTEX
8
OBJECT__14
10
0
20
0
30
0
70
128
71
67
72
63
73
60
0
VERTEX
8
OBJECT__14
10
0
20
0
30
0
70
128
71
65
72
70
73
60
0
VERTEX
8
OBJECT__14
10
0
20
0
30
0
70
128
71
60
72
61
73
53
0
VERTEX
8
OBJECT__14
10
0
20
0
30
0
70
128
71
71
72
72
73
73
0
VERTEX
8
OBJECT__14
10
0
20
0
30
0
70
128
71
71
72
74
73
72
0
VERTEX
8
OBJECT__14
10
0
20
0
30
0
70
128
71
71
72
75
73
76
0
VERTEX
8
OBJECT__14
10
0
20
0
30
0
70
128
71
76
72
74
73
71
0
VERTEX
8
OBJECT__14
10
0
20
0
30
0
70
128
71
76
72
77
73
74
0
VERTEX
8
OBJECT__14
10
0
20
0
30
0
70
128
71
71
72
7
73
13
0
VERTEX
8
OBJECT__14
10
0
20
0
30
0
70
128
71
13
72
78
73
71
0
VERTEX
8
OBJECT__14
10
0
20
0
30
0
70
128
71
62
72
61
73
71
0
VERTEX
8
OBJECT__14
10
0
20
0
30
0
70
128
71
78
72
62
73
71
0
VERTEX
8
OBJECT__14
10
0
20
0
30
0
70
128
71
79
72
80
73
81
0
VERTEX
8
OBJECT__14
10
0
20
0
30
0
70
128
71
81
72
78
73
79
0
VERTEX
8
OBJECT__14
10
0
20
0
30
0
70
128
71
82
72
83
73
84
0
VERTEX
8
OBJECT__14
10
0
20
0
30
0
70
128
71
84
72
85
73
82
0
VERTEX
8
OBJECT__14
10
0
20
0
30
0
70
128
71
78
72
84
73
83
0
VERTEX
8
OBJECT__14
10
0
20
0
30
0
70
128
71
78
72
13
73
85
0
VERTEX
8
OBJECT__14
10
0
20
0
30
0
70
128
71
85
72
84
73
78
0
VERTEX
8
OBJECT__14
10
0
20
0
30
0
70
128
71
83
72
79
73
78
0
VERTEX
8
OBJECT__14
10
0
20
0
30
0
70
128
71
81
72
86
73
78
0
VERTEX
8
OBJECT__14
10
0
20
0
30
0
70
128
71
73
72
7
73
71
0
VERTEX
8
OBJECT__14
10
0
20
0
30
0
70
128
71
55
72
46
73
53
0
VERTEX
8
OBJECT__14
10
0
20
0
30
0
70
128
71
30
72
34
73
28
0
VERTEX
8
OBJECT__14
10
0
20
0
30
0
70
128
71
16
72
1
73
14
0
SEQEND
8
OBJECT__14
0
POLYLINE
8
OBJECT__15
66
1
70
64
71
23
72
21
62
253
0
VERTEX
8
OBJECT__15
10
42.999001
20
-406.071014
30
-6.644000
70
192
0
VERTEX
8
OBJECT__15
10
42.999001
20
-399.906006
30
-8.722000
70
192
0
VERTEX
8
OBJECT__15
10
43.015999
20
-400.733002
30
-7.960000
70
192
0
VERTEX
8
OBJECT__15
10
43.015999
20
-399.234009
30
-8.465000
70
192
0
VERTEX
8
OBJECT__15
10
43.015999
20
-405.733002
30
-6.275000
70
192
0
VERTEX
8
OBJECT__15
10
42.999001
20
-409.000000
30
0.000000
70
192
0
VERTEX
8
OBJECT__15
10
42.999001
20
-406.609009
30
-5.423000
70
192
0
VERTEX
8
OBJECT__15
10
43.015999
20
-406.865997
30
-3.705000
70
192
0
VERTEX
8
OBJECT__15
10
42.999001
20
-406.071014
30
6.644000
70
192
0
VERTEX
8
OBJECT__15
10
42.999001
20
-408.223999
30
1.760000
70
192
0
VERTEX
8
OBJECT__15
10
43.015999
20
-406.865997
30
3.705000
70
192
0
VERTEX
8
OBJECT__15
10
43.015999
20
-408.500000
30
0.000000
70
192
0
VERTEX
8
OBJECT__15
10
43.015999
20
-400.733002
30
7.960000
70
192
0
VERTEX
8
OBJECT__15
10
42.999001
20
-399.188995
30
8.963000
70
192
0
VERTEX
8
OBJECT__15
10
42.999001
20
-403.683014
30
7.449000
70
192
0
VERTEX
8
OBJECT__15
10
43.015999
20
-405.733002
30
6.275000
70
192
0
VERTEX
8
OBJECT__15
10
42.999001
20
-399.188995
30
-8.963000
70
192
0
VERTEX
8
OBJECT__15
10
42.999001
20
-393.000000
30
-5.657000
70
192
0
VERTEX
8
OBJECT__15
10
43.015999
20
-393.661011
30
-5.663000
70
192
0
VERTEX
8
OBJECT__15
10
43.015999
20
-393.661011
30
5.663000
70
192
0
VERTEX
8
OBJECT__15
10
42.999001
20
-393.000000
30
5.657000
70
192
0
VERTEX
8
OBJECT__15
10
42.999001
20
-396.427002
30
7.488000
70
192
0
VERTEX
8
OBJECT__15
10
43.015999
20
-399.234009
30
8.465000
70
192
0
VERTEX
8
OBJECT__15
10
0
20
0
30
0
70
128
71
1
72
2
73
3
0
VERTEX
8
OBJECT__15
10
0
20
0
30
0
70
128
71
2
72
4
73
3
0
VERTEX
8
OBJECT__15
10
0
20
0
30
0
70
128
71
3
72
5
73
1
0
VERTEX
8
OBJECT__15
10
0
20
0
30
0
70
128
71
6
72
7
73
8
0
VERTEX
8
OBJECT__15
10
0
20
0
30
0
70
128
71
5
72
8
73
7
0
VERTEX
8
OBJECT__15
10
0
20
0
30
0
70
128
71
7
72
1
73
5
0
VERTEX
8
OBJECT__15
10
0
20
0
30
0
70
128
71
9
72
10
73
11
0
VERTEX
8
OBJECT__15
10
0
20
0
30
0
70
128
71
12
72
11
73
10
0
VERTEX
8
OBJECT__15
10
0
20
0
30
0
70
128
71
10
72
6
73
12
0
VERTEX
8
OBJECT__15
10
0
20
0
30
0
70
128
71
13
72
14
73
15
0
VERTEX
8
OBJECT__15
10
0
20
0
30
0
70
128
71
15
72
16
73
13
0
VERTEX
8
OBJECT__15
10
0
20
0
30
0
70
128
71
15
72
9
73
16
0
VERTEX
8
OBJECT__15
10
0
20
0
30
0
70
128
71
17
72
18
73
19
0
VERTEX
8
OBJECT__15
10
0
20
0
30
0
70
128
71
20
72
21
73
22
0
VERTEX
8
OBJECT__15
10
0
20
0
30
0
70
128
71
22
72
23
73
20
0
VERTEX
8
OBJECT__15
10
0
20
0
30
0
70
128
71
22
72
14
73
23
0
VERTEX
8
OBJECT__15
10
0
20
0
30
0
70
128
71
19
72
4
73
17
0
VERTEX
8
OBJECT__15
10
0
20
0
30
0
70
128
71
13
72
23
73
14
0
VERTEX
8
OBJECT__15
10
0
20
0
30
0
70
128
71
11
72
16
73
9
0
VERTEX
8
OBJECT__15
10
0
20
0
30
0
70
128
71
8
72
12
73
6
0
VERTEX
8
OBJECT__15
10
0
20
0
30
0
70
128
71
2
72
17
73
4
0
SEQEND
8
OBJECT__15
0
POLYLINE
8
OBJECT__16
66
1
70
64
71
23
72
21
62
253
0
VERTEX
8
OBJECT__16
10
43.999001
20
-407.506989
30
3.987000
70
192
0
VERTEX
8
OBJECT__16
10
43.999001
20
-404.759003
30
7.043000
70
192
0
VERTEX
8
OBJECT__16
10
43.015999
20
-405.733002
30
6.275000
70
192
0
VERTEX
8
OBJECT__16
10
43.015999
20
-400.733002
30
7.960000
70
192
0
VERTEX
8
OBJECT__16
10
43.999001
20
-400.898987
30
8.452000
70
192
0
VERTEX
8
OBJECT__16
10
43.999001
20
-408.500000
30
0.000000
70
192
0
VERTEX
8
OBJECT__16
10
43.015999
20
-408.500000
30
0.000000
70
192
0
VERTEX
8
OBJECT__16
10
43.015999
20
-406.865997
30
-3.705000
70
192
0
VERTEX
8
OBJECT__16
10
43.015999
20
-406.865997
30
3.705000
70
192
0
VERTEX
8
OBJECT__16
10
43.015999
20
-400.733002
30
-7.960000
70
192
0
VERTEX
8
OBJECT__16
10
43.999001
20
-400.898987
30
-8.452000
70
192
0
VERTEX
8
OBJECT__16
10
43.999001
20
-404.759003
30
-7.043000
70
192
0
VERTEX
8
OBJECT__16
10
43.999001
20
-407.506989
30
-3.987000
70
192
0
VERTEX
8
OBJECT__16
10
43.015999
20
-405.733002
30
-6.275000
70
192
0
VERTEX
8
OBJECT__16
10
43.999001
20
-393.897003
30
-5.916000
70
192
0
VERTEX
8
OBJECT__16
10
43.015999
20
-399.234009
30
-8.465000
70
192
0
VERTEX
8
OBJECT__16
10
43.015999
20
-393.661011
30
-5.663000
70
192
0
VERTEX
8
OBJECT__16
10
43.318001
20
-393.748993
30
-5.760000
70
192
0
VERTEX
8
OBJECT__16
10
43.015999
20
-399.234009
30
8.465000
70
192
0
VERTEX
8
OBJECT__16
10
43.999001
20
-397.105011
30
7.992000
70
192
0
VERTEX
8
OBJECT__16
10
43.999001
20
-395.382996
30
7.137000
70
192
0
VERTEX
8
OBJECT__16
10
43.015999
20
-393.661011
30
5.663000
70
192
0
VERTEX
8
OBJECT__16
10
43.999001
20
-393.897003
30
5.916000
70
192
0
VERTEX
8
OBJECT__16
10
0
20
0
30
0
70
128
71
1
72
2
73
3
0
VERTEX
8
OBJECT__16
10
0
20
0
30
0
70
128
71
4
72
3
73
2
0
VERTEX
8
OBJECT__16
10
0
20
0
30
0
70
128
71
2
72
5
73
4
0
VERTEX
8
OBJECT__16
10
0
20
0
30
0
70
128
71
6
72
7
73
8
0
VERTEX
8
OBJECT__16
10
0
20
0
30
0
70
128
71
6
72
1
73
9
0
VERTEX
8
OBJECT__16
10
0
20
0
30
0
70
128
71
9
72
7
73
6
0
VERTEX
8
OBJECT__16
10
0
20
0
30
0
70
128
71
10
72
11
73
12
0
VERTEX
8
OBJECT__16
10
0
20
0
30
0
70
128
71
13
72
8
73
14
0
VERTEX
8
OBJECT__16
10
0
20
0
30
0
70
128
71
14
72
12
73
13
0
VERTEX
8
OBJECT__16
10
0
20
0
30
0
70
128
71
15
72
11
73
16
0
VERTEX
8
OBJECT__16
10
0
20
0
30
0
70
128
71
11
72
10
73
16
0
VERTEX
8
OBJECT__16
10
0
20
0
30
0
70
128
71
16
72
17
73
18
0
VERTEX
8
OBJECT__16
10
0
20
0
30
0
70
128
71
19
72
20
73
21
0
VERTEX
8
OBJECT__16
10
0
20
0
30
0
70
128
71
21
72
22
73
19
0
VERTEX
8
OBJECT__16
10
0
20
0
30
0
70
128
71
19
72
5
73
20
0
VERTEX
8
OBJECT__16
10
0
20
0
30
0
70
128
71
21
72
23
73
22
0
VERTEX
8
OBJECT__16
10
0
20
0
30
0
70
128
71
19
72
4
73
5
0
VERTEX
8
OBJECT__16
10
0
20
0
30
0
70
128
71
16
72
18
73
15
0
VERTEX
8
OBJECT__16
10
0
20
0
30
0
70
128
71
12
72
14
73
10
0
VERTEX
8
OBJECT__16
10
0
20
0
30
0
70
128
71
8
72
13
73
6
0
VERTEX
8
OBJECT__16
10
0
20
0
30
0
70
128
71
3
72
9
73
1
0
SEQEND
8
OBJECT__16
0
POLYLINE
8
OBJECT__17
66
1
70
64
71
23
72
21
62
253
0
VERTEX
8
OBJECT__17
10
43.999001
20
-393.217987
30
5.916000
70
192
0
VERTEX
8
OBJECT__17
10
43.999001
20
-393.897003
30
5.916000
70
192
0
VERTEX
8
OBJECT__17
10
43.999001
20
-395.382996
30
7.137000
70
192
0
VERTEX
8
OBJECT__17
10
43.999001
20
-403.036011
30
8.472000
70
192
0
VERTEX
8
OBJECT__17
10
43.999001
20
-400.898987
30
8.452000
70
192
0
VERTEX
8
OBJECT__17
10
43.999001
20
-404.759003
30
7.043000
70
192
0
VERTEX
8
OBJECT__17
10
43.999001
20
-399.416992
30
8.981000
70
192
0
VERTEX
8
OBJECT__17
10
43.999001
20
-396.010986
30
8.068000
70
192
0
VERTEX
8
OBJECT__17
10
43.999001
20
-397.105011
30
7.992000
70
192
0
VERTEX
8
OBJECT__17
10
43.999001
20
-403.036011
30
-8.472000
70
192
0
VERTEX
8
OBJECT__17
10
43.999001
20
-406.153992
30
-6.567000
70
192
0
VERTEX
8
OBJECT__17
10
43.999001
20
-404.759003
30
-7.043000
70
192
0
VERTEX
8
OBJECT__17
10
43.999001
20
-408.257996
30
-3.578000
70
192
0
VERTEX
8
OBJECT__17
10
43.999001
20
-407.506989
30
-3.987000
70
192
0
VERTEX
8
OBJECT__17
10
43.999001
20
-408.500000
30
0.000000
70
192
0
VERTEX
8
OBJECT__17
10
43.999001
20
-406.153992
30
6.567000
70
192
0
VERTEX
8
OBJECT__17
10
43.999001
20
-407.506989
30
3.987000
70
192
0
VERTEX
8
OBJECT__17
10
43.999001
20
-400.898987
30
-8.452000
70
192
0
VERTEX
8
OBJECT__17
10
43.999001
20
-409.000000
30
0.000000
70
192
0
VERTEX
8
OBJECT__17
10
43.999001
20
-408.257996
30
3.578000
70
192
0
VERTEX
8
OBJECT__17
10
43.999001
20
-399.416992
30
-8.981000
70
192
0
VERTEX
8
OBJECT__17
10
43.999001
20
-393.897003
30
-5.916000
70
192
0
VERTEX
8
OBJECT__17
10
43.999001
20
-393.217987
30
-5.916000
70
192
0
VERTEX
8
OBJECT__17
10
0
20
0
30
0
70
128
71
1
72
2
73
3
0
VERTEX
8
OBJECT__17
10
0
20
0
30
0
70
128
71
4
72
5
73
6
0
VERTEX
8
OBJECT__17
10
0
20
0
30
0
70
128
71
7
72
8
73
9
0
VERTEX
8
OBJECT__17
10
0
20
0
30
0
70
128
71
3
72
8
73
1
0
VERTEX
8
OBJECT__17
10
0
20
0
30
0
70
128
71
4
72
7
73
5
0
VERTEX
8
OBJECT__17
10
0
20
0
30
0
70
128
71
3
72
9
73
8
0
VERTEX
8
OBJECT__17
10
0
20
0
30
0
70
128
71
10
72
11
73
12
0
VERTEX
8
OBJECT__17
10
0
20
0
30
0
70
128
71
11
72
13
73
14
0
VERTEX
8
OBJECT__17
10
0
20
0
30
0
70
128
71
15
72
14
73
13
0
VERTEX
8
OBJECT__17
10
0
20
0
30
0
70
128
71
16
72
6
73
17
0
VERTEX
8
OBJECT__17
10
0
20
0
30
0
70
128
71
9
72
5
73
7
0
VERTEX
8
OBJECT__17
10
0
20
0
30
0
70
128
71
12
72
18
73
10
0
VERTEX
8
OBJECT__17
10
0
20
0
30
0
70
128
71
13
72
19
73
15
0
VERTEX
8
OBJECT__17
10
0
20
0
30
0
70
128
71
15
72
19
73
20
0
VERTEX
8
OBJECT__17
10
0
20
0
30
0
70
128
71
6
72
16
73
4
0
VERTEX
8
OBJECT__17
10
0
20
0
30
0
70
128
71
14
72
12
73
11
0
VERTEX
8
OBJECT__17
10
0
20
0
30
0
70
128
71
17
72
20
73
16
0
VERTEX
8
OBJECT__17
10
0
20
0
30
0
70
128
71
21
72
18
73
22
0
VERTEX
8
OBJECT__17
10
0
20
0
30
0
70
128
71
20
72
17
73
15
0
VERTEX
8
OBJECT__17
10
0
20
0
30
0
70
128
71
18
72
21
73
10
0
VERTEX
8
OBJECT__17
10
0
20
0
30
0
70
128
71
22
72
23
73
21
0
SEQEND
8
OBJECT__17
0
POLYLINE
8
OBJECT__18
66
1
70
64
71
22
72
20
62
253
0
VERTEX
8
OBJECT__18
10
45.999001
20
-399.416992
30
8.981000
70
192
0
VERTEX
8
OBJECT__18
10
43.999001
20
-399.416992
30
8.981000
70
192
0
VERTEX
8
OBJECT__18
10
43.999001
20
-403.036011
30
8.472000
70
192
0
VERTEX
8
OBJECT__18
10
45.999001
20
-406.153992
30
6.567000
70
192
0
VERTEX
8
OBJECT__18
10
45.999001
20
-409.000000
30
0.000000
70
192
0
VERTEX
8
OBJECT__18
10
43.999001
20
-408.257996
30
3.578000
70
192
0
VERTEX
8
OBJECT__18
10
43.999001
20
-406.153992
30
6.567000
70
192
0
VERTEX
8
OBJECT__18
10
43.999001
20
-409.000000
30
0.000000
70
192
0
VERTEX
8
OBJECT__18
10
43.999001
20
-406.153992
30
-6.567000
70
192
0
VERTEX
8
OBJECT__18
10
45.999001
20
-406.153992
30
-6.567000
70
192
0
VERTEX
8
OBJECT__18
10
43.999001
20
-408.257996
30
-3.578000
70
192
0
VERTEX
8
OBJECT__18
10
43.999001
20
-399.416992
30
-8.981000
70
192
0
VERTEX
8
OBJECT__18
10
45.999001
20
-399.416992
30
-8.981000
70
192
0
VERTEX
8
OBJECT__18
10
43.999001
20
-403.036011
30
-8.472000
70
192
0
VERTEX
8
OBJECT__18
10
44.641998
20
-393.282013
30
5.989000
70
192
0
VERTEX
8
OBJECT__18
10
43.999001
20
-393.217987
30
5.916000
70
192
0
VERTEX
8
OBJECT__18
10
43.999001
20
-396.010986
30
8.068000
70
192
0
VERTEX
8
OBJECT__18
10
44.998001
20
-393.265015
30
5.970000
70
192
0
VERTEX
8
OBJECT__18
10
45.999001
20
-393.217987
30
5.916000
70
192
0
VERTEX
8
OBJECT__18
10
43.999001
20
-393.217987
30
-5.916000
70
192
0
VERTEX
8
OBJECT__18
10
45.000000
20
-393.291992
30
-6.000000
70
192
0
VERTEX
8
OBJECT__18
10
45.999001
20
-393.217987
30
-5.916000
70
192
0
VERTEX
8
OBJECT__18
10
0
20
0
30
0
70
128
71
1
72
2
73
3
0
VERTEX
8
OBJECT__18
10
0
20
0
30
0
70
128
71
3
72
4
73
1
0
VERTEX
8
OBJECT__18
10
0
20
0
30
0
70
128
71
5
72
4
73
6
0
VERTEX
8
OBJECT__18
10
0
20
0
30
0
70
128
71
4
72
7
73
6
0
VERTEX
8
OBJECT__18
10
0
20
0
30
0
70
128
71
6
72
8
73
5
0
VERTEX
8
OBJECT__18
10
0
20
0
30
0
70
128
71
10
72
8
73
11
0
VERTEX
8
OBJECT__18
10
0
20
0
30
0
70
128
71
10
72
11
73
9
0
VERTEX
8
OBJECT__18
10
0
20
0
30
0
70
128
71
10
72
5
73
8
0
VERTEX
8
OBJECT__18
10
0
20
0
30
0
70
128
71
13
72
14
73
12
0
VERTEX
8
OBJECT__18
10
0
20
0
30
0
70
128
71
13
72
10
73
14
0
VERTEX
8
OBJECT__18
10
0
20
0
30
0
70
128
71
10
72
9
73
14
0
VERTEX
8
OBJECT__18
10
0
20
0
30
0
70
128
71
15
72
16
73
17
0
VERTEX
8
OBJECT__18
10
0
20
0
30
0
70
128
71
1
72
18
73
15
0
VERTEX
8
OBJECT__18
10
0
20
0
30
0
70
128
71
1
72
19
73
18
0
VERTEX
8
OBJECT__18
10
0
20
0
30
0
70
128
71
15
72
2
73
1
0
VERTEX
8
OBJECT__18
10
0
20
0
30
0
70
128
71
12
72
20
73
21
0
VERTEX
8
OBJECT__18
10
0
20
0
30
0
70
128
71
21
72
13
73
12
0
VERTEX
8
OBJECT__18
10
0
20
0
30
0
70
128
71
21
72
22
73
13
0
VERTEX
8
OBJECT__18
10
0
20
0
30
0
70
128
71
17
72
2
73
15
0
VERTEX
8
OBJECT__18
10
0
20
0
30
0
70
128
71
3
72
7
73
4
0
SEQEND
8
OBJECT__18
0
POLYLINE
8
OBJECT__19
66
1
70
64
71
18
72
16
62
253
0
VERTEX
8
OBJECT__19
10
46.015999
20
-405.812988
30
-6.202000
70
192
0
VERTEX
8
OBJECT__19
10
45.999001
20
-406.153992
30
-6.567000
70
192
0
VERTEX
8
OBJECT__19
10
46.015999
20
-399.450012
30
-8.482000
70
192
0
VERTEX
8
OBJECT__19
10
46.015999
20
-400.739014
30
-8.020000
70
192
0
VERTEX
8
OBJECT__19
10
45.999001
20
-399.416992
30
-8.981000
70
192
0
VERTEX
8
OBJECT__19
10
45.999001
20
-409.000000
30
0.000000
70
192
0
VERTEX
8
OBJECT__19
10
46.015999
20
-406.888000
30
-3.721000
70
192
0
VERTEX
8
OBJECT__19
10
46.015999
20
-408.500000
30
0.000000
70
192
0
VERTEX
8
OBJECT__19
10
46.015999
20
-406.888000
30
3.721000
70
192
0
VERTEX
8
OBJECT__19
10
45.999001
20
-406.153992
30
6.567000
70
192
0
VERTEX
8
OBJECT__19
10
46.015999
20
-405.812988
30
6.202000
70
192
0
VERTEX
8
OBJECT__19
10
46.015999
20
-400.739014
30
8.020000
70
192
0
VERTEX
8
OBJECT__19
10
45.999001
20
-399.416992
30
8.981000
70
192
0
VERTEX
8
OBJECT__19
10
46.015999
20
-399.450012
30
8.482000
70
192
0
VERTEX
8
OBJECT__19
10
46.015999
20
-393.894012
30
-5.913000
70
192
0
VERTEX
8
OBJECT__19
10
45.999001
20
-393.217987
30
-5.916000
70
192
0
VERTEX
8
OBJECT__19
10
46.015999
20
-393.894012
30
5.913000
70
192
0
VERTEX
8
OBJECT__19
10
45.999001
20
-393.217987
30
5.916000
70
192
0
VERTEX
8
OBJECT__19
10
0
20
0
30
0
70
128
71
2
72
3
73
4
0
VERTEX
8
OBJECT__19
10
0
20
0
30
0
70
128
71
2
72
4
73
1
0
VERTEX
8
OBJECT__19
10
0
20
0
30
0
70
128
71
2
72
5
73
3
0
VERTEX
8
OBJECT__19
10
0
20
0
30
0
70
128
71
6
72
2
73
7
0
VERTEX
8
OBJECT__19
10
0
20
0
30
0
70
128
71
2
72
1
73
7
0
VERTEX
8
OBJECT__19
10
0
20
0
30
0
70
128
71
6
72
8
73
9
0
VERTEX
8
OBJECT__19
10
0
20
0
30
0
70
128
71
9
72
10
73
6
0
VERTEX
8
OBJECT__19
10
0
20
0
30
0
70
128
71
10
72
11
73
12
0
VERTEX
8
OBJECT__19
10
0
20
0
30
0
70
128
71
12
72
13
73
10
0
VERTEX
8
OBJECT__19
10
0
20
0
30
0
70
128
71
12
72
14
73
13
0
VERTEX
8
OBJECT__19
10
0
20
0
30
0
70
128
71
5
72
15
73
3
0
VERTEX
8
OBJECT__19
10
0
20
0
30
0
70
128
71
5
72
16
73
15
0
VERTEX
8
OBJECT__19
10
0
20
0
30
0
70
128
71
13
72
14
73
17
0
VERTEX
8
OBJECT__19
10
0
20
0
30
0
70
128
71
17
72
18
73
13
0
VERTEX
8
OBJECT__19
10
0
20
0
30
0
70
128
71
9
72
11
73
10
0
VERTEX
8
OBJECT__19
10
0
20
0
30
0
70
128
71
7
72
8
73
6
0
SEQEND
8
OBJECT__19
0
POLYLINE
8
OBJECT__20
66
1
70
64
71
21
72
19
62
253
0
VERTEX
8
OBJECT__20
10
46.999001
20
-407.506012
30
3.989000
70
192
0
VERTEX
8
OBJECT__20
10
46.999001
20
-404.756012
30
7.045000
70
192
0
VERTEX
8
OBJECT__20
10
46.015999
20
-405.812988
30
6.202000
70
192
0
VERTEX
8
OBJECT__20
10
46.015999
20
-400.739014
30
8.020000
70
192
0
VERTEX
8
OBJECT__20
10
46.999001
20
-400.894012
30
8.453000
70
192
0
VERTEX
8
OBJECT__20
10
46.999001
20
-408.500000
30
0.000000
70
192
0
VERTEX
8
OBJECT__20
10
46.015999
20
-408.500000
30
0.000000
70
192
0
VERTEX
8
OBJECT__20
10
46.015999
20
-406.888000
30
-3.721000
70
192
0
VERTEX
8
OBJECT__20
10
46.015999
20
-406.888000
30
3.721000
70
192
0
VERTEX
8
OBJECT__20
10
46.999001
20
-400.894012
30
-8.453000
70
192
0
VERTEX
8
OBJECT__20
10
46.999001
20
-407.506012
30
-3.989000
70
192
0
VERTEX
8
OBJECT__20
10
46.015999
20
-405.812988
30
-6.202000
70
192
0
VERTEX
8
OBJECT__20
10
46.015999
20
-393.894012
30
5.913000
70
192
0
VERTEX
8
OBJECT__20
10
46.015999
20
-399.450012
30
8.482000
70
192
0
VERTEX
8
OBJECT__20
10
46.999001
20
-396.937012
30
7.929000
70
192
0
VERTEX
8
OBJECT__20
10
46.999001
20
-393.656006
30
5.657000
70
192
0
VERTEX
8
OBJECT__20
10
46.603001
20
-393.769012
30
-5.782000
70
192
0
VERTEX
8
OBJECT__20
10
46.015999
20
-399.450012
30
-8.482000
70
192
0
VERTEX
8
OBJECT__20
10
46.015999
20
-400.739014
30
-8.020000
70
192
0
VERTEX
8
OBJECT__20
10
46.015999
20
-393.894012
30
-5.913000
70
192
0
VERTEX
8
OBJECT__20
10
46.999001
20
-393.656006
30
-5.657000
70
192
0
VERTEX
8
OBJECT__20
10
0
20
0
30
0
70
128
71
1
72
2
73
3
0
VERTEX
8
OBJECT__20
10
0
20
0
30
0
70
128
71
4
72
3
73
2
0
VERTEX
8
OBJECT__20
10
0
20
0
30
0
70
128
71
2
72
5
73
4
0
VERTEX
8
OBJECT__20
10
0
20
0
30
0
70
128
71
6
72
7
73
8
0
VERTEX
8
OBJECT__20
10
0
20
0
30
0
70
128
71
6
72
1
73
9
0
VERTEX
8
OBJECT__20
10
0
20
0
30
0
70
128
71
9
72
7
73
6
0
VERTEX
8
OBJECT__20
10
0
20
0
30
0
70
128
71
10
72
11
73
12
0
VERTEX
8
OBJECT__20
10
0
20
0
30
0
70
128
71
11
72
8
73
12
0
VERTEX
8
OBJECT__20
10
0
20
0
30
0
70
128
71
13
72
14
73
15
0
VERTEX
8
OBJECT__20
10
0
20
0
30
0
70
128
71
14
72
5
73
15
0
VERTEX
8
OBJECT__20
10
0
20
0
30
0
70
128
71
15
72
16
73
13
0
VERTEX
8
OBJECT__20
10
0
20
0
30
0
70
128
71
17
72
10
73
18
0
VERTEX
8
OBJECT__20
10
0
20
0
30
0
70
128
71
10
72
19
73
18
0
VERTEX
8
OBJECT__20
10
0
20
0
30
0
70
128
71
18
72
20
73
17
0
VERTEX
8
OBJECT__20
10
0
20
0
30
0
70
128
71
17
72
21
73
10
0
VERTEX
8
OBJECT__20
10
0
20
0
30
0
70
128
71
14
72
4
73
5
0
VERTEX
8
OBJECT__20
10
0
20
0
30
0
70
128
71
12
72
19
73
10
0
VERTEX
8
OBJECT__20
10
0
20
0
30
0
70
128
71
8
72
11
73
6
0
VERTEX
8
OBJECT__20
10
0
20
0
30
0
70
128
71
3
72
9
73
1
0
SEQEND
8
OBJECT__20
0
POLYLINE
8
OBJECT__21
66
1
70
64
71
19
72
17
62
253
0
VERTEX
8
OBJECT__21
10
46.999001
20
-400.000000
30
9.000000
70
192
0
VERTEX
8
OBJECT__21
10
46.999001
20
-396.095001
30
8.109000
70
192
0
VERTEX
8
OBJECT__21
10
46.999001
20
-396.937012
30
7.929000
70
192
0
VERTEX
8
OBJECT__21
10
46.999001
20
-393.000000
30
5.657000
70
192
0
VERTEX
8
OBJECT__21
10
46.999001
20
-393.656006
30
5.657000
70
192
0
VERTEX
8
OBJECT__21
10
46.999001
20
-403.904999
30
8.109000
70
192
0
VERTEX
8
OBJECT__21
10
46.999001
20
-400.894012
30
8.453000
70
192
0
VERTEX
8
OBJECT__21
10
46.999001
20
-408.773987
30
2.003000
70
192
0
VERTEX
8
OBJECT__21
10
46.999001
20
-407.036011
30
5.611000
70
192
0
VERTEX
8
OBJECT__21
10
46.999001
20
-407.506012
30
3.989000
70
192
0
VERTEX
8
OBJECT__21
10
46.999001
20
-404.756012
30
7.045000
70
192
0
VERTEX
8
OBJECT__21
10
46.999001
20
-408.500000
30
0.000000
70
192
0
VERTEX
8
OBJECT__21
10
46.999001
20
-408.773987
30
-2.003000
70
192
0
VERTEX
8
OBJECT__21
10
46.999001
20
-407.506012
30
-3.989000
70
192
0
VERTEX
8
OBJECT__21
10
46.999001
20
-407.036011
30
-5.611000
70
192
0
VERTEX
8
OBJECT__21
10
46.999001
20
-400.894012
30
-8.453000
70
192
0
VERTEX
8
OBJECT__21
10
46.999001
20
-400.000000
30
-9.000000
70
192
0
VERTEX
8
OBJECT__21
10
46.999001
20
-393.656006
30
-5.657000
70
192
0
VERTEX
8
OBJECT__21
10
46.999001
20
-393.000000
30
-5.657000
70
192
0
VERTEX
8
OBJECT__21
10
0
20
0
30
0
70
128
71
1
72
2
73
3
0
VERTEX
8
OBJECT__21
10
0
20
0
30
0
70
128
71
2
72
4
73
5
0
VERTEX
8
OBJECT__21
10
0
20
0
30
0
70
128
71
6
72
1
73
7
0
VERTEX
8
OBJECT__21
10
0
20
0
30
0
70
128
71
5
72
3
73
2
0
VERTEX
8
OBJECT__21
10
0
20
0
30
0
70
128
71
8
72
9
73
10
0
VERTEX
8
OBJECT__21
10
0
20
0
30
0
70
128
71
9
72
6
73
11
0
VERTEX
8
OBJECT__21
10
0
20
0
30
0
70
128
71
3
72
7
73
1
0
VERTEX
8
OBJECT__21
10
0
20
0
30
0
70
128
71
10
72
12
73
8
0
VERTEX
8
OBJECT__21
10
0
20
0
30
0
70
128
71
7
72
11
73
6
0
VERTEX
8
OBJECT__21
10
0
20
0
30
0
70
128
71
13
72
12
73
14
0
VERTEX
8
OBJECT__21
10
0
20
0
30
0
70
128
71
11
72
10
73
9
0
VERTEX
8
OBJECT__21
10
0
20
0
30
0
70
128
71
15
72
14
73
16
0
VERTEX
8
OBJECT__21
10
0
20
0
30
0
70
128
71
12
72
13
73
8
0
VERTEX
8
OBJECT__21
10
0
20
0
30
0
70
128
71
17
72
16
73
18
0
VERTEX
8
OBJECT__21
10
0
20
0
30
0
70
128
71
14
72
15
73
13
0
VERTEX
8
OBJECT__21
10
0
20
0
30
0
70
128
71
16
72
17
73
15
0
VERTEX
8
OBJECT__21
10
0
20
0
30
0
70
128
71
18
72
19
73
17
0
SEQEND
8
OBJECT__21
0
POLYLINE
8
OBJECT__22
66
1
70
64
71
45
72
45
62
253
0
VERTEX
8
OBJECT__22
10
42.999001
20
-399.188995
30
8.963000
70
192
0
VERTEX
8
OBJECT__22
10
10.147000
20
-398.346008
30
8.847000
70
192
0
VERTEX
8
OBJECT__22
10
10.147000
20
-401.653992
30
8.847000
70
192
0
VERTEX
8
OBJECT__22
10
42.999001
20
-403.683014
30
7.449000
70
192
0
VERTEX
8
OBJECT__22
10
42.999001
20
-396.427002
30
7.488000
70
192
0
VERTEX
8
OBJECT__22
10
10.147000
20
-396.140015
30
7.992000
70
192
0
VERTEX
8
OBJECT__22
10
42.999001
20
-408.223999
30
1.760000
70
192
0
VERTEX
8
OBJECT__22
10
42.999001
20
-406.071014
30
6.644000
70
192
0
VERTEX
8
OBJECT__22
10
10.147000
20
-407.182007
30
5.424000
70
192
0
VERTEX
8
OBJECT__22
10
10.147000
20
-408.656006
30
2.463000
70
192
0
VERTEX
8
OBJECT__22
10
10.147000
20
-404.738007
30
7.652000
70
192
0
VERTEX
8
OBJECT__22
10
10.147000
20
-403.859985
30
7.992000
70
192
0
VERTEX
8
OBJECT__22
10
42.999001
20
-409.000000
30
0.000000
70
192
0
VERTEX
8
OBJECT__22
10
10.147000
20
-408.962006
30
-0.830000
70
192
0
VERTEX
8
OBJECT__22
10
10.147000
20
-408.056000
30
-4.012000
70
192
0
VERTEX
8
OBJECT__22
10
42.999001
20
-406.609009
30
-5.423000
70
192
0
VERTEX
8
OBJECT__22
10
10.147000
20
-408.700012
30
1.996000
70
192
0
VERTEX
8
OBJECT__22
10
42.999001
20
-406.071014
30
-6.644000
70
192
0
VERTEX
8
OBJECT__22
10
10.147000
20
-406.062988
30
-6.651000
70
192
0
VERTEX
8
OBJECT__22
10
10.147000
20
-403.251007
30
-8.392000
70
192
0
VERTEX
8
OBJECT__22
10
42.999001
20
-399.906006
30
-8.722000
70
192
0
VERTEX
8
OBJECT__22
10
10.147000
20
-406.916992
30
-5.521000
70
192
0
VERTEX
8
OBJECT__22
10
39.839001
20
-391.532990
30
2.983000
70
192
0
VERTEX
8
OBJECT__22
10
10.147000
20
-392.817993
30
5.424000
70
192
0
VERTEX
8
OBJECT__22
10
10.147000
20
-395.261993
30
7.652000
70
192
0
VERTEX
8
OBJECT__22
10
39.369999
20
-391.239990
30
1.998000
70
192
0
VERTEX
8
OBJECT__22
10
10.147000
20
-391.343994
30
2.463000
70
192
0
VERTEX
8
OBJECT__22
10
10.147000
20
-391.299988
30
1.996000
70
192
0
VERTEX
8
OBJECT__22
10
39.993000
20
-391.630005
30
3.307000
70
192
0
VERTEX
8
OBJECT__22
10
41.222000
20
-392.300995
30
4.661000
70
192
0
VERTEX
8
OBJECT__22
10
42.999001
20
-393.000000
30
5.657000
70
192
0
VERTEX
8
OBJECT__22
10
10.147000
20
-393.083008
30
-5.521000
70
192
0
VERTEX
8
OBJECT__22
10
39.304001
20
-391.200012
30
-1.887000
70
192
0
VERTEX
8
OBJECT__22
10
39.891998
20
-391.558014
30
-2.951000
70
192
0
VERTEX
8
OBJECT__22
10
10.147000
20
-391.944000
30
-4.012000
70
192
0
VERTEX
8
OBJECT__22
10
10.147000
20
-391.037994
30
-0.830000
70
192
0
VERTEX
8
OBJECT__22
10
39.000999
20
-391.001007
30
0.113000
70
192
0
VERTEX
8
OBJECT__22
10
39.278000
20
-391.183014
30
1.807000
70
192
0
VERTEX
8
OBJECT__22
10
40.368000
20
-391.847992
30
-3.814000
70
192
0
VERTEX
8
OBJECT__22
10
10.147000
20
-393.937012
30
-6.651000
70
192
0
VERTEX
8
OBJECT__22
10
42.929001
20
-392.968994
30
-5.608000
70
192
0
VERTEX
8
OBJECT__22
10
42.999001
20
-393.000000
30
-5.657000
70
192
0
VERTEX
8
OBJECT__22
10
42.999001
20
-399.188995
30
-8.963000
70
192
0
VERTEX
8
OBJECT__22
10
10.147000
20
-396.748993
30
-8.392000
70
192
0
VERTEX
8
OBJECT__22
10
10.147000
20
-400.000000
30
-9.000000
70
192
0
VERTEX
8
OBJECT__22
10
0
20
0
30
0
70
128
71
1
72
2
73
3
0
VERTEX
8
OBJECT__22
10
0
20
0
30
0
70
128
71
3
72
4
73
1
0
VERTEX
8
OBJECT__22
10
0
20
0
30
0
70
128
71
5
72
6
73
2
0
VERTEX
8
OBJECT__22
10
0
20
0
30
0
70
128
71
2
72
1
73
5
0
VERTEX
8
OBJECT__22
10
0
20
0
30
0
70
128
71
7
72
8
73
9
0
VERTEX
8
OBJECT__22
10
0
20
0
30
0
70
128
71
9
72
10
73
7
0
VERTEX
8
OBJECT__22
10
0
20
0
30
0
70
128
71
11
72
9
73
8
0
VERTEX
8
OBJECT__22
10
0
20
0
30
0
70
128
71
8
72
4
73
11
0
VERTEX
8
OBJECT__22
10
0
20
0
30
0
70
128
71
4
72
12
73
11
0
VERTEX
8
OBJECT__22
10
0
20
0
30
0
70
128
71
13
72
14
73
15
0
VERTEX
8
OBJECT__22
10
0
20
0
30
0
70
128
71
15
72
16
73
13
0
VERTEX
8
OBJECT__22
10
0
20
0
30
0
70
128
71
17
72
14
73
13
0
VERTEX
8
OBJECT__22
10
0
20
0
30
0
70
128
71
13
72
7
73
17
0
VERTEX
8
OBJECT__22
10
0
20
0
30
0
70
128
71
18
72
19
73
20
0
VERTEX
8
OBJECT__22
10
0
20
0
30
0
70
128
71
20
72
21
73
18
0
VERTEX
8
OBJECT__22
10
0
20
0
30
0
70
128
71
19
72
18
73
16
0
VERTEX
8
OBJECT__22
10
0
20
0
30
0
70
128
71
16
72
22
73
19
0
VERTEX
8
OBJECT__22
10
0
20
0
30
0
70
128
71
23
72
24
73
25
0
VERTEX
8
OBJECT__22
10
0
20
0
30
0
70
128
71
24
72
23
73
26
0
VERTEX
8
OBJECT__22
10
0
20
0
30
0
70
128
71
26
72
27
73
24
0
VERTEX
8
OBJECT__22
10
0
20
0
30
0
70
128
71
26
72
28
73
27
0
VERTEX
8
OBJECT__22
10
0
20
0
30
0
70
128
71
6
72
29
73
23
0
VERTEX
8
OBJECT__22
10
0
20
0
30
0
70
128
71
6
72
30
73
29
0
VERTEX
8
OBJECT__22
10
0
20
0
30
0
70
128
71
5
72
31
73
30
0
VERTEX
8
OBJECT__22
10
0
20
0
30
0
70
128
71
30
72
6
73
5
0
VERTEX
8
OBJECT__22
10
0
20
0
30
0
70
128
71
32
72
33
73
34
0
VERTEX
8
OBJECT__22
10
0
20
0
30
0
70
128
71
35
72
36
73
37
0
VERTEX
8
OBJECT__22
10
0
20
0
30
0
70
128
71
33
72
32
73
35
0
VERTEX
8
OBJECT__22
10
0
20
0
30
0
70
128
71
28
72
38
73
37
0
VERTEX
8
OBJECT__22
10
0
20
0
30
0
70
128
71
28
72
26
73
38
0
VERTEX
8
OBJECT__22
10
0
20
0
30
0
70
128
71
37
72
36
73
28
0
VERTEX
8
OBJECT__22
10
0
20
0
30
0
70
128
71
37
72
33
73
35
0
VERTEX
8
OBJECT__22
10
0
20
0
30
0
70
128
71
34
72
39
73
32
0
VERTEX
8
OBJECT__22
10
0
20
0
30
0
70
128
71
40
72
32
73
41
0
VERTEX
8
OBJECT__22
10
0
20
0
30
0
70
128
71
42
72
43
73
44
0
VERTEX
8
OBJECT__22
10
0
20
0
30
0
70
128
71
43
72
45
73
44
0
VERTEX
8
OBJECT__22
10
0
20
0
30
0
70
128
71
44
72
40
73
42
0
VERTEX
8
OBJECT__22
10
0
20
0
30
0
70
128
71
41
72
42
73
40
0
VERTEX
8
OBJECT__22
10
0
20
0
30
0
70
128
71
43
72
21
73
45
0
VERTEX
8
OBJECT__22
10
0
20
0
30
0
70
128
71
39
72
41
73
32
0
VERTEX
8
OBJECT__22
10
0
20
0
30
0
70
128
71
25
72
6
73
23
0
VERTEX
8
OBJECT__22
10
0
20
0
30
0
70
128
71
20
72
45
73
21
0
VERTEX
8
OBJECT__22
10
0
20
0
30
0
70
128
71
15
72
22
73
16
0
VERTEX
8
OBJECT__22
10
0
20
0
30
0
70
128
71
10
72
17
73
7
0
VERTEX
8
OBJECT__22
10
0
20
0
30
0
70
128
71
3
72
12
73
4
0
SEQEND
8
OBJECT__22
0
POLYLINE
8
OBJECT__23
66
1
70
64
71
28
72
28
62
253
0
VERTEX
8
OBJECT__23
10
59.999001
20
-403.904999
30
8.109000
70
192
0
VERTEX
8
OBJECT__23
10
59.999001
20
-396.095001
30
8.109000
70
192
0
VERTEX
8
OBJECT__23
10
46.999001
20
-400.000000
30
9.000000
70
192
0
VERTEX
8
OBJECT__23
10
46.999001
20
-396.095001
30
8.109000
70
192
0
VERTEX
8
OBJECT__23
10
59.999001
20
-408.773987
30
2.003000
70
192
0
VERTEX
8
OBJECT__23
10
46.999001
20
-407.036011
30
5.611000
70
192
0
VERTEX
8
OBJECT__23
10
46.999001
20
-403.904999
30
8.109000
70
192
0
VERTEX
8
OBJECT__23
10
59.999001
20
-407.036011
30
-5.611000
70
192
0
VERTEX
8
OBJECT__23
10
46.999001
20
-408.773987
30
-2.003000
70
192
0
VERTEX
8
OBJECT__23
10
46.999001
20
-408.773987
30
2.003000
70
192
0
VERTEX
8
OBJECT__23
10
46.999001
20
-400.000000
30
-9.000000
70
192
0
VERTEX
8
OBJECT__23
10
59.999001
20
-400.000000
30
-9.000000
70
192
0
VERTEX
8
OBJECT__23
10
47.097000
20
-392.964996
30
-5.610000
70
192
0
VERTEX
8
OBJECT__23
10
46.999001
20
-393.000000
30
-5.657000
70
192
0
VERTEX
8
OBJECT__23
10
59.999001
20
-391.226013
30
2.003000
70
192
0
VERTEX
8
OBJECT__23
10
59.999001
20
-392.963989
30
-5.611000
70
192
0
VERTEX
8
OBJECT__23
10
50.948002
20
-391.035004
30
-0.788000
70
192
0
VERTEX
8
OBJECT__23
10
49.610001
20
-391.859985
30
-3.840000
70
192
0
VERTEX
8
OBJECT__23
10
50.146000
20
-391.537994
30
-2.969000
70
192
0
VERTEX
8
OBJECT__23
10
50.502998
20
-391.322998
30
-2.390000
70
192
0
VERTEX
8
OBJECT__23
10
48.147999
20
-392.589996
30
-5.108000
70
192
0
VERTEX
8
OBJECT__23
10
50.910999
20
-391.058990
30
1.028000
70
192
0
VERTEX
8
OBJECT__23
10
49.074001
20
-392.152008
30
4.405000
70
192
0
VERTEX
8
OBJECT__23
10
46.999001
20
-393.000000
30
5.657000
70
192
0
VERTEX
8
OBJECT__23
10
50.351002
20
-391.419006
30
2.713000
70
192
0
VERTEX
8
OBJECT__23
10
50.157001
20
-391.529999
30
2.971000
70
192
0
VERTEX
8
OBJECT__23
10
50.590000
20
-391.265015
30
1.994000
70
192
0
VERTEX
8
OBJECT__23
10
46.999001
20
-407.036011
30
-5.611000
70
192
0
VERTEX
8
OBJECT__23
10
0
20
0
30
0
70
128
71
1
72
2
73
3
0
VERTEX
8
OBJECT__23
10
0
20
0
30
0
70
128
71
2
72
4
73
3
0
VERTEX
8
OBJECT__23
10
0
20
0
30
0
70
128
71
5
72
1
73
6
0
VERTEX
8
OBJECT__23
10
0
20
0
30
0
70
128
71
1
72
7
73
6
0
VERTEX
8
OBJECT__23
10
0
20
0
30
0
70
128
71
8
72
5
73
9
0
VERTEX
8
OBJECT__23
10
0
20
0
30
0
70
128
71
5
72
10
73
9
0
VERTEX
8
OBJECT__23
10
0
20
0
30
0
70
128
71
11
72
12
73
8
0
VERTEX
8
OBJECT__23
10
0
20
0
30
0
70
128
71
12
72
11
73
13
0
VERTEX
8
OBJECT__23
10
0
20
0
30
0
70
128
71
11
72
14
73
13
0
VERTEX
8
OBJECT__23
10
0
20
0
30
0
70
128
71
15
72
16
73
17
0
VERTEX
8
OBJECT__23
10
0
20
0
30
0
70
128
71
16
72
18
73
19
0
VERTEX
8
OBJECT__23
10
0
20
0
30
0
70
128
71
19
72
20
73
16
0
VERTEX
8
OBJECT__23
10
0
20
0
30
0
70
128
71
16
72
13
73
21
0
VERTEX
8
OBJECT__23
10
0
20
0
30
0
70
128
71
21
72
18
73
16
0
VERTEX
8
OBJECT__23
10
0
20
0
30
0
70
128
71
20
72
17
73
16
0
VERTEX
8
OBJECT__23
10
0
20
0
30
0
70
128
71
17
72
22
73
15
0
VERTEX
8
OBJECT__23
10
0
20
0
30
0
70
128
71
2
72
23
73
24
0
VERTEX
8
OBJECT__23
10
0
20
0
30
0
70
128
71
2
72
25
73
26
0
VERTEX
8
OBJECT__23
10
0
20
0
30
0
70
128
71
2
72
15
73
27
0
VERTEX
8
OBJECT__23
10
0
20
0
30
0
70
128
71
27
72
25
73
2
0
VERTEX
8
OBJECT__23
10
0
20
0
30
0
70
128
71
26
72
23
73
2
0
VERTEX
8
OBJECT__23
10
0
20
0
30
0
70
128
71
24
72
4
73
2
0
VERTEX
8
OBJECT__23
10
0
20
0
30
0
70
128
71
22
72
27
73
15
0
VERTEX
8
OBJECT__23
10
0
20
0
30
0
70
128
71
13
72
16
73
12
0
VERTEX
8
OBJECT__23
10
0
20
0
30
0
70
128
71
8
72
28
73
11
0
VERTEX
8
OBJECT__23
10
0
20
0
30
0
70
128
71
9
72
28
73
8
0
VERTEX
8
OBJECT__23
10
0
20
0
30
0
70
128
71
6
72
10
73
5
0
VERTEX
8
OBJECT__23
10
0
20
0
30
0
70
128
71
3
72
7
73
1
0
SEQEND
8
OBJECT__23
0
POLYLINE
8
OBJECT__24
66
1
70
64
71
7
72
5
62
253
0
VERTEX
8
OBJECT__24
10
59.999001
20
-403.904999
30
8.109000
70
192
0
VERTEX
8
OBJECT__24
10
59.999001
20
-408.773987
30
2.003000
70
192
0
VERTEX
8
OBJECT__24
10
59.999001
20
-407.036011
30
-5.611000
70
192
0
VERTEX
8
OBJECT__24
10
59.999001
20
-392.963989
30
-5.611000
70
192
0
VERTEX
8
OBJECT__24
10
59.999001
20
-391.226013
30
2.003000
70
192
0
VERTEX
8
OBJECT__24
10
59.999001
20
-396.095001
30
8.109000
70
192
0
VERTEX
8
OBJECT__24
10
59.999001
20
-400.000000
30
-9.000000
70
192
0
VERTEX
8
OBJECT__24
10
0
20
0
30
0
70
128
71
1
72
2
73
3
0
VERTEX
8
OBJECT__24
10
0
20
0
30
0
70
128
71
4
72
5
73
6
0
VERTEX
8
OBJECT__24
10
0
20
0
30
0
70
128
71
3
72
7
73
1
0
VERTEX
8
OBJECT__24
10
0
20
0
30
0
70
128
71
7
72
4
73
1
0
VERTEX
8
OBJECT__24
10
0
20
0
30
0
70
128
71
6
72
1
73
4
0
SEQEND
8
OBJECT__24
0
POLYLINE
8
OBJECT__25
66
1
70
64
71
102
72
153
62
253
0
VERTEX
8
OBJECT__25
10
10.144000
20
-396.221008
30
-9.754000
70
192
0
VERTEX
8
OBJECT__25
10
10.147000
20
-396.748993
30
-8.392000
70
192
0
VERTEX
8
OBJECT__25
10
10.147000
20
-400.000000
30
-9.000000
70
192
0
VERTEX
8
OBJECT__25
10
10.144000
20
-392.953003
30
-7.730000
70
192
0
VERTEX
8
OBJECT__25
10
10.147000
20
-393.937012
30
-6.651000
70
192
0
VERTEX
8
OBJECT__25
10
10.144000
20
-390.636993
30
-4.662000
70
192
0
VERTEX
8
OBJECT__25
10
10.147000
20
-391.944000
30
-4.012000
70
192
0
VERTEX
8
OBJECT__25
10
10.147000
20
-393.083008
30
-5.521000
70
192
0
VERTEX
8
OBJECT__25
10
10.144000
20
-389.584991
30
-0.965000
70
192
0
VERTEX
8
OBJECT__25
10
10.147000
20
-391.037994
30
-0.830000
70
192
0
VERTEX
8
OBJECT__25
10
10.144000
20
-389.938995
30
2.863000
70
192
0
VERTEX
8
OBJECT__25
10
10.147000
20
-391.299988
30
1.996000
70
192
0
VERTEX
8
OBJECT__25
10
10.147000
20
-391.343994
30
2.463000
70
192
0
VERTEX
8
OBJECT__25
10
10.144000
20
-391.653015
30
6.304000
70
192
0
VERTEX
8
OBJECT__25
10
10.147000
20
-392.817993
30
5.424000
70
192
0
VERTEX
8
OBJECT__25
10
10.144000
20
-394.493988
30
8.893000
70
192
0
VERTEX
8
OBJECT__25
10
10.147000
20
-395.261993
30
7.652000
70
192
0
VERTEX
8
OBJECT__25
10
10.144000
20
-398.078003
30
10.282000
70
192
0
VERTEX
8
OBJECT__25
10
10.147000
20
-398.346008
30
8.847000
70
192
0
VERTEX
8
OBJECT__25
10
10.147000
20
-396.140015
30
7.992000
70
192
0
VERTEX
8
OBJECT__25
10
10.144000
20
-401.921997
30
10.282000
70
192
0
VERTEX
8
OBJECT__25
10
10.147000
20
-401.653992
30
8.847000
70
192
0
VERTEX
8
OBJECT__25
10
10.144000
20
-405.506012
30
8.893000
70
192
0
VERTEX
8
OBJECT__25
10
10.147000
20
-403.859985
30
7.992000
70
192
0
VERTEX
8
OBJECT__25
10
10.147000
20
-404.738007
30
7.652000
70
192
0
VERTEX
8
OBJECT__25
10
10.144000
20
-408.346985
30
6.304000
70
192
0
VERTEX
8
OBJECT__25
10
10.147000
20
-407.182007
30
5.424000
70
192
0
VERTEX
8
OBJECT__25
10
10.144000
20
-410.061005
30
2.863000
70
192
0
VERTEX
8
OBJECT__25
10
10.147000
20
-408.656006
30
2.463000
70
192
0
VERTEX
8
OBJECT__25
10
10.144000
20
-410.415009
30
-0.965000
70
192
0
VERTEX
8
OBJECT__25
10
10.147000
20
-408.962006
30
-0.830000
70
192
0
VERTEX
8
OBJECT__25
10
10.147000
20
-408.700012
30
1.996000
70
192
0
VERTEX
8
OBJECT__25
10
10.144000
20
-409.363007
30
-4.662000
70
192
0
VERTEX
8
OBJECT__25
10
10.147000
20
-408.056000
30
-4.012000
70
192
0
VERTEX
8
OBJECT__25
10
10.144000
20
-407.046997
30
-7.730000
70
192
0
VERTEX
8
OBJECT__25
10
10.147000
20
-406.916992
30
-5.521000
70
192
0
VERTEX
8
OBJECT__25
10
10.147000
20
-406.062988
30
-6.651000
70
192
0
VERTEX
8
OBJECT__25
10
10.144000
20
-403.778992
30
-9.754000
70
192
0
VERTEX
8
OBJECT__25
10
10.147000
20
-403.251007
30
-8.392000
70
192
0
VERTEX
8
OBJECT__25
10
10.144000
20
-400.000000
30
-10.460000
70
192
0
VERTEX
8
OBJECT__25
10
10.110000
20
-400.000000
30
-19.134001
70
192
0
VERTEX
8
OBJECT__25
10
10.110000
20
-393.088013
30
-17.841999
70
192
0
VERTEX
8
OBJECT__25
10
10.110000
20
-387.109985
30
-14.140000
70
192
0
VERTEX
8
OBJECT__25
10
10.110000
20
-382.872009
30
-8.529000
70
192
0
VERTEX
8
OBJECT__25
10
10.110000
20
-380.947998
30
-1.765000
70
192
0
VERTEX
8
OBJECT__25
10
10.110000
20
-381.596985
30
5.236000
70
192
0
VERTEX
8
OBJECT__25
10
10.110000
20
-384.730988
30
11.531000
70
192
0
VERTEX
8
OBJECT__25
10
10.110000
20
-389.927002
30
16.268000
70
192
0
VERTEX
8
OBJECT__25
10
10.110000
20
-396.484009
30
18.808001
70
192
0
VERTEX
8
OBJECT__25
10
10.110000
20
-403.515991
30
18.808001
70
192
0
VERTEX
8
OBJECT__25
10
10.110000
20
-410.072998
30
16.268000
70
192
0
VERTEX
8
OBJECT__25
10
10.110000
20
-415.269012
30
11.531000
70
192
0
VERTEX
8
OBJECT__25
10
10.110000
20
-418.403015
30
5.236000
70
192
0
VERTEX
8
OBJECT__25
10
10.110000
20
-419.052002
30
-1.765000
70
192
0
VERTEX
8
OBJECT__25
10
10.110000
20
-417.127991
30
-8.529000
70
192
0
VERTEX
8
OBJECT__25
10
10.110000
20
-412.890015
30
-14.140000
70
192
0
VERTEX
8
OBJECT__25
10
10.110000
20
-406.911987
30
-17.841999
70
192
0
VERTEX
8
OBJECT__25
10
10.060000
20
-400.000000
30
-24.937000
70
192
0
VERTEX
8
OBJECT__25
10
10.060000
20
-390.992004
30
-23.253000
70
192
0
VERTEX
8
OBJECT__25
10
10.060000
20
-383.200012
30
-18.429001
70
192
0
VERTEX
8
OBJECT__25
10
10.060000
20
-377.677002
30
-11.116000
70
192
0
VERTEX
8
OBJECT__25
10
10.060000
20
-375.169006
30
-2.301000
70
192
0
VERTEX
8
OBJECT__25
10
10.060000
20
-376.015015
30
6.824000
70
192
0
VERTEX
8
OBJECT__25
10
10.060000
20
-380.100006
30
15.028000
70
192
0
VERTEX
8
OBJECT__25
10
10.060000
20
-386.872009
30
21.202000
70
192
0
VERTEX
8
OBJECT__25
10
10.060000
20
-395.417999
30
24.513000
70
192
0
VERTEX
8
OBJECT__25
10
10.060000
20
-404.582001
30
24.513000
70
192
0
VERTEX
8
OBJECT__25
10
10.060000
20
-413.127991
30
21.202000
70
192
0
VERTEX
8
OBJECT__25
10
10.060000
20
-419.899994
30
15.028000
70
192
0
VERTEX
8
OBJECT__25
10
10.060000
20
-423.984985
30
6.824000
70
192
0
VERTEX
8
OBJECT__25
10
10.060000
20
-424.830994
30
-2.301000
70
192
0
VERTEX
8
OBJECT__25
10
10.060000
20
-422.322998
30
-11.116000
70
192
0
VERTEX
8
OBJECT__25
10
10.060000
20
-416.799988
30
-18.429001
70
192
0
VERTEX
8
OBJECT__25
10
10.060000
20
-409.007996
30
-23.253000
70
192
0
VERTEX
8
OBJECT__25
10
10.000000
20
-400.000000
30
-27.000000
70
192
0
VERTEX
8
OBJECT__25
10
10.000000
20
-390.247009
30
-25.176001
70
192
0
VERTEX
8
OBJECT__25
10
10.000000
20
-386.734985
30
-23.002001
70
192
0
VERTEX
8
OBJECT__25
10
10.000000
20
-381.809998
30
-19.952999
70
192
0
VERTEX
8
OBJECT__25
10
10.000000
20
-376.821014
30
-13.346000
70
192
0
VERTEX
8
OBJECT__25
10
10.000000
20
-373.115997
30
-2.491000
70
192
0
VERTEX
8
OBJECT__25
10
10.000000
20
-373.342987
30
-0.032000
70
192
0
VERTEX
8
OBJECT__25
10
10.000000
20
-374.031006
30
7.389000
70
192
0
VERTEX
8
OBJECT__25
10
10.000000
20
-376.983002
30
13.318000
70
192
0
VERTEX
8
OBJECT__25
10
10.000000
20
-385.786987
30
22.955999
70
192
0
VERTEX
8
OBJECT__25
10
10.000000
20
-386.550995
30
23.252001
70
192
0
VERTEX
8
OBJECT__25
10
10.000000
20
-395.039001
30
26.540001
70
192
0
VERTEX
8
OBJECT__25
10
10.000000
20
-400.000000
30
26.540001
70
192
0
VERTEX
8
OBJECT__25
10
10.000000
20
-404.960999
30
26.540001
70
192
0
VERTEX
8
OBJECT__25
10
10.000000
20
-413.449005
30
23.252001
70
192
0
VERTEX
8
OBJECT__25
10
10.000000
20
-414.213013
30
22.955999
70
192
0
VERTEX
8
OBJECT__25
10
10.000000
20
-421.545990
30
16.271000
70
192
0
VERTEX
8
OBJECT__25
10
10.000000
20
-423.016998
30
13.318000
70
192
0
VERTEX
8
OBJECT__25
10
10.000000
20
-425.968994
30
7.389000
70
192
0
VERTEX
8
OBJECT__25
10
10.000000
20
-426.657013
30
-0.032000
70
192
0
VERTEX
8
OBJECT__25
10
10.000000
20
-426.884003
30
-2.491000
70
192
0
VERTEX
8
OBJECT__25
10
10.000000
20
-424.169006
30
-12.035000
70
192
0
VERTEX
8
OBJECT__25
10
10.000000
20
-423.178986
30
-13.346000
70
192
0
VERTEX
8
OBJECT__25
10
10.000000
20
-418.190002
30
-19.952999
70
192
0
VERTEX
8
OBJECT__25
10
10.000000
20
-413.265015
30
-23.002001
70
192
0
VERTEX
8
OBJECT__25
10
10.000000
20
-409.752991
30
-25.176001
70
192
0
VERTEX
8
OBJECT__25
10
10.000000
20
-378.454010
30
16.271000
70
192
0
VERTEX
8
OBJECT__25
10
10.000000
20
-375.830994
30
-12.035000
70
192
0
VERTEX
8
OBJECT__25
10
0
20
0
30
0
70
128
71
1
72
2
73
3
0
VERTEX
8
OBJECT__25
10
0
20
0
30
0
70
128
71
4
72
5
73
2
0
VERTEX
8
OBJECT__25
10
0
20
0
30
0
70
128
71
6
72
7
73
8
0
VERTEX
8
OBJECT__25
10
0
20
0
30
0
70
128
71
8
72
4
73
6
0
VERTEX
8
OBJECT__25
10
0
20
0
30
0
70
128
71
6
72
9
73
10
0
VERTEX
8
OBJECT__25
10
0
20
0
30
0
70
128
71
9
72
11
73
12
0
VERTEX
8
OBJECT__25
10
0
20
0
30
0
70
128
71
11
72
13
73
12
0
VERTEX
8
OBJECT__25
10
0
20
0
30
0
70
128
71
11
72
14
73
15
0
VERTEX
8
OBJECT__25
10
0
20
0
30
0
70
128
71
16
72
17
73
15
0
VERTEX
8
OBJECT__25
10
0
20
0
30
0
70
128
71
18
72
19
73
20
0
VERTEX
8
OBJECT__25
10
0
20
0
30
0
70
128
71
20
72
16
73
18
0
VERTEX
8
OBJECT__25
10
0
20
0
30
0
70
128
71
18
72
21
73
22
0
VERTEX
8
OBJECT__25
10
0
20
0
30
0
70
128
71
21
72
23
73
24
0
VERTEX
8
OBJECT__25
10
0
20
0
30
0
70
128
71
23
72
25
73
24
0
VERTEX
8
OBJECT__25
10
0
20
0
30
0
70
128
71
23
72
26
73
27
0
VERTEX
8
OBJECT__25
10
0
20
0
30
0
70
128
71
26
72
28
73
29
0
VERTEX
8
OBJECT__25
10
0
20
0
30
0
70
128
71
30
72
31
73
32
0
VERTEX
8
OBJECT__25
10
0
20
0
30
0
70
128
71
32
72
28
73
30
0
VERTEX
8
OBJECT__25
10
0
20
0
30
0
70
128
71
33
72
34
73
31
0
VERTEX
8
OBJECT__25
10
0
20
0
30
0
70
128
71
33
72
35
73
36
0
VERTEX
8
OBJECT__25
10
0
20
0
30
0
70
128
71
35
72
37
73
36
0
VERTEX
8
OBJECT__25
10
0
20
0
30
0
70
128
71
35
72
38
73
39
0
VERTEX
8
OBJECT__25
10
0
20
0
30
0
70
128
71
38
72
40
73
3
0
VERTEX
8
OBJECT__25
10
0
20
0
30
0
70
128
71
41
72
42
73
1
0
VERTEX
8
OBJECT__25
10
0
20
0
30
0
70
128
71
42
72
43
73
4
0
VERTEX
8
OBJECT__25
10
0
20
0
30
0
70
128
71
43
72
44
73
6
0
VERTEX
8
OBJECT__25
10
0
20
0
30
0
70
128
71
44
72
45
73
9
0
VERTEX
8
OBJECT__25
10
0
20
0
30
0
70
128
71
45
72
46
73
11
0
VERTEX
8
OBJECT__25
10
0
20
0
30
0
70
128
71
46
72
47
73
14
0
VERTEX
8
OBJECT__25
10
0
20
0
30
0
70
128
71
47
72
48
73
16
0
VERTEX
8
OBJECT__25
10
0
20
0
30
0
70
128
71
48
72
49
73
18
0
VERTEX
8
OBJECT__25
10
0
20
0
30
0
70
128
71
49
72
50
73
21
0
VERTEX
8
OBJECT__25
10
0
20
0
30
0
70
128
71
50
72
51
73
23
0
VERTEX
8
OBJECT__25
10
0
20
0
30
0
70
128
71
51
72
52
73
26
0
VERTEX
8
OBJECT__25
10
0
20
0
30
0
70
128
71
52
72
53
73
28
0
VERTEX
8
OBJECT__25
10
0
20
0
30
0
70
128
71
53
72
54
73
30
0
VERTEX
8
OBJECT__25
10
0
20
0
30
0
70
128
71
54
72
55
73
33
0
VERTEX
8
OBJECT__25
10
0
20
0
30
0
70
128
71
55
72
56
73
35
0
VERTEX
8
OBJECT__25
10
0
20
0
30
0
70
128
71
56
72
57
73
38
0
VERTEX
8
OBJECT__25
10
0
20
0
30
0
70
128
71
57
72
41
73
40
0
VERTEX
8
OBJECT__25
10
0
20
0
30
0
70
128
71
58
72
59
73
42
0
VERTEX
8
OBJECT__25
10
0
20
0
30
0
70
128
71
59
72
60
73
43
0
VERTEX
8
OBJECT__25
10
0
20
0
30
0
70
128
71
60
72
61
73
44
0
VERTEX
8
OBJECT__25
10
0
20
0
30
0
70
128
71
61
72
62
73
45
0
VERTEX
8
OBJECT__25
10
0
20
0
30
0
70
128
71
62
72
63
73
46
0
VERTEX
8
OBJECT__25
10
0
20
0
30
0
70
128
71
63
72
64
73
47
0
VERTEX
8
OBJECT__25
10
0
20
0
30
0
70
128
71
64
72
65
73
48
0
VERTEX
8
OBJECT__25
10
0
20
0
30
0
70
128
71
65
72
66
73
49
0
VERTEX
8
OBJECT__25
10
0
20
0
30
0
70
128
71
66
72
67
73
50
0
VERTEX
8
OBJECT__25
10
0
20
0
30
0
70
128
71
67
72
68
73
51
0
VERTEX
8
OBJECT__25
10
0
20
0
30
0
70
128
71
68
72
69
73
52
0
VERTEX
8
OBJECT__25
10
0
20
0
30
0
70
128
71
69
72
70
73
53
0
VERTEX
8
OBJECT__25
10
0
20
0
30
0
70
128
71
70
72
71
73
54
0
VERTEX
8
OBJECT__25
10
0
20
0
30
0
70
128
71
71
72
72
73
55
0
VERTEX
8
OBJECT__25
10
0
20
0
30
0
70
128
71
72
72
73
73
56
0
VERTEX
8
OBJECT__25
10
0
20
0
30
0
70
128
71
73
72
74
73
57
0
VERTEX
8
OBJECT__25
10
0
20
0
30
0
70
128
71
74
72
58
73
41
0
VERTEX
8
OBJECT__25
10
0
20
0
30
0
70
128
71
75
72
76
73
59
0
VERTEX
8
OBJECT__25
10
0
20
0
30
0
70
128
71
60
72
59
73
77
0
VERTEX
8
OBJECT__25
10
0
20
0
30
0
70
128
71
59
72
76
73
77
0
VERTEX
8
OBJECT__25
10
0
20
0
30
0
70
128
71
60
72
78
73
79
0
VERTEX
8
OBJECT__25
10
0
20
0
30
0
70
128
71
79
72
61
73
60
0
VERTEX
8
OBJECT__25
10
0
20
0
30
0
70
128
71
80
72
62
73
61
0
VERTEX
8
OBJECT__25
10
0
20
0
30
0
70
128
71
63
72
62
73
81
0
VERTEX
8
OBJECT__25
10
0
20
0
30
0
70
128
71
62
72
80
73
81
0
VERTEX
8
OBJECT__25
10
0
20
0
30
0
70
128
71
63
72
82
73
83
0
VERTEX
8
OBJECT__25
10
0
20
0
30
0
70
128
71
83
72
64
73
63
0
VERTEX
8
OBJECT__25
10
0
20
0
30
0
70
128
71
84
72
65
73
64
0
VERTEX
8
OBJECT__25
10
0
20
0
30
0
70
128
71
66
72
65
73
85
0
VERTEX
8
OBJECT__25
10
0
20
0
30
0
70
128
71
65
72
84
73
85
0
VERTEX
8
OBJECT__25
10
0
20
0
30
0
70
128
71
66
72
86
73
87
0
VERTEX
8
OBJECT__25
10
0
20
0
30
0
70
128
71
87
72
67
73
66
0
VERTEX
8
OBJECT__25
10
0
20
0
30
0
70
128
71
67
72
88
73
89
0
VERTEX
8
OBJECT__25
10
0
20
0
30
0
70
128
71
89
72
68
73
67
0
VERTEX
8
OBJECT__25
10
0
20
0
30
0
70
128
71
90
72
91
73
69
0
VERTEX
8
OBJECT__25
10
0
20
0
30
0
70
128
71
70
72
69
73
92
0
VERTEX
8
OBJECT__25
10
0
20
0
30
0
70
128
71
69
72
91
73
92
0
VERTEX
8
OBJECT__25
10
0
20
0
30
0
70
128
71
70
72
93
73
94
0
VERTEX
8
OBJECT__25
10
0
20
0
30
0
70
128
71
94
72
71
73
70
0
VERTEX
8
OBJECT__25
10
0
20
0
30
0
70
128
71
95
72
96
73
72
0
VERTEX
8
OBJECT__25
10
0
20
0
30
0
70
128
71
73
72
72
73
97
0
VERTEX
8
OBJECT__25
10
0
20
0
30
0
70
128
71
72
72
96
73
97
0
VERTEX
8
OBJECT__25
10
0
20
0
30
0
70
128
71
73
72
98
73
99
0
VERTEX
8
OBJECT__25
10
0
20
0
30
0
70
128
71
99
72
74
73
73
0
VERTEX
8
OBJECT__25
10
0
20
0
30
0
70
128
71
100
72
75
73
58
0
VERTEX
8
OBJECT__25
10
0
20
0
30
0
70
128
71
58
72
74
73
100
0
VERTEX
8
OBJECT__25
10
0
20
0
30
0
70
128
71
99
72
100
73
74
0
VERTEX
8
OBJECT__25
10
0
20
0
30
0
70
128
71
97
72
98
73
73
0
VERTEX
8
OBJECT__25
10
0
20
0
30
0
70
128
71
72
72
71
73
95
0
VERTEX
8
OBJECT__25
10
0
20
0
30
0
70
128
71
94
72
95
73
71
0
VERTEX
8
OBJECT__25
10
0
20
0
30
0
70
128
71
92
72
93
73
70
0
VERTEX
8
OBJECT__25
10
0
20
0
30
0
70
128
71
69
72
68
73
90
0
VERTEX
8
OBJECT__25
10
0
20
0
30
0
70
128
71
89
72
90
73
68
0
VERTEX
8
OBJECT__25
10
0
20
0
30
0
70
128
71
87
72
88
73
67
0
VERTEX
8
OBJECT__25
10
0
20
0
30
0
70
128
71
85
72
86
73
66
0
VERTEX
8
OBJECT__25
10
0
20
0
30
0
70
128
71
64
72
101
73
84
0
VERTEX
8
OBJECT__25
10
0
20
0
30
0
70
128
71
83
72
101
73
64
0
VERTEX
8
OBJECT__25
10
0
20
0
30
0
70
128
71
81
72
82
73
63
0
VERTEX
8
OBJECT__25
10
0
20
0
30
0
70
128
71
61
72
102
73
80
0
VERTEX
8
OBJECT__25
10
0
20
0
30
0
70
128
71
79
72
102
73
61
0
VERTEX
8
OBJECT__25
10
0
20
0
30
0
70
128
71
77
72
78
73
60
0
VERTEX
8
OBJECT__25
10
0
20
0
30
0
70
128
71
59
72
58
73
75
0
VERTEX
8
OBJECT__25
10
0
20
0
30
0
70
128
71
41
72
57
73
74
0
VERTEX
8
OBJECT__25
10
0
20
0
30
0
70
128
71
57
72
56
73
73
0
VERTEX
8
OBJECT__25
10
0
20
0
30
0
70
128
71
56
72
55
73
72
0
VERTEX
8
OBJECT__25
10
0
20
0
30
0
70
128
71
55
72
54
73
71
0
VERTEX
8
OBJECT__25
10
0
20
0
30
0
70
128
71
54
72
53
73
70
0
VERTEX
8
OBJECT__25
10
0
20
0
30
0
70
128
71
53
72
52
73
69
0
VERTEX
8
OBJECT__25
10
0
20
0
30
0
70
128
71
52
72
51
73
68
0
VERTEX
8
OBJECT__25
10
0
20
0
30
0
70
128
71
51
72
50
73
67
0
VERTEX
8
OBJECT__25
10
0
20
0
30
0
70
128
71
50
72
49
73
66
0
VERTEX
8
OBJECT__25
10
0
20
0
30
0
70
128
71
49
72
48
73
65
0
VERTEX
8
OBJECT__25
10
0
20
0
30
0
70
128
71
48
72
47
73
64
0
VERTEX
8
OBJECT__25
10
0
20
0
30
0
70
128
71
47
72
46
73
63
0
VERTEX
8
OBJECT__25
10
0
20
0
30
0
70
128
71
46
72
45
73
62
0
VERTEX
8
OBJECT__25
10
0
20
0
30
0
70
128
71
45
72
44
73
61
0
VERTEX
8
OBJECT__25
10
0
20
0
30
0
70
128
71
44
72
43
73
60
0
VERTEX
8
OBJECT__25
10
0
20
0
30
0
70
128
71
43
72
42
73
59
0
VERTEX
8
OBJECT__25
10
0
20
0
30
0
70
128
71
42
72
41
73
58
0
VERTEX
8
OBJECT__25
10
0
20
0
30
0
70
128
71
40
72
38
73
57
0
VERTEX
8
OBJECT__25
10
0
20
0
30
0
70
128
71
38
72
35
73
56
0
VERTEX
8
OBJECT__25
10
0
20
0
30
0
70
128
71
35
72
33
73
55
0
VERTEX
8
OBJECT__25
10
0
20
0
30
0
70
128
71
33
72
30
73
54
0
VERTEX
8
OBJECT__25
10
0
20
0
30
0
70
128
71
30
72
28
73
53
0
VERTEX
8
OBJECT__25
10
0
20
0
30
0
70
128
71
28
72
26
73
52
0
VERTEX
8
OBJECT__25
10
0
20
0
30
0
70
128
71
26
72
23
73
51
0
VERTEX
8
OBJECT__25
10
0
20
0
30
0
70
128
71
23
72
21
73
50
0
VERTEX
8
OBJECT__25
10
0
20
0
30
0
70
128
71
21
72
18
73
49
0
VERTEX
8
OBJECT__25
10
0
20
0
30
0
70
128
71
18
72
16
73
48
0
VERTEX
8
OBJECT__25
10
0
20
0
30
0
70
128
71
16
72
14
73
47
0
VERTEX
8
OBJECT__25
10
0
20
0
30
0
70
128
71
14
72
11
73
46
0
VERTEX
8
OBJECT__25
10
0
20
0
30
0
70
128
71
11
72
9
73
45
0
VERTEX
8
OBJECT__25
10
0
20
0
30
0
70
128
71
9
72
6
73
44
0
VERTEX
8
OBJECT__25
10
0
20
0
30
0
70
128
71
6
72
4
73
43
0
VERTEX
8
OBJECT__25
10
0
20
0
30
0
70
128
71
4
72
1
73
42
0
VERTEX
8
OBJECT__25
10
0
20
0
30
0
70
128
71
1
72
40
73
41
0
VERTEX
8
OBJECT__25
10
0
20
0
30
0
70
128
71
3
72
39
73
38
0
VERTEX
8
OBJECT__25
10
0
20
0
30
0
70
128
71
39
72
37
73
35
0
VERTEX
8
OBJECT__25
10
0
20
0
30
0
70
128
71
36
72
34
73
33
0
VERTEX
8
OBJECT__25
10
0
20
0
30
0
70
128
71
31
72
30
73
33
0
VERTEX
8
OBJECT__25
10
0
20
0
30
0
70
128
71
32
72
29
73
28
0
VERTEX
8
OBJECT__25
10
0
20
0
30
0
70
128
71
29
72
27
73
26
0
VERTEX
8
OBJECT__25
10
0
20
0
30
0
70
128
71
27
72
25
73
23
0
VERTEX
8
OBJECT__25
10
0
20
0
30
0
70
128
71
24
72
22
73
21
0
VERTEX
8
OBJECT__25
10
0
20
0
30
0
70
128
71
22
72
19
73
18
0
VERTEX
8
OBJECT__25
10
0
20
0
30
0
70
128
71
20
72
17
73
16
0
VERTEX
8
OBJECT__25
10
0
20
0
30
0
70
128
71
15
72
14
73
16
0
VERTEX
8
OBJECT__25
10
0
20
0
30
0
70
128
71
15
72
13
73
11
0
VERTEX
8
OBJECT__25
10
0
20
0
30
0
70
128
71
12
72
10
73
9
0
VERTEX
8
OBJECT__25
10
0
20
0
30
0
70
128
71
10
72
7
73
6
0
VERTEX
8
OBJECT__25
10
0
20
0
30
0
70
128
71
8
72
5
73
4
0
VERTEX
8
OBJECT__25
10
0
20
0
30
0
70
128
71
2
72
1
73
4
0
VERTEX
8
OBJECT__25
10
0
20
0
30
0
70
128
71
3
72
40
73
1
0
SEQEND
8
OBJECT__25
0
POLYLINE
8
OBJECT__26
66
1
70
64
71
40
72
40
62
253
0
VERTEX
8
OBJECT__26
10
0.000000
20
-386.500000
30
23.382999
70
192
0
VERTEX
8
OBJECT__26
10
0.000000
20
-400.000000
30
27.000000
70
192
0
VERTEX
8
OBJECT__26
10
10.000000
20
-395.039001
30
26.540001
70
192
0
VERTEX
8
OBJECT__26
10
10.000000
20
-400.000000
30
26.540001
70
192
0
VERTEX
8
OBJECT__26
10
10.000000
20
-385.786987
30
22.955999
70
192
0
VERTEX
8
OBJECT__26
10
10.000000
20
-378.454010
30
16.271000
70
192
0
VERTEX
8
OBJECT__26
10
0.000000
20
-376.617004
30
13.500000
70
192
0
VERTEX
8
OBJECT__26
10
10.000000
20
-386.550995
30
23.252001
70
192
0
VERTEX
8
OBJECT__26
10
0.000000
20
-373.000000
30
0.000000
70
192
0
VERTEX
8
OBJECT__26
10
10.000000
20
-374.031006
30
7.389000
70
192
0
VERTEX
8
OBJECT__26
10
10.000000
20
-376.983002
30
13.318000
70
192
0
VERTEX
8
OBJECT__26
10
0.000000
20
-376.617004
30
-13.500000
70
192
0
VERTEX
8
OBJECT__26
10
10.000000
20
-373.115997
30
-2.491000
70
192
0
VERTEX
8
OBJECT__26
10
10.000000
20
-373.342987
30
-0.032000
70
192
0
VERTEX
8
OBJECT__26
10
10.000000
20
-375.830994
30
-12.035000
70
192
0
VERTEX
8
OBJECT__26
10
10.000000
20
-376.821014
30
-13.346000
70
192
0
VERTEX
8
OBJECT__26
10
10.000000
20
-381.809998
30
-19.952999
70
192
0
VERTEX
8
OBJECT__26
10
0.000000
20
-386.500000
30
-23.382999
70
192
0
VERTEX
8
OBJECT__26
10
0.000000
20
-400.000000
30
-27.000000
70
192
0
VERTEX
8
OBJECT__26
10
10.000000
20
-390.247009
30
-25.176001
70
192
0
VERTEX
8
OBJECT__26
10
10.000000
20
-386.734985
30
-23.002001
70
192
0
VERTEX
8
OBJECT__26
10
10.000000
20
-400.000000
30
-27.000000
70
192
0
VERTEX
8
OBJECT__26
10
10.000000
20
-409.752991
30
-25.176001
70
192
0
VERTEX
8
OBJECT__26
10
0.000000
20
-413.500000
30
-23.382999
70
192
0
VERTEX
8
OBJECT__26
10
0.000000
20
-423.382996
30
-13.500000
70
192
0
VERTEX
8
OBJECT__26
10
10.000000
20
-418.190002
30
-19.952999
70
192
0
VERTEX
8
OBJECT__26
10
10.000000
20
-413.265015
30
-23.002001
70
192
0
VERTEX
8
OBJECT__26
10
10.000000
20
-424.169006
30
-12.035000
70
192
0
VERTEX
8
OBJECT__26
10
10.000000
20
-426.884003
30
-2.491000
70
192
0
VERTEX
8
OBJECT__26
10
0.000000
20
-427.000000
30
0.000000
70
192
0
VERTEX
8
OBJECT__26
10
10.000000
20
-423.178986
30
-13.346000
70
192
0
VERTEX
8
OBJECT__26
10
10.000000
20
-426.657013
30
-0.032000
70
192
0
VERTEX
8
OBJECT__26
10
10.000000
20
-425.968994
30
7.389000
70
192
0
VERTEX
8
OBJECT__26
10
0.000000
20
-423.382996
30
13.500000
70
192
0
VERTEX
8
OBJECT__26
10
0.000000
20
-413.500000
30
23.382999
70
192
0
VERTEX
8
OBJECT__26
10
10.000000
20
-421.545990
30
16.271000
70
192
0
VERTEX
8
OBJECT__26
10
10.000000
20
-423.016998
30
13.318000
70
192
0
VERTEX
8
OBJECT__26
10
10.000000
20
-414.213013
30
22.955999
70
192
0
VERTEX
8
OBJECT__26
10
10.000000
20
-413.449005
30
23.252001
70
192
0
VERTEX
8
OBJECT__26
10
10.000000
20
-404.960999
30
26.540001
70
192
0
VERTEX
8
OBJECT__26
10
0
20
0
30
0
70
128
71
1
72
2
73
3
0
VERTEX
8
OBJECT__26
10
0
20
0
30
0
70
128
71
2
72
4
73
3
0
VERTEX
8
OBJECT__26
10
0
20
0
30
0
70
128
71
1
72
5
73
6
0
VERTEX
8
OBJECT__26
10
0
20
0
30
0
70
128
71
6
72
7
73
1
0
VERTEX
8
OBJECT__26
10
0
20
0
30
0
70
128
71
1
72
8
73
5
0
VERTEX
8
OBJECT__26
10
0
20
0
30
0
70
128
71
9
72
7
73
10
0
VERTEX
8
OBJECT__26
10
0
20
0
30
0
70
128
71
7
72
11
73
10
0
VERTEX
8
OBJECT__26
10
0
20
0
30
0
70
128
71
12
72
9
73
13
0
VERTEX
8
OBJECT__26
10
0
20
0
30
0
70
128
71
9
72
14
73
13
0
VERTEX
8
OBJECT__26
10
0
20
0
30
0
70
128
71
13
72
15
73
12
0
VERTEX
8
OBJECT__26
10
0
20
0
30
0
70
128
71
12
72
16
73
17
0
VERTEX
8
OBJECT__26
10
0
20
0
30
0
70
128
71
17
72
18
73
12
0
VERTEX
8
OBJECT__26
10
0
20
0
30
0
70
128
71
19
72
18
73
20
0
VERTEX
8
OBJECT__26
10
0
20
0
30
0
70
128
71
18
72
21
73
20
0
VERTEX
8
OBJECT__26
10
0
20
0
30
0
70
128
71
19
72
22
73
23
0
VERTEX
8
OBJECT__26
10
0
20
0
30
0
70
128
71
23
72
24
73
19
0
VERTEX
8
OBJECT__26
10
0
20
0
30
0
70
128
71
25
72
24
73
26
0
VERTEX
8
OBJECT__26
10
0
20
0
30
0
70
128
71
24
72
27
73
26
0
VERTEX
8
OBJECT__26
10
0
20
0
30
0
70
128
71
25
72
28
73
29
0
VERTEX
8
OBJECT__26
10
0
20
0
30
0
70
128
71
29
72
30
73
25
0
VERTEX
8
OBJECT__26
10
0
20
0
30
0
70
128
71
25
72
31
73
28
0
VERTEX
8
OBJECT__26
10
0
20
0
30
0
70
128
71
30
72
32
73
33
0
VERTEX
8
OBJECT__26
10
0
20
0
30
0
70
128
71
33
72
34
73
30
0
VERTEX
8
OBJECT__26
10
0
20
0
30
0
70
128
71
35
72
34
73
36
0
VERTEX
8
OBJECT__26
10
0
20
0
30
0
70
128
71
34
72
37
73
36
0
VERTEX
8
OBJECT__26
10
0
20
0
30
0
70
128
71
36
72
38
73
35
0
VERTEX
8
OBJECT__26
10
0
20
0
30
0
70
128
71
35
72
39
73
40
0
VERTEX
8
OBJECT__26
10
0
20
0
30
0
70
128
71
40
72
2
73
35
0
VERTEX
8
OBJECT__26
10
0
20
0
30
0
70
128
71
40
72
4
73
2
0
VERTEX
8
OBJECT__26
10
0
20
0
30
0
70
128
71
38
72
39
73
35
0
VERTEX
8
OBJECT__26
10
0
20
0
30
0
70
128
71
33
72
37
73
34
0
VERTEX
8
OBJECT__26
10
0
20
0
30
0
70
128
71
29
72
32
73
30
0
VERTEX
8
OBJECT__26
10
0
20
0
30
0
70
128
71
26
72
31
73
25
0
VERTEX
8
OBJECT__26
10
0
20
0
30
0
70
128
71
23
72
27
73
24
0
VERTEX
8
OBJECT__26
10
0
20
0
30
0
70
128
71
20
72
22
73
19
0
VERTEX
8
OBJECT__26
10
0
20
0
30
0
70
128
71
17
72
21
73
18
0
VERTEX
8
OBJECT__26
10
0
20
0
30
0
70
128
71
15
72
16
73
12
0
VERTEX
8
OBJECT__26
10
0
20
0
30
0
70
128
71
10
72
14
73
9
0
VERTEX
8
OBJECT__26
10
0
20
0
30
0
70
128
71
6
72
11
73
7
0
VERTEX
8
OBJECT__26
10
0
20
0
30
0
70
128
71
3
72
8
73
1
0
SEQEND
8
OBJECT__26
0
POLYLINE
8
OBJECT__27
66
1
70
64
71
12
72
10
62
253
0
VERTEX
8
OBJECT__27
10
0.000000
20
-413.500000
30
-23.382999
70
192
0
VERTEX
8
OBJECT__27
10
0.000000
20
-423.382996
30
13.500000
70
192
0
VERTEX
8
OBJECT__27
10
0.000000
20
-413.500000
30
23.382999
70
192
0
VERTEX
8
OBJECT__27
10
0.000000
20
-386.500000
30
23.382999
70
192
0
VERTEX
8
OBJECT__27
10
0.000000
20
-376.617004
30
-13.500000
70
192
0
VERTEX
8
OBJECT__27
10
0.000000
20
-386.500000
30
-23.382999
70
192
0
VERTEX
8
OBJECT__27
10
0.000000
20
-400.000000
30
27.000000
70
192
0
VERTEX
8
OBJECT__27
10
0.000000
20
-423.382996
30
-13.500000
70
192
0
VERTEX
8
OBJECT__27
10
0.000000
20
-400.000000
30
-27.000000
70
192
0
VERTEX
8
OBJECT__27
10
0.000000
20
-376.617004
30
13.500000
70
192
0
VERTEX
8
OBJECT__27
10
0.000000
20
-427.000000
30
0.000000
70
192
0
VERTEX
8
OBJECT__27
10
0.000000
20
-373.000000
30
0.000000
70
192
0
VERTEX
8
OBJECT__27
10
0
20
0
30
0
70
128
71
1
72
2
73
3
0
VERTEX
8
OBJECT__27
10
0
20
0
30
0
70
128
71
4
72
5
73
6
0
VERTEX
8
OBJECT__27
10
0
20
0
30
0
70
128
71
3
72
7
73
1
0
VERTEX
8
OBJECT__27
10
0
20
0
30
0
70
128
71
2
72
1
73
8
0
VERTEX
8
OBJECT__27
10
0
20
0
30
0
70
128
71
6
72
9
73
4
0
VERTEX
8
OBJECT__27
10
0
20
0
30
0
70
128
71
5
72
4
73
10
0
VERTEX
8
OBJECT__27
10
0
20
0
30
0
70
128
71
8
72
11
73
2
0
VERTEX
8
OBJECT__27
10
0
20
0
30
0
70
128
71
10
72
12
73
5
0
VERTEX
8
OBJECT__27
10
0
20
0
30
0
70
128
71
9
72
1
73
4
0
VERTEX
8
OBJECT__27
10
0
20
0
30
0
70
128
71
7
72
4
73
1
0
SEQEND
8
OBJECT__27
0
ENDSEC
0
EOF
