  0
SECTION
  2
HEADER
  9
$ACADVER
  1
AC1021
  9
$ACADMAINTVER
 70
    25
  9
$DWGCODEPAGE
  3
ANSI_1252
  9
$INSBASE
 10
0.0
 20
0.0
 30
0.0
  9
$EXTMIN
 10
0.0
 20
0.0
 30
0.0
  9
$EXTMAX
 10
3000.0
 20
4500.0
 30
0.0
  9
$LIMMIN
 10
0.0
 20
0.0
  9
$LIMMAX
 10
3000.0
 20
4500.0
  9
$ORTHOMODE
 70
     0
  9
$REGENMODE
 70
     1
  9
$FILLMODE
 70
     1
  9
$QTEXTMODE
 70
     0
  9
$MIRRTEXT
 70
     1
  9
$LTSCALE
 40
1.0
  9
$ATTMODE
 70
     1
  9
$TEXTSIZE
 40
10.0
  9
$TRACEWID
 40
1.0
  9
$TEXTSTYLE
  7
Standard
  9
$CLAYER
  8
0
  9
$CELTYPE
  6
ByLayer
  9
$CECOLOR
 62
   256
  9
$CELTSCALE
 40
1.0
  9
$DISPSILH
 70
     0
  9
$DIMSCALE
 40
1.0
  9
$DIMASZ
 40
2.5
  9
$DIMEXO
 40
0.625
  9
$DIMDLI
 40
3.75
  9
$DIMRND
 40
0.0
  9
$DIMDLE
 40
0.0
  9
$DIMEXE
 40
1.25
  9
$DIMTP
 40
0.0
  9
$DIMTM
 40
0.0
  9
$DIMTXT
 40
2.5
  9
$DIMCEN
 40
2.5
  9
$DIMTSZ
 40
0.0
  9
$DIMTOL
 70
     0
  9
$DIMLIM
 70
     0
  9
$DIMTIH
 70
     0
  9
$DIMTOH
 70
     0
  9
$DIMSE1
 70
     0
  9
$DIMSE2
 70
     0
  9
$DIMTAD
 70
     1
  9
$DIMZIN
 70
     8
  9
$DIMBLK
  1

  9
$DIMASO
 70
     1
  9
$DIMSHO
 70
     1
  9
$DIMPOST
  1

  9
$DIMAPOST
  1

  9
$DIMALT
 70
     0
  9
$DIMALTD
 70
     3
  9
$DIMALTF
 40
0.0393700787
  9
$DIMLFAC
 40
1.0
  9
$DIMTOFL
 70
     1
  9
$DIMTVP
 40
0.0
  9
$DIMTIX
 70
     0
  9
$DIMSOXD
 70
     0
  9
$DIMSAH
 70
     0
  9
$DIMBLK1
  1

  9
$DIMBLK2
  1

  9
$DIMSTYLE
  2
ISO-25
  9
$DIMCLRD
 70
     0
  9
$DIMCLRE
 70
     0
  9
$DIMCLRT
 70
     0
  9
$DIMTFAC
 40
1.0
  9
$DIMGAP
 40
0.625
  9
$DIMJUST
 70
     0
  9
$DIMSD1
 70
     0
  9
$DIMSD2
 70
     0
  9
$DIMTOLJ
 70
     0
  9
$DIMTZIN
 70
     8
  9
$DIMALTZ
 70
     0
  9
$DIMALTTZ
 70
     0
  9
$DIMUPT
 70
     0
  9
$DIMDEC
 70
     2
  9
$DIMTDEC
 70
     2
  9
$DIMALTU
 70
     2
  9
$DIMALTTD
 70
     3
  9
$DIMTXSTY
  7
Standard
  9
$DIMAUNIT
 70
     0
  9
$DIMADEC
 70
     0
  9
$DIMALTRND
 40
0.0
  9
$DIMAZIN
 70
     0
  9
$DIMDSEP
 70
    44
  9
$DIMATFIT
 70
     3
  9
$DIMFRAC
 70
     0
  9
$DIMLDRBLK
  1

  9
$DIMLUNIT
 70
     2
  9
$DIMLWD
 70
    -2
  9
$DIMLWE
 70
    -2
  9
$DIMTMOVE
 70
     0
  9
$DIMFXL
 40
1.0
  9
$DIMFXLON
 70
     0
  9
$DIMJOGANG
 40
0.7853981634
  9
$DIMTFILL
 70
     0
  9
$DIMTFILLCLR
 70
     0
  9
$DIMARCSYM
 70
     0
  9
$DIMLTYPE
  6

  9
$DIMLTEX1
  6

  9
$DIMLTEX2
  6

  9
$LUNITS
 70
     2
  9
$LUPREC
 70
     4
  9
$SKETCHINC
 40
1.0
  9
$FILLETRAD
 40
10.0
  9
$AUNITS
 70
     0
  9
$AUPREC
 70
     0
  9
$MENU
  1
.
  9
$ELEVATION
 40
0.0
  9
$PELEVATION
 40
0.0
  9
$THICKNESS
 40
0.0
  9
$LIMCHECK
 70
     0
  9
$CHAMFERA
 40
0.0
  9
$CHAMFERB
 40
0.0
  9
$CHAMFERC
 40
0.0
  9
$CHAMFERD
 40
0.0
  9
$SKPOLY
 70
     0
  9
$TDCREATE
 40
2458519.3494
  9
$TDUCREATE
 40
2458519.307733333
  9
$TDUPDATE
 40
2458519.349401979
  9
$TDUUPDATE
 40
2458519.307735313
  9
$TDINDWG
 40
0.0000000116
  9
$TDUSRTIMER
 40
0.0000000116
  9
$USRTIMER
 70
     1
  9
$ANGBASE
 50
0.0
  9
$ANGDIR
 70
     0
  9
$PDMODE
 70
     0
  9
$PDSIZE
 40
0.0
  9
$PLINEWID
 40
0.0
  9
$SPLFRAME
 70
     0
  9
$SPLINETYPE
 70
     6
  9
$SPLINESEGS
 70
     8
  9
$HANDSEED
  5
2A9
  9
$SURFTAB1
 70
     6
  9
$SURFTAB2
 70
     6
  9
$SURFTYPE
 70
     6
  9
$SURFU
 70
     6
  9
$SURFV
 70
     6
  9
$UCSBASE
  2

  9
$UCSNAME
  2

  9
$UCSORG
 10
0.0
 20
0.0
 30
0.0
  9
$UCSXDIR
 10
1.0
 20
0.0
 30
0.0
  9
$UCSYDIR
 10
0.0
 20
1.0
 30
0.0
  9
$UCSORTHOREF
  2

  9
$UCSORTHOVIEW
 70
     0
  9
$UCSORGTOP
 10
0.0
 20
0.0
 30
0.0
  9
$UCSORGBOTTOM
 10
0.0
 20
0.0
 30
0.0
  9
$UCSORGLEFT
 10
0.0
 20
0.0
 30
0.0
  9
$UCSORGRIGHT
 10
0.0
 20
0.0
 30
0.0
  9
$UCSORGFRONT
 10
0.0
 20
0.0
 30
0.0
  9
$UCSORGBACK
 10
0.0
 20
0.0
 30
0.0
  9
$PUCSBASE
  2

  9
$PUCSNAME
  2

  9
$PUCSORG
 10
0.0
 20
0.0
 30
0.0
  9
$PUCSXDIR
 10
1.0
 20
0.0
 30
0.0
  9
$PUCSYDIR
 10
0.0
 20
1.0
 30
0.0
  9
$PUCSORTHOREF
  2

  9
$PUCSORTHOVIEW
 70
     0
  9
$PUCSORGTOP
 10
0.0
 20
0.0
 30
0.0
  9
$PUCSORGBOTTOM
 10
0.0
 20
0.0
 30
0.0
  9
$PUCSORGLEFT
 10
0.0
 20
0.0
 30
0.0
  9
$PUCSORGRIGHT
 10
0.0
 20
0.0
 30
0.0
  9
$PUCSORGFRONT
 10
0.0
 20
0.0
 30
0.0
  9
$PUCSORGBACK
 10
0.0
 20
0.0
 30
0.0
  9
$USERI1
 70
     0
  9
$USERI2
 70
     0
  9
$USERI3
 70
     0
  9
$USERI4
 70
     0
  9
$USERI5
 70
     0
  9
$USERR1
 40
0.0
  9
$USERR2
 40
0.0
  9
$USERR3
 40
0.0
  9
$USERR4
 40
0.0
  9
$USERR5
 40
0.0
  9
$WORLDVIEW
 70
     1
  9
$SHADEDGE
 70
     3
  9
$SHADEDIF
 70
    70
  9
$TILEMODE
 70
     1
  9
$MAXACTVP
 70
    64
  9
$PINSBASE
 10
0.0
 20
0.0
 30
0.0
  9
$PLIMCHECK
 70
     0
  9
$PEXTMIN
 10
0.0
 20
0.0
 30
0.0
  9
$PEXTMAX
 10
3000.0
 20
4500.0
 30
0.0
  9
$PLIMMIN
 10
0.0
 20
0.0
  9
$PLIMMAX
 10
3000.0
 20
4500.0
  9
$UNITMODE
 70
     0
  9
$VISRETAIN
 70
     1
  9
$PLINEGEN
 70
     0
  9
$PSLTSCALE
 70
     1
  9
$TREEDEPTH
 70
  3020
  9
$CMLSTYLE
  2
Standard
  9
$CMLJUST
 70
     0
  9
$CMLSCALE
 40
20.0
  9
$PROXYGRAPHICS
 70
     1
  9
$MEASUREMENT
 70
     1
  9
$CELWEIGHT
370
    -1
  9
$ENDCAPS
280
     0
  9
$JOINSTYLE
280
     0
  9
$LWDISPLAY
290
     0
  9
$INSUNITS
 70
     4
  9
$HYPERLINKBASE
  1

  9
$STYLESHEET
  1

  9
$XEDIT
290
     1
  9
$CEPSNTYPE
380
     0
  9
$PSTYLEMODE
290
     1
  9
$FINGERPRINTGUID
  2
{2ACE70C4-58C0-4C3A-B461-E4718CA9DD66}
  9
$VERSIONGUID
  2
{FAEB1C32-E019-11D5-929B-00C0DF256EC4}
  9
$EXTNAMES
290
     1
  9
$PSVPSCALE
 40
0.0
  9
$OLESTARTUP
290
     0
  9
$SORTENTS
280
   127
  9
$INDEXCTL
280
     0
  9
$HIDETEXT
280
     1
  9
$XCLIPFRAME
290
     0
  9
$HALOGAP
280
     0
  9
$OBSCOLOR
 70
   257
  9
$OBSLTYPE
280
     0
  9
$INTERSECTIONDISPLAY
280
     0
  9
$INTERSECTIONCOLOR
 70
   257
  9
$DIMASSOC
280
     2
  9
$PROJECTNAME
  1

  9
$CAMERADISPLAY
290
     0
  9
$LENSLENGTH
 40
50.0
  9
$CAMERAHEIGHT
 40
0.0
  9
$STEPSPERSEC
 40
2.0
  9
$STEPSIZE
 40
6.0
  9
$3DDWFPREC
 40
2.0
  9
$PSOLWIDTH
 40
5.0
  9
$PSOLHEIGHT
 40
80.0
  9
$LOFTANG1
 40
1.5707963268
  9
$LOFTANG2
 40
1.5707963268
  9
$LOFTMAG1
 40
0.0
  9
$LOFTMAG2
 40
0.0
  9
$LOFTPARAM
 70
     7
  9
$LOFTNORMALS
280
     1
  9
$LATITUDE
 40
37.795
  9
$LONGITUDE
 40
-122.394
  9
$NORTHDIRECTION
 40
0.0
  9
$TIMEZONE
 70
 -8000
  9
$LIGHTGLYPHDISPLAY
280
     1
  9
$TILEMODELIGHTSYNCH
280
     1
  9
$CMATERIAL
347
44
  9
$SOLIDHIST
280
     0
  9
$SHOWHIST
280
     1
  9
$DWFFRAME
280
     2
  9
$DGNFRAME
280
     2
  9
$REALWORLDSCALE
290
     1
  9
$INTERFERECOLOR
 62
   256
  9
$CSHADOW
280
     0
  9
$SHADOWPLANELOCATION
 40
0.0
  0
ENDSEC
  0
SECTION
  2
CLASSES
  0
CLASS
  1
ACDBDICTIONARYWDFLT
  2
AcDbDictionaryWithDefault
  3
ObjectDBX Classes
 90
        0
 91
        4
280
     0
281
     0
  0
CLASS
  1
VISUALSTYLE
  2
AcDbVisualStyle
  3
ObjectDBX Classes
 90
     4095
 91
        4
280
     0
281
     0
  0
CLASS
  1
MATERIAL
  2
AcDbMaterial
  3
ObjectDBX Classes
 90
     1153
 91
        4
280
     0
281
     0
  0
CLASS
  1
SCALE
  2
AcDbScale
  3
ObjectDBX Classes
 90
     1153
 91
        4
280
     0
281
     0
  0
CLASS
  1
TABLESTYLE
  2
AcDbTableStyle
  3
ObjectDBX Classes
 90
     4095
 91
        4
280
     0
281
     0
  0
CLASS
  1
MLEADERSTYLE
  2
AcDbMLeaderStyle
  3
ACDB_MLEADERSTYLE_CLASS
 90
     4095
 91
        4
280
     0
281
     0
  0
CLASS
  1
SUN
  2
AcDbSun
  3
SCENEOE
 90
     1153
 91
        4
280
     0
281
     0
  0
CLASS
  1
DICTIONARYVAR
  2
AcDbDictionaryVar
  3
ObjectDBX Classes
 90
        0
 91
        4
280
     0
281
     0
  0
CLASS
  1
CELLSTYLEMAP
  2
AcDbCellStyleMap
  3
ObjectDBX Classes
 90
     1152
 91
        4
280
     0
281
     0
  0
ENDSEC
  0
SECTION
  2
TABLES
  0
TABLE
  2
VPORT
  5
8
330
0
100
AcDbSymbolTable
 70
     1
  0
VPORT
  5
29
330
8
100
AcDbSymbolTableRecord
100
AcDbViewportTableRecord
  2
*Active
 70
     0
 10
0.0
 20
0.0
 11
1.0
 21
1.0
 12
344.1869158879
 22
148.5
 13
0.0
 23
0.0
 14
10.0
 24
10.0
 15
10.0
 25
10.0
 16
0.0
 26
0.0
 36
1.0
 17
0.0
 27
0.0
 37
0.0
 40
297.0
 41
1.9729729729
 42
50.0
 43
0.0
 44
0.0
 50
0.0
 51
0.0
 71
     0
 72
   100
 73
     1
 74
     3
 75
     0
 76
     0
 77
     0
 78
     0
281
     0
 65
     1
110
0.0
120
0.0
130
0.0
111
1.0
121
0.0
131
0.0
112
0.0
122
1.0
132
0.0
 79
     0
146
0.0
348
2F
 60
     3
 61
     5
292
     1
282
     1
141
0.0
142
0.0
 63
   250
361
6D
  0
ENDTAB
  0
TABLE
  2
LTYPE
  5
5
330
0
100
AcDbSymbolTable
 70
     1
  0
LTYPE
  5
14
330
5
100
AcDbSymbolTableRecord
100
AcDbLinetypeTableRecord
  2
ByBlock
 70
     0
  3

 72
    65
 73
     0
 40
0.0
  0
LTYPE
  5
15
330
5
100
AcDbSymbolTableRecord
100
AcDbLinetypeTableRecord
  2
ByLayer
 70
     0
  3

 72
    65
 73
     0
 40
0.0
  0
LTYPE
  5
16
330
5
100
AcDbSymbolTableRecord
100
AcDbLinetypeTableRecord
  2
Continuous
 70
     0
  3
Solid line
 72
    65
 73
     0
 40
0.0
  0
ENDTAB
  0
TABLE
  2
LAYER
  5
2
330
0
100
AcDbSymbolTable
 70
     5
  0
LAYER
  5
10
330
2
100
AcDbSymbolTableRecord
100
AcDbLayerTableRecord
  2
0
 70
     0
 62
     7
  6
Continuous
370
    -3
390
F
347
46
  0
LAYER
  5
6E
330
2
100
AcDbSymbolTableRecord
100
AcDbLayerTableRecord
  2
Default
 70
     0
 62
     7
  6
Continuous
370
    -3
390
F
347
46
  0
LAYER
  5
99
330
2
100
AcDbSymbolTableRecord
100
AcDbLayerTableRecord
  2
DV1_Default
 70
     0
 62
     7
  6
Continuous
370
    -3
390
F
347
46
  0
LAYER
  5
158
330
2
100
AcDbSymbolTableRecord
100
AcDbLayerTableRecord
  2
DV2_Default
 70
     0
 62
     7
  6
Continuous
370
    -3
390
F
347
46
  0
LAYER
  5
237
330
2
100
AcDbSymbolTableRecord
100
AcDbLayerTableRecord
  2
DV3_Default
 70
     0
 62
     7
  6
Continuous
370
    -3
390
F
347
46
  0
ENDTAB
  0
TABLE
  2
STYLE
  5
3
330
0
100
AcDbSymbolTable
 70
     1
  0
STYLE
  5
11
330
3
100
AcDbSymbolTableRecord
100
AcDbTextStyleTableRecord
  2
Standard
 70
     0
 40
0.0
 41
1.0
 50
0.0
 71
     0
 42
10.0
  3
txt
  4

  0
ENDTAB
  0
TABLE
  2
VIEW
  5
6
330
0
100
AcDbSymbolTable
 70
     0
  0
ENDTAB
  0
TABLE
  2
UCS
  5
7
330
0
100
AcDbSymbolTable
 70
     0
  0
ENDTAB
  0
TABLE
  2
APPID
  5
9
330
0
100
AcDbSymbolTable
 70
     2
  0
APPID
  5
12
330
9
100
AcDbSymbolTableRecord
100
AcDbRegAppTableRecord
  2
ACAD
 70
     0
  0
APPID
  5
29F
330
9
100
AcDbSymbolTableRecord
100
AcDbRegAppTableRecord
  2
ACAD_MLEADERVER
 70
     0
  0
ENDTAB
  0
TABLE
  2
DIMSTYLE
  5
A
330
0
100
AcDbSymbolTable
 70
     1
100
AcDbDimStyleTable
  0
DIMSTYLE
105
27
330
A
100
AcDbSymbolTableRecord
100
AcDbDimStyleTableRecord
  2
ISO-25
 70
     0
 41
2.5
 42
0.625
 43
3.75
 44
1.25
 73
     0
 74
     0
 77
     1
 78
     8
140
2.5
141
2.5
143
0.0393700787
147
0.625
171
     3
172
     1
178
     0
271
     2
272
     2
274
     3
278
    44
283
     0
284
     8
340
11
  0
ENDTAB
  0
TABLE
  2
BLOCK_RECORD
  5
1
330
0
100
AcDbSymbolTable
 70
    10
  0
BLOCK_RECORD
  5
1F
330
1
100
AcDbSymbolTableRecord
100
AcDbBlockTableRecord
  2
*Model_Space
340
22
 70
     0
280
     1
281
     0
  0
BLOCK_RECORD
  5
1B
330
1
100
AcDbSymbolTableRecord
100
AcDbBlockTableRecord
  2
*Paper_Space
340
1E
 70
     0
280
     1
281
     0
  0
BLOCK_RECORD
  5
6F
330
1
100
AcDbSymbolTableRecord
100
AcDbBlockTableRecord
  2
SEANNOT_GROUP
340
0
102
{BLKREFS
331
70
102
}
 70
     0
280
     1
281
     0
  0
BLOCK_RECORD
  5
75
330
1
100
AcDbSymbolTableRecord
100
AcDbBlockTableRecord
  2
SEANNOT_GROUP1
340
0
102
{BLKREFS
331
76
102
}
 70
     0
280
     1
281
     0
  0
BLOCK_RECORD
  5
7B
330
1
100
AcDbSymbolTableRecord
100
AcDbBlockTableRecord
  2
SEANNOT_GROUP2
340
0
102
{BLKREFS
331
7C
102
}
 70
     0
280
     1
281
     0
  0
BLOCK_RECORD
  5
81
330
1
100
AcDbSymbolTableRecord
100
AcDbBlockTableRecord
  2
SEANNOT_GROUP3
340
0
102
{BLKREFS
331
82
102
}
 70
     0
280
     1
281
     0
  0
BLOCK_RECORD
  5
87
330
1
100
AcDbSymbolTableRecord
100
AcDbBlockTableRecord
  2
SEANNOT_GROUP4
340
0
102
{BLKREFS
331
88
102
}
 70
     0
280
     1
281
     0
  0
BLOCK_RECORD
  5
91
330
1
100
AcDbSymbolTableRecord
100
AcDbBlockTableRecord
  2
SEANNOT_GROUP5
340
0
102
{BLKREFS
331
92
102
}
 70
     0
280
     1
281
     0
  0
BLOCK_RECORD
  5
97
330
1
100
AcDbSymbolTableRecord
100
AcDbBlockTableRecord
  2
SE
340
0
102
{BLKREFS
331
98
102
}
 70
     0
280
     1
281
     0
  0
BLOCK_RECORD
  5
156
330
1
100
AcDbSymbolTableRecord
100
AcDbBlockTableRecord
  2
SE1
340
0
102
{BLKREFS
331
157
102
}
 70
     0
280
     1
281
     0
  0
BLOCK_RECORD
  5
235
330
1
100
AcDbSymbolTableRecord
100
AcDbBlockTableRecord
  2
SE2
340
0
102
{BLKREFS
331
236
102
}
 70
     0
280
     1
281
     0
  0
ENDTAB
  0
ENDSEC
  0
SECTION
  2
BLOCKS
  0
BLOCK
  5
20
330
1F
100
AcDbEntity
  8
0
100
AcDbBlockBegin
  2
*Model_Space
 70
     0
 10
0.0
 20
0.0
 30
0.0
  3
*Model_Space
  1

  0
ENDBLK
  5
21
330
1F
100
AcDbEntity
  8
0
100
AcDbBlockEnd
  0
BLOCK
  5
1C
330
1B
100
AcDbEntity
 67
     1
  8
0
100
AcDbBlockBegin
  2
*Paper_Space
 70
     0
 10
0.0
 20
0.0
 30
0.0
  3
*Paper_Space
  1

  0
ENDBLK
  5
1D
330
1B
100
AcDbEntity
 67
     1
  8
0
100
AcDbBlockEnd
  0
BLOCK
  5
73
330
6F
100
AcDbEntity
  8
0
100
AcDbBlockBegin
  2
SEANNOT_GROUP
 70
     0
 10
0.0
 20
0.0
 30
0.0
  3
SEANNOT_GROUP
  1

  0
LINE
  5
71
330
6F
100
AcDbEntity
  8
Default
 62
   136
100
AcDbLine
 10
110.745542357
 20
705.8278111905
 30
0.0
 11
70.7455432511
 21
705.8278111905
 31
0.0
  0
LINE
  5
72
330
6F
100
AcDbEntity
  8
Default
 62
   136
100
AcDbLine
 10
90.7455428041
 20
725.8278107435
 30
0.0
 11
90.7455428041
 21
685.8278116375
 31
0.0
  0
ENDBLK
  5
74
330
6F
100
AcDbEntity
  8
0
100
AcDbBlockEnd
  0
BLOCK
  5
79
330
75
100
AcDbEntity
  8
0
100
AcDbBlockBegin
  2
SEANNOT_GROUP1
 70
     0
 10
0.0
 20
0.0
 30
0.0
  3
SEANNOT_GROUP1
  1

  0
LINE
  5
77
330
75
100
AcDbEntity
  8
Default
 62
   136
100
AcDbLine
 10
110.7099070639
 20
487.4814672822
 30
0.0
 11
70.709907958
 21
487.4814672822
 31
0.0
  0
LINE
  5
78
330
75
100
AcDbEntity
  8
Default
 62
   136
100
AcDbLine
 10
90.7099075109
 20
507.4814668351
 30
0.0
 11
90.7099075109
 21
467.4814677292
 31
0.0
  0
ENDBLK
  5
7A
330
75
100
AcDbEntity
  8
0
100
AcDbBlockEnd
  0
BLOCK
  5
7F
330
7B
100
AcDbEntity
  8
0
100
AcDbBlockBegin
  2
SEANNOT_GROUP2
 70
     0
 10
0.0
 20
0.0
 30
0.0
  3
SEANNOT_GROUP2
  1

  0
LINE
  5
7D
330
7B
100
AcDbEntity
  8
Default
 62
   136
100
AcDbLine
 10
329.0006501793
 20
487.4827738855
 30
0.0
 11
289.0006510733
 21
487.4827738855
 31
0.0
  0
LINE
  5
7E
330
7B
100
AcDbEntity
  8
Default
 62
   136
100
AcDbLine
 10
309.0006506263
 20
507.4827734385
 30
0.0
 11
309.0006506263
 21
467.4827743326
 31
0.0
  0
ENDBLK
  5
80
330
7B
100
AcDbEntity
  8
0
100
AcDbBlockEnd
  0
BLOCK
  5
85
330
81
100
AcDbEntity
  8
0
100
AcDbBlockBegin
  2
SEANNOT_GROUP3
 70
     0
 10
0.0
 20
0.0
 30
0.0
  3
SEANNOT_GROUP3
  1

  0
LINE
  5
83
330
81
100
AcDbEntity
  8
Default
 62
   136
100
AcDbLine
 10
561.9170163298
 20
705.8260980974
 30
0.0
 11
521.9170172238
 21
705.8260980974
 31
0.0
  0
LINE
  5
84
330
81
100
AcDbEntity
  8
Default
 62
   136
100
AcDbLine
 10
541.9170167768
 20
725.8260976503
 30
0.0
 11
541.9170167768
 21
685.8260985444
 31
0.0
  0
ENDBLK
  5
86
330
81
100
AcDbEntity
  8
0
100
AcDbBlockEnd
  0
BLOCK
  5
8F
330
87
100
AcDbEntity
  8
0
100
AcDbBlockBegin
  2
SEANNOT_GROUP4
 70
     0
 10
0.0
 20
0.0
 30
0.0
  3
SEANNOT_GROUP4
  1

  0
LINE
  5
89
330
87
100
AcDbEntity
  8
Default
 62
   136
100
AcDbLine
 10
110.7046433627
 20
140.1326126542
 30
0.0
 11
70.7046442568
 21
140.1326126542
 31
0.0
  0
LINE
  5
8A
330
87
100
AcDbEntity
  8
Default
 62
   136
100
AcDbLine
 10
90.7046438097
 20
160.1326122072
 30
0.0
 11
90.7046438097
 21
120.1326131012
 31
0.0
  0
LINE
  5
8B
330
87
100
AcDbEntity
  8
Default
 62
   136
100
AcDbLine
 10
115.7046423196
 20
140.1326126542
 30
0.0
 11
127.9464750789
 21
140.1326126542
 31
0.0
  0
LINE
  5
8C
330
87
100
AcDbEntity
  8
Default
 62
   136
100
AcDbLine
 10
90.7046438097
 20
165.1326111641
 30
0.0
 11
90.7046438097
 21
177.3744439233
 31
0.0
  0
LINE
  5
8D
330
87
100
AcDbEntity
  8
Default
 62
   136
100
AcDbLine
 10
65.7046452999
 20
140.1326126542
 30
0.0
 11
53.4628125406
 21
140.1326126542
 31
0.0
  0
LINE
  5
8E
330
87
100
AcDbEntity
  8
Default
 62
   136
100
AcDbLine
 10
90.7046438097
 20
115.1326141443
 30
0.0
 11
90.7046438097
 21
102.8907813851
 31
0.0
  0
ENDBLK
  5
90
330
87
100
AcDbEntity
  8
0
100
AcDbBlockEnd
  0
BLOCK
  5
95
330
91
100
AcDbEntity
  8
0
100
AcDbBlockBegin
  2
SEANNOT_GROUP5
 70
     0
 10
0.0
 20
0.0
 30
0.0
  3
SEANNOT_GROUP5
  1

  0
LINE
  5
93
330
91
100
AcDbEntity
  8
Default
 62
   136
100
AcDbLine
 10
110.6987017392
 20
372.9185898064
 30
0.0
 11
70.6987026333
 21
372.9185898064
 31
0.0
  0
LINE
  5
94
330
91
100
AcDbEntity
  8
Default
 62
   136
100
AcDbLine
 10
90.6987021862
 20
392.9185893594
 30
0.0
 11
90.6987021862
 21
352.9185902534
 31
0.0
  0
ENDBLK
  5
96
330
91
100
AcDbEntity
  8
0
100
AcDbBlockEnd
  0
BLOCK
  5
154
330
97
100
AcDbEntity
  8
0
100
AcDbBlockBegin
  2
SE
 70
     0
 10
0.0
 20
0.0
 30
0.0
  3
SE
  1

  0
LINE
  5
9A
330
97
100
AcDbEntity
  8
DV1_Default
 62
     7
100
AcDbLine
 10
76.2097533948
 20
692.9814672822
 30
0.0
 11
105.2103347036
 21
692.9814672822
 31
0.0
  0
SPLINE
  5
9B
330
97
100
AcDbEntity
  8
DV1_Default
 62
     7
100
AcDbSpline
210
0.0
220
0.0
230
1.0
 70
     8
 71
     3
 72
    18
 73
    14
 74
     0
 42
0.000000001
 43
0.0000000001
 40
0.0
 40
0.0
 40
0.0
 40
0.0
 40
0.0492249821014314
 40
0.1075898177930494
 40
0.1721326578230004
 40
0.2423738645213644
 40
0.3178267194326518
 40
0.3980001851984687
 40
0.4824005652683946
 40
0.6044428758232403
 40
0.7322502885671826
 40
0.8645323349201754
 40
1.0
 40
1.0
 40
1.0
 40
1.0
 10
75.70239299224745
 20
692.482427708437
 30
0.0
 10
75.66717949743048
 20
688.870965064053
 30
0.0
 10
75.59633018655093
 20
682.2040565367889
 30
0.0
 10
75.1141541333255
 20
670.492248027513
 30
0.0
 10
74.40580007692219
 20
657.704426917548
 30
0.0
 10
73.46130113906315
 20
643.6899879796767
 30
0.0
 10
72.32528785415288
 20
628.6746423394275
 30
0.0
 10
71.02378297371914
 20
612.7145333210021
 30
0.0
 10
69.39699105965686
 20
593.6728644286482
 30
0.0
 10
67.43699859204908
 20
571.4330616720874
 30
0.0
 10
65.20077160886956
 20
546.1752578062768
 30
0.0
 10
62.8684334157604
 20
519.3782746727762
 30
0.0
 10
61.51929504935136
 20
502.8877122207602
 30
0.0
 10
60.70990729534726
 20
492.9814672821706
 30
0.0
  0
SPLINE
  5
9C
330
97
100
AcDbEntity
  8
DV1_Default
 62
     7
100
AcDbSpline
210
0.0
220
0.0
230
1.0
 70
     8
 71
     3
 72
    15
 73
    11
 74
     0
 42
0.000000001
 43
0.0000000001
 40
0.0
 40
0.0
 40
0.0
 40
0.0
 40
0.1437048322252846
 40
0.325734046699229
 40
0.4607705839237782
 40
0.5879977321018551
 40
0.7067038148099664
 40
0.8161838877057139
 40
0.9157436620975565
 40
1.0
 40
1.0
 40
1.0
 40
1.0
 10
112.6457823367563
 20
586.683753734713
 30
0.0
 10
112.1574857898129
 20
592.2503969909764
 30
0.0
 10
111.2262368458359
 20
602.912220555234
 30
0.0
 10
109.8308633734536
 20
619.5105947518905
 30
0.0
 10
108.5990391514494
 20
635.0911364597696
 30
0.0
 10
107.6205377127831
 20
648.5345598598898
 30
0.0
 10
106.813658180656
 20
661.0892090551159
 30
0.0
 10
106.2113524537739
 20
672.5926913259264
 30
0.0
 10
105.8049899530061
 20
683.1696972256144
 30
0.0
 10
105.7460202750198
 20
689.2061968695327
 30
0.0
 10
105.7168533245025
 20
692.4824076265104
 30
0.0
  0
SPLINE
  5
9D
330
97
100
AcDbEntity
  8
DV1_Default
 62
     7
100
AcDbSpline
210
0.0
220
0.0
230
1.0
 70
     8
 71
     3
 72
     8
 73
     4
 74
     0
 42
0.000000001
 43
0.0000000001
 40
0.0
 40
0.0
 40
0.0
 40
0.0
 40
1.0
 40
1.0
 40
1.0
 40
1.0
 10
120.7099078191021
 20
492.9814672821706
 30
0.0
 10
119.4729637986831
 20
508.2879954994351
 30
0.0
 10
118.353906799115
 20
521.6385594816655
 30
0.0
 10
117.3527368203976
 20
533.033159228862
 30
0.0
  0
ARC
  5
9E
330
97
100
AcDbEntity
  8
DV1_Default
 62
     7
100
AcDbCircle
 10
115.4452883457
 20
586.7829434135
 30
0.0
 40
2.80555331474547
100
AcDbArc
 50
182.0340401635
 51
272.9716169852
  0
SPLINE
  5
9F
330
97
100
AcDbEntity
  8
DV1_Default
 62
     7
100
AcDbSpline
210
0.0
220
0.0
230
1.0
 70
     8
 71
     3
 72
    13
 73
     9
 74
     0
 42
0.000000001
 43
0.0000000001
 40
0.0
 40
0.0
 40
0.0
 40
0.0
 40
0.2665682207771616
 40
0.3855877861194155
 40
0.5000000000015566
 40
0.614412213883304
 40
0.7334317792245828
 40
1.0
 40
1.0
 40
1.0
 40
1.0
 10
117.3581465928085
 20
533.0336030914528
 30
0.0
 10
117.3551931871487
 20
533.4780977557176
 30
0.0
 10
117.3671875989201
 20
534.0306138197938
 30
0.0
 10
117.676204842318
 20
534.7408746820703
 30
0.0
 10
117.9877393290841
 20
535.1699831616733
 30
0.0
 10
118.3883831239035
 20
535.5173624549287
 30
0.0
 10
119.0693489709428
 20
535.8864798676306
 30
0.0
 10
119.6187723051036
 20
535.9460774083029
 30
0.0
 10
120.0618657331635
 20
535.9814672821706
 30
0.0
  0
SPLINE
  5
A0
330
97
100
AcDbEntity
  8
DV1_Default
 62
     7
100
AcDbSpline
210
0.0
220
0.0
230
1.0
 70
     8
 71
     3
 72
    11
 73
     7
 74
     0
 42
0.000000001
 43
0.0000000001
 40
0.0
 40
0.0
 40
0.0
 40
0.0
 40
0.2543925345796708
 40
0.4999999999998744
 40
0.7456074654201619
 40
1.0
 40
1.0
 40
1.0
 40
1.0
 10
105.7103339803117
 20
692.4823177604196
 30
0.0
 10
105.7030341549415
 20
692.5546715235739
 30
0.0
 10
105.6867589161518
 20
692.6773516624205
 30
0.0
 10
105.5721853098188
 20
692.843933904858
 30
0.0
 10
105.4054084236438
 20
692.9582239962979
 30
0.0
 10
105.2827007787962
 20
692.9742905379641
 30
0.0
 10
105.2103347036254
 20
692.9814672821706
 30
0.0
  0
SPLINE
  5
A1
330
97
100
AcDbEntity
  8
DV1_Default
 62
     7
100
AcDbSpline
210
0.0
220
0.0
230
1.0
 70
     8
 71
     3
 72
    11
 73
     7
 74
     0
 42
0.000000001
 43
0.0000000001
 40
0.0
 40
0.0
 40
0.0
 40
0.0
 40
0.2543903265354275
 40
0.4999969235188129
 40
0.7456052551669103
 40
1.0
 40
1.0
 40
1.0
 40
1.0
 10
76.20975339482305
 20
692.9814672821706
 30
0.0
 10
76.13738864952596
 20
692.9742904786513
 30
0.0
 10
76.01468285391958
 20
692.9582238658376
 30
0.0
 10
75.84790907332497
 20
692.8439333681627
 30
0.0
 10
75.73333803327903
 20
692.6773511619856
 30
0.0
 10
75.71706317387863
 20
692.5546714887079
 30
0.0
 10
75.70976354597857
 20
692.4823177604255
 30
0.0
  0
LINE
  5
A2
330
97
100
AcDbEntity
  8
DV1_Default
 62
     7
100
AcDbLine
 10
120.0618738913
 20
535.9813037914
 30
0.0
 11
128.5099075109
 21
535.9813037914
 31
0.0
  0
LINE
  5
A3
330
97
100
AcDbEntity
  8
DV1_Default
 62
     7
100
AcDbLine
 10
128.5099075109
 20
583.9814621039
 30
0.0
 11
115.5898068287
 21
583.9814621039
 31
0.0
  0
ARC
  5
A4
330
97
100
AcDbEntity
  8
DV1_Default
 62
     7
100
AcDbCircle
 10
60.9265696204
 20
493.1814672822
 30
0.0
 40
0.2000000000000006
100
AcDbArc
 50
175.4186019066
 51
178.6904099229
  0
ARC
  5
A5
330
97
100
AcDbEntity
  8
DV1_Default
 62
     7
100
AcDbCircle
 10
120.493245494
 20
493.1814672822
 30
0.0
 40
0.2
100
AcDbArc
 50
2.3718858864
 51
4.5813980934
  0
LINE
  5
A6
330
97
100
AcDbEntity
  8
DV1_Default
 62
     7
100
AcDbLine
 10
75.7083267111
 20
693.4814672822
 30
0.0
 11
105.7099868215
 21
693.4814672822
 31
0.0
  0
ARC
  5
A7
330
97
100
AcDbEntity
  8
DV1_Default
 62
     7
100
AcDbCircle
 10
-58295.9209179329
 20
787.3945854479
 30
0.0
 40
58401.70641350241
100
AcDbArc
 50
359.9078652327
 51
359.9200433296
  0
ARC
  5
A8
330
97
100
AcDbEntity
  8
DV1_Default
 62
     7
100
AcDbCircle
 10
-58295.9209179329
 20
787.3945854479
 30
0.0
 40
58401.70641350241
100
AcDbArc
 50
0.0893078029
 51
0.0898844959
  0
ARC
  5
A9
330
97
100
AcDbEntity
  8
DV1_Default
 62
     7
100
AcDbCircle
 10
2188.0026715646
 20
882.7079229932
 30
0.0
 40
2082.283007575365
100
AcDbArc
 50
180.1204725948
 51
181.7871104452
  0
SPLINE
  5
AA
330
97
100
AcDbEntity
  8
DV1_Default
 62
     7
100
AcDbSpline
210
0.0
220
0.0
230
1.0
 70
     8
 71
     3
 72
    22
 73
    18
 74
     0
 42
0.000000001
 43
0.0000000001
 40
0.0
 40
0.0
 40
0.0
 40
0.0
 40
0.1063431052329582
 40
0.1955035495831653
 40
0.2668511151702092
 40
0.321339945830645
 40
0.364053964880805
 40
0.4044941284121676
 40
0.4825771476311221
 40
0.5572234890557849
 40
0.598288202582687
 40
0.6514341174142876
 40
0.7182343190469312
 40
0.7989669480160373
 40
0.8931355493237441
 40
0.9450660063848203
 40
1.0
 40
1.0
 40
1.0
 40
1.0
 10
105.725014037624
 20
878.1932918600739
 30
0.0
 10
105.6577419431311
 20
879.7210873479073
 30
0.0
 10
105.4998725360286
 20
882.094147515905
 30
0.0
 10
104.3729214449081
 20
885.527486600008
 30
0.0
 10
102.8259607942648
 20
888.1640611182997
 30
0.0
 10
100.9651919327127
 20
890.2441177806335
 30
0.0
 10
98.83307657926163
 20
891.8709306381534
 30
0.0
 10
96.12596824676878
 20
893.307204641191
 30
0.0
 10
92.51745232479927
 20
894.2843645750612
 30
0.0
 10
88.77670490809625
 20
894.1803936384438
 30
0.0
 10
85.65986251684765
 20
893.3833725983844
 30
0.0
 10
83.10444166281528
 20
892.2110138248664
 30
0.0
 10
80.45351357238673
 20
890.2401501234975
 30
0.0
 10
78.00139829275601
 20
887.2578488348053
 30
0.0
 10
76.52514777310948
 20
883.9838114004557
 30
0.0
 10
75.8077143436782
 20
880.787335294125
 30
0.0
 10
75.73149125995221
 20
879.1823772173983
 30
0.0
 10
75.69555861858792
 20
878.203708713583
 30
0.0
  0
ARC
  5
AB
330
97
100
AcDbEntity
  8
DV1_Default
 62
     7
100
AcDbCircle
 10
-1870.0083313431
 20
880.5033944703
 30
0.0
 40
1945.705693623788
100
AcDbArc
 50
358.1047666475
 51
359.9358178884
  0
ARC
  5
AC
330
97
100
AcDbEntity
  8
DV1_Default
 62
     7
100
AcDbCircle
 10
87246.0943024968
 20
787.6950770564
 30
0.0
 40
87170.43688872806
100
AcDbArc
 50
179.9399601676
 51
179.9404560483
  0
ARC
  5
AD
330
97
100
AcDbEntity
  8
DV1_Default
 62
     7
100
AcDbCircle
 10
87246.0943024968
 20
787.6950770564
 30
0.0
 40
87170.43688872806
100
AcDbArc
 50
180.0537637699
 51
180.0619251601
  0
LINE
  5
AE
330
97
100
AcDbEntity
  8
DV1_Default
 62
     7
100
AcDbLine
 10
135.5099075109
 20
583.781459178
 30
0.0
 11
135.5099075109
 21
536.1813008656
 31
0.0
  0
LINE
  5
AF
330
97
100
AcDbEntity
  8
DV1_Default
 62
     7
100
AcDbLine
 10
170.1532567635
 20
583.981459178
 30
0.0
 11
135.7099075109
 21
583.981459178
 31
0.0
  0
LINE
  5
B0
330
97
100
AcDbEntity
  8
DV1_Default
 62
     7
100
AcDbLine
 10
135.7099075109
 20
535.9813008656
 30
0.0
 11
146.1420430054
 21
535.9813008656
 31
0.0
  0
ARC
  5
B1
330
97
100
AcDbEntity
  8
DV1_Default
 62
     7
100
AcDbCircle
 10
135.7099075109
 20
583.78145986
 30
0.0
 40
0.200000000000089
100
AcDbArc
 50
90.0
 51
180.0001953583
  0
ARC
  5
B2
330
97
100
AcDbEntity
  8
DV1_Default
 62
     7
100
AcDbCircle
 10
135.7099075109
 20
536.1813008656
 30
0.0
 40
0.200000000000089
100
AcDbArc
 50
180.0
 51
270.0
  0
LINE
  5
B3
330
97
100
AcDbEntity
  8
DV1_Default
 62
     7
100
AcDbLine
 10
185.4179973998
 20
547.8301060681
 30
0.0
 11
185.4180941064
 21
547.8302096073
 31
0.0
  0
SPLINE
  5
B4
330
97
100
AcDbEntity
  8
DV1_Default
 62
     7
100
AcDbSpline
210
0.0
220
0.0
230
1.0
 70
     8
 71
     3
 72
    11
 73
     7
 74
     0
 42
0.000000001
 43
0.0000000001
 40
0.0
 40
0.0
 40
0.0
 40
0.0
 40
0.1410831789090544
 40
0.3449201736380967
 40
0.8110891368916062
 40
1.0
 40
1.0
 40
1.0
 40
1.0
 10
171.0343212820253
 20
654.4985660210083
 30
0.0
 10
171.747436439495
 20
649.216802120005
 30
0.0
 10
173.397575917151
 20
636.9940052816896
 30
0.0
 10
177.2787874360005
 20
608.2293800075716
 30
0.0
 10
181.3860302032495
 20
577.7561280642307
 30
0.0
 10
184.5155199690194
 20
554.5284639982538
 30
0.0
 10
185.4179964755605
 20
547.8301054953602
 30
0.0
  0
ARC
  5
B5
330
97
100
AcDbEntity
  8
DV1_Default
 62
     7
100
AcDbCircle
 10
167.9833026713
 20
654.6653925327
 30
0.0
 40
2.949560624864326
100
AcDbArc
 50
21.6499177804
 51
118.6752875111
  0
LINE
  5
B6
330
97
100
AcDbEntity
  8
DV1_Default
 62
     7
100
AcDbLine
 10
166.525821473
 20
657.2319040878
 30
0.0
 11
166.5691215103
 21
657.2525207785
 31
0.0
  0
ARC
  5
B7
330
97
100
AcDbEntity
  8
DV1_Default
 62
     7
100
AcDbCircle
 10
166.7555129035
 20
654.108938945
 30
0.0
 40
4.29651142194678
100
AcDbArc
 50
5.2029882378
 51
22.5064148441
  0
ARC
  5
B8
330
97
100
AcDbEntity
  8
DV1_Default
 62
     7
100
AcDbCircle
 10
112.5662178821
 20
538.7469412572
 30
0.0
 40
73.41583968601253
100
AcDbArc
 50
0.9988294638
 51
7.1069665324
  0
SPLINE
  5
B9
330
97
100
AcDbEntity
  8
DV1_Default
 62
     7
100
AcDbSpline
210
0.0
220
0.0
230
1.0
 70
     8
 71
     3
 72
    13
 73
     9
 74
     0
 42
0.000000001
 43
0.0000000001
 40
0.0
 40
0.0
 40
0.0
 40
0.0
 40
0.1634114631255912
 40
0.3536514836631356
 40
0.4687969654032251
 40
0.6744850790333862
 40
0.985092470363845
 40
1.0
 40
1.0
 40
1.0
 40
1.0
 10
185.9709021410922
 20
540.0267246941753
 30
0.0
 10
185.9702163744905
 20
539.8737672159331
 30
0.0
 10
185.9687322535036
 20
539.5427400160082
 30
0.0
 10
185.9571425015174
 20
539.1424937575866
 30
0.0
 10
185.9376924304541
 20
538.7349977593137
 30
0.0
 10
185.9036955012998
 20
538.2750688799327
 30
0.0
 10
185.8617492868953
 20
537.9501161255897
 30
0.0
 10
185.8310429440346
 20
537.7768152672744
 30
0.0
 10
185.8296262254826
 20
537.7689330064275
 30
0.0
  0
LINE
  5
BA
330
97
100
AcDbEntity
  8
DV1_Default
 62
     7
100
AcDbLine
 10
184.4302419339
 20
535.8638116397
 30
0.0
 11
154.7489766272
 21
535.9961264108
 31
0.0
  0
SPLINE
  5
BB
330
97
100
AcDbEntity
  8
DV1_Default
 62
     7
100
AcDbSpline
210
0.0
220
0.0
230
1.0
 70
     8
 71
     3
 72
     8
 73
     4
 74
     0
 42
0.000000001
 43
0.0000000001
 40
0.0
 40
0.0
 40
0.0
 40
0.0
 40
1.0
 40
1.0
 40
1.0
 40
1.0
 10
163.9121621888679
 20
653.9821965792279
 30
0.0
 10
163.9121343923701
 20
653.91412483867
 30
0.0
 10
163.9150745249748
 20
653.845954401235
 30
0.0
 10
163.9209754118409
 20
653.777753662613
 30
0.0
  0
ARC
  5
BC
330
97
100
AcDbEntity
  8
DV1_Default
 62
     7
100
AcDbCircle
 10
184.4425704072
 20
536.8342924606
 30
0.0
 40
0.9705667607842126
100
AcDbArc
 50
269.272187607
 51
323.1432255268
  0
ARC
  5
BD
330
97
100
AcDbEntity
  8
DV1_Default
 62
     7
100
AcDbCircle
 10
166.4837634306
 20
654.0300684707
 30
0.0
 40
2.573496328413829
100
AcDbArc
 50
154.4127758007
 51
180.6772668547
  0
SPLINE
  5
BE
330
97
100
AcDbEntity
  8
DV1_Default
 62
     7
100
AcDbSpline
210
0.0
220
0.0
230
1.0
 70
     8
 71
     3
 72
     8
 73
     4
 74
     0
 42
0.000000001
 43
0.0000000001
 40
0.0
 40
0.0
 40
0.0
 40
0.0
 40
1.0
 40
1.0
 40
1.0
 40
1.0
 10
166.523140210507
 20
657.2296507586925
 30
0.0
 10
165.1578804904901
 20
656.4121642933447
 30
0.0
 10
164.376888086112
 20
655.7183912168065
 30
0.0
 10
164.1626528456864
 20
655.1415220256447
 30
0.0
  0
LINE
  5
BF
330
97
100
AcDbEntity
  8
DV1_Default
 62
     7
100
AcDbLine
 10
163.9229303551
 20
653.76761562
 30
0.0
 11
170.1532567635
 21
583.981459178
 31
0.0
  0
LINE
  5
C0
330
97
100
AcDbEntity
  8
DV1_Default
 62
     7
100
AcDbLine
 10
105.1753836524
 20
692.9814672822
 30
0.0
 11
76.2099075109
 21
692.9814672822
 31
0.0
  0
LINE
  5
C1
330
97
100
AcDbEntity
  8
DV1_Default
 62
     7
100
AcDbLine
 10
105.1753836524
 20
693.4814672822
 30
0.0
 11
76.2099075109
 21
693.4814672822
 31
0.0
  0
LINE
  5
C2
330
97
100
AcDbEntity
  8
DV1_Default
 62
     7
100
AcDbLine
 10
105.1753836524
 20
692.9814672822
 30
0.0
 11
105.1753836524
 21
693.4814672822
 31
0.0
  0
LINE
  5
C3
330
97
100
AcDbEntity
  8
DV1_Default
 62
     7
100
AcDbLine
 10
76.2099075109
 20
693.4814672822
 30
0.0
 11
76.2099075109
 21
692.9814672822
 31
0.0
  0
LINE
  5
C4
330
97
100
AcDbEntity
  8
DV1_Default
 62
     7
100
AcDbLine
 10
121.0599075109
 20
487.9814672822
 30
0.0
 11
120.7099078191
 21
492.9814672822
 31
0.0
  0
LINE
  5
C5
330
97
100
AcDbEntity
  8
DV1_Default
 62
     7
100
AcDbLine
 10
60.7099072953
 20
492.9814672822
 30
0.0
 11
60.3599075109
 21
487.9814672822
 31
0.0
  0
LINE
  5
C6
330
97
100
AcDbEntity
  8
DV1_Default
 62
     7
100
AcDbLine
 10
121.0599075109
 20
487.4814672822
 30
0.0
 11
60.3599075109
 21
487.4814672822
 31
0.0
  0
LINE
  5
C7
330
97
100
AcDbEntity
  8
DV1_Default
 62
     7
100
AcDbLine
 10
121.0599075109
 20
487.4814672822
 30
0.0
 11
121.0599075109
 21
487.9814672822
 31
0.0
  0
LINE
  5
C8
330
97
100
AcDbEntity
  8
DV1_Default
 62
     7
100
AcDbLine
 10
60.3599075109
 20
487.9814672822
 30
0.0
 11
60.3599075109
 21
487.4814672822
 31
0.0
  0
ARC
  5
C9
330
97
100
AcDbEntity
  8
DV1_Default
 62
     7
100
AcDbCircle
 10
91.0763991108
 20
700.3549639731
 30
0.0
 40
6.769553949752642
100
AcDbArc
 50
82.1973076863
 51
92.8674671839
  0
SPLINE
  5
CA
330
97
100
AcDbEntity
  8
DV1_Default
 62
     7
100
AcDbSpline
210
0.0
220
0.0
230
1.0
 70
     8
 71
     3
 72
    12
 73
     8
 74
     0
 42
0.000000001
 43
0.0000000001
 40
0.0
 40
0.0
 40
0.0
 40
0.0
 40
0.0004252413248024
 40
0.3294925809308313
 40
0.6592362339261502
 40
0.8025135366953141
 40
1.0
 40
1.0
 40
1.0
 40
1.0
 10
109.1397629017925
 20
707.1033056900977
 30
0.0
 10
109.1397649527622
 20
707.1033188388649
 30
0.0
 10
109.1411786507782
 20
707.1135014022249
 30
0.0
 10
108.8718548374906
 20
707.1252053486018
 30
0.0
 10
108.0808273390191
 20
707.1109069294514
 30
0.0
 10
107.4254645550408
 20
707.0868434354088
 30
0.0
 10
107.1597950791076
 20
707.0724893600243
 30
0.0
 10
107.0058499604743
 20
707.0641705894744
 30
0.0
  0
SPLINE
  5
CB
330
97
100
AcDbEntity
  8
DV1_Default
 62
     7
100
AcDbSpline
210
0.0
220
0.0
230
1.0
 70
     8
 71
     3
 72
    11
 73
     7
 74
     0
 42
0.000000001
 43
0.0000000001
 40
0.0
 40
0.0
 40
0.0
 40
0.0
 40
0.312500656872261
 40
0.5851499038818674
 40
0.8178815999756706
 40
1.0
 40
1.0
 40
1.0
 40
1.0
 10
103.4703129532858
 20
706.866551298205
 30
0.0
 10
103.4030303144134
 20
706.8630047225771
 30
0.0
 10
103.2770791709577
 20
706.8563638456957
 30
0.0
 10
103.1666763839913
 20
706.8476476665071
 30
0.0
 10
103.1139467812857
 20
706.8407995482211
 30
0.0
 10
103.1039820374264
 20
706.837139722138
 30
0.0
 10
103.1041967771004
 20
706.83564600053
 30
0.0
  0
LINE
  5
CC
330
97
100
AcDbEntity
  8
DV1_Default
 62
     7
100
AcDbLine
 10
107.005828811
 20
707.0641705895
 30
0.0
 11
103.4702948126
 21
706.8665512982
 31
0.0
  0
SPLINE
  5
CD
330
97
100
AcDbEntity
  8
DV1_Default
 62
     7
100
AcDbSpline
210
0.0
220
0.0
230
1.0
 70
     8
 71
     3
 72
    11
 73
     7
 74
     0
 42
0.000000001
 43
0.0000000001
 40
0.0
 40
0.0
 40
0.0
 40
0.0
 40
0.1956265987788604
 40
0.5911590665575606
 40
0.7632296391575354
 40
0.9999999999999999
 40
0.9999999999999999
 40
0.9999999999999999
 40
0.9999999999999999
 10
114.3905478329261
 20
707.1154136554552
 30
0.0
 10
114.3907240679887
 20
707.1181284486494
 30
0.0
 10
114.3008880004725
 20
707.1226308430669
 30
0.0
 10
113.8173680550057
 20
707.1112719706975
 30
0.0
 10
113.174916251247
 20
707.0872415890572
 30
0.0
 10
112.8518526592173
 20
707.0728811272718
 30
0.0
 10
112.6647705675717
 20
707.0645646123619
 30
0.0
  0
LINE
  5
CE
330
97
100
AcDbEntity
  8
DV1_Default
 62
     7
100
AcDbLine
 10
112.6647581765
 20
707.0645646124
 30
0.0
 11
109.1428822513
 21
706.9138517318
 31
0.0
  0
SPLINE
  5
CF
330
97
100
AcDbEntity
  8
DV1_Default
 62
     7
100
AcDbSpline
210
0.0
220
0.0
230
1.0
 70
     8
 71
     3
 72
    10
 73
     6
 74
     0
 42
0.000000001
 43
0.0000000001
 40
0.0
 40
0.0
 40
0.0
 40
0.0
 40
0.0182285076164439
 40
0.4457141883562515
 40
1.0
 40
1.0
 40
1.0
 40
1.0
 10
116.2346563456623
 20
707.1190757566975
 30
0.0
 10
116.2350303135687
 20
707.1191024730273
 30
0.0
 10
116.2399037838346
 20
707.1195102637464
 30
0.0
 10
116.0140374613464
 20
707.1065608837504
 30
0.0
 10
115.3566965097434
 20
707.0794774212881
 30
0.0
 10
114.9855413605595
 20
707.0641855469602
 30
0.0
  0
LINE
  5
D0
330
97
100
AcDbEntity
  8
DV1_Default
 62
     7
100
AcDbLine
 10
114.9852572109
 20
707.0641738398
 30
0.0
 11
114.4024667127
 21
707.0411444413
 31
0.0
  0
SPLINE
  5
D1
330
97
100
AcDbEntity
  8
DV1_Default
 62
     7
100
AcDbSpline
210
0.0
220
0.0
230
1.0
 70
     8
 71
     3
 72
    12
 73
     8
 74
     0
 42
0.000000001
 43
0.0000000001
 40
0.0
 40
0.0
 40
0.0
 40
0.0
 40
0.1416246561744383
 40
0.4242507839697814
 40
0.7074280165940559
 40
0.8303377426109642
 40
0.9999999999999999
 40
0.9999999999999999
 40
0.9999999999999999
 40
0.9999999999999999
 10
101.2718586835103
 20
707.084453435443
 30
0.0
 10
101.2716546947034
 20
707.0910956060513
 30
0.0
 10
101.1796687165687
 20
707.1095636928335
 30
0.0
 10
100.5580581853998
 20
707.1241064259715
 30
0.0
 10
99.7033241968329
 20
707.1097617463523
 30
0.0
 10
99.13514616935457
 20
707.0856967686328
 30
0.0
 10
98.96722138493038
 20
707.0713585072576
 30
0.0
 10
98.86987877401596
 20
707.0630437610416
 30
0.0
  0
SPLINE
  5
D2
330
97
100
AcDbEntity
  8
DV1_Default
 62
     7
100
AcDbSpline
210
0.0
220
0.0
230
1.0
 70
     8
 71
     3
 72
     9
 73
     5
 74
     0
 42
0.000000001
 43
0.0000000001
 40
0.0
 40
0.0
 40
0.0
 40
0.0
 40
0.6248240278665612
 40
1.0
 40
1.0
 40
1.0
 40
1.0
 10
96.95646290924348
 20
706.8656384589023
 30
0.0
 10
96.92393364679528
 20
706.8620968620143
 30
0.0
 10
96.87193791650536
 20
706.856428711095
 30
0.0
 10
96.86044946761757
 20
706.8510588007343
 30
0.0
 10
96.86081638521391
 20
706.8490908227865
 30
0.0
  0
LINE
  5
D3
330
97
100
AcDbEntity
  8
DV1_Default
 62
     7
100
AcDbLine
 10
98.8698419379
 20
707.063043761
 30
0.0
 11
96.9564218285
 21
706.8656384589
 31
0.0
  0
LINE
  5
D4
330
97
100
AcDbEntity
  8
DV1_Default
 62
     7
100
AcDbLine
 10
89.4953983728
 20
707.0597641365
 30
0.0
 11
89.4953983727
 21
706.8631282629
 31
0.0
  0
ARC
  5
D5
330
97
100
AcDbEntity
  8
DV1_Default
 62
     7
100
AcDbCircle
 10
90.4493312538
 20
699.7421475287
 30
0.0
 40
7.379532627226869
100
AcDbArc
 50
87.7601318689
 51
97.4272635773
  0
SPLINE
  5
D6
330
97
100
AcDbEntity
  8
DV1_Default
 62
     7
100
AcDbSpline
210
0.0
220
0.0
230
1.0
 70
     8
 71
     3
 72
    13
 73
     9
 74
     0
 42
0.000000001
 43
0.0000000001
 40
0.0
 40
0.0
 40
0.0
 40
0.0
 40
0.1561360568068022
 40
0.2922361429871007
 40
0.4082676970317316
 40
0.5042036220565338
 40
0.9924807638233675
 40
1.0
 40
1.0
 40
1.0
 40
1.0
 10
66.48526233601154
 20
707.0603055931637
 30
0.0
 10
66.38372520392596
 20
707.0647174107531
 30
0.0
 10
66.19368051791987
 20
707.0729749047766
 30
0.0
 10
65.94302403499303
 20
707.0838260015815
 30
0.0
 10
65.74901832005226
 20
707.0924892239032
 30
0.0
 10
65.40379101955085
 20
707.1079213982305
 30
0.0
 10
65.2345837487639
 20
707.1151457409569
 30
0.0
 10
65.23526015846262
 20
707.1151145741046
 30
0.0
 10
65.2353029921797
 20
707.1151127085902
 30
0.0
  0
LINE
  5
D7
330
97
100
AcDbEntity
  8
DV1_Default
 62
     7
100
AcDbLine
 10
67.0914641439
 20
707.0362954455
 30
0.0
 11
66.485262336
 21
707.0603055932
 31
0.0
  0
SPLINE
  5
D8
330
97
100
AcDbEntity
  8
DV1_Default
 62
     7
100
AcDbSpline
210
0.0
220
0.0
230
1.0
 70
     8
 71
     3
 72
    13
 73
     9
 74
     0
 42
0.000000001
 43
0.0000000001
 40
0.0
 40
0.0
 40
0.0
 40
0.0
 40
0.1258980936374475
 40
0.2356207505837112
 40
0.3291416359102341
 40
0.4064388372089691
 40
0.800040486655453
 40
1.0
 40
1.0
 40
1.0
 40
1.0
 10
68.81340670429226
 20
707.0602450463047
 30
0.0
 10
68.71685773779981
 20
707.0646580524246
 30
0.0
 10
68.53614542240113
 20
707.0729170798995
 30
0.0
 10
68.26823112084523
 20
707.083770485795
 30
0.0
 10
68.04404925512078
 20
707.0924345504228
 30
0.0
 10
67.61173817397604
 20
707.1078709975037
 30
0.0
 10
67.17872873188946
 20
707.1180423478711
 30
0.0
 10
67.08760946528331
 20
707.1136202873931
 30
0.0
 10
67.08816770542548
 20
707.1108434923882
 30
0.0
  0
LINE
  5
D9
330
97
100
AcDbEntity
  8
DV1_Default
 62
     7
100
AcDbLine
 10
72.3482033637
 20
706.9096691099
 30
0.0
 11
68.8134168479
 21
707.0602450463
 31
0.0
  0
SPLINE
  5
DA
330
97
100
AcDbEntity
  8
DV1_Default
 62
     7
100
AcDbSpline
210
0.0
220
0.0
230
1.0
 70
     8
 71
     3
 72
    14
 73
    10
 74
     0
 42
0.000000001
 43
0.0000000001
 40
0.0
 40
0.0
 40
0.0
 40
0.0
 40
0.1051058550576468
 40
0.1966960024188007
 40
0.2747484097126998
 40
0.3392447468605848
 40
0.667771490446162
 40
0.9969715272831866
 40
1.0
 40
1.0
 40
1.0
 40
1.0
 10
74.47895487412475
 20
707.0601453648167
 30
0.0
 10
74.40210471926945
 20
707.0645590235334
 30
0.0
 10
74.25825156432644
 20
707.0728187824704
 30
0.0
 10
74.01385830219903
 20
707.0836728731433
 30
0.0
 10
73.79360974741842
 20
707.092336314813
 30
0.0
 10
73.3400160632925
 20
707.1077719468844
 30
0.0
 10
72.61498954595261
 20
707.1208866819051
 30
0.0
 10
72.35066687708786
 20
707.1091117349033
 30
0.0
 10
72.3450101536087
 20
707.0990036843159
 30
0.0
 10
72.34496919589384
 20
707.0989111988613
 30
0.0
  0
LINE
  5
DB
330
97
100
AcDbEntity
  8
DV1_Default
 62
     7
100
AcDbLine
 10
78.0143419084
 20
706.8633940787
 30
0.0
 11
74.4789736176
 21
707.0601453648
 31
0.0
  0
SPLINE
  5
DC
330
97
100
AcDbEntity
  8
DV1_Default
 62
     7
100
AcDbSpline
210
0.0
220
0.0
230
1.0
 70
     8
 71
     3
 72
     9
 73
     5
 74
     0
 42
0.000000001
 43
0.0000000001
 40
0.0
 40
0.0
 40
0.0
 40
0.0
 40
0.9997551247199037
 40
1.0
 40
1.0
 40
1.0
 40
1.0
 10
78.38055577444885
 20
706.8325912441202
 30
0.0
 10
78.37845920426378
 20
706.840716416986
 30
0.0
 10
78.23989311688922
 20
706.852285312938
 30
0.0
 10
78.01439711139713
 20
706.8633913590836
 30
0.0
 10
78.01434274445629
 20
706.8633940786799
 30
0.0
  0
SPLINE
  5
DD
330
97
100
AcDbEntity
  8
DV1_Default
 62
     7
100
AcDbSpline
210
0.0
220
0.0
230
1.0
 70
     8
 71
     3
 72
    15
 73
    11
 74
     0
 42
0.000000001
 43
0.0000000001
 40
0.0
 40
0.0
 40
0.0
 40
0.0
 40
0.0898774597515955
 40
0.1681986193777887
 40
0.2349446433129747
 40
0.290099860597331
 40
0.571038469439506
 40
0.8525501719811241
 40
0.974999414836637
 40
1.0
 40
1.0
 40
1.0
 40
1.0
 10
82.61937849730924
 20
707.0599954639598
 30
0.0
 10
82.57394998850717
 20
707.0644083576036
 30
0.0
 10
82.48888824892384
 20
707.0726667420795
 30
0.0
 10
82.3052526106196
 20
707.0835191909872
 30
0.0
 10
82.12244779019196
 20
707.0921815928546
 30
0.0
 10
81.71659389450683
 20
707.1076158670608
 30
0.0
 10
80.93541404882882
 20
707.1207336526535
 30
0.0
 10
80.3360626692223
 20
707.1064721851056
 30
0.0
 10
80.21516006455884
 20
707.0885469490815
 30
0.0
 10
80.2166286785789
 20
707.0818362786936
 30
0.0
 10
80.21793113767752
 20
707.0806850202993
 30
0.0
  0
LINE
  5
DE
330
97
100
AcDbEntity
  8
DV1_Default
 62
     7
100
AcDbLine
 10
84.5327309728
 20
706.8632747343
 30
0.0
 11
82.6194029853
 21
707.059995464
 31
0.0
  0
SPLINE
  5
DF
330
97
100
AcDbEntity
  8
DV1_Default
 62
     7
100
AcDbSpline
210
0.0
220
0.0
230
1.0
 70
     8
 71
     3
 72
     9
 73
     5
 74
     0
 42
0.000000001
 43
0.0000000001
 40
0.0
 40
0.0
 40
0.0
 40
0.0
 40
0.9995164431473178
 40
1.0
 40
1.0
 40
1.0
 40
1.0
 10
84.62484120433997
 20
706.8466376145934
 30
0.0
 10
84.62513845351747
 20
706.8519654174979
 30
0.0
 10
84.5942576973582
 20
706.8576774824879
 30
0.0
 10
84.53276069009621
 20
706.8632720290642
 30
0.0
 10
84.53273205822175
 20
706.8632747343456
 30
0.0
  0
LINE
  5
E0
330
97
100
AcDbEntity
  8
DV1_Default
 62
     7
100
AcDbLine
 10
101.1333305663
 20
706.6314554771
 30
0.0
 11
103.0809171983
 21
706.701973156
 31
0.0
  0
LINE
  5
E1
330
97
100
AcDbEntity
  8
DV1_Default
 62
     7
100
AcDbLine
 10
78.410207587
 20
706.6995673796
 30
0.0
 11
80.2652703789
 21
706.6327566195
 31
0.0
  0
LINE
  5
E2
330
97
100
AcDbEntity
  8
DV1_Default
 62
     7
100
AcDbLine
 10
61.0114301393
 20
707.3261906675
 30
0.0
 11
65.2353029922
 21
707.1151127086
 31
0.0
  0
SPLINE
  5
E3
330
97
100
AcDbEntity
  8
DV1_Default
 62
     7
100
AcDbSpline
210
0.0
220
0.0
230
1.0
 70
     8
 71
     3
 72
    14
 73
    10
 74
     0
 42
0.000000001
 43
0.0000000001
 40
0.0
 40
0.0
 40
0.0
 40
0.0
 40
0.2363922255247935
 40
0.2363922255247935
 40
0.4909281503498623
 40
0.4909281503498623
 40
0.7454640751749311
 40
0.7454640751749311
 40
0.9999999999999999
 40
0.9999999999999999
 40
0.9999999999999999
 40
0.9999999999999999
 10
74.73149881620164
 20
817.597307721059
 30
0.0
 10
74.78652334401787
 20
818.7409095378725
 30
0.0
 10
75.19903198477115
 20
819.8784024635413
 30
0.0
 10
76.74587157380769
 20
822.0736132025721
 30
0.0
 10
77.93254297487651
 20
823.1176114431191
 30
0.0
 10
80.89635086461189
 20
824.8598985712858
 30
0.0
 10
82.67232112332498
 20
825.5575018856455
 30
0.0
 10
86.54469760040112
 20
826.5004764325914
 30
0.0
 10
88.63958007579342
 20
826.7454766137452
 30
0.0
 10
90.73527321656714
 20
826.7455506502348
 30
0.0
  0
SPLINE
  5
E4
330
97
100
AcDbEntity
  8
DV1_Default
 62
     7
100
AcDbSpline
210
0.0
220
0.0
230
1.0
 70
     8
 71
     3
 72
    14
 73
    10
 74
     0
 42
0.000000001
 43
0.0000000001
 40
0.0
 40
0.0
 40
0.0
 40
0.0
 40
0.254535940279924
 40
0.254535940279924
 40
0.5090718805598479
 40
0.5090718805598479
 40
0.7636078208397717
 40
0.7636078208397717
 40
1.0
 40
1.0
 40
1.0
 40
1.0
 10
90.73527321656714
 20
826.7455506502348
 30
0.0
 10
92.83096451831052
 20
826.7454770125802
 30
0.0
 10
94.92584463326962
 20
826.5004753413523
 30
0.0
 10
98.79821614447881
 20
825.5574987485153
 30
0.0
 10
100.5741838047278
 20
824.8598948776533
 30
0.0
 10
103.5379870894086
 20
823.1176074350007
 30
0.0
 10
104.7246564895184
 20
822.0736094340706
 30
0.0
 10
106.2714931763534
 20
819.878399867939
 30
0.0
 10
106.6840010074371
 20
818.7409078824877
 30
0.0
 10
106.739025519677
 20
817.597307002568
 30
0.0
  0
ARC
  5
E5
330
97
100
AcDbEntity
  8
DV1_Default
 62
     7
100
AcDbCircle
 10
107.7652893232
 20
-392.7800411046
 30
0.0
 40
1100.539563135387
100
AcDbArc
 50
89.1546346612
 51
90.8866437446
  0
SPLINE
  5
E6
330
97
100
AcDbEntity
  8
DV1_Default
 62
     7
100
AcDbSpline
210
0.0
220
0.0
230
1.0
 70
     8
 71
     3
 72
    36
 73
    32
 74
     0
 42
0.000000001
 43
0.0000000001
 40
0.0
 40
0.0
 40
0.0
 40
0.0
 40
0.0320115206566304
 40
0.0666783591438541
 40
0.1012282185127252
 40
0.1356822271226482
 40
0.1701180059436875
 40
0.2046718552682767
 40
0.2393451530768343
 40
0.2740025662588769
 40
0.30855034622217
 40
0.3429494934151767
 40
0.3773452136314485
 40
0.4119064362920712
 40
0.4465797311007936
 40
0.4812531269238149
 40
0.5158163106474317
 40
0.5502396606921653
 40
0.5846187526319294
 40
0.6190597516894331
 40
0.6536555785670478
 40
0.6883541720306104
 40
0.7230256688947704
 40
0.7576541943909233
 40
0.7922698000377277
 40
0.8268875218604779
 40
0.8615162829353589
 40
0.8961630847126201
 40
0.9308172289404989
 40
0.9654417389392494
 40
0.9999999999999999
 40
0.9999999999999999
 40
0.9999999999999999
 40
0.9999999999999999
 10
57.46826709233119
 20
707.6396779095694
 30
0.0
 10
57.4706960762747
 20
707.6395442410027
 30
0.0
 10
57.50470624008444
 20
707.6392638161934
 30
0.0
 10
57.64744475822564
 20
707.6388101732812
 30
0.0
 10
57.89147660771293
 20
707.6382981480333
 30
0.0
 10
58.23088989852737
 20
707.6377696829971
 30
0.0
 10
58.66507548190031
 20
707.6372447256821
 30
0.0
 10
59.19410371292294
 20
707.6367424919747
 30
0.0
 10
59.8159617366989
 20
707.6362625133474
 30
0.0
 10
60.52892590229439
 20
707.6357816526057
 30
0.0
 10
61.32868853353771
 20
707.6352921181652
 30
0.0
 10
62.2119243727925
 20
707.6347847570449
 30
0.0
 10
63.17954452452837
 20
707.6342780791005
 30
0.0
 10
64.23095429285489
 20
707.6337965557979
 30
0.0
 10
65.36196497791752
 20
707.6333331475141
 30
0.0
 10
66.5662535084571
 20
707.6328828775913
 30
0.0
 10
67.8379250268499
 20
707.6324394590006
 30
0.0
 10
69.17355215845126
 20
707.6320004629595
 30
0.0
 10
70.57125175677263
 20
707.631573189864
 30
0.0
 10
72.03069155722233
 20
707.6311620477798
 30
0.0
 10
73.54928176806492
 20
707.6307747902259
 30
0.0
 10
75.12108560110883
 20
707.6304051932283
 30
0.0
 10
76.73926142064951
 20
707.6300365327759
 30
0.0
 10
78.3976719658668
 20
707.6296855605007
 30
0.0
 10
80.09200380357501
 20
707.6293745050494
 30
0.0
 10
81.81773948572236
 20
707.6290925655504
 30
0.0
 10
83.57013425967696
 20
707.628828823697
 30
0.0
 10
85.34408274794109
 20
707.6285733011871
 30
0.0
 10
87.1337573695121
 20
707.6283125985583
 30
0.0
 10
88.93260641657888
 20
707.6280352434179
 30
0.0
 10
90.13477351760842
 20
707.6278166492564
 30
0.0
 10
90.73528148246798
 20
707.6277509703519
 30
0.0
  0
ARC
  5
E7
330
97
100
AcDbEntity
  8
DV1_Default
 62
     7
100
AcDbCircle
 10
-496.7009596124
 20
854.122457211
 30
0.0
 40
572.5941228726906
100
AcDbArc
 50
345.241789798
 51
356.3652086043
  0
ARC
  5
E8
330
97
100
AcDbEntity
  8
DV1_Default
 62
     7
100
AcDbCircle
 10
678.1711155125
 20
854.1224106963
 30
0.0
 40
572.593751828174
100
AcDbArc
 50
183.6347888457
 51
194.7582150747
  0
ARC
  5
E9
330
97
100
AcDbEntity
  8
DV1_Default
 62
     7
100
AcDbCircle
 10
123.9726478872
 20
708.139201431
 30
0.0
 40
0.5003984303120665
100
AcDbArc
 50
272.8462458022
 51
14.2310817656
  0
ARC
  5
EA
330
97
100
AcDbEntity
  8
DV1_Default
 62
     7
100
AcDbCircle
 10
57.4978791683
 20
708.1392032461
 30
0.0
 40
0.5004002358779751
100
AcDbArc
 50
165.7689572701
 51
267.1925977607
  0
LINE
  5
EB
330
97
100
AcDbEntity
  8
DV1_Default
 62
     7
100
AcDbLine
 10
57.3239010153
 20
707.6484407411
 30
0.0
 11
61.0114301393
 21
707.3261906675
 31
0.0
  0
LINE
  5
EC
330
97
100
AcDbEntity
  8
DV1_Default
 62
     7
100
AcDbLine
 10
96.9980803956
 20
706.047982361
 30
0.0
 11
91.7572900288
 21
706.0479823608
 31
0.0
  0
LINE
  5
ED
330
97
100
AcDbEntity
  8
DV1_Default
 62
     7
100
AcDbLine
 10
89.7175932275
 20
706.0479823607
 30
0.0
 11
84.4837771407
 21
706.0479823605
 31
0.0
  0
ARC
  5
EE
330
97
100
AcDbEntity
  8
DV1_Default
 62
     7
100
AcDbCircle
 10
90.5633773333
 20
711.512519278
 30
0.0
 40
5.687625848649716
100
AcDbArc
 50
264.2643843668
 51
271.83540524
  0
ARC
  5
EF
330
97
100
AcDbEntity
  8
DV1_Default
 62
     7
100
AcDbCircle
 10
90.5635829551
 20
711.5320858831
 30
0.0
 40
5.707176110392606
100
AcDbArc
 50
264.2821977261
 51
271.8270504114
  0
ARC
  5
F0
330
97
100
AcDbEntity
  8
DV1_Default
 62
     7
100
AcDbCircle
 10
90.9277078088
 20
711.5125315877
 30
0.0
 40
5.687638357313887
100
AcDbArc
 50
268.1646035568
 51
275.7356081535
  0
SPLINE
  5
F1
330
97
100
AcDbEntity
  8
DV1_Default
 62
     7
100
AcDbSpline
210
0.0
220
0.0
230
1.0
 70
    12
 71
     3
 72
     8
 73
     4
 74
     0
 42
0.000000001
 43
0.0000000001
 40
0.0
 40
0.0
 40
0.0
 40
0.0
 40
1.0
 40
1.0
 40
1.0
 40
1.0
 10
89.4957130793529
 20
706.3530108680599
 30
0.0
 41
1.171371357642207
 10
89.49555119714908
 20
706.0604763772718
 30
0.0
 41
0.9428771471728231
 10
89.70230442491811
 20
705.8535419974489
 30
0.0
 41
0.9428762141229747
 10
89.99498318026592
 20
705.8533049002322
 30
0.0
 41
1.171368558492662
  0
ARC
  5
F2
330
97
100
AcDbEntity
  8
DV1_Default
 62
     7
100
AcDbCircle
 10
91.4955064409
 20
706.3532368866
 30
0.0
 40
0.4998697390916417
100
AcDbArc
 50
270.0703030958
 51
359.9772777711
  0
ELLIPSE
  5
F3
330
97
100
AcDbEntity
  8
DV1_Default
 62
     7
100
AcDbEllipse
 10
91.495542775
 20
706.3534202672
 30
0.0
 11
0.5000000001128724
 21
-3.132413772810594E-8
 31
0.0
210
0.0
220
0.0
230
1.0
 40
0.9994384516
 41
4.713694662054472
 42
6.283185307179586
  0
LINE
  5
F4
330
97
100
AcDbEntity
  8
DV1_Default
 62
     7
100
AcDbLine
 10
91.9955427751
 20
706.3534200868
 30
0.0
 11
91.9955428392
 21
706.5428550468
 31
0.0
  0
LINE
  5
F5
330
97
100
AcDbEntity
  8
DV1_Default
 62
     7
100
AcDbLine
 10
89.4955427919
 20
706.5428552209
 30
0.0
 11
89.4955428239
 21
706.3534202708
 31
0.0
  0
ELLIPSE
  5
F6
330
97
100
AcDbEntity
  8
DV1_Default
 62
     7
100
AcDbEllipse
 10
89.9955428241
 20
706.3534203256
 30
0.0
 11
-0.5000000002238265
 21
1.282543515834789E-8
 31
0.0
210
0.0
220
0.0
230
1.0
 40
0.9994384549
 41
0.0
 42
1.569490851776071
  0
LINE
  5
F7
330
97
100
AcDbEntity
  8
DV1_Default
 62
     7
100
AcDbLine
 10
91.9955396411
 20
707.0819471398
 30
0.0
 11
91.9955370475
 21
706.5428550469
 31
0.0
  0
LINE
  5
F8
330
97
100
AcDbEntity
  8
DV1_Default
 62
     7
100
AcDbLine
 10
89.4955501676
 20
706.5428859598
 30
0.0
 11
89.4955469898
 21
707.0598155583
 31
0.0
  0
ARC
  5
F9
330
97
100
AcDbEntity
  8
DV1_Default
 62
     7
100
AcDbCircle
 10
90.1627342909
 20
992.134699289
 30
0.0
 40
286.6025154144327
100
AcDbArc
 50
266.577455808
 51
267.2858290064
  0
LINE
  5
FA
330
97
100
AcDbEntity
  8
DV1_Default
 62
     7
100
AcDbLine
 10
76.5995198408
 20
705.8532959065
 30
0.0
 11
76.5911033457
 21
705.8536921189
 31
0.0
  0
ARC
  5
FB
330
97
100
AcDbEntity
  8
DV1_Default
 62
     7
100
AcDbCircle
 10
90.3664705204
 20
1193.9176633262
 30
0.0
 40
488.3851157024156
100
AcDbArc
 50
267.3792433921
 51
267.9220581037
  0
LINE
  5
FC
330
97
100
AcDbEntity
  8
DV1_Default
 62
     7
100
AcDbLine
 10
72.6690777533
 20
705.853295943
 30
0.0
 11
72.6581267455
 21
705.8536921558
 31
0.0
  0
SPLINE
  5
FD
330
97
100
AcDbEntity
  8
DV1_Default
 62
     7
100
AcDbSpline
210
0.0
220
0.0
230
1.0
 70
     8
 71
     3
 72
    10
 73
     6
 74
     0
 42
0.000000001
 43
0.0000000001
 40
0.0
 40
0.0
 40
0.0
 40
0.0
 40
0.3358506282678488
 40
0.3358506282678488
 40
1.0
 40
1.0
 40
1.0
 40
1.0
 10
73.47957211896295
 20
705.8297433236403
 30
0.0
 10
73.41063148473634
 20
705.8310290009587
 30
0.0
 10
73.32825827422987
 20
705.8329236450329
 30
0.0
 10
73.05868860311097
 20
705.8400836876178
 30
0.0
 10
72.84985375651029
 20
705.8467774086005
 30
0.0
 10
72.66908131981592
 20
705.8533049713456
 30
0.0
  0
LINE
  5
FE
330
97
100
AcDbEntity
  8
DV1_Default
 62
     7
100
AcDbLine
 10
71.4764777386
 20
705.8533005276
 30
0.0
 11
71.4782605222
 21
705.8532396458
 31
0.0
  0
LINE
  5
FF
330
97
100
AcDbEntity
  8
DV1_Default
 62
     7
100
AcDbLine
 10
70.4939947158
 20
705.8870633699
 30
0.0
 11
71.4764777386
 21
705.8533005276
 31
0.0
  0
LINE
  5
100
330
97
100
AcDbEntity
  8
DV1_Default
 62
     7
100
AcDbLine
 10
71.4787959595
 20
705.8536921669
 30
0.0
 11
71.490614079
 21
705.8532959711
 31
0.0
  0
ARC
  5
101
330
97
100
AcDbEntity
  8
DV1_Default
 62
     7
100
AcDbCircle
 10
90.6389580295
 20
1277.4396441616
 30
0.0
 40
571.9069919821571
100
AcDbArc
 50
267.5784316318
 51
268.0801041192
  0
LINE
  5
102
330
97
100
AcDbEntity
  8
DV1_Default
 62
     7
100
AcDbLine
 10
66.4937747968
 20
706.0419829912
 30
0.0
 11
67.4952097351
 21
706.0005821992
 31
0.0
  0
SPLINE
  5
103
330
97
100
AcDbEntity
  8
DV1_Default
 62
     7
100
AcDbSpline
210
0.0
220
0.0
230
1.0
 70
     8
 71
     3
 72
     8
 73
     4
 74
     0
 42
0.000000001
 43
0.0000000001
 40
0.0
 40
0.0
 40
0.0
 40
0.0
 40
0.9999999999999999
 40
0.9999999999999999
 40
0.9999999999999999
 40
0.9999999999999999
 10
71.49061639878354
 20
705.8533652053011
 30
0.0
 10
71.62458982773373
 20
705.8488182945614
 30
0.0
 10
71.7574106137204
 20
705.8442260325335
 30
0.0
 10
71.87166941260917
 20
705.8402545215515
 30
0.0
  0
LINE
  5
104
330
97
100
AcDbEntity
  8
DV1_Default
 62
     7
100
AcDbLine
 10
71.4955517439
 20
705.8526491529
 30
0.0
 11
71.4764769577
 21
705.8533005496
 31
0.0
  0
LINE
  5
105
330
97
100
AcDbEntity
  8
DV1_Default
 62
     7
100
AcDbLine
 10
66.47488381
 20
706.043364058
 30
0.0
 11
66.0125950783
 21
706.0623861828
 31
0.0
  0
ARC
  5
106
330
97
100
AcDbEntity
  8
DV1_Default
 62
     7
100
AcDbCircle
 10
90.3644249192
 20
1193.8588456549
 30
0.0
 40
488.3262624721939
100
AcDbArc
 50
267.8829102366
 51
267.9220479879
  0
SPLINE
  5
107
330
97
100
AcDbEntity
  8
DV1_Default
 62
     7
100
AcDbSpline
210
0.0
220
0.0
230
1.0
 70
     8
 71
     3
 72
    10
 73
     6
 74
     0
 42
0.000000001
 43
0.0000000001
 40
0.0
 40
0.0
 40
0.0
 40
0.0
 40
0.6642136319554746
 40
0.6642136319554746
 40
1.0
 40
1.0
 40
1.0
 40
1.0
 10
72.66907749542511
 20
705.8533652476589
 30
0.0
 10
72.8498545275178
 20
705.8467680387395
 30
0.0
 10
73.05868940713151
 20
705.8400753575268
 30
0.0
 10
73.32823306196737
 20
705.8329186465986
 30
0.0
 10
73.41058491781635
 20
705.8310254644757
 30
0.0
 10
73.47951345295287
 20
705.8297409592551
 30
0.0
  0
ARC
  5
108
330
97
100
AcDbEntity
  8
DV1_Default
 62
     7
100
AcDbCircle
 10
90.1606922759
 20
992.0909704946
 30
0.0
 40
286.5587387539458
100
AcDbArc
 50
266.7815999108
 51
267.2858235048
  0
ARC
  5
109
330
97
100
AcDbEntity
  8
DV1_Default
 62
     7
100
AcDbCircle
 10
88.436836322
 20
790.4985203785
 30
0.0
 40
84.80297350395463
100
AcDbArc
 50
264.808909755
 51
266.8082677307
  0
ARC
  5
10A
330
97
100
AcDbEntity
  8
DV1_Default
 62
     7
100
AcDbCircle
 10
91.369391409
 20
790.796728925
 30
0.0
 40
85.26847095561128
100
AcDbArc
 50
275.0074838244
 51
276.3005182979
  0
ARC
  5
10B
330
97
100
AcDbEntity
  8
DV1_Default
 62
     7
100
AcDbCircle
 10
91.2538537399
 20
993.6556254933
 30
0.0
 40
288.1252580680572
100
AcDbArc
 50
272.7146473612
 51
273.2168547857
  0
LINE
  5
10C
330
97
100
AcDbEntity
  8
DV1_Default
 62
     7
100
AcDbLine
 10
104.8915657028
 20
705.8532960541
 30
0.0
 11
104.8999877079
 21
705.8536925252
 31
0.0
  0
ARC
  5
10D
330
97
100
AcDbEntity
  8
DV1_Default
 62
     7
100
AcDbCircle
 10
91.0272533267
 20
1196.5144247584
 30
0.0
 40
490.9836948758277
100
AcDbArc
 50
272.0783091834
 51
272.1217085027
  0
LINE
  5
10E
330
97
100
AcDbEntity
  8
DV1_Default
 62
     7
100
AcDbLine
 10
108.8220077855
 20
705.8532960177
 30
0.0
 11
108.8329659329
 21
705.8536924888
 31
0.0
  0
SPLINE
  5
10F
330
97
100
AcDbEntity
  8
DV1_Default
 62
     7
100
AcDbSpline
210
0.0
220
0.0
230
1.0
 70
     8
 71
     3
 72
    10
 73
     6
 74
     0
 42
0.000000001
 43
0.0000000001
 40
0.0
 40
0.0
 40
0.0
 40
0.0
 40
0.3556767794046943
 40
0.3556767794046943
 40
1.0
 40
1.0
 40
1.0
 40
1.0
 10
107.9929070294117
 20
705.8294054528795
 30
0.0
 10
108.0654287774789
 20
705.8306862171308
 30
0.0
 10
108.1545326605821
 20
705.8327034436871
 30
0.0
 10
108.4323970537135
 20
705.8400838242159
 30
0.0
 10
108.6412318461092
 20
705.846777551355
 30
0.0
 10
108.8220042904051
 20
705.8533051766374
 30
0.0
  0
LINE
  5
110
330
97
100
AcDbEntity
  8
DV1_Default
 62
     7
100
AcDbLine
 10
110.0146078755
 20
705.853300547
 30
0.0
 11
109.9955338706
 21
705.8526491521
 31
0.0
  0
LINE
  5
111
330
97
100
AcDbEntity
  8
DV1_Default
 62
     7
100
AcDbLine
 10
110.9970908984
 20
705.8870633712
 30
0.0
 11
110.0146078755
 21
705.853300547
 31
0.0
  0
ARC
  5
112
330
97
100
AcDbEntity
  8
DV1_Default
 62
     7
100
AcDbCircle
 10
90.7448745036
 20
1280.5412895737
 30
0.0
 40
575.0104846046627
100
AcDbArc
 50
271.9202236192
 51
272.4191871034
  0
LINE
  5
113
330
97
100
AcDbEntity
  8
DV1_Default
 62
     7
100
AcDbLine
 10
110.0004719183
 20
705.8532959754
 30
0.0
 11
110.0122979528
 21
705.8536924465
 31
0.0
  0
LINE
  5
114
330
97
100
AcDbEntity
  8
DV1_Default
 62
     7
100
AcDbLine
 10
113.9958758792
 20
706.0005822008
 30
0.0
 11
114.9973108175
 21
706.0419829928
 31
0.0
  0
SPLINE
  5
115
330
97
100
AcDbEntity
  8
DV1_Default
 62
     7
100
AcDbSpline
210
0.0
220
0.0
230
1.0
 70
     8
 71
     3
 72
    10
 73
     6
 74
     0
 42
0.000000001
 43
0.0000000001
 40
0.0
 40
0.0
 40
0.0
 40
0.0
 40
0.5
 40
0.5
 40
1.0
 40
1.0
 40
1.0
 40
1.0
 10
109.2622728769696
 20
705.8278110995908
 30
0.0
 10
109.262272851339
 20
705.8278123498957
 30
0.0
 10
109.3414139092541
 20
705.8305730824338
 30
0.0
 10
109.6141259238934
 20
705.840083782818
 30
0.0
 10
109.8060842085708
 20
705.8467775095021
 30
0.0
 10
110.0004717487735
 20
705.853305134361
 30
0.0
  0
LINE
  5
116
330
97
100
AcDbEntity
  8
DV1_Default
 62
     7
100
AcDbLine
 10
109.9955338706
 20
705.8526491521
 30
0.0
 11
109.9982402066
 21
705.8527415762
 31
0.0
  0
SPLINE
  5
117
330
97
100
AcDbEntity
  8
DV1_Default
 62
     7
100
AcDbSpline
210
0.0
220
0.0
230
1.0
 70
     8
 71
     3
 72
    10
 73
     6
 74
     0
 42
0.000000001
 43
0.0000000001
 40
0.0
 40
0.0
 40
0.0
 40
0.0
 40
0.5
 40
0.5
 40
1.0
 40
1.0
 40
1.0
 40
1.0
 10
115.0162026225373
 20
706.0432825827246
 30
0.0
 10
115.2126206844339
 20
706.0515138317443
 30
0.0
 10
115.4078824472927
 20
706.0595237104675
 30
0.0
 10
115.6857522496164
 20
706.0709230327403
 30
0.0
 10
115.7666466791011
 20
706.0742421772067
 30
0.0
 10
115.7666471382934
 20
706.074243112952
 30
0.0
  0
LINE
  5
118
330
97
100
AcDbEntity
  8
DV1_Default
 62
     7
100
AcDbLine
 10
108.8329659122
 20
705.8536924125
 30
0.0
 11
108.8220102833
 21
705.8532959386
 31
0.0
  0
ARC
  5
119
330
97
100
AcDbEntity
  8
DV1_Default
 62
     7
100
AcDbCircle
 10
91.0277245387
 20
1196.5030475757
 30
0.0
 40
490.9723080908339
100
AcDbArc
 50
272.0783023714
 51
272.6182564678
  0
SPLINE
  5
11A
330
97
100
AcDbEntity
  8
DV1_Default
 62
     7
100
AcDbSpline
210
0.0
220
0.0
230
1.0
 70
     8
 71
     3
 72
    10
 73
     6
 74
     0
 42
0.000000001
 43
0.0000000001
 40
0.0
 40
0.0
 40
0.0
 40
0.0
 40
0.6446404201195047
 40
0.6446404201195047
 40
1.0
 40
1.0
 40
1.0
 40
1.0
 10
108.8220081063859
 20
705.8533651454017
 30
0.0
 10
108.6412310536204
 20
705.8467678587028
 30
0.0
 10
108.4323962275877
 20
705.8400751902241
 30
0.0
 10
108.154668492086
 20
705.8327012072043
 30
0.0
 10
108.0656744151277
 20
705.8306871282805
 30
0.0
 10
107.9932071651153
 20
705.8294073961976
 30
0.0
  0
LINE
  5
11B
330
97
100
AcDbEntity
  8
DV1_Default
 62
     7
100
AcDbLine
 10
104.8999876713
 20
705.8536923758
 30
0.0
 11
104.8915707206
 21
705.8532959019
 31
0.0
  0
ARC
  5
11C
330
97
100
AcDbEntity
  8
DV1_Default
 62
     7
100
AcDbCircle
 10
91.2542200743
 20
993.6488852026
 30
0.0
 40
288.1185080604126
100
AcDbArc
 50
272.7146380511
 51
273.4192842328
  0
ARC
  5
11D
330
97
100
AcDbEntity
  8
DV1_Default
 62
     7
100
AcDbCircle
 10
91.3695879656
 20
790.7947795911
 30
0.0
 40
85.26651201661463
100
AcDbArc
 50
275.0074664722
 51
276.3005316991
  0
ARC
  5
11E
330
97
100
AcDbEntity
  8
DV1_Default
 62
     7
100
AcDbCircle
 10
91.503673927
 20
706.3522650344
 30
0.0
 40
0.4920032382725191
100
AcDbArc
 50
298.9116033424
 51
355.4879262543
  0
ARC
  5
11F
330
97
100
AcDbEntity
  8
DV1_Default
 62
     7
100
AcDbCircle
 10
89.993950501
 20
706.3530401693
 30
0.0
 40
0.4984399663240879
100
AcDbArc
 50
174.5424121708
 51
240.4896743441
  0
ARC
  5
120
330
97
100
AcDbEntity
  8
DV1_Default
 62
     7
100
AcDbCircle
 10
91.4946253067
 20
706.3534265824
 30
0.0
 40
0.5009173453306002
100
AcDbArc
 50
334.6971659792
 51
337.0309306998
  0
ARC
  5
121
330
97
100
AcDbEntity
  8
DV1_Default
 62
     7
100
AcDbCircle
 10
91.4946253067
 20
706.3534265824
 30
0.0
 40
0.5009173453306002
100
AcDbArc
 50
338.1201676943
 51
359.0909161771
  0
SPLINE
  5
122
330
97
100
AcDbEntity
  8
DV1_Default
 62
     7
100
AcDbSpline
210
0.0
220
0.0
230
1.0
 70
     8
 71
     3
 72
    17
 73
    13
 74
     0
 42
0.000000001
 43
0.0000000001
 40
0.0
 40
0.0
 40
0.0
 40
0.0
 40
0.1343991912703708
 40
0.342157597293706
 40
0.4690629767755157
 40
0.520349744361589
 40
0.5742701439856626
 40
0.6554473056627403
 40
0.7628816128374987
 40
0.8767899338518588
 40
0.9992435409634814
 40
1.0
 40
1.0
 40
1.0
 40
1.0
 10
83.71525199649443
 20
705.8275824228291
 30
0.0
 10
83.7750656821179
 20
705.8277355054693
 30
0.0
 10
83.91813997186301
 20
705.8289090498517
 30
0.0
 10
84.06764023051375
 20
705.833505185083
 30
0.0
 10
84.14952990319985
 20
705.8387950623389
 30
0.0
 10
84.21983609266917
 20
705.8491042317725
 30
0.0
 10
84.29901505902582
 20
705.8693166029367
 30
0.0
 10
84.40648018867137
 20
705.919440213322
 30
0.0
 10
84.52156304331557
 20
706.018584014565
 30
0.0
 10
84.60305292882379
 20
706.1646138700106
 30
0.0
 10
84.63957188063517
 20
706.2879657486294
 30
0.0
 10
84.62882765877899
 20
706.3444501117801
 30
0.0
 10
84.62875122609587
 20
706.3448516923522
 30
0.0
  0
LINE
  5
123
330
97
100
AcDbEntity
  8
DV1_Default
 62
     7
100
AcDbLine
 10
84.6288867345
 20
706.306956432
 30
0.0
 11
84.6288867345
 21
706.8548863714
 31
0.0
  0
SPLINE
  5
124
330
97
100
AcDbEntity
  8
DV1_Default
 62
     7
100
AcDbSpline
210
0.0
220
0.0
230
1.0
 70
     8
 71
     3
 72
    16
 73
    12
 74
     0
 42
0.000000001
 43
0.0000000001
 40
0.0
 40
0.0
 40
0.0
 40
0.0
 40
0.0723450939492621
 40
0.2595807500841631
 40
0.4106127748746637
 40
0.5388586058477178
 40
0.6475934236029997
 40
0.7350071078705346
 40
0.806357073551046
 40
0.8961692003487902
 40
1.0
 40
1.0
 40
1.0
 40
1.0
 10
80.2230125464821
 20
706.554864827943
 30
0.0
 10
80.22061556427707
 20
706.5308276880555
 30
0.0
 10
80.21392345113637
 20
706.4565715400765
 30
0.0
 10
80.26031746288686
 20
706.3316999987494
 30
0.0
 10
80.3401745762526
 20
706.215435746588
 30
0.0
 10
80.43042432046526
 20
706.1385471652419
 30
0.0
 10
80.51569627847566
 20
706.0925349443179
 30
0.0
 10
80.58583463682173
 20
706.0687680730327
 30
0.0
 10
80.638362265995
 20
706.0569246094519
 30
0.0
 10
80.68193015566393
 20
706.0500701544314
 30
0.0
 10
80.70987188374603
 20
706.0468622942368
 30
0.0
 10
80.72712919068256
 20
706.0450558175106
 30
0.0
  0
LINE
  5
125
330
97
100
AcDbEntity
  8
DV1_Default
 62
     7
100
AcDbLine
 10
80.2154695728
 20
707.0809345481
 30
0.0
 11
80.2154695728
 21
706.5125967751
 31
0.0
  0
LINE
  5
126
330
97
100
AcDbEntity
  8
DV1_Default
 62
     7
100
AcDbLine
 10
78.3837372696
 20
706.3069564555
 30
0.0
 11
78.3837372696
 21
706.8690639177
 31
0.0
  0
SPLINE
  5
127
330
97
100
AcDbEntity
  8
DV1_Default
 62
     7
100
AcDbSpline
210
0.0
220
0.0
230
1.0
 70
     8
 71
     3
 72
    17
 73
    13
 74
     0
 42
0.000000001
 43
0.0000000001
 40
0.0
 40
0.0
 40
0.0
 40
0.0
 40
0.1284568243346876
 40
0.2505494328088345
 40
0.352087333934629
 40
0.4383580888771289
 40
0.5095511180548656
 40
0.5627405304259456
 40
0.6079146114638939
 40
0.6731826019830677
 40
0.8612179997859626
 40
1.0
 40
1.0
 40
1.0
 40
1.0
 10
72.35371233457516
 20
706.5651221700782
 30
0.0
 10
72.35574349784793
 20
706.5072907255309
 30
0.0
 10
72.36134090160884
 20
706.4103643178685
 30
0.0
 10
72.43141934046612
 20
706.2775017471363
 30
0.0
 10
72.51711414664486
 20
706.1837369003819
 30
0.0
 10
72.60479812935958
 20
706.1238800449398
 30
0.0
 10
72.68230293941882
 20
706.0903833652776
 30
0.0
 10
72.7400976236795
 20
706.0744174584536
 30
0.0
 10
72.7825933405611
 20
706.0661950285792
 30
0.0
 10
72.84105941741481
 20
706.0580285171029
 30
0.0
 10
72.91839013943294
 20
706.0513496936458
 30
0.0
 10
73.00591170506887
 20
706.0458481784489
 30
0.0
 10
73.04945681331328
 20
706.0432635249036
 30
0.0
  0
LINE
  5
128
330
97
100
AcDbEntity
  8
DV1_Default
 62
     7
100
AcDbLine
 10
72.3482033637
 20
707.0999608322
 30
0.0
 11
72.3482033637
 21
706.5095727902
 31
0.0
  0
SPLINE
  5
129
330
97
100
AcDbEntity
  8
DV1_Default
 62
     7
100
AcDbSpline
210
0.0
220
0.0
230
1.0
 70
     8
 71
     3
 72
    15
 73
    11
 74
     0
 42
0.000000001
 43
0.0000000001
 40
0.0
 40
0.0
 40
0.0
 40
0.0
 40
0.2357597986010005
 40
0.4515575259287752
 40
0.5420433983803992
 40
0.5877946811460253
 40
0.6672825509165989
 40
0.7763992760281122
 40
0.9475849913371741
 40
1.0
 40
1.0
 40
1.0
 40
1.0
 10
73.47961857999854
 20
705.8298478036837
 30
0.0
 10
73.53639665424777
 20
705.8287796069618
 30
0.0
 10
73.63032890204101
 20
705.8271825277078
 30
0.0
 10
73.69224151789162
 20
705.8275997524537
 30
0.0
 10
73.73681579123642
 20
705.8289537978819
 30
0.0
 10
73.78988049191476
 20
705.8345370961521
 30
0.0
 10
73.86232282231178
 20
705.8499280346642
 30
0.0
 10
73.9676320024924
 20
705.8934422606009
 30
0.0
 10
74.05385669995724
 20
705.9595607551065
 30
0.0
 10
74.0987559092886
 20
706.0138647097426
 30
0.0
 10
74.10863907096716
 20
706.027113429114
 30
0.0
  0
SPLINE
  5
12A
330
97
100
AcDbEntity
  8
DV1_Default
 62
     7
100
AcDbSpline
210
0.0
220
0.0
230
1.0
 70
     8
 71
     3
 72
    20
 73
    16
 74
     0
 42
0.000000001
 43
0.0000000001
 40
0.0
 40
0.0
 40
0.0
 40
0.0
 40
0.0068140747038714
 40
0.1229256321635315
 40
0.2147888411823258
 40
0.2918656483630633
 40
0.3568639522062826
 40
0.4096290169515691
 40
0.4470026418402042
 40
0.4722430414311398
 40
0.5012238208276271
 40
0.5581406543033767
 40
0.773832039987293
 40
0.9550396371759787
 40
1.0
 40
1.0
 40
1.0
 40
1.0
 10
67.09327697455846
 20
706.5736983163855
 30
0.0
 10
67.0926006237143
 20
706.5698718740643
 30
0.0
 10
67.08214005608701
 20
706.5103033955529
 30
0.0
 10
67.11766227137367
 20
706.3931755592404
 30
0.0
 10
67.18839831725859
 20
706.2651727529849
 30
0.0
 10
67.27580066186111
 20
706.1783650961721
 30
0.0
 10
67.36129502135816
 20
706.1242537535022
 30
0.0
 10
67.43546291522756
 20
706.0944570691984
 30
0.0
 10
67.48947581557846
 20
706.0809465175953
 30
0.0
 10
67.52211356611787
 20
706.0752782717914
 30
0.0
 10
67.55031369955891
 20
706.0715222626133
 30
0.0
 10
67.60828650872853
 20
706.0658352906188
 30
0.0
 10
67.7255793558178
 20
706.0582840739163
 30
0.0
 10
67.92020861179398
 20
706.0485227001898
 30
0.0
 10
68.02173309223497
 20
706.043993837234
 30
0.0
 10
68.04541593939669
 20
706.0429408283793
 30
0.0
  0
LINE
  5
12B
330
97
100
AcDbEntity
  8
DV1_Default
 62
     7
100
AcDbLine
 10
67.0914641439
 20
707.1096712734
 30
0.0
 11
67.0914641439
 21
706.5126011222
 31
0.0
  0
ARC
  5
12C
330
97
100
AcDbEntity
  8
DV1_Default
 62
     7
100
AcDbCircle
 10
90.7455427881
 20
1280.5303845738
 30
0.0
 40
575.000062438
100
AcDbArc
 50
267.6825321883
 51
267.9815561456
  0
ARC
  5
12D
330
97
100
AcDbEntity
  8
DV1_Default
 62
     7
100
AcDbCircle
 10
90.7455427881
 20
1280.5303845738
 30
0.0
 40
575.000062438
100
AcDbArc
 50
267.5807827001
 51
267.5826690852
  0
LINE
  5
12E
330
97
100
AcDbEntity
  8
DV1_Default
 62
     7
100
AcDbLine
 10
71.4955517709
 20
705.8526498479
 30
0.0
 11
72.2280862236
 21
705.8278359187
 31
0.0
  0
ARC
  5
12F
330
97
100
AcDbEntity
  8
DV1_Default
 62
     7
100
AcDbCircle
 10
72.2455095547
 20
706.3275301278
 30
0.0
 40
0.4999978750545916
100
AcDbArc
 50
268.003020542
 51
294.6627954793
  0
ARC
  5
130
330
97
100
AcDbEntity
  8
DV1_Default
 62
     7
100
AcDbCircle
 10
65.7455869878
 20
706.5737883284
 30
0.0
 40
0.4999926262115007
100
AcDbArc
 50
179.9780010658
 51
267.6510793986
  0
LINE
  5
131
330
97
100
AcDbEntity
  8
DV1_Default
 62
     7
100
AcDbLine
 10
65.2455428071
 20
707.1146579789
 30
0.0
 11
65.2455428071
 21
706.5126006906
 31
0.0
  0
LINE
  5
132
330
97
100
AcDbEntity
  8
DV1_Default
 62
     7
100
AcDbLine
 10
65.7236622666
 20
706.0745210867
 30
0.0
 11
66.4830344148
 21
706.0424509116
 31
0.0
  0
LINE
  5
133
330
97
100
AcDbEntity
  8
DV1_Default
 62
     7
100
AcDbLine
 10
66.495161814
 20
706.0419387414
 30
0.0
 11
66.5501954767
 21
706.0396145329
 31
0.0
  0
SPLINE
  5
134
330
97
100
AcDbEntity
  8
DV1_Default
 62
     7
100
AcDbSpline
210
0.0
220
0.0
230
1.0
 70
     8
 71
     3
 72
    14
 73
    10
 74
     0
 42
0.000000001
 43
0.0000000001
 40
0.0
 40
0.0
 40
0.0
 40
0.0
 40
0.1484101342037097
 40
0.2622608677985688
 40
0.3707942186859179
 40
0.5079033918437086
 40
0.6837749024687114
 40
0.8747723332652517
 40
1.0
 40
1.0
 40
1.0
 40
1.0
 10
100.7639558474121
 20
706.045055940517
 30
0.0
 10
100.7875076660767
 20
706.047293123133
 30
0.0
 10
100.8246853455955
 20
706.0519596384894
 30
0.0
 10
100.8960757591862
 20
706.0652497524833
 30
0.0
 10
100.9924048608867
 20
706.0986594685214
 30
0.0
 10
101.101142391785
 20
706.1656455176901
 30
0.0
 10
101.2036238964468
 20
706.2795215224415
 30
0.0
 10
101.269526854534
 20
706.4225498581028
 30
0.0
 10
101.2689769129667
 20
706.5131851064717
 30
0.0
 10
101.2679915064555
 20
706.5549254040227
 30
0.0
  0
LINE
  5
135
330
97
100
AcDbEntity
  8
DV1_Default
 62
     7
100
AcDbLine
 10
98.8425124112
 20
705.8547924306
 30
0.0
 11
98.848784757
 21
705.8553317635
 31
0.0
  0
ARC
  5
136
330
97
100
AcDbEntity
  8
DV1_Default
 62
     7
100
AcDbCircle
 10
90.7455427881
 20
1280.5303845738
 30
0.0
 40
575.000062438
100
AcDbArc
 50
272.4173398227
 51
272.4192268326
  0
ARC
  5
137
330
97
100
AcDbEntity
  8
DV1_Default
 62
     7
100
AcDbCircle
 10
90.7455427881
 20
1280.5303845738
 30
0.0
 40
575.0000624380001
100
AcDbArc
 50
272.0184056352
 51
272.3174651222
  0
LINE
  5
138
330
97
100
AcDbEntity
  8
DV1_Default
 62
     7
100
AcDbLine
 10
109.4497627081
 20
705.8343522517
 30
0.0
 11
109.9955338477
 21
705.85264972
 31
0.0
  0
ARC
  5
139
330
97
100
AcDbEntity
  8
DV1_Default
 62
     7
100
AcDbCircle
 10
109.2455760666
 20
706.3275301292
 30
0.0
 40
0.4999978919896989
100
AcDbArc
 50
246.0225927868
 51
271.996979001
  0
ARC
  5
13A
330
97
100
AcDbEntity
  8
DV1_Default
 62
     7
100
AcDbCircle
 10
115.7454986009
 20
706.573788282
 30
0.0
 40
0.4999926365263015
100
AcDbArc
 50
272.3489161847
 51
0.0486472833
  0
LINE
  5
13B
330
97
100
AcDbEntity
  8
DV1_Default
 62
     7
100
AcDbLine
 10
116.2455428071
 20
706.5126011708
 30
0.0
 11
116.2455428071
 21
707.1143985305
 31
0.0
  0
LINE
  5
13C
330
97
100
AcDbEntity
  8
DV1_Default
 62
     7
100
AcDbLine
 10
114.9408901375
 20
706.0396145345
 30
0.0
 11
114.9973036779
 21
706.0419970186
 31
0.0
  0
LINE
  5
13D
330
97
100
AcDbEntity
  8
DV1_Default
 62
     7
100
AcDbLine
 10
115.0082782252
 20
706.0424605011
 30
0.0
 11
115.5647684545
 21
706.065962468
 31
0.0
  0
LINE
  5
13E
330
97
100
AcDbEntity
  8
DV1_Default
 62
     7
100
AcDbLine
 10
115.7671875898
 20
706.0745111318
 30
0.0
 11
115.8535473258
 21
706.0781583183
 31
0.0
  0
SPLINE
  5
13F
330
97
100
AcDbEntity
  8
DV1_Default
 62
     7
100
AcDbSpline
210
0.0
220
0.0
230
1.0
 70
     8
 71
     3
 72
    17
 73
    13
 74
     0
 42
0.000000001
 43
0.0000000001
 40
0.0
 40
0.0
 40
0.0
 40
0.0
 40
0.0174478399057082
 40
0.1511896774737604
 40
0.2642966697430636
 40
0.3572642761083916
 40
0.4265693419770575
 40
0.4693626211739954
 40
0.5085515579510175
 40
0.5718068803777968
 40
0.7603155873913492
 40
1.0
 40
1.0
 40
1.0
 40
1.0
 10
107.3803973475859
 20
706.0291801405647
 30
0.0
 10
107.3836999343719
 20
706.0248105419727
 30
0.0
 10
107.4128890048083
 20
705.9874375164339
 30
0.0
 10
107.4718580773118
 20
705.9302395038119
 30
0.0
 10
107.562871191417
 20
705.8757404514384
 30
0.0
 10
107.6426742014959
 20
705.8466381300804
 30
0.0
 10
107.7034752529823
 20
705.8344162094486
 30
0.0
 10
107.7400375252973
 20
705.8303992471789
 30
0.0
 10
107.7647397241412
 20
705.8287433880432
 30
0.0
 10
107.8001952385598
 20
705.82752621323
 30
0.0
 10
107.8539070907171
 20
705.8272157864307
 30
0.0
 10
107.9405020851165
 20
705.8286308456644
 30
0.0
 10
107.996564668695
 20
705.8296833246505
 30
0.0
  0
SPLINE
  5
140
330
97
100
AcDbEntity
  8
DV1_Default
 62
     7
100
AcDbSpline
210
0.0
220
0.0
230
1.0
 70
     8
 71
     3
 72
    17
 73
    13
 74
     0
 42
0.000000001
 43
0.0000000001
 40
0.0
 40
0.0
 40
0.0
 40
0.0
 40
0.1648381364442136
 40
0.3534221561340211
 40
0.465014185676922
 40
0.5141664011976921
 40
0.5502208148110931
 40
0.5873246083010856
 40
0.6611544128368435
 40
0.7676328594356359
 40
0.888469504451953
 40
1.0
 40
1.0
 40
1.0
 40
1.0
 10
113.4456700140844
 20
706.0429478535713
 30
0.0
 10
113.5298196027977
 20
706.0467838492169
 30
0.0
 10
113.6828401950094
 20
706.0538439975508
 30
0.0
 10
113.8407594018828
 20
706.0630416887788
 30
0.0
 10
113.9131580952616
 20
706.0686537715976
 30
0.0
 10
113.9526041500049
 20
706.0729172143543
 30
0.0
 10
113.9903876188783
 20
706.0785667268894
 30
0.0
 10
114.0578439885067
 20
706.0943592320994
 30
0.0
 10
114.1626311662088
 20
706.13820781398
 30
0.0
 10
114.2847795616421
 20
706.2365425675001
 30
0.0
 10
114.3809730799084
 20
706.3936483944975
 30
0.0
 10
114.3932012657868
 20
706.5065766359581
 30
0.0
 10
114.3983757207663
 20
706.5697652243039
 30
0.0
  0
LINE
  5
141
330
97
100
AcDbEntity
  8
DV1_Default
 62
     7
100
AcDbLine
 10
114.3996214707
 20
706.5126011175
 30
0.0
 11
114.3996214707
 21
707.1099246179
 31
0.0
  0
SPLINE
  5
142
330
97
100
AcDbEntity
  8
DV1_Default
 62
     7
100
AcDbSpline
210
0.0
220
0.0
230
1.0
 70
     8
 71
     3
 72
    21
 73
    17
 74
     0
 42
0.000000001
 43
0.0000000001
 40
0.0
 40
0.0
 40
0.0
 40
0.0
 40
0.0524542779186663
 40
0.1183648801257529
 40
0.1722247989498869
 40
0.2179213562838858
 40
0.2561213511816925
 40
0.2857011603549313
 40
0.3069726165808372
 40
0.3300447428581479
 40
0.3742097160379302
 40
0.5140434601264712
 40
0.631369651124584
 40
0.7533659449956528
 40
0.8732049828273389
 40
1.0
 40
1.0
 40
1.0
 40
1.0
 10
103.1140874290794
 20
706.3358548232442
 30
0.0
 10
103.1140500045818
 20
706.2888676870554
 30
0.0
 10
103.1157224119905
 20
706.19780099462
 30
0.0
 10
103.1787010733285
 20
706.0647410073087
 30
0.0
 10
103.266498186381
 20
705.962265673204
 30
0.0
 10
103.3587120921532
 20
705.897000003035
 30
0.0
 10
103.4426339690234
 20
705.8601805753556
 30
0.0
 10
103.508912134615
 20
705.8431162100153
 30
0.0
 10
103.5532426484749
 20
705.8362343235657
 30
0.0
 10
103.5921455301253
 20
705.8323545252231
 30
0.0
 10
103.6638183202189
 20
705.8284757142492
 30
0.0
 10
103.8036962604623
 20
705.8268112653437
 30
0.0
 10
104.0699806476817
 20
705.828937339927
 30
0.0
 10
104.3617778491284
 20
705.8346726925968
 30
0.0
 10
104.6719577400162
 20
705.8436931828147
 30
0.0
 10
104.8248040139578
 20
705.8503667161859
 30
0.0
 10
104.9137644771546
 20
705.854357338273
 30
0.0
  0
LINE
  5
143
330
97
100
AcDbEntity
  8
DV1_Default
 62
     7
100
AcDbLine
 10
103.1073483453
 20
706.8359436922
 30
0.0
 11
103.1073483453
 21
706.3069562893
 31
0.0
  0
LINE
  5
144
330
97
100
AcDbEntity
  8
DV1_Default
 62
     7
100
AcDbLine
 10
104.9025195375
 20
705.8535655672
 30
0.0
 11
104.9114127112
 21
705.8539839557
 31
0.0
  0
SPLINE
  5
145
330
97
100
AcDbEntity
  8
DV1_Default
 62
     7
100
AcDbSpline
210
0.0
220
0.0
230
1.0
 70
     8
 71
     3
 72
    16
 73
    12
 74
     0
 42
0.000000001
 43
0.0000000001
 40
0.0
 40
0.0
 40
0.0
 40
0.0
 40
0.2126312317070242
 40
0.3594134943232459
 40
0.430017668635757
 40
0.4887362473896489
 40
0.5800975997245557
 40
0.7010616972242627
 40
0.8371892042574802
 40
0.9829590674113514
 40
1.0
 40
1.0
 40
1.0
 40
1.0
 10
108.4416271116954
 20
706.0432710570736
 30
0.0
 10
108.5056849856585
 20
706.0470875407317
 30
0.0
 10
108.5995693770227
 20
706.0533513026854
 30
0.0
 10
108.6754836091157
 20
706.0610529075939
 30
0.0
 10
108.7376376048438
 20
706.0710867608507
 30
0.0
 10
108.8123920168321
 20
706.0908693824148
 30
0.0
 10
108.9128434812254
 20
706.1365863126653
 30
0.0
 10
109.0250967387499
 20
706.2285441079948
 30
0.0
 10
109.1105877755525
 20
706.368367183254
 30
0.0
 10
109.1516676551912
 20
706.4958544001096
 30
0.0
 10
109.1406331472748
 20
706.5581510681612
 30
0.0
 10
109.1392755407795
 20
706.5657070436624
 30
0.0
  0
LINE
  5
146
330
97
100
AcDbEntity
  8
DV1_Default
 62
     7
100
AcDbLine
 10
109.1428822513
 20
706.5095805674
 30
0.0
 11
109.1428822513
 21
707.1007412284
 31
0.0
  0
SPLINE
  5
147
330
97
100
AcDbEntity
  8
DV1_Default
 62
     7
100
AcDbSpline
210
0.0
220
0.0
230
1.0
 70
     8
 71
     3
 72
    21
 73
    17
 74
     0
 42
0.000000001
 43
0.0000000001
 40
0.0
 40
0.0
 40
0.0
 40
0.0
 40
0.026888734701254
 40
0.0992070170044025
 40
0.1571672846454711
 40
0.2061958145627202
 40
0.247691973889797
 40
0.2810663203877242
 40
0.3063811007287159
 40
0.3337796576161141
 40
0.3868455133349184
 40
0.5379474399217843
 40
0.6578738318204249
 40
0.7827168403988554
 40
0.905657488339111
 40
1.0
 40
1.0
 40
1.0
 40
1.0
 10
96.86971317612034
 20
706.3435897446924
 30
0.0
 10
96.86733522697052
 20
706.3200180750969
 30
0.0
 10
96.8604874456048
 20
706.2451298708028
 30
0.0
 10
96.90769572025226
 20
706.1188685753363
 30
0.0
 10
96.98951035496991
 20
706.0014133760253
 30
0.0
 10
97.0816807066552
 20
705.9245006565624
 30
0.0
 10
97.16878251260607
 20
705.8789209638701
 30
0.0
 10
97.24103118968964
 20
705.8559661166823
 30
0.0
 10
97.29264542006594
 20
705.8457568304952
 30
0.0
 10
97.34018932802907
 20
705.8395391643847
 30
0.0
 10
97.42507549312914
 20
705.8330370554421
 30
0.0
 10
97.5886250561473
 20
705.8283253950389
 30
0.0
 10
97.87423724988714
 20
705.8269258501497
 30
0.0
 10
98.17452633229323
 20
705.8297303011416
 30
0.0
 10
98.44464844593787
 20
705.8357349853491
 30
0.0
 10
98.59399315673062
 20
705.8409741771967
 30
0.0
 10
98.65013640683904
 20
705.8434568590906
 30
0.0
  0
LINE
  5
148
330
97
100
AcDbEntity
  8
DV1_Default
 62
     7
100
AcDbLine
 10
96.8621988805
 20
706.9000873338
 30
0.0
 11
96.8621988806
 21
706.3069564324
 31
0.0
  0
LINE
  5
149
330
97
100
AcDbEntity
  8
DV1_Default
 62
     7
100
AcDbLine
 10
98.8425124183
 20
705.8547922318
 30
0.0
 11
98.8487847604
 21
705.8553315643
 31
0.0
  0
SPLINE
  5
14A
330
97
100
AcDbEntity
  8
DV1_Default
 62
     7
100
AcDbSpline
210
0.0
220
0.0
230
1.0
 70
     8
 71
     3
 72
    14
 73
    10
 74
     0
 42
0.000000001
 43
0.0000000001
 40
0.0
 40
0.0
 40
0.0
 40
0.0
 40
0.1483943552311302
 40
0.2622432103485701
 40
0.3707692637409645
 40
0.5078649778706725
 40
0.6837268729047689
 40
0.874709270187384
 40
1.0
 40
1.0
 40
1.0
 40
1.0
 10
100.7639525483905
 20
706.0450636849885
 30
0.0
 10
100.7875028838333
 20
706.0473007307435
 30
0.0
 10
100.8246799316133
 20
706.0519672587598
 30
0.0
 10
100.8960693393046
 20
706.0652566205175
 30
0.0
 10
100.9924013711439
 20
706.0986675635403
 30
0.0
 10
101.1011390233789
 20
706.1656545782117
 30
0.0
 10
101.2036215672198
 20
706.2795316967154
 30
0.0
 10
101.2695287049769
 20
706.4225829126975
 30
0.0
 10
101.2689763905515
 20
706.513238958484
 30
0.0
 10
101.267988948373
 20
706.5550035086983
 30
0.0
  0
LINE
  5
14B
330
97
100
AcDbEntity
  8
DV1_Default
 62
     7
100
AcDbLine
 10
101.2756160425
 20
706.512596763
 30
0.0
 11
101.2756160425
 21
707.0836241149
 31
0.0
  0
LINE
  5
14C
330
97
100
AcDbEntity
  8
DV1_Default
 62
     7
100
AcDbLine
 10
76.5911040667
 20
705.8536964856
 30
0.0
 11
78.2214982091
 21
705.9317587012
 31
0.0
  0
ARC
  5
14D
330
97
100
AcDbEntity
  8
DV1_Default
 62
     7
100
AcDbCircle
 10
78.0842111759
 20
706.2137986438
 30
0.0
 40
0.3136785913945105
100
AcDbArc
 50
295.9551749071
 51
17.2766001711
  0
LINE
  5
14E
330
97
100
AcDbEntity
  8
DV1_Default
 62
     7
100
AcDbLine
 10
115.7659907183
 20
706.0742157551
 30
0.0
 11
120.9832004181
 21
706.968262898
 31
0.0
  0
SPLINE
  5
14F
330
97
100
AcDbEntity
  8
DV1_Default
 62
     7
100
AcDbSpline
210
0.0
220
0.0
230
1.0
 70
     8
 71
     3
 72
     8
 73
     4
 74
     0
 42
0.000000001
 43
0.0000000001
 40
0.0
 40
0.0
 40
0.0
 40
0.0
 40
1.0
 40
1.0
 40
1.0
 40
1.0
 10
120.9832004180642
 20
706.9682628980128
 30
0.0
 10
121.3249611100221
 20
707.1669616168825
 30
0.0
 10
121.445261410351
 20
707.40756221754
 30
0.0
 10
121.3441013190505
 20
707.6900646999852
 30
0.0
  0
LINE
  5
150
330
97
100
AcDbEntity
  8
DV1_Default
 62
     7
100
AcDbLine
 10
185.2191571762
 20
536.2521302603
 30
0.0
 11
185.8296262255
 21
537.7689330064
 31
0.0
  0
LINE
  5
151
330
97
100
AcDbEntity
  8
DV1_Default
 62
     7
100
AcDbLine
 10
146.1420430054
 20
535.9813008656
 30
0.0
 11
154.7489766272
 21
535.9961264108
 31
0.0
  0
LINE
  5
152
330
97
100
AcDbEntity
  8
DV1_Default
 62
     7
100
AcDbLine
 10
128.5099075109
 20
583.9814621039
 30
0.0
 11
135.7099075109
 21
583.981459178
 31
0.0
  0
LINE
  5
153
330
97
100
AcDbEntity
  8
DV1_Default
 62
     7
100
AcDbLine
 10
128.5099075109
 20
535.9813037914
 30
0.0
 11
135.7099075109
 21
535.9813008656
 31
0.0
  0
ENDBLK
  5
155
330
97
100
AcDbEntity
  8
0
100
AcDbBlockEnd
  0
BLOCK
  5
233
330
156
100
AcDbEntity
  8
0
100
AcDbBlockBegin
  2
SE1
 70
     0
 10
0.0
 20
0.0
 30
0.0
  3
SE1
  1

  0
LINE
  5
159
330
156
100
AcDbEntity
  8
DV2_Default
 62
     7
100
AcDbLine
 10
323.5009762558
 20
692.9827738855
 30
0.0
 11
294.5003249968
 21
692.9827738855
 31
0.0
  0
SPLINE
  5
15A
330
156
100
AcDbEntity
  8
DV2_Default
 62
     7
100
AcDbSpline
210
0.0
220
0.0
230
1.0
 70
     8
 71
     3
 72
    21
 73
    17
 74
     0
 42
0.000000001
 43
0.0000000001
 40
0.0
 40
0.0
 40
0.0
 40
0.0
 40
0.0375183829248722
 40
0.081683844386281
 40
0.1297765822753025
 40
0.1815678270824729
 40
0.2368251169663699
 40
0.2942421268552012
 40
0.3545517468969708
 40
0.4175287571613142
 40
0.4829472017978507
 40
0.5801882656396707
 40
0.6812885448429822
 40
0.7855865030704703
 40
0.8924208956037408
 40
1.0
 40
1.0
 40
1.0
 40
1.0
 10
293.9946318381188
 20
692.4837782824376
 30
0.0
 10
293.97383924837
 20
689.7342410515249
 30
0.0
 10
293.9314027378831
 20
684.6789319778702
 30
0.0
 10
293.6330200562387
 20
675.8569382830901
 30
0.0
 10
293.1844565896508
 20
666.3260132438493
 30
0.0
 10
292.5782400125034
 20
655.9905711498195
 30
0.0
 10
291.8421596909851
 20
645.0627013623547
 30
0.0
 10
290.9906550254978
 20
633.5677303189041
 30
0.0
 10
290.0404964732222
 20
621.5662632503983
 30
0.0
 10
289.0009150794372
 20
609.0370195886512
 30
0.0
 10
287.7175023871499
 20
594.0577924625368
 30
0.0
 10
286.1810478656268
 20
576.5588126164845
 30
0.0
 10
284.3992400222293
 20
556.4465630018772
 30
0.0
 10
282.5882805206592
 20
535.831747642109
 30
0.0
 10
280.7338257288775
 20
514.2605416195403
 30
0.0
 10
279.6585265882925
 20
501.0663472501498
 30
0.0
 10
279.0191783047751
 20
493.2081458721446
 30
0.0
  0
SPLINE
  5
15B
330
156
100
AcDbEntity
  8
DV2_Default
 62
     7
100
AcDbSpline
210
0.0
220
0.0
230
1.0
 70
     8
 71
     3
 72
    21
 73
    17
 74
     0
 42
0.000000001
 43
0.0000000001
 40
0.0
 40
0.0
 40
0.0
 40
0.0
 40
0.098783571305824
 40
0.1960679267205618
 40
0.2913576153595128
 40
0.3841565023195985
 40
0.4739681368796445
 40
0.5602961556692498
 40
0.6426447642273019
 40
0.7042333398579854
 40
0.7628208139172482
 40
0.8181692792230948
 40
0.8700425119357527
 40
0.918206763949521
 40
0.9624319979424713
 40
1.0
 40
1.0
 40
1.0
 40
1.0
 10
339.0006510486183
 20
492.9827738855218
 30
0.0
 10
338.4138295538924
 20
500.2067367776351
 30
0.0
 10
337.4309970890507
 20
512.2844702543938
 30
0.0
 10
335.7424406901193
 20
532.0256594471815
 30
0.0
 10
334.0923960882117
 20
550.8893378964885
 30
0.0
 10
332.456267399568
 20
569.3784812743609
 30
0.0
 10
330.8794556505867
 20
587.2407594331519
 30
0.0
 10
329.3892505507978
 20
604.4190353409103
 30
0.0
 10
328.108002654942
 20
619.7240121257693
 30
0.0
 10
327.0393106010741
 20
633.1897541494294
 30
0.0
 10
326.1727570196712
 20
644.8666414119253
 30
0.0
 10
325.4289719952848
 20
655.8962077163657
 30
0.0
 10
324.8203061436017
 20
666.2596131252246
 30
0.0
 10
324.3698818592456
 20
675.8154128885842
 30
0.0
 10
324.0702046579175
 20
684.6596813346697
 30
0.0
 10
324.0275729811804
 20
689.7274907102376
 30
0.0
 10
324.0066818541534
 20
692.4837787416503
 30
0.0
  0
ARC
  5
15C
330
156
100
AcDbEntity
  8
DV2_Default
 62
     7
100
AcDbCircle
 10
323.5010862853
 20
692.4828995474
 30
0.0
 40
0.4998743974531072
100
AcDbArc
 50
0.0830787408
 51
90.0279100508
  0
ARC
  5
15D
330
156
100
AcDbEntity
  8
DV2_Default
 62
     7
100
AcDbCircle
 10
294.5002149673
 20
692.4828995474
 30
0.0
 40
0.4998743974531374
100
AcDbArc
 50
89.9720899492
 51
179.9169212592
  0
ARC
  5
15E
330
156
100
AcDbEntity
  8
DV2_Default
 62
     7
100
AcDbCircle
 10
279.2173128499
 20
493.1827738855
 30
0.0
 40
0.1999999999999903
100
AcDbArc
 50
175.4186019066
 51
270.0
  0
ARC
  5
15F
330
156
100
AcDbEntity
  8
DV2_Default
 62
     7
100
AcDbCircle
 10
338.7839887236
 20
493.1827738855
 30
0.0
 40
0.2
100
AcDbArc
 50
270.0
 51
4.5813980934
  0
LINE
  5
160
330
156
100
AcDbEntity
  8
DV2_Default
 62
     7
100
AcDbLine
 10
495.412585008
 20
818.2993296272
 30
0.0
 11
508.3589465103
 21
827.7054118416
 31
0.0
  0
LINE
  5
161
330
156
100
AcDbEntity
  8
DV2_Default
 62
     7
100
AcDbLine
 10
309.0006506263
 20
693.4827738855
 30
0.0
 11
294.0017394204
 21
693.4827738855
 31
0.0
  0
LINE
  5
162
330
156
100
AcDbEntity
  8
DV2_Default
 62
     7
100
AcDbLine
 10
309.0006506263
 20
693.4827738855
 30
0.0
 11
323.9995618322
 21
693.4827738857
 31
0.0
  0
LINE
  5
163
330
156
100
AcDbEntity
  8
DV2_Default
 62
     7
100
AcDbLine
 10
495.412585008
 20
818.2993296272
 30
0.0
 11
482.466223455
 21
808.8932474888
 31
0.0
  0
SPLINE
  5
164
330
156
100
AcDbEntity
  8
DV2_Default
 62
     7
100
AcDbSpline
210
0.0
220
0.0
230
1.0
 70
     8
 71
     3
 72
    57
 73
    53
 74
     0
 42
0.000000001
 43
0.0000000001
 40
0.0
 40
0.0
 40
0.0
 40
0.0
 40
0.0452498354662735
 40
0.087793367268275
 40
0.1276472591352614
 40
0.1648426334210639
 40
0.199430355323687
 40
0.2314825778561309
 40
0.2610919386410813
 40
0.2883692871448409
 40
0.3134405071936124
 40
0.3364428118738613
 40
0.3575206504540276
 40
0.3768207104132428
 40
0.3944867868109845
 40
0.4106558968323009
 40
0.4310170826111385
 40
0.4490061544118053
 40
0.4648910541497409
 40
0.4788950264077736
 40
0.4912001043290971
 40
0.5019520429919501
 40
0.5115771142404654
 40
0.5219345759996976
 40
0.5332745800353318
 40
0.5455550945665735
 40
0.5621836188270172
 40
0.5802160553078951
 40
0.5991059700025186
 40
0.6168699014890593
 40
0.6280431791149733
 40
0.6387074441829691
 40
0.6488779811379155
 40
0.6585639136276102
 40
0.6680244467049653
 40
0.6792691567144966
 40
0.6927517229890438
 40
0.7085036482468235
 40
0.7265504836306763
 40
0.7415992021830092
 40
0.7579385499025868
 40
0.775554617956668
 40
0.7944292603088098
 40
0.814549406670657
 40
0.8359233085975601
 40
0.8586043661031996
 40
0.8827186267049051
 40
0.903188558592915
 40
0.9248829104187435
 40
0.9480296649165882
 40
0.9729336424600502
 40
1.0
 40
1.0
 40
1.0
 40
1.0
 10
323.9995618322046
 20
693.482773885522
 30
0.0
 10
323.9975206865652
 20
698.6627930416345
 30
0.0
 10
324.0032486356799
 20
707.1229318983852
 30
0.0
 10
324.087998264329
 20
720.6624999572623
 30
0.0
 10
324.3291444649102
 20
733.0444984400154
 30
0.0
 10
324.7625097542837
 20
744.6701581094361
 30
0.0
 10
325.407552459352
 20
755.4544028457221
 30
0.0
 10
326.2673171187447
 20
765.4361794267559
 30
0.0
 10
327.3339730181058
 20
774.6315994599393
 30
0.0
 10
328.5918987677347
 20
783.0693116144834
 30
0.0
 10
330.0204249361735
 20
790.781538810593
 30
0.0
 10
331.5958737071866
 20
797.8053213675582
 30
0.0
 10
333.2930869461052
 20
804.1810047921084
 30
0.0
 10
335.0864889985089
 20
809.9510576607955
 30
0.0
 10
336.9509322450286
 20
815.1588523255398
 30
0.0
 10
339.080629876937
 20
820.3832275656601
 30
0.0
 10
341.4917253016376
 20
825.5233014079315
 30
0.0
 10
344.1971750156088
 20
830.4807110281461
 30
0.0
 10
346.8415786778175
 20
834.7070459279464
 30
0.0
 10
349.3804782172857
 20
838.2924870627094
 30
0.0
 10
351.7760990073086
 20
841.3173775958122
 30
0.0
 10
354.0181424856296
 20
843.8766789641265
 30
0.0
 10
356.2341396863628
 20
846.184543017057
 30
0.0
 10
358.5991577695295
 20
848.429707631285
 30
0.0
 10
361.2878237650696
 20
850.7291864644426
 30
0.0
 10
364.6258630182505
 20
853.2636153723556
 30
0.0
 10
368.7269413268328
 20
855.9292039915605
 30
0.0
 10
373.6603979453645
 20
858.5389749752703
 30
0.0
 10
378.9332461974659
 20
860.7052401591158
 30
0.0
 10
383.7037588664127
 20
862.1506329575291
 30
0.0
 10
387.7274456679145
 20
863.051337431368
 30
0.0
 10
391.0145766826431
 20
863.600283396982
 30
0.0
 10
394.171363648532
 20
863.9628488730384
 30
0.0
 10
397.21662528926
 20
864.1665442303923
 30
0.0
 10
400.3796162637877
 20
864.2363195036517
 30
0.0
 10
403.9379035865321
 20
864.1470284413444
 30
0.0
 10
408.1395900090913
 20
863.8116991197113
 30
0.0
 10
413.0142329126759
 20
863.116228538333
 30
0.0
 10
417.9900162778195
 20
862.0529946087332
 30
0.0
 10
422.943780030985
 20
860.6546458380337
 30
0.0
 10
427.7636906000302
 20
858.978454875884
 30
0.0
 10
432.8363518156335
 20
856.8482567301475
 30
0.0
 10
438.1093914547994
 20
854.2105175654924
 30
0.0
 10
443.5237614662312
 20
851.013487250569
 30
0.0
 10
449.0189520436514
 20
847.2071452772901
 30
0.0
 10
454.5411862864981
 20
842.7436080014644
 30
0.0
 10
459.6544036386012
 20
837.9526933377325
 30
0.0
 10
464.3894261570466
 20
832.936051987195
 30
0.0
 10
468.807675924609
 20
827.7564318837392
 30
0.0
 10
473.2527729043935
 20
822.0612316694869
 30
0.0
 10
477.9251228083594
 20
815.6072400076632
 30
0.0
 10
480.7349934909099
 20
811.4629209798157
 30
0.0
 10
482.4662235056883
 20
808.893247412875
 30
0.0
  0
SPLINE
  5
165
330
156
100
AcDbEntity
  8
DV2_Default
 62
     7
100
AcDbSpline
210
0.0
220
0.0
230
1.0
 70
     8
 71
     3
 72
    56
 73
    52
 74
     0
 42
0.000000001
 43
0.0000000001
 40
0.0
 40
0.0
 40
0.0
 40
0.0
 40
0.0257688255918752
 40
0.0506723263442738
 40
0.0747094750205649
 40
0.0978366389810704
 40
0.1199963194964743
 40
0.1407601377105522
 40
0.1604781185749891
 40
0.1791030406719853
 40
0.1965954899155348
 40
0.2171666565819936
 40
0.2357893321116152
 40
0.2524106161141912
 40
0.2669837155874226
 40
0.2769706222997514
 40
0.2856504040728238
 40
0.2937138898769451
 40
0.3019677439673444
 40
0.3214415423951655
 40
0.3419236027067618
 40
0.3634257539891589
 40
0.3859517775307728
 40
0.4087645369119347
 40
0.4314115307586487
 40
0.453924706852285
 40
0.4763533686447935
 40
0.4987511563282953
 40
0.5206482150064543
 40
0.5417472185809827
 40
0.5620350481332027
 40
0.5750949811635858
 40
0.5877647148424082
 40
0.6000268871729899
 40
0.6120097328205096
 40
0.6252478812800231
 40
0.6402198090410915
 40
0.6545050768382602
 40
0.6702018137845636
 40
0.6873848830672266
 40
0.7061361461072762
 40
0.7265443376683229
 40
0.7487049465910577
 40
0.772719298291929
 40
0.7986916301051106
 40
0.8267240488975897
 40
0.8569090421654811
 40
0.8893190353822862
 40
0.9239924452378457
 40
0.9609156205062354
 40
1.0
 40
1.0
 40
1.0
 40
1.0
 10
508.3589465102905
 20
827.7054118415809
 30
0.0
 10
506.1151770026822
 20
830.6030394786848
 30
0.0
 10
502.3853383724896
 20
835.3901895659005
 30
0.0
 10
496.3068104026195
 20
843.137509878994
 30
0.0
 10
490.3120147941252
 20
850.2122853281675
 30
0.0
 10
484.1882808735241
 20
856.7789020767344
 30
0.0
 10
478.0239725278976
 20
862.6913548789751
 30
0.0
 10
471.8607888491222
 20
867.9536852598903
 30
0.0
 10
465.7672282793163
 20
872.572083338565
 30
0.0
 10
459.7689373531098
 20
876.5959458405754
 30
0.0
 10
453.4586832495553
 20
880.331008576885
 30
0.0
 10
446.9294655486225
 20
883.6728021988677
 30
0.0
 10
440.3005200429894
 20
886.5364064988609
 30
0.0
 10
434.2415042512281
 20
888.7313838376216
 30
0.0
 10
429.1420600714193
 20
890.2707177289682
 30
0.0
 10
424.976873610136
 20
891.3326028057708
 30
0.0
 10
421.6008350383358
 20
892.0739940525997
 30
0.0
 10
418.4241671344372
 20
892.6713752041013
 30
0.0
 10
413.8525033317716
 20
893.3909246339687
 30
0.0
 10
407.6479540005829
 20
894.0452423457157
 30
0.0
 10
399.6977689551218
 20
894.2830579717098
 30
0.0
 10
391.3583006560963
 20
893.8572267038782
 30
0.0
 10
382.7872275974943
 20
892.6643108832426
 30
0.0
 10
374.217896616965
 20
890.6495892758508
 30
0.0
 10
365.8810130672974
 20
887.8268447131443
 30
0.0
 10
357.9019462282124
 20
884.2297956246101
 30
0.0
 10
350.3399202171688
 20
879.8873638602523
 30
0.0
 10
343.300516553804
 20
874.8776105400118
 30
0.0
 10
336.8949816953097
 20
869.3411227451707
 30
0.0
 10
331.1929436270011
 20
863.4599615387285
 30
0.0
 10
326.7108695339999
 20
858.022521106281
 30
0.0
 10
323.212468777833
 20
853.2078093632172
 30
0.0
 10
320.505989363032
 20
849.1068662586503
 30
0.0
 10
318.0445642152208
 20
845.0163975962292
 30
0.0
 10
315.7075204684298
 20
840.7697052774623
 30
0.0
 10
313.3774889823458
 20
836.1233680695628
 30
0.0
 10
311.1146533732332
 20
831.1150076930334
 30
0.0
 10
308.9310999587939
 20
825.7273089558452
 30
0.0
 10
306.8550968795803
 20
819.9920355086667
 30
0.0
 10
304.825713365667
 20
813.6308995147132
 30
0.0
 10
302.8814526274035
 20
806.608786157208
 30
0.0
 10
301.0605670632654
 20
798.8907220833652
 30
0.0
 10
299.399622230484
 20
790.4419983421109
 30
0.0
 10
297.9317288718724
 20
781.2283413982424
 30
0.0
 10
296.6844272837778
 20
771.2171214163207
 30
0.0
 10
295.6772829876554
 20
760.3764311585758
 30
0.0
 10
294.9191112524762
 20
748.6864353548774
 30
0.0
 10
294.4050769484336
 20
736.103904333005
 30
0.0
 10
294.1127164780497
 20
722.7268217327216
 30
0.0
 10
294.0009527538982
 20
708.1413360988103
 30
0.0
 10
293.9974966977701
 20
699.0412861794331
 30
0.0
 10
294.0017394203996
 20
693.482773885522
 30
0.0
  0
ARC
  5
166
330
156
100
AcDbEntity
  8
DV2_Default
 62
     7
100
AcDbCircle
 10
342.3267629616
 20
661.6548186907
 30
0.0
 40
13.37070905445698
100
AcDbArc
 50
326.6064322371
 51
330.3647381766
  0
ARC
  5
167
330
156
100
AcDbEntity
  8
DV2_Default
 62
     7
100
AcDbCircle
 10
366.6977985019
 20
646.8903436318
 30
0.0
 40
15.1332920380241
100
AcDbArc
 50
143.7863247358
 51
147.4018300276
  0
LINE
  5
168
330
156
100
AcDbEntity
  8
DV2_Default
 62
     7
100
AcDbLine
 10
358.5680360642
 20
657.2332106911
 30
0.0
 11
358.5299092601
 21
657.2538273819
 31
0.0
  0
ARC
  5
169
330
156
100
AcDbEntity
  8
DV2_Default
 62
     7
100
AcDbCircle
 10
257.6019441577
 20
471.0529214247
 30
0.0
 40
211.7953942303306
100
AcDbArc
 50
59.9870956005
 51
61.5287537396
  0
ARC
  5
16A
330
156
100
AcDbEntity
  8
DV2_Default
 62
     7
100
AcDbCircle
 10
257.4367225962
 20
470.5887645767
 30
0.0
 40
212.279975276797
100
AcDbArc
 50
58.4730059724
 51
60.0111446875
  0
LINE
  5
16B
330
156
100
AcDbEntity
  8
DV2_Default
 62
     7
100
AcDbLine
 10
368.4385013754
 20
651.5347651945
 30
0.0
 11
368.4753950168
 21
651.5120146715
 31
0.0
  0
ARC
  5
16C
330
156
100
AcDbEntity
  8
DV2_Default
 62
     7
100
AcDbCircle
 10
355.6375971662
 20
653.2977188478
 30
0.0
 40
14.88805652659712
100
AcDbArc
 50
332.5683826077
 51
336.2434626288
  0
ARC
  5
16D
330
156
100
AcDbEntity
  8
DV2_Default
 62
     7
100
AcDbCircle
 10
383.3614867279
 20
638.0666417921
 30
0.0
 40
16.75203099521583
100
AcDbArc
 50
150.0146579982
 51
153.0141715881
  0
ARC
  5
16E
330
156
100
AcDbEntity
  8
DV2_Default
 62
     7
100
AcDbCircle
 10
72351.0576353204
 20
-43095.4626535642
 30
0.0
 40
84247.79441309776
100
AcDbArc
 50
148.7148104271
 51
148.7473405094
  0
SPLINE
  5
16F
330
156
100
AcDbEntity
  8
DV2_Default
 62
     7
100
AcDbSpline
210
0.0
220
0.0
230
1.0
 70
     8
 71
     3
 72
    12
 73
     8
 74
     0
 42
0.000000001
 43
0.0000000001
 40
0.0
 40
0.0
 40
0.0
 40
0.0
 40
0.2658350599548622
 40
0.4737598958580728
 40
0.6590237057441871
 40
0.7586947713089627
 40
1.0
 40
1.0
 40
1.0
 40
1.0
 10
358.54559634847
 20
657.2450986391945
 30
0.0
 10
358.1477479319663
 20
657.4431668745535
 30
0.0
 10
357.5382070134775
 20
657.7180533430412
 30
0.0
 10
356.5351059044754
 20
657.677466906355
 30
0.0
 10
355.852005921956
 20
657.3233162975699
 30
0.0
 10
355.1809965741575
 20
656.7667941276954
 30
0.0
 10
354.8041503724468
 20
656.2960126699707
 30
0.0
 10
354.4953343240824
 20
655.8983480911486
 30
0.0
  0
ARC
  5
170
330
156
100
AcDbEntity
  8
DV2_Default
 62
     7
100
AcDbCircle
 10
-194.0691766524
 20
1011.5945458216
 30
0.0
 40
653.8217812851218
100
AcDbArc
 50
326.8753084961
 51
326.8959174991
  0
ARC
  5
171
330
156
100
AcDbEntity
  8
DV2_Default
 62
     7
100
AcDbCircle
 10
951.6429043094
 20
350.117367455
 30
0.0
 40
653.821781131695
100
AcDbArc
 50
153.1040825009
 51
153.1246915039
  0
SPLINE
  5
172
330
156
100
AcDbEntity
  8
DV2_Default
 62
     7
100
AcDbSpline
210
0.0
220
0.0
230
1.0
 70
     8
 71
     3
 72
    17
 73
    13
 74
     0
 42
0.000000001
 43
0.0000000001
 40
0.0
 40
0.0
 40
0.0
 40
0.0
 40
0.1858597666076164
 40
0.2849526916020521
 40
0.3955583346443201
 40
0.5013852752069666
 40
0.5756726128731563
 40
0.6824307449544124
 40
0.7189794917776137
 40
0.7694917503189361
 40
0.8573136516699733
 40
1.0
 40
1.0
 40
1.0
 40
1.0
 10
369.3187056938872
 20
647.340070640494
 30
0.0
 10
369.4684623112925
 20
647.7006054454166
 30
0.0
 10
369.6566020769352
 20
648.1681164629833
 30
0.0
 10
369.8168128328402
 20
648.8373059481324
 30
0.0
 10
369.8682542282473
 20
649.347731527754
 30
0.0
 10
369.8316622720819
 20
649.7873422272892
 30
0.0
 10
369.713841362726
 20
650.209942131351
 30
0.0
 10
369.5685258774525
 20
650.4936445005477
 30
0.0
 10
369.4044148013134
 20
650.7254055433428
 30
0.0
 10
369.2429789408892
 20
650.9165729067878
 30
0.0
 10
368.9400756768558
 20
651.2046800131501
 30
0.0
 10
368.6649888585184
 20
651.3879310552055
 30
0.0
 10
368.4598948688617
 20
651.5210757196201
 30
0.0
  0
ARC
  5
173
330
156
100
AcDbEntity
  8
DV2_Default
 62
     7
100
AcDbCircle
 10
-74228.064971899
 20
41512.3516498641
 30
0.0
 40
85057.17583238619
100
AcDbArc
 50
331.2340370565
 51
331.2844768854
  0
LINE
  5
174
330
156
100
AcDbEntity
  8
DV2_Default
 62
     7
100
AcDbLine
 10
482.9737857367
 20
809.2016012639
 30
0.0
 11
485.1010285294
 21
810.8033055925
 31
0.0
  0
LINE
  5
175
330
156
100
AcDbEntity
  8
DV2_Default
 62
     7
100
AcDbLine
 10
482.9737857367
 20
809.2016012639
 30
0.0
 11
482.7397456634
 21
809.0315611994
 31
0.0
  0
LINE
  5
176
330
156
100
AcDbEntity
  8
DV2_Default
 62
     7
100
AcDbLine
 10
483.2179016883
 20
808.2033057207
 30
0.0
 11
508.7828388164
 21
826.7773195475
 31
0.0
  0
LINE
  5
177
330
156
100
AcDbEntity
  8
DV2_Default
 62
     7
100
AcDbLine
 10
505.6083546356
 20
825.7027499657
 30
0.0
 11
485.1010285294
 21
810.8033055925
 31
0.0
  0
LINE
  5
178
330
156
100
AcDbEntity
  8
DV2_Default
 62
     7
100
AcDbLine
 10
505.7113713857
 20
825.7818358348
 30
0.0
 11
505.6083546356
 21
825.7027499657
 31
0.0
  0
LINE
  5
179
330
156
100
AcDbEntity
  8
DV2_Default
 62
     7
100
AcDbLine
 10
505.7196772612
 20
825.7878704065
 30
0.0
 11
505.8489042753
 21
825.8817593269
 31
0.0
  0
LINE
  5
17A
330
156
100
AcDbEntity
  8
DV2_Default
 62
     7
100
AcDbLine
 10
505.7196772612
 20
825.7878704065
 30
0.0
 11
505.7113713857
 21
825.7818358348
 31
0.0
  0
LINE
  5
17B
330
156
100
AcDbEntity
  8
DV2_Default
 62
     7
100
AcDbLine
 10
508.8270851664
 20
827.0566799966
 30
0.0
 11
508.504185431
 21
827.5011133598
 31
0.0
  0
LINE
  5
17C
330
156
100
AcDbEntity
  8
DV2_Default
 62
     7
100
AcDbLine
 10
482.6156415038
 20
808.6919854339
 30
0.0
 11
482.9385412392
 21
808.2475520707
 31
0.0
  0
ARC
  5
17D
330
156
100
AcDbEntity
  8
DV2_Default
 62
     7
100
AcDbCircle
 10
508.3423820315
 20
827.3835563102
 30
0.0
 40
0.199999999999988
100
AcDbArc
 50
35.9999996735
 51
124.9999996735
  0
ARC
  5
17E
330
156
100
AcDbEntity
  8
DV2_Default
 62
     7
100
AcDbCircle
 10
482.7774449034
 20
808.8095424835
 30
0.0
 40
0.2000000000000127
100
AcDbArc
 50
126.9999996735
 51
215.9999996735
  0
ARC
  5
17F
330
156
100
AcDbEntity
  8
DV2_Default
 62
     7
100
AcDbCircle
 10
483.1003446387
 20
808.3651091203
 30
0.0
 40
0.1999999999999768
100
AcDbArc
 50
215.9999996735
 51
305.9999996735
  0
ARC
  5
180
330
156
100
AcDbEntity
  8
DV2_Default
 62
     7
100
AcDbCircle
 10
508.6652817668
 20
826.939122947
 30
0.0
 40
0.2000000000000105
100
AcDbArc
 50
310.7165043921
 51
35.9999996735
  0
LINE
  5
181
330
156
100
AcDbEntity
  8
DV2_Default
 62
     7
100
AcDbLine
 10
508.2276667451
 20
827.5473867197
 30
0.0
 11
505.8489042753
 21
825.8817593269
 31
0.0
  0
LINE
  5
182
330
156
100
AcDbEntity
  8
DV2_Default
 62
     7
100
AcDbLine
 10
482.7397456634
 20
809.0315611994
 30
0.0
 11
482.6570818997
 21
808.9692695862
 31
0.0
  0
LINE
  5
183
330
156
100
AcDbEntity
  8
DV2_Default
 62
     7
100
AcDbLine
 10
323.5006506263
 20
692.9827738855
 30
0.0
 11
294.5006506263
 21
692.9827738855
 31
0.0
  0
LINE
  5
184
330
156
100
AcDbEntity
  8
DV2_Default
 62
     7
100
AcDbLine
 10
323.5006506263
 20
693.4827738855
 30
0.0
 11
294.5006506263
 21
693.4827738855
 31
0.0
  0
LINE
  5
185
330
156
100
AcDbEntity
  8
DV2_Default
 62
     7
100
AcDbLine
 10
323.5006506263
 20
692.9827738855
 30
0.0
 11
323.5006506263
 21
693.4827738855
 31
0.0
  0
LINE
  5
186
330
156
100
AcDbEntity
  8
DV2_Default
 62
     7
100
AcDbLine
 10
294.5006506263
 20
693.4827738855
 30
0.0
 11
294.5006506263
 21
692.9827738855
 31
0.0
  0
LINE
  5
187
330
156
100
AcDbEntity
  8
DV2_Default
 62
     7
100
AcDbLine
 10
279.2173128499
 20
492.9827738855
 30
0.0
 11
279.1871536435
 21
492.9827738855
 31
0.0
  0
LINE
  5
188
330
156
100
AcDbEntity
  8
DV2_Default
 62
     7
100
AcDbLine
 10
339.3353237541
 20
488.1967251803
 30
0.0
 11
339.0136604191
 21
492.7967251803
 31
0.0
  0
LINE
  5
189
330
156
100
AcDbEntity
  8
DV2_Default
 62
     7
100
AcDbLine
 10
278.9876408335
 20
492.7967251803
 30
0.0
 11
278.6659774985
 21
488.1967251803
 31
0.0
  0
ARC
  5
18A
330
156
100
AcDbEntity
  8
DV2_Default
 62
     7
100
AcDbCircle
 10
278.8654903086
 20
488.1827738855
 30
0.0
 40
0.1999999999999941
100
AcDbArc
 50
176.0
 51
270.0
  0
ARC
  5
18B
330
156
100
AcDbEntity
  8
DV2_Default
 62
     7
100
AcDbCircle
 10
339.135810944
 20
488.1827738855
 30
0.0
 40
0.1999999999999997
100
AcDbArc
 50
270.0
 51
4.0
  0
ARC
  5
18C
330
156
100
AcDbEntity
  8
DV2_Default
 62
     7
100
AcDbCircle
 10
338.8141476091
 20
492.7827738855
 30
0.0
 40
0.1999999999999998
100
AcDbArc
 50
4.0
 51
90.0
  0
ARC
  5
18D
330
156
100
AcDbEntity
  8
DV2_Default
 62
     7
100
AcDbCircle
 10
279.1871536435
 20
492.7827738855
 30
0.0
 40
0.1999999999999997
100
AcDbArc
 50
90.0
 51
176.0
  0
LINE
  5
18E
330
156
100
AcDbEntity
  8
DV2_Default
 62
     7
100
AcDbLine
 10
278.6506506263
 20
487.4827738855
 30
0.0
 11
339.3506506263
 21
487.4827738855
 31
0.0
  0
LINE
  5
18F
330
156
100
AcDbEntity
  8
DV2_Default
 62
     7
100
AcDbLine
 10
339.3506506263
 20
487.4827738855
 30
0.0
 11
339.3506506263
 21
487.9827738855
 31
0.0
  0
LINE
  5
190
330
156
100
AcDbEntity
  8
DV2_Default
 62
     7
100
AcDbLine
 10
278.6506506263
 20
487.9827738855
 30
0.0
 11
278.6506506263
 21
487.4827738855
 31
0.0
  0
LINE
  5
191
330
156
100
AcDbEntity
  8
DV2_Default
 62
     7
100
AcDbLine
 10
486.0940614986
 20
810.2929023771
 30
0.0
 11
487.3364453758
 21
811.1955470892
 31
0.0
  0
LINE
  5
192
330
156
100
AcDbEntity
  8
DV2_Default
 62
     7
100
AcDbLine
 10
485.8876577808
 20
810.1429970381
 30
0.0
 11
485.8883090859
 21
810.1421005935
 31
0.0
  0
LINE
  5
193
330
156
100
AcDbEntity
  8
DV2_Default
 62
     7
100
AcDbLine
 10
552.376747401
 20
706.6285585723
 30
0.0
 11
554.3223023808
 21
706.6781860236
 31
0.0
  0
SPLINE
  5
194
330
156
100
AcDbEntity
  8
DV2_Default
 62
     7
100
AcDbSpline
210
0.0
220
0.0
230
1.0
 70
     8
 71
     3
 72
    13
 73
     9
 74
     0
 42
0.000000001
 43
0.0000000001
 40
0.0
 40
0.0
 40
0.0
 40
0.0
 40
0.1258827605474856
 40
0.235600629204085
 40
0.3291273091323296
 40
0.4064409188116643
 40
0.8000414960929608
 40
0.9999999999999999
 40
0.9999999999999999
 40
0.9999999999999999
 40
0.9999999999999999
 10
519.9952198978507
 20
707.061351034575
 30
0.0
 10
519.8986830519673
 20
707.0657624958222
 30
0.0
 10
519.7179869234492
 20
707.0740189325343
 30
0.0
 10
519.4500849873513
 20
707.0848683747989
 30
0.0
 10
519.2258878533813
 20
707.0935293073159
 30
0.0
 10
518.79355827302
 20
707.1089574955693
 30
0.0
 10
518.3605409885586
 20
707.1191128850676
 30
0.0
 10
518.2694231870418
 20
707.1146749231754
 30
0.0
 10
518.2699814249087
 20
707.1118931785576
 30
0.0
  0
LINE
  5
195
330
156
100
AcDbEntity
  8
DV2_Default
 62
     7
100
AcDbLine
 10
523.519668135
 20
706.9112517467
 30
0.0
 11
519.9952299991
 21
707.0613510346
 31
0.0
  0
SPLINE
  5
196
330
156
100
AcDbEntity
  8
DV2_Default
 62
     7
100
AcDbSpline
210
0.0
220
0.0
230
1.0
 70
     8
 71
     3
 72
    14
 73
    10
 74
     0
 42
0.000000001
 43
0.0000000001
 40
0.0
 40
0.0
 40
0.0
 40
0.0
 40
0.1050760135958324
 40
0.1966556076749472
 40
0.2747168185369075
 40
0.3392413706411485
 40
0.6677690475810494
 40
0.9969681875667719
 40
1.0
 40
1.0
 40
1.0
 40
1.0
 10
525.6607680817339
 20
707.0614802122384
 30
0.0
 10
525.5839412031013
 20
707.0658924692854
 30
0.0
 10
525.4401204135514
 20
707.0741502539225
 30
0.0
 10
525.1957654028163
 20
707.085001691667
 30
0.0
 10
524.9754960252486
 20
707.0936641791226
 30
0.0
 10
524.5218659709248
 20
707.109096291267
 30
0.0
 10
523.7968095642465
 20
707.1222052878246
 30
0.0
 10
523.5324815036787
 20
707.110424532084
 30
0.0
 10
523.5268232131056
 20
707.1003126709489
 30
0.0
 10
523.5267822080407
 20
707.1002200489718
 30
0.0
  0
LINE
  5
197
330
156
100
AcDbEntity
  8
DV2_Default
 62
     7
100
AcDbLine
 10
529.1961548859
 20
706.864731906
 30
0.0
 11
525.6607867688
 21
707.0614802122
 31
0.0
  0
SPLINE
  5
198
330
156
100
AcDbEntity
  8
DV2_Default
 62
     7
100
AcDbSpline
210
0.0
220
0.0
230
1.0
 70
     8
 71
     3
 72
     9
 73
     5
 74
     0
 42
0.000000001
 43
0.0000000001
 40
0.0
 40
0.0
 40
0.0
 40
0.0
 40
0.9997548699090596
 40
0.9999999999999999
 40
0.9999999999999999
 40
0.9999999999999999
 40
0.9999999999999999
 10
529.5623689464109
 20
706.8339207899511
 30
0.0
 10
529.5602701767366
 20
706.8420505185562
 30
0.0
 10
529.4217063351791
 20
706.8536233319336
 30
0.0
 10
529.1962101464321
 20
706.8647291836303
 30
0.0
 10
529.1961557321279
 20
706.8647319060087
 30
0.0
  0
SPLINE
  5
199
330
156
100
AcDbEntity
  8
DV2_Default
 62
     7
100
AcDbSpline
210
0.0
220
0.0
230
1.0
 70
     8
 71
     3
 72
    15
 73
    11
 74
     0
 42
0.000000001
 43
0.0000000001
 40
0.0
 40
0.0
 40
0.0
 40
0.0
 40
0.0898274723019713
 40
0.1681321898405291
 40
0.2348954368053134
 40
0.2901016379962912
 40
0.5710386305335982
 40
0.8525512347809227
 40
0.9749769264319248
 40
1.0
 40
1.0
 40
1.0
 40
1.0
 10
533.8011917600511
 20
707.0615999869896
 30
0.0
 10
533.7557920788361
 20
707.0660113162678
 30
0.0
 10
533.6707707837055
 20
707.0742681048946
 30
0.0
 10
533.487206603517
 20
707.0851179498104
 30
0.0
 10
533.3043746157896
 20
707.0937802537385
 30
0.0
 10
532.8984645129634
 20
707.1092091571563
 30
0.0
 10
532.1172233779512
 20
707.122304324001
 30
0.0
 10
531.5178933169249
 20
707.1080201423342
 30
0.0
 10
531.3969786063335
 20
707.0900854595168
 30
0.0
 10
531.3984439436754
 20
707.083372228056
 30
0.0
 10
531.3997478569834
 20
707.0822194965535
 30
0.0
  0
LINE
  5
19A
330
156
100
AcDbEntity
  8
DV2_Default
 62
     7
100
AcDbLine
 10
535.7145424287
 20
706.8648238293
 30
0.0
 11
533.8012161364
 21
707.061599987
 31
0.0
  0
SPLINE
  5
19B
330
156
100
AcDbEntity
  8
DV2_Default
 62
     7
100
AcDbSpline
210
0.0
220
0.0
230
1.0
 70
     8
 71
     3
 72
     9
 73
     5
 74
     0
 42
0.000000001
 43
0.0000000001
 40
0.0
 40
0.0
 40
0.0
 40
0.0
 40
0.9995072346695245
 40
1.0
 40
1.0
 40
1.0
 40
1.0
 10
535.8066488716388
 20
706.8479607639657
 30
0.0
 10
535.8069464363529
 20
706.8532511893717
 30
0.0
 10
535.776067160171
 20
706.8589970748665
 30
0.0
 10
535.7145727103259
 20
706.8648209595306
 30
0.0
 10
535.7145435453187
 20
706.864823829339
 30
0.0
  0
ARC
  5
19C
330
156
100
AcDbEntity
  8
DV2_Default
 62
     7
100
AcDbCircle
 10
541.9274542515
 20
694.1897329693
 30
0.0
 40
12.93240511498177
100
AcDbArc
 50
84.4545334424
 51
95.547626643
  0
LINE
  5
19D
330
156
100
AcDbEntity
  8
DV2_Default
 62
     7
100
AcDbLine
 10
543.1772115226
 20
706.8648324165
 30
0.0
 11
543.1772115239
 21
707.0616121965
 31
0.0
  0
ARC
  5
19E
330
156
100
AcDbEntity
  8
DV2_Default
 62
     7
100
AcDbCircle
 10
541.9269353816
 20
722.4430217761
 30
0.0
 40
15.62828132361397
100
AcDbArc
 50
274.54684882
 51
274.588620264
  0
SPLINE
  5
19F
330
156
100
AcDbEntity
  8
DV2_Default
 62
     7
100
AcDbSpline
210
0.0
220
0.0
230
1.0
 70
     8
 71
     3
 72
    14
 73
    10
 74
     0
 42
0.000000001
 43
0.0000000001
 40
0.0
 40
0.0
 40
0.0
 40
0.0
 40
0.0232689628985412
 40
0.0901206929660055
 40
0.1453752130462166
 40
0.4267343033824001
 40
0.7086687382391013
 40
0.8313246001615983
 40
1.0
 40
1.0
 40
1.0
 40
1.0
 10
552.4569478420776
 20
707.0823453074013
 30
0.0
 10
552.4567898989989
 20
707.0834032848068
 30
0.0
 10
552.4528873102305
 20
707.0874603957458
 30
0.0
 10
552.4279823891758
 20
707.0937411537741
 30
0.0
 10
552.2863046758429
 20
707.109177600855
 30
0.0
 10
551.740039253734
 20
707.1222970975061
 30
0.0
 10
550.8850633358383
 20
707.10803989405
 30
0.0
 10
550.3167898117409
 20
707.084119889655
 30
0.0
 10
550.1488802939293
 20
707.0698238464059
 30
0.0
 10
550.0516882849506
 20
707.0615467023857
 30
0.0
  0
SPLINE
  5
1A0
330
156
100
AcDbEntity
  8
DV2_Default
 62
     7
100
AcDbSpline
210
0.0
220
0.0
230
1.0
 70
     8
 71
     3
 72
     9
 73
     5
 74
     0
 42
0.000000001
 43
0.0000000001
 40
0.0
 40
0.0
 40
0.0
 40
0.0
 40
0.6259269170535251
 40
1.0
 40
1.0
 40
1.0
 40
1.0
 10
548.1383348145183
 20
706.8647739976419
 30
0.0
 10
548.1057670457824
 20
706.8612357997079
 30
0.0
 10
548.0537340243246
 20
706.8555830663972
 30
0.0
 10
548.0422603439554
 20
706.8502213640246
 30
0.0
 10
548.0426257932262
 20
706.8482611404474
 30
0.0
  0
LINE
  5
1A1
330
156
100
AcDbEntity
  8
DV2_Default
 62
     7
100
AcDbLine
 10
550.0516637959
 20
707.0615467024
 30
0.0
 11
548.1383358945
 21
706.8647739976
 31
0.0
  0
SPLINE
  5
1A2
330
156
100
AcDbEntity
  8
DV2_Default
 62
     7
100
AcDbSpline
210
0.0
220
0.0
230
1.0
 70
     8
 71
     3
 72
    12
 73
     8
 74
     0
 42
0.000000001
 43
0.0000000001
 40
0.0
 40
0.0
 40
0.0
 40
0.0
 40
0.0004273811629793
 40
0.329506352646444
 40
0.6592597491349322
 40
0.802685080134644
 40
1.0
 40
1.0
 40
1.0
 40
1.0
 10
560.3215870807433
 20
707.1002336166503
 30
0.0
 10
560.321585457097
 20
707.1002465877793
 30
0.0
 10
560.3201637070568
 20
707.1102419812671
 30
0.0
 10
560.0550302305793
 20
707.1221932852563
 30
0.0
 10
559.2623582652257
 20
707.1079206940259
 30
0.0
 10
558.60718128579
 20
707.0839958315446
 30
0.0
 10
558.3415308564546
 20
707.0697010266013
 30
0.0
 10
558.1877174977332
 20
707.0614232305829
 30
0.0
  0
SPLINE
  5
1A3
330
156
100
AcDbEntity
  8
DV2_Default
 62
     7
100
AcDbSpline
210
0.0
220
0.0
230
1.0
 70
     8
 71
     3
 72
    11
 73
     7
 74
     0
 42
0.000000001
 43
0.0000000001
 40
0.0
 40
0.0
 40
0.0
 40
0.0
 40
0.3129659936710848
 40
0.5857857944159283
 40
0.8183921422007983
 40
1.0
 40
1.0
 40
1.0
 40
1.0
 10
554.6523279941271
 20
706.8646773186464
 30
0.0
 10
554.5849323631296
 20
706.8611412518267
 30
0.0
 10
554.4587848084076
 20
706.8545227125827
 30
0.0
 10
554.3483489350449
 20
706.845834382387
 30
0.0
 10
554.2957329585802
 20
706.8390132433763
 30
0.0
 10
554.2857813895672
 20
706.8353674006909
 30
0.0
 10
554.2860072371828
 20
706.8338812664094
 30
0.0
  0
LINE
  5
1A4
330
156
100
AcDbEntity
  8
DV2_Default
 62
     7
100
AcDbLine
 10
558.1876987423
 20
707.0614232306
 30
0.0
 11
554.6523288183
 21
706.8646773186
 31
0.0
  0
SPLINE
  5
1A5
330
156
100
AcDbEntity
  8
DV2_Default
 62
     7
100
AcDbSpline
210
0.0
220
0.0
230
1.0
 70
     8
 71
     3
 72
    11
 73
     7
 74
     0
 42
0.000000001
 43
0.0000000001
 40
0.0
 40
0.0
 40
0.0
 40
0.0
 40
0.1957575867795396
 40
0.5912872959698605
 40
0.763330990707758
 40
1.0
 40
1.0
 40
1.0
 40
1.0
 10
565.5723596220654
 20
707.1119052400455
 30
0.0
 10
565.572533924274
 20
707.114609825197
 30
0.0
 10
565.4826227173601
 20
707.1190915223814
 30
0.0
 10
564.9989634590488
 20
707.107778788457
 30
0.0
 10
564.3566283467512
 20
707.0838593570011
 30
0.0
 10
564.0336832499486
 20
707.0695664218824
 30
0.0
 10
563.84668893885
 20
707.0612899607864
 30
0.0
  0
LINE
  5
1A6
330
156
100
AcDbEntity
  8
DV2_Default
 62
     7
100
AcDbLine
 10
563.8466787958
 20
707.0612899608
 30
0.0
 11
560.3143470225
 21
706.9108573671
 31
0.0
  0
LINE
  5
1A7
330
156
100
AcDbEntity
  8
DV2_Default
 62
     7
100
AcDbLine
 10
529.5552020397
 20
706.7098117039
 30
0.0
 11
531.4204012345
 21
706.6414338855
 31
0.0
  0
LINE
  5
1A8
330
156
100
AcDbEntity
  8
DV2_Default
 62
     7
100
AcDbLine
 10
512.0607295224
 20
707.5003676344
 30
0.0
 11
518.2799835796
 21
707.123158891
 31
0.0
  0
LINE
  5
1A9
330
156
100
AcDbEntity
  8
DV2_Default
 62
     7
100
AcDbLine
 10
565.5545992904
 20
707.1232199218
 30
0.0
 11
572.2691973897
 21
707.4725877319
 31
0.0
  0
ARC
  5
1AA
330
156
100
AcDbEntity
  8
DV2_Default
 62
     7
100
AcDbCircle
 10
477.6240230307
 20
734.4892931337
 30
0.0
 40
31.35296383629252
100
AcDbArc
 50
345.6922677177
 51
0.6772009795
  0
SPLINE
  5
1AB
330
156
100
AcDbEntity
  8
DV2_Default
 62
     7
100
AcDbSpline
210
0.0
220
0.0
230
1.0
 70
     8
 71
     3
 72
     8
 73
     4
 74
     0
 42
0.000000001
 43
0.0000000001
 40
0.0
 40
0.0
 40
0.0
 40
0.0
 40
1.0
 40
1.0
 40
1.0
 40
1.0
 10
507.9503027889281
 20
721.1907194508921
 30
0.0
 10
507.8962676409296
 20
722.7426092247916
 30
0.0
 10
507.8272676577151
 20
724.2735414451739
 30
0.0
 10
507.7440993507848
 20
725.783585592635
 30
0.0
  0
SPLINE
  5
1AC
330
156
100
AcDbEntity
  8
DV2_Default
 62
     7
100
AcDbSpline
210
0.0
220
0.0
230
1.0
 70
     8
 71
     3
 72
     8
 73
     4
 74
     0
 42
0.000000001
 43
0.0000000001
 40
0.0
 40
0.0
 40
0.0
 40
0.0
 40
1.0
 40
1.0
 40
1.0
 40
1.0
 10
507.9503027889281
 20
721.1907194508921
 30
0.0
 10
508.0962588033667
 20
716.9988618458409
 30
0.0
 10
508.1330221927525
 20
712.6540952339304
 30
0.0
 10
508.0448020940756
 20
708.1550490902682
 30
0.0
  0
SPLINE
  5
1AD
330
156
100
AcDbEntity
  8
DV2_Default
 62
     7
100
AcDbSpline
210
0.0
220
0.0
230
1.0
 70
     8
 71
     3
 72
    14
 73
    10
 74
     0
 42
0.000000001
 43
0.0000000001
 40
0.0
 40
0.0
 40
0.0
 40
0.0
 40
0.2499999999999995
 40
0.2499999999999995
 40
0.4999999999999997
 40
0.4999999999999997
 40
0.7499999999999998
 40
0.7499999999999998
 40
1.0
 40
1.0
 40
1.0
 40
1.0
 10
575.5284534675222
 20
708.3258326396287
 30
0.0
 10
568.07066581451
 20
725.4999933346289
 30
0.0
 10
560.8715365915234
 20
740.5355685595846
 30
0.0
 10
547.2818394959997
 20
766.9625973945442
 30
0.0
 10
540.8887767962607
 20
778.3603555089455
 30
0.0
 10
529.2490438409822
 20
797.8430791164255
 30
0.0
 10
524.0029209171397
 20
805.9282239728377
 30
0.0
 10
515.1386087799297
 20
818.829989031262
 30
0.0
 10
511.521474238407
 20
823.6390557357203
 30
0.0
 10
509.0655065812406
 20
826.7468572535861
 30
0.0
  0
ARC
  5
1AE
330
156
100
AcDbEntity
  8
DV2_Default
 62
     7
100
AcDbCircle
 10
378.7678067908
 20
738.7863984239
 30
0.0
 40
125.212935783936
100
AcDbArc
 50
23.5284002725
 51
33.5157273229
  0
ARC
  5
1AF
330
156
100
AcDbEntity
  8
DV2_Default
 62
     7
100
AcDbCircle
 10
339.4334839106
 20
722.7061651411
 30
0.0
 40
167.7531377860156
100
AcDbArc
 50
16.0040402491
 51
17.4029787431
  0
ARC
  5
1B0
330
156
100
AcDbEntity
  8
DV2_Default
 62
     7
100
AcDbCircle
 10
489.4719341916
 20
757.09292126
 30
0.0
 40
16.32410628757489
100
AcDbArc
 50
16.4002118553
 51
46.6151428659
  0
SPLINE
  5
1B1
330
156
100
AcDbEntity
  8
DV2_Default
 62
     7
100
AcDbSpline
210
0.0
220
0.0
230
1.0
 70
     8
 71
     3
 72
     9
 73
     5
 74
     0
 42
0.000000001
 43
0.0000000001
 40
0.0
 40
0.0
 40
0.0
 40
0.0
 40
0.6525557576380926
 40
0.9999999999999999
 40
0.9999999999999999
 40
0.9999999999999999
 40
0.9999999999999999
 10
505.1318604330669
 20
761.7019511146071
 30
0.0
 10
505.1129615699874
 20
761.6943190926478
 30
0.0
 10
505.0839983285235
 20
761.6826230907789
 30
0.0
 10
505.0783820399764
 20
761.6761454846772
 30
0.0
 10
505.0789534009956
 20
761.6743315062827
 30
0.0
  0
SPLINE
  5
1B2
330
156
100
AcDbEntity
  8
DV2_Default
 62
     7
100
AcDbSpline
210
0.0
220
0.0
230
1.0
 70
     8
 71
     3
 72
    12
 73
     8
 74
     0
 42
0.000000001
 43
0.0000000001
 40
0.0
 40
0.0
 40
0.0
 40
0.0
 40
0.2216510999614475
 40
0.4578689308046718
 40
0.7071562325186831
 40
0.9671891161711791
 40
1.0
 40
1.0
 40
1.0
 40
1.0
 10
508.9747969208005
 20
734.859857312317
 30
0.0
 10
508.966826960402
 20
734.8613272796945
 30
0.0
 10
508.9503639736332
 20
734.8643638758642
 30
0.0
 10
508.9384825483809
 20
734.869831511034
 30
0.0
 10
508.9376282239261
 20
734.8759333408012
 30
0.0
 10
508.946681230385
 20
734.8804098697841
 30
0.0
 10
508.954441998353
 20
734.8827975658724
 30
0.0
 10
508.9553473242797
 20
734.8830643292674
 30
0.0
  0
ARC
  5
1B3
330
156
100
AcDbEntity
  8
DV2_Default
 62
     7
100
AcDbCircle
 10
508.2440762745
 20
725.8112558698
 30
0.0
 40
0.5007420178779798
100
AcDbArc
 50
145.237153135
 51
183.1676951121
  0
ARC
  5
1B4
330
156
100
AcDbEntity
  8
DV2_Default
 62
     7
100
AcDbCircle
 10
477.528415427
 20
734.5015080946
 30
0.0
 40
31.44820706701231
100
AcDbArc
 50
344.4989206808
 51
345.7190579615
  0
ARC
  5
1B5
330
156
100
AcDbEntity
  8
DV2_Default
 62
     7
100
AcDbCircle
 10
489.2818046139
 20
756.9771031558
 30
0.0
 40
16.53898085640044
100
AcDbArc
 50
45.7470402069
 51
46.4120557859
  0
ARC
  5
1B6
330
156
100
AcDbEntity
  8
DV2_Default
 62
     7
100
AcDbCircle
 10
482.5118912641
 20
776.9697040656
 30
0.0
 40
16.17376808999735
100
AcDbArc
 50
43.4434584125
 51
46.8620210429
  0
SPLINE
  5
1B7
330
156
100
AcDbEntity
  8
DV2_Default
 62
     7
100
AcDbSpline
210
0.0
220
0.0
230
1.0
 70
     8
 71
     3
 72
     8
 73
     4
 74
     0
 42
0.000000001
 43
0.0000000001
 40
0.0
 40
0.0
 40
0.0
 40
0.0
 40
1.0
 40
1.0
 40
1.0
 40
1.0
 10
509.0655065812406
 20
826.7468572535861
 30
0.0
 10
509.0655147689415
 20
826.7468503529414
 30
0.0
 10
509.0625628694917
 20
826.7446925635953
 30
0.0
 10
509.0566717567464
 20
826.740399061755
 30
0.0
  0
SPLINE
  5
1B8
330
156
100
AcDbEntity
  8
DV2_Default
 62
     7
100
AcDbSpline
210
0.0
220
0.0
230
1.0
 70
     8
 71
     3
 72
     8
 73
     4
 74
     0
 42
0.000000001
 43
0.0000000001
 40
0.0
 40
0.0
 40
0.0
 40
0.0
 40
1.0
 40
1.0
 40
1.0
 40
1.0
 10
508.0512556425733
 20
708.0644165768325
 30
0.0
 10
508.0462171186283
 20
708.0952543245828
 30
0.0
 10
508.0441747192034
 20
708.1257427551466
 30
0.0
 10
508.0448020940756
 20
708.1550490902682
 30
0.0
  0
ARC
  5
1B9
330
156
100
AcDbEntity
  8
DV2_Default
 62
     7
100
AcDbCircle
 10
575.0692160967
 20
708.1281012631
 30
0.0
 40
0.4999966599977846
100
AcDbArc
 50
273.5380407464
 51
23.2950026982
  0
ARC
  5
1BA
330
156
100
AcDbEntity
  8
DV2_Default
 62
     7
100
AcDbCircle
 10
508.544773268
 20
708.1453415935
 30
0.0
 40
0.500108493136161
100
AcDbArc
 50
189.3122564858
 51
266.6059971952
  0
ARC
  5
1BB
330
156
100
AcDbEntity
  8
DV2_Default
 62
     7
100
AcDbCircle
 10
539.1648177179
 20
1309.3503924123
 30
0.0
 40
602.7933770168181
100
AcDbArc
 50
273.1574623253
 51
273.2830934583
  0
LINE
  5
1BC
330
156
100
AcDbEntity
  8
DV2_Default
 62
     7
100
AcDbLine
 10
573.6864563265
 20
707.5463446066
 30
0.0
 11
575.1000689454
 21
707.6291003917
 31
0.0
  0
ARC
  5
1BD
330
156
100
AcDbEntity
  8
DV2_Default
 62
     7
100
AcDbCircle
 10
544.7397512438
 20
1309.3500714183
 30
0.0
 40
602.7933812050665
100
AcDbArc
 50
266.5547613247
 51
266.6992822926
  0
LINE
  5
1BE
330
156
100
AcDbEntity
  8
DV2_Default
 62
     7
100
AcDbLine
 10
510.0329984334
 20
707.5566668745
 30
0.0
 11
511.038746004
 21
707.4995063517
 31
0.0
  0
SPLINE
  5
1BF
330
156
100
AcDbEntity
  8
DV2_Default
 62
     7
100
AcDbSpline
210
0.0
220
0.0
230
1.0
 70
     8
 71
     3
 72
    33
 73
    29
 74
     0
 42
0.000000001
 43
0.0000000001
 40
0.0
 40
0.0
 40
0.0
 40
0.0
 40
0.0069589799573813
 40
0.0380445528082745
 40
0.068185930500622
 40
0.1041636089301355
 40
0.1418998577342058
 40
0.1796509957867795
 40
0.2362388047275105
 40
0.2793373158043765
 40
0.3224066114639289
 40
0.3547458478606614
 40
0.3870690783328912
 40
0.4434050225764023
 40
0.4998371163808872
 40
0.5657482792496276
 40
0.6316760634893354
 40
0.6975933050594797
 40
0.7140532776159733
 40
0.7305105377013227
 40
0.7634045319299233
 40
0.8291262698644394
 40
0.8620797560656922
 40
0.8950993173527151
 40
0.9281454784010689
 40
0.9611685697221801
 40
0.9853699855992125
 40
0.9999999999999999
 40
0.9999999999999999
 40
0.9999999999999999
 40
0.9999999999999999
 10
572.2691973897078
 20
707.4725877319489
 30
0.0
 10
572.2518786581046
 20
707.4726262842315
 30
0.0
 10
572.1447770254922
 20
707.4728396106796
 30
0.0
 10
571.8408621098014
 20
707.4732847396334
 30
0.0
 10
571.1403454437617
 20
707.4740889699847
 30
0.0
 10
570.0930927412844
 20
707.475064132241
 30
0.0
 10
568.6233976455959
 20
707.4762646452965
 30
0.0
 10
566.4854947990357
 20
707.4777496001974
 30
0.0
 10
563.7764906256015
 20
707.4795386184309
 30
0.0
 10
560.5068776638946
 20
707.4814620758618
 30
0.0
 10
557.5080396273848
 20
707.4831254473646
 30
0.0
 10
554.5967165574909
 20
707.4846866181483
 30
0.0
 10
551.1785585382914
 20
707.4864792124428
 30
0.0
 10
546.8800420581993
 20
707.4885684591422
 30
0.0
 10
541.4357636763949
 20
707.4911475923581
 30
0.0
 10
535.6930869478737
 20
707.4935948616283
 30
0.0
 10
529.8957685254401
 20
707.495865393092
 30
0.0
 10
525.8850118357409
 20
707.497291362096
 30
0.0
 10
523.4251023568019
 20
707.498088568113
 30
0.0
 10
521.8453767148497
 20
707.4985600296734
 30
0.0
 10
519.2454224166994
 20
707.499393809011
 30
0.0
 10
516.6847090597446
 20
707.5000102289578
 30
0.0
 10
514.6200561650112
 20
707.5003348186156
 30
0.0
 10
513.3286636404229
 20
707.5004411105293
 30
0.0
 10
512.3092414093303
 20
707.5004416788487
 30
0.0
 10
511.645848610624
 20
707.5002766479162
 30
0.0
 10
511.2865282592758
 20
707.5000918070571
 30
0.0
 10
511.1828562182243
 20
707.4999497837753
 30
0.0
 10
511.1521334650416
 20
707.4998914726733
 30
0.0
  0
SPLINE
  5
1C0
330
156
100
AcDbEntity
  8
DV2_Default
 62
     7
100
AcDbSpline
210
0.0
220
0.0
230
1.0
 70
     8
 71
     3
 72
     8
 73
     4
 74
     0
 42
0.000000001
 43
0.0000000001
 40
0.0
 40
0.0
 40
0.0
 40
0.0
 40
1.0
 40
1.0
 40
1.0
 40
1.0
 10
511.1285349216608
 20
707.4998421864224
 30
0.0
 10
511.1121764683154
 20
707.4998045692536
 30
0.0
 10
511.0985270015534
 20
707.499765241737
 30
0.0
 10
511.0865217401061
 20
707.4997244818304
 30
0.0
  0
SPLINE
  5
1C1
330
156
100
AcDbEntity
  8
DV2_Default
 62
     7
100
AcDbSpline
210
0.0
220
0.0
230
1.0
 70
     8
 71
     3
 72
     9
 73
     5
 74
     0
 42
0.000000001
 43
0.0000000001
 40
0.0
 40
0.0
 40
0.0
 40
0.0
 40
0.3268658386560455
 40
1.0
 40
1.0
 40
1.0
 40
1.0
 10
511.4213088297296
 20
707.5001536848749
 30
0.0
 10
511.4830653267618
 20
707.5001841092699
 30
0.0
 10
511.6944355836002
 20
707.5002670008424
 30
0.0
 10
511.9757561140371
 20
707.5003340991794
 30
0.0
 10
512.1959097969162
 20
707.5003653095159
 30
0.0
  0
SPLINE
  5
1C2
330
156
100
AcDbEntity
  8
DV2_Default
 62
     7
100
AcDbSpline
210
0.0
220
0.0
230
1.0
 70
     8
 71
     3
 72
     8
 73
     4
 74
     0
 42
0.000000001
 43
0.0000000001
 40
0.0
 40
0.0
 40
0.0
 40
0.0
 40
1.0
 40
1.0
 40
1.0
 40
1.0
 10
571.9803353864547
 20
707.4730896447526
 30
0.0
 10
572.0397359858157
 20
707.4730092354005
 30
0.0
 10
572.0925472388283
 20
707.4729326573874
 30
0.0
 10
572.1382364361889
 20
707.4728583992473
 30
0.0
  0
SPLINE
  5
1C3
330
156
100
AcDbEntity
  8
DV2_Default
 62
     7
100
AcDbSpline
210
0.0
220
0.0
230
1.0
 70
     8
 71
     3
 72
     9
 73
     5
 74
     0
 42
0.000000001
 43
0.0000000001
 40
0.0
 40
0.0
 40
0.0
 40
0.0
 40
0.0830557806489241
 40
1.0
 40
1.0
 40
1.0
 40
1.0
 10
572.2861514119593
 20
707.4725578363898
 30
0.0
 10
572.2903718043578
 20
707.4725458188304
 30
0.0
 10
572.3384525316018
 20
707.4724012015743
 30
0.0
 10
572.3532461601661
 20
707.4722564170298
 30
0.0
 10
572.3668116906904
 20
707.4721102498527
 30
0.0
  0
ARC
  5
1C4
330
156
100
AcDbEntity
  8
DV2_Default
 62
     7
100
AcDbCircle
 10
499.9847887801
 20
773.0290908916
 30
0.0
 40
0.4999999311167321
100
AcDbArc
 50
167.2653671563
 51
197.4062449457
  0
SPLINE
  5
1C5
330
156
100
AcDbEntity
  8
DV2_Default
 62
     7
100
AcDbSpline
210
0.0
220
0.0
230
1.0
 70
     8
 71
     3
 72
    22
 73
    18
 74
     0
 42
0.000000001
 43
0.0000000001
 40
0.0
 40
0.0
 40
0.0
 40
0.0
 40
0.125
 40
0.125
 40
0.25
 40
0.25
 40
0.375
 40
0.375
 40
0.5
 40
0.5
 40
0.625
 40
0.625
 40
0.75
 40
0.75
 40
0.875
 40
0.875
 40
1.0
 40
1.0
 40
1.0
 40
1.0
 10
508.7919345264462
 20
826.7845285887277
 30
0.0
 10
508.7915746026911
 20
826.784784367171
 30
0.0
 10
508.4586026041709
 20
826.5427018145583
 30
0.0
 10
507.1770048674828
 20
825.6112048854047
 30
0.0
 10
506.2288834512105
 20
824.9221570624896
 30
0.0
 10
503.8609119005244
 20
823.2013272654632
 30
0.0
 10
502.4419935872797
 20
822.1702224555823
 30
0.0
 10
499.3481744765222
 20
819.9220580060697
 30
0.0
 10
497.6744911286611
 20
818.7058830422802
 30
0.0
 10
494.3258617952543
 20
816.2726694322497
 30
0.0
 10
492.6522335298046
 20
815.0565882805994
 30
0.0
 10
489.5586264457691
 20
812.8087849387433
 30
0.0
 10
488.1398649934007
 20
811.77794728228
 30
0.0
 10
485.772285214859
 20
810.0577847215313
 30
0.0
 10
484.8243985556885
 20
809.3691367189125
 30
0.0
 10
483.5433126888304
 20
808.4385115672065
 30
0.0
 10
483.2106176016123
 20
808.196900628692
 30
0.0
 10
483.2106254581582
 20
808.1975025261679
 30
0.0
  0
ARC
  5
1C6
330
156
100
AcDbEntity
  8
DV2_Default
 62
     7
100
AcDbCircle
 10
483.3286921131
 20
808.0358680307
 30
0.0
 40
0.1997905413391242
100
AcDbArc
 50
126.146453243
 51
213.7177114402
  0
ARC
  5
1C7
330
156
100
AcDbEntity
  8
DV2_Default
 62
     7
100
AcDbCircle
 10
508.9086625449
 20
826.6230351474
 30
0.0
 40
0.199790541204152
100
AcDbArc
 50
38.2896832547
 51
125.8595491482
  0
ARC
  5
1C8
330
156
100
AcDbEntity
  8
DV2_Default
 62
     7
100
AcDbCircle
 10
304.3406622206
 20
719.0414680152
 30
0.0
 40
205.2273038390848
100
AcDbArc
 50
4.3747583644
 51
11.9871027911
  0
ARC
  5
1C9
330
156
100
AcDbEntity
  8
DV2_Default
 62
     7
100
AcDbCircle
 10
564.0657846868
 20
766.9533009678
 30
0.0
 40
64.86717693912783
100
AcDbArc
 50
173.9579546474
 51
174.5523787223
  0
ARC
  5
1CA
330
156
100
AcDbEntity
  8
DV2_Default
 62
     7
100
AcDbCircle
 10
484.2020525158
 20
776.2332911902
 30
0.0
 40
15.55274014926215
100
AcDbArc
 50
350.9278689958
 51
49.8687203486
  0
LINE
  5
1CB
330
156
100
AcDbEntity
  8
DV2_Default
 62
     7
100
AcDbLine
 10
540.7729277247
 20
706.0492889706
 30
0.0
 11
535.6188326232
 21
706.049289
 31
0.0
  0
LINE
  5
1CC
330
156
100
AcDbEntity
  8
DV2_Default
 62
     7
100
AcDbLine
 10
522.650252758
 20
705.8549991522
 30
0.0
 11
522.6620788977
 21
705.8546026888
 31
0.0
  0
ARC
  5
1CD
330
156
100
AcDbEntity
  8
DV2_Default
 62
     7
100
AcDbCircle
 10
541.810930936
 20
1277.4697243438
 30
0.0
 40
571.9357650642497
100
AcDbArc
 50
267.5785027173
 51
268.0801490141
  0
LINE
  5
1CE
330
156
100
AcDbEntity
  8
DV2_Default
 62
     7
100
AcDbLine
 10
517.665239563
 20
706.0432897336
 30
0.0
 11
518.6666745011
 21
706.0018889358
 31
0.0
  0
SPLINE
  5
1CF
330
156
100
AcDbEntity
  8
DV2_Default
 62
     7
100
AcDbSpline
210
0.0
220
0.0
230
1.0
 70
     8
 71
     3
 72
    10
 73
     6
 74
     0
 42
0.000000001
 43
0.0000000001
 40
0.0
 40
0.0
 40
0.0
 40
0.0
 40
0.5
 40
0.5
 40
1.0
 40
1.0
 40
1.0
 40
1.0
 10
522.662081298381
 20
705.854674337743
 30
0.0
 10
522.8564671584312
 20
705.8480843949517
 30
0.0
 10
523.0484261474346
 20
705.8413906905994
 30
0.0
 10
523.3211389116343
 20
705.8318799627493
 30
0.0
 10
523.4002800038506
 20
705.8291191808029
 30
0.0
 10
523.4002750175575
 20
705.8291180143631
 30
0.0
  0
LINE
  5
1D0
330
156
100
AcDbEntity
  8
DV2_Default
 62
     7
100
AcDbLine
 10
516.8959068412
 20
706.0755497373
 30
0.0
 11
517.6463474423
 21
706.0446704092
 31
0.0
  0
LINE
  5
1D1
330
156
100
AcDbEntity
  8
DV2_Default
 62
     7
100
AcDbLine
 10
561.1860729472
 20
705.8546070292
 30
0.0
 11
561.1669986352
 21
705.8539556505
 31
0.0
  0
LINE
  5
1D2
330
156
100
AcDbEntity
  8
DV2_Default
 62
     7
100
AcDbLine
 10
562.1685556639
 20
705.8883698585
 30
0.0
 11
561.1860729472
 21
705.8546070292
 31
0.0
  0
ARC
  5
1D3
330
156
100
AcDbEntity
  8
DV2_Default
 62
     7
100
AcDbCircle
 10
541.9167568462
 20
1280.5315955692
 30
0.0
 40
574.9994762685304
100
AcDbArc
 50
271.9202187627
 51
272.4191925605
  0
LINE
  5
1D4
330
156
100
AcDbEntity
  8
DV2_Default
 62
     7
100
AcDbLine
 10
561.1719365656
 20
705.8546024785
 30
0.0
 11
561.1837627187
 21
705.8549989436
 31
0.0
  0
LINE
  5
1D5
330
156
100
AcDbEntity
  8
DV2_Default
 62
     7
100
AcDbLine
 10
565.1673406452
 20
706.0018886709
 30
0.0
 11
566.1687755838
 21
706.0432894572
 31
0.0
  0
SPLINE
  5
1D6
330
156
100
AcDbEntity
  8
DV2_Default
 62
     7
100
AcDbSpline
210
0.0
220
0.0
230
1.0
 70
     8
 71
     3
 72
    10
 73
     6
 74
     0
 42
0.000000001
 43
0.0000000001
 40
0.0
 40
0.0
 40
0.0
 40
0.0
 40
0.5
 40
0.5
 40
1.0
 40
1.0
 40
1.0
 40
1.0
 10
560.4337401172675
 20
705.8291177938517
 30
0.0
 10
560.433740505707
 20
705.8291164611848
 30
0.0
 10
560.5128815459306
 20
705.8318745760148
 30
0.0
 10
560.7855927512832
 20
705.8413814247702
 30
0.0
 10
560.9775502554606
 20
705.8480739405301
 30
0.0
 10
561.1719365182608
 20
705.8546115035834
 30
0.0
  0
LINE
  5
1D7
330
156
100
AcDbEntity
  8
DV2_Default
 62
     7
100
AcDbLine
 10
561.1669986352
 20
705.8539556505
 30
0.0
 11
561.1697524794
 21
705.8540496928
 31
0.0
  0
SPLINE
  5
1D8
330
156
100
AcDbEntity
  8
DV2_Default
 62
     7
100
AcDbSpline
210
0.0
220
0.0
230
1.0
 70
     8
 71
     3
 72
    10
 73
     6
 74
     0
 42
0.000000001
 43
0.0000000001
 40
0.0
 40
0.0
 40
0.0
 40
0.0
 40
0.5
 40
0.5
 40
1.0
 40
1.0
 40
1.0
 40
1.0
 10
566.1876750173334
 20
706.0445894148255
 30
0.0
 10
566.3840919611332
 20
706.0528279455132
 30
0.0
 10
566.5793521309921
 20
706.0608370185362
 30
0.0
 10
566.8572191890355
 20
706.0722335342804
 30
0.0
 10
566.9381125204771
 20
706.0755506967154
 30
0.0
 10
566.9381083203818
 20
706.0755494558132
 30
0.0
  0
LINE
  5
1D9
330
156
100
AcDbEntity
  8
DV2_Default
 62
     7
100
AcDbLine
 10
560.0044229812
 20
705.8549986714
 30
0.0
 11
559.9934750658
 21
705.8546024761
 31
0.0
  0
ARC
  5
1DA
330
156
100
AcDbEntity
  8
DV2_Default
 62
     7
100
AcDbCircle
 10
542.2984303155
 20
1193.8523501471
 30
0.0
 40
488.3184545757252
100
AcDbArc
 50
272.0779494569
 51
272.6208387949
  0
SPLINE
  5
1DB
330
156
100
AcDbEntity
  8
DV2_Default
 62
     7
100
AcDbSpline
210
0.0
220
0.0
230
1.0
 70
     8
 71
     3
 72
     8
 73
     4
 74
     0
 42
0.000000001
 43
0.0000000001
 40
0.0
 40
0.0
 40
0.0
 40
0.0
 40
1.0
 40
1.0
 40
1.0
 40
1.0
 10
564.8776445640499
 20
706.0569173093818
 30
0.0
 10
564.8067291709258
 20
706.0530751970393
 30
0.0
 10
564.7213743903272
 20
706.0488940777602
 30
0.0
 10
564.6274344222851
 20
706.0446742595786
 30
0.0
  0
LINE
  5
1DC
330
156
100
AcDbEntity
  8
DV2_Default
 62
     7
100
AcDbLine
 10
556.0714465137
 20
705.8549986931
 30
0.0
 11
556.0630355192
 21
705.8546024983
 31
0.0
  0
ARC
  5
1DD
330
156
100
AcDbEntity
  8
DV2_Default
 62
     7
100
AcDbCircle
 10
542.5017352797
 20
992.0944571193
 30
0.0
 40
286.5609223030833
100
AcDbArc
 50
272.7141803936
 51
273.4226574234
  0
ARC
  5
1DE
330
156
100
AcDbEntity
  8
DV2_Default
 62
     7
100
AcDbCircle
 10
542.5826857039
 20
790.3352433673
 30
0.0
 40
84.80379901628461
100
AcDbArc
 50
275.00662012
 51
276.3067436888
  0
ARC
  5
1DF
330
156
100
AcDbEntity
  8
DV2_Default
 62
     7
100
AcDbCircle
 10
541.9166205125
 20
715.7086336812
 30
0.0
 40
9.882535591782778
100
AcDbArc
 50
265.6465517427
 51
274.358043085
  0
SPLINE
  5
1E0
330
156
100
AcDbEntity
  8
DV2_Default
 62
     7
100
AcDbSpline
210
0.0
220
0.0
230
1.0
 70
    12
 71
     3
 72
     8
 73
     4
 74
     0
 42
0.000000001
 43
0.0000000001
 40
0.0
 40
0.0
 40
0.0
 40
0.0
 40
1.0
 40
1.0
 40
1.0
 40
1.0
 10
542.6675833191082
 20
705.8546718086524
 30
0.0
 41
1.171368534351988
 10
542.9602528027416
 20
705.8548486990766
 30
0.0
 41
0.942871912754898
 10
543.1670069544798
 20
706.0617908565081
 30
0.0
 41
0.9428771553362527
 10
543.1668423345346
 20
706.3543308517382
 30
0.0
 41
1.171384262096053
  0
ARC
  5
1E1
330
156
100
AcDbEntity
  8
DV2_Default
 62
     7
100
AcDbCircle
 10
541.1671501502
 20
706.3545871936
 30
0.0
 40
0.499976069743149
100
AcDbArc
 50
180.0217968587
 51
269.919529388
  0
LINE
  5
1E2
330
156
100
AcDbEntity
  8
DV2_Default
 62
     7
100
AcDbLine
 10
543.1670034581
 20
707.0652324806
 30
0.0
 11
543.1670002792
 21
706.5441910793
 31
0.0
  0
LINE
  5
1E3
330
156
100
AcDbEntity
  8
DV2_Default
 62
     7
100
AcDbLine
 10
543.1670075596
 20
706.3547269752
 30
0.0
 11
543.1670075925
 21
706.5441620075
 31
0.0
  0
ELLIPSE
  5
1E4
330
156
100
AcDbEntity
  8
DV2_Default
 62
     7
100
AcDbEllipse
 10
542.6670075594
 20
706.3547270292
 30
0.0
 11
-0.5000000002241545
 21
-1.781658154342836E-8
 31
0.0
210
0.0
220
0.0
230
1.0
 40
0.9994384547
 41
1.572101562875215
 42
3.14159265358995
  0
LINE
  5
1E5
330
156
100
AcDbEntity
  8
DV2_Default
 62
     7
100
AcDbLine
 10
540.6670134749
 20
706.5441617494
 30
0.0
 11
540.6670107955
 21
707.0886957177
 31
0.0
  0
LINE
  5
1E6
330
156
100
AcDbEntity
  8
DV2_Default
 62
     7
100
AcDbLine
 10
540.6670075486
 20
706.5441617982
 30
0.0
 11
540.6670076049
 21
706.3547268109
 31
0.0
  0
ELLIPSE
  5
1E7
330
156
100
AcDbEntity
  8
DV2_Default
 62
     7
100
AcDbEllipse
 10
541.1670076051
 20
706.3547269812
 30
0.0
 11
0.5000000001127713
 21
1.080577294310103E-8
 31
0.0
210
0.0
220
0.0
230
1.0
 40
0.9994384514
 41
3.141592653589888
 42
4.711075245872733
  0
ARC
  5
1E8
330
156
100
AcDbEntity
  8
DV2_Default
 62
     7
100
AcDbCircle
 10
541.2524060659
 20
790.3475434927
 30
0.0
 40
84.81614634726476
100
AcDbArc
 50
263.6934467005
 51
264.9933777199
  0
ARC
  5
1E9
330
156
100
AcDbEntity
  8
DV2_Default
 62
     7
100
AcDbCircle
 10
541.3340045277
 20
992.132087598
 30
0.0
 40
286.5985921493461
100
AcDbArc
 50
266.5774478567
 51
267.285830754
  0
LINE
  5
1EA
330
156
100
AcDbEntity
  8
DV2_Default
 62
     7
100
AcDbLine
 10
527.7709845915
 20
705.8546026651
 30
0.0
 11
527.7625681015
 21
705.854998878
 31
0.0
  0
SPLINE
  5
1EB
330
156
100
AcDbEntity
  8
DV2_Default
 62
     7
100
AcDbSpline
210
0.0
220
0.0
230
1.0
 70
     8
 71
     3
 72
    10
 73
     6
 74
     0
 42
0.000000001
 43
0.0000000001
 40
0.0
 40
0.0
 40
0.0
 40
0.0
 40
0.0124397669993608
 40
0.0124397669993608
 40
1.0
 40
1.0
 40
1.0
 40
1.0
 10
528.3063494811116
 20
705.8364563186759
 30
0.0
 10
528.3039006808372
 20
705.8365155846194
 30
0.0
 10
528.3014514943859
 20
705.8365751685805
 30
0.0
 10
528.1045454008022
 20
705.8413904074852
 30
0.0
 10
527.9106272552555
 20
705.8480841295478
 30
0.0
 10
527.7709909415472
 20
705.8546116935119
 30
0.0
  0
ARC
  5
1EC
330
156
100
AcDbEntity
  8
DV2_Default
 62
     7
100
AcDbCircle
 10
541.5382433852
 20
1193.9270963238
 30
0.0
 40
488.3932477828783
100
AcDbArc
 50
267.3792508777
 51
267.9220565536
  0
LINE
  5
1ED
330
156
100
AcDbEntity
  8
DV2_Default
 62
     7
100
AcDbLine
 10
523.8405425357
 20
705.8546026877
 30
0.0
 11
523.8295915369
 21
705.8549988997
 31
0.0
  0
SPLINE
  5
1EE
330
156
100
AcDbEntity
  8
DV2_Default
 62
     7
100
AcDbSpline
210
0.0
220
0.0
230
1.0
 70
     8
 71
     3
 72
    10
 73
     6
 74
     0
 42
0.000000001
 43
0.0000000001
 40
0.0
 40
0.0
 40
0.0
 40
0.0
 40
0.3509423092981591
 40
0.3509423092981591
 40
0.9999999999999999
 40
0.9999999999999999
 40
0.9999999999999999
 40
0.9999999999999999
 10
524.6651607204174
 20
705.8307919849726
 30
0.0
 10
524.5934628900784
 20
705.8320760130644
 30
0.0
 10
524.5059909934031
 20
705.8340640661797
 30
0.0
 10
524.2301533868662
 20
705.8413905532126
 30
0.0
 10
524.0213185526039
 20
705.8480842166334
 30
0.0
 10
523.8405460850132
 20
705.8546117161217
 30
0.0
  0
SPLINE
  5
1EF
330
156
100
AcDbEntity
  8
DV2_Default
 62
     7
100
AcDbSpline
210
0.0
220
0.0
230
1.0
 70
     8
 71
     3
 72
     8
 73
     4
 74
     0
 42
0.000000001
 43
0.0000000001
 40
0.0
 40
0.0
 40
0.0
 40
0.0
 40
1.0
 40
1.0
 40
1.0
 40
1.0
 10
519.2065828373579
 20
706.0446705108911
 30
0.0
 10
519.1116396072932
 20
706.0489333602684
 30
0.0
 10
519.0254658792418
 20
706.0531579692253
 30
0.0
 10
518.9541053579151
 20
706.0570337203795
 30
0.0
  0
ARC
  5
1F0
330
156
100
AcDbEntity
  8
DV2_Default
 62
     7
100
AcDbCircle
 10
541.6348222277
 20
1196.504182809
 30
0.0
 40
490.9721365568602
100
AcDbArc
 50
267.894765527
 51
267.9216973242
  0
SPLINE
  5
1F1
330
156
100
AcDbEntity
  8
DV2_Default
 62
     7
100
AcDbSpline
210
0.0
220
0.0
230
1.0
 70
     8
 71
     3
 72
    10
 73
     6
 74
     0
 42
0.000000001
 43
0.0000000001
 40
0.0
 40
0.0
 40
0.0
 40
0.0
 40
0.6490960639876249
 40
0.6490960639876249
 40
1.0
 40
1.0
 40
1.0
 40
1.0
 10
523.8405422507027
 20
705.8546718394169
 30
0.0
 10
524.0213193067358
 20
705.8480744737326
 30
0.0
 10
524.2301541756392
 20
705.8413818818959
 30
0.0
 10
524.5059755436439
 20
705.8340586112652
 30
0.0
 10
524.5934343035767
 20
705.8320719800657
 30
0.0
 10
524.6651253965092
 20
705.8307892146081
 30
0.0
  0
ARC
  5
1F2
330
156
100
AcDbEntity
  8
DV2_Default
 62
     7
100
AcDbCircle
 10
541.4083322681
 20
993.6501691521
 30
0.0
 40
288.1184853687238
100
AcDbArc
 50
266.7827825097
 51
267.2853613442
  0
SPLINE
  5
1F3
330
156
100
AcDbEntity
  8
DV2_Default
 62
     7
100
AcDbSpline
210
0.0
220
0.0
230
1.0
 70
     8
 71
     3
 72
    10
 73
     6
 74
     0
 42
0.000000001
 43
0.0000000001
 40
0.0
 40
0.0
 40
0.0
 40
0.0
 40
0.9876187089279002
 40
0.9876187089279002
 40
1.0
 40
1.0
 40
1.0
 40
1.0
 10
527.7709813207687
 20
705.8546718185041
 30
0.0
 10
527.9106289181786
 20
705.8480744555942
 30
0.0
 10
528.1045470843826
 20
705.841381862351
 30
0.0
 10
528.3014415498841
 20
705.8365687624382
 30
0.0
 10
528.3038790807537
 20
705.8365094836374
 30
0.0
 10
528.3063162296181
 20
705.8364505199326
 30
0.0
  0
LINE
  5
1F4
330
156
100
AcDbEntity
  8
DV2_Default
 62
     7
100
AcDbLine
 10
533.8504268693
 20
705.8549990998
 30
0.0
 11
533.8550237372
 21
705.8546026259
 31
0.0
  0
ARC
  5
1F5
330
156
100
AcDbEntity
  8
DV2_Default
 62
     7
100
AcDbCircle
 10
541.0580755847
 20
790.8204916125
 30
0.0
 40
85.266535605452
100
AcDbArc
 50
263.8333601965
 51
265.2536760273
  0
ARC
  5
1F6
330
156
100
AcDbEntity
  8
DV2_Default
 62
     7
100
AcDbCircle
 10
542.5354885844
 20
790.7975506341
 30
0.0
 40
85.26845674299277
100
AcDbArc
 50
275.011105219
 51
276.3289278633
  0
ARC
  5
1F7
330
156
100
AcDbEntity
  8
DV2_Default
 62
     7
100
AcDbCircle
 10
542.4253227681
 20
993.6569108927
 30
0.0
 40
288.1252368415716
100
AcDbArc
 50
272.7146467127
 51
273.2168479641
  0
ARC
  5
1F8
330
156
100
AcDbEntity
  8
DV2_Default
 62
     7
100
AcDbCircle
 10
542.1987205908
 20
1196.5157731976
 30
0.0
 40
490.9837367343804
100
AcDbArc
 50
272.0783087143
 51
272.1063970598
  0
LINE
  5
1F9
330
156
100
AcDbEntity
  8
DV2_Default
 62
     7
100
AcDbLine
 10
559.993472549
 20
705.8546024796
 30
0.0
 11
560.0044306981
 21
705.8549989506
 31
0.0
  0
ARC
  5
1FA
330
156
100
AcDbEntity
  8
DV2_Default
 62
     7
100
AcDbCircle
 10
541.9170108471
 20
1280.5316911772
 30
0.0
 40
575.000062438
100
AcDbArc
 50
267.6825646626
 51
268.0795289723
  0
ARC
  5
1FB
330
156
100
AcDbEntity
  8
DV2_Default
 62
     7
100
AcDbCircle
 10
541.9170108471
 20
1280.5316911772
 30
0.0
 40
575.000062438
100
AcDbArc
 50
267.5796469948
 51
267.5826901096
  0
ARC
  5
1FC
330
156
100
AcDbEntity
  8
DV2_Default
 62
     7
100
AcDbCircle
 10
523.3881686231
 20
706.316499588
 30
0.0
 40
0.4999977559783917
100
AcDbArc
 50
281.429047332
 51
294.9809693897
  0
LINE
  5
1FD
330
156
100
AcDbEntity
  8
DV2_Default
 62
     7
100
AcDbLine
 10
522.5605054914
 20
705.8575277441
 30
0.0
 11
523.2130143045
 21
705.835651491
 31
0.0
  0
LINE
  5
1FE
330
156
100
AcDbEntity
  8
DV2_Default
 62
     7
100
AcDbLine
 10
523.4008205604
 20
705.8293550286
 30
0.0
 11
523.4872369443
 21
705.8264578008
 31
0.0
  0
ARC
  5
1FF
330
156
100
AcDbEntity
  8
DV2_Default
 62
     7
100
AcDbCircle
 10
516.9170520017
 20
706.5750951209
 30
0.0
 40
0.4999927080732932
100
AcDbArc
 50
179.9836665775
 51
267.6510616091
  0
LINE
  5
200
330
156
100
AcDbEntity
  8
DV2_Default
 62
     7
100
AcDbLine
 10
516.8089968745
 20
706.0794653249
 30
0.0
 11
516.8951269728
 21
706.0758278361
 31
0.0
  0
LINE
  5
201
330
156
100
AcDbEntity
  8
DV2_Default
 62
     7
100
AcDbLine
 10
517.0982233537
 20
706.0672505695
 30
0.0
 11
517.6350482405
 21
706.0445791158
 31
0.0
  0
LINE
  5
202
330
156
100
AcDbEntity
  8
DV2_Default
 62
     7
100
AcDbLine
 10
517.6666265801
 20
706.0432454837
 30
0.0
 11
517.721660243
 21
706.0409212749
 31
0.0
  0
LINE
  5
203
330
156
100
AcDbEntity
  8
DV2_Default
 62
     7
100
AcDbLine
 10
516.421182391
 20
707.2358984662
 30
0.0
 11
516.4170075762
 21
706.5391618548
 31
0.0
  0
ARC
  5
204
330
156
100
AcDbEntity
  8
DV2_Default
 62
     7
100
AcDbCircle
 10
541.9170108471
 20
1280.5316911772
 30
0.0
 40
575.000062438
100
AcDbArc
 50
272.4172714139
 51
272.4203144247
  0
ARC
  5
205
330
156
100
AcDbEntity
  8
DV2_Default
 62
     7
100
AcDbCircle
 10
541.9170108471
 20
1280.5316911772
 30
0.0
 40
575.0000624379999
100
AcDbArc
 50
272.0184071606
 51
272.317411936
  0
LINE
  5
206
330
156
100
AcDbEntity
  8
DV2_Default
 62
     7
100
AcDbLine
 10
560.626052788
 20
705.8358205209
 30
0.0
 11
561.1669986129
 21
705.853956213
 31
0.0
  0
ARC
  5
207
330
156
100
AcDbEntity
  8
DV2_Default
 62
     7
100
AcDbCircle
 10
560.4170410695
 20
706.3288366219
 30
0.0
 40
0.4999977653043859
100
AcDbArc
 50
249.6201075204
 51
271.9969536619
  0
ARC
  5
208
330
156
100
AcDbEntity
  8
DV2_Default
 62
     7
100
AcDbCircle
 10
566.9169631521
 20
706.575094838
 30
0.0
 40
0.499992706923804
100
AcDbArc
 50
272.3489378102
 51
0.0435231578
  0
LINE
  5
209
330
156
100
AcDbEntity
  8
DV2_Default
 62
     7
100
AcDbLine
 10
566.1123549038
 20
706.0409209991
 30
0.0
 11
566.1687684441
 21
706.043303483
 31
0.0
  0
LINE
  5
20A
330
156
100
AcDbEntity
  8
DV2_Default
 62
     7
100
AcDbLine
 10
566.1989587742
 20
706.0445784956
 30
0.0
 11
566.7403262723
 21
706.0674417889
 31
0.0
  0
LINE
  5
20B
330
156
100
AcDbEntity
  8
DV2_Default
 62
     7
100
AcDbLine
 10
566.9386521614
 20
706.0758175835
 30
0.0
 11
567.0250182916
 21
706.0794650396
 31
0.0
  0
LINE
  5
20C
330
156
100
AcDbEntity
  8
DV2_Default
 62
     7
100
AcDbLine
 10
567.4170075762
 20
706.5410293327
 30
0.0
 11
567.418746854
 21
707.2202135382
 31
0.0
  0
SPLINE
  5
20D
330
156
100
AcDbEntity
  8
DV2_Default
 62
     7
100
AcDbSpline
210
0.0
220
0.0
230
1.0
 70
     8
 71
     3
 72
    19
 73
    15
 74
     0
 42
0.000000001
 43
0.0000000001
 40
0.0
 40
0.0
 40
0.0
 40
0.0
 40
0.0452634240503613
 40
0.1038472680350031
 40
0.1519895353286619
 40
0.1878496827330222
 40
0.2099926791382923
 40
0.2303276081483851
 40
0.263224378217675
 40
0.3616935088720514
 40
0.529519720302513
 40
0.6837082946544946
 40
0.845348498759101
 40
1.0
 40
1.0
 40
1.0
 40
1.0
 10
558.5909561782894
 20
705.9845865044099
 30
0.0
 10
558.6097240825555
 20
705.9650141027463
 30
0.0
 10
558.6561526047822
 20
705.9238170041419
 30
0.0
 10
558.7347245653798
 20
705.876866816053
 30
0.0
 10
558.8144573672131
 20
705.8478592350125
 30
0.0
 10
558.8751587570205
 20
705.835692556638
 30
0.0
 10
558.9116231736108
 20
705.8316953830362
 30
0.0
 10
558.9363327932017
 20
705.8300448934162
 30
0.0
 10
558.971762238317
 20
705.8288174159
 30
0.0
 10
559.0378854234103
 20
705.8286200274881
 30
0.0
 10
559.1972640278249
 20
705.8308739383916
 30
0.0
 10
559.4490672860773
 20
705.8369875156503
 30
0.0
 10
559.740195209317
 20
705.8456797974628
 30
0.0
 10
559.9123717093759
 20
705.8518778470313
 30
0.0
 10
560.0094079703421
 20
705.8554096426002
 30
0.0
  0
SPLINE
  5
20E
330
156
100
AcDbEntity
  8
DV2_Default
 62
     7
100
AcDbSpline
210
0.0
220
0.0
230
1.0
 70
     8
 71
     3
 72
    15
 73
    11
 74
     0
 42
0.000000001
 43
0.0000000001
 40
0.0
 40
0.0
 40
0.0
 40
0.0
 40
0.1420475189337682
 40
0.3995333114549672
 40
0.4380423195516253
 40
0.4883235520269201
 40
0.581901956148113
 40
0.7148785968219492
 40
0.861400218439832
 40
1.0
 40
1.0
 40
1.0
 40
1.0
 10
564.8767436730449
 20
706.0570571172705
 30
0.0
 10
564.9226902805286
 20
706.0594261980799
 30
0.0
 10
565.0399193813881
 20
706.0666209850718
 30
0.0
 10
565.0793256927858
 20
706.0667824352389
 30
0.0
 10
565.1707371685027
 20
706.0816290371425
 30
0.0
 10
565.2391792788818
 20
706.0988406586879
 30
0.0
 10
565.3432970973392
 20
706.1454069082655
 30
0.0
 10
565.4613748856475
 20
706.2446537126184
 30
0.0
 10
565.5532740734483
 20
706.3990581304378
 30
0.0
 10
565.5646257141644
 20
706.5089296924757
 30
0.0
 10
565.5694385916246
 20
706.5711985816696
 30
0.0
  0
LINE
  5
20F
330
156
100
AcDbEntity
  8
DV2_Default
 62
     7
100
AcDbLine
 10
565.5710862397
 20
706.5139033713
 30
0.0
 11
565.5710862431
 21
707.112252874
 31
0.0
  0
SPLINE
  5
210
330
156
100
AcDbEntity
  8
DV2_Default
 62
     7
100
AcDbSpline
210
0.0
220
0.0
230
1.0
 70
     8
 71
     3
 72
    22
 73
    18
 74
     0
 42
0.000000001
 43
0.0000000001
 40
0.0
 40
0.0
 40
0.0
 40
0.0
 40
0.0333677833273494
 40
0.1033449254455413
 40
0.1596174769874396
 40
0.2071939726304849
 40
0.2472589249468603
 40
0.2792009019448496
 40
0.3018544215445418
 40
0.3232635259067745
 40
0.3587555209034685
 40
0.4910784716820695
 40
0.6103760274356471
 40
0.7335778277145003
 40
0.8535914737815458
 40
0.9706347307933744
 40
1.0
 40
1.0
 40
1.0
 40
1.0
 10
554.2869344225535
 20
706.3366555612454
 30
0.0
 10
554.2846819459463
 20
706.3068422840208
 30
0.0
 10
554.2796484013924
 20
706.2273726370512
 30
0.0
 10
554.3309001283003
 20
706.0988224442133
 30
0.0
 10
554.4150236139359
 20
705.9851730726342
 30
0.0
 10
554.507747572054
 20
705.9114893091692
 30
0.0
 10
554.5945521556903
 20
705.8684241060307
 30
0.0
 10
554.6661102533527
 20
705.847335326786
 30
0.0
 10
554.7151133281802
 20
705.8387832053595
 30
0.0
 10
554.7528780622946
 20
705.8345642998266
 30
0.0
 10
554.8207608390021
 20
705.8301262848757
 30
0.0
 10
554.9411154200333
 20
705.8283079676228
 30
0.0
 10
555.1923091831179
 20
705.8295420736657
 30
0.0
 10
555.4851224294604
 20
705.8348433907171
 30
0.0
 10
555.7814614057833
 20
705.8430230773172
 30
0.0
 10
555.9825688353154
 20
705.8507401278779
 30
0.0
 10
556.0658754865519
 20
705.8547284737161
 30
0.0
 10
556.0852292717021
 20
705.8556637479884
 30
0.0
  0
LINE
  5
211
330
156
100
AcDbEntity
  8
DV2_Default
 62
     7
100
AcDbLine
 10
554.2788131161
 20
706.8378557649
 30
0.0
 11
554.2788131131
 21
706.308263066
 31
0.0
  0
SPLINE
  5
212
330
156
100
AcDbEntity
  8
DV2_Default
 62
     7
100
AcDbSpline
210
0.0
220
0.0
230
1.0
 70
     8
 71
     3
 72
    15
 73
    11
 74
     0
 42
0.000000001
 43
0.0000000001
 40
0.0
 40
0.0
 40
0.0
 40
0.0
 40
0.1721413947807021
 40
0.3649278113574957
 40
0.4363532008540396
 40
0.4968264999487875
 40
0.5916910225286606
 40
0.7201705824538378
 40
0.8549058409691305
 40
1.0
 40
1.0
 40
1.0
 40
1.0
 10
559.6130927477531
 20
706.0445780124094
 30
0.0
 10
559.6659751312126
 20
706.0477069571954
 30
0.0
 10
559.7635867483673
 20
706.0541838898594
 30
0.0
 10
559.839088204916
 20
706.0609147174688
 30
0.0
 10
559.9139570177188
 20
706.0733216556151
 30
0.0
 10
559.9926335231056
 20
706.09516350294
 30
0.0
 10
560.0971639381194
 20
706.1455756221568
 30
0.0
 10
560.2075333614423
 20
706.2430647073272
 30
0.0
 10
560.2959943461641
 20
706.3930248752317
 30
0.0
 10
560.3083426086749
 20
706.5004718808844
 30
0.0
 10
560.3141153623606
 20
706.5655040404373
 30
0.0
  0
LINE
  5
213
330
156
100
AcDbEntity
  8
DV2_Default
 62
     7
100
AcDbLine
 10
560.3143470202
 20
706.5108793865
 30
0.0
 11
560.3143470236
 21
707.1022179099
 31
0.0
  0
SPLINE
  5
214
330
156
100
AcDbEntity
  8
DV2_Default
 62
     7
100
AcDbSpline
210
0.0
220
0.0
230
1.0
 70
     8
 71
     3
 72
    19
 73
    15
 74
     0
 42
0.000000001
 43
0.0000000001
 40
0.0
 40
0.0
 40
0.0
 40
0.0
 40
0.0431360181554361
 40
0.1375811251021135
 40
0.2136515241257433
 40
0.2781107390315189
 40
0.3325834749019089
 40
0.3761095910923977
 40
0.4093809226178653
 40
0.4467672695903589
 40
0.5225714305105774
 40
0.7102239455924099
 40
0.8696734577241536
 40
1.0
 40
1.0
 40
1.0
 40
1.0
 10
548.0417061730521
 20
706.3448893716446
 30
0.0
 10
548.039403731956
 20
706.3163882791528
 30
0.0
 10
548.0339911701946
 20
706.2381472678077
 30
0.0
 10
548.0841054474747
 20
706.1104893264401
 30
0.0
 10
548.1672390762074
 20
705.9962485434701
 30
0.0
 10
548.2593840678456
 20
705.9217826110512
 30
0.0
 10
548.345806972366
 20
705.8780298216847
 30
0.0
 10
548.416657527716
 20
705.8562839587703
 30
0.0
 10
548.4671877221617
 20
705.8465805008069
 30
0.0
 10
548.5157695751046
 20
705.8404134115286
 30
0.0
 10
548.5986961885858
 20
705.8343826237606
 30
0.0
 10
548.7604555569166
 20
705.8296779215449
 30
0.0
 10
549.0177574299895
 20
705.8283178091003
 30
0.0
 10
549.1932047017054
 20
705.8296415425563
 30
0.0
 10
549.272223039881
 20
705.8306351319075
 30
0.0
  0
LINE
  5
215
330
156
100
AcDbEntity
  8
DV2_Default
 62
     7
100
AcDbLine
 10
548.0336636518
 20
706.9062953092
 30
0.0
 11
548.0336636484
 21
706.3082629227
 31
0.0
  0
SPLINE
  5
216
330
156
100
AcDbEntity
  8
DV2_Default
 62
     7
100
AcDbSpline
210
0.0
220
0.0
230
1.0
 70
     8
 71
     3
 72
    14
 73
    10
 74
     0
 42
0.000000001
 43
0.0000000001
 40
0.0
 40
0.0
 40
0.0
 40
0.0
 40
0.2244245487551267
 40
0.3153060690858921
 40
0.4402259197687298
 40
0.5923608680260775
 40
0.7706741221398697
 40
0.9675747804747323
 40
1.0
 40
1.0
 40
1.0
 40
1.0
 10
551.9354183626426
 20
706.0463700887587
 30
0.0
 10
551.9691842150896
 20
706.0486426539669
 30
0.0
 10
552.0130307907095
 20
706.0538008029415
 30
0.0
 10
552.1197656898514
 20
706.0825084043055
 30
0.0
 10
552.2194302591402
 20
706.1296545416052
 30
0.0
 10
552.3271243068303
 20
706.2185508601228
 30
0.0
 10
552.4120129881105
 20
706.3529616546243
 30
0.0
 10
552.4547775288415
 20
706.4807825931838
 30
0.0
 10
552.4440174136598
 20
706.5458852758452
 30
0.0
 10
552.4422140084159
 20
706.5565539391027
 30
0.0
  0
LINE
  5
217
330
156
100
AcDbEntity
  8
DV2_Default
 62
     7
100
AcDbLine
 10
552.4470808115
 20
706.5139077184
 30
0.0
 11
552.4470808147
 21
707.0819792052
 31
0.0
  0
SPLINE
  5
218
330
156
100
AcDbEntity
  8
DV2_Default
 62
     7
100
AcDbSpline
210
0.0
220
0.0
230
1.0
 70
     8
 71
     3
 72
    20
 73
    16
 74
     0
 42
0.000000001
 43
0.0000000001
 40
0.0
 40
0.0
 40
0.0
 40
0.0
 40
0.0814141185685092
 40
0.2101973199561728
 40
0.3332451797677693
 40
0.4556929528788387
 40
0.5814172828202943
 40
0.6538446139585532
 40
0.6995275451370404
 40
0.7302117712153652
 40
0.7751054866206534
 40
0.8311537833821612
 40
0.8990452463624128
 40
0.9727190453852965
 40
1.0
 40
1.0
 40
1.0
 40
1.0
 10
534.0026623713054
 20
705.8452020684996
 30
0.0
 10
534.0510540381172
 20
705.8430272046086
 30
0.0
 10
534.192084049429
 20
705.8378162001299
 30
0.0
 10
534.4538903859402
 20
705.8315669522993
 30
0.0
 10
534.7622444097291
 20
705.8283223458783
 30
0.0
 10
535.0359009009994
 20
705.8292265662169
 30
0.0
 10
535.2125887504131
 20
705.8334854186579
 30
0.0
 10
535.3051678346457
 20
705.8391888811198
 30
0.0
 10
535.3668357461561
 20
705.8458748053646
 30
0.0
 10
535.4453933901642
 20
705.8629173632368
 30
0.0
 10
535.5427685733393
 20
705.9012893457497
 30
0.0
 10
535.6545045994061
 20
705.9807773823138
 30
0.0
 10
535.7503045921637
 20
706.10805796932
 30
0.0
 10
535.8019086294637
 20
706.2441203827123
 30
0.0
 10
535.7951546284345
 20
706.3207667750278
 30
0.0
 10
535.7927934742421
 20
706.3448145332068
 30
0.0
  0
LINE
  5
219
330
156
100
AcDbEntity
  8
DV2_Default
 62
     7
100
AcDbLine
 10
535.8003515023
 20
706.3082629924
 30
0.0
 11
535.8003515054
 21
706.8501415308
 31
0.0
  0
SPLINE
  5
21A
330
156
100
AcDbEntity
  8
DV2_Default
 62
     7
100
AcDbSpline
210
0.0
220
0.0
230
1.0
 70
     8
 71
     3
 72
    16
 73
    12
 74
     0
 42
0.000000001
 43
0.0000000001
 40
0.0
 40
0.0
 40
0.0
 40
0.0
 40
0.0251891830165394
 40
0.2233257740618556
 40
0.3805382117960016
 40
0.5131267885076698
 40
0.6259878076158512
 40
0.7182862371865621
 40
0.7910422926590945
 40
0.8723863111508535
 40
1.0
 40
1.0
 40
1.0
 40
1.0
 10
531.3904547934621
 20
706.556689616731
 30
0.0
 10
531.3891334671392
 20
706.5483790627289
 30
0.0
 10
531.3792092391384
 20
706.4848398941522
 30
0.0
 10
531.4177327287748
 20
706.364681368913
 30
0.0
 10
531.4925341656428
 20
706.2383013635956
 30
0.0
 10
531.5825433014005
 20
706.1535291311279
 30
0.0
 10
531.6696357033337
 20
706.1015893971236
 30
0.0
 10
531.7439103189795
 20
706.0738192032393
 30
0.0
 10
531.799173860564
 20
706.0603104192169
 30
0.0
 10
531.8477413709406
 20
706.0520332096626
 30
0.0
 10
531.8776544921354
 20
706.0485319168504
 30
0.0
 10
531.8985939854819
 20
706.0463630963401
 30
0.0
  0
LINE
  5
21B
330
156
100
AcDbEntity
  8
DV2_Default
 62
     7
100
AcDbLine
 10
531.386934345
 20
707.0782617044
 30
0.0
 11
531.3869343418
 21
706.5139073533
 31
0.0
  0
SPLINE
  5
21C
330
156
100
AcDbEntity
  8
DV2_Default
 62
     7
100
AcDbSpline
210
0.0
220
0.0
230
1.0
 70
     8
 71
     3
 72
    17
 73
    13
 74
     0
 42
0.000000001
 43
0.0000000001
 40
0.0
 40
0.0
 40
0.0
 40
0.0
 40
0.1018456414387192
 40
0.2617270955232338
 40
0.4245859530799796
 40
0.5790400761290332
 40
0.6153862442354597
 40
0.6577624545930506
 40
0.7223947364037907
 40
0.8199998018523289
 40
0.9136744442995123
 40
1.0
 40
1.0
 40
1.0
 40
1.0
 10
528.3063280845865
 20
705.836648259468
 30
0.0
 10
528.3746933479914
 20
705.8349552838692
 30
0.0
 10
528.5262534407042
 20
705.8313324666055
 30
0.0
 10
528.7687704626503
 20
705.8281564962884
 30
0.0
 10
528.9756282169012
 20
705.8300604807463
 30
0.0
 10
529.049717577057
 20
705.8300307618612
 30
0.0
 10
529.1440822911626
 20
705.8422795123992
 30
0.0
 10
529.2245191982872
 20
705.8621205900381
 30
0.0
 10
529.3378359765483
 20
705.914690833634
 30
0.0
 10
529.4555784015984
 20
706.0201951676761
 30
0.0
 10
529.5409207237396
 20
706.1755343890491
 30
0.0
 10
529.5486984470741
 20
706.2790822101616
 30
0.0
 10
529.551637986723
 20
706.3369373391373
 30
0.0
  0
LINE
  5
21D
330
156
100
AcDbEntity
  8
DV2_Default
 62
     7
100
AcDbLine
 10
529.5552020374
 20
706.3082630282
 30
0.0
 11
529.5552020404
 21
706.8349659881
 31
0.0
  0
SPLINE
  5
21E
330
156
100
AcDbEntity
  8
DV2_Default
 62
     7
100
AcDbSpline
210
0.0
220
0.0
230
1.0
 70
     8
 71
     3
 72
    17
 73
    13
 74
     0
 42
0.000000001
 43
0.0000000001
 40
0.0
 40
0.0
 40
0.0
 40
0.0
 40
0.0247972555281606
 40
0.1688044252891757
 40
0.2835803517427883
 40
0.3803870014685674
 40
0.4622975942475984
 40
0.52846157981032
 40
0.5770903301668462
 40
0.6245755305289231
 40
0.7060073993231416
 40
1.0
 40
1.0
 40
1.0
 40
1.0
 10
523.5241823283383
 20
706.5667592873582
 30
0.0
 10
523.5225264832288
 20
706.5557145600624
 30
0.0
 10
523.5130633614173
 20
706.490900365602
 30
0.0
 10
523.5521503556268
 20
706.3709822565247
 30
0.0
 10
523.6265895258122
 20
706.247145092915
 30
0.0
 10
523.7153156047546
 20
706.1639318445046
 30
0.0
 10
523.8008111181211
 20
706.1128360290226
 30
0.0
 10
523.8733766272461
 20
706.0855410539481
 30
0.0
 10
523.9249527306938
 20
706.0728626488219
 30
0.0
 10
523.9672125889028
 20
706.0654190278077
 30
0.0
 10
524.0446654886063
 20
706.0557026038703
 30
0.0
 10
524.1372645083783
 20
706.0494122147836
 30
0.0
 10
524.2209214000123
 20
706.0445706519331
 30
0.0
  0
LINE
  5
21F
330
156
100
AcDbEntity
  8
DV2_Default
 62
     7
100
AcDbLine
 10
523.519668136
 20
707.0939620863
 30
0.0
 11
523.5196681327
 21
706.5139073839
 31
0.0
  0
SPLINE
  5
220
330
156
100
AcDbEntity
  8
DV2_Default
 62
     7
100
AcDbSpline
210
0.0
220
0.0
230
1.0
 70
     8
 71
     3
 72
    14
 73
    10
 74
     0
 42
0.000000001
 43
0.0000000001
 40
0.0
 40
0.0
 40
0.0
 40
0.0
 40
0.1641619923615026
 40
0.4963522630033407
 40
0.5462293281076535
 40
0.598752335613842
 40
0.7080080930306187
 40
0.8983264465078069
 40
1.0
 40
1.0
 40
1.0
 40
1.0
 10
524.6625481992091
 20
705.8310221004762
 30
0.0
 10
524.7030133104034
 20
705.8302026349485
 30
0.0
 10
524.8123504172711
 20
705.8286049206007
 30
0.0
 10
524.8532177402841
 20
705.8271883481843
 30
0.0
 10
524.9275085930554
 20
705.8319965506089
 30
0.0
 10
524.9844462562512
 20
705.83936253096
 30
0.0
 10
525.0909109230075
 20
705.8687147205611
 30
0.0
 10
525.1994752311412
 20
705.9357130915156
 30
0.0
 10
525.260442651125
 20
706.0025660942974
 30
0.0
 10
525.2795917496318
 20
706.0277983274865
 30
0.0
  0
SPLINE
  5
221
330
156
100
AcDbEntity
  8
DV2_Default
 62
     7
100
AcDbSpline
210
0.0
220
0.0
230
1.0
 70
     8
 71
     3
 72
    18
 73
    14
 74
     0
 42
0.000000001
 43
0.0000000001
 40
0.0
 40
0.0
 40
0.0
 40
0.0
 40
0.1218729394811058
 40
0.2441788449382651
 40
0.3455984920613471
 40
0.431420868437198
 40
0.5020165964073862
 40
0.5544214595492319
 40
0.5882046163837257
 40
0.62195198799487
 40
0.6805982533867577
 40
0.8958050241162435
 40
1.0
 40
1.0
 40
1.0
 40
1.0
 10
518.2695886044746
 20
706.5722112437101
 30
0.0
 10
518.2707886646203
 20
706.5173593595539
 30
0.0
 10
518.274900571889
 20
706.4228674460384
 30
0.0
 10
518.3423001205576
 20
706.2915432435475
 30
0.0
 10
518.4265629091427
 20
706.1966608919254
 30
0.0
 10
518.5136420358992
 20
706.1356485477968
 30
0.0
 10
518.5912103095283
 20
706.1008986262775
 30
0.0
 10
518.6506820163071
 20
706.0843804400525
 30
0.0
 10
518.6871467906615
 20
706.0775828461703
 30
0.0
 10
518.71444549203
 20
706.0737128918839
 30
0.0
 10
518.7635689487613
 20
706.0685360713721
 30
0.0
 10
518.8261455099652
 20
706.0639202683651
 30
0.0
 10
518.919964107728
 20
706.0589830223615
 30
0.0
 10
518.9554370772124
 20
706.0571602826737
 30
0.0
  0
LINE
  5
222
330
156
100
AcDbEntity
  8
DV2_Default
 62
     7
100
AcDbLine
 10
518.2629289163
 20
707.1109308131
 30
0.0
 11
518.2629289129
 21
706.5139037811
 31
0.0
  0
SPLINE
  5
223
330
156
100
AcDbEntity
  8
DV2_Default
 62
     7
100
AcDbSpline
210
0.0
220
0.0
230
1.0
 70
     8
 71
     3
 72
    16
 73
    12
 74
     0
 42
0.000000001
 43
0.0000000001
 40
0.0
 40
0.0
 40
0.0
 40
0.0
 40
0.0252344979488953
 40
0.2233603631827108
 40
0.3805645871886444
 40
0.5131462454723883
 40
0.6260010827201432
 40
0.7182939044237074
 40
0.7910434715716452
 40
0.8723762827246881
 40
1.0
 40
1.0
 40
1.0
 40
1.0
 10
531.3904659025098
 20
706.556736329191
 30
0.0
 10
531.3891418885898
 20
706.5484104851041
 30
0.0
 10
531.3792141722203
 20
706.4848589926496
 30
0.0
 10
531.4177368917417
 20
706.3646878885761
 30
0.0
 10
531.4925392948517
 20
706.2383084383777
 30
0.0
 10
531.5825473180183
 20
706.1535366586788
 30
0.0
 10
531.6696389293685
 20
706.1015970154143
 30
0.0
 10
531.7439126352048
 20
706.0738268296689
 30
0.0
 10
531.7991743752783
 20
706.0603182517589
 30
0.0
 10
531.8477428820445
 20
706.0520405779093
 30
0.0
 10
531.8776562510202
 20
706.0485392103878
 30
0.0
 10
531.8985975747944
 20
706.0463702059459
 30
0.0
  0
SPLINE
  5
224
330
156
100
AcDbEntity
  8
DV2_Default
 62
     7
100
AcDbSpline
210
0.0
220
0.0
230
1.0
 70
     8
 71
     3
 72
    14
 73
    10
 74
     0
 42
0.000000001
 43
0.0000000001
 40
0.0
 40
0.0
 40
0.0
 40
0.0
 40
0.2244428424067863
 40
0.3153350502997547
 40
0.4402673106944498
 40
0.5924176877507954
 40
0.7707447387614202
 40
0.9676555767159517
 40
1.0
 40
1.0
 40
1.0
 40
1.0
 10
551.9354205071518
 20
706.0463628511152
 30
0.0
 10
551.9691888900255
 20
706.048635428163
 30
0.0
 10
552.01303918309
 20
706.0537939437426
 30
0.0
 10
552.119783045071
 20
706.0825057752779
 30
0.0
 10
552.2194526293589
 20
706.1296583073142
 30
0.0
 10
552.3271488893614
 20
706.2185645376028
 30
0.0
 10
552.4120292711152
 20
706.3529846351084
 30
0.0
 10
552.4547861480968
 20
706.4807872852504
 30
0.0
 10
552.444028968165
 20
706.5458672326894
 30
0.0
 10
552.442230117934
 20
706.5565088707804
 30
0.0
  0
LINE
  5
225
330
156
100
AcDbEntity
  8
DV2_Default
 62
     7
100
AcDbLine
 10
549.2722230399
 20
705.8306351319
 30
0.0
 11
550.0202495154
 21
705.8566382207
 31
0.0
  0
ARC
  5
226
330
156
100
AcDbEntity
  8
DV2_Default
 62
     7
100
AcDbCircle
 10
302.8688836697
 20
720.8425696764
 30
0.0
 40
199.9924596754113
100
AcDbArc
 50
2.7100960462
 51
12.5294667465
  0
ARC
  5
227
330
156
100
AcDbEntity
  8
DV2_Default
 62
     7
100
AcDbCircle
 10
499.5614259883
 20
764.5604186059
 30
0.0
 40
1.499999549950971
100
AcDbArc
 50
134.4351136888
 51
192.7539724378
  0
ELLIPSE
  5
228
330
156
100
AcDbEntity
  8
DV2_Default
 62
     7
100
AcDbEllipse
 10
508.6265990287
 20
733.2364345285
 30
0.0
 11
-3.397755691534221
 21
-4.945225602604436
 31
0.0
210
0.0
220
0.0
230
1.0
 40
0.9866767226
 41
0.2441265527433885
 42
0.5259741782814917
  0
ARC
  5
229
330
156
100
AcDbEntity
  8
DV2_Default
 62
     7
100
AcDbCircle
 10
504.1358154319
 20
730.3731395577
 30
0.0
 40
1.499999810608818
100
AcDbArc
 50
182.8443257914
 51
240.8055407489
  0
ARC
  5
22A
330
156
100
AcDbEntity
  8
DV2_Default
 62
     7
100
AcDbCircle
 10
504.7715946772
 20
763.0545238564
 30
0.0
 40
5.995551222884837
100
AcDbArc
 50
122.9827686539
 51
127.2943232569
  0
ARC
  5
22B
330
156
100
AcDbEntity
  8
DV2_Default
 62
     7
100
AcDbCircle
 10
514.2049148638
 20
749.4789799826
 30
0.0
 40
22.52062744642496
100
AcDbArc
 50
125.4596042774
 51
134.363369648
  0
ARC
  5
22C
330
156
100
AcDbEntity
  8
DV2_Default
 62
     7
100
AcDbCircle
 10
514.6925493639
 20
749.3643681851
 30
0.0
 40
23.22797104816755
100
AcDbArc
 50
240.7408114631
 51
249.3694432939
  0
LINE
  5
22D
330
156
100
AcDbEntity
  8
DV2_Default
 62
     7
100
AcDbLine
 10
497.9254519443
 20
773.3023879797
 30
0.0
 11
499.5978058813
 21
774.0290896434
 31
0.0
  0
LINE
  5
22E
330
156
100
AcDbEntity
  8
DV2_Default
 62
     7
100
AcDbLine
 10
494.2578071305
 20
788.094152968
 30
0.0
 11
491.822484503
 21
787.0098774929
 31
0.0
  0
ARC
  5
22F
330
156
100
AcDbEntity
  8
DV2_Default
 62
     7
100
AcDbCircle
 10
497.3153473058
 20
774.6727054547
 30
0.0
 40
1.500000000000008
100
AcDbArc
 50
212.9250949192
 51
293.9999996735
  0
ARC
  5
230
330
156
100
AcDbEntity
  8
DV2_Default
 62
     7
100
AcDbCircle
 10
492.4325894598
 20
785.6395593029
 30
0.0
 40
1.499999999999974
100
AcDbArc
 50
113.9999996735
 51
195.058966307
  0
ARC
  5
231
330
156
100
AcDbEntity
  8
DV2_Default
 62
     7
100
AcDbCircle
 10
529.5780964278
 20
795.6077833655
 30
0.0
 40
39.95948969180003
100
AcDbArc
 50
195.0216428841
 51
212.9758444001
  0
LINE
  5
232
330
156
100
AcDbEntity
  8
DV2_Default
 62
     7
100
AcDbLine
 10
548.2071001104
 20
706.0492889283
 30
0.0
 11
543.0599436529
 21
706.0492889576
 31
0.0
  0
ENDBLK
  5
234
330
156
100
AcDbEntity
  8
0
100
AcDbBlockEnd
  0
BLOCK
  5
261
330
235
100
AcDbEntity
  8
0
100
AcDbBlockBegin
  2
SE2
 70
     0
 10
0.0
 20
0.0
 30
0.0
  3
SE2
  1

  0
LINE
  5
238
330
235
100
AcDbEntity
  8
DV3_Default
 62
     7
100
AcDbLine
 10
128.4987021862
 20
348.9187162782
 30
0.0
 11
128.4987021862
 21
396.9184633336
 31
0.0
  0
LINE
  5
239
330
235
100
AcDbEntity
  8
DV3_Default
 62
     7
100
AcDbLine
 10
105.6988151101
 20
348.9186567219
 30
0.0
 11
128.4987021862
 21
348.9186567219
 31
0.0
  0
LINE
  5
23A
330
235
100
AcDbEntity
  8
DV3_Default
 62
     7
100
AcDbLine
 10
128.4987021862
 20
396.9188150343
 30
0.0
 11
109.2516302708
 21
396.9188150343
 31
0.0
  0
SPLINE
  5
23B
330
235
100
AcDbEntity
  8
DV3_Default
 62
     7
100
AcDbSpline
210
0.0
220
0.0
230
1.0
 70
     8
 71
     5
 72
    12
 73
     6
 74
     0
 42
0.000000001
 43
0.0000000001
 40
0.0
 40
0.0
 40
0.0
 40
0.0
 40
0.0
 40
0.0
 40
1.0
 40
1.0
 40
1.0
 40
1.0
 40
1.0
 40
1.0
 10
106.7107614010887
 20
186.5232291136711
 30
0.0
 10
106.7092018356692
 20
186.6557959728157
 30
0.0
 10
106.705444214528
 20
186.7883531860936
 30
0.0
 10
106.6994876102922
 20
186.9208702808694
 30
0.0
 10
106.6913322656757
 20
187.053316749724
 30
0.0
 10
106.6809795620551
 20
187.1856620915051
 30
0.0
  0
SPLINE
  5
23C
330
235
100
AcDbEntity
  8
DV3_Default
 62
     7
100
AcDbSpline
210
0.0
220
0.0
230
1.0
 70
     8
 71
     5
 72
    12
 73
     6
 74
     0
 42
0.000000001
 43
0.0000000001
 40
0.0
 40
0.0
 40
0.0
 40
0.0
 40
0.0
 40
0.0
 40
1.0
 40
1.0
 40
1.0
 40
1.0
 40
1.0
 40
1.0
 10
74.71566667447676
 20
187.1839332436495
 30
0.0
 10
74.70687801133866
 20
187.0486007867087
 30
0.0
 10
74.70028432720926
 20
186.9131760150808
 30
0.0
 10
74.69588780179953
 20
186.777689674649
 30
0.0
 10
74.69368953900806
 20
186.6421725497485
 30
0.0
 10
74.69368953883443
 20
186.5066554247141
 30
0.0
  0
SPLINE
  5
23D
330
235
100
AcDbEntity
  8
DV3_Default
 62
     7
100
AcDbSpline
210
0.0
220
0.0
230
1.0
 70
     8
 71
     3
 72
   112
 73
   108
 74
     0
 42
0.000000001
 43
0.0000000001
 40
0.0
 40
0.0
 40
0.0
 40
0.0
 40
0.0169697988385126
 40
0.0327673888674935
 40
0.0475909991876803
 40
0.0615573137462731
 40
0.0747310430162227
 40
0.0871417575715908
 40
0.0987956816498246
 40
0.1096849015863158
 40
0.1197944313494062
 40
0.1291071740092051
 40
0.1376069832035184
 40
0.1452597682527033
 40
0.1520336768444005
 40
0.1580381718475879
 40
0.1653224361810747
 40
0.1771878946886062
 40
0.1895205198289358
 40
0.2023378928680096
 40
0.2156781581192722
 40
0.229290538204524
 40
0.2426607730605903
 40
0.2556713287341855
 40
0.2683709332706068
 40
0.2807867859093174
 40
0.2931919254085575
 40
0.3063008696524618
 40
0.3202817019368704
 40
0.3352386963926507
 40
0.3512730003259431
 40
0.3653287274935912
 40
0.377634082543827
 40
0.3910041944291122
 40
0.4055385425934223
 40
0.4213107558167926
 40
0.4383834751191996
 40
0.4451570878616752
 40
0.4520936206437164
 40
0.4588170285421065
 40
0.46456186757167
 40
0.4692765499528554
 40
0.4730618013164843
 40
0.4753847849378913
 40
0.4768097355262589
 40
0.4781934214446434
 40
0.4796080931036261
 40
0.4837025879346864
 40
0.488430895404891
 40
0.4917913592491248
 40
0.4952823822331535
 40
0.4988636537821012
 40
0.5024919234844599
 40
0.506165964808113
 40
0.5098856708135945
 40
0.5136401045836677
 40
0.5171300410926527
 40
0.52004045121478
 40
0.5223206723123938
 40
0.5239965330639501
 40
0.5252726520611501
 40
0.527017111225723
 40
0.5309773721059609
 40
0.5360557579111905
 40
0.542458715329937
 40
0.5501730615246532
 40
0.5591556076732083
 40
0.5693414096784113
 40
0.5801752866441378
 40
0.5917383654531687
 40
0.6037984012073174
 40
0.6154202945324938
 40
0.6268170012352252
 40
0.6423402049327079
 40
0.6566528513852401
 40
0.6698507023424468
 40
0.6820298314581652
 40
0.6932835051679613
 40
0.704768096495715
 40
0.7161849606536433
 40
0.726674515093332
 40
0.7368077169780144
 40
0.7469634098687427
 40
0.7596554049845899
 40
0.7726942292808181
 40
0.7860015489841092
 40
0.798807442638612
 40
0.8093681163660865
 40
0.8193768190170281
 40
0.828845230998404
 40
0.8377789416305482
 40
0.844187284168114
 40
0.8492486633044726
 40
0.854575148698402
 40
0.8608563443031572
 40
0.8682458734923241
 40
0.8767040297484509
 40
0.886188324378523
 40
0.8966791891528745
 40
0.9081566713203477
 40
0.9206053644508465
 40
0.9340224952445979
 40
0.946594879657127
 40
0.9587674878022546
 40
0.9716583008603369
 40
0.9853556339987051
 40
1.0
 40
1.0
 40
1.0
 40
1.0
 10
106.6808334491847
 20
187.1879127754599
 30
0.0
 10
106.551517022637
 20
189.5576635708778
 30
0.0
 10
106.3476046252718
 20
193.399578014156
 30
0.0
 10
106.2043985206448
 20
199.8914859765326
 30
0.0
 10
106.1014785854198
 20
206.1389557698251
 30
0.0
 10
106.0218849135808
 20
212.5562908060749
 30
0.0
 10
105.9491365219115
 20
218.9830378429238
 30
0.0
 10
105.888421247356
 20
225.4514094489599
 30
0.0
 10
105.838591595124
 20
231.8343411691123
 30
0.0
 10
105.8006000675976
 20
238.0788370553745
 30
0.0
 10
105.7718845063826
 20
244.0811733177708
 30
0.0
 10
105.7511535524442
 20
249.7767072026933
 30
0.0
 10
105.7362861239246
 20
255.0880886942671
 30
0.0
 10
105.7259171340788
 20
259.9548748409452
 30
0.0
 10
105.7186826127278
 20
264.3478430377801
 30
0.0
 10
105.713096966615
 20
268.702143189974
 30
0.0
 10
105.7077665131906
 20
274.202392096677
 30
0.0
 10
105.7035077886684
 20
281.1358725118438
 30
0.0
 10
105.7008193618079
 20
289.2916686150672
 30
0.0
 10
105.6995309741664
 20
297.6937472566407
 30
0.0
 10
105.6990373640772
 20
306.184148376093
 30
0.0
 10
105.6989053177232
 20
314.4704698884584
 30
0.0
 10
105.6988771074167
 20
322.2448158975168
 30
0.0
 10
105.6988606517856
 20
329.3139339672684
 30
0.0
 10
105.6988473773439
 20
335.6373301198918
 30
0.0
 10
105.6988303107926
 20
341.2665658656549
 30
0.0
 10
105.6988266592075
 20
346.35710874442
 30
0.0
 10
105.6987991365851
 20
351.0155950820898
 30
0.0
 10
105.6988204038719
 20
355.3089417447701
 30
0.0
 10
105.698758401057
 20
359.1593882727229
 30
0.0
 10
105.6988344272024
 20
362.3719987035353
 30
0.0
 10
105.6987171434163
 20
364.7900287545615
 30
0.0
 10
105.6989116363522
 20
366.7965092939114
 30
0.0
 10
105.6954537166901
 20
368.6892452396235
 30
0.0
 10
105.6773527862394
 20
370.5319492711653
 30
0.0
 10
105.6273206806428
 20
372.3276028508838
 30
0.0
 10
105.545543962139
 20
373.6545798144294
 30
0.0
 10
105.453113742521
 20
374.6060948363862
 30
0.0
 10
105.3799033334273
 20
375.2066836399117
 30
0.0
 10
105.29850015047
 20
375.7595210218194
 30
0.0
 10
105.1260742659906
 20
376.5715684150294
 30
0.0
 10
104.8484421814217
 20
377.5434768297742
 30
0.0
 10
104.4374458093313
 20
378.6475123206009
 30
0.0
 10
103.9279516628838
 20
379.7106425412349
 30
0.0
 10
103.4370905829882
 20
380.5655318163537
 30
0.0
 10
102.94187323895
 20
381.3191592881686
 30
0.0
 10
102.0227380791991
 20
382.5350820701261
 30
0.0
 10
100.4479299033764
 20
384.1605144350428
 30
0.0
 10
98.22754830246527
 20
385.7022355169229
 30
0.0
 10
95.90044964750174
 20
386.7638274335578
 30
0.0
 10
93.68221764530519
 20
387.3952084758031
 30
0.0
 10
91.3338401925145
 20
387.6816034398058
 30
0.0
 10
88.9292078564169
 20
387.5934640478348
 30
0.0
 10
86.53877644926119
 20
387.1143006522993
 30
0.0
 10
84.23255716989702
 20
386.2462445999629
 30
0.0
 10
82.13383326054242
 20
385.0274722136304
 30
0.0
 10
80.39826040123057
 20
383.6094662216743
 30
0.0
 10
79.0990055198317
 20
382.1930052165587
 30
0.0
 10
78.21704815196698
 20
380.9809672973607
 30
0.0
 10
77.63116816386855
 20
380.0039814322237
 30
0.0
 10
77.22096780920454
 20
379.2068385821513
 30
0.0
 10
76.82081198100637
 20
378.301409360995
 30
0.0
 10
76.47996561735198
 20
377.3292492542141
 30
0.0
 10
76.21119589624675
 20
376.3394673468496
 30
0.0
 10
76.0236913376216
 20
375.4016057344051
 30
0.0
 10
75.89625818898274
 20
374.4977863596753
 30
0.0
 10
75.81476212314622
 20
373.6032751454661
 30
0.0
 10
75.76624640577384
 20
372.7027306015569
 30
0.0
 10
75.7392373728556
 20
371.7556425487817
 30
0.0
 10
75.72577593294594
 20
370.7299334959444
 30
0.0
 10
75.72010437813407
 20
369.5904846738115
 30
0.0
 10
75.71428927279386
 20
368.215934417699
 30
0.0
 10
75.70913424735346
 20
366.4388781801835
 30
0.0
 10
75.70468947980766
 20
364.1566020622862
 30
0.0
 10
75.7013736776331
 20
361.2672566480845
 30
0.0
 10
75.69928992456101
 20
358.1113765047062
 30
0.0
 10
75.6981107590963
 20
354.7359641223178
 30
0.0
 10
75.69750555767548
 20
351.0732917017961
 30
0.0
 10
75.69727470036442
 20
347.044868967115
 30
0.0
 10
75.69724725589921
 20
342.6410513017912
 30
0.0
 10
75.69726469234809
 20
337.992241660009
 30
0.0
 10
75.69727886124126
 20
333.1276888144254
 30
0.0
 10
75.69729570846722
 20
327.5044226050018
 30
0.0
 10
75.69731545888885
 20
320.9153012147685
 30
0.0
 10
75.6973218629714
 20
313.2502294039539
 30
0.0
 10
75.69721912702448
 20
305.1552592263831
 30
0.0
 10
75.69679640203685
 20
297.3020297052008
 30
0.0
 10
75.69581068640579
 20
290.0218024867957
 30
0.0
 10
75.69410579707369
 20
283.4122426445563
 30
0.0
 10
75.6913711623771
 20
277.1516560566748
 30
0.0
 10
75.68765426711619
 20
271.703605022755
 30
0.0
 10
75.68336746502597
 20
267.2545988870554
 30
0.0
 10
75.67891549448666
 20
263.61742564381
 30
0.0
 10
75.67355605858556
 20
260.035665054501
 30
0.0
 10
75.6660832386491
 20
255.9969200470887
 30
0.0
 10
75.65528465468313
 20
251.3585001342107
 30
0.0
 10
75.63968898677572
 20
246.1517334471052
 30
0.0
 10
75.61769645459002
 20
240.4504878237792
 30
0.0
 10
75.5869955844568
 20
234.3509905788418
 30
0.0
 10
75.54571811723126
 20
227.9347612191994
 30
0.0
 10
75.491159283549
 20
221.331010202572
 30
0.0
 10
75.42653091225468
 20
214.911277416072
 30
0.0
 10
75.35413230237268
 20
208.9721569209059
 30
0.0
 10
75.2742939250502
 20
203.4225096893234
 30
0.0
 10
75.1692768657904
 20
198.1216780244959
 30
0.0
 10
75.0151084810656
 20
192.5525927047741
 30
0.0
 10
74.8317829812678
 20
189.2322546326842
 30
0.0
 10
74.71581409387487
 20
187.1861994834863
 30
0.0
  0
LINE
  5
23E
330
235
100
AcDbEntity
  8
DV3_Default
 62
     7
100
AcDbLine
 10
135.4987021862
 20
349.1186810085
 30
0.0
 11
135.4987021862
 21
396.7188393209
 31
0.0
  0
LINE
  5
23F
330
235
100
AcDbEntity
  8
DV3_Default
 62
     7
100
AcDbLine
 10
182.7985942835
 20
396.9188393209
 30
0.0
 11
135.6987021862
 21
396.9188393209
 31
0.0
  0
LINE
  5
240
330
235
100
AcDbEntity
  8
DV3_Default
 62
     7
100
AcDbLine
 10
135.6987021862
 20
348.9186810085
 30
0.0
 11
168.500780503
 21
348.9186810085
 31
0.0
  0
ARC
  5
241
330
235
100
AcDbEntity
  8
DV3_Default
 62
     7
100
AcDbCircle
 10
135.6987021862
 20
396.7188393209
 30
0.0
 40
0.200000000000089
100
AcDbArc
 50
90.0
 51
180.0
  0
ARC
  5
242
330
235
100
AcDbEntity
  8
DV3_Default
 62
     7
100
AcDbCircle
 10
135.6987021862
 20
349.1186810085
 30
0.0
 40
0.200000000000089
100
AcDbArc
 50
180.0
 51
270.0
  0
SPLINE
  5
243
330
235
100
AcDbEntity
  8
DV3_Default
 62
     7
100
AcDbSpline
210
0.0
220
0.0
230
1.0
 70
     8
 71
     3
 72
    12
 73
     8
 74
     0
 42
0.000000001
 43
0.0000000001
 40
0.0
 40
0.0
 40
0.0
 40
0.0
 40
0.1879914128323444
 40
0.4093172821778795
 40
0.6017152660986271
 40
0.8348455973196118
 40
1.0
 40
1.0
 40
1.0
 40
1.0
 10
184.755945297279
 20
393.3760017303023
 30
0.0
 10
184.6947696442521
 20
393.7913772852917
 30
0.0
 10
184.5780902514926
 20
394.5481474109366
 30
0.0
 10
184.3119654970489
 20
395.4935595591386
 30
0.0
 10
183.943902648619
 20
396.2728726458905
 30
0.0
 10
183.4831486132859
 20
396.7990468692448
 30
0.0
 10
183.0253348026136
 20
396.8823902693676
 30
0.0
 10
182.7999361970655
 20
396.9188390108837
 30
0.0
  0
ARC
  5
244
330
235
100
AcDbEntity
  8
DV3_Default
 62
     7
100
AcDbCircle
 10
171.3084238801
 20
318.5885055808
 30
0.0
 40
7.407699508723608
100
AcDbArc
 50
168.4385511418
 51
179.5460565046
  0
ARC
  5
245
330
235
100
AcDbEntity
  8
DV3_Default
 62
     7
100
AcDbCircle
 10
138.6782472923
 20
385.2556705748
 30
0.0
 40
47.28849478257959
100
AcDbArc
 50
359.0109602589
 51
8.8260086209
  0
ARC
  5
246
330
235
100
AcDbEntity
  8
DV3_Default
 62
     7
100
AcDbCircle
 10
184.7192671086
 20
392.5869376459
 30
0.0
 40
0.6916663540149985
100
AcDbArc
 50
353.726243207
 51
45.0465160523
  0
ARC
  5
247
330
235
100
AcDbEntity
  8
DV3_Default
 62
     7
100
AcDbCircle
 10
71.4086740384
 20
384.8960626837
 30
0.0
 40
114.5519329590247
100
AcDbArc
 50
354.3636982649
 51
359.7715976316
  0
ARC
  5
248
330
235
100
AcDbEntity
  8
DV3_Default
 62
     7
100
AcDbCircle
 10
169.6495857314
 20
313.8980343615
 30
0.0
 40
1.417288688006394
100
AcDbArc
 50
318.6533809272
 51
356.0032781212
  0
ARC
  5
249
330
235
100
AcDbEntity
  8
DV3_Default
 62
     7
100
AcDbCircle
 10
-51276.0378266089
 20
12677.7631838756
 30
0.0
 40
52911.9229810765
100
AcDbArc
 50
346.4867245262
 51
346.5196120347
  0
ARC
  5
24A
330
235
100
AcDbEntity
  8
DV3_Default
 62
     7
100
AcDbCircle
 10
-51276.0378266089
 20
12677.7631838756
 30
0.0
 40
52911.9229810765
100
AcDbArc
 50
346.547568343
 51
346.5533648506
  0
SPLINE
  5
24B
330
235
100
AcDbEntity
  8
DV3_Default
 62
     7
100
AcDbSpline
210
0.0
220
0.0
230
1.0
 70
     8
 71
     3
 72
    26
 73
    22
 74
     0
 42
0.000000001
 43
0.0000000001
 40
0.0
 40
0.0
 40
0.0
 40
0.0
 40
0.0114428857205968
 40
0.0114428857205968
 40
0.0114428857205968
 40
0.0273056088787463
 40
0.0273056088787463
 40
0.0273056088787463
 40
0.0907565015113433
 40
0.0907565015113433
 40
0.0907565015113433
 40
0.2176582867765379
 40
0.2176582867765379
 40
0.2176582867765379
 40
0.4714618573069253
 40
0.4714618573069253
 40
0.4714618573069253
 40
0.9790689983677037
 40
0.9790689983677037
 40
0.9790689983677037
 40
1.0
 40
1.0
 40
1.0
 40
1.0
 10
185.4069004019803
 20
373.6418537222641
 30
0.0
 10
185.4069144010095
 20
373.6414912555277
 30
0.0
 10
185.4069208479577
 20
373.6411032052777
 30
0.0
 10
185.4069291564328
 20
373.6407432868645
 30
0.0
 10
185.406940674073
 20
373.6402443492462
 30
0.0
 10
185.4069493562286
 20
373.6397396660559
 30
0.0
 10
185.4069554548954
 20
373.6392326949146
 30
0.0
 10
185.4069798495626
 20
373.6372048103494
 30
0.0
 10
185.4069633543373
 20
373.6351463280227
 30
0.0
 10
185.406908022584
 20
373.6330900950546
 30
0.0
 10
185.4067973590774
 20
373.6289776291184
 30
0.0
 10
185.4065301115243
 20
373.6248583424809
 30
0.0
 10
185.4061054407287
 20
373.6207560649604
 30
0.0
 10
185.4052560991376
 20
373.6125515099193
 30
0.0
 10
185.4037755743582
 20
373.6044070188615
 30
0.0
 10
185.4016587977836
 20
373.596393974763
 30
0.0
 10
185.3974252446343
 20
373.5803678865656
 30
0.0
 10
185.3906402293619
 20
373.5648751559888
 30
0.0
 10
185.381387316394
 20
373.5503523036569
 30
0.0
 10
185.3810057757876
 20
373.5497534589574
 30
0.0
 10
185.3806200641289
 20
373.5491562589704
 30
0.0
 10
185.3802301869371
 20
373.5485607226463
 30
0.0
  0
SPLINE
  5
24C
330
235
100
AcDbEntity
  8
DV3_Default
 62
     7
100
AcDbSpline
210
0.0
220
0.0
230
1.0
 70
     8
 71
     5
 72
    16
 73
    10
 74
     0
 42
0.000000001
 43
0.0000000001
 40
0.0
 40
0.0
 40
0.0
 40
0.0
 40
0.0
 40
0.0
 40
0.2080177653049316
 40
0.4160355306098631
 40
0.6240532959147947
 40
0.8320710612197263
 40
1.0
 40
1.0
 40
1.0
 40
1.0
 40
1.0
 40
1.0
 10
170.7135824325156
 20
312.9617554260048
 30
0.0
 10
170.7128133673378
 20
312.9503283363925
 30
0.0
 10
170.7105254970752
 20
312.9278355516536
 30
0.0
 10
170.7050211405188
 20
312.8951743403056
 30
0.0
 10
170.6937265929368
 20
312.8538789259285
 30
0.0
 10
170.674276993926
 20
312.8080752104686
 30
0.0
 10
170.6547913158313
 20
312.7748515055114
 30
0.0
 10
170.638381405423
 20
312.7520975291299
 30
0.0
 10
170.6270177357214
 20
312.7381940738701
 30
0.0
 10
170.6217865164638
 20
312.7321343354984
 30
0.0
  0
ARC
  5
24D
330
235
100
AcDbEntity
  8
DV3_Default
 62
     7
100
AcDbCircle
 10
171.0879953264
 20
318.6789090829
 30
0.0
 40
7.187108435042612
100
AcDbArc
 50
180.2528281305
 51
226.9183166293
  0
ARC
  5
24E
330
235
100
AcDbEntity
  8
DV3_Default
 62
     7
100
AcDbCircle
 10
50686.5629453403
 20
-7460.9973745208
 30
0.0
 40
51118.19452704079
100
AcDbArc
 50
171.2118450408
 51
171.2445579345
  0
ARC
  5
24F
330
235
100
AcDbEntity
  8
DV3_Default
 62
     7
100
AcDbCircle
 10
184.3518441045
 20
392.2740369222
 30
0.0
 40
1.173436509424482
100
AcDbArc
 50
43.144851029
 51
69.8615227829
  0
SPLINE
  5
250
330
235
100
AcDbEntity
  8
DV3_Default
 62
     7
100
AcDbSpline
210
0.0
220
0.0
230
1.0
 70
     8
 71
     3
 72
    15
 73
    11
 74
     0
 42
0.000000001
 43
0.0000000001
 40
0.0
 40
0.0
 40
0.0
 40
0.0
 40
0.2106343410111324
 40
0.359217152289393
 40
0.4639214532014279
 40
0.5556230990756431
 40
0.64994261085959
 40
0.7581772487807382
 40
0.8558806880443972
 40
1.0
 40
1.0
 40
1.0
 40
1.0
 10
166.1819129826262
 20
313.432896328996
 30
0.0
 10
166.5172302183603
 20
313.1337196411835
 30
0.0
 10
167.0052289151913
 20
312.7117599558824
 30
0.0
 10
167.7949425456228
 20
312.321804916841
 30
0.0
 10
168.379700483229
 20
312.148297310599
 30
0.0
 10
168.8672995222762
 20
312.0803768637214
 30
0.0
 10
169.3404599986537
 20
312.0888529552434
 30
0.0
 10
169.7838225539721
 20
312.1812358065463
 30
0.0
 10
170.25268597733
 20
312.3838639586207
 30
0.0
 10
170.4710305760706
 20
312.5862594047331
 30
0.0
 10
170.6217582837009
 20
312.7321491351821
 30
0.0
  0
LINE
  5
251
330
235
100
AcDbEntity
  8
DV3_Default
 62
     7
100
AcDbLine
 10
74.6936895388
 20
186.5066554247
 30
0.0
 11
74.7032821252
 21
186.0129657451
 31
0.0
  0
ARC
  5
252
330
235
100
AcDbEntity
  8
DV3_Default
 62
     7
100
AcDbCircle
 10
90.6987021862
 20
372.9185898064
 30
0.0
 40
30.33516031771261
100
AcDbArc
 50
52.2948500959
 51
240.2480150238
  0
ARC
  5
253
330
235
100
AcDbEntity
  8
DV3_Default
 62
     7
100
AcDbCircle
 10
90.6987021862
 20
372.9185898064
 30
0.0
 40
30.33516031771261
100
AcDbArc
 50
299.6913594105
 51
307.7060521018
  0
ARC
  5
254
330
235
100
AcDbEntity
  8
DV3_Default
 62
     7
100
AcDbCircle
 10
90.7434702723
 20
140.1326126496
 30
0.0
 40
33.74183127365434
100
AcDbArc
 50
124.9658555432
 51
269.9670216675
  0
SPLINE
  5
255
330
235
100
AcDbEntity
  8
DV3_Default
 62
     7
100
AcDbSpline
210
0.0
220
0.0
230
1.0
 70
     8
 71
     3
 72
    16
 73
    12
 74
     0
 42
0.000000001
 43
0.0000000001
 40
0.0
 40
0.0
 40
0.0
 40
0.0
 40
0.0036229597556821
 40
0.0036229597556821
 40
0.2527172198167615
 40
0.2527172198167615
 40
0.501811479877841
 40
0.501811479877841
 40
0.7509057399389205
 40
0.7509057399389205
 40
1.0
 40
1.0
 40
1.0
 40
1.0
 10
74.7023162238529
 20
186.0126052090735
 30
0.0
 10
74.70215277222323
 20
185.987803997621
 30
0.0
 10
74.70207737505655
 20
185.9630022544795
 30
0.0
 10
74.70296701400059
 20
184.2329630231931
 30
0.0
 10
75.12057391375393
 20
182.5281163500762
 30
0.0
 10
76.72640021827439
 20
179.3750614331994
 30
0.0
 10
77.91403454999937
 20
177.9275673391047
 30
0.0
 10
80.87981240532058
 20
175.5079070788936
 30
0.0
 10
82.65682589934778
 20
174.5362770509582
 30
0.0
 10
86.53131281328747
 20
173.2151455525532
 30
0.0
 10
88.62729176887207
 20
172.8658252075012
 30
0.0
 10
90.72406789186773
 20
172.8537338514631
 30
0.0
  0
SPLINE
  5
256
330
235
100
AcDbEntity
  8
DV3_Default
 62
     7
100
AcDbSpline
210
0.0
220
0.0
230
1.0
 70
     8
 71
     3
 72
    16
 73
    12
 74
     0
 42
0.000000001
 43
0.0000000001
 40
0.0
 40
0.0
 40
0.0
 40
0.0
 40
0.2464643536510933
 40
0.2464643536510933
 40
0.4929287073021864
 40
0.4929287073021864
 40
0.7393930609532795
 40
0.7393930609532795
 40
0.9858574146043726
 40
0.9858574146043726
 40
1.0
 40
1.0
 40
1.0
 40
1.0
 10
90.72406789186773
 20
172.8537338514631
 30
0.0
 10
92.82038916318864
 20
172.8555813860284
 30
0.0
 10
94.91590709941217
 20
173.1945268816224
 30
0.0
 10
98.78950624926888
 20
174.4956882817046
 30
0.0
 10
100.566080758234
 20
175.4574459874402
 30
0.0
 10
103.531029969525
 20
177.8584629617152
 30
0.0
 10
104.7182595052279
 20
179.2968435182532
 30
0.0
 10
106.3233222379444
 20
182.4326848524851
 30
0.0
 10
106.740551086134
 20
184.128995333073
 30
0.0
 10
106.7410906748322
 20
185.9233138570338
 30
0.0
 10
106.7397478883418
 20
186.0206855678825
 30
0.0
 10
106.7370389652631
 20
186.1180309951199
 30
0.0
  0
ARC
  5
257
330
235
100
AcDbEntity
  8
DV3_Default
 62
     7
100
AcDbCircle
 10
90.7046438097
 20
140.1326126542
 30
0.0
 40
33.74183126912113
100
AcDbArc
 50
270.0329514785
 51
55.0340739608
  0
SPLINE
  5
258
330
235
100
AcDbEntity
  8
DV3_Default
 62
     7
100
AcDbSpline
210
0.0
220
0.0
230
1.0
 70
     8
 71
     3
 72
    24
 73
    20
 74
     0
 42
0.000000001
 43
0.0000000001
 40
0.0
 40
0.0
 40
0.0
 40
0.0
 40
0.0613936505882335
 40
0.152735692806907
 40
0.2391802506019393
 40
0.312498643854863
 40
0.3681851625572291
 40
0.4400619335653037
 40
0.5196079132438004
 40
0.6017468225891259
 40
0.648479662295136
 40
0.6909105960713837
 40
0.7379846434863514
 40
0.7925060846001083
 40
0.8534094137320773
 40
0.9053484286026611
 40
0.9417187634827866
 40
0.9745798579035462
 40
1.0
 40
1.0
 40
1.0
 40
1.0
 10
74.70328212522861
 20
186.0129657451324
 30
0.0
 10
74.66666952605142
 20
185.4719989111886
 30
0.0
 10
74.58116256749744
 20
184.2541776312092
 30
0.0
 10
74.40673627178249
 20
182.2392494849232
 30
0.0
 10
74.19304635499357
 20
180.2688978364619
 30
0.0
 10
73.98266246082174
 20
178.6422185280081
 30
0.0
 10
73.77543337617263
 20
177.2338728696373
 30
0.0
 10
73.54956684303535
 20
175.869770642141
 30
0.0
 10
73.27585254081102
 20
174.420284058826
 30
0.0
 10
73.01483740534253
 20
173.2092397679942
 30
0.0
 10
72.79254350660611
 20
172.2741519119195
 30
0.0
 10
72.61489515654252
 20
171.5738944398778
 30
0.0
 10
72.42660695129527
 20
170.8765829350728
 30
0.0
 10
72.2118431349176
 20
170.1339119655976
 30
0.0
 10
71.98761958320426
 20
169.4155398226069
 30
0.0
 10
71.78591621957503
 20
168.8150444862893
 30
0.0
 10
71.6242902327878
 20
168.3606205017446
 30
0.0
 10
71.50666681610015
 20
168.0437759197527
 30
0.0
 10
71.43661824535472
 20
167.8613322552214
 30
0.0
 10
71.40642577868559
 20
167.783831211438
 30
0.0
  0
SPLINE
  5
259
330
235
100
AcDbEntity
  8
DV3_Default
 62
     7
100
AcDbSpline
210
0.0
220
0.0
230
1.0
 70
     8
 71
     3
 72
    26
 73
    22
 74
     0
 42
0.000000001
 43
0.0000000001
 40
0.0
 40
0.0
 40
0.0
 40
0.0
 40
0.0019576083295854
 40
0.0462384207197712
 40
0.111676682002992
 40
0.1715321625686979
 40
0.221224028210988
 40
0.2715139440420966
 40
0.326660102189521
 40
0.3858439122949832
 40
0.4377996183049626
 40
0.4646044066024541
 40
0.4887256499543834
 40
0.5142559983316087
 40
0.5512836729445394
 40
0.6095047605246471
 40
0.6805418080454757
 40
0.7608342653415079
 40
0.8458010084848521
 40
0.929686612490888
 40
1.0
 40
1.0
 40
1.0
 40
1.0
 10
110.0417223227384
 20
167.7838074203423
 30
0.0
 10
110.0392401173661
 20
167.7901771232909
 30
0.0
 10
109.9805185736016
 20
167.9410510543007
 30
0.0
 10
109.8334541699359
 20
168.3296163439917
 30
0.0
 10
109.6082575608498
 20
168.9678969876043
 30
0.0
 10
109.3745654879298
 20
169.6853189091445
 30
0.0
 10
109.1578698225822
 20
170.40017167906
 30
0.0
 10
108.9458578915054
 20
171.1492252511233
 30
0.0
 10
108.7259190609426
 20
171.9865535897372
 30
0.0
 10
108.511276609207
 20
172.8737138242147
 30
0.0
 10
108.3370289297139
 20
173.6562537386809
 30
0.0
 10
108.2085971500105
 20
174.2705528792869
 30
0.0
 10
108.1139199413954
 20
174.7427697956937
 30
0.0
 10
108.0052831992143
 20
175.3080294532738
 30
0.0
 10
107.8542260452345
 20
176.1389007976512
 30
0.0
 10
107.6570425380573
 20
177.3239568109319
 30
0.0
 10
107.4295730981894
 20
178.8757196480392
 30
0.0
 10
107.2022255856398
 20
180.696420389923
 30
0.0
 10
106.9985699014817
 20
182.6705535871288
 30
0.0
 10
106.8332986874166
 20
184.6810201105507
 30
0.0
 10
106.7529957882035
 20
185.8762365278662
 30
0.0
 10
106.7103901356083
 20
186.5229299766667
 30
0.0
  0
ARC
  5
25A
330
235
100
AcDbEntity
  8
DV3_Default
 62
     7
100
AcDbCircle
 10
62.2173519595
 20
380.0361581956
 30
0.0
 40
0.9999999999999974
100
AcDbArc
 50
158.9577467296
 51
172.9802526346
  0
ARC
  5
25B
330
235
100
AcDbEntity
  8
DV3_Default
 62
     7
100
AcDbCircle
 10
62.2173519595
 20
365.8010214173
 30
0.0
 40
0.9999999999999952
100
AcDbArc
 50
187.0197473653
 51
201.0422532705
  0
LINE
  5
25C
330
235
100
AcDbEntity
  8
DV3_Default
 62
     7
100
AcDbLine
 10
184.5487021862
 20
348.4223003594
 30
0.0
 11
184.7843329517
 21
371.0424095406
 31
0.0
  0
LINE
  5
25D
330
235
100
AcDbEntity
  8
DV3_Default
 62
     7
100
AcDbLine
 10
178.1495338129
 20
343.3318376813
 30
0.0
 11
184.1617430773
 21
368.4393274063
 31
0.0
  0
LINE
  5
25E
330
235
100
AcDbEntity
  8
DV3_Default
 62
     7
100
AcDbLine
 10
179.369536791
 20
348.4223003594
 30
0.0
 11
184.5487021862
 21
348.4223003594
 31
0.0
  0
LINE
  5
25F
330
235
100
AcDbEntity
  8
DV3_Default
 62
     7
100
AcDbLine
 10
128.4987021862
 20
396.9188150343
 30
0.0
 11
135.6987021862
 21
396.9188393209
 31
0.0
  0
LINE
  5
260
330
235
100
AcDbEntity
  8
DV3_Default
 62
     7
100
AcDbLine
 10
128.4987021862
 20
348.9187162782
 30
0.0
 11
135.6987021862
 21
348.9186810085
 31
0.0
  0
ENDBLK
  5
262
330
235
100
AcDbEntity
  8
0
100
AcDbBlockEnd
  0
ENDSEC
  0
SECTION
  2
ENTITIES
  0
INSERT
  5
70
330
1F
100
AcDbEntity
  8
Default
100
AcDbBlockReference
  2
SEANNOT_GROUP
 10
0.0
 20
0.0
 30
0.0
  0
INSERT
  5
76
330
1F
100
AcDbEntity
  8
Default
100
AcDbBlockReference
  2
SEANNOT_GROUP1
 10
0.0
 20
0.0
 30
0.0
  0
INSERT
  5
7C
330
1F
100
AcDbEntity
  8
Default
100
AcDbBlockReference
  2
SEANNOT_GROUP2
 10
0.0
 20
0.0
 30
0.0
  0
INSERT
  5
82
330
1F
100
AcDbEntity
  8
Default
100
AcDbBlockReference
  2
SEANNOT_GROUP3
 10
0.0
 20
0.0
 30
0.0
  0
INSERT
  5
88
330
1F
100
AcDbEntity
  8
Default
100
AcDbBlockReference
  2
SEANNOT_GROUP4
 10
0.0
 20
0.0
 30
0.0
  0
INSERT
  5
92
330
1F
100
AcDbEntity
  8
Default
100
AcDbBlockReference
  2
SEANNOT_GROUP5
 10
0.0
 20
0.0
 30
0.0
  0
INSERT
  5
98
330
1F
100
AcDbEntity
  8
Default
100
AcDbBlockReference
  2
SE
 10
0.0
 20
0.0
 30
0.0
  0
INSERT
  5
157
330
1F
100
AcDbEntity
  8
Default
100
AcDbBlockReference
  2
SE1
 10
0.0
 20
0.0
 30
0.0
  0
INSERT
  5
236
330
1F
100
AcDbEntity
  8
Default
100
AcDbBlockReference
  2
SE2
 10
0.0
 20
0.0
 30
0.0
  0
MTEXT
  5
263
330
1F
100
AcDbEntity
  8
Default
100
AcDbMText
 10
5.9362635081
 20
63.4225120485
 30
0.0
 40
10.0
 41
113.8626497168
 46
65.4545454545
 71
     1
 72
     1
  1
{\fArial Narrow|b0||i0||c0|p34;\C7;\H10.;\W1.;Grohe AG\P}{\fArial Narrow|b0||i0||c0|p34;\C7;\H10.;\W1.;\P}{\fArial Narrow|b0||i0||c0|p34;\C7;\H10.;\W1.;ecn:\P}{\fArial Narrow|b0||i0||c0|p34;\C7;\H10.;\W1.;unit: mm}
 73
     1
 44
1.0
1001
ACAD
1000
ACAD_MTEXT_DEFINED_HEIGHT_BEGIN
1070
    46
1040
65.4545454545
1000
ACAD_MTEXT_DEFINED_HEIGHT_END
  0
LINE
  5
264
330
1F
100
AcDbEntity
  8
Default
 62
     7
100
AcDbLine
 10
0.0
 20
0.0
 30
0.0
 11
100.0
 21
0.0
 31
0.0
  0
LINE
  5
265
330
1F
100
AcDbEntity
  8
Default
 62
     7
100
AcDbLine
 10
0.0
 20
0.0
 30
0.0
 11
0.0
 21
100.0
 31
0.0
  0
MTEXT
  5
266
330
1F
100
AcDbEntity
  8
Default
100
AcDbMText
 10
24.3923665681
 20
-8.2375342018
 30
0.0
 40
10.0
 41
35.00001
 46
16.3636363636
 71
     1
 72
     1
  1
{\fArial Narrow|b0||i0||c0|p34;\C7;\H10.;\W0.82;100 mm}
 73
     1
 44
1.0
1001
ACAD
1000
ACAD_MTEXT_DEFINED_HEIGHT_BEGIN
1070
    46
1040
16.3636363636
1000
ACAD_MTEXT_DEFINED_HEIGHT_END
  0
MTEXT
  5
267
330
1F
100
AcDbEntity
  8
Default
100
AcDbMText
 10
-17.6150308803
 20
24.6231930421
 30
0.0
 40
10.0
 41
35.00001
 46
16.3636363636
 71
     1
 72
     1
  1
{\fArial Narrow|b0||i0||c0|p34;\C7;\H10.;\W0.82;100 mm}
 11
6.123233995736766E-17
 21
1.0
 31
0.0
 73
     1
 44
1.0
1001
ACAD
1000
ACAD_MTEXT_DEFINED_HEIGHT_BEGIN
1070
    46
1040
16.3636363636
1000
ACAD_MTEXT_DEFINED_HEIGHT_END
  0
MTEXT
  5
268
330
1F
100
AcDbEntity
  8
Default
100
AcDbMText
 10
28.4878128572
 20
24.8634936442
 30
0.0
 40
10.0
 41
86.691737001
 46
16.3636363636
 71
     4
 72
     1
  1
{\fArial Narrow|b0||i0||c0|p34;\C7;\H10.;\W1.;244328}
 73
     1
 44
1.0
1001
ACAD
1000
ACAD_MTEXT_DEFINED_HEIGHT_BEGIN
1070
    46
1040
16.3636363636
1000
ACAD_MTEXT_DEFINED_HEIGHT_END
  0
MTEXT
  5
269
330
1F
100
AcDbEntity
  8
Default
100
AcDbMText
 10
5.9012241913
 20
41.4970052916
 30
0.0
 40
10.0
 41
109.9146987306
 46
16.3636363636
 71
     4
 72
     1
  1
{\fArial Narrow|b0||i0||c0|p34;\C7;\H10.;\W1.;30205002}
 73
     1
 44
1.0
1001
ACAD
1000
ACAD_MTEXT_DEFINED_HEIGHT_BEGIN
1070
    46
1040
16.3636363636
1000
ACAD_MTEXT_DEFINED_HEIGHT_END
  0
ENDSEC
  0
SECTION
  2
OBJECTS
  0
DICTIONARY
  5
C
330
0
100
AcDbDictionary
281
     1
  3
ACAD_DETAILVIEWSTYLE
350
2A5
  3
ACAD_GROUP
350
D
  3
ACAD_LAYOUT
350
1A
  3
ACAD_MATERIAL
350
43
  3
ACAD_MLEADERSTYLE
350
6B
  3
ACAD_MLINESTYLE
350
17
  3
ACAD_PLOTSETTINGS
350
19
  3
ACAD_PLOTSTYLENAME
350
E
  3
ACAD_SCALELIST
350
47
  3
ACAD_SECTIONVIEWSTYLE
350
2A6
  3
ACAD_TABLESTYLE
350
69
  3
ACAD_VISUALSTYLE
350
2A
  3
ACDB_RECOMPOSE_DATA
350
2A2
  3
AcDbVariableDictionary
350
26A
  0
SUN
  5
6D
330
29
100
AcDbSun
 90
        1
290
     0
 63
     7
421
 16777215
 40
1.0
291
     1
 91
  2455826
 92
 54000000
292
     0
 70
     2
 71
   256
280
     1
  0
DICTIONARY
  5
2A5
102
{ACAD_REACTORS
330
C
102
}
330
C
100
AcDbDictionary
281
     1
  0
DICTIONARY
  5
D
102
{ACAD_REACTORS
330
C
102
}
330
C
100
AcDbDictionary
281
     1
  0
DICTIONARY
  5
1A
102
{ACAD_REACTORS
330
C
102
}
330
C
100
AcDbDictionary
281
     1
  3
Layout1
350
1E
  3
Model
350
22
  0
DICTIONARY
  5
43
102
{ACAD_REACTORS
330
C
102
}
330
C
100
AcDbDictionary
281
     1
  3
ByBlock
350
45
  3
ByLayer
350
44
  3
Global
350
46
  0
DICTIONARY
  5
6B
102
{ACAD_REACTORS
330
C
102
}
330
C
100
AcDbDictionary
281
     1
  3
Standard
350
6C
  0
DICTIONARY
  5
17
102
{ACAD_REACTORS
330
C
102
}
330
C
100
AcDbDictionary
281
     1
  3
Standard
350
18
  0
DICTIONARY
  5
19
102
{ACAD_REACTORS
330
C
102
}
330
C
100
AcDbDictionary
281
     1
  0
ACDBDICTIONARYWDFLT
  5
E
102
{ACAD_REACTORS
330
C
102
}
330
C
100
AcDbDictionary
281
     1
  3
Normal
350
F
100
AcDbDictionaryWithDefault
340
F
  0
DICTIONARY
  5
47
102
{ACAD_REACTORS
330
C
102
}
330
C
100
AcDbDictionary
281
     1
  3
A0
350
48
  3
A1
350
49
  3
A2
350
4A
  3
A3
350
4B
  3
A4
350
4C
  3
A5
350
4D
  3
A6
350
4E
  3
A7
350
4F
  3
A8
350
50
  3
A9
350
51
  3
B0
350
52
  3
B1
350
53
  3
B2
350
54
  3
B3
350
55
  3
B4
350
56
  3
B5
350
57
  3
B6
350
58
  3
B7
350
59
  3
B8
350
5A
  3
B9
350
5B
  3
C0
350
5C
  3
C1
350
5D
  3
C2
350
5E
  3
C3
350
5F
  3
C4
350
60
  3
C5
350
61
  3
C6
350
62
  3
C7
350
63
  3
C8
350
64
  3
C9
350
65
  3
D0
350
66
  3
D1
350
67
  3
D2
350
68
  0
DICTIONARY
  5
2A6
102
{ACAD_REACTORS
330
C
102
}
330
C
100
AcDbDictionary
281
     1
  0
DICTIONARY
  5
69
102
{ACAD_REACTORS
330
C
102
}
330
C
100
AcDbDictionary
281
     1
  3
Standard
350
6A
  0
DICTIONARY
  5
2A
102
{ACAD_REACTORS
330
C
102
}
330
C
100
AcDbDictionary
281
     1
  3
2dWireframe
350
2F
  3
Basic
350
32
  3
Brighten
350
36
  3
ColorChange
350
3A
  3
Conceptual
350
34
  3
Dim
350
35
  3
EdgeColorOff
350
3D
  3
Facepattern
350
39
  3
Flat
350
2B
  3
FlatWithEdges
350
2C
  3
Gouraud
350
2D
  3
GouraudWithEdges
350
2E
  3
Hidden
350
31
  3
JitterOff
350
3B
  3
Linepattern
350
38
  3
OverhangOff
350
3C
  3
Realistic
350
33
  3
Shaded
350
42
  3
Shaded with edges
350
41
  3
Shades of Gray
350
3E
  3
Sketchy
350
3F
  3
Thicken
350
37
  3
Wireframe
350
30
  3
X-Ray
350
40
  0
XRECORD
  5
2A2
102
{ACAD_REACTORS
330
C
102
}
330
C
100
AcDbXrecord
280
     1
 90
        1
330
6A
  0
DICTIONARY
  5
26A
102
{ACAD_REACTORS
330
C
102
}
330
C
100
AcDbDictionary
281
     1
  3
CANNOSCALE
350
26B
  3
CENTEREXE
350
2A7
  3
CENTERLTYPEFILE
350
2A8
  3
CMLEADERSTYLE
350
2A4
  3
CTABLESTYLE
350
2A3
  3
XCLIPFRAME
350
26C
  0
LAYOUT
  5
1E
102
{ACAD_REACTORS
330
1A
102
}
330
1A
100
AcDbPlotSettings
  1

  2
none_device
  4

  6

 40
0.0
 41
0.0
 42
0.0
 43
0.0
 44
0.0
 45
0.0
 46
0.0
 47
0.0
 48
0.0
 49
0.0
140
0.0
141
0.0
142
1.0
143
1.0
 70
   688
 72
     1
 73
     0
 74
     5
  7

 75
    16
 76
     0
 77
     2
 78
   300
147
1.0
148
0.0
149
0.0
100
AcDbLayout
  1
Layout1
 70
     1
 71
     1
 10
0.0
 20
0.0
 11
3000.0
 21
4500.0
 12
0.0
 22
0.0
 32
0.0
 14
0.0
 24
0.0
 34
0.0
 15
3000.0
 25
4500.0
 35
0.0
146
0.0
 13
0.0
 23
0.0
 33
0.0
 16
1.0
 26
0.0
 36
0.0
 17
0.0
 27
1.0
 37
0.0
 76
     0
330
1B
  0
LAYOUT
  5
22
102
{ACAD_REACTORS
330
1A
102
}
330
1A
100
AcDbPlotSettings
  1

  2
none_device
  4
Letter_(8.50_x_11.00_Inches)
  6

 40
6.35
 41
6.35
 42
6.35000508
 43
6.35000508
 44
215.9
 45
279.4
 46
0.0
 47
0.0
 48
0.0
 49
0.0
140
0.0
141
0.0
142
1.0
143
1.0
 70
  1712
 72
     1
 73
     0
 74
     0
  7

 75
     0
 76
     0
 77
     2
 78
   300
147
1.0
148
0.0
149
0.0
100
AcDbLayout
  1
Model
 70
     1
 71
     0
 10
0.0
 20
0.0
 11
3000.0
 21
4500.0
 12
0.0
 22
0.0
 32
0.0
 14
0.0
 24
0.0
 34
0.0
 15
3000.0
 25
4500.0
 35
0.0
146
0.0
 13
0.0
 23
0.0
 33
0.0
 16
1.0
 26
0.0
 36
0.0
 17
0.0
 27
1.0
 37
0.0
 76
     0
330
1F
331
29
  0
MATERIAL
  5
45
102
{ACAD_REACTORS
330
43
102
}
330
43
100
AcDbMaterial
  1
ByBlock
 72
     1
 94
      127
  0
MATERIAL
  5
44
102
{ACAD_REACTORS
330
43
102
}
330
43
100
AcDbMaterial
  1
ByLayer
 72
     1
 94
      127
  0
MATERIAL
  5
46
102
{ACAD_REACTORS
330
43
102
}
330
43
100
AcDbMaterial
  1
Global
 72
     1
 94
      127
  0
MLEADERSTYLE
  5
6C
102
{ACAD_REACTORS
330
6B
102
}
102
{ACAD_XDICTIONARY
360
2A0
102
}
330
6B
100
AcDbMLeaderStyle
170
     2
171
     1
172
     0
 90
        2
 40
0.0
 41
0.0
173
     1
 91
-1056964608
340
14
 92
       -2
290
     1
 42
2.0
291
     1
 43
8.0
  3
Standard
341
0
 44
4.0
300

342
11
174
     1
178
     6
175
     1
176
     0
 93
-1056964608
 45
4.0
292
     0
297
     0
 46
4.0
343
0
 94
-1056964608
 47
1.0
 49
1.0
140
1.0
293
     1
141
0.0
294
     1
177
     0
142
1.0
295
     0
296
     0
143
3.75
1001
ACAD_MLEADERVER
1070
     2
  0
MLINESTYLE
  5
18
102
{ACAD_REACTORS
330
17
102
}
330
17
100
AcDbMlineStyle
  2
Standard
 70
     0
  3

 62
   256
 51
90.0
 52
90.0
 71
     2
 49
0.5
 62
   256
  6
BYLAYER
 49
-0.5
 62
   256
  6
BYLAYER
  0
ACDBPLACEHOLDER
  5
F
102
{ACAD_REACTORS
330
E
102
}
330
E
  0
SCALE
  5
48
102
{ACAD_REACTORS
330
47
102
}
330
47
100
AcDbScale
 70
     0
300
1:1
140
1.0
141
1.0
290
     1
  0
SCALE
  5
49
102
{ACAD_REACTORS
330
47
102
}
330
47
100
AcDbScale
 70
     0
300
1:2
140
1.0
141
2.0
290
     0
  0
SCALE
  5
4A
102
{ACAD_REACTORS
330
47
102
}
330
47
100
AcDbScale
 70
     0
300
1:4
140
1.0
141
4.0
290
     0
  0
SCALE
  5
4B
102
{ACAD_REACTORS
330
47
102
}
330
47
100
AcDbScale
 70
     0
300
1:5
140
1.0
141
5.0
290
     0
  0
SCALE
  5
4C
102
{ACAD_REACTORS
330
47
102
}
330
47
100
AcDbScale
 70
     0
300
1:8
140
1.0
141
8.0
290
     0
  0
SCALE
  5
4D
102
{ACAD_REACTORS
330
47
102
}
330
47
100
AcDbScale
 70
     0
300
1:10
140
1.0
141
10.0
290
     0
  0
SCALE
  5
4E
102
{ACAD_REACTORS
330
47
102
}
330
47
100
AcDbScale
 70
     0
300
1:16
140
1.0
141
16.0
290
     0
  0
SCALE
  5
4F
102
{ACAD_REACTORS
330
47
102
}
330
47
100
AcDbScale
 70
     0
300
1:20
140
1.0
141
20.0
290
     0
  0
SCALE
  5
50
102
{ACAD_REACTORS
330
47
102
}
330
47
100
AcDbScale
 70
     0
300
1:30
140
1.0
141
30.0
290
     0
  0
SCALE
  5
51
102
{ACAD_REACTORS
330
47
102
}
330
47
100
AcDbScale
 70
     0
300
1:40
140
1.0
141
40.0
290
     0
  0
SCALE
  5
52
102
{ACAD_REACTORS
330
47
102
}
330
47
100
AcDbScale
 70
     0
300
1:50
140
1.0
141
50.0
290
     0
  0
SCALE
  5
53
102
{ACAD_REACTORS
330
47
102
}
330
47
100
AcDbScale
 70
     0
300
1:100
140
1.0
141
100.0
290
     0
  0
SCALE
  5
54
102
{ACAD_REACTORS
330
47
102
}
330
47
100
AcDbScale
 70
     0
300
2:1
140
2.0
141
1.0
290
     0
  0
SCALE
  5
55
102
{ACAD_REACTORS
330
47
102
}
330
47
100
AcDbScale
 70
     0
300
4:1
140
4.0
141
1.0
290
     0
  0
SCALE
  5
56
102
{ACAD_REACTORS
330
47
102
}
330
47
100
AcDbScale
 70
     0
300
8:1
140
8.0
141
1.0
290
     0
  0
SCALE
  5
57
102
{ACAD_REACTORS
330
47
102
}
330
47
100
AcDbScale
 70
     0
300
10:1
140
10.0
141
1.0
290
     0
  0
SCALE
  5
58
102
{ACAD_REACTORS
330
47
102
}
330
47
100
AcDbScale
 70
     0
300
100:1
140
100.0
141
1.0
290
     0
  0
SCALE
  5
59
102
{ACAD_REACTORS
330
47
102
}
330
47
100
AcDbScale
 70
     0
300
1/128" = 1'-0"
140
0.0078125
141
12.0
290
     0
  0
SCALE
  5
5A
102
{ACAD_REACTORS
330
47
102
}
330
47
100
AcDbScale
 70
     0
300
1/64" = 1'-0"
140
0.015625
141
12.0
290
     0
  0
SCALE
  5
5B
102
{ACAD_REACTORS
330
47
102
}
330
47
100
AcDbScale
 70
     0
300
1/32" = 1'-0"
140
0.03125
141
12.0
290
     0
  0
SCALE
  5
5C
102
{ACAD_REACTORS
330
47
102
}
330
47
100
AcDbScale
 70
     0
300
1/16" = 1'-0"
140
0.0625
141
12.0
290
     0
  0
SCALE
  5
5D
102
{ACAD_REACTORS
330
47
102
}
330
47
100
AcDbScale
 70
     0
300
3/32" = 1'-0"
140
0.09375
141
12.0
290
     0
  0
SCALE
  5
5E
102
{ACAD_REACTORS
330
47
102
}
330
47
100
AcDbScale
 70
     0
300
1/8" = 1'-0"
140
0.125
141
12.0
290
     0
  0
SCALE
  5
5F
102
{ACAD_REACTORS
330
47
102
}
330
47
100
AcDbScale
 70
     0
300
3/16" = 1'-0"
140
0.1875
141
12.0
290
     0
  0
SCALE
  5
60
102
{ACAD_REACTORS
330
47
102
}
330
47
100
AcDbScale
 70
     0
300
1/4" = 1'-0"
140
0.25
141
12.0
290
     0
  0
SCALE
  5
61
102
{ACAD_REACTORS
330
47
102
}
330
47
100
AcDbScale
 70
     0
300
3/8" = 1'-0"
140
0.375
141
12.0
290
     0
  0
SCALE
  5
62
102
{ACAD_REACTORS
330
47
102
}
330
47
100
AcDbScale
 70
     0
300
1/2" = 1'-0"
140
0.5
141
12.0
290
     0
  0
SCALE
  5
63
102
{ACAD_REACTORS
330
47
102
}
330
47
100
AcDbScale
 70
     0
300
3/4" = 1'-0"
140
0.75
141
12.0
290
     0
  0
SCALE
  5
64
102
{ACAD_REACTORS
330
47
102
}
330
47
100
AcDbScale
 70
     0
300
1" = 1'-0"
140
1.0
141
12.0
290
     0
  0
SCALE
  5
65
102
{ACAD_REACTORS
330
47
102
}
330
47
100
AcDbScale
 70
     0
300
1-1/2" = 1'-0"
140
1.5
141
12.0
290
     0
  0
SCALE
  5
66
102
{ACAD_REACTORS
330
47
102
}
330
47
100
AcDbScale
 70
     0
300
3" = 1'-0"
140
3.0
141
12.0
290
     0
  0
SCALE
  5
67
102
{ACAD_REACTORS
330
47
102
}
330
47
100
AcDbScale
 70
     0
300
6" = 1'-0"
140
6.0
141
12.0
290
     0
  0
SCALE
  5
68
102
{ACAD_REACTORS
330
47
102
}
330
47
100
AcDbScale
 70
     0
300
1'-0" = 1'-0"
140
12.0
141
12.0
290
     0
  0
TABLESTYLE
  5
6A
102
{ACAD_REACTORS
330
69
102
}
102
{ACAD_XDICTIONARY
360
29D
102
}
330
69
100
AcDbTableStyle
  3
Standard
 70
     0
 71
     0
 40
0.06
 41
0.06
280
     0
281
     0
  7
Standard
140
4.5
170
     2
 62
     0
 63
   257
283
     0
 90
        4
 91
        0
  1

274
    -2
284
     1
 64
     0
275
    -2
285
     1
 65
     0
276
    -2
286
     1
 66
     0
277
    -2
287
     1
 67
     0
278
    -2
288
     1
 68
     0
279
    -2
289
     1
 69
     0
  7
Standard
140
6.0
170
     5
 62
     0
 63
   257
283
     0
 90
        4
 91
        0
  1

274
    -2
284
     1
 64
     0
275
    -2
285
     1
 65
     0
276
    -2
286
     1
 66
     0
277
    -2
287
     1
 67
     0
278
    -2
288
     1
 68
     0
279
    -2
289
     1
 69
     0
  7
Standard
140
4.5
170
     5
 62
     0
 63
   257
283
     0
 90
        4
 91
        0
  1

274
    -2
284
     1
 64
     0
275
    -2
285
     1
 65
     0
276
    -2
286
     1
 66
     0
277
    -2
287
     1
 67
     0
278
    -2
288
     1
 68
     0
279
    -2
289
     1
 69
     0
  0
VISUALSTYLE
  5
2F
102
{ACAD_REACTORS
330
2A
102
}
102
{ACAD_XDICTIONARY
360
275
102
}
330
2A
100
AcDbVisualStyle
  2
2dWireframe
 70
     4
 71
     0
 72
     2
 73
     0
 90
        0
 40
0.6
 41
30.0
 62
     5
 63
     7
421
 16777215
 74
     1
 91
        4
 64
     7
 65
   257
 75
     1
175
     1
 42
1.0
 92
        0
 66
   257
 43
1.0
 76
     1
 77
     6
 78
     2
 67
     7
 79
     5
170
     0
171
     0
290
     0
174
     0
 93
        1
 44
0.0
173
     0
291
     0
 45
0.0
  0
VISUALSTYLE
  5
32
102
{ACAD_REACTORS
330
2A
102
}
102
{ACAD_XDICTIONARY
360
27B
102
}
330
2A
100
AcDbVisualStyle
  2
Basic
 70
     7
 71
     1
 72
     0
 73
     1
 90
        0
 40
0.6
 41
30.0
 62
     5
 63
     7
421
 16777215
 74
     0
 91
        4
 64
     7
 65
   257
 75
     1
175
     1
 42
1.0
 92
        8
 66
     7
 43
1.0
 76
     1
 77
     6
 78
     2
 67
     7
 79
     5
170
     0
171
     0
290
     0
174
     0
 93
        1
 44
0.0
173
     0
291
     1
 45
0.0
  0
VISUALSTYLE
  5
36
102
{ACAD_REACTORS
330
2A
102
}
102
{ACAD_XDICTIONARY
360
283
102
}
330
2A
100
AcDbVisualStyle
  2
Brighten
 70
    12
 71
     2
 72
     2
 73
     0
 90
        0
 40
0.6
 41
30.0
 62
     5
 63
     7
421
 16777215
 74
     1
 91
        4
 64
     7
 65
   257
 75
     1
175
     1
 42
1.0
 92
        8
 66
     7
 43
1.0
 76
     1
 77
     6
 78
     2
 67
     7
 79
     5
170
     0
171
     0
290
     0
174
     0
 93
        1
 44
50.0
173
     0
291
     1
 45
0.0
  0
VISUALSTYLE
  5
3A
102
{ACAD_REACTORS
330
2A
102
}
102
{ACAD_XDICTIONARY
360
28B
102
}
330
2A
100
AcDbVisualStyle
  2
ColorChange
 70
    16
 71
     2
 72
     2
 73
     3
 90
        0
 40
0.6
 41
30.0
 62
     5
 63
     8
421
  8421504
 74
     1
 91
        4
 64
     7
 65
   257
 75
     1
175
     1
 42
1.0
 92
        8
 66
     8
424
  8421504
 43
1.0
 76
     1
 77
     6
 78
     2
 67
     7
 79
     5
170
     0
171
     0
290
     0
174
     0
 93
        1
 44
0.0
173
     0
291
     1
 45
0.0
  0
VISUALSTYLE
  5
34
102
{ACAD_REACTORS
330
2A
102
}
102
{ACAD_XDICTIONARY
360
27F
102
}
330
2A
100
AcDbVisualStyle
  2
Conceptual
 70
     9
 71
     3
 72
     2
 73
     0
 90
        0
 40
0.6
 41
30.0
 62
     5
 63
     7
421
 16777215
 74
     2
 91
        2
 64
     7
 65
   257
 75
     1
175
     1
 42
179.0
 92
        8
 66
     7
 43
1.0
 76
     1
 77
     6
 78
     2
 67
     7
 79
     3
170
     0
171
     0
290
     0
174
     0
 93
        1
 44
0.0
173
     0
291
     0
 45
0.0
  0
VISUALSTYLE
  5
35
102
{ACAD_REACTORS
330
2A
102
}
102
{ACAD_XDICTIONARY
360
281
102
}
330
2A
100
AcDbVisualStyle
  2
Dim
 70
    11
 71
     2
 72
     2
 73
     0
 90
        0
 40
0.6
 41
30.0
 62
     5
 63
     7
421
 16777215
 74
     1
 91
        4
 64
     7
 65
   257
 75
     1
175
     1
 42
1.0
 92
        8
 66
     7
 43
1.0
 76
     1
 77
     6
 78
     2
 67
     7
 79
     5
170
     0
171
     0
290
     0
174
     0
 93
        1
 44
-50.0
173
     0
291
     1
 45
0.0
  0
VISUALSTYLE
  5
3D
102
{ACAD_REACTORS
330
2A
102
}
102
{ACAD_XDICTIONARY
360
291
102
}
330
2A
100
AcDbVisualStyle
  2
EdgeColorOff
 70
    22
 71
     2
 72
     2
 73
     0
 90
        0
 40
0.6
 41
30.0
 62
     5
 63
     7
421
 16777215
 74
     1
 91
        4
 64
     7
 65
   257
 75
     1
175
     1
 42
1.0
 92
        8
 66
     7
 43
1.0
 76
     1
 77
     6
 78
     2
 67
     7
 79
     5
170
     0
171
     0
290
     0
174
     0
 93
        1
 44
0.0
173
     0
291
     1
 45
0.0
  0
VISUALSTYLE
  5
39
102
{ACAD_REACTORS
330
2A
102
}
102
{ACAD_XDICTIONARY
360
289
102
}
330
2A
100
AcDbVisualStyle
  2
Facepattern
 70
    15
 71
     2
 72
     2
 73
     0
 90
        0
 40
0.6
 41
30.0
 62
     5
 63
     7
421
 16777215
 74
     1
 91
        4
 64
     7
 65
   257
 75
     1
175
     1
 42
1.0
 92
        8
 66
     7
 43
1.0
 76
     1
 77
     6
 78
     2
 67
     7
 79
     5
170
     0
171
     0
290
     0
174
     0
 93
        1
 44
0.0
173
     0
291
     1
 45
0.0
  0
VISUALSTYLE
  5
2B
102
{ACAD_REACTORS
330
2A
102
}
102
{ACAD_XDICTIONARY
360
26D
102
}
330
2A
100
AcDbVisualStyle
  2
Flat
 70
     0
 71
     2
 72
     1
 73
     1
 90
        2
 40
0.6
 41
30.0
 62
     5
 63
     7
421
 16777215
 74
     0
 91
        0
 64
     7
 65
   257
 75
     1
175
     1
 42
1.0
 92
        8
 66
     7
 43
1.0
 76
     1
 77
     6
 78
     2
 67
     7
 79
     5
170
     0
171
     0
290
     0
174
     0
 93
       13
 44
0.0
173
     0
291
     1
 45
0.0
  0
VISUALSTYLE
  5
2C
102
{ACAD_REACTORS
330
2A
102
}
102
{ACAD_XDICTIONARY
360
26F
102
}
330
2A
100
AcDbVisualStyle
  2
FlatWithEdges
 70
     1
 71
     2
 72
     1
 73
     1
 90
        2
 40
0.6
 41
30.0
 62
     5
 63
     7
421
 16777215
 74
     1
 91
        0
 64
     7
 65
   257
 75
     1
175
     1
 42
1.0
 92
        0
 66
   257
 43
1.0
 76
     1
 77
     6
 78
     2
 67
     7
 79
     5
170
     0
171
     0
290
     0
174
     0
 93
       13
 44
0.0
173
     0
291
     1
 45
0.0
  0
VISUALSTYLE
  5
2D
102
{ACAD_REACTORS
330
2A
102
}
102
{ACAD_XDICTIONARY
360
271
102
}
330
2A
100
AcDbVisualStyle
  2
Gouraud
 70
     2
 71
     2
 72
     2
 73
     1
 90
        2
 40
0.6
 41
30.0
 62
     5
 63
     7
421
 16777215
 74
     0
 91
        0
 64
     7
 65
   257
 75
     1
175
     1
 42
1.0
 92
        0
 66
     7
 43
1.0
 76
     1
 77
     6
 78
     2
 67
     7
 79
     5
170
     0
171
     0
290
     0
174
     0
 93
       13
 44
0.0
173
     0
291
     1
 45
0.0
  0
VISUALSTYLE
  5
2E
102
{ACAD_REACTORS
330
2A
102
}
102
{ACAD_XDICTIONARY
360
273
102
}
330
2A
100
AcDbVisualStyle
  2
GouraudWithEdges
 70
     3
 71
     2
 72
     2
 73
     1
 90
        2
 40
0.6
 41
30.0
 62
     5
 63
     7
421
 16777215
 74
     1
 91
        0
 64
     7
 65
   257
 75
     1
175
     1
 42
1.0
 92
        0
 66
   257
 43
1.0
 76
     1
 77
     6
 78
     2
 67
     7
 79
     5
170
     0
171
     0
290
     0
174
     0
 93
       13
 44
0.0
173
     0
291
     1
 45
0.0
  0
VISUALSTYLE
  5
31
102
{ACAD_REACTORS
330
2A
102
}
102
{ACAD_XDICTIONARY
360
279
102
}
330
2A
100
AcDbVisualStyle
  2
Hidden
 70
     6
 71
     1
 72
     2
 73
     2
 90
        0
 40
0.6
 41
30.0
 62
     5
 63
     7
421
 16777215
 74
     2
 91
        2
 64
     7
 65
   257
 75
     2
175
     1
 42
40.0
 92
        0
 66
   257
 43
1.0
 76
     1
 77
     6
 78
     2
 67
     7
 79
     3
170
     0
171
     0
290
     0
174
     0
 93
        1
 44
0.0
173
     0
291
     0
 45
0.0
  0
VISUALSTYLE
  5
3B
102
{ACAD_REACTORS
330
2A
102
}
102
{ACAD_XDICTIONARY
360
28D
102
}
330
2A
100
AcDbVisualStyle
  2
JitterOff
 70
    20
 71
     2
 72
     2
 73
     0
 90
        0
 40
0.6
 41
30.0
 62
     5
 63
     7
421
 16777215
 74
     1
 91
        4
 64
     7
 65
   257
 75
     1
175
     1
 42
1.0
 92
       10
 66
     7
 43
1.0
 76
     1
 77
     6
 78
     2
 67
     7
 79
     5
170
     0
171
     0
290
     0
174
     0
 93
        1
 44
0.0
173
     0
291
     1
 45
0.0
  0
VISUALSTYLE
  5
38
102
{ACAD_REACTORS
330
2A
102
}
102
{ACAD_XDICTIONARY
360
287
102
}
330
2A
100
AcDbVisualStyle
  2
Linepattern
 70
    14
 71
     2
 72
     2
 73
     0
 90
        0
 40
0.6
 41
30.0
 62
     5
 63
     7
421
 16777215
 74
     1
 91
        4
 64
     7
 65
   257
 75
     7
175
     7
 42
1.0
 92
        8
 66
     7
 43
1.0
 76
     1
 77
     6
 78
     2
 67
     7
 79
     5
170
     0
171
     0
290
     0
174
     0
 93
        1
 44
0.0
173
     0
291
     1
 45
0.0
  0
VISUALSTYLE
  5
3C
102
{ACAD_REACTORS
330
2A
102
}
102
{ACAD_XDICTIONARY
360
28F
102
}
330
2A
100
AcDbVisualStyle
  2
OverhangOff
 70
    21
 71
     2
 72
     2
 73
     0
 90
        0
 40
0.6
 41
30.0
 62
     5
 63
     7
421
 16777215
 74
     1
 91
        4
 64
     7
 65
   257
 75
     1
175
     1
 42
1.0
 92
        9
 66
     7
 43
1.0
 76
     1
 77
     6
 78
     2
 67
     7
 79
     5
170
     0
171
     0
290
     0
174
     0
 93
        1
 44
0.0
173
     0
291
     1
 45
0.0
  0
VISUALSTYLE
  5
33
102
{ACAD_REACTORS
330
2A
102
}
102
{ACAD_XDICTIONARY
360
27D
102
}
330
2A
100
AcDbVisualStyle
  2
Realistic
 70
     8
 71
     2
 72
     3
 73
     0
 90
        2
 40
0.6
 41
30.0
 62
     5
 63
     7
421
 16777215
 74
     0
 91
        0
 64
     7
 65
   257
 75
     1
175
     1
 42
1.0
 92
        8
 66
   257
 43
1.0
 76
     1
 77
     6
 78
     2
 67
     7
 79
     3
170
     0
171
     0
290
     0
174
     0
 93
       13
 44
0.0
173
     0
291
     0
 45
0.0
  0
VISUALSTYLE
  5
42
102
{ACAD_REACTORS
330
2A
102
}
102
{ACAD_XDICTIONARY
360
29B
102
}
330
2A
100
AcDbVisualStyle
  2
Shaded
 70
    27
 71
     2
 72
     2
 73
     1
 90
        2
 40
0.6
 41
30.0
 62
     5
 63
     7
421
 16777215
 74
     0
 91
        4
 64
     7
 65
   257
 75
     1
175
     1
 42
1.0
 92
        8
 66
   257
 43
1.0
 76
     1
 77
     6
 78
     2
 67
     8
425
  7895160
 79
     3
170
     0
171
     0
290
     0
174
     0
 93
        5
 44
0.0
173
     0
291
     0
 45
0.0
  0
VISUALSTYLE
  5
41
102
{ACAD_REACTORS
330
2A
102
}
102
{ACAD_XDICTIONARY
360
299
102
}
330
2A
100
AcDbVisualStyle
  2
Shaded with edges
 70
    26
 71
     2
 72
     2
 73
     1
 90
        2
 40
0.6
 41
30.0
 62
     5
 63
     7
421
 16777215
 74
     1
 91
       10
 64
     7
 65
   257
 75
     2
175
     1
 42
1.0
 92
        8
 66
   257
 43
1.0
 76
     1
 77
     6
 78
     2
 67
     7
 79
     3
170
     0
171
     0
290
     0
174
     0
 93
        5
 44
0.0
173
     0
291
     0
 45
0.0
  0
VISUALSTYLE
  5
3E
102
{ACAD_REACTORS
330
2A
102
}
102
{ACAD_XDICTIONARY
360
293
102
}
330
2A
100
AcDbVisualStyle
  2
Shades of Gray
 70
    23
 71
     2
 72
     2
 73
     3
 90
        0
 40
0.6
 41
30.0
 62
     5
 63
     7
421
 16777215
 74
     2
 91
        2
 64
     7
 65
     7
 75
     1
175
     1
 42
40.0
 92
        8
 66
     7
 43
1.0
 76
     1
 77
     6
 78
     2
 67
     7
 79
     3
170
     0
171
     0
290
     0
174
     0
 93
        1
 44
0.0
173
     0
291
     0
 45
0.0
  0
VISUALSTYLE
  5
3F
102
{ACAD_REACTORS
330
2A
102
}
102
{ACAD_XDICTIONARY
360
295
102
}
330
2A
100
AcDbVisualStyle
  2
Sketchy
 70
    24
 71
     1
 72
     2
 73
     2
 90
        0
 40
0.6
 41
30.0
 62
     5
 63
     7
421
 16777215
 74
     2
 91
        2
 64
     7
 65
     7
 75
     1
175
     1
 42
40.0
 92
       11
 66
     7
 43
1.0
 76
     1
 77
     6
 78
     2
 67
     7
 79
     6
170
     0
171
     0
290
     0
174
     0
 93
        1
 44
0.0
173
     0
291
     0
 45
0.0
  0
VISUALSTYLE
  5
37
102
{ACAD_REACTORS
330
2A
102
}
102
{ACAD_XDICTIONARY
360
285
102
}
330
2A
100
AcDbVisualStyle
  2
Thicken
 70
    13
 71
     2
 72
     2
 73
     0
 90
        0
 40
0.6
 41
30.0
 62
     5
 63
     7
421
 16777215
 74
     1
 91
        4
 64
     7
 65
   257
 75
     1
175
     1
 42
1.0
 92
       12
 66
     7
 43
1.0
 76
     1
 77
     6
 78
     2
 67
     7
 79
     5
170
     0
171
     0
290
     0
174
     0
 93
        1
 44
0.0
173
     0
291
     1
 45
0.0
  0
VISUALSTYLE
  5
30
102
{ACAD_REACTORS
330
2A
102
}
102
{ACAD_XDICTIONARY
360
277
102
}
330
2A
100
AcDbVisualStyle
  2
Wireframe
 70
     5
 71
     0
 72
     2
 73
     0
 90
        0
 40
0.6
 41
30.0
 62
     5
 63
     7
421
 16777215
 74
     1
 91
        4
 64
     7
 65
   257
 75
     1
175
     1
 42
1.0
 92
        0
 66
   257
 43
1.0
 76
     1
 77
     6
 78
     2
 67
     7
 79
     3
170
     0
171
     0
290
     0
174
     0
 93
        1
 44
0.0
173
     0
291
     0
 45
0.0
  0
VISUALSTYLE
  5
40
102
{ACAD_REACTORS
330
2A
102
}
102
{ACAD_XDICTIONARY
360
297
102
}
330
2A
100
AcDbVisualStyle
  2
X-Ray
 70
    25
 71
     2
 72
     2
 73
     1
 90
        1
 40
0.5
 41
30.0
 62
     5
 63
     7
421
 16777215
 74
     1
 91
        0
 64
     7
 65
   257
 75
     1
175
     1
 42
1.0
 92
        8
 66
     7
 43
1.0
 76
     1
 77
     6
 78
     2
 67
     7
 79
     3
170
     0
171
     0
290
     0
174
     0
 93
       13
 44
0.0
173
     0
291
     0
 45
0.0
  0
DICTIONARYVAR
  5
26B
102
{ACAD_REACTORS
330
26A
102
}
330
26A
100
DictionaryVariables
280
     0
  1
1:1
  0
DICTIONARYVAR
  5
2A7
102
{ACAD_REACTORS
330
26A
102
}
330
26A
100
DictionaryVariables
280
     0
  1
3.500000
  0
DICTIONARYVAR
  5
2A8
102
{ACAD_REACTORS
330
26A
102
}
330
26A
100
DictionaryVariables
280
     0
  1
acadiso.lin
  0
DICTIONARYVAR
  5
2A4
102
{ACAD_REACTORS
330
26A
102
}
330
26A
100
DictionaryVariables
280
     0
  1
Standard
  0
DICTIONARYVAR
  5
2A3
102
{ACAD_REACTORS
330
26A
102
}
330
26A
100
DictionaryVariables
280
     0
  1
Standard
  0
DICTIONARYVAR
  5
26C
102
{ACAD_REACTORS
330
26A
102
}
330
26A
100
DictionaryVariables
280
     0
  1
2
  0
DICTIONARY
  5
2A0
330
6C
100
AcDbDictionary
280
     1
281
     1
  3
ACAD_XREC_ROUNDTRIP
360
2A1
  0
DICTIONARY
  5
29D
330
6A
100
AcDbDictionary
280
     1
281
     1
  3
ACAD_ROUNDTRIP_2008_TABLESTYLE_CELLSTYLEMAP
360
29E
  0
DICTIONARY
  5
275
330
2F
100
AcDbDictionary
280
     1
281
     1
  3
ACAD_XREC_ROUNDTRIP
360
276
  0
DICTIONARY
  5
27B
330
32
100
AcDbDictionary
280
     1
281
     1
  3
ACAD_XREC_ROUNDTRIP
360
27C
  0
DICTIONARY
  5
283
330
36
100
AcDbDictionary
280
     1
281
     1
  3
ACAD_XREC_ROUNDTRIP
360
284
  0
DICTIONARY
  5
28B
330
3A
100
AcDbDictionary
280
     1
281
     1
  3
ACAD_XREC_ROUNDTRIP
360
28C
  0
DICTIONARY
  5
27F
330
34
100
AcDbDictionary
280
     1
281
     1
  3
ACAD_XREC_ROUNDTRIP
360
280
  0
DICTIONARY
  5
281
330
35
100
AcDbDictionary
280
     1
281
     1
  3
ACAD_XREC_ROUNDTRIP
360
282
  0
DICTIONARY
  5
291
330
3D
100
AcDbDictionary
280
     1
281
     1
  3
ACAD_XREC_ROUNDTRIP
360
292
  0
DICTIONARY
  5
289
330
39
100
AcDbDictionary
280
     1
281
     1
  3
ACAD_XREC_ROUNDTRIP
360
28A
  0
DICTIONARY
  5
26D
330
2B
100
AcDbDictionary
280
     1
281
     1
  3
ACAD_XREC_ROUNDTRIP
360
26E
  0
DICTIONARY
  5
26F
330
2C
100
AcDbDictionary
280
     1
281
     1
  3
ACAD_XREC_ROUNDTRIP
360
270
  0
DICTIONARY
  5
271
330
2D
100
AcDbDictionary
280
     1
281
     1
  3
ACAD_XREC_ROUNDTRIP
360
272
  0
DICTIONARY
  5
273
330
2E
100
AcDbDictionary
280
     1
281
     1
  3
ACAD_XREC_ROUNDTRIP
360
274
  0
DICTIONARY
  5
279
330
31
100
AcDbDictionary
280
     1
281
     1
  3
ACAD_XREC_ROUNDTRIP
360
27A
  0
DICTIONARY
  5
28D
330
3B
100
AcDbDictionary
280
     1
281
     1
  3
ACAD_XREC_ROUNDTRIP
360
28E
  0
DICTIONARY
  5
287
330
38
100
AcDbDictionary
280
     1
281
     1
  3
ACAD_XREC_ROUNDTRIP
360
288
  0
DICTIONARY
  5
28F
330
3C
100
AcDbDictionary
280
     1
281
     1
  3
ACAD_XREC_ROUNDTRIP
360
290
  0
DICTIONARY
  5
27D
330
33
100
AcDbDictionary
280
     1
281
     1
  3
ACAD_XREC_ROUNDTRIP
360
27E
  0
DICTIONARY
  5
29B
330
42
100
AcDbDictionary
280
     1
281
     1
  3
ACAD_XREC_ROUNDTRIP
360
29C
  0
DICTIONARY
  5
299
330
41
100
AcDbDictionary
280
     1
281
     1
  3
ACAD_XREC_ROUNDTRIP
360
29A
  0
DICTIONARY
  5
293
330
3E
100
AcDbDictionary
280
     1
281
     1
  3
ACAD_XREC_ROUNDTRIP
360
294
  0
DICTIONARY
  5
295
330
3F
100
AcDbDictionary
280
     1
281
     1
  3
ACAD_XREC_ROUNDTRIP
360
296
  0
DICTIONARY
  5
285
330
37
100
AcDbDictionary
280
     1
281
     1
  3
ACAD_XREC_ROUNDTRIP
360
286
  0
DICTIONARY
  5
277
330
30
100
AcDbDictionary
280
     1
281
     1
  3
ACAD_XREC_ROUNDTRIP
360
278
  0
DICTIONARY
  5
297
330
40
100
AcDbDictionary
280
     1
281
     1
  3
ACAD_XREC_ROUNDTRIP
360
298
  0
XRECORD
  5
2A1
102
{ACAD_REACTORS
330
2A0
102
}
330
2A0
100
AcDbXrecord
280
     1
102
ACAD_ROUNDTRIP_2010_MLEADER_STYLE
  0
CELLSTYLEMAP
  5
29E
102
{ACAD_REACTORS
330
29D
102
}
330
29D
100
AcDbCellStyleMap
 90
        3
300
CELLSTYLE
  1
TABLEFORMAT_BEGIN
 90
        5
170
     1
 91
        0
 92
    32768
 62
   257
 93
        1
300
CONTENTFORMAT
  1
CONTENTFORMAT_BEGIN
 90
        0
 91
        0
 92
        4
 93
        0
300

 40
0.0
140
1.0
 94
        5
 62
     0
340
11
144
6.0
309
CONTENTFORMAT_END
171
     1
301
MARGIN
  1
CELLMARGIN_BEGIN
 40
1.5
 40
1.5
 40
1.5
 40
1.5
 40
1.5
 40
1.5
309
CELLMARGIN_END
 94
        6
 95
        1
302
GRIDFORMAT
  1
GRIDFORMAT_BEGIN
 90
        0
 91
        1
 62
     0
 92
       -2
340
14
 93
        0
 40
0.045
309
GRIDFORMAT_END
 95
        2
302
GRIDFORMAT
  1
GRIDFORMAT_BEGIN
 90
        0
 91
        1
 62
     0
 92
       -2
340
14
 93
        0
 40
0.045
309
GRIDFORMAT_END
 95
        4
302
GRIDFORMAT
  1
GRIDFORMAT_BEGIN
 90
        0
 91
        1
 62
     0
 92
       -2
340
14
 93
        0
 40
0.045
309
GRIDFORMAT_END
 95
        8
302
GRIDFORMAT
  1
GRIDFORMAT_BEGIN
 90
        0
 91
        1
 62
     0
 92
       -2
340
14
 93
        0
 40
0.045
309
GRIDFORMAT_END
 95
       16
302
GRIDFORMAT
  1
GRIDFORMAT_BEGIN
 90
        0
 91
        1
 62
     0
 92
       -2
340
14
 93
        0
 40
0.045
309
GRIDFORMAT_END
 95
       32
302
GRIDFORMAT
  1
GRIDFORMAT_BEGIN
 90
        0
 91
        1
 62
     0
 92
       -2
340
14
 93
        0
 40
0.045
309
GRIDFORMAT_END
309
TABLEFORMAT_END
  1
CELLSTYLE_BEGIN
 90
        1
 91
        1
300
_TITLE
309
CELLSTYLE_END
300
CELLSTYLE
  1
TABLEFORMAT_BEGIN
 90
        5
170
     1
 91
        0
 92
        0
 62
   257
 93
        1
300
CONTENTFORMAT
  1
CONTENTFORMAT_BEGIN
 90
        0
 91
        0
 92
        4
 93
        0
300

 40
0.0
140
1.0
 94
        5
 62
     0
340
11
144
4.5
309
CONTENTFORMAT_END
171
     1
301
MARGIN
  1
CELLMARGIN_BEGIN
 40
1.5
 40
1.5
 40
1.5
 40
1.5
 40
1.5
 40
1.5
309
CELLMARGIN_END
 94
        6
 95
        1
302
GRIDFORMAT
  1
GRIDFORMAT_BEGIN
 90
        0
 91
        1
 62
     0
 92
       -2
340
14
 93
        0
 40
0.045
309
GRIDFORMAT_END
 95
        2
302
GRIDFORMAT
  1
GRIDFORMAT_BEGIN
 90
        0
 91
        1
 62
     0
 92
       -2
340
14
 93
        0
 40
0.045
309
GRIDFORMAT_END
 95
        4
302
GRIDFORMAT
  1
GRIDFORMAT_BEGIN
 90
        0
 91
        1
 62
     0
 92
       -2
340
14
 93
        0
 40
0.045
309
GRIDFORMAT_END
 95
        8
302
GRIDFORMAT
  1
GRIDFORMAT_BEGIN
 90
        0
 91
        1
 62
     0
 92
       -2
340
14
 93
        0
 40
0.045
309
GRIDFORMAT_END
 95
       16
302
GRIDFORMAT
  1
GRIDFORMAT_BEGIN
 90
        0
 91
        1
 62
     0
 92
       -2
340
14
 93
        0
 40
0.045
309
GRIDFORMAT_END
 95
       32
302
GRIDFORMAT
  1
GRIDFORMAT_BEGIN
 90
        0
 91
        1
 62
     0
 92
       -2
340
14
 93
        0
 40
0.045
309
GRIDFORMAT_END
309
TABLEFORMAT_END
  1
CELLSTYLE_BEGIN
 90
        2
 91
        1
300
_HEADER
309
CELLSTYLE_END
300
CELLSTYLE
  1
TABLEFORMAT_BEGIN
 90
        5
170
     1
 91
        0
 92
        0
 62
   257
 93
        1
300
CONTENTFORMAT
  1
CONTENTFORMAT_BEGIN
 90
        0
 91
        0
 92
        4
 93
        0
300

 40
0.0
140
1.0
 94
        2
 62
     0
340
11
144
4.5
309
CONTENTFORMAT_END
171
     1
301
MARGIN
  1
CELLMARGIN_BEGIN
 40
1.5
 40
1.5
 40
1.5
 40
1.5
 40
1.5
 40
1.5
309
CELLMARGIN_END
 94
        6
 95
        1
302
GRIDFORMAT
  1
GRIDFORMAT_BEGIN
 90
        0
 91
        1
 62
     0
 92
       -2
340
14
 93
        0
 40
0.045
309
GRIDFORMAT_END
 95
        2
302
GRIDFORMAT
  1
GRIDFORMAT_BEGIN
 90
        0
 91
        1
 62
     0
 92
       -2
340
14
 93
        0
 40
0.045
309
GRIDFORMAT_END
 95
        4
302
GRIDFORMAT
  1
GRIDFORMAT_BEGIN
 90
        0
 91
        1
 62
     0
 92
       -2
340
14
 93
        0
 40
0.045
309
GRIDFORMAT_END
 95
        8
302
GRIDFORMAT
  1
GRIDFORMAT_BEGIN
 90
        0
 91
        1
 62
     0
 92
       -2
340
14
 93
        0
 40
0.045
309
GRIDFORMAT_END
 95
       16
302
GRIDFORMAT
  1
GRIDFORMAT_BEGIN
 90
        0
 91
        1
 62
     0
 92
       -2
340
14
 93
        0
 40
0.045
309
GRIDFORMAT_END
 95
       32
302
GRIDFORMAT
  1
GRIDFORMAT_BEGIN
 90
        0
 91
        1
 62
     0
 92
       -2
340
14
 93
        0
 40
0.045
309
GRIDFORMAT_END
309
TABLEFORMAT_END
  1
CELLSTYLE_BEGIN
 90
        3
 91
        2
300
_DATA
309
CELLSTYLE_END
  0
XRECORD
  5
276
102
{ACAD_REACTORS
330
275
102
}
330
275
100
AcDbXrecord
280
     1
102
RTVSPropertyOp0
 70
     1
102
RTVSPropertyOp1
 70
     1
102
RTVSPropertyOp2
 70
     1
102
RTVSPropertyOp3
 70
     1
102
RTVSPropertyOp4
 70
     1
102
RTVSPropertyOp5
 70
     1
102
RTVSPropertyOp6
 70
     1
102
RTVSPropertyOp7
 70
     1
102
RTVSPropertyOp8
 70
     1
102
RTVSPropertyOp9
 70
     1
102
RTVSPropertyOp10
 70
     1
102
RTVSPropertyOp11
 70
     1
102
RTVSPropertyOp12
 70
     1
102
RTVSPropertyOp13
 70
     1
102
RTVSPropertyOp14
 70
     1
102
RTVSPropertyOp15
 70
     1
102
RTVSPropertyOp16
 70
     1
102
RTVSPropertyOp17
 70
     1
102
RTVSPropertyOp18
 70
     1
102
RTVSPropertyOp19
 70
     1
102
RTVSPropertyOp20
 70
     1
102
RTVSPropertyOp21
 70
     1
102
RTVSPropertyOp22
 70
     1
102
RTVSPropertyOp23
 70
     1
102
RTVSPropertyOp24
 70
     1
102
RTVSPropertyOp25
 70
     1
102
RTVSPropertyOp26
 70
     1
102
RTVSPropertyOp27
 70
     1
102
RTVSPropertyOp28
 70
     1
102
RTVSPropertyOp29
 70
     1
102
RTVSPropertyOp30
 70
     1
102
RTVSPropertyOp31
 70
     1
102
RTVSPropertyOp32
 70
     1
102
RTVSPropertyOp33
 70
     1
102
RTVSPropertyOp34
 70
     1
102
RTVSPropertyOp35
 70
     1
102
RTVSPropertyOp36
 70
     1
102
RTVSPropertyOp37
 70
     1
102
RTVSPropertyOp38
 70
     1
102
RTVSPropertyOp39
 70
     1
102
RTVSPropertyOp40
 70
     1
102
RTVSPropertyOp41
 70
     1
102
RTVSPropertyOp42
 70
     1
102
RTVSPropertyOp43
 70
     1
102
RTVSPropertyOp44
 70
     1
102
RTVSPropertyOp45
 70
     1
102
RTVSPropertyOp46
 70
     1
102
RTVSPropertyOp47
 70
     1
102
RTVSPropertyOp48
 70
     1
102
RTVSPropertyOp49
 70
     1
102
RTVSPropertyOp50
 70
     1
102
RTVSPropertyOp51
 70
     0
102
RTVSPropertyOp52
 70
     0
102
RTVSPropertyOp53
 70
     1
102
RTVSPropertyOp54
 70
     1
102
RTVSPropertyOp55
 70
     1
102
RTVSPropertyOp56
 70
     1
102
RTVSPropertyOp57
 70
     1
102
RTVSPost2010Prop28
280
     1
102
RTVSPost2010PropOp28
 70
     1
102
RTVSPost2010Prop29
280
     1
102
RTVSPost2010PropOp29
 70
     1
102
RTVSPost2010Prop30
280
     0
102
RTVSPost2010PropOp30
 70
     1
102
RTVSPost2010Prop31
280
     0
102
RTVSPost2010PropOp31
 70
     1
102
RTVSPost2010Prop32
280
     0
102
RTVSPost2010PropOp32
 70
     1
102
RTVSPost2010Prop33
280
     0
102
RTVSPost2010PropOp33
 70
     1
102
RTVSPost2010Prop34
280
     0
102
RTVSPost2010PropOp34
 70
     1
102
RTVSPost2010Prop35
280
     0
102
RTVSPost2010PropOp35
 70
     1
102
RTVSPost2010Prop36
280
     0
102
RTVSPost2010PropOp36
 70
     1
102
RTVSPost2010Prop37
 90
       50
102
RTVSPost2010PropOp37
 70
     1
102
RTVSPost2010Prop38
140
0.0
102
RTVSPost2010PropOp38
 70
     1
102
RTVSPost2010Prop39
140
1.0
102
RTVSPost2010PropOp39
 70
     1
102
RTVSPost2010Prop40
 90
        0
102
RTVSPost2010PropOp40
 70
     1
102
RTVSPost2010Prop41ColorIndex
 90
       18
102
RTVSPost2010Prop41ColorRGB
 90
        0
102
RTVSPost2010PropOp41
 70
     1
102
RTVSPost2010Prop42
 90
       50
102
RTVSPost2010PropOp42
 70
     1
102
RTVSPost2010Prop43
 90
        3
102
RTVSPost2010PropOp43
 70
     1
102
RTVSPost2010Prop44ColorIndex
 90
        5
102
RTVSPost2010Prop44ColorRGB
 90
      255
102
RTVSPost2010PropOp44
 70
     1
102
RTVSPost2010Prop45
280
     0
102
RTVSPost2010PropOp45
 70
     1
102
RTVSPost2010Prop46
 90
       50
102
RTVSPost2010PropOp46
 70
     1
102
RTVSPost2010Prop47
 90
       50
102
RTVSPost2010PropOp47
 70
     1
102
RTVSPost2010Prop48
 90
       50
102
RTVSPost2010PropOp48
 70
     1
102
RTVSPost2010Prop49
280
     0
102
RTVSPost2010PropOp49
 70
     1
102
RTVSPost2010Prop50
 90
       50
102
RTVSPost2010PropOp50
 70
     1
102
RTVSPost2010Prop51ColorIndex
 90
      256
102
RTVSPost2010Prop51ColorRGB
 90
-16777216
102
RTVSPost2010PropOp51
 70
     0
102
RTVSPost2010Prop52
140
1.0
102
RTVSPost2010PropOp52
 70
     0
102
RTVSPost2010Prop53
 90
        2
102
RTVSPost2010PropOp53
 70
     1
102
RTVSPost2010Prop54
  1
strokes_ogs.tif
102
RTVSPost2010PropOp54
 70
     1
102
RTVSPost2010Prop55
280
     0
102
RTVSPost2010PropOp55
 70
     1
102
RTVSPost2010Prop56
140
1.0
102
RTVSPost2010PropOp56
 70
     1
102
RTVSPost2010Prop57
140
1.0
102
RTVSPost2010PropOp57
 70
     1
  0
XRECORD
  5
27C
102
{ACAD_REACTORS
330
27B
102
}
330
27B
100
AcDbXrecord
280
     1
102
RTVSPropertyOp0
 70
     1
102
RTVSPropertyOp1
 70
     1
102
RTVSPropertyOp2
 70
     1
102
RTVSPropertyOp3
 70
     1
102
RTVSPropertyOp4
 70
     1
102
RTVSPropertyOp5
 70
     1
102
RTVSPropertyOp6
 70
     1
102
RTVSPropertyOp7
 70
     1
102
RTVSPropertyOp8
 70
     1
102
RTVSPropertyOp9
 70
     1
102
RTVSPropertyOp10
 70
     1
102
RTVSPropertyOp11
 70
     1
102
RTVSPropertyOp12
 70
     1
102
RTVSPropertyOp13
 70
     1
102
RTVSPropertyOp14
 70
     1
102
RTVSPropertyOp15
 70
     1
102
RTVSPropertyOp16
 70
     1
102
RTVSPropertyOp17
 70
     1
102
RTVSPropertyOp18
 70
     1
102
RTVSPropertyOp19
 70
     1
102
RTVSPropertyOp20
 70
     1
102
RTVSPropertyOp21
 70
     1
102
RTVSPropertyOp22
 70
     1
102
RTVSPropertyOp23
 70
     1
102
RTVSPropertyOp24
 70
     1
102
RTVSPropertyOp25
 70
     1
102
RTVSPropertyOp26
 70
     1
102
RTVSPropertyOp27
 70
     1
102
RTVSPropertyOp28
 70
     1
102
RTVSPropertyOp29
 70
     1
102
RTVSPropertyOp30
 70
     1
102
RTVSPropertyOp31
 70
     1
102
RTVSPropertyOp32
 70
     1
102
RTVSPropertyOp33
 70
     1
102
RTVSPropertyOp34
 70
     1
102
RTVSPropertyOp35
 70
     1
102
RTVSPropertyOp36
 70
     1
102
RTVSPropertyOp37
 70
     1
102
RTVSPropertyOp38
 70
     1
102
RTVSPropertyOp39
 70
     1
102
RTVSPropertyOp40
 70
     1
102
RTVSPropertyOp41
 70
     1
102
RTVSPropertyOp42
 70
     1
102
RTVSPropertyOp43
 70
     1
102
RTVSPropertyOp44
 70
     1
102
RTVSPropertyOp45
 70
     1
102
RTVSPropertyOp46
 70
     1
102
RTVSPropertyOp47
 70
     1
102
RTVSPropertyOp48
 70
     1
102
RTVSPropertyOp49
 70
     1
102
RTVSPropertyOp50
 70
     1
102
RTVSPropertyOp51
 70
     0
102
RTVSPropertyOp52
 70
     0
102
RTVSPropertyOp53
 70
     1
102
RTVSPropertyOp54
 70
     1
102
RTVSPropertyOp55
 70
     1
102
RTVSPropertyOp56
 70
     1
102
RTVSPropertyOp57
 70
     1
102
RTVSPost2010Prop28
280
     0
102
RTVSPost2010PropOp28
 70
     1
102
RTVSPost2010Prop29
280
     1
102
RTVSPost2010PropOp29
 70
     1
102
RTVSPost2010Prop30
280
     1
102
RTVSPost2010PropOp30
 70
     1
102
RTVSPost2010Prop31
280
     0
102
RTVSPost2010PropOp31
 70
     1
102
RTVSPost2010Prop32
280
     0
102
RTVSPost2010PropOp32
 70
     1
102
RTVSPost2010Prop33
280
     0
102
RTVSPost2010PropOp33
 70
     1
102
RTVSPost2010Prop34
280
     0
102
RTVSPost2010PropOp34
 70
     1
102
RTVSPost2010Prop35
280
     0
102
RTVSPost2010PropOp35
 70
     1
102
RTVSPost2010Prop36
280
     0
102
RTVSPost2010PropOp36
 70
     1
102
RTVSPost2010Prop37
 90
       50
102
RTVSPost2010PropOp37
 70
     1
102
RTVSPost2010Prop38
140
0.0
102
RTVSPost2010PropOp38
 70
     1
102
RTVSPost2010Prop39
140
1.0
102
RTVSPost2010PropOp39
 70
     1
102
RTVSPost2010Prop40
 90
        0
102
RTVSPost2010PropOp40
 70
     1
102
RTVSPost2010Prop41ColorIndex
 90
       18
102
RTVSPost2010Prop41ColorRGB
 90
        0
102
RTVSPost2010PropOp41
 70
     1
102
RTVSPost2010Prop42
 90
       50
102
RTVSPost2010PropOp42
 70
     1
102
RTVSPost2010Prop43
 90
        3
102
RTVSPost2010PropOp43
 70
     1
102
RTVSPost2010Prop44ColorIndex
 90
        5
102
RTVSPost2010Prop44ColorRGB
 90
      255
102
RTVSPost2010PropOp44
 70
     1
102
RTVSPost2010Prop45
280
     0
102
RTVSPost2010PropOp45
 70
     1
102
RTVSPost2010Prop46
 90
       50
102
RTVSPost2010PropOp46
 70
     1
102
RTVSPost2010Prop47
 90
       50
102
RTVSPost2010PropOp47
 70
     1
102
RTVSPost2010Prop48
 90
       50
102
RTVSPost2010PropOp48
 70
     1
102
RTVSPost2010Prop49
280
     0
102
RTVSPost2010PropOp49
 70
     1
102
RTVSPost2010Prop50
 90
       50
102
RTVSPost2010PropOp50
 70
     1
102
RTVSPost2010Prop51ColorIndex
 90
      256
102
RTVSPost2010Prop51ColorRGB
 90
-16777216
102
RTVSPost2010PropOp51
 70
     0
102
RTVSPost2010Prop52
140
1.0
102
RTVSPost2010PropOp52
 70
     0
102
RTVSPost2010Prop53
 90
        2
102
RTVSPost2010PropOp53
 70
     1
102
RTVSPost2010Prop54
  1
strokes_ogs.tif
102
RTVSPost2010PropOp54
 70
     1
102
RTVSPost2010Prop55
280
     0
102
RTVSPost2010PropOp55
 70
     1
102
RTVSPost2010Prop56
140
1.0
102
RTVSPost2010PropOp56
 70
     1
102
RTVSPost2010Prop57
140
1.0
102
RTVSPost2010PropOp57
 70
     1
  0
XRECORD
  5
284
102
{ACAD_REACTORS
330
283
102
}
330
283
100
AcDbXrecord
280
     1
102
RTVSPropertyOp0
 70
     1
102
RTVSPropertyOp1
 70
     1
102
RTVSPropertyOp2
 70
     1
102
RTVSPropertyOp3
 70
     1
102
RTVSPropertyOp4
 70
     1
102
RTVSPropertyOp5
 70
     1
102
RTVSPropertyOp6
 70
     1
102
RTVSPropertyOp7
 70
     1
102
RTVSPropertyOp8
 70
     1
102
RTVSPropertyOp9
 70
     1
102
RTVSPropertyOp10
 70
     1
102
RTVSPropertyOp11
 70
     1
102
RTVSPropertyOp12
 70
     1
102
RTVSPropertyOp13
 70
     1
102
RTVSPropertyOp14
 70
     1
102
RTVSPropertyOp15
 70
     1
102
RTVSPropertyOp16
 70
     1
102
RTVSPropertyOp17
 70
     1
102
RTVSPropertyOp18
 70
     1
102
RTVSPropertyOp19
 70
     1
102
RTVSPropertyOp20
 70
     1
102
RTVSPropertyOp21
 70
     1
102
RTVSPropertyOp22
 70
     1
102
RTVSPropertyOp23
 70
     1
102
RTVSPropertyOp24
 70
     1
102
RTVSPropertyOp25
 70
     1
102
RTVSPropertyOp26
 70
     1
102
RTVSPropertyOp27
 70
     1
102
RTVSPropertyOp28
 70
     1
102
RTVSPropertyOp29
 70
     1
102
RTVSPropertyOp30
 70
     1
102
RTVSPropertyOp31
 70
     1
102
RTVSPropertyOp32
 70
     1
102
RTVSPropertyOp33
 70
     1
102
RTVSPropertyOp34
 70
     1
102
RTVSPropertyOp35
 70
     1
102
RTVSPropertyOp36
 70
     1
102
RTVSPropertyOp37
 70
     1
102
RTVSPropertyOp38
 70
     1
102
RTVSPropertyOp39
 70
     1
102
RTVSPropertyOp40
 70
     1
102
RTVSPropertyOp41
 70
     1
102
RTVSPropertyOp42
 70
     1
102
RTVSPropertyOp43
 70
     1
102
RTVSPropertyOp44
 70
     1
102
RTVSPropertyOp45
 70
     1
102
RTVSPropertyOp46
 70
     1
102
RTVSPropertyOp47
 70
     1
102
RTVSPropertyOp48
 70
     1
102
RTVSPropertyOp49
 70
     1
102
RTVSPropertyOp50
 70
     1
102
RTVSPropertyOp51
 70
     0
102
RTVSPropertyOp52
 70
     0
102
RTVSPropertyOp53
 70
     1
102
RTVSPropertyOp54
 70
     1
102
RTVSPropertyOp55
 70
     1
102
RTVSPropertyOp56
 70
     1
102
RTVSPropertyOp57
 70
     1
102
RTVSPost2010Prop28
280
     0
102
RTVSPost2010PropOp28
 70
     1
102
RTVSPost2010Prop29
280
     1
102
RTVSPost2010PropOp29
 70
     1
102
RTVSPost2010Prop30
280
     1
102
RTVSPost2010PropOp30
 70
     1
102
RTVSPost2010Prop31
280
     0
102
RTVSPost2010PropOp31
 70
     1
102
RTVSPost2010Prop32
280
     0
102
RTVSPost2010PropOp32
 70
     1
102
RTVSPost2010Prop33
280
     0
102
RTVSPost2010PropOp33
 70
     1
102
RTVSPost2010Prop34
280
     0
102
RTVSPost2010PropOp34
 70
     1
102
RTVSPost2010Prop35
280
     0
102
RTVSPost2010PropOp35
 70
     1
102
RTVSPost2010Prop36
280
     0
102
RTVSPost2010PropOp36
 70
     1
102
RTVSPost2010Prop37
 90
       50
102
RTVSPost2010PropOp37
 70
     1
102
RTVSPost2010Prop38
140
0.0
102
RTVSPost2010PropOp38
 70
     1
102
RTVSPost2010Prop39
140
1.0
102
RTVSPost2010PropOp39
 70
     1
102
RTVSPost2010Prop40
 90
        0
102
RTVSPost2010PropOp40
 70
     1
102
RTVSPost2010Prop41ColorIndex
 90
       18
102
RTVSPost2010Prop41ColorRGB
 90
        0
102
RTVSPost2010PropOp41
 70
     1
102
RTVSPost2010Prop42
 90
       50
102
RTVSPost2010PropOp42
 70
     1
102
RTVSPost2010Prop43
 90
        3
102
RTVSPost2010PropOp43
 70
     1
102
RTVSPost2010Prop44ColorIndex
 90
        5
102
RTVSPost2010Prop44ColorRGB
 90
      255
102
RTVSPost2010PropOp44
 70
     1
102
RTVSPost2010Prop45
280
     0
102
RTVSPost2010PropOp45
 70
     1
102
RTVSPost2010Prop46
 90
       50
102
RTVSPost2010PropOp46
 70
     1
102
RTVSPost2010Prop47
 90
       50
102
RTVSPost2010PropOp47
 70
     1
102
RTVSPost2010Prop48
 90
       50
102
RTVSPost2010PropOp48
 70
     1
102
RTVSPost2010Prop49
280
     0
102
RTVSPost2010PropOp49
 70
     1
102
RTVSPost2010Prop50
 90
       50
102
RTVSPost2010PropOp50
 70
     1
102
RTVSPost2010Prop51ColorIndex
 90
      256
102
RTVSPost2010Prop51ColorRGB
 90
-16777216
102
RTVSPost2010PropOp51
 70
     0
102
RTVSPost2010Prop52
140
1.0
102
RTVSPost2010PropOp52
 70
     0
102
RTVSPost2010Prop53
 90
        2
102
RTVSPost2010PropOp53
 70
     1
102
RTVSPost2010Prop54
  1
strokes_ogs.tif
102
RTVSPost2010PropOp54
 70
     1
102
RTVSPost2010Prop55
280
     0
102
RTVSPost2010PropOp55
 70
     1
102
RTVSPost2010Prop56
140
1.0
102
RTVSPost2010PropOp56
 70
     1
102
RTVSPost2010Prop57
140
1.0
102
RTVSPost2010PropOp57
 70
     1
  0
XRECORD
  5
28C
102
{ACAD_REACTORS
330
28B
102
}
330
28B
100
AcDbXrecord
280
     1
102
RTVSPropertyOp0
 70
     1
102
RTVSPropertyOp1
 70
     1
102
RTVSPropertyOp2
 70
     1
102
RTVSPropertyOp3
 70
     1
102
RTVSPropertyOp4
 70
     1
102
RTVSPropertyOp5
 70
     1
102
RTVSPropertyOp6
 70
     1
102
RTVSPropertyOp7
 70
     1
102
RTVSPropertyOp8
 70
     1
102
RTVSPropertyOp9
 70
     1
102
RTVSPropertyOp10
 70
     1
102
RTVSPropertyOp11
 70
     1
102
RTVSPropertyOp12
 70
     1
102
RTVSPropertyOp13
 70
     1
102
RTVSPropertyOp14
 70
     1
102
RTVSPropertyOp15
 70
     1
102
RTVSPropertyOp16
 70
     1
102
RTVSPropertyOp17
 70
     1
102
RTVSPropertyOp18
 70
     1
102
RTVSPropertyOp19
 70
     1
102
RTVSPropertyOp20
 70
     1
102
RTVSPropertyOp21
 70
     1
102
RTVSPropertyOp22
 70
     1
102
RTVSPropertyOp23
 70
     1
102
RTVSPropertyOp24
 70
     1
102
RTVSPropertyOp25
 70
     1
102
RTVSPropertyOp26
 70
     1
102
RTVSPropertyOp27
 70
     1
102
RTVSPropertyOp28
 70
     1
102
RTVSPropertyOp29
 70
     1
102
RTVSPropertyOp30
 70
     1
102
RTVSPropertyOp31
 70
     1
102
RTVSPropertyOp32
 70
     1
102
RTVSPropertyOp33
 70
     1
102
RTVSPropertyOp34
 70
     1
102
RTVSPropertyOp35
 70
     1
102
RTVSPropertyOp36
 70
     1
102
RTVSPropertyOp37
 70
     1
102
RTVSPropertyOp38
 70
     1
102
RTVSPropertyOp39
 70
     1
102
RTVSPropertyOp40
 70
     1
102
RTVSPropertyOp41
 70
     1
102
RTVSPropertyOp42
 70
     1
102
RTVSPropertyOp43
 70
     1
102
RTVSPropertyOp44
 70
     1
102
RTVSPropertyOp45
 70
     1
102
RTVSPropertyOp46
 70
     1
102
RTVSPropertyOp47
 70
     1
102
RTVSPropertyOp48
 70
     1
102
RTVSPropertyOp49
 70
     1
102
RTVSPropertyOp50
 70
     1
102
RTVSPropertyOp51
 70
     0
102
RTVSPropertyOp52
 70
     0
102
RTVSPropertyOp53
 70
     1
102
RTVSPropertyOp54
 70
     1
102
RTVSPropertyOp55
 70
     1
102
RTVSPropertyOp56
 70
     1
102
RTVSPropertyOp57
 70
     1
102
RTVSPost2010Prop28
280
     0
102
RTVSPost2010PropOp28
 70
     1
102
RTVSPost2010Prop29
280
     1
102
RTVSPost2010PropOp29
 70
     1
102
RTVSPost2010Prop30
280
     1
102
RTVSPost2010PropOp30
 70
     1
102
RTVSPost2010Prop31
280
     0
102
RTVSPost2010PropOp31
 70
     1
102
RTVSPost2010Prop32
280
     0
102
RTVSPost2010PropOp32
 70
     1
102
RTVSPost2010Prop33
280
     0
102
RTVSPost2010PropOp33
 70
     1
102
RTVSPost2010Prop34
280
     0
102
RTVSPost2010PropOp34
 70
     1
102
RTVSPost2010Prop35
280
     0
102
RTVSPost2010PropOp35
 70
     1
102
RTVSPost2010Prop36
280
     0
102
RTVSPost2010PropOp36
 70
     1
102
RTVSPost2010Prop37
 90
       50
102
RTVSPost2010PropOp37
 70
     1
102
RTVSPost2010Prop38
140
0.0
102
RTVSPost2010PropOp38
 70
     1
102
RTVSPost2010Prop39
140
1.0
102
RTVSPost2010PropOp39
 70
     1
102
RTVSPost2010Prop40
 90
        0
102
RTVSPost2010PropOp40
 70
     1
102
RTVSPost2010Prop41ColorIndex
 90
       18
102
RTVSPost2010Prop41ColorRGB
 90
        0
102
RTVSPost2010PropOp41
 70
     1
102
RTVSPost2010Prop42
 90
       50
102
RTVSPost2010PropOp42
 70
     1
102
RTVSPost2010Prop43
 90
        3
102
RTVSPost2010PropOp43
 70
     1
102
RTVSPost2010Prop44ColorIndex
 90
        5
102
RTVSPost2010Prop44ColorRGB
 90
      255
102
RTVSPost2010PropOp44
 70
     1
102
RTVSPost2010Prop45
280
     0
102
RTVSPost2010PropOp45
 70
     1
102
RTVSPost2010Prop46
 90
       50
102
RTVSPost2010PropOp46
 70
     1
102
RTVSPost2010Prop47
 90
       50
102
RTVSPost2010PropOp47
 70
     1
102
RTVSPost2010Prop48
 90
       50
102
RTVSPost2010PropOp48
 70
     1
102
RTVSPost2010Prop49
280
     0
102
RTVSPost2010PropOp49
 70
     1
102
RTVSPost2010Prop50
 90
       50
102
RTVSPost2010PropOp50
 70
     1
102
RTVSPost2010Prop51ColorIndex
 90
      256
102
RTVSPost2010Prop51ColorRGB
 90
-16777216
102
RTVSPost2010PropOp51
 70
     0
102
RTVSPost2010Prop52
140
1.0
102
RTVSPost2010PropOp52
 70
     0
102
RTVSPost2010Prop53
 90
        2
102
RTVSPost2010PropOp53
 70
     1
102
RTVSPost2010Prop54
  1
strokes_ogs.tif
102
RTVSPost2010PropOp54
 70
     1
102
RTVSPost2010Prop55
280
     0
102
RTVSPost2010PropOp55
 70
     1
102
RTVSPost2010Prop56
140
1.0
102
RTVSPost2010PropOp56
 70
     1
102
RTVSPost2010Prop57
140
1.0
102
RTVSPost2010PropOp57
 70
     1
  0
XRECORD
  5
280
102
{ACAD_REACTORS
330
27F
102
}
330
27F
100
AcDbXrecord
280
     1
102
RTVSPropertyOp0
 70
     1
102
RTVSPropertyOp1
 70
     1
102
RTVSPropertyOp2
 70
     1
102
RTVSPropertyOp3
 70
     1
102
RTVSPropertyOp4
 70
     1
102
RTVSPropertyOp5
 70
     1
102
RTVSPropertyOp6
 70
     1
102
RTVSPropertyOp7
 70
     1
102
RTVSPropertyOp8
 70
     1
102
RTVSPropertyOp9
 70
     1
102
RTVSPropertyOp10
 70
     1
102
RTVSPropertyOp11
 70
     1
102
RTVSPropertyOp12
 70
     1
102
RTVSPropertyOp13
 70
     1
102
RTVSPropertyOp14
 70
     1
102
RTVSPropertyOp15
 70
     1
102
RTVSPropertyOp16
 70
     1
102
RTVSPropertyOp17
 70
     1
102
RTVSPropertyOp18
 70
     1
102
RTVSPropertyOp19
 70
     1
102
RTVSPropertyOp20
 70
     1
102
RTVSPropertyOp21
 70
     1
102
RTVSPropertyOp22
 70
     1
102
RTVSPropertyOp23
 70
     1
102
RTVSPropertyOp24
 70
     1
102
RTVSPropertyOp25
 70
     1
102
RTVSPropertyOp26
 70
     1
102
RTVSPropertyOp27
 70
     1
102
RTVSPropertyOp28
 70
     1
102
RTVSPropertyOp29
 70
     1
102
RTVSPropertyOp30
 70
     1
102
RTVSPropertyOp31
 70
     1
102
RTVSPropertyOp32
 70
     1
102
RTVSPropertyOp33
 70
     1
102
RTVSPropertyOp34
 70
     1
102
RTVSPropertyOp35
 70
     1
102
RTVSPropertyOp36
 70
     1
102
RTVSPropertyOp37
 70
     1
102
RTVSPropertyOp38
 70
     1
102
RTVSPropertyOp39
 70
     1
102
RTVSPropertyOp40
 70
     1
102
RTVSPropertyOp41
 70
     1
102
RTVSPropertyOp42
 70
     1
102
RTVSPropertyOp43
 70
     1
102
RTVSPropertyOp44
 70
     1
102
RTVSPropertyOp45
 70
     1
102
RTVSPropertyOp46
 70
     1
102
RTVSPropertyOp47
 70
     1
102
RTVSPropertyOp48
 70
     1
102
RTVSPropertyOp49
 70
     1
102
RTVSPropertyOp50
 70
     1
102
RTVSPropertyOp51
 70
     0
102
RTVSPropertyOp52
 70
     0
102
RTVSPropertyOp53
 70
     1
102
RTVSPropertyOp54
 70
     1
102
RTVSPropertyOp55
 70
     1
102
RTVSPropertyOp56
 70
     1
102
RTVSPropertyOp57
 70
     1
102
RTVSPost2010Prop28
280
     0
102
RTVSPost2010PropOp28
 70
     1
102
RTVSPost2010Prop29
280
     1
102
RTVSPost2010PropOp29
 70
     1
102
RTVSPost2010Prop30
280
     1
102
RTVSPost2010PropOp30
 70
     1
102
RTVSPost2010Prop31
280
     0
102
RTVSPost2010PropOp31
 70
     1
102
RTVSPost2010Prop32
280
     0
102
RTVSPost2010PropOp32
 70
     1
102
RTVSPost2010Prop33
280
     0
102
RTVSPost2010PropOp33
 70
     1
102
RTVSPost2010Prop34
280
     0
102
RTVSPost2010PropOp34
 70
     1
102
RTVSPost2010Prop35
280
     0
102
RTVSPost2010PropOp35
 70
     1
102
RTVSPost2010Prop36
280
     0
102
RTVSPost2010PropOp36
 70
     1
102
RTVSPost2010Prop37
 90
       50
102
RTVSPost2010PropOp37
 70
     1
102
RTVSPost2010Prop38
140
0.0
102
RTVSPost2010PropOp38
 70
     1
102
RTVSPost2010Prop39
140
1.0
102
RTVSPost2010PropOp39
 70
     1
102
RTVSPost2010Prop40
 90
        0
102
RTVSPost2010PropOp40
 70
     1
102
RTVSPost2010Prop41ColorIndex
 90
       18
102
RTVSPost2010Prop41ColorRGB
 90
        0
102
RTVSPost2010PropOp41
 70
     1
102
RTVSPost2010Prop42
 90
       50
102
RTVSPost2010PropOp42
 70
     1
102
RTVSPost2010Prop43
 90
        3
102
RTVSPost2010PropOp43
 70
     1
102
RTVSPost2010Prop44ColorIndex
 90
        5
102
RTVSPost2010Prop44ColorRGB
 90
      255
102
RTVSPost2010PropOp44
 70
     1
102
RTVSPost2010Prop45
280
     0
102
RTVSPost2010PropOp45
 70
     1
102
RTVSPost2010Prop46
 90
       50
102
RTVSPost2010PropOp46
 70
     1
102
RTVSPost2010Prop47
 90
       50
102
RTVSPost2010PropOp47
 70
     1
102
RTVSPost2010Prop48
 90
       50
102
RTVSPost2010PropOp48
 70
     1
102
RTVSPost2010Prop49
280
     0
102
RTVSPost2010PropOp49
 70
     1
102
RTVSPost2010Prop50
 90
       50
102
RTVSPost2010PropOp50
 70
     1
102
RTVSPost2010Prop51ColorIndex
 90
      256
102
RTVSPost2010Prop51ColorRGB
 90
-16777216
102
RTVSPost2010PropOp51
 70
     0
102
RTVSPost2010Prop52
140
1.0
102
RTVSPost2010PropOp52
 70
     0
102
RTVSPost2010Prop53
 90
        2
102
RTVSPost2010PropOp53
 70
     1
102
RTVSPost2010Prop54
  1
strokes_ogs.tif
102
RTVSPost2010PropOp54
 70
     1
102
RTVSPost2010Prop55
280
     0
102
RTVSPost2010PropOp55
 70
     1
102
RTVSPost2010Prop56
140
1.0
102
RTVSPost2010PropOp56
 70
     1
102
RTVSPost2010Prop57
140
1.0
102
RTVSPost2010PropOp57
 70
     1
  0
XRECORD
  5
282
102
{ACAD_REACTORS
330
281
102
}
330
281
100
AcDbXrecord
280
     1
102
RTVSPropertyOp0
 70
     1
102
RTVSPropertyOp1
 70
     1
102
RTVSPropertyOp2
 70
     1
102
RTVSPropertyOp3
 70
     1
102
RTVSPropertyOp4
 70
     1
102
RTVSPropertyOp5
 70
     1
102
RTVSPropertyOp6
 70
     1
102
RTVSPropertyOp7
 70
     1
102
RTVSPropertyOp8
 70
     1
102
RTVSPropertyOp9
 70
     1
102
RTVSPropertyOp10
 70
     1
102
RTVSPropertyOp11
 70
     1
102
RTVSPropertyOp12
 70
     1
102
RTVSPropertyOp13
 70
     1
102
RTVSPropertyOp14
 70
     1
102
RTVSPropertyOp15
 70
     1
102
RTVSPropertyOp16
 70
     1
102
RTVSPropertyOp17
 70
     1
102
RTVSPropertyOp18
 70
     1
102
RTVSPropertyOp19
 70
     1
102
RTVSPropertyOp20
 70
     1
102
RTVSPropertyOp21
 70
     1
102
RTVSPropertyOp22
 70
     1
102
RTVSPropertyOp23
 70
     1
102
RTVSPropertyOp24
 70
     1
102
RTVSPropertyOp25
 70
     1
102
RTVSPropertyOp26
 70
     1
102
RTVSPropertyOp27
 70
     1
102
RTVSPropertyOp28
 70
     1
102
RTVSPropertyOp29
 70
     1
102
RTVSPropertyOp30
 70
     1
102
RTVSPropertyOp31
 70
     1
102
RTVSPropertyOp32
 70
     1
102
RTVSPropertyOp33
 70
     1
102
RTVSPropertyOp34
 70
     1
102
RTVSPropertyOp35
 70
     1
102
RTVSPropertyOp36
 70
     1
102
RTVSPropertyOp37
 70
     1
102
RTVSPropertyOp38
 70
     1
102
RTVSPropertyOp39
 70
     1
102
RTVSPropertyOp40
 70
     1
102
RTVSPropertyOp41
 70
     1
102
RTVSPropertyOp42
 70
     1
102
RTVSPropertyOp43
 70
     1
102
RTVSPropertyOp44
 70
     1
102
RTVSPropertyOp45
 70
     1
102
RTVSPropertyOp46
 70
     1
102
RTVSPropertyOp47
 70
     1
102
RTVSPropertyOp48
 70
     1
102
RTVSPropertyOp49
 70
     1
102
RTVSPropertyOp50
 70
     1
102
RTVSPropertyOp51
 70
     0
102
RTVSPropertyOp52
 70
     0
102
RTVSPropertyOp53
 70
     1
102
RTVSPropertyOp54
 70
     1
102
RTVSPropertyOp55
 70
     1
102
RTVSPropertyOp56
 70
     1
102
RTVSPropertyOp57
 70
     1
102
RTVSPost2010Prop28
280
     0
102
RTVSPost2010PropOp28
 70
     1
102
RTVSPost2010Prop29
280
     1
102
RTVSPost2010PropOp29
 70
     1
102
RTVSPost2010Prop30
280
     1
102
RTVSPost2010PropOp30
 70
     1
102
RTVSPost2010Prop31
280
     0
102
RTVSPost2010PropOp31
 70
     1
102
RTVSPost2010Prop32
280
     0
102
RTVSPost2010PropOp32
 70
     1
102
RTVSPost2010Prop33
280
     0
102
RTVSPost2010PropOp33
 70
     1
102
RTVSPost2010Prop34
280
     0
102
RTVSPost2010PropOp34
 70
     1
102
RTVSPost2010Prop35
280
     0
102
RTVSPost2010PropOp35
 70
     1
102
RTVSPost2010Prop36
280
     0
102
RTVSPost2010PropOp36
 70
     1
102
RTVSPost2010Prop37
 90
       50
102
RTVSPost2010PropOp37
 70
     1
102
RTVSPost2010Prop38
140
0.0
102
RTVSPost2010PropOp38
 70
     1
102
RTVSPost2010Prop39
140
1.0
102
RTVSPost2010PropOp39
 70
     1
102
RTVSPost2010Prop40
 90
        0
102
RTVSPost2010PropOp40
 70
     1
102
RTVSPost2010Prop41ColorIndex
 90
       18
102
RTVSPost2010Prop41ColorRGB
 90
        0
102
RTVSPost2010PropOp41
 70
     1
102
RTVSPost2010Prop42
 90
       50
102
RTVSPost2010PropOp42
 70
     1
102
RTVSPost2010Prop43
 90
        3
102
RTVSPost2010PropOp43
 70
     1
102
RTVSPost2010Prop44ColorIndex
 90
        5
102
RTVSPost2010Prop44ColorRGB
 90
      255
102
RTVSPost2010PropOp44
 70
     1
102
RTVSPost2010Prop45
280
     0
102
RTVSPost2010PropOp45
 70
     1
102
RTVSPost2010Prop46
 90
       50
102
RTVSPost2010PropOp46
 70
     1
102
RTVSPost2010Prop47
 90
       50
102
RTVSPost2010PropOp47
 70
     1
102
RTVSPost2010Prop48
 90
       50
102
RTVSPost2010PropOp48
 70
     1
102
RTVSPost2010Prop49
280
     0
102
RTVSPost2010PropOp49
 70
     1
102
RTVSPost2010Prop50
 90
       50
102
RTVSPost2010PropOp50
 70
     1
102
RTVSPost2010Prop51ColorIndex
 90
      256
102
RTVSPost2010Prop51ColorRGB
 90
-16777216
102
RTVSPost2010PropOp51
 70
     0
102
RTVSPost2010Prop52
140
1.0
102
RTVSPost2010PropOp52
 70
     0
102
RTVSPost2010Prop53
 90
        2
102
RTVSPost2010PropOp53
 70
     1
102
RTVSPost2010Prop54
  1
strokes_ogs.tif
102
RTVSPost2010PropOp54
 70
     1
102
RTVSPost2010Prop55
280
     0
102
RTVSPost2010PropOp55
 70
     1
102
RTVSPost2010Prop56
140
1.0
102
RTVSPost2010PropOp56
 70
     1
102
RTVSPost2010Prop57
140
1.0
102
RTVSPost2010PropOp57
 70
     1
  0
XRECORD
  5
292
102
{ACAD_REACTORS
330
291
102
}
330
291
100
AcDbXrecord
280
     1
102
RTVSPropertyOp0
 70
     0
102
RTVSPropertyOp1
 70
     0
102
RTVSPropertyOp2
 70
     0
102
RTVSPropertyOp3
 70
     0
102
RTVSPropertyOp4
 70
     0
102
RTVSPropertyOp5
 70
     0
102
RTVSPropertyOp6
 70
     0
102
RTVSPropertyOp7
 70
     0
102
RTVSPropertyOp8
 70
     0
102
RTVSPropertyOp9
 70
     0
102
RTVSPropertyOp10
 70
     0
102
RTVSPropertyOp11
 70
     0
102
RTVSPropertyOp12
 70
     0
102
RTVSPropertyOp13
 70
     0
102
RTVSPropertyOp14
 70
     2
102
RTVSPropertyOp15
 70
     0
102
RTVSPropertyOp16
 70
     0
102
RTVSPropertyOp17
 70
     0
102
RTVSPropertyOp18
 70
     0
102
RTVSPropertyOp19
 70
     0
102
RTVSPropertyOp20
 70
     0
102
RTVSPropertyOp21
 70
     0
102
RTVSPropertyOp22
 70
     0
102
RTVSPropertyOp23
 70
     0
102
RTVSPropertyOp24
 70
     0
102
RTVSPropertyOp25
 70
     0
102
RTVSPropertyOp26
 70
     0
102
RTVSPropertyOp27
 70
     0
102
RTVSPropertyOp28
 70
     0
102
RTVSPropertyOp29
 70
     0
102
RTVSPropertyOp30
 70
     0
102
RTVSPropertyOp31
 70
     0
102
RTVSPropertyOp32
 70
     0
102
RTVSPropertyOp33
 70
     0
102
RTVSPropertyOp34
 70
     0
102
RTVSPropertyOp35
 70
     0
102
RTVSPropertyOp36
 70
     0
102
RTVSPropertyOp37
 70
     0
102
RTVSPropertyOp38
 70
     0
102
RTVSPropertyOp39
 70
     0
102
RTVSPropertyOp40
 70
     0
102
RTVSPropertyOp41
 70
     0
102
RTVSPropertyOp42
 70
     0
102
RTVSPropertyOp43
 70
     0
102
RTVSPropertyOp44
 70
     0
102
RTVSPropertyOp45
 70
     0
102
RTVSPropertyOp46
 70
     0
102
RTVSPropertyOp47
 70
     0
102
RTVSPropertyOp48
 70
     0
102
RTVSPropertyOp49
 70
     0
102
RTVSPropertyOp50
 70
     0
102
RTVSPropertyOp51
 70
     0
102
RTVSPropertyOp52
 70
     0
102
RTVSPropertyOp53
 70
     0
102
RTVSPropertyOp54
 70
     0
102
RTVSPropertyOp55
 70
     0
102
RTVSPropertyOp56
 70
     0
102
RTVSPropertyOp57
 70
     0
102
RTVSPost2010Prop28
280
     0
102
RTVSPost2010PropOp28
 70
     0
102
RTVSPost2010Prop29
280
     1
102
RTVSPost2010PropOp29
 70
     0
102
RTVSPost2010Prop30
280
     1
102
RTVSPost2010PropOp30
 70
     0
102
RTVSPost2010Prop31
280
     0
102
RTVSPost2010PropOp31
 70
     0
102
RTVSPost2010Prop32
280
     0
102
RTVSPost2010PropOp32
 70
     0
102
RTVSPost2010Prop33
280
     0
102
RTVSPost2010PropOp33
 70
     0
102
RTVSPost2010Prop34
280
     0
102
RTVSPost2010PropOp34
 70
     0
102
RTVSPost2010Prop35
280
     0
102
RTVSPost2010PropOp35
 70
     0
102
RTVSPost2010Prop36
280
     0
102
RTVSPost2010PropOp36
 70
     0
102
RTVSPost2010Prop37
 90
       50
102
RTVSPost2010PropOp37
 70
     0
102
RTVSPost2010Prop38
140
0.0
102
RTVSPost2010PropOp38
 70
     0
102
RTVSPost2010Prop39
140
1.0
102
RTVSPost2010PropOp39
 70
     0
102
RTVSPost2010Prop40
 90
        0
102
RTVSPost2010PropOp40
 70
     0
102
RTVSPost2010Prop41ColorIndex
 90
       18
102
RTVSPost2010Prop41ColorRGB
 90
        0
102
RTVSPost2010PropOp41
 70
     0
102
RTVSPost2010Prop42
 90
       50
102
RTVSPost2010PropOp42
 70
     0
102
RTVSPost2010Prop43
 90
        3
102
RTVSPost2010PropOp43
 70
     0
102
RTVSPost2010Prop44ColorIndex
 90
        5
102
RTVSPost2010Prop44ColorRGB
 90
      255
102
RTVSPost2010PropOp44
 70
     0
102
RTVSPost2010Prop45
280
     0
102
RTVSPost2010PropOp45
 70
     0
102
RTVSPost2010Prop46
 90
       50
102
RTVSPost2010PropOp46
 70
     0
102
RTVSPost2010Prop47
 90
       50
102
RTVSPost2010PropOp47
 70
     0
102
RTVSPost2010Prop48
 90
       50
102
RTVSPost2010PropOp48
 70
     0
102
RTVSPost2010Prop49
280
     0
102
RTVSPost2010PropOp49
 70
     0
102
RTVSPost2010Prop50
 90
       50
102
RTVSPost2010PropOp50
 70
     0
102
RTVSPost2010Prop51ColorIndex
 90
      256
102
RTVSPost2010Prop51ColorRGB
 90
-16777216
102
RTVSPost2010PropOp51
 70
     0
102
RTVSPost2010Prop52
140
1.0
102
RTVSPost2010PropOp52
 70
     0
102
RTVSPost2010Prop53
 90
        2
102
RTVSPost2010PropOp53
 70
     0
102
RTVSPost2010Prop54
  1
strokes_ogs.tif
102
RTVSPost2010PropOp54
 70
     0
102
RTVSPost2010Prop55
280
     0
102
RTVSPost2010PropOp55
 70
     0
102
RTVSPost2010Prop56
140
1.0
102
RTVSPost2010PropOp56
 70
     0
102
RTVSPost2010Prop57
140
1.0
102
RTVSPost2010PropOp57
 70
     0
  0
XRECORD
  5
28A
102
{ACAD_REACTORS
330
289
102
}
330
289
100
AcDbXrecord
280
     1
102
RTVSPropertyOp0
 70
     1
102
RTVSPropertyOp1
 70
     1
102
RTVSPropertyOp2
 70
     1
102
RTVSPropertyOp3
 70
     1
102
RTVSPropertyOp4
 70
     1
102
RTVSPropertyOp5
 70
     1
102
RTVSPropertyOp6
 70
     1
102
RTVSPropertyOp7
 70
     1
102
RTVSPropertyOp8
 70
     1
102
RTVSPropertyOp9
 70
     1
102
RTVSPropertyOp10
 70
     1
102
RTVSPropertyOp11
 70
     1
102
RTVSPropertyOp12
 70
     1
102
RTVSPropertyOp13
 70
     1
102
RTVSPropertyOp14
 70
     1
102
RTVSPropertyOp15
 70
     1
102
RTVSPropertyOp16
 70
     1
102
RTVSPropertyOp17
 70
     1
102
RTVSPropertyOp18
 70
     1
102
RTVSPropertyOp19
 70
     1
102
RTVSPropertyOp20
 70
     1
102
RTVSPropertyOp21
 70
     1
102
RTVSPropertyOp22
 70
     1
102
RTVSPropertyOp23
 70
     1
102
RTVSPropertyOp24
 70
     1
102
RTVSPropertyOp25
 70
     1
102
RTVSPropertyOp26
 70
     1
102
RTVSPropertyOp27
 70
     1
102
RTVSPropertyOp28
 70
     1
102
RTVSPropertyOp29
 70
     1
102
RTVSPropertyOp30
 70
     1
102
RTVSPropertyOp31
 70
     1
102
RTVSPropertyOp32
 70
     1
102
RTVSPropertyOp33
 70
     1
102
RTVSPropertyOp34
 70
     1
102
RTVSPropertyOp35
 70
     1
102
RTVSPropertyOp36
 70
     1
102
RTVSPropertyOp37
 70
     1
102
RTVSPropertyOp38
 70
     1
102
RTVSPropertyOp39
 70
     1
102
RTVSPropertyOp40
 70
     1
102
RTVSPropertyOp41
 70
     1
102
RTVSPropertyOp42
 70
     1
102
RTVSPropertyOp43
 70
     1
102
RTVSPropertyOp44
 70
     1
102
RTVSPropertyOp45
 70
     1
102
RTVSPropertyOp46
 70
     1
102
RTVSPropertyOp47
 70
     1
102
RTVSPropertyOp48
 70
     1
102
RTVSPropertyOp49
 70
     1
102
RTVSPropertyOp50
 70
     1
102
RTVSPropertyOp51
 70
     0
102
RTVSPropertyOp52
 70
     0
102
RTVSPropertyOp53
 70
     1
102
RTVSPropertyOp54
 70
     1
102
RTVSPropertyOp55
 70
     1
102
RTVSPropertyOp56
 70
     1
102
RTVSPropertyOp57
 70
     1
102
RTVSPost2010Prop28
280
     0
102
RTVSPost2010PropOp28
 70
     1
102
RTVSPost2010Prop29
280
     1
102
RTVSPost2010PropOp29
 70
     1
102
RTVSPost2010Prop30
280
     1
102
RTVSPost2010PropOp30
 70
     1
102
RTVSPost2010Prop31
280
     0
102
RTVSPost2010PropOp31
 70
     1
102
RTVSPost2010Prop32
280
     0
102
RTVSPost2010PropOp32
 70
     1
102
RTVSPost2010Prop33
280
     0
102
RTVSPost2010PropOp33
 70
     1
102
RTVSPost2010Prop34
280
     0
102
RTVSPost2010PropOp34
 70
     1
102
RTVSPost2010Prop35
280
     0
102
RTVSPost2010PropOp35
 70
     1
102
RTVSPost2010Prop36
280
     0
102
RTVSPost2010PropOp36
 70
     1
102
RTVSPost2010Prop37
 90
       50
102
RTVSPost2010PropOp37
 70
     1
102
RTVSPost2010Prop38
140
0.0
102
RTVSPost2010PropOp38
 70
     1
102
RTVSPost2010Prop39
140
1.0
102
RTVSPost2010PropOp39
 70
     1
102
RTVSPost2010Prop40
 90
        0
102
RTVSPost2010PropOp40
 70
     1
102
RTVSPost2010Prop41ColorIndex
 90
       18
102
RTVSPost2010Prop41ColorRGB
 90
        0
102
RTVSPost2010PropOp41
 70
     1
102
RTVSPost2010Prop42
 90
       50
102
RTVSPost2010PropOp42
 70
     1
102
RTVSPost2010Prop43
 90
        3
102
RTVSPost2010PropOp43
 70
     1
102
RTVSPost2010Prop44ColorIndex
 90
        5
102
RTVSPost2010Prop44ColorRGB
 90
      255
102
RTVSPost2010PropOp44
 70
     1
102
RTVSPost2010Prop45
280
     0
102
RTVSPost2010PropOp45
 70
     1
102
RTVSPost2010Prop46
 90
       50
102
RTVSPost2010PropOp46
 70
     1
102
RTVSPost2010Prop47
 90
       50
102
RTVSPost2010PropOp47
 70
     1
102
RTVSPost2010Prop48
 90
       50
102
RTVSPost2010PropOp48
 70
     1
102
RTVSPost2010Prop49
280
     0
102
RTVSPost2010PropOp49
 70
     1
102
RTVSPost2010Prop50
 90
       50
102
RTVSPost2010PropOp50
 70
     1
102
RTVSPost2010Prop51ColorIndex
 90
      256
102
RTVSPost2010Prop51ColorRGB
 90
-16777216
102
RTVSPost2010PropOp51
 70
     0
102
RTVSPost2010Prop52
140
1.0
102
RTVSPost2010PropOp52
 70
     0
102
RTVSPost2010Prop53
 90
        2
102
RTVSPost2010PropOp53
 70
     1
102
RTVSPost2010Prop54
  1
strokes_ogs.tif
102
RTVSPost2010PropOp54
 70
     1
102
RTVSPost2010Prop55
280
     0
102
RTVSPost2010PropOp55
 70
     1
102
RTVSPost2010Prop56
140
1.0
102
RTVSPost2010PropOp56
 70
     1
102
RTVSPost2010Prop57
140
1.0
102
RTVSPost2010PropOp57
 70
     1
  0
XRECORD
  5
26E
102
{ACAD_REACTORS
330
26D
102
}
330
26D
100
AcDbXrecord
280
     1
102
RTVSPropertyOp0
 70
     1
102
RTVSPropertyOp1
 70
     1
102
RTVSPropertyOp2
 70
     1
102
RTVSPropertyOp3
 70
     1
102
RTVSPropertyOp4
 70
     1
102
RTVSPropertyOp5
 70
     1
102
RTVSPropertyOp6
 70
     1
102
RTVSPropertyOp7
 70
     1
102
RTVSPropertyOp8
 70
     1
102
RTVSPropertyOp9
 70
     1
102
RTVSPropertyOp10
 70
     1
102
RTVSPropertyOp11
 70
     1
102
RTVSPropertyOp12
 70
     1
102
RTVSPropertyOp13
 70
     1
102
RTVSPropertyOp14
 70
     1
102
RTVSPropertyOp15
 70
     1
102
RTVSPropertyOp16
 70
     1
102
RTVSPropertyOp17
 70
     1
102
RTVSPropertyOp18
 70
     1
102
RTVSPropertyOp19
 70
     1
102
RTVSPropertyOp20
 70
     1
102
RTVSPropertyOp21
 70
     1
102
RTVSPropertyOp22
 70
     1
102
RTVSPropertyOp23
 70
     1
102
RTVSPropertyOp24
 70
     1
102
RTVSPropertyOp25
 70
     1
102
RTVSPropertyOp26
 70
     1
102
RTVSPropertyOp27
 70
     1
102
RTVSPropertyOp28
 70
     1
102
RTVSPropertyOp29
 70
     1
102
RTVSPropertyOp30
 70
     1
102
RTVSPropertyOp31
 70
     1
102
RTVSPropertyOp32
 70
     1
102
RTVSPropertyOp33
 70
     1
102
RTVSPropertyOp34
 70
     1
102
RTVSPropertyOp35
 70
     1
102
RTVSPropertyOp36
 70
     1
102
RTVSPropertyOp37
 70
     1
102
RTVSPropertyOp38
 70
     1
102
RTVSPropertyOp39
 70
     1
102
RTVSPropertyOp40
 70
     1
102
RTVSPropertyOp41
 70
     1
102
RTVSPropertyOp42
 70
     1
102
RTVSPropertyOp43
 70
     1
102
RTVSPropertyOp44
 70
     1
102
RTVSPropertyOp45
 70
     1
102
RTVSPropertyOp46
 70
     1
102
RTVSPropertyOp47
 70
     1
102
RTVSPropertyOp48
 70
     1
102
RTVSPropertyOp49
 70
     1
102
RTVSPropertyOp50
 70
     1
102
RTVSPropertyOp51
 70
     0
102
RTVSPropertyOp52
 70
     0
102
RTVSPropertyOp53
 70
     1
102
RTVSPropertyOp54
 70
     1
102
RTVSPropertyOp55
 70
     1
102
RTVSPropertyOp56
 70
     1
102
RTVSPropertyOp57
 70
     1
102
RTVSPost2010Prop28
280
     0
102
RTVSPost2010PropOp28
 70
     1
102
RTVSPost2010Prop29
280
     1
102
RTVSPost2010PropOp29
 70
     1
102
RTVSPost2010Prop30
280
     1
102
RTVSPost2010PropOp30
 70
     1
102
RTVSPost2010Prop31
280
     0
102
RTVSPost2010PropOp31
 70
     1
102
RTVSPost2010Prop32
280
     0
102
RTVSPost2010PropOp32
 70
     1
102
RTVSPost2010Prop33
280
     0
102
RTVSPost2010PropOp33
 70
     1
102
RTVSPost2010Prop34
280
     0
102
RTVSPost2010PropOp34
 70
     1
102
RTVSPost2010Prop35
280
     0
102
RTVSPost2010PropOp35
 70
     1
102
RTVSPost2010Prop36
280
     0
102
RTVSPost2010PropOp36
 70
     1
102
RTVSPost2010Prop37
 90
       50
102
RTVSPost2010PropOp37
 70
     1
102
RTVSPost2010Prop38
140
0.0
102
RTVSPost2010PropOp38
 70
     1
102
RTVSPost2010Prop39
140
1.0
102
RTVSPost2010PropOp39
 70
     1
102
RTVSPost2010Prop40
 90
        0
102
RTVSPost2010PropOp40
 70
     1
102
RTVSPost2010Prop41ColorIndex
 90
       18
102
RTVSPost2010Prop41ColorRGB
 90
        0
102
RTVSPost2010PropOp41
 70
     1
102
RTVSPost2010Prop42
 90
       50
102
RTVSPost2010PropOp42
 70
     1
102
RTVSPost2010Prop43
 90
        3
102
RTVSPost2010PropOp43
 70
     1
102
RTVSPost2010Prop44ColorIndex
 90
        5
102
RTVSPost2010Prop44ColorRGB
 90
      255
102
RTVSPost2010PropOp44
 70
     1
102
RTVSPost2010Prop45
280
     0
102
RTVSPost2010PropOp45
 70
     1
102
RTVSPost2010Prop46
 90
       50
102
RTVSPost2010PropOp46
 70
     1
102
RTVSPost2010Prop47
 90
       50
102
RTVSPost2010PropOp47
 70
     1
102
RTVSPost2010Prop48
 90
       50
102
RTVSPost2010PropOp48
 70
     1
102
RTVSPost2010Prop49
280
     0
102
RTVSPost2010PropOp49
 70
     1
102
RTVSPost2010Prop50
 90
       50
102
RTVSPost2010PropOp50
 70
     1
102
RTVSPost2010Prop51ColorIndex
 90
      256
102
RTVSPost2010Prop51ColorRGB
 90
-16777216
102
RTVSPost2010PropOp51
 70
     0
102
RTVSPost2010Prop52
140
1.0
102
RTVSPost2010PropOp52
 70
     0
102
RTVSPost2010Prop53
 90
        2
102
RTVSPost2010PropOp53
 70
     1
102
RTVSPost2010Prop54
  1
strokes_ogs.tif
102
RTVSPost2010PropOp54
 70
     1
102
RTVSPost2010Prop55
280
     0
102
RTVSPost2010PropOp55
 70
     1
102
RTVSPost2010Prop56
140
1.0
102
RTVSPost2010PropOp56
 70
     1
102
RTVSPost2010Prop57
140
1.0
102
RTVSPost2010PropOp57
 70
     1
  0
XRECORD
  5
270
102
{ACAD_REACTORS
330
26F
102
}
330
26F
100
AcDbXrecord
280
     1
102
RTVSPropertyOp0
 70
     1
102
RTVSPropertyOp1
 70
     1
102
RTVSPropertyOp2
 70
     1
102
RTVSPropertyOp3
 70
     1
102
RTVSPropertyOp4
 70
     1
102
RTVSPropertyOp5
 70
     1
102
RTVSPropertyOp6
 70
     1
102
RTVSPropertyOp7
 70
     1
102
RTVSPropertyOp8
 70
     1
102
RTVSPropertyOp9
 70
     1
102
RTVSPropertyOp10
 70
     1
102
RTVSPropertyOp11
 70
     1
102
RTVSPropertyOp12
 70
     1
102
RTVSPropertyOp13
 70
     1
102
RTVSPropertyOp14
 70
     1
102
RTVSPropertyOp15
 70
     1
102
RTVSPropertyOp16
 70
     1
102
RTVSPropertyOp17
 70
     1
102
RTVSPropertyOp18
 70
     1
102
RTVSPropertyOp19
 70
     1
102
RTVSPropertyOp20
 70
     1
102
RTVSPropertyOp21
 70
     1
102
RTVSPropertyOp22
 70
     1
102
RTVSPropertyOp23
 70
     1
102
RTVSPropertyOp24
 70
     1
102
RTVSPropertyOp25
 70
     1
102
RTVSPropertyOp26
 70
     1
102
RTVSPropertyOp27
 70
     1
102
RTVSPropertyOp28
 70
     1
102
RTVSPropertyOp29
 70
     1
102
RTVSPropertyOp30
 70
     1
102
RTVSPropertyOp31
 70
     1
102
RTVSPropertyOp32
 70
     1
102
RTVSPropertyOp33
 70
     1
102
RTVSPropertyOp34
 70
     1
102
RTVSPropertyOp35
 70
     1
102
RTVSPropertyOp36
 70
     1
102
RTVSPropertyOp37
 70
     1
102
RTVSPropertyOp38
 70
     1
102
RTVSPropertyOp39
 70
     1
102
RTVSPropertyOp40
 70
     1
102
RTVSPropertyOp41
 70
     1
102
RTVSPropertyOp42
 70
     1
102
RTVSPropertyOp43
 70
     1
102
RTVSPropertyOp44
 70
     1
102
RTVSPropertyOp45
 70
     1
102
RTVSPropertyOp46
 70
     1
102
RTVSPropertyOp47
 70
     1
102
RTVSPropertyOp48
 70
     1
102
RTVSPropertyOp49
 70
     1
102
RTVSPropertyOp50
 70
     1
102
RTVSPropertyOp51
 70
     0
102
RTVSPropertyOp52
 70
     0
102
RTVSPropertyOp53
 70
     1
102
RTVSPropertyOp54
 70
     1
102
RTVSPropertyOp55
 70
     1
102
RTVSPropertyOp56
 70
     1
102
RTVSPropertyOp57
 70
     1
102
RTVSPost2010Prop28
280
     0
102
RTVSPost2010PropOp28
 70
     1
102
RTVSPost2010Prop29
280
     1
102
RTVSPost2010PropOp29
 70
     1
102
RTVSPost2010Prop30
280
     1
102
RTVSPost2010PropOp30
 70
     1
102
RTVSPost2010Prop31
280
     0
102
RTVSPost2010PropOp31
 70
     1
102
RTVSPost2010Prop32
280
     0
102
RTVSPost2010PropOp32
 70
     1
102
RTVSPost2010Prop33
280
     0
102
RTVSPost2010PropOp33
 70
     1
102
RTVSPost2010Prop34
280
     0
102
RTVSPost2010PropOp34
 70
     1
102
RTVSPost2010Prop35
280
     0
102
RTVSPost2010PropOp35
 70
     1
102
RTVSPost2010Prop36
280
     0
102
RTVSPost2010PropOp36
 70
     1
102
RTVSPost2010Prop37
 90
       50
102
RTVSPost2010PropOp37
 70
     1
102
RTVSPost2010Prop38
140
0.0
102
RTVSPost2010PropOp38
 70
     1
102
RTVSPost2010Prop39
140
1.0
102
RTVSPost2010PropOp39
 70
     1
102
RTVSPost2010Prop40
 90
        0
102
RTVSPost2010PropOp40
 70
     1
102
RTVSPost2010Prop41ColorIndex
 90
       18
102
RTVSPost2010Prop41ColorRGB
 90
        0
102
RTVSPost2010PropOp41
 70
     1
102
RTVSPost2010Prop42
 90
       50
102
RTVSPost2010PropOp42
 70
     1
102
RTVSPost2010Prop43
 90
        3
102
RTVSPost2010PropOp43
 70
     1
102
RTVSPost2010Prop44ColorIndex
 90
        5
102
RTVSPost2010Prop44ColorRGB
 90
      255
102
RTVSPost2010PropOp44
 70
     1
102
RTVSPost2010Prop45
280
     0
102
RTVSPost2010PropOp45
 70
     1
102
RTVSPost2010Prop46
 90
       50
102
RTVSPost2010PropOp46
 70
     1
102
RTVSPost2010Prop47
 90
       50
102
RTVSPost2010PropOp47
 70
     1
102
RTVSPost2010Prop48
 90
       50
102
RTVSPost2010PropOp48
 70
     1
102
RTVSPost2010Prop49
280
     0
102
RTVSPost2010PropOp49
 70
     1
102
RTVSPost2010Prop50
 90
       50
102
RTVSPost2010PropOp50
 70
     1
102
RTVSPost2010Prop51ColorIndex
 90
      256
102
RTVSPost2010Prop51ColorRGB
 90
-16777216
102
RTVSPost2010PropOp51
 70
     0
102
RTVSPost2010Prop52
140
1.0
102
RTVSPost2010PropOp52
 70
     0
102
RTVSPost2010Prop53
 90
        2
102
RTVSPost2010PropOp53
 70
     1
102
RTVSPost2010Prop54
  1
strokes_ogs.tif
102
RTVSPost2010PropOp54
 70
     1
102
RTVSPost2010Prop55
280
     0
102
RTVSPost2010PropOp55
 70
     1
102
RTVSPost2010Prop56
140
1.0
102
RTVSPost2010PropOp56
 70
     1
102
RTVSPost2010Prop57
140
1.0
102
RTVSPost2010PropOp57
 70
     1
  0
XRECORD
  5
272
102
{ACAD_REACTORS
330
271
102
}
330
271
100
AcDbXrecord
280
     1
102
RTVSPropertyOp0
 70
     1
102
RTVSPropertyOp1
 70
     1
102
RTVSPropertyOp2
 70
     1
102
RTVSPropertyOp3
 70
     1
102
RTVSPropertyOp4
 70
     1
102
RTVSPropertyOp5
 70
     1
102
RTVSPropertyOp6
 70
     1
102
RTVSPropertyOp7
 70
     1
102
RTVSPropertyOp8
 70
     1
102
RTVSPropertyOp9
 70
     1
102
RTVSPropertyOp10
 70
     1
102
RTVSPropertyOp11
 70
     1
102
RTVSPropertyOp12
 70
     1
102
RTVSPropertyOp13
 70
     1
102
RTVSPropertyOp14
 70
     1
102
RTVSPropertyOp15
 70
     1
102
RTVSPropertyOp16
 70
     1
102
RTVSPropertyOp17
 70
     1
102
RTVSPropertyOp18
 70
     1
102
RTVSPropertyOp19
 70
     1
102
RTVSPropertyOp20
 70
     1
102
RTVSPropertyOp21
 70
     1
102
RTVSPropertyOp22
 70
     1
102
RTVSPropertyOp23
 70
     1
102
RTVSPropertyOp24
 70
     1
102
RTVSPropertyOp25
 70
     1
102
RTVSPropertyOp26
 70
     1
102
RTVSPropertyOp27
 70
     1
102
RTVSPropertyOp28
 70
     1
102
RTVSPropertyOp29
 70
     1
102
RTVSPropertyOp30
 70
     1
102
RTVSPropertyOp31
 70
     1
102
RTVSPropertyOp32
 70
     1
102
RTVSPropertyOp33
 70
     1
102
RTVSPropertyOp34
 70
     1
102
RTVSPropertyOp35
 70
     1
102
RTVSPropertyOp36
 70
     1
102
RTVSPropertyOp37
 70
     1
102
RTVSPropertyOp38
 70
     1
102
RTVSPropertyOp39
 70
     1
102
RTVSPropertyOp40
 70
     1
102
RTVSPropertyOp41
 70
     1
102
RTVSPropertyOp42
 70
     1
102
RTVSPropertyOp43
 70
     1
102
RTVSPropertyOp44
 70
     1
102
RTVSPropertyOp45
 70
     1
102
RTVSPropertyOp46
 70
     1
102
RTVSPropertyOp47
 70
     1
102
RTVSPropertyOp48
 70
     1
102
RTVSPropertyOp49
 70
     1
102
RTVSPropertyOp50
 70
     1
102
RTVSPropertyOp51
 70
     0
102
RTVSPropertyOp52
 70
     0
102
RTVSPropertyOp53
 70
     1
102
RTVSPropertyOp54
 70
     1
102
RTVSPropertyOp55
 70
     1
102
RTVSPropertyOp56
 70
     1
102
RTVSPropertyOp57
 70
     1
102
RTVSPost2010Prop28
280
     0
102
RTVSPost2010PropOp28
 70
     1
102
RTVSPost2010Prop29
280
     1
102
RTVSPost2010PropOp29
 70
     1
102
RTVSPost2010Prop30
280
     1
102
RTVSPost2010PropOp30
 70
     1
102
RTVSPost2010Prop31
280
     0
102
RTVSPost2010PropOp31
 70
     1
102
RTVSPost2010Prop32
280
     0
102
RTVSPost2010PropOp32
 70
     1
102
RTVSPost2010Prop33
280
     0
102
RTVSPost2010PropOp33
 70
     1
102
RTVSPost2010Prop34
280
     0
102
RTVSPost2010PropOp34
 70
     1
102
RTVSPost2010Prop35
280
     0
102
RTVSPost2010PropOp35
 70
     1
102
RTVSPost2010Prop36
280
     0
102
RTVSPost2010PropOp36
 70
     1
102
RTVSPost2010Prop37
 90
       50
102
RTVSPost2010PropOp37
 70
     1
102
RTVSPost2010Prop38
140
0.0
102
RTVSPost2010PropOp38
 70
     1
102
RTVSPost2010Prop39
140
1.0
102
RTVSPost2010PropOp39
 70
     1
102
RTVSPost2010Prop40
 90
        0
102
RTVSPost2010PropOp40
 70
     1
102
RTVSPost2010Prop41ColorIndex
 90
       18
102
RTVSPost2010Prop41ColorRGB
 90
        0
102
RTVSPost2010PropOp41
 70
     1
102
RTVSPost2010Prop42
 90
       50
102
RTVSPost2010PropOp42
 70
     1
102
RTVSPost2010Prop43
 90
        3
102
RTVSPost2010PropOp43
 70
     1
102
RTVSPost2010Prop44ColorIndex
 90
        5
102
RTVSPost2010Prop44ColorRGB
 90
      255
102
RTVSPost2010PropOp44
 70
     1
102
RTVSPost2010Prop45
280
     0
102
RTVSPost2010PropOp45
 70
     1
102
RTVSPost2010Prop46
 90
       50
102
RTVSPost2010PropOp46
 70
     1
102
RTVSPost2010Prop47
 90
       50
102
RTVSPost2010PropOp47
 70
     1
102
RTVSPost2010Prop48
 90
       50
102
RTVSPost2010PropOp48
 70
     1
102
RTVSPost2010Prop49
280
     0
102
RTVSPost2010PropOp49
 70
     1
102
RTVSPost2010Prop50
 90
       50
102
RTVSPost2010PropOp50
 70
     1
102
RTVSPost2010Prop51ColorIndex
 90
      256
102
RTVSPost2010Prop51ColorRGB
 90
-16777216
102
RTVSPost2010PropOp51
 70
     0
102
RTVSPost2010Prop52
140
1.0
102
RTVSPost2010PropOp52
 70
     0
102
RTVSPost2010Prop53
 90
        2
102
RTVSPost2010PropOp53
 70
     1
102
RTVSPost2010Prop54
  1
strokes_ogs.tif
102
RTVSPost2010PropOp54
 70
     1
102
RTVSPost2010Prop55
280
     0
102
RTVSPost2010PropOp55
 70
     1
102
RTVSPost2010Prop56
140
1.0
102
RTVSPost2010PropOp56
 70
     1
102
RTVSPost2010Prop57
140
1.0
102
RTVSPost2010PropOp57
 70
     1
  0
XRECORD
  5
274
102
{ACAD_REACTORS
330
273
102
}
330
273
100
AcDbXrecord
280
     1
102
RTVSPropertyOp0
 70
     1
102
RTVSPropertyOp1
 70
     1
102
RTVSPropertyOp2
 70
     1
102
RTVSPropertyOp3
 70
     1
102
RTVSPropertyOp4
 70
     1
102
RTVSPropertyOp5
 70
     1
102
RTVSPropertyOp6
 70
     1
102
RTVSPropertyOp7
 70
     1
102
RTVSPropertyOp8
 70
     1
102
RTVSPropertyOp9
 70
     1
102
RTVSPropertyOp10
 70
     1
102
RTVSPropertyOp11
 70
     1
102
RTVSPropertyOp12
 70
     1
102
RTVSPropertyOp13
 70
     1
102
RTVSPropertyOp14
 70
     1
102
RTVSPropertyOp15
 70
     1
102
RTVSPropertyOp16
 70
     1
102
RTVSPropertyOp17
 70
     1
102
RTVSPropertyOp18
 70
     1
102
RTVSPropertyOp19
 70
     1
102
RTVSPropertyOp20
 70
     1
102
RTVSPropertyOp21
 70
     1
102
RTVSPropertyOp22
 70
     1
102
RTVSPropertyOp23
 70
     1
102
RTVSPropertyOp24
 70
     1
102
RTVSPropertyOp25
 70
     1
102
RTVSPropertyOp26
 70
     1
102
RTVSPropertyOp27
 70
     1
102
RTVSPropertyOp28
 70
     1
102
RTVSPropertyOp29
 70
     1
102
RTVSPropertyOp30
 70
     1
102
RTVSPropertyOp31
 70
     1
102
RTVSPropertyOp32
 70
     1
102
RTVSPropertyOp33
 70
     1
102
RTVSPropertyOp34
 70
     1
102
RTVSPropertyOp35
 70
     1
102
RTVSPropertyOp36
 70
     1
102
RTVSPropertyOp37
 70
     1
102
RTVSPropertyOp38
 70
     1
102
RTVSPropertyOp39
 70
     1
102
RTVSPropertyOp40
 70
     1
102
RTVSPropertyOp41
 70
     1
102
RTVSPropertyOp42
 70
     1
102
RTVSPropertyOp43
 70
     1
102
RTVSPropertyOp44
 70
     1
102
RTVSPropertyOp45
 70
     1
102
RTVSPropertyOp46
 70
     1
102
RTVSPropertyOp47
 70
     1
102
RTVSPropertyOp48
 70
     1
102
RTVSPropertyOp49
 70
     1
102
RTVSPropertyOp50
 70
     1
102
RTVSPropertyOp51
 70
     0
102
RTVSPropertyOp52
 70
     0
102
RTVSPropertyOp53
 70
     1
102
RTVSPropertyOp54
 70
     1
102
RTVSPropertyOp55
 70
     1
102
RTVSPropertyOp56
 70
     1
102
RTVSPropertyOp57
 70
     1
102
RTVSPost2010Prop28
280
     0
102
RTVSPost2010PropOp28
 70
     1
102
RTVSPost2010Prop29
280
     1
102
RTVSPost2010PropOp29
 70
     1
102
RTVSPost2010Prop30
280
     1
102
RTVSPost2010PropOp30
 70
     1
102
RTVSPost2010Prop31
280
     0
102
RTVSPost2010PropOp31
 70
     1
102
RTVSPost2010Prop32
280
     0
102
RTVSPost2010PropOp32
 70
     1
102
RTVSPost2010Prop33
280
     0
102
RTVSPost2010PropOp33
 70
     1
102
RTVSPost2010Prop34
280
     0
102
RTVSPost2010PropOp34
 70
     1
102
RTVSPost2010Prop35
280
     0
102
RTVSPost2010PropOp35
 70
     1
102
RTVSPost2010Prop36
280
     0
102
RTVSPost2010PropOp36
 70
     1
102
RTVSPost2010Prop37
 90
       50
102
RTVSPost2010PropOp37
 70
     1
102
RTVSPost2010Prop38
140
0.0
102
RTVSPost2010PropOp38
 70
     1
102
RTVSPost2010Prop39
140
1.0
102
RTVSPost2010PropOp39
 70
     1
102
RTVSPost2010Prop40
 90
        0
102
RTVSPost2010PropOp40
 70
     1
102
RTVSPost2010Prop41ColorIndex
 90
       18
102
RTVSPost2010Prop41ColorRGB
 90
        0
102
RTVSPost2010PropOp41
 70
     1
102
RTVSPost2010Prop42
 90
       50
102
RTVSPost2010PropOp42
 70
     1
102
RTVSPost2010Prop43
 90
        3
102
RTVSPost2010PropOp43
 70
     1
102
RTVSPost2010Prop44ColorIndex
 90
        5
102
RTVSPost2010Prop44ColorRGB
 90
      255
102
RTVSPost2010PropOp44
 70
     1
102
RTVSPost2010Prop45
280
     0
102
RTVSPost2010PropOp45
 70
     1
102
RTVSPost2010Prop46
 90
       50
102
RTVSPost2010PropOp46
 70
     1
102
RTVSPost2010Prop47
 90
       50
102
RTVSPost2010PropOp47
 70
     1
102
RTVSPost2010Prop48
 90
       50
102
RTVSPost2010PropOp48
 70
     1
102
RTVSPost2010Prop49
280
     0
102
RTVSPost2010PropOp49
 70
     1
102
RTVSPost2010Prop50
 90
       50
102
RTVSPost2010PropOp50
 70
     1
102
RTVSPost2010Prop51ColorIndex
 90
      256
102
RTVSPost2010Prop51ColorRGB
 90
-16777216
102
RTVSPost2010PropOp51
 70
     0
102
RTVSPost2010Prop52
140
1.0
102
RTVSPost2010PropOp52
 70
     0
102
RTVSPost2010Prop53
 90
        2
102
RTVSPost2010PropOp53
 70
     1
102
RTVSPost2010Prop54
  1
strokes_ogs.tif
102
RTVSPost2010PropOp54
 70
     1
102
RTVSPost2010Prop55
280
     0
102
RTVSPost2010PropOp55
 70
     1
102
RTVSPost2010Prop56
140
1.0
102
RTVSPost2010PropOp56
 70
     1
102
RTVSPost2010Prop57
140
1.0
102
RTVSPost2010PropOp57
 70
     1
  0
XRECORD
  5
27A
102
{ACAD_REACTORS
330
279
102
}
330
279
100
AcDbXrecord
280
     1
102
RTVSPropertyOp0
 70
     1
102
RTVSPropertyOp1
 70
     1
102
RTVSPropertyOp2
 70
     1
102
RTVSPropertyOp3
 70
     1
102
RTVSPropertyOp4
 70
     1
102
RTVSPropertyOp5
 70
     1
102
RTVSPropertyOp6
 70
     1
102
RTVSPropertyOp7
 70
     1
102
RTVSPropertyOp8
 70
     1
102
RTVSPropertyOp9
 70
     1
102
RTVSPropertyOp10
 70
     1
102
RTVSPropertyOp11
 70
     1
102
RTVSPropertyOp12
 70
     1
102
RTVSPropertyOp13
 70
     1
102
RTVSPropertyOp14
 70
     1
102
RTVSPropertyOp15
 70
     1
102
RTVSPropertyOp16
 70
     1
102
RTVSPropertyOp17
 70
     1
102
RTVSPropertyOp18
 70
     1
102
RTVSPropertyOp19
 70
     1
102
RTVSPropertyOp20
 70
     1
102
RTVSPropertyOp21
 70
     1
102
RTVSPropertyOp22
 70
     1
102
RTVSPropertyOp23
 70
     1
102
RTVSPropertyOp24
 70
     1
102
RTVSPropertyOp25
 70
     1
102
RTVSPropertyOp26
 70
     1
102
RTVSPropertyOp27
 70
     1
102
RTVSPropertyOp28
 70
     1
102
RTVSPropertyOp29
 70
     1
102
RTVSPropertyOp30
 70
     1
102
RTVSPropertyOp31
 70
     1
102
RTVSPropertyOp32
 70
     1
102
RTVSPropertyOp33
 70
     1
102
RTVSPropertyOp34
 70
     1
102
RTVSPropertyOp35
 70
     1
102
RTVSPropertyOp36
 70
     1
102
RTVSPropertyOp37
 70
     1
102
RTVSPropertyOp38
 70
     1
102
RTVSPropertyOp39
 70
     1
102
RTVSPropertyOp40
 70
     1
102
RTVSPropertyOp41
 70
     1
102
RTVSPropertyOp42
 70
     1
102
RTVSPropertyOp43
 70
     1
102
RTVSPropertyOp44
 70
     1
102
RTVSPropertyOp45
 70
     1
102
RTVSPropertyOp46
 70
     1
102
RTVSPropertyOp47
 70
     1
102
RTVSPropertyOp48
 70
     1
102
RTVSPropertyOp49
 70
     1
102
RTVSPropertyOp50
 70
     1
102
RTVSPropertyOp51
 70
     0
102
RTVSPropertyOp52
 70
     0
102
RTVSPropertyOp53
 70
     1
102
RTVSPropertyOp54
 70
     1
102
RTVSPropertyOp55
 70
     1
102
RTVSPropertyOp56
 70
     1
102
RTVSPropertyOp57
 70
     1
102
RTVSPost2010Prop28
280
     0
102
RTVSPost2010PropOp28
 70
     1
102
RTVSPost2010Prop29
280
     1
102
RTVSPost2010PropOp29
 70
     1
102
RTVSPost2010Prop30
280
     1
102
RTVSPost2010PropOp30
 70
     1
102
RTVSPost2010Prop31
280
     0
102
RTVSPost2010PropOp31
 70
     1
102
RTVSPost2010Prop32
280
     0
102
RTVSPost2010PropOp32
 70
     1
102
RTVSPost2010Prop33
280
     0
102
RTVSPost2010PropOp33
 70
     1
102
RTVSPost2010Prop34
280
     0
102
RTVSPost2010PropOp34
 70
     1
102
RTVSPost2010Prop35
280
     0
102
RTVSPost2010PropOp35
 70
     1
102
RTVSPost2010Prop36
280
     0
102
RTVSPost2010PropOp36
 70
     1
102
RTVSPost2010Prop37
 90
       50
102
RTVSPost2010PropOp37
 70
     1
102
RTVSPost2010Prop38
140
0.0
102
RTVSPost2010PropOp38
 70
     1
102
RTVSPost2010Prop39
140
1.0
102
RTVSPost2010PropOp39
 70
     1
102
RTVSPost2010Prop40
 90
        0
102
RTVSPost2010PropOp40
 70
     1
102
RTVSPost2010Prop41ColorIndex
 90
       18
102
RTVSPost2010Prop41ColorRGB
 90
        0
102
RTVSPost2010PropOp41
 70
     1
102
RTVSPost2010Prop42
 90
       50
102
RTVSPost2010PropOp42
 70
     1
102
RTVSPost2010Prop43
 90
        3
102
RTVSPost2010PropOp43
 70
     1
102
RTVSPost2010Prop44ColorIndex
 90
        5
102
RTVSPost2010Prop44ColorRGB
 90
      255
102
RTVSPost2010PropOp44
 70
     1
102
RTVSPost2010Prop45
280
     0
102
RTVSPost2010PropOp45
 70
     1
102
RTVSPost2010Prop46
 90
       50
102
RTVSPost2010PropOp46
 70
     1
102
RTVSPost2010Prop47
 90
       50
102
RTVSPost2010PropOp47
 70
     1
102
RTVSPost2010Prop48
 90
       50
102
RTVSPost2010PropOp48
 70
     1
102
RTVSPost2010Prop49
280
     0
102
RTVSPost2010PropOp49
 70
     1
102
RTVSPost2010Prop50
 90
       50
102
RTVSPost2010PropOp50
 70
     1
102
RTVSPost2010Prop51ColorIndex
 90
      256
102
RTVSPost2010Prop51ColorRGB
 90
-16777216
102
RTVSPost2010PropOp51
 70
     0
102
RTVSPost2010Prop52
140
1.0
102
RTVSPost2010PropOp52
 70
     0
102
RTVSPost2010Prop53
 90
        2
102
RTVSPost2010PropOp53
 70
     1
102
RTVSPost2010Prop54
  1
strokes_ogs.tif
102
RTVSPost2010PropOp54
 70
     1
102
RTVSPost2010Prop55
280
     0
102
RTVSPost2010PropOp55
 70
     1
102
RTVSPost2010Prop56
140
1.0
102
RTVSPost2010PropOp56
 70
     1
102
RTVSPost2010Prop57
140
1.0
102
RTVSPost2010PropOp57
 70
     1
  0
XRECORD
  5
28E
102
{ACAD_REACTORS
330
28D
102
}
330
28D
100
AcDbXrecord
280
     1
102
RTVSPropertyOp0
 70
     0
102
RTVSPropertyOp1
 70
     0
102
RTVSPropertyOp2
 70
     0
102
RTVSPropertyOp3
 70
     0
102
RTVSPropertyOp4
 70
     0
102
RTVSPropertyOp5
 70
     0
102
RTVSPropertyOp6
 70
     0
102
RTVSPropertyOp7
 70
     0
102
RTVSPropertyOp8
 70
     0
102
RTVSPropertyOp9
 70
     0
102
RTVSPropertyOp10
 70
     0
102
RTVSPropertyOp11
 70
     0
102
RTVSPropertyOp12
 70
     0
102
RTVSPropertyOp13
 70
     0
102
RTVSPropertyOp14
 70
     2
102
RTVSPropertyOp15
 70
     0
102
RTVSPropertyOp16
 70
     0
102
RTVSPropertyOp17
 70
     0
102
RTVSPropertyOp18
 70
     0
102
RTVSPropertyOp19
 70
     0
102
RTVSPropertyOp20
 70
     0
102
RTVSPropertyOp21
 70
     0
102
RTVSPropertyOp22
 70
     0
102
RTVSPropertyOp23
 70
     0
102
RTVSPropertyOp24
 70
     0
102
RTVSPropertyOp25
 70
     0
102
RTVSPropertyOp26
 70
     0
102
RTVSPropertyOp27
 70
     0
102
RTVSPropertyOp28
 70
     0
102
RTVSPropertyOp29
 70
     0
102
RTVSPropertyOp30
 70
     0
102
RTVSPropertyOp31
 70
     0
102
RTVSPropertyOp32
 70
     0
102
RTVSPropertyOp33
 70
     0
102
RTVSPropertyOp34
 70
     0
102
RTVSPropertyOp35
 70
     0
102
RTVSPropertyOp36
 70
     0
102
RTVSPropertyOp37
 70
     0
102
RTVSPropertyOp38
 70
     0
102
RTVSPropertyOp39
 70
     0
102
RTVSPropertyOp40
 70
     0
102
RTVSPropertyOp41
 70
     0
102
RTVSPropertyOp42
 70
     0
102
RTVSPropertyOp43
 70
     0
102
RTVSPropertyOp44
 70
     0
102
RTVSPropertyOp45
 70
     0
102
RTVSPropertyOp46
 70
     0
102
RTVSPropertyOp47
 70
     0
102
RTVSPropertyOp48
 70
     0
102
RTVSPropertyOp49
 70
     0
102
RTVSPropertyOp50
 70
     0
102
RTVSPropertyOp51
 70
     0
102
RTVSPropertyOp52
 70
     0
102
RTVSPropertyOp53
 70
     0
102
RTVSPropertyOp54
 70
     0
102
RTVSPropertyOp55
 70
     0
102
RTVSPropertyOp56
 70
     0
102
RTVSPropertyOp57
 70
     0
102
RTVSPost2010Prop28
280
     0
102
RTVSPost2010PropOp28
 70
     0
102
RTVSPost2010Prop29
280
     1
102
RTVSPost2010PropOp29
 70
     0
102
RTVSPost2010Prop30
280
     1
102
RTVSPost2010PropOp30
 70
     0
102
RTVSPost2010Prop31
280
     0
102
RTVSPost2010PropOp31
 70
     0
102
RTVSPost2010Prop32
280
     0
102
RTVSPost2010PropOp32
 70
     0
102
RTVSPost2010Prop33
280
     0
102
RTVSPost2010PropOp33
 70
     0
102
RTVSPost2010Prop34
280
     0
102
RTVSPost2010PropOp34
 70
     0
102
RTVSPost2010Prop35
280
     0
102
RTVSPost2010PropOp35
 70
     0
102
RTVSPost2010Prop36
280
     0
102
RTVSPost2010PropOp36
 70
     0
102
RTVSPost2010Prop37
 90
       50
102
RTVSPost2010PropOp37
 70
     0
102
RTVSPost2010Prop38
140
0.0
102
RTVSPost2010PropOp38
 70
     0
102
RTVSPost2010Prop39
140
1.0
102
RTVSPost2010PropOp39
 70
     0
102
RTVSPost2010Prop40
 90
        0
102
RTVSPost2010PropOp40
 70
     0
102
RTVSPost2010Prop41ColorIndex
 90
       18
102
RTVSPost2010Prop41ColorRGB
 90
        0
102
RTVSPost2010PropOp41
 70
     0
102
RTVSPost2010Prop42
 90
       50
102
RTVSPost2010PropOp42
 70
     0
102
RTVSPost2010Prop43
 90
        3
102
RTVSPost2010PropOp43
 70
     0
102
RTVSPost2010Prop44ColorIndex
 90
        5
102
RTVSPost2010Prop44ColorRGB
 90
      255
102
RTVSPost2010PropOp44
 70
     0
102
RTVSPost2010Prop45
280
     0
102
RTVSPost2010PropOp45
 70
     0
102
RTVSPost2010Prop46
 90
       50
102
RTVSPost2010PropOp46
 70
     0
102
RTVSPost2010Prop47
 90
       50
102
RTVSPost2010PropOp47
 70
     0
102
RTVSPost2010Prop48
 90
       50
102
RTVSPost2010PropOp48
 70
     0
102
RTVSPost2010Prop49
280
     0
102
RTVSPost2010PropOp49
 70
     0
102
RTVSPost2010Prop50
 90
       50
102
RTVSPost2010PropOp50
 70
     0
102
RTVSPost2010Prop51ColorIndex
 90
      256
102
RTVSPost2010Prop51ColorRGB
 90
-16777216
102
RTVSPost2010PropOp51
 70
     0
102
RTVSPost2010Prop52
140
1.0
102
RTVSPost2010PropOp52
 70
     0
102
RTVSPost2010Prop53
 90
        2
102
RTVSPost2010PropOp53
 70
     0
102
RTVSPost2010Prop54
  1
strokes_ogs.tif
102
RTVSPost2010PropOp54
 70
     0
102
RTVSPost2010Prop55
280
     0
102
RTVSPost2010PropOp55
 70
     0
102
RTVSPost2010Prop56
140
1.0
102
RTVSPost2010PropOp56
 70
     0
102
RTVSPost2010Prop57
140
1.0
102
RTVSPost2010PropOp57
 70
     0
  0
XRECORD
  5
288
102
{ACAD_REACTORS
330
287
102
}
330
287
100
AcDbXrecord
280
     1
102
RTVSPropertyOp0
 70
     1
102
RTVSPropertyOp1
 70
     1
102
RTVSPropertyOp2
 70
     1
102
RTVSPropertyOp3
 70
     1
102
RTVSPropertyOp4
 70
     1
102
RTVSPropertyOp5
 70
     1
102
RTVSPropertyOp6
 70
     1
102
RTVSPropertyOp7
 70
     1
102
RTVSPropertyOp8
 70
     1
102
RTVSPropertyOp9
 70
     1
102
RTVSPropertyOp10
 70
     1
102
RTVSPropertyOp11
 70
     1
102
RTVSPropertyOp12
 70
     1
102
RTVSPropertyOp13
 70
     1
102
RTVSPropertyOp14
 70
     1
102
RTVSPropertyOp15
 70
     1
102
RTVSPropertyOp16
 70
     1
102
RTVSPropertyOp17
 70
     1
102
RTVSPropertyOp18
 70
     1
102
RTVSPropertyOp19
 70
     1
102
RTVSPropertyOp20
 70
     1
102
RTVSPropertyOp21
 70
     1
102
RTVSPropertyOp22
 70
     1
102
RTVSPropertyOp23
 70
     1
102
RTVSPropertyOp24
 70
     1
102
RTVSPropertyOp25
 70
     1
102
RTVSPropertyOp26
 70
     1
102
RTVSPropertyOp27
 70
     1
102
RTVSPropertyOp28
 70
     1
102
RTVSPropertyOp29
 70
     1
102
RTVSPropertyOp30
 70
     1
102
RTVSPropertyOp31
 70
     1
102
RTVSPropertyOp32
 70
     1
102
RTVSPropertyOp33
 70
     1
102
RTVSPropertyOp34
 70
     1
102
RTVSPropertyOp35
 70
     1
102
RTVSPropertyOp36
 70
     1
102
RTVSPropertyOp37
 70
     1
102
RTVSPropertyOp38
 70
     1
102
RTVSPropertyOp39
 70
     1
102
RTVSPropertyOp40
 70
     1
102
RTVSPropertyOp41
 70
     1
102
RTVSPropertyOp42
 70
     1
102
RTVSPropertyOp43
 70
     1
102
RTVSPropertyOp44
 70
     1
102
RTVSPropertyOp45
 70
     1
102
RTVSPropertyOp46
 70
     1
102
RTVSPropertyOp47
 70
     1
102
RTVSPropertyOp48
 70
     1
102
RTVSPropertyOp49
 70
     1
102
RTVSPropertyOp50
 70
     1
102
RTVSPropertyOp51
 70
     0
102
RTVSPropertyOp52
 70
     0
102
RTVSPropertyOp53
 70
     1
102
RTVSPropertyOp54
 70
     1
102
RTVSPropertyOp55
 70
     1
102
RTVSPropertyOp56
 70
     1
102
RTVSPropertyOp57
 70
     1
102
RTVSPost2010Prop28
280
     0
102
RTVSPost2010PropOp28
 70
     1
102
RTVSPost2010Prop29
280
     1
102
RTVSPost2010PropOp29
 70
     1
102
RTVSPost2010Prop30
280
     1
102
RTVSPost2010PropOp30
 70
     1
102
RTVSPost2010Prop31
280
     0
102
RTVSPost2010PropOp31
 70
     1
102
RTVSPost2010Prop32
280
     0
102
RTVSPost2010PropOp32
 70
     1
102
RTVSPost2010Prop33
280
     0
102
RTVSPost2010PropOp33
 70
     1
102
RTVSPost2010Prop34
280
     0
102
RTVSPost2010PropOp34
 70
     1
102
RTVSPost2010Prop35
280
     0
102
RTVSPost2010PropOp35
 70
     1
102
RTVSPost2010Prop36
280
     0
102
RTVSPost2010PropOp36
 70
     1
102
RTVSPost2010Prop37
 90
       50
102
RTVSPost2010PropOp37
 70
     1
102
RTVSPost2010Prop38
140
0.0
102
RTVSPost2010PropOp38
 70
     1
102
RTVSPost2010Prop39
140
1.0
102
RTVSPost2010PropOp39
 70
     1
102
RTVSPost2010Prop40
 90
        0
102
RTVSPost2010PropOp40
 70
     1
102
RTVSPost2010Prop41ColorIndex
 90
       18
102
RTVSPost2010Prop41ColorRGB
 90
        0
102
RTVSPost2010PropOp41
 70
     1
102
RTVSPost2010Prop42
 90
       50
102
RTVSPost2010PropOp42
 70
     1
102
RTVSPost2010Prop43
 90
        3
102
RTVSPost2010PropOp43
 70
     1
102
RTVSPost2010Prop44ColorIndex
 90
        5
102
RTVSPost2010Prop44ColorRGB
 90
      255
102
RTVSPost2010PropOp44
 70
     1
102
RTVSPost2010Prop45
280
     0
102
RTVSPost2010PropOp45
 70
     1
102
RTVSPost2010Prop46
 90
       50
102
RTVSPost2010PropOp46
 70
     1
102
RTVSPost2010Prop47
 90
       50
102
RTVSPost2010PropOp47
 70
     1
102
RTVSPost2010Prop48
 90
       50
102
RTVSPost2010PropOp48
 70
     1
102
RTVSPost2010Prop49
280
     0
102
RTVSPost2010PropOp49
 70
     1
102
RTVSPost2010Prop50
 90
       50
102
RTVSPost2010PropOp50
 70
     1
102
RTVSPost2010Prop51ColorIndex
 90
      256
102
RTVSPost2010Prop51ColorRGB
 90
-16777216
102
RTVSPost2010PropOp51
 70
     0
102
RTVSPost2010Prop52
140
1.0
102
RTVSPost2010PropOp52
 70
     0
102
RTVSPost2010Prop53
 90
        2
102
RTVSPost2010PropOp53
 70
     1
102
RTVSPost2010Prop54
  1
strokes_ogs.tif
102
RTVSPost2010PropOp54
 70
     1
102
RTVSPost2010Prop55
280
     0
102
RTVSPost2010PropOp55
 70
     1
102
RTVSPost2010Prop56
140
1.0
102
RTVSPost2010PropOp56
 70
     1
102
RTVSPost2010Prop57
140
1.0
102
RTVSPost2010PropOp57
 70
     1
  0
XRECORD
  5
290
102
{ACAD_REACTORS
330
28F
102
}
330
28F
100
AcDbXrecord
280
     1
102
RTVSPropertyOp0
 70
     0
102
RTVSPropertyOp1
 70
     0
102
RTVSPropertyOp2
 70
     0
102
RTVSPropertyOp3
 70
     0
102
RTVSPropertyOp4
 70
     0
102
RTVSPropertyOp5
 70
     0
102
RTVSPropertyOp6
 70
     0
102
RTVSPropertyOp7
 70
     0
102
RTVSPropertyOp8
 70
     0
102
RTVSPropertyOp9
 70
     0
102
RTVSPropertyOp10
 70
     0
102
RTVSPropertyOp11
 70
     0
102
RTVSPropertyOp12
 70
     0
102
RTVSPropertyOp13
 70
     0
102
RTVSPropertyOp14
 70
     2
102
RTVSPropertyOp15
 70
     0
102
RTVSPropertyOp16
 70
     0
102
RTVSPropertyOp17
 70
     0
102
RTVSPropertyOp18
 70
     0
102
RTVSPropertyOp19
 70
     0
102
RTVSPropertyOp20
 70
     0
102
RTVSPropertyOp21
 70
     0
102
RTVSPropertyOp22
 70
     0
102
RTVSPropertyOp23
 70
     0
102
RTVSPropertyOp24
 70
     0
102
RTVSPropertyOp25
 70
     0
102
RTVSPropertyOp26
 70
     0
102
RTVSPropertyOp27
 70
     0
102
RTVSPropertyOp28
 70
     0
102
RTVSPropertyOp29
 70
     0
102
RTVSPropertyOp30
 70
     0
102
RTVSPropertyOp31
 70
     0
102
RTVSPropertyOp32
 70
     0
102
RTVSPropertyOp33
 70
     0
102
RTVSPropertyOp34
 70
     0
102
RTVSPropertyOp35
 70
     0
102
RTVSPropertyOp36
 70
     0
102
RTVSPropertyOp37
 70
     0
102
RTVSPropertyOp38
 70
     0
102
RTVSPropertyOp39
 70
     0
102
RTVSPropertyOp40
 70
     0
102
RTVSPropertyOp41
 70
     0
102
RTVSPropertyOp42
 70
     0
102
RTVSPropertyOp43
 70
     0
102
RTVSPropertyOp44
 70
     0
102
RTVSPropertyOp45
 70
     0
102
RTVSPropertyOp46
 70
     0
102
RTVSPropertyOp47
 70
     0
102
RTVSPropertyOp48
 70
     0
102
RTVSPropertyOp49
 70
     0
102
RTVSPropertyOp50
 70
     0
102
RTVSPropertyOp51
 70
     0
102
RTVSPropertyOp52
 70
     0
102
RTVSPropertyOp53
 70
     0
102
RTVSPropertyOp54
 70
     0
102
RTVSPropertyOp55
 70
     0
102
RTVSPropertyOp56
 70
     0
102
RTVSPropertyOp57
 70
     0
102
RTVSPost2010Prop28
280
     0
102
RTVSPost2010PropOp28
 70
     0
102
RTVSPost2010Prop29
280
     1
102
RTVSPost2010PropOp29
 70
     0
102
RTVSPost2010Prop30
280
     1
102
RTVSPost2010PropOp30
 70
     0
102
RTVSPost2010Prop31
280
     0
102
RTVSPost2010PropOp31
 70
     0
102
RTVSPost2010Prop32
280
     0
102
RTVSPost2010PropOp32
 70
     0
102
RTVSPost2010Prop33
280
     0
102
RTVSPost2010PropOp33
 70
     0
102
RTVSPost2010Prop34
280
     0
102
RTVSPost2010PropOp34
 70
     0
102
RTVSPost2010Prop35
280
     0
102
RTVSPost2010PropOp35
 70
     0
102
RTVSPost2010Prop36
280
     0
102
RTVSPost2010PropOp36
 70
     0
102
RTVSPost2010Prop37
 90
       50
102
RTVSPost2010PropOp37
 70
     0
102
RTVSPost2010Prop38
140
0.0
102
RTVSPost2010PropOp38
 70
     0
102
RTVSPost2010Prop39
140
1.0
102
RTVSPost2010PropOp39
 70
     0
102
RTVSPost2010Prop40
 90
        0
102
RTVSPost2010PropOp40
 70
     0
102
RTVSPost2010Prop41ColorIndex
 90
       18
102
RTVSPost2010Prop41ColorRGB
 90
        0
102
RTVSPost2010PropOp41
 70
     0
102
RTVSPost2010Prop42
 90
       50
102
RTVSPost2010PropOp42
 70
     0
102
RTVSPost2010Prop43
 90
        3
102
RTVSPost2010PropOp43
 70
     0
102
RTVSPost2010Prop44ColorIndex
 90
        5
102
RTVSPost2010Prop44ColorRGB
 90
      255
102
RTVSPost2010PropOp44
 70
     0
102
RTVSPost2010Prop45
280
     0
102
RTVSPost2010PropOp45
 70
     0
102
RTVSPost2010Prop46
 90
       50
102
RTVSPost2010PropOp46
 70
     0
102
RTVSPost2010Prop47
 90
       50
102
RTVSPost2010PropOp47
 70
     0
102
RTVSPost2010Prop48
 90
       50
102
RTVSPost2010PropOp48
 70
     0
102
RTVSPost2010Prop49
280
     0
102
RTVSPost2010PropOp49
 70
     0
102
RTVSPost2010Prop50
 90
       50
102
RTVSPost2010PropOp50
 70
     0
102
RTVSPost2010Prop51ColorIndex
 90
      256
102
RTVSPost2010Prop51ColorRGB
 90
-16777216
102
RTVSPost2010PropOp51
 70
     0
102
RTVSPost2010Prop52
140
1.0
102
RTVSPost2010PropOp52
 70
     0
102
RTVSPost2010Prop53
 90
        2
102
RTVSPost2010PropOp53
 70
     0
102
RTVSPost2010Prop54
  1
strokes_ogs.tif
102
RTVSPost2010PropOp54
 70
     0
102
RTVSPost2010Prop55
280
     0
102
RTVSPost2010PropOp55
 70
     0
102
RTVSPost2010Prop56
140
1.0
102
RTVSPost2010PropOp56
 70
     0
102
RTVSPost2010Prop57
140
1.0
102
RTVSPost2010PropOp57
 70
     0
  0
XRECORD
  5
27E
102
{ACAD_REACTORS
330
27D
102
}
330
27D
100
AcDbXrecord
280
     1
102
RTVSPropertyOp0
 70
     1
102
RTVSPropertyOp1
 70
     1
102
RTVSPropertyOp2
 70
     1
102
RTVSPropertyOp3
 70
     1
102
RTVSPropertyOp4
 70
     1
102
RTVSPropertyOp5
 70
     1
102
RTVSPropertyOp6
 70
     1
102
RTVSPropertyOp7
 70
     1
102
RTVSPropertyOp8
 70
     1
102
RTVSPropertyOp9
 70
     1
102
RTVSPropertyOp10
 70
     1
102
RTVSPropertyOp11
 70
     1
102
RTVSPropertyOp12
 70
     1
102
RTVSPropertyOp13
 70
     1
102
RTVSPropertyOp14
 70
     1
102
RTVSPropertyOp15
 70
     1
102
RTVSPropertyOp16
 70
     1
102
RTVSPropertyOp17
 70
     1
102
RTVSPropertyOp18
 70
     1
102
RTVSPropertyOp19
 70
     1
102
RTVSPropertyOp20
 70
     1
102
RTVSPropertyOp21
 70
     1
102
RTVSPropertyOp22
 70
     1
102
RTVSPropertyOp23
 70
     1
102
RTVSPropertyOp24
 70
     1
102
RTVSPropertyOp25
 70
     1
102
RTVSPropertyOp26
 70
     1
102
RTVSPropertyOp27
 70
     1
102
RTVSPropertyOp28
 70
     1
102
RTVSPropertyOp29
 70
     1
102
RTVSPropertyOp30
 70
     1
102
RTVSPropertyOp31
 70
     1
102
RTVSPropertyOp32
 70
     1
102
RTVSPropertyOp33
 70
     1
102
RTVSPropertyOp34
 70
     1
102
RTVSPropertyOp35
 70
     1
102
RTVSPropertyOp36
 70
     1
102
RTVSPropertyOp37
 70
     1
102
RTVSPropertyOp38
 70
     1
102
RTVSPropertyOp39
 70
     1
102
RTVSPropertyOp40
 70
     1
102
RTVSPropertyOp41
 70
     1
102
RTVSPropertyOp42
 70
     1
102
RTVSPropertyOp43
 70
     1
102
RTVSPropertyOp44
 70
     1
102
RTVSPropertyOp45
 70
     1
102
RTVSPropertyOp46
 70
     1
102
RTVSPropertyOp47
 70
     1
102
RTVSPropertyOp48
 70
     1
102
RTVSPropertyOp49
 70
     1
102
RTVSPropertyOp50
 70
     1
102
RTVSPropertyOp51
 70
     0
102
RTVSPropertyOp52
 70
     0
102
RTVSPropertyOp53
 70
     1
102
RTVSPropertyOp54
 70
     1
102
RTVSPropertyOp55
 70
     1
102
RTVSPropertyOp56
 70
     1
102
RTVSPropertyOp57
 70
     1
102
RTVSPost2010Prop28
280
     0
102
RTVSPost2010PropOp28
 70
     1
102
RTVSPost2010Prop29
280
     1
102
RTVSPost2010PropOp29
 70
     1
102
RTVSPost2010Prop30
280
     1
102
RTVSPost2010PropOp30
 70
     1
102
RTVSPost2010Prop31
280
     0
102
RTVSPost2010PropOp31
 70
     1
102
RTVSPost2010Prop32
280
     0
102
RTVSPost2010PropOp32
 70
     1
102
RTVSPost2010Prop33
280
     0
102
RTVSPost2010PropOp33
 70
     1
102
RTVSPost2010Prop34
280
     0
102
RTVSPost2010PropOp34
 70
     1
102
RTVSPost2010Prop35
280
     0
102
RTVSPost2010PropOp35
 70
     1
102
RTVSPost2010Prop36
280
     0
102
RTVSPost2010PropOp36
 70
     1
102
RTVSPost2010Prop37
 90
       50
102
RTVSPost2010PropOp37
 70
     1
102
RTVSPost2010Prop38
140
0.0
102
RTVSPost2010PropOp38
 70
     1
102
RTVSPost2010Prop39
140
1.0
102
RTVSPost2010PropOp39
 70
     1
102
RTVSPost2010Prop40
 90
        0
102
RTVSPost2010PropOp40
 70
     1
102
RTVSPost2010Prop41ColorIndex
 90
       18
102
RTVSPost2010Prop41ColorRGB
 90
        0
102
RTVSPost2010PropOp41
 70
     1
102
RTVSPost2010Prop42
 90
       50
102
RTVSPost2010PropOp42
 70
     1
102
RTVSPost2010Prop43
 90
        3
102
RTVSPost2010PropOp43
 70
     1
102
RTVSPost2010Prop44ColorIndex
 90
        5
102
RTVSPost2010Prop44ColorRGB
 90
      255
102
RTVSPost2010PropOp44
 70
     1
102
RTVSPost2010Prop45
280
     0
102
RTVSPost2010PropOp45
 70
     1
102
RTVSPost2010Prop46
 90
       50
102
RTVSPost2010PropOp46
 70
     1
102
RTVSPost2010Prop47
 90
       50
102
RTVSPost2010PropOp47
 70
     1
102
RTVSPost2010Prop48
 90
       50
102
RTVSPost2010PropOp48
 70
     1
102
RTVSPost2010Prop49
280
     0
102
RTVSPost2010PropOp49
 70
     1
102
RTVSPost2010Prop50
 90
       50
102
RTVSPost2010PropOp50
 70
     1
102
RTVSPost2010Prop51ColorIndex
 90
      256
102
RTVSPost2010Prop51ColorRGB
 90
-16777216
102
RTVSPost2010PropOp51
 70
     0
102
RTVSPost2010Prop52
140
1.0
102
RTVSPost2010PropOp52
 70
     0
102
RTVSPost2010Prop53
 90
        2
102
RTVSPost2010PropOp53
 70
     1
102
RTVSPost2010Prop54
  1
strokes_ogs.tif
102
RTVSPost2010PropOp54
 70
     1
102
RTVSPost2010Prop55
280
     0
102
RTVSPost2010PropOp55
 70
     1
102
RTVSPost2010Prop56
140
1.0
102
RTVSPost2010PropOp56
 70
     1
102
RTVSPost2010Prop57
140
1.0
102
RTVSPost2010PropOp57
 70
     1
  0
XRECORD
  5
29C
102
{ACAD_REACTORS
330
29B
102
}
330
29B
100
AcDbXrecord
280
     1
102
RTVSPropertyOp0
 70
     1
102
RTVSPropertyOp1
 70
     1
102
RTVSPropertyOp2
 70
     1
102
RTVSPropertyOp3
 70
     1
102
RTVSPropertyOp4
 70
     1
102
RTVSPropertyOp5
 70
     1
102
RTVSPropertyOp6
 70
     1
102
RTVSPropertyOp7
 70
     1
102
RTVSPropertyOp8
 70
     1
102
RTVSPropertyOp9
 70
     1
102
RTVSPropertyOp10
 70
     1
102
RTVSPropertyOp11
 70
     1
102
RTVSPropertyOp12
 70
     1
102
RTVSPropertyOp13
 70
     1
102
RTVSPropertyOp14
 70
     1
102
RTVSPropertyOp15
 70
     1
102
RTVSPropertyOp16
 70
     1
102
RTVSPropertyOp17
 70
     1
102
RTVSPropertyOp18
 70
     1
102
RTVSPropertyOp19
 70
     1
102
RTVSPropertyOp20
 70
     1
102
RTVSPropertyOp21
 70
     1
102
RTVSPropertyOp22
 70
     1
102
RTVSPropertyOp23
 70
     1
102
RTVSPropertyOp24
 70
     1
102
RTVSPropertyOp25
 70
     1
102
RTVSPropertyOp26
 70
     1
102
RTVSPropertyOp27
 70
     1
102
RTVSPropertyOp28
 70
     1
102
RTVSPropertyOp29
 70
     1
102
RTVSPropertyOp30
 70
     1
102
RTVSPropertyOp31
 70
     1
102
RTVSPropertyOp32
 70
     1
102
RTVSPropertyOp33
 70
     1
102
RTVSPropertyOp34
 70
     1
102
RTVSPropertyOp35
 70
     1
102
RTVSPropertyOp36
 70
     1
102
RTVSPropertyOp37
 70
     1
102
RTVSPropertyOp38
 70
     1
102
RTVSPropertyOp39
 70
     1
102
RTVSPropertyOp40
 70
     1
102
RTVSPropertyOp41
 70
     1
102
RTVSPropertyOp42
 70
     1
102
RTVSPropertyOp43
 70
     1
102
RTVSPropertyOp44
 70
     1
102
RTVSPropertyOp45
 70
     1
102
RTVSPropertyOp46
 70
     1
102
RTVSPropertyOp47
 70
     1
102
RTVSPropertyOp48
 70
     1
102
RTVSPropertyOp49
 70
     1
102
RTVSPropertyOp50
 70
     1
102
RTVSPropertyOp51
 70
     0
102
RTVSPropertyOp52
 70
     0
102
RTVSPropertyOp53
 70
     1
102
RTVSPropertyOp54
 70
     1
102
RTVSPropertyOp55
 70
     1
102
RTVSPropertyOp56
 70
     1
102
RTVSPropertyOp57
 70
     1
102
RTVSPost2010Prop28
280
     0
102
RTVSPost2010PropOp28
 70
     1
102
RTVSPost2010Prop29
280
     1
102
RTVSPost2010PropOp29
 70
     1
102
RTVSPost2010Prop30
280
     1
102
RTVSPost2010PropOp30
 70
     1
102
RTVSPost2010Prop31
280
     0
102
RTVSPost2010PropOp31
 70
     1
102
RTVSPost2010Prop32
280
     0
102
RTVSPost2010PropOp32
 70
     1
102
RTVSPost2010Prop33
280
     0
102
RTVSPost2010PropOp33
 70
     1
102
RTVSPost2010Prop34
280
     0
102
RTVSPost2010PropOp34
 70
     1
102
RTVSPost2010Prop35
280
     0
102
RTVSPost2010PropOp35
 70
     1
102
RTVSPost2010Prop36
280
     0
102
RTVSPost2010PropOp36
 70
     1
102
RTVSPost2010Prop37
 90
       50
102
RTVSPost2010PropOp37
 70
     1
102
RTVSPost2010Prop38
140
0.0
102
RTVSPost2010PropOp38
 70
     1
102
RTVSPost2010Prop39
140
1.0
102
RTVSPost2010PropOp39
 70
     1
102
RTVSPost2010Prop40
 90
        0
102
RTVSPost2010PropOp40
 70
     1
102
RTVSPost2010Prop41ColorIndex
 90
       18
102
RTVSPost2010Prop41ColorRGB
 90
        0
102
RTVSPost2010PropOp41
 70
     1
102
RTVSPost2010Prop42
 90
       50
102
RTVSPost2010PropOp42
 70
     1
102
RTVSPost2010Prop43
 90
        3
102
RTVSPost2010PropOp43
 70
     1
102
RTVSPost2010Prop44ColorIndex
 90
        5
102
RTVSPost2010Prop44ColorRGB
 90
      255
102
RTVSPost2010PropOp44
 70
     1
102
RTVSPost2010Prop45
280
     0
102
RTVSPost2010PropOp45
 70
     1
102
RTVSPost2010Prop46
 90
       50
102
RTVSPost2010PropOp46
 70
     1
102
RTVSPost2010Prop47
 90
       50
102
RTVSPost2010PropOp47
 70
     1
102
RTVSPost2010Prop48
 90
       50
102
RTVSPost2010PropOp48
 70
     1
102
RTVSPost2010Prop49
280
     0
102
RTVSPost2010PropOp49
 70
     1
102
RTVSPost2010Prop50
 90
       50
102
RTVSPost2010PropOp50
 70
     1
102
RTVSPost2010Prop51ColorIndex
 90
      256
102
RTVSPost2010Prop51ColorRGB
 90
-16777216
102
RTVSPost2010PropOp51
 70
     0
102
RTVSPost2010Prop52
140
1.0
102
RTVSPost2010PropOp52
 70
     0
102
RTVSPost2010Prop53
 90
        2
102
RTVSPost2010PropOp53
 70
     1
102
RTVSPost2010Prop54
  1
strokes_ogs.tif
102
RTVSPost2010PropOp54
 70
     1
102
RTVSPost2010Prop55
280
     0
102
RTVSPost2010PropOp55
 70
     1
102
RTVSPost2010Prop56
140
1.0
102
RTVSPost2010PropOp56
 70
     1
102
RTVSPost2010Prop57
140
1.0
102
RTVSPost2010PropOp57
 70
     1
  0
XRECORD
  5
29A
102
{ACAD_REACTORS
330
299
102
}
330
299
100
AcDbXrecord
280
     1
102
RTVSPropertyOp0
 70
     1
102
RTVSPropertyOp1
 70
     1
102
RTVSPropertyOp2
 70
     1
102
RTVSPropertyOp3
 70
     1
102
RTVSPropertyOp4
 70
     1
102
RTVSPropertyOp5
 70
     1
102
RTVSPropertyOp6
 70
     1
102
RTVSPropertyOp7
 70
     1
102
RTVSPropertyOp8
 70
     1
102
RTVSPropertyOp9
 70
     1
102
RTVSPropertyOp10
 70
     1
102
RTVSPropertyOp11
 70
     1
102
RTVSPropertyOp12
 70
     1
102
RTVSPropertyOp13
 70
     1
102
RTVSPropertyOp14
 70
     1
102
RTVSPropertyOp15
 70
     1
102
RTVSPropertyOp16
 70
     1
102
RTVSPropertyOp17
 70
     1
102
RTVSPropertyOp18
 70
     1
102
RTVSPropertyOp19
 70
     1
102
RTVSPropertyOp20
 70
     1
102
RTVSPropertyOp21
 70
     1
102
RTVSPropertyOp22
 70
     1
102
RTVSPropertyOp23
 70
     1
102
RTVSPropertyOp24
 70
     1
102
RTVSPropertyOp25
 70
     1
102
RTVSPropertyOp26
 70
     1
102
RTVSPropertyOp27
 70
     1
102
RTVSPropertyOp28
 70
     1
102
RTVSPropertyOp29
 70
     1
102
RTVSPropertyOp30
 70
     1
102
RTVSPropertyOp31
 70
     1
102
RTVSPropertyOp32
 70
     1
102
RTVSPropertyOp33
 70
     1
102
RTVSPropertyOp34
 70
     1
102
RTVSPropertyOp35
 70
     1
102
RTVSPropertyOp36
 70
     1
102
RTVSPropertyOp37
 70
     1
102
RTVSPropertyOp38
 70
     1
102
RTVSPropertyOp39
 70
     1
102
RTVSPropertyOp40
 70
     1
102
RTVSPropertyOp41
 70
     1
102
RTVSPropertyOp42
 70
     1
102
RTVSPropertyOp43
 70
     1
102
RTVSPropertyOp44
 70
     1
102
RTVSPropertyOp45
 70
     1
102
RTVSPropertyOp46
 70
     1
102
RTVSPropertyOp47
 70
     1
102
RTVSPropertyOp48
 70
     1
102
RTVSPropertyOp49
 70
     1
102
RTVSPropertyOp50
 70
     1
102
RTVSPropertyOp51
 70
     0
102
RTVSPropertyOp52
 70
     0
102
RTVSPropertyOp53
 70
     1
102
RTVSPropertyOp54
 70
     1
102
RTVSPropertyOp55
 70
     1
102
RTVSPropertyOp56
 70
     1
102
RTVSPropertyOp57
 70
     1
102
RTVSPost2010Prop28
280
     0
102
RTVSPost2010PropOp28
 70
     1
102
RTVSPost2010Prop29
280
     1
102
RTVSPost2010PropOp29
 70
     1
102
RTVSPost2010Prop30
280
     1
102
RTVSPost2010PropOp30
 70
     1
102
RTVSPost2010Prop31
280
     0
102
RTVSPost2010PropOp31
 70
     1
102
RTVSPost2010Prop32
280
     0
102
RTVSPost2010PropOp32
 70
     1
102
RTVSPost2010Prop33
280
     0
102
RTVSPost2010PropOp33
 70
     1
102
RTVSPost2010Prop34
280
     0
102
RTVSPost2010PropOp34
 70
     1
102
RTVSPost2010Prop35
280
     0
102
RTVSPost2010PropOp35
 70
     1
102
RTVSPost2010Prop36
280
     0
102
RTVSPost2010PropOp36
 70
     1
102
RTVSPost2010Prop37
 90
       50
102
RTVSPost2010PropOp37
 70
     1
102
RTVSPost2010Prop38
140
0.0
102
RTVSPost2010PropOp38
 70
     1
102
RTVSPost2010Prop39
140
1.0
102
RTVSPost2010PropOp39
 70
     1
102
RTVSPost2010Prop40
 90
        0
102
RTVSPost2010PropOp40
 70
     1
102
RTVSPost2010Prop41ColorIndex
 90
       18
102
RTVSPost2010Prop41ColorRGB
 90
        0
102
RTVSPost2010PropOp41
 70
     1
102
RTVSPost2010Prop42
 90
       50
102
RTVSPost2010PropOp42
 70
     1
102
RTVSPost2010Prop43
 90
        3
102
RTVSPost2010PropOp43
 70
     1
102
RTVSPost2010Prop44ColorIndex
 90
        5
102
RTVSPost2010Prop44ColorRGB
 90
      255
102
RTVSPost2010PropOp44
 70
     1
102
RTVSPost2010Prop45
280
     0
102
RTVSPost2010PropOp45
 70
     1
102
RTVSPost2010Prop46
 90
       50
102
RTVSPost2010PropOp46
 70
     1
102
RTVSPost2010Prop47
 90
       50
102
RTVSPost2010PropOp47
 70
     1
102
RTVSPost2010Prop48
 90
       50
102
RTVSPost2010PropOp48
 70
     1
102
RTVSPost2010Prop49
280
     0
102
RTVSPost2010PropOp49
 70
     1
102
RTVSPost2010Prop50
 90
       50
102
RTVSPost2010PropOp50
 70
     1
102
RTVSPost2010Prop51ColorIndex
 90
      256
102
RTVSPost2010Prop51ColorRGB
 90
-16777216
102
RTVSPost2010PropOp51
 70
     0
102
RTVSPost2010Prop52
140
1.0
102
RTVSPost2010PropOp52
 70
     0
102
RTVSPost2010Prop53
 90
        2
102
RTVSPost2010PropOp53
 70
     1
102
RTVSPost2010Prop54
  1
strokes_ogs.tif
102
RTVSPost2010PropOp54
 70
     1
102
RTVSPost2010Prop55
280
     0
102
RTVSPost2010PropOp55
 70
     1
102
RTVSPost2010Prop56
140
1.0
102
RTVSPost2010PropOp56
 70
     1
102
RTVSPost2010Prop57
140
1.0
102
RTVSPost2010PropOp57
 70
     1
  0
XRECORD
  5
294
102
{ACAD_REACTORS
330
293
102
}
330
293
100
AcDbXrecord
280
     1
102
RTVSPropertyOp0
 70
     1
102
RTVSPropertyOp1
 70
     1
102
RTVSPropertyOp2
 70
     1
102
RTVSPropertyOp3
 70
     1
102
RTVSPropertyOp4
 70
     1
102
RTVSPropertyOp5
 70
     1
102
RTVSPropertyOp6
 70
     1
102
RTVSPropertyOp7
 70
     1
102
RTVSPropertyOp8
 70
     1
102
RTVSPropertyOp9
 70
     1
102
RTVSPropertyOp10
 70
     1
102
RTVSPropertyOp11
 70
     1
102
RTVSPropertyOp12
 70
     1
102
RTVSPropertyOp13
 70
     1
102
RTVSPropertyOp14
 70
     1
102
RTVSPropertyOp15
 70
     1
102
RTVSPropertyOp16
 70
     1
102
RTVSPropertyOp17
 70
     1
102
RTVSPropertyOp18
 70
     1
102
RTVSPropertyOp19
 70
     1
102
RTVSPropertyOp20
 70
     1
102
RTVSPropertyOp21
 70
     1
102
RTVSPropertyOp22
 70
     1
102
RTVSPropertyOp23
 70
     1
102
RTVSPropertyOp24
 70
     1
102
RTVSPropertyOp25
 70
     1
102
RTVSPropertyOp26
 70
     1
102
RTVSPropertyOp27
 70
     1
102
RTVSPropertyOp28
 70
     1
102
RTVSPropertyOp29
 70
     1
102
RTVSPropertyOp30
 70
     1
102
RTVSPropertyOp31
 70
     1
102
RTVSPropertyOp32
 70
     1
102
RTVSPropertyOp33
 70
     1
102
RTVSPropertyOp34
 70
     1
102
RTVSPropertyOp35
 70
     1
102
RTVSPropertyOp36
 70
     1
102
RTVSPropertyOp37
 70
     1
102
RTVSPropertyOp38
 70
     1
102
RTVSPropertyOp39
 70
     1
102
RTVSPropertyOp40
 70
     1
102
RTVSPropertyOp41
 70
     1
102
RTVSPropertyOp42
 70
     1
102
RTVSPropertyOp43
 70
     1
102
RTVSPropertyOp44
 70
     1
102
RTVSPropertyOp45
 70
     1
102
RTVSPropertyOp46
 70
     1
102
RTVSPropertyOp47
 70
     1
102
RTVSPropertyOp48
 70
     1
102
RTVSPropertyOp49
 70
     1
102
RTVSPropertyOp50
 70
     1
102
RTVSPropertyOp51
 70
     0
102
RTVSPropertyOp52
 70
     0
102
RTVSPropertyOp53
 70
     1
102
RTVSPropertyOp54
 70
     1
102
RTVSPropertyOp55
 70
     1
102
RTVSPropertyOp56
 70
     1
102
RTVSPropertyOp57
 70
     1
102
RTVSPost2010Prop28
280
     0
102
RTVSPost2010PropOp28
 70
     1
102
RTVSPost2010Prop29
280
     1
102
RTVSPost2010PropOp29
 70
     1
102
RTVSPost2010Prop30
280
     1
102
RTVSPost2010PropOp30
 70
     1
102
RTVSPost2010Prop31
280
     0
102
RTVSPost2010PropOp31
 70
     1
102
RTVSPost2010Prop32
280
     0
102
RTVSPost2010PropOp32
 70
     1
102
RTVSPost2010Prop33
280
     0
102
RTVSPost2010PropOp33
 70
     1
102
RTVSPost2010Prop34
280
     0
102
RTVSPost2010PropOp34
 70
     1
102
RTVSPost2010Prop35
280
     0
102
RTVSPost2010PropOp35
 70
     1
102
RTVSPost2010Prop36
280
     0
102
RTVSPost2010PropOp36
 70
     1
102
RTVSPost2010Prop37
 90
       50
102
RTVSPost2010PropOp37
 70
     1
102
RTVSPost2010Prop38
140
0.0
102
RTVSPost2010PropOp38
 70
     1
102
RTVSPost2010Prop39
140
1.0
102
RTVSPost2010PropOp39
 70
     1
102
RTVSPost2010Prop40
 90
        0
102
RTVSPost2010PropOp40
 70
     1
102
RTVSPost2010Prop41ColorIndex
 90
       18
102
RTVSPost2010Prop41ColorRGB
 90
        0
102
RTVSPost2010PropOp41
 70
     1
102
RTVSPost2010Prop42
 90
       50
102
RTVSPost2010PropOp42
 70
     1
102
RTVSPost2010Prop43
 90
        3
102
RTVSPost2010PropOp43
 70
     1
102
RTVSPost2010Prop44ColorIndex
 90
        5
102
RTVSPost2010Prop44ColorRGB
 90
      255
102
RTVSPost2010PropOp44
 70
     1
102
RTVSPost2010Prop45
280
     0
102
RTVSPost2010PropOp45
 70
     1
102
RTVSPost2010Prop46
 90
       50
102
RTVSPost2010PropOp46
 70
     1
102
RTVSPost2010Prop47
 90
       50
102
RTVSPost2010PropOp47
 70
     1
102
RTVSPost2010Prop48
 90
       50
102
RTVSPost2010PropOp48
 70
     1
102
RTVSPost2010Prop49
280
     0
102
RTVSPost2010PropOp49
 70
     1
102
RTVSPost2010Prop50
 90
       50
102
RTVSPost2010PropOp50
 70
     1
102
RTVSPost2010Prop51ColorIndex
 90
      256
102
RTVSPost2010Prop51ColorRGB
 90
-16777216
102
RTVSPost2010PropOp51
 70
     0
102
RTVSPost2010Prop52
140
1.0
102
RTVSPost2010PropOp52
 70
     0
102
RTVSPost2010Prop53
 90
        2
102
RTVSPost2010PropOp53
 70
     1
102
RTVSPost2010Prop54
  1
strokes_ogs.tif
102
RTVSPost2010PropOp54
 70
     1
102
RTVSPost2010Prop55
280
     0
102
RTVSPost2010PropOp55
 70
     1
102
RTVSPost2010Prop56
140
1.0
102
RTVSPost2010PropOp56
 70
     1
102
RTVSPost2010Prop57
140
1.0
102
RTVSPost2010PropOp57
 70
     1
  0
XRECORD
  5
296
102
{ACAD_REACTORS
330
295
102
}
330
295
100
AcDbXrecord
280
     1
102
RTVSPropertyOp0
 70
     1
102
RTVSPropertyOp1
 70
     1
102
RTVSPropertyOp2
 70
     1
102
RTVSPropertyOp3
 70
     1
102
RTVSPropertyOp4
 70
     1
102
RTVSPropertyOp5
 70
     1
102
RTVSPropertyOp6
 70
     1
102
RTVSPropertyOp7
 70
     1
102
RTVSPropertyOp8
 70
     1
102
RTVSPropertyOp9
 70
     1
102
RTVSPropertyOp10
 70
     1
102
RTVSPropertyOp11
 70
     1
102
RTVSPropertyOp12
 70
     1
102
RTVSPropertyOp13
 70
     1
102
RTVSPropertyOp14
 70
     1
102
RTVSPropertyOp15
 70
     1
102
RTVSPropertyOp16
 70
     1
102
RTVSPropertyOp17
 70
     1
102
RTVSPropertyOp18
 70
     1
102
RTVSPropertyOp19
 70
     1
102
RTVSPropertyOp20
 70
     1
102
RTVSPropertyOp21
 70
     1
102
RTVSPropertyOp22
 70
     1
102
RTVSPropertyOp23
 70
     1
102
RTVSPropertyOp24
 70
     1
102
RTVSPropertyOp25
 70
     1
102
RTVSPropertyOp26
 70
     1
102
RTVSPropertyOp27
 70
     1
102
RTVSPropertyOp28
 70
     1
102
RTVSPropertyOp29
 70
     1
102
RTVSPropertyOp30
 70
     1
102
RTVSPropertyOp31
 70
     1
102
RTVSPropertyOp32
 70
     1
102
RTVSPropertyOp33
 70
     1
102
RTVSPropertyOp34
 70
     1
102
RTVSPropertyOp35
 70
     1
102
RTVSPropertyOp36
 70
     1
102
RTVSPropertyOp37
 70
     1
102
RTVSPropertyOp38
 70
     1
102
RTVSPropertyOp39
 70
     1
102
RTVSPropertyOp40
 70
     1
102
RTVSPropertyOp41
 70
     1
102
RTVSPropertyOp42
 70
     1
102
RTVSPropertyOp43
 70
     1
102
RTVSPropertyOp44
 70
     1
102
RTVSPropertyOp45
 70
     1
102
RTVSPropertyOp46
 70
     1
102
RTVSPropertyOp47
 70
     1
102
RTVSPropertyOp48
 70
     1
102
RTVSPropertyOp49
 70
     1
102
RTVSPropertyOp50
 70
     1
102
RTVSPropertyOp51
 70
     0
102
RTVSPropertyOp52
 70
     0
102
RTVSPropertyOp53
 70
     1
102
RTVSPropertyOp54
 70
     1
102
RTVSPropertyOp55
 70
     1
102
RTVSPropertyOp56
 70
     1
102
RTVSPropertyOp57
 70
     1
102
RTVSPost2010Prop28
280
     0
102
RTVSPost2010PropOp28
 70
     1
102
RTVSPost2010Prop29
280
     1
102
RTVSPost2010PropOp29
 70
     1
102
RTVSPost2010Prop30
280
     1
102
RTVSPost2010PropOp30
 70
     1
102
RTVSPost2010Prop31
280
     0
102
RTVSPost2010PropOp31
 70
     1
102
RTVSPost2010Prop32
280
     0
102
RTVSPost2010PropOp32
 70
     1
102
RTVSPost2010Prop33
280
     0
102
RTVSPost2010PropOp33
 70
     1
102
RTVSPost2010Prop34
280
     0
102
RTVSPost2010PropOp34
 70
     1
102
RTVSPost2010Prop35
280
     0
102
RTVSPost2010PropOp35
 70
     1
102
RTVSPost2010Prop36
280
     0
102
RTVSPost2010PropOp36
 70
     1
102
RTVSPost2010Prop37
 90
       50
102
RTVSPost2010PropOp37
 70
     1
102
RTVSPost2010Prop38
140
0.0
102
RTVSPost2010PropOp38
 70
     1
102
RTVSPost2010Prop39
140
1.0
102
RTVSPost2010PropOp39
 70
     1
102
RTVSPost2010Prop40
 90
        0
102
RTVSPost2010PropOp40
 70
     1
102
RTVSPost2010Prop41ColorIndex
 90
       18
102
RTVSPost2010Prop41ColorRGB
 90
        0
102
RTVSPost2010PropOp41
 70
     1
102
RTVSPost2010Prop42
 90
       50
102
RTVSPost2010PropOp42
 70
     1
102
RTVSPost2010Prop43
 90
        3
102
RTVSPost2010PropOp43
 70
     1
102
RTVSPost2010Prop44ColorIndex
 90
        5
102
RTVSPost2010Prop44ColorRGB
 90
      255
102
RTVSPost2010PropOp44
 70
     1
102
RTVSPost2010Prop45
280
     0
102
RTVSPost2010PropOp45
 70
     1
102
RTVSPost2010Prop46
 90
       50
102
RTVSPost2010PropOp46
 70
     1
102
RTVSPost2010Prop47
 90
       50
102
RTVSPost2010PropOp47
 70
     1
102
RTVSPost2010Prop48
 90
       50
102
RTVSPost2010PropOp48
 70
     1
102
RTVSPost2010Prop49
280
     0
102
RTVSPost2010PropOp49
 70
     1
102
RTVSPost2010Prop50
 90
       50
102
RTVSPost2010PropOp50
 70
     1
102
RTVSPost2010Prop51ColorIndex
 90
      256
102
RTVSPost2010Prop51ColorRGB
 90
-16777216
102
RTVSPost2010PropOp51
 70
     0
102
RTVSPost2010Prop52
140
1.0
102
RTVSPost2010PropOp52
 70
     0
102
RTVSPost2010Prop53
 90
        2
102
RTVSPost2010PropOp53
 70
     1
102
RTVSPost2010Prop54
  1
strokes_ogs.tif
102
RTVSPost2010PropOp54
 70
     1
102
RTVSPost2010Prop55
280
     0
102
RTVSPost2010PropOp55
 70
     1
102
RTVSPost2010Prop56
140
1.0
102
RTVSPost2010PropOp56
 70
     1
102
RTVSPost2010Prop57
140
1.0
102
RTVSPost2010PropOp57
 70
     1
  0
XRECORD
  5
286
102
{ACAD_REACTORS
330
285
102
}
330
285
100
AcDbXrecord
280
     1
102
RTVSPropertyOp0
 70
     1
102
RTVSPropertyOp1
 70
     1
102
RTVSPropertyOp2
 70
     1
102
RTVSPropertyOp3
 70
     1
102
RTVSPropertyOp4
 70
     1
102
RTVSPropertyOp5
 70
     1
102
RTVSPropertyOp6
 70
     1
102
RTVSPropertyOp7
 70
     1
102
RTVSPropertyOp8
 70
     1
102
RTVSPropertyOp9
 70
     1
102
RTVSPropertyOp10
 70
     1
102
RTVSPropertyOp11
 70
     1
102
RTVSPropertyOp12
 70
     1
102
RTVSPropertyOp13
 70
     1
102
RTVSPropertyOp14
 70
     1
102
RTVSPropertyOp15
 70
     1
102
RTVSPropertyOp16
 70
     1
102
RTVSPropertyOp17
 70
     1
102
RTVSPropertyOp18
 70
     1
102
RTVSPropertyOp19
 70
     1
102
RTVSPropertyOp20
 70
     1
102
RTVSPropertyOp21
 70
     1
102
RTVSPropertyOp22
 70
     1
102
RTVSPropertyOp23
 70
     1
102
RTVSPropertyOp24
 70
     1
102
RTVSPropertyOp25
 70
     1
102
RTVSPropertyOp26
 70
     1
102
RTVSPropertyOp27
 70
     1
102
RTVSPropertyOp28
 70
     1
102
RTVSPropertyOp29
 70
     1
102
RTVSPropertyOp30
 70
     1
102
RTVSPropertyOp31
 70
     1
102
RTVSPropertyOp32
 70
     1
102
RTVSPropertyOp33
 70
     1
102
RTVSPropertyOp34
 70
     1
102
RTVSPropertyOp35
 70
     1
102
RTVSPropertyOp36
 70
     1
102
RTVSPropertyOp37
 70
     1
102
RTVSPropertyOp38
 70
     1
102
RTVSPropertyOp39
 70
     1
102
RTVSPropertyOp40
 70
     1
102
RTVSPropertyOp41
 70
     1
102
RTVSPropertyOp42
 70
     1
102
RTVSPropertyOp43
 70
     1
102
RTVSPropertyOp44
 70
     1
102
RTVSPropertyOp45
 70
     1
102
RTVSPropertyOp46
 70
     1
102
RTVSPropertyOp47
 70
     1
102
RTVSPropertyOp48
 70
     1
102
RTVSPropertyOp49
 70
     1
102
RTVSPropertyOp50
 70
     1
102
RTVSPropertyOp51
 70
     0
102
RTVSPropertyOp52
 70
     0
102
RTVSPropertyOp53
 70
     1
102
RTVSPropertyOp54
 70
     1
102
RTVSPropertyOp55
 70
     1
102
RTVSPropertyOp56
 70
     1
102
RTVSPropertyOp57
 70
     1
102
RTVSPost2010Prop28
280
     0
102
RTVSPost2010PropOp28
 70
     1
102
RTVSPost2010Prop29
280
     1
102
RTVSPost2010PropOp29
 70
     1
102
RTVSPost2010Prop30
280
     1
102
RTVSPost2010PropOp30
 70
     1
102
RTVSPost2010Prop31
280
     0
102
RTVSPost2010PropOp31
 70
     1
102
RTVSPost2010Prop32
280
     0
102
RTVSPost2010PropOp32
 70
     1
102
RTVSPost2010Prop33
280
     0
102
RTVSPost2010PropOp33
 70
     1
102
RTVSPost2010Prop34
280
     0
102
RTVSPost2010PropOp34
 70
     1
102
RTVSPost2010Prop35
280
     0
102
RTVSPost2010PropOp35
 70
     1
102
RTVSPost2010Prop36
280
     0
102
RTVSPost2010PropOp36
 70
     1
102
RTVSPost2010Prop37
 90
       50
102
RTVSPost2010PropOp37
 70
     1
102
RTVSPost2010Prop38
140
0.0
102
RTVSPost2010PropOp38
 70
     1
102
RTVSPost2010Prop39
140
1.0
102
RTVSPost2010PropOp39
 70
     1
102
RTVSPost2010Prop40
 90
        0
102
RTVSPost2010PropOp40
 70
     1
102
RTVSPost2010Prop41ColorIndex
 90
       18
102
RTVSPost2010Prop41ColorRGB
 90
        0
102
RTVSPost2010PropOp41
 70
     1
102
RTVSPost2010Prop42
 90
       50
102
RTVSPost2010PropOp42
 70
     1
102
RTVSPost2010Prop43
 90
        3
102
RTVSPost2010PropOp43
 70
     1
102
RTVSPost2010Prop44ColorIndex
 90
        5
102
RTVSPost2010Prop44ColorRGB
 90
      255
102
RTVSPost2010PropOp44
 70
     1
102
RTVSPost2010Prop45
280
     0
102
RTVSPost2010PropOp45
 70
     1
102
RTVSPost2010Prop46
 90
       50
102
RTVSPost2010PropOp46
 70
     1
102
RTVSPost2010Prop47
 90
       50
102
RTVSPost2010PropOp47
 70
     1
102
RTVSPost2010Prop48
 90
       50
102
RTVSPost2010PropOp48
 70
     1
102
RTVSPost2010Prop49
280
     0
102
RTVSPost2010PropOp49
 70
     1
102
RTVSPost2010Prop50
 90
       50
102
RTVSPost2010PropOp50
 70
     1
102
RTVSPost2010Prop51ColorIndex
 90
      256
102
RTVSPost2010Prop51ColorRGB
 90
-16777216
102
RTVSPost2010PropOp51
 70
     0
102
RTVSPost2010Prop52
140
1.0
102
RTVSPost2010PropOp52
 70
     0
102
RTVSPost2010Prop53
 90
        2
102
RTVSPost2010PropOp53
 70
     1
102
RTVSPost2010Prop54
  1
strokes_ogs.tif
102
RTVSPost2010PropOp54
 70
     1
102
RTVSPost2010Prop55
280
     0
102
RTVSPost2010PropOp55
 70
     1
102
RTVSPost2010Prop56
140
1.0
102
RTVSPost2010PropOp56
 70
     1
102
RTVSPost2010Prop57
140
1.0
102
RTVSPost2010PropOp57
 70
     1
  0
XRECORD
  5
278
102
{ACAD_REACTORS
330
277
102
}
330
277
100
AcDbXrecord
280
     1
102
RTVSPropertyOp0
 70
     1
102
RTVSPropertyOp1
 70
     1
102
RTVSPropertyOp2
 70
     1
102
RTVSPropertyOp3
 70
     1
102
RTVSPropertyOp4
 70
     1
102
RTVSPropertyOp5
 70
     1
102
RTVSPropertyOp6
 70
     1
102
RTVSPropertyOp7
 70
     1
102
RTVSPropertyOp8
 70
     1
102
RTVSPropertyOp9
 70
     1
102
RTVSPropertyOp10
 70
     1
102
RTVSPropertyOp11
 70
     1
102
RTVSPropertyOp12
 70
     1
102
RTVSPropertyOp13
 70
     1
102
RTVSPropertyOp14
 70
     1
102
RTVSPropertyOp15
 70
     1
102
RTVSPropertyOp16
 70
     1
102
RTVSPropertyOp17
 70
     1
102
RTVSPropertyOp18
 70
     1
102
RTVSPropertyOp19
 70
     1
102
RTVSPropertyOp20
 70
     1
102
RTVSPropertyOp21
 70
     1
102
RTVSPropertyOp22
 70
     1
102
RTVSPropertyOp23
 70
     1
102
RTVSPropertyOp24
 70
     1
102
RTVSPropertyOp25
 70
     1
102
RTVSPropertyOp26
 70
     1
102
RTVSPropertyOp27
 70
     1
102
RTVSPropertyOp28
 70
     1
102
RTVSPropertyOp29
 70
     1
102
RTVSPropertyOp30
 70
     1
102
RTVSPropertyOp31
 70
     1
102
RTVSPropertyOp32
 70
     1
102
RTVSPropertyOp33
 70
     1
102
RTVSPropertyOp34
 70
     1
102
RTVSPropertyOp35
 70
     1
102
RTVSPropertyOp36
 70
     1
102
RTVSPropertyOp37
 70
     1
102
RTVSPropertyOp38
 70
     1
102
RTVSPropertyOp39
 70
     1
102
RTVSPropertyOp40
 70
     1
102
RTVSPropertyOp41
 70
     1
102
RTVSPropertyOp42
 70
     1
102
RTVSPropertyOp43
 70
     1
102
RTVSPropertyOp44
 70
     1
102
RTVSPropertyOp45
 70
     1
102
RTVSPropertyOp46
 70
     1
102
RTVSPropertyOp47
 70
     1
102
RTVSPropertyOp48
 70
     1
102
RTVSPropertyOp49
 70
     1
102
RTVSPropertyOp50
 70
     1
102
RTVSPropertyOp51
 70
     0
102
RTVSPropertyOp52
 70
     0
102
RTVSPropertyOp53
 70
     1
102
RTVSPropertyOp54
 70
     1
102
RTVSPropertyOp55
 70
     1
102
RTVSPropertyOp56
 70
     1
102
RTVSPropertyOp57
 70
     1
102
RTVSPost2010Prop28
280
     0
102
RTVSPost2010PropOp28
 70
     1
102
RTVSPost2010Prop29
280
     1
102
RTVSPost2010PropOp29
 70
     1
102
RTVSPost2010Prop30
280
     1
102
RTVSPost2010PropOp30
 70
     1
102
RTVSPost2010Prop31
280
     0
102
RTVSPost2010PropOp31
 70
     1
102
RTVSPost2010Prop32
280
     0
102
RTVSPost2010PropOp32
 70
     1
102
RTVSPost2010Prop33
280
     0
102
RTVSPost2010PropOp33
 70
     1
102
RTVSPost2010Prop34
280
     0
102
RTVSPost2010PropOp34
 70
     1
102
RTVSPost2010Prop35
280
     0
102
RTVSPost2010PropOp35
 70
     1
102
RTVSPost2010Prop36
280
     0
102
RTVSPost2010PropOp36
 70
     1
102
RTVSPost2010Prop37
 90
       50
102
RTVSPost2010PropOp37
 70
     1
102
RTVSPost2010Prop38
140
0.0
102
RTVSPost2010PropOp38
 70
     1
102
RTVSPost2010Prop39
140
1.0
102
RTVSPost2010PropOp39
 70
     1
102
RTVSPost2010Prop40
 90
        0
102
RTVSPost2010PropOp40
 70
     1
102
RTVSPost2010Prop41ColorIndex
 90
       18
102
RTVSPost2010Prop41ColorRGB
 90
        0
102
RTVSPost2010PropOp41
 70
     1
102
RTVSPost2010Prop42
 90
       50
102
RTVSPost2010PropOp42
 70
     1
102
RTVSPost2010Prop43
 90
        3
102
RTVSPost2010PropOp43
 70
     1
102
RTVSPost2010Prop44ColorIndex
 90
        5
102
RTVSPost2010Prop44ColorRGB
 90
      255
102
RTVSPost2010PropOp44
 70
     1
102
RTVSPost2010Prop45
280
     0
102
RTVSPost2010PropOp45
 70
     1
102
RTVSPost2010Prop46
 90
       50
102
RTVSPost2010PropOp46
 70
     1
102
RTVSPost2010Prop47
 90
       50
102
RTVSPost2010PropOp47
 70
     1
102
RTVSPost2010Prop48
 90
       50
102
RTVSPost2010PropOp48
 70
     1
102
RTVSPost2010Prop49
280
     0
102
RTVSPost2010PropOp49
 70
     1
102
RTVSPost2010Prop50
 90
       50
102
RTVSPost2010PropOp50
 70
     1
102
RTVSPost2010Prop51ColorIndex
 90
      256
102
RTVSPost2010Prop51ColorRGB
 90
-16777216
102
RTVSPost2010PropOp51
 70
     0
102
RTVSPost2010Prop52
140
1.0
102
RTVSPost2010PropOp52
 70
     0
102
RTVSPost2010Prop53
 90
        2
102
RTVSPost2010PropOp53
 70
     1
102
RTVSPost2010Prop54
  1
strokes_ogs.tif
102
RTVSPost2010PropOp54
 70
     1
102
RTVSPost2010Prop55
280
     0
102
RTVSPost2010PropOp55
 70
     1
102
RTVSPost2010Prop56
140
1.0
102
RTVSPost2010PropOp56
 70
     1
102
RTVSPost2010Prop57
140
1.0
102
RTVSPost2010PropOp57
 70
     1
  0
XRECORD
  5
298
102
{ACAD_REACTORS
330
297
102
}
330
297
100
AcDbXrecord
280
     1
102
RTVSPropertyOp0
 70
     1
102
RTVSPropertyOp1
 70
     1
102
RTVSPropertyOp2
 70
     1
102
RTVSPropertyOp3
 70
     1
102
RTVSPropertyOp4
 70
     1
102
RTVSPropertyOp5
 70
     1
102
RTVSPropertyOp6
 70
     1
102
RTVSPropertyOp7
 70
     1
102
RTVSPropertyOp8
 70
     1
102
RTVSPropertyOp9
 70
     1
102
RTVSPropertyOp10
 70
     1
102
RTVSPropertyOp11
 70
     1
102
RTVSPropertyOp12
 70
     1
102
RTVSPropertyOp13
 70
     1
102
RTVSPropertyOp14
 70
     1
102
RTVSPropertyOp15
 70
     1
102
RTVSPropertyOp16
 70
     1
102
RTVSPropertyOp17
 70
     1
102
RTVSPropertyOp18
 70
     1
102
RTVSPropertyOp19
 70
     1
102
RTVSPropertyOp20
 70
     1
102
RTVSPropertyOp21
 70
     1
102
RTVSPropertyOp22
 70
     1
102
RTVSPropertyOp23
 70
     1
102
RTVSPropertyOp24
 70
     1
102
RTVSPropertyOp25
 70
     1
102
RTVSPropertyOp26
 70
     1
102
RTVSPropertyOp27
 70
     1
102
RTVSPropertyOp28
 70
     1
102
RTVSPropertyOp29
 70
     1
102
RTVSPropertyOp30
 70
     1
102
RTVSPropertyOp31
 70
     1
102
RTVSPropertyOp32
 70
     1
102
RTVSPropertyOp33
 70
     1
102
RTVSPropertyOp34
 70
     1
102
RTVSPropertyOp35
 70
     1
102
RTVSPropertyOp36
 70
     1
102
RTVSPropertyOp37
 70
     1
102
RTVSPropertyOp38
 70
     1
102
RTVSPropertyOp39
 70
     1
102
RTVSPropertyOp40
 70
     1
102
RTVSPropertyOp41
 70
     1
102
RTVSPropertyOp42
 70
     1
102
RTVSPropertyOp43
 70
     1
102
RTVSPropertyOp44
 70
     1
102
RTVSPropertyOp45
 70
     1
102
RTVSPropertyOp46
 70
     1
102
RTVSPropertyOp47
 70
     1
102
RTVSPropertyOp48
 70
     1
102
RTVSPropertyOp49
 70
     1
102
RTVSPropertyOp50
 70
     1
102
RTVSPropertyOp51
 70
     0
102
RTVSPropertyOp52
 70
     0
102
RTVSPropertyOp53
 70
     1
102
RTVSPropertyOp54
 70
     1
102
RTVSPropertyOp55
 70
     1
102
RTVSPropertyOp56
 70
     1
102
RTVSPropertyOp57
 70
     1
102
RTVSPost2010Prop28
280
     0
102
RTVSPost2010PropOp28
 70
     1
102
RTVSPost2010Prop29
280
     1
102
RTVSPost2010PropOp29
 70
     1
102
RTVSPost2010Prop30
280
     1
102
RTVSPost2010PropOp30
 70
     1
102
RTVSPost2010Prop31
280
     0
102
RTVSPost2010PropOp31
 70
     1
102
RTVSPost2010Prop32
280
     0
102
RTVSPost2010PropOp32
 70
     1
102
RTVSPost2010Prop33
280
     0
102
RTVSPost2010PropOp33
 70
     1
102
RTVSPost2010Prop34
280
     0
102
RTVSPost2010PropOp34
 70
     1
102
RTVSPost2010Prop35
280
     0
102
RTVSPost2010PropOp35
 70
     1
102
RTVSPost2010Prop36
280
     0
102
RTVSPost2010PropOp36
 70
     1
102
RTVSPost2010Prop37
 90
       50
102
RTVSPost2010PropOp37
 70
     1
102
RTVSPost2010Prop38
140
0.0
102
RTVSPost2010PropOp38
 70
     1
102
RTVSPost2010Prop39
140
1.0
102
RTVSPost2010PropOp39
 70
     1
102
RTVSPost2010Prop40
 90
        0
102
RTVSPost2010PropOp40
 70
     1
102
RTVSPost2010Prop41ColorIndex
 90
       18
102
RTVSPost2010Prop41ColorRGB
 90
        0
102
RTVSPost2010PropOp41
 70
     1
102
RTVSPost2010Prop42
 90
       50
102
RTVSPost2010PropOp42
 70
     1
102
RTVSPost2010Prop43
 90
        3
102
RTVSPost2010PropOp43
 70
     1
102
RTVSPost2010Prop44ColorIndex
 90
        5
102
RTVSPost2010Prop44ColorRGB
 90
      255
102
RTVSPost2010PropOp44
 70
     1
102
RTVSPost2010Prop45
280
     0
102
RTVSPost2010PropOp45
 70
     1
102
RTVSPost2010Prop46
 90
       50
102
RTVSPost2010PropOp46
 70
     1
102
RTVSPost2010Prop47
 90
       50
102
RTVSPost2010PropOp47
 70
     1
102
RTVSPost2010Prop48
 90
       50
102
RTVSPost2010PropOp48
 70
     1
102
RTVSPost2010Prop49
280
     0
102
RTVSPost2010PropOp49
 70
     1
102
RTVSPost2010Prop50
 90
       50
102
RTVSPost2010PropOp50
 70
     1
102
RTVSPost2010Prop51ColorIndex
 90
      256
102
RTVSPost2010Prop51ColorRGB
 90
-16777216
102
RTVSPost2010PropOp51
 70
     0
102
RTVSPost2010Prop52
140
1.0
102
RTVSPost2010PropOp52
 70
     0
102
RTVSPost2010Prop53
 90
        2
102
RTVSPost2010PropOp53
 70
     1
102
RTVSPost2010Prop54
  1
strokes_ogs.tif
102
RTVSPost2010PropOp54
 70
     1
102
RTVSPost2010Prop55
280
     0
102
RTVSPost2010PropOp55
 70
     1
102
RTVSPost2010Prop56
140
1.0
102
RTVSPost2010PropOp56
 70
     1
102
RTVSPost2010Prop57
140
1.0
102
RTVSPost2010PropOp57
 70
     1
  0
ENDSEC
  0
EOF
