  0
SECTION
  2
HEADER
  9
$ACADVER
  1
AC1015
  9
$ACADMAINTVER
 70
     6
  9
$DWGCODEPAGE
  3
ANSI_1252
  9
$INSBASE
 10
0.0
 20
0.0
 30
0.0
  9
$EXTMIN
 10
0.0
 20
0.0
 30
0.0
  9
$EXTMAX
 10
3000.0
 20
4500.0
 30
0.0
  9
$LIMMIN
 10
0.0
 20
0.0
  9
$LIMMAX
 10
3000.0
 20
4500.0
  9
$ORTHOMODE
 70
     0
  9
$REGENMODE
 70
     1
  9
$FILLMODE
 70
     1
  9
$QTEXTMODE
 70
     0
  9
$MIRRTEXT
 70
     1
  9
$LTSCALE
 40
1.0
  9
$ATTMODE
 70
     1
  9
$TEXTSIZE
 40
2.5
  9
$TRACEWID
 40
1.0
  9
$TEXTSTYLE
  7
Standard
  9
$CLAYER
  8
0
  9
$CELTYPE
  6
ByLayer
  9
$CECOLOR
 62
   256
  9
$CELTSCALE
 40
1.0
  9
$DISPSILH
 70
     0
  9
$DIMSCALE
 40
1.0
  9
$DIMASZ
 40
2.5
  9
$DIMEXO
 40
0.625
  9
$DIMDLI
 40
3.75
  9
$DIMRND
 40
0.0
  9
$DIMDLE
 40
0.0
  9
$DIMEXE
 40
1.25
  9
$DIMTP
 40
0.0
  9
$DIMTM
 40
0.0
  9
$DIMTXT
 40
2.5
  9
$DIMCEN
 40
2.5
  9
$DIMTSZ
 40
0.0
  9
$DIMTOL
 70
     0
  9
$DIMLIM
 70
     0
  9
$DIMTIH
 70
     0
  9
$DIMTOH
 70
     0
  9
$DIMSE1
 70
     0
  9
$DIMSE2
 70
     0
  9
$DIMTAD
 70
     1
  9
$DIMZIN
 70
     8
  9
$DIMBLK
  1

  9
$DIMASO
 70
     1
  9
$DIMSHO
 70
     1
  9
$DIMPOST
  1

  9
$DIMAPOST
  1

  9
$DIMALT
 70
     0
  9
$DIMALTD
 70
     3
  9
$DIMALTF
 40
0.0393700787
  9
$DIMLFAC
 40
1.0
  9
$DIMTOFL
 70
     1
  9
$DIMTVP
 40
0.0
  9
$DIMTIX
 70
     0
  9
$DIMSOXD
 70
     0
  9
$DIMSAH
 70
     0
  9
$DIMBLK1
  1

  9
$DIMBLK2
  1

  9
$DIMSTYLE
  2
ISO-25
  9
$DIMCLRD
 70
     0
  9
$DIMCLRE
 70
     0
  9
$DIMCLRT
 70
     0
  9
$DIMTFAC
 40
1.0
  9
$DIMGAP
 40
0.625
  9
$DIMJUST
 70
     0
  9
$DIMSD1
 70
     0
  9
$DIMSD2
 70
     0
  9
$DIMTOLJ
 70
     0
  9
$DIMTZIN
 70
     8
  9
$DIMALTZ
 70
     0
  9
$DIMALTTZ
 70
     0
  9
$DIMUPT
 70
     0
  9
$DIMDEC
 70
     2
  9
$DIMTDEC
 70
     2
  9
$DIMALTU
 70
     2
  9
$DIMALTTD
 70
     3
  9
$DIMTXSTY
  7
Standard
  9
$DIMAUNIT
 70
     0
  9
$DIMADEC
 70
     0
  9
$DIMALTRND
 40
0.0
  9
$DIMAZIN
 70
     0
  9
$DIMDSEP
 70
    44
  9
$DIMATFIT
 70
     3
  9
$DIMFRAC
 70
     0
  9
$DIMLDRBLK
  1

  9
$DIMLUNIT
 70
     2
  9
$DIMLWD
 70
    -2
  9
$DIMLWE
 70
    -2
  9
$DIMTMOVE
 70
     0
  9
$LUNITS
 70
     2
  9
$LUPREC
 70
     4
  9
$SKETCHINC
 40
1.0
  9
$FILLETRAD
 40
10.0
  9
$AUNITS
 70
     0
  9
$AUPREC
 70
     0
  9
$MENU
  1
.
  9
$ELEVATION
 40
0.0
  9
$PELEVATION
 40
0.0
  9
$THICKNESS
 40
0.0
  9
$LIMCHECK
 70
     0
  9
$CHAMFERA
 40
10.0
  9
$CHAMFERB
 40
10.0
  9
$CHAMFERC
 40
20.0
  9
$CHAMFERD
 40
0.0
  9
$SKPOLY
 70
     0
  9
$TDCREATE
 40
2456162.498939491
  9
$TDUCREATE
 40
2456162.415606157
  9
$TDUPDATE
 40
2456162.498939503
  9
$TDUUPDATE
 40
2456162.415606169
  9
$TDINDWG
 40
0.0000000116
  9
$TDUSRTIMER
 40
0.0000000116
  9
$USRTIMER
 70
     1
  9
$ANGBASE
 50
0.0
  9
$ANGDIR
 70
     0
  9
$PDMODE
 70
     0
  9
$PDSIZE
 40
0.0
  9
$PLINEWID
 40
0.0
  9
$SPLFRAME
 70
     0
  9
$SPLINETYPE
 70
     6
  9
$SPLINESEGS
 70
     8
  9
$HANDSEED
  5
14E
  9
$SURFTAB1
 70
     6
  9
$SURFTAB2
 70
     6
  9
$SURFTYPE
 70
     6
  9
$SURFU
 70
     6
  9
$SURFV
 70
     6
  9
$UCSBASE
  2

  9
$UCSNAME
  2

  9
$UCSORG
 10
0.0
 20
0.0
 30
0.0
  9
$UCSXDIR
 10
1.0
 20
0.0
 30
0.0
  9
$UCSYDIR
 10
0.0
 20
1.0
 30
0.0
  9
$UCSORTHOREF
  2

  9
$UCSORTHOVIEW
 70
     0
  9
$UCSORGTOP
 10
0.0
 20
0.0
 30
0.0
  9
$UCSORGBOTTOM
 10
0.0
 20
0.0
 30
0.0
  9
$UCSORGLEFT
 10
0.0
 20
0.0
 30
0.0
  9
$UCSORGRIGHT
 10
0.0
 20
0.0
 30
0.0
  9
$UCSORGFRONT
 10
0.0
 20
0.0
 30
0.0
  9
$UCSORGBACK
 10
0.0
 20
0.0
 30
0.0
  9
$PUCSBASE
  2

  9
$PUCSNAME
  2

  9
$PUCSORG
 10
0.0
 20
0.0
 30
0.0
  9
$PUCSXDIR
 10
1.0
 20
0.0
 30
0.0
  9
$PUCSYDIR
 10
0.0
 20
1.0
 30
0.0
  9
$PUCSORTHOREF
  2

  9
$PUCSORTHOVIEW
 70
     0
  9
$PUCSORGTOP
 10
0.0
 20
0.0
 30
0.0
  9
$PUCSORGBOTTOM
 10
0.0
 20
0.0
 30
0.0
  9
$PUCSORGLEFT
 10
0.0
 20
0.0
 30
0.0
  9
$PUCSORGRIGHT
 10
0.0
 20
0.0
 30
0.0
  9
$PUCSORGFRONT
 10
0.0
 20
0.0
 30
0.0
  9
$PUCSORGBACK
 10
0.0
 20
0.0
 30
0.0
  9
$USERI1
 70
     0
  9
$USERI2
 70
     0
  9
$USERI3
 70
     0
  9
$USERI4
 70
     0
  9
$USERI5
 70
     0
  9
$USERR1
 40
0.0
  9
$USERR2
 40
0.0
  9
$USERR3
 40
0.0
  9
$USERR4
 40
0.0
  9
$USERR5
 40
0.0
  9
$WORLDVIEW
 70
     1
  9
$SHADEDGE
 70
     3
  9
$SHADEDIF
 70
    70
  9
$TILEMODE
 70
     1
  9
$MAXACTVP
 70
    64
  9
$PINSBASE
 10
0.0
 20
0.0
 30
0.0
  9
$PLIMCHECK
 70
     0
  9
$PEXTMIN
 10
0.0
 20
0.0
 30
0.0
  9
$PEXTMAX
 10
3000.0
 20
4500.0
 30
0.0
  9
$PLIMMIN
 10
0.0
 20
0.0
  9
$PLIMMAX
 10
3000.0
 20
4500.0
  9
$UNITMODE
 70
     0
  9
$VISRETAIN
 70
     1
  9
$PLINEGEN
 70
     0
  9
$PSLTSCALE
 70
     1
  9
$TREEDEPTH
 70
  3020
  9
$CMLSTYLE
  2
Standard
  9
$CMLJUST
 70
     0
  9
$CMLSCALE
 40
20.0
  9
$PROXYGRAPHICS
 70
     1
  9
$MEASUREMENT
 70
     1
  9
$CELWEIGHT
370
    -1
  9
$ENDCAPS
280
     0
  9
$JOINSTYLE
280
     0
  9
$LWDISPLAY
290
     0
  9
$INSUNITS
 70
     4
  9
$HYPERLINKBASE
  1

  9
$STYLESHEET
  1

  9
$XEDIT
290
     1
  9
$CEPSNTYPE
380
     0
  9
$PSTYLEMODE
290
     1
  9
$FINGERPRINTGUID
  2
{86A4167E-99C7-49A3-B618-635FE3979BA8}
  9
$VERSIONGUID
  2
{FAEB1C32-E019-11D5-929B-00C0DF256EC4}
  9
$EXTNAMES
290
     1
  9
$PSVPSCALE
 40
0.0
  9
$OLESTARTUP
290
     0
  0
ENDSEC
  0
SECTION
  2
CLASSES
  0
CLASS
  1
ACDBDICTIONARYWDFLT
  2
AcDbDictionaryWithDefault
  3
ObjectDBX Classes
 90
        0
280
     0
281
     0
  0
CLASS
  1
VISUALSTYLE
  2
AcDbVisualStyle
  3
ObjectDBX Classes
 90
     4095
280
     0
281
     0
  0
CLASS
  1
SCALE
  2
AcDbScale
  3
ObjectDBX Classes
 90
     1153
280
     0
281
     0
  0
CLASS
  1
DICTIONARYVAR
  2
AcDbDictionaryVar
  3
ObjectDBX Classes
 90
        0
280
     0
281
     0
  0
CLASS
  1
ACDBPLACEHOLDER
  2
AcDbPlaceHolder
  3
ObjectDBX Classes
 90
        0
280
     0
281
     0
  0
CLASS
  1
LAYOUT
  2
AcDbLayout
  3
ObjectDBX Classes
 90
        0
280
     0
281
     0
  0
ENDSEC
  0
SECTION
  2
TABLES
  0
TABLE
  2
VPORT
  5
8
330
0
100
AcDbSymbolTable
 70
     1
  0
VPORT
  5
29
330
8
100
AcDbSymbolTableRecord
100
AcDbViewportTableRecord
  2
*Active
 70
     0
 10
0.0
 20
0.0
 11
1.0
 21
1.0
 12
344.1869158879
 22
148.5
 13
0.0
 23
0.0
 14
10.0
 24
10.0
 15
10.0
 25
10.0
 16
0.0
 26
0.0
 36
1.0
 17
0.0
 27
0.0
 37
0.0
 40
297.0
 41
1.9729729729
 42
50.0
 43
0.0
 44
0.0
 50
0.0
 51
0.0
 71
     0
 72
   100
 73
     1
 74
     3
 75
     0
 76
     0
 77
     0
 78
     0
281
     0
 65
     1
110
0.0
120
0.0
130
0.0
111
1.0
121
0.0
131
0.0
112
0.0
122
1.0
132
0.0
 79
     0
146
0.0
  0
ENDTAB
  0
TABLE
  2
LTYPE
  5
5
330
0
100
AcDbSymbolTable
 70
     2
  0
LTYPE
  5
14
330
5
100
AcDbSymbolTableRecord
100
AcDbLinetypeTableRecord
  2
ByBlock
 70
     0
  3

 72
    65
 73
     0
 40
0.0
  0
LTYPE
  5
15
330
5
100
AcDbSymbolTableRecord
100
AcDbLinetypeTableRecord
  2
ByLayer
 70
     0
  3

 72
    65
 73
     0
 40
0.0
  0
LTYPE
  5
16
330
5
100
AcDbSymbolTableRecord
100
AcDbLinetypeTableRecord
  2
Continuous
 70
     0
  3
Solid line
 72
    65
 73
     0
 40
0.0
  0
LTYPE
  5
62
330
5
100
AcDbSymbolTableRecord
100
AcDbLinetypeTableRecord
  2
CENTER2
 70
     0
  3
Center (.5x) ___ _ ___ _ ___ _ ___ _ ___ _ ___
 72
    65
 73
     4
 40
28.575
 49
19.05
 74
     4
 75
     0
340
0
 46
0.0
 50
0.0
 44
0.0
 45
0.0
 49
-3.175
 74
     4
 75
     0
340
0
 46
0.0
 50
0.0
 44
0.0
 45
0.0
 49
3.175
 74
     4
 75
     0
340
0
 46
0.0
 50
0.0
 44
0.0
 45
0.0
 49
-3.175
 74
     4
 75
     0
340
0
 46
0.0
 50
0.0
 44
0.0
 45
0.0
  0
ENDTAB
  0
TABLE
  2
LAYER
  5
2
330
0
100
AcDbSymbolTable
 70
     9
  0
LAYER
  5
10
330
2
100
AcDbSymbolTableRecord
100
AcDbLayerTableRecord
  2
0
 70
     0
 62
     7
  6
Continuous
370
    -3
390
F
  0
LAYER
  5
5D
330
2
100
AcDbSymbolTableRecord
100
AcDbLayerTableRecord
  2
Default
 70
     0
 62
     7
  6
Continuous
370
    -3
390
F
  0
LAYER
  5
79
330
2
100
AcDbSymbolTableRecord
100
AcDbLayerTableRecord
  2
03498031_DICHT_R
 70
     0
 62
     7
  6
Continuous
370
    -3
390
F
  0
LAYER
  5
7B
330
2
100
AcDbSymbolTableRecord
100
AcDbLayerTableRecord
  2
410436038__ESCUT
 70
     0
 62
     7
  6
Continuous
370
    -3
390
F
  0
LAYER
  5
86
330
2
100
AcDbSymbolTableRecord
100
AcDbLayerTableRecord
  2
410438038__HANDL
 70
     0
 62
     7
  6
Continuous
370
    -3
390
F
  0
LAYER
  5
93
330
2
100
AcDbSymbolTableRecord
100
AcDbLayerTableRecord
  2
400542038_KAPPE_
 70
     0
 62
     7
  6
Continuous
370
    -3
390
F
  0
LAYER
  5
96
330
2
100
AcDbSymbolTableRecord
100
AcDbLayerTableRecord
  2
$DDT_AUDIT_GENERATED_(96)
 70
     0
 62
     7
  6
Continuous
370
    -3
390
F
  0
LAYER
  5
BD
330
2
100
AcDbSymbolTableRecord
100
AcDbLayerTableRecord
  2
12030696_PROTECT
 70
     0
 62
     7
  6
Continuous
370
    -3
390
F
  0
LAYER
  5
C3
330
2
100
AcDbSymbolTableRecord
100
AcDbLayerTableRecord
  2
12030697_LEVELIN
 70
     0
 62
     7
  6
Continuous
370
    -3
390
F
  0
ENDTAB
  0
TABLE
  2
STYLE
  5
3
330
0
100
AcDbSymbolTable
 70
     2
  0
STYLE
  5
11
330
3
100
AcDbSymbolTableRecord
100
AcDbTextStyleTableRecord
  2
Standard
 70
     0
 40
0.0
 41
1.0
 50
0.0
 71
     0
 42
2.5
  3
txt
  4

  0
STYLE
  5
13D
330
3
100
AcDbSymbolTableRecord
100
AcDbTextStyleTableRecord
  2
SEACAD_seiso_ttf
 70
     0
 40
0.0
 41
1.0
 50
0.0
 71
     0
 42
0.2
  3
seiso.ttf
  4

  0
ENDTAB
  0
TABLE
  2
VIEW
  5
6
330
0
100
AcDbSymbolTable
 70
     0
  0
ENDTAB
  0
TABLE
  2
UCS
  5
7
330
0
100
AcDbSymbolTable
 70
     0
  0
ENDTAB
  0
TABLE
  2
APPID
  5
9
330
0
100
AcDbSymbolTable
 70
     1
  0
APPID
  5
12
330
9
100
AcDbSymbolTableRecord
100
AcDbRegAppTableRecord
  2
ACAD
 70
     0
  0
ENDTAB
  0
TABLE
  2
DIMSTYLE
  5
A
330
0
100
AcDbSymbolTable
 70
     1
100
AcDbDimStyleTable
  0
DIMSTYLE
105
27
330
A
100
AcDbSymbolTableRecord
100
AcDbDimStyleTableRecord
  2
ISO-25
 70
     0
 41
2.5
 42
0.625
 43
3.75
 44
1.25
 73
     0
 74
     0
 77
     1
 78
     8
140
2.5
141
2.5
143
0.0393700787
147
0.625
171
     3
172
     1
271
     2
272
     2
274
     3
278
    44
283
     0
284
     8
340
11
  0
ENDTAB
  0
TABLE
  2
BLOCK_RECORD
  5
1
330
0
100
AcDbSymbolTable
 70
     7
  0
BLOCK_RECORD
  5
1F
330
1
100
AcDbSymbolTableRecord
100
AcDbBlockTableRecord
  2
*Model_Space
340
22
  0
BLOCK_RECORD
  5
1B
330
1
100
AcDbSymbolTableRecord
100
AcDbBlockTableRecord
  2
*Paper_Space
340
1E
  0
BLOCK_RECORD
  5
60
330
1
100
AcDbSymbolTableRecord
100
AcDbBlockTableRecord
  2
SEANNOT_GROUP
340
0
102
{BLKREFS
331
61
102
}
  0
BLOCK_RECORD
  5
6B
330
1
100
AcDbSymbolTableRecord
100
AcDbBlockTableRecord
  2
SEANNOT_GROUP1
340
0
102
{BLKREFS
331
6C
102
}
  0
BLOCK_RECORD
  5
71
330
1
100
AcDbSymbolTableRecord
100
AcDbBlockTableRecord
  2
SEANNOT_GROUP2
340
0
102
{BLKREFS
331
72
102
}
  0
BLOCK_RECORD
  5
77
330
1
100
AcDbSymbolTableRecord
100
AcDbBlockTableRecord
  2
SE
340
0
102
{BLKREFS
331
78
102
}
  0
BLOCK_RECORD
  5
BB
330
1
100
AcDbSymbolTableRecord
100
AcDbBlockTableRecord
  2
SE1
340
0
102
{BLKREFS
331
BC
102
}
  0
BLOCK_RECORD
  5
105
330
1
100
AcDbSymbolTableRecord
100
AcDbBlockTableRecord
  2
SE2
340
0
102
{BLKREFS
331
106
102
}
  0
ENDTAB
  0
ENDSEC
  0
SECTION
  2
BLOCKS
  0
BLOCK
  5
20
330
1F
100
AcDbEntity
  8
0
100
AcDbBlockBegin
  2
*Model_Space
 70
     0
 10
0.0
 20
0.0
 30
0.0
  3
*Model_Space
  1

  0
ENDBLK
  5
21
330
1F
100
AcDbEntity
  8
0
100
AcDbBlockEnd
  0
BLOCK
  5
1C
330
1B
100
AcDbEntity
 67
     1
  8
0
100
AcDbBlockBegin
  2
*Paper_Space
 70
     0
 10
0.0
 20
0.0
 30
0.0
  3
*Paper_Space
  1

  0
ENDBLK
  5
1D
330
1B
100
AcDbEntity
 67
     1
  8
0
100
AcDbBlockEnd
  0
BLOCK
  5
69
330
60
100
AcDbEntity
  8
0
100
AcDbBlockBegin
  2
SEANNOT_GROUP
 70
     0
 10
0.0
 20
0.0
 30
0.0
  3
SEANNOT_GROUP
  1

  0
LINE
  5
63
330
60
100
AcDbEntity
  8
Default
  6
CENTER2
 62
     7
100
AcDbLine
 10
143.3099625604
 20
449.6036402441
 30
0.0
 11
103.3099634545
 21
449.6036402441
 31
0.0
  0
LINE
  5
64
330
60
100
AcDbEntity
  8
Default
  6
CENTER2
 62
     7
100
AcDbLine
 10
123.3099630075
 20
469.603639797
 30
0.0
 11
123.3099630075
 21
429.6036406911
 31
0.0
  0
LINE
  5
65
330
60
100
AcDbEntity
  8
Default
  6
CENTER2
 62
     7
100
AcDbLine
 10
148.3099624487
 20
449.6036402441
 30
0.0
 11
142.0099630075
 21
449.6036402441
 31
0.0
  0
LINE
  5
66
330
60
100
AcDbEntity
  8
Default
  6
CENTER2
 62
     7
100
AcDbLine
 10
123.3099630075
 20
474.6036396853
 30
0.0
 11
123.3099630075
 21
468.3036402441
 31
0.0
  0
LINE
  5
67
330
60
100
AcDbEntity
  8
Default
  6
CENTER2
 62
     7
100
AcDbLine
 10
98.3099635663
 20
449.6036402441
 30
0.0
 11
104.6099630075
 21
449.6036402441
 31
0.0
  0
LINE
  5
68
330
60
100
AcDbEntity
  8
Default
  6
CENTER2
 62
     7
100
AcDbLine
 10
123.3099630075
 20
424.6036408029
 30
0.0
 11
123.3099630075
 21
430.9036402441
 31
0.0
  0
ENDBLK
  5
6A
330
60
100
AcDbEntity
  8
0
100
AcDbBlockEnd
  0
BLOCK
  5
6F
330
6B
100
AcDbEntity
  8
0
100
AcDbBlockBegin
  2
SEANNOT_GROUP1
 70
     0
 10
0.0
 20
0.0
 30
0.0
  3
SEANNOT_GROUP1
  1

  0
LINE
  5
6D
330
6B
100
AcDbEntity
  8
Default
  6
CENTER2
 62
     7
100
AcDbLine
 10
368.535770285
 20
449.7036741032
 30
0.0
 11
328.535771179
 21
449.7036741032
 31
0.0
  0
LINE
  5
6E
330
6B
100
AcDbEntity
  8
Default
  6
CENTER2
 62
     7
100
AcDbLine
 10
348.535770732
 20
469.7036736562
 30
0.0
 11
348.535770732
 21
429.7036745502
 31
0.0
  0
ENDBLK
  5
70
330
6B
100
AcDbEntity
  8
0
100
AcDbBlockEnd
  0
BLOCK
  5
75
330
71
100
AcDbEntity
  8
0
100
AcDbBlockBegin
  2
SEANNOT_GROUP2
 70
     0
 10
0.0
 20
0.0
 30
0.0
  3
SEANNOT_GROUP2
  1

  0
LINE
  5
73
330
71
100
AcDbEntity
  8
Default
  6
CENTER2
 62
     7
100
AcDbLine
 10
143.3099636276
 20
213.4465674549
 30
0.0
 11
103.3099645217
 21
213.4465674549
 31
0.0
  0
LINE
  5
74
330
71
100
AcDbEntity
  8
Default
  6
CENTER2
 62
     7
100
AcDbLine
 10
123.3099640746
 20
233.4465670079
 30
0.0
 11
123.3099640746
 21
193.4465679019
 31
0.0
  0
ENDBLK
  5
76
330
71
100
AcDbEntity
  8
0
100
AcDbBlockEnd
  0
BLOCK
  5
B9
330
77
100
AcDbEntity
  8
0
100
AcDbBlockBegin
  2
SE
 70
     0
 10
0.0
 20
0.0
 30
0.0
  3
SE
  1

  0
ARC
  5
7A
330
77
100
AcDbEntity
  8
03498031_DICHT_R
  6
Continuous
 62
     7
100
AcDbCircle
 10
123.3099630075
 20
449.7036735352
 30
0.0
 40
15.2
100
AcDbArc
 50
185.7364741114
 51
339.6158509545
  0
SPLINE
  5
7C
330
77
100
AcDbEntity
  8
410436038__ESCUT
  6
Continuous
 62
     7
100
AcDbSpline
210
0.0
220
0.0
230
1.0
 70
     8
 71
     3
 72
     9
 73
     5
 74
     0
 42
0.0000000000518017
 43
0.0000000001
 40
0.0
 40
0.0
 40
0.0
 40
0.0
 40
0.125
 40
0.1690004483789922
 40
0.1690004483789922
 40
0.1690004483789922
 40
0.1690004483789922
 10
153.1717270558227
 20
449.7036735351928
 30
0.0
 10
153.1717270558227
 20
441.9036650525097
 30
0.0
 10
148.8035801727853
 20
431.3580256050428
 30
0.0
 10
140.259437236762
 20
424.9883822105618
 30
0.0
 10
137.8514795427736
 20
423.6543474704592
 30
0.0
  0
SPLINE
  5
7D
330
77
100
AcDbEntity
  8
410436038__ESCUT
  6
Continuous
 62
     7
100
AcDbSpline
210
0.0
220
0.0
230
1.0
 70
     8
 71
     3
 72
    13
 73
     9
 74
     0
 42
0.0000000000499491
 43
0.0000000001
 40
0.3309313057097771
 40
0.3309313057097771
 40
0.3309313057097771
 40
0.3309313057097771
 40
0.375
 40
0.5
 40
0.625
 40
0.75
 40
0.875
 40
1.0
 40
1.0
 40
1.0
 40
1.0
 10
108.7796522223764
 20
423.6481424372116
 30
0.0
 10
106.3673900659459
 20
424.9832385014363
 30
0.0
 10
97.81810979110831
 20
431.3537670555507
 30
0.0
 10
90.21732965896301
 20
449.7036735351928
 30
0.0
 10
99.90993755942002
 20
473.1036989832417
 30
0.0
 10
123.3099630074691
 20
482.7963068836987
 30
0.0
 10
146.709988455518
 20
473.1036989832417
 30
0.0
 10
153.1717270558227
 20
457.5036820178757
 30
0.0
 10
153.1717270558227
 20
449.7036735351928
 30
0.0
  0
SPLINE
  5
7E
330
77
100
AcDbEntity
  8
410436038__ESCUT
  6
Continuous
 62
     7
100
AcDbSpline
210
0.0
220
0.0
230
1.0
 70
     8
 71
     3
 72
    13
 73
     9
 74
     0
 42
0.0000000000179472
 43
0.0000000001
 40
0.0
 40
0.0
 40
0.0
 40
0.0
 40
0.125
 40
0.25
 40
0.375
 40
0.5
 40
0.625
 40
0.7239619873527128
 40
0.7239619873527128
 40
0.7239619873527128
 40
0.7239619873527128
 10
206.309963007469
 20
449.7036735351928
 30
0.0
 10
206.309963007469
 20
471.3835951571834
 30
0.0
 10
188.349727873441
 20
514.7434384011648
 30
0.0
 10
123.3099630074691
 20
541.6837911022068
 30
0.0
 10
58.27019814149701
 20
514.7434384011648
 30
0.0
 10
31.32984544045501
 20
449.7036735351928
 30
0.0
 10
56.39960282322472
 20
389.1799252563055
 30
0.0
 10
92.87353426112787
 20
370.7203902215563
 30
0.0
 10
109.8193064523736
 20
367.8488585201369
 30
0.0
  0
SPLINE
  5
7F
330
77
100
AcDbEntity
  8
410436038__ESCUT
  6
Continuous
 62
     7
100
AcDbSpline
210
0.0
220
0.0
230
1.0
 70
     8
 71
     3
 72
     9
 73
     5
 74
     0
 42
0.0000000000183893
 43
0.0000000001
 40
0.7760650962190722
 40
0.7760650962190722
 40
0.7760650962190722
 40
0.7760650962190722
 40
0.875
 40
1.0
 40
1.0
 40
1.0
 40
1.0
 10
136.8145323558306
 20
367.851217320034
 30
0.0
 10
153.7552129914742
 20
370.7248551178491
 30
0.0
 10
190.2222689009834
 20
389.1846226140138
 30
0.0
 10
206.309963007469
 20
428.0237519132021
 30
0.0
 10
206.309963007469
 20
449.7036735351928
 30
0.0
  0
SPLINE
  5
80
330
77
100
AcDbEntity
  8
410436038__ESCUT
  6
Continuous
 62
     7
100
AcDbSpline
210
0.0
220
0.0
230
1.0
 70
     8
 71
     3
 72
    13
 73
     9
 74
     0
 42
0.0000000000171201
 43
0.0000000001
 40
0.0
 40
0.0
 40
0.0
 40
0.0
 40
0.125
 40
0.25
 40
0.375
 40
0.5
 40
0.625
 40
0.7257356064745
 40
0.7257356064745
 40
0.7257356064745
 40
0.7257356064745
 10
210.309963007469
 20
449.7036735351928
 30
0.0
 10
210.309963007469
 20
472.4284106570384
 30
0.0
 10
191.484174373006
 20
517.8778849007297
 30
0.0
 10
123.3099630074691
 20
546.1165678524247
 30
0.0
 10
55.13575164193201
 20
517.8778849007297
 30
0.0
 10
26.89706869023702
 20
449.7036735351928
 30
0.0
 10
53.30856626651399
 20
385.9406778839597
 30
0.0
 10
92.01359417311355
 20
366.6088440021267
 30
0.0
 10
110.1249998886168
 20
363.7475610319922
 30
0.0
  0
SPLINE
  5
81
330
77
100
AcDbEntity
  8
410436038__ESCUT
  6
Continuous
 62
     7
100
AcDbSpline
210
0.0
220
0.0
230
1.0
 70
     8
 71
     3
 72
     9
 73
     5
 74
     0
 42
0.000000000017534
 43
0.0000000001
 40
0.7743282641761156
 40
0.7743282641761156
 40
0.7743282641761156
 40
0.7743282641761156
 40
0.875
 40
1.0
 40
1.0
 40
1.0
 40
1.0
 10
136.5293753135498
 20
363.7530105097417
 30
0.0
 10
154.6282328543888
 20
366.61978541243
 30
0.0
 10
193.3161694098968
 20
385.95228943392
 30
0.0
 10
210.309963007469
 20
426.9789364133471
 30
0.0
 10
210.309963007469
 20
449.7036735351928
 30
0.0
  0
ARC
  5
82
330
77
100
AcDbEntity
  8
410436038__ESCUT
  6
Continuous
 62
     7
100
AcDbCircle
 10
123.3118072568
 20
449.7039209991
 30
0.0
 40
90.83818533342979
100
AcDbArc
 50
0.0
 51
261.9654256387
  0
ARC
  5
83
330
77
100
AcDbEntity
  8
410436038__ESCUT
  6
Continuous
 62
     7
100
AcDbCircle
 10
123.3118072568
 20
449.7039209991
 30
0.0
 40
90.83818533342979
100
AcDbArc
 50
278.0443017087
 51
0.0
  0
CIRCLE
  5
84
330
77
100
AcDbEntity
  8
410436038__ESCUT
  6
Continuous
 62
     7
100
AcDbCircle
 10
163.1402530316
 20
449.7026471318
 30
0.0
 40
6.901454877428892
  0
CIRCLE
  5
85
330
77
100
AcDbEntity
  8
410436038__ESCUT
  6
Continuous
 62
     7
100
AcDbCircle
 10
83.4796729833
 20
449.7026471318
 30
0.0
 40
6.901454877428892
  0
SPLINE
  5
87
330
77
100
AcDbEntity
  8
410438038__HANDL
  6
Continuous
 62
     7
100
AcDbSpline
210
0.0
220
0.0
230
1.0
 70
     8
 71
     3
 72
     9
 73
     5
 74
     0
 42
0.0000000001401914
 43
0.0000000001
 40
0.312873870984349
 40
0.312873870984349
 40
0.312873870984349
 40
0.312873870984349
 40
0.3134371566902018
 40
0.3149419226913153
 40
0.3149419226913153
 40
0.3149419226913153
 40
0.3149419226913153
 10
133.3158102953454
 20
411.0696539105674
 30
0.0
 10
133.314077015916
 20
411.0563733525011
 30
0.0
 10
133.3077425274254
 20
411.0076111471244
 30
0.0
 10
133.3015148864237
 20
410.9588349049343
 30
0.0
 10
133.2970399904205
 20
410.9233368408334
 30
0.0
  0
ARC
  5
88
330
77
100
AcDbEntity
  8
410438038__HANDL
  6
Continuous
 62
     7
100
AcDbCircle
 10
123.3099630075
 20
449.6036402441
 30
0.0
 40
15.2
100
AcDbArc
 50
270.0472420659
 51
89.953810173
  0
ARC
  5
89
330
77
100
AcDbEntity
  8
410438038__HANDL
  6
Continuous
 62
     7
100
AcDbCircle
 10
123.3099630075
 20
449.6036402441
 30
0.0
 40
15.2
100
AcDbArc
 50
89.953810173
 51
270.0472420659
  0
SPLINE
  5
8A
330
77
100
AcDbEntity
  8
410438038__HANDL
  6
Continuous
 62
     7
100
AcDbSpline
210
0.0
220
0.0
230
1.0
 70
     8
 71
     3
 72
    53
 73
    49
 74
     0
 42
0.0000000000569017
 43
0.0000000001
 40
0.2082218566634798
 40
0.2082218566634798
 40
0.2082218566634798
 40
0.2082218566634798
 40
0.2239913816596141
 40
0.2390614033359965
 40
0.2521679316775733
 40
0.264103295388693
 40
0.2801092028604952
 40
0.2962451894617742
 40
0.3125112524937382
 40
0.3289073892358398
 40
0.3454335969457761
 40
0.3620898728594899
 40
0.3788727656352191
 40
0.3956941878163918
 40
0.4125156099975646
 40
0.4293370321787373
 40
0.44615845435991
 40
0.4629798765410827
 40
0.4798012987222554
 40
0.4966227209034281
 40
0.5134441430846008
 40
0.5302655652657736
 40
0.5470869874469463
 40
0.5639084096281191
 40
0.5807298318092918
 40
0.5975512539904646
 40
0.6143726761716373
 40
0.6311720713230845
 40
0.6477105441428636
 40
0.6639228426756076
 40
0.6876175044450397
 40
0.7105792762562451
 40
0.7254867105634433
 40
0.7400678887603448
 40
0.755494734243225
 40
0.7686043432430296
 40
0.7830350671520828
 40
0.7987866571801744
 40
0.8158588417649479
 40
0.8342513265765826
 40
0.8539637945228665
 40
0.8749959057546649
 40
0.8973472976717779
 40
0.9129888306017714
 40
0.9292173395352016
 40
0.9460327692059132
 40
0.9634350623489936
 40
0.9792556454346
 40
0.9792556454346
 40
0.9792556454346
 40
0.9792556454346
 10
141.7124739122469
 20
428.5943737596307
 30
0.0
 10
142.4063508509228
 20
429.2021686840439
 30
0.0
 10
143.7043739443848
 20
430.4580265064891
 30
0.0
 10
145.37188043859
 20
432.4177108569012
 30
0.0
 10
146.7293714314615
 20
434.333278049557
 30
0.0
 10
147.9599239657895
 20
436.3960484368491
 30
0.0
 10
149.0830724267238
 20
438.7204271677403
 30
0.0
 10
150.0528706229227
 20
441.3843371033203
 30
0.0
 10
150.7526227231653
 20
444.1553026964781
 30
0.0
 10
151.1681810746028
 20
447.0060428156755
 30
0.0
 10
151.2881674686381
 20
449.90737335002
 30
0.0
 10
151.1041878725538
 20
452.8281282526647
 30
0.0
 10
150.6120663739587
 20
455.7306255620278
 30
0.0
 10
149.8142291431383
 20
458.5744449601654
 30
0.0
 10
148.7200136801354
 20
461.3203285545453
 30
0.0
 10
147.3422399247905
 20
463.9354624156488
 30
0.0
 10
145.696282951604
 20
466.390663200798
 30
0.0
 10
143.8005104532064
 20
468.658532682529
 30
0.0
 10
141.6760779181853
 20
470.7137630177255
 30
0.0
 10
139.3466925122953
 20
472.5334192937032
 30
0.0
 10
136.8383485288438
 20
474.097195427655
 30
0.0
 10
134.1790373267651
 20
475.3876407916957
 30
0.0
 10
131.3984348970976
 20
476.390354893518
 30
0.0
 10
128.5275709627586
 20
477.09414827632
 30
0.0
 10
125.598481726976
 20
477.4911666388526
 30
0.0
 10
122.6438560361095
 20
477.576981268822
 30
0.0
 10
119.6979433361497
 20
477.3507268711656
 30
0.0
 10
116.8086322510312
 20
476.818196498937
 30
0.0
 10
114.0250912778326
 20
475.9966086528752
 30
0.0
 10
110.9677964289007
 20
474.7404269008003
 30
0.0
 10
107.7569365748427
 20
472.9223370575758
 30
0.0
 10
104.9076001259625
 20
470.7019416604397
 30
0.0
 10
102.7266448210754
 20
468.5404245658355
 30
0.0
 10
101.0380415974619
 20
466.5245767656184
 30
0.0
 10
99.60608771944077
 20
464.4449449598539
 30
0.0
 10
98.37102953487435
 20
462.2543553102915
 30
0.0
 10
97.32162640197437
 20
459.9472540419659
 30
0.0
 10
96.4194971116766
 20
457.3312146310847
 30
0.0
 10
95.73856409494005
 20
454.4094191743229
 30
0.0
 10
95.35938038346823
 20
451.1986412328434
 30
0.0
 10
95.36691212326099
 20
447.7323288005256
 30
0.0
 10
95.84714095024651
 20
444.0641610173207
 30
0.0
 10
96.75926805222318
 20
440.7235674433199
 30
0.0
 10
97.95447752281986
 20
437.7821408791353
 30
0.0
 10
99.28571312665684
 20
435.2617168025031
 30
0.0
 10
100.9317639608194
 20
432.802928759346
 30
0.0
 10
102.8044853620906
 20
430.5680898346521
 30
0.0
 10
104.2250341351841
 20
429.1863994423918
 30
0.0
 10
104.9115089317812
 20
428.5887946893655
 30
0.0
  0
ARC
  5
8B
330
77
100
AcDbEntity
  8
410438038__HANDL
  6
Continuous
 62
     7
100
AcDbCircle
 10
123.3379926221
 20
449.6191019506
 30
0.0
 40
27.72845541800493
100
AcDbArc
 50
316.325368712
 51
90.0316466002
  0
ARC
  5
8C
330
77
100
AcDbEntity
  8
410438038__HANDL
  6
Continuous
 62
     7
100
AcDbCircle
 10
123.3133790519
 20
449.6163379341
 30
0.0
 40
27.7370860580118
100
AcDbArc
 50
89.9805002739
 51
223.6618366661
  0
SPLINE
  5
8D
330
77
100
AcDbEntity
  8
410438038__HANDL
  6
Continuous
 62
     7
100
AcDbSpline
210
0.0
220
0.0
230
1.0
 70
     8
 71
     3
 72
    30
 73
    26
 74
     0
 42
0.0000000001400909
 43
0.0000000001
 40
0.0
 40
0.0
 40
0.0
 40
0.0
 40
0.0692882678086521
 40
0.1385089480779019
 40
0.2017148077726559
 40
0.2590051593047749
 40
0.3103162931582784
 40
0.346338167433821
 40
0.3785981189787451
 40
0.4071073069394041
 40
0.431877826431582
 40
0.4559890443777382
 40
0.4882299966363762
 40
0.5256073784923836
 40
0.5679674243443846
 40
0.614994935511758
 40
0.6667914339176587
 40
0.7018986954765181
 40
0.7392806307196474
 40
0.7784790657604594
 40
0.8193033154908856
 40
0.8622355818004449
 40
0.907738321514145
 40
0.9555192641953927
 40
1.0
 40
1.0
 40
1.0
 40
1.0
 10
136.4076016107437
 20
362.326309172517
 30
0.0
 10
136.576040999842
 20
364.130681012577
 30
0.0
 10
136.8473339519728
 20
367.1722260319274
 30
0.0
 10
136.9344634939118
 20
372.0663999567102
 30
0.0
 10
136.7755750712623
 20
376.5536552498373
 30
0.0
 10
136.4388416043853
 20
380.6321013475811
 30
0.0
 10
136.0291930841425
 20
384.0464344690052
 30
0.0
 10
135.6219881027939
 20
386.8615979145401
 30
0.0
 10
135.2589128935128
 20
389.1346015743705
 30
0.0
 10
134.9202432885787
 20
391.1404182980586
 30
0.0
 10
134.6071540162403
 20
392.9539625359264
 30
0.0
 10
134.2796914714069
 20
394.8550551659316
 30
0.0
 10
133.9130330629343
 20
397.0535449851105
 30
0.0
 10
133.5171008825195
 20
399.6869397070083
 30
0.0
 10
133.1676278756135
 20
402.6820947912145
 30
0.0
 10
132.9727957601437
 20
406.0368948207084
 30
0.0
 10
133.0742541054136
 20
409.2266943754806
 30
0.0
 10
133.4427782745988
 20
412.1612849891146
 30
0.0
 10
133.9761586969453
 20
414.7648585988505
 30
0.0
 10
134.745566582794
 20
417.4497167219388
 30
0.0
 10
135.7693160561359
 20
420.1922554280459
 30
0.0
 10
137.2263590786373
 20
422.9123099495592
 30
0.0
 10
139.0876112577622
 20
425.5455006897322
 30
0.0
 10
141.2176981654351
 20
428.1257765649031
 30
0.0
 10
142.6131389008088
 20
429.6083347354673
 30
0.0
 10
143.4150750376792
 20
430.4510081663759
 30
0.0
  0
SPLINE
  5
8E
330
77
100
AcDbEntity
  8
410438038__HANDL
  6
Continuous
 62
     7
100
AcDbSpline
210
0.0
220
0.0
230
1.0
 70
     8
 71
     3
 72
    27
 73
    23
 74
     0
 42
0.0000000001400841
 43
0.0000000001
 40
0.0
 40
0.0
 40
0.0
 40
0.0
 40
0.0519245747172976
 40
0.1055050710184161
 40
0.1551255986492191
 40
0.2005206207132199
 40
0.2427586613364001
 40
0.2817218265903086
 40
0.3237048338017571
 40
0.3603014476648654
 40
0.3918520450527938
 40
0.4185705007034133
 40
0.4467363829607789
 40
0.484288351536333
 40
0.5281576395811768
 40
0.5784045145394825
 40
0.6350471632478953
 40
0.6980794472661218
 40
0.7661803802731599
 40
0.8401440692028798
 40
0.9200418525743572
 40
1.0
 40
1.0
 40
1.0
 40
1.0
 10
103.2293668995999
 20
430.4498534140369
 30
0.0
 10
104.1651699039908
 20
429.4659240255749
 30
0.0
 10
105.7572851287397
 20
427.7678204518668
 30
0.0
 10
108.1122059601839
 20
424.8285019719376
 30
0.0
 10
110.0492426425428
 20
421.8861041516
 30
0.0
 10
111.405244708952
 20
418.9019912062823
 30
0.0
 10
112.3326768063093
 20
416.0365558160457
 30
0.0
 10
113.024470556838
 20
413.1886311165458
 30
0.0
 10
113.4493867168989
 20
410.4227028780833
 30
0.0
 10
113.6282390526263
 20
407.8074807366952
 30
0.0
 10
113.6281030895688
 20
405.5501323975909
 30
0.0
 10
113.5242695865673
 20
403.4966176662987
 30
0.0
 10
113.325691230515
 20
401.3068940010991
 30
0.0
 10
112.993439234546
 20
398.721649886427
 30
0.0
 10
112.5025668390627
 20
395.629207569781
 30
0.0
 10
111.8884158925422
 20
392.0974427465009
 30
0.0
 10
111.2089729986479
 20
388.1138108177483
 30
0.0
 10
110.553694497839
 20
383.6974676173364
 30
0.0
 10
110.021784698252
 20
378.8408654116499
 30
0.0
 10
109.7225360294955
 20
373.5956360441706
 30
0.0
 10
109.7457389605578
 20
367.9206155324623
 30
0.0
 10
110.0497809999264
 20
364.4089241514157
 30
0.0
 10
110.2399536870437
 20
362.3263910952362
 30
0.0
  0
ARC
  5
8F
330
77
100
AcDbEntity
  8
410438038__HANDL
  6
Continuous
 62
     7
100
AcDbCircle
 10
108.370962291
 20
365.1684190195
 30
0.0
 40
28.19215297096802
100
AcDbArc
 50
342.7073788331
 51
354.2119934924
  0
SPLINE
  5
90
330
77
100
AcDbEntity
  8
410438038__HANDL
  6
Continuous
 62
     7
100
AcDbSpline
210
0.0
220
0.0
230
1.0
 70
     8
 71
     3
 72
    20
 73
    16
 74
     0
 42
0.0000000005774183
 43
0.0000000001
 40
0.0
 40
0.0
 40
0.0
 40
0.0
 40
0.108732428473172
 40
0.2083593231597683
 40
0.2979387408528484
 40
0.3770606478663518
 40
0.467069050326449
 40
0.5385402219240082
 40
0.5926736343895258
 40
0.6299008897369177
 40
0.6632029387413363
 40
0.7169796700367411
 40
0.7910866305540791
 40
0.8853155101832919
 40
1.0
 40
1.0
 40
1.0
 40
1.0
 10
123.3228543934062
 20
346.0126407218714
 30
0.0
 10
124.0113406181277
 20
346.0410820606791
 30
0.0
 10
125.1264428013691
 20
346.1017831430808
 30
0.0
 10
126.8258067770116
 20
346.5584926799824
 30
0.0
 10
128.234806364782
 20
347.1886005342274
 30
0.0
 10
129.5037426761725
 20
347.9804025248741
 30
0.0
 10
130.5782384740814
 20
348.8611710516205
 30
0.0
 10
131.4482009290674
 20
349.7498727864617
 30
0.0
 10
132.0511670301411
 20
350.4690764858347
 30
0.0
 10
132.4834149803466
 20
351.0428050411207
 30
0.0
 10
132.8922563396375
 20
351.6306885752542
 30
0.0
 10
133.3884135368984
 20
352.4172191929388
 30
0.0
 10
134.0012361093279
 20
353.5351468048125
 30
0.0
 10
134.6938210712242
 20
355.0467644606783
 30
0.0
 10
135.0566210582339
 20
356.099577952105
 30
0.0
 10
135.2888042642234
 20
356.7882476228314
 30
0.0
  0
ARC
  5
91
330
77
100
AcDbEntity
  8
410438038__HANDL
  6
Continuous
 62
     7
100
AcDbCircle
 10
138.2747556874
 20
365.1684190195
 30
0.0
 40
28.19215297097995
100
AcDbArc
 50
185.7880065076
 51
197.2926211669
  0
SPLINE
  5
92
330
77
100
AcDbEntity
  8
410438038__HANDL
  6
Continuous
 62
     7
100
AcDbSpline
210
0.0
220
0.0
230
1.0
 70
     8
 71
     3
 72
    20
 73
    16
 74
     0
 42
0.0000000005775147
 43
0.0000000001
 40
0.0
 40
0.0
 40
0.0
 40
0.0
 40
0.1261952465319684
 40
0.2336755285604179
 40
0.3230588125988359
 40
0.3936596788013096
 40
0.4445587469889152
 40
0.4768208046004638
 40
0.5161792399551648
 40
0.5744954414036482
 40
0.6522675491809619
 40
0.7229032593569813
 40
0.804956408808303
 40
0.8974228802610162
 40
1.0
 40
1.0
 40
1.0
 40
1.0
 10
111.3569137141245
 20
356.7882476228331
 30
0.0
 10
111.6137776278736
 20
356.0308722926714
 30
0.0
 10
112.0232966680157
 20
354.8534076751959
 30
0.0
 10
112.8400587627208
 20
353.1388015025399
 30
0.0
 10
113.618189517349
 20
351.8149017095844
 30
0.0
 10
114.3176505267508
 20
350.818537423354
 30
0.0
 10
114.8747937622582
 20
350.1295688798027
 30
0.0
 10
115.3455001279963
 20
349.6034224254805
 30
0.0
 10
115.8692723607762
 20
349.0683655311504
 30
0.0
 10
116.6221859635886
 20
348.392635483712
 30
0.0
 10
117.5835669591564
 20
347.6859655933166
 30
0.0
 10
118.7410338950047
 20
347.0270432243769
 30
0.0
 10
120.0439919556886
 20
346.4891041073741
 30
0.0
 10
121.630020647399
 20
346.0913838689219
 30
0.0
 10
122.6732507931035
 20
346.037936801167
 30
0.0
 10
123.3228635849428
 20
346.0126407218714
 30
0.0
  0
ARC
  5
94
330
77
100
AcDbEntity
  8
400542038_KAPPE_
  6
Continuous
 62
     7
100
AcDbCircle
 10
123.308825546
 20
449.5975975079
 30
0.0
 40
15.00113867857159
100
AcDbArc
 50
0.0230798053
 51
179.9376269529
  0
ARC
  5
95
330
77
100
AcDbEntity
  8
400542038_KAPPE_
  6
Continuous
 62
     7
100
AcDbCircle
 10
123.3088299341
 20
449.6103947689
 30
0.0
 40
15.00113459402124
100
AcDbArc
 50
179.9865051875
 51
359.9742015707
  0
ARC
  5
97
330
77
100
AcDbEntity
  8
$DDT_AUDIT_GENERATED_(96)
  6
Continuous
 62
     7
100
AcDbCircle
 10
85.2399630075
 20
447.7736735352
 30
0.0
 40
1.37999999999998
100
AcDbArc
 50
90.0
 51
180.0
  0
LINE
  5
98
330
77
100
AcDbEntity
  8
$DDT_AUDIT_GENERATED_(96)
  6
Continuous
 62
     7
100
AcDbLine
 10
82.7599630075
 20
447.1036735352
 30
0.0
 11
83.8599630075
 21
447.1036735352
 31
0.0
  0
LINE
  5
99
330
77
100
AcDbEntity
  8
$DDT_AUDIT_GENERATED_(96)
  6
Continuous
 62
     7
100
AcDbLine
 10
83.8599630075
 20
447.1036735352
 30
0.0
 11
83.8599630075
 21
447.7736735352
 31
0.0
  0
LINE
  5
9A
330
77
100
AcDbEntity
  8
$DDT_AUDIT_GENERATED_(96)
  6
Continuous
 62
     7
100
AcDbLine
 10
85.2399630075
 20
449.1536735352
 30
0.0
 11
85.9099630075
 21
449.1536735352
 31
0.0
  0
LINE
  5
9B
330
77
100
AcDbEntity
  8
$DDT_AUDIT_GENERATED_(96)
  6
Continuous
 62
     7
100
AcDbLine
 10
85.9099630075
 20
449.1536735352
 30
0.0
 11
85.9099630075
 21
450.2536735352
 31
0.0
  0
LINE
  5
9C
330
77
100
AcDbEntity
  8
$DDT_AUDIT_GENERATED_(96)
  6
Continuous
 62
     7
100
AcDbLine
 10
85.9099630075
 20
450.2536735352
 30
0.0
 11
85.2399630075
 21
450.2536735352
 31
0.0
  0
ARC
  5
9D
330
77
100
AcDbEntity
  8
$DDT_AUDIT_GENERATED_(96)
  6
Continuous
 62
     7
100
AcDbCircle
 10
85.2399630075
 20
451.6336735352
 30
0.0
 40
1.379999999999982
100
AcDbArc
 50
180.0
 51
269.9999999996
  0
LINE
  5
9E
330
77
100
AcDbEntity
  8
$DDT_AUDIT_GENERATED_(96)
  6
Continuous
 62
     7
100
AcDbLine
 10
83.8599630075
 20
451.6336735352
 30
0.0
 11
83.8599630075
 21
452.3036735352
 31
0.0
  0
LINE
  5
9F
330
77
100
AcDbEntity
  8
$DDT_AUDIT_GENERATED_(96)
  6
Continuous
 62
     7
100
AcDbLine
 10
83.8599630075
 20
452.3036735352
 30
0.0
 11
82.7599630075
 21
452.3036735352
 31
0.0
  0
LINE
  5
A0
330
77
100
AcDbEntity
  8
$DDT_AUDIT_GENERATED_(96)
  6
Continuous
 62
     7
100
AcDbLine
 10
82.7599630075
 20
452.3036735352
 30
0.0
 11
82.7599630075
 21
451.6336735352
 31
0.0
  0
ARC
  5
A1
330
77
100
AcDbEntity
  8
$DDT_AUDIT_GENERATED_(96)
  6
Continuous
 62
     7
100
AcDbCircle
 10
81.3799630075
 20
451.6336735352
 30
0.0
 40
1.379999999999969
100
AcDbArc
 50
270.0
 51
359.9999999996
  0
LINE
  5
A2
330
77
100
AcDbEntity
  8
$DDT_AUDIT_GENERATED_(96)
  6
Continuous
 62
     7
100
AcDbLine
 10
81.3799630075
 20
450.2536735352
 30
0.0
 11
80.7099630075
 21
450.2536735352
 31
0.0
  0
LINE
  5
A3
330
77
100
AcDbEntity
  8
$DDT_AUDIT_GENERATED_(96)
  6
Continuous
 62
     7
100
AcDbLine
 10
80.7099630075
 20
450.2536735352
 30
0.0
 11
80.7099630075
 21
449.1536735352
 31
0.0
  0
LINE
  5
A4
330
77
100
AcDbEntity
  8
$DDT_AUDIT_GENERATED_(96)
  6
Continuous
 62
     7
100
AcDbLine
 10
80.7099630075
 20
449.1536735352
 30
0.0
 11
81.3799630075
 21
449.1536735352
 31
0.0
  0
ARC
  5
A5
330
77
100
AcDbEntity
  8
$DDT_AUDIT_GENERATED_(96)
  6
Continuous
 62
     7
100
AcDbCircle
 10
81.3799630075
 20
447.7736735352
 30
0.0
 40
1.379999999999971
100
AcDbArc
 50
0.0
 51
89.9999999996
  0
LINE
  5
A6
330
77
100
AcDbEntity
  8
$DDT_AUDIT_GENERATED_(96)
  6
Continuous
 62
     7
100
AcDbLine
 10
82.7599630075
 20
447.7736735352
 30
0.0
 11
82.7599630075
 21
447.1036735352
 31
0.0
  0
CIRCLE
  5
A7
330
77
100
AcDbEntity
  8
$DDT_AUDIT_GENERATED_(96)
  6
Continuous
 62
     7
100
AcDbCircle
 10
83.3099630075
 20
449.7036735352
 30
0.0
 40
4.199999999999998
  0
ARC
  5
A8
330
77
100
AcDbEntity
  8
$DDT_AUDIT_GENERATED_(96)
  6
Continuous
 62
     7
100
AcDbCircle
 10
165.2399630075
 20
447.7736735352
 30
0.0
 40
1.37999999999998
100
AcDbArc
 50
90.0
 51
180.0
  0
LINE
  5
A9
330
77
100
AcDbEntity
  8
$DDT_AUDIT_GENERATED_(96)
  6
Continuous
 62
     7
100
AcDbLine
 10
162.7599630075
 20
447.1036735352
 30
0.0
 11
163.8599630075
 21
447.1036735352
 31
0.0
  0
LINE
  5
AA
330
77
100
AcDbEntity
  8
$DDT_AUDIT_GENERATED_(96)
  6
Continuous
 62
     7
100
AcDbLine
 10
163.8599630075
 20
447.1036735352
 30
0.0
 11
163.8599630075
 21
447.7736735352
 31
0.0
  0
LINE
  5
AB
330
77
100
AcDbEntity
  8
$DDT_AUDIT_GENERATED_(96)
  6
Continuous
 62
     7
100
AcDbLine
 10
165.2399630075
 20
449.1536735352
 30
0.0
 11
165.9099630075
 21
449.1536735352
 31
0.0
  0
LINE
  5
AC
330
77
100
AcDbEntity
  8
$DDT_AUDIT_GENERATED_(96)
  6
Continuous
 62
     7
100
AcDbLine
 10
165.9099630075
 20
449.1536735352
 30
0.0
 11
165.9099630075
 21
450.2536735352
 31
0.0
  0
LINE
  5
AD
330
77
100
AcDbEntity
  8
$DDT_AUDIT_GENERATED_(96)
  6
Continuous
 62
     7
100
AcDbLine
 10
165.9099630075
 20
450.2536735352
 30
0.0
 11
165.2399630075
 21
450.2536735352
 31
0.0
  0
ARC
  5
AE
330
77
100
AcDbEntity
  8
$DDT_AUDIT_GENERATED_(96)
  6
Continuous
 62
     7
100
AcDbCircle
 10
165.2399630075
 20
451.6336735352
 30
0.0
 40
1.379999999999982
100
AcDbArc
 50
180.0
 51
269.9999999996
  0
LINE
  5
AF
330
77
100
AcDbEntity
  8
$DDT_AUDIT_GENERATED_(96)
  6
Continuous
 62
     7
100
AcDbLine
 10
163.8599630075
 20
451.6336735352
 30
0.0
 11
163.8599630075
 21
452.3036735352
 31
0.0
  0
LINE
  5
B0
330
77
100
AcDbEntity
  8
$DDT_AUDIT_GENERATED_(96)
  6
Continuous
 62
     7
100
AcDbLine
 10
163.8599630075
 20
452.3036735352
 30
0.0
 11
162.7599630075
 21
452.3036735352
 31
0.0
  0
LINE
  5
B1
330
77
100
AcDbEntity
  8
$DDT_AUDIT_GENERATED_(96)
  6
Continuous
 62
     7
100
AcDbLine
 10
162.7599630075
 20
452.3036735352
 30
0.0
 11
162.7599630075
 21
451.6336735352
 31
0.0
  0
ARC
  5
B2
330
77
100
AcDbEntity
  8
$DDT_AUDIT_GENERATED_(96)
  6
Continuous
 62
     7
100
AcDbCircle
 10
161.3799630075
 20
451.6336735352
 30
0.0
 40
1.379999999999969
100
AcDbArc
 50
270.0
 51
359.9999999996
  0
LINE
  5
B3
330
77
100
AcDbEntity
  8
$DDT_AUDIT_GENERATED_(96)
  6
Continuous
 62
     7
100
AcDbLine
 10
161.3799630075
 20
450.2536735352
 30
0.0
 11
160.7099630075
 21
450.2536735352
 31
0.0
  0
LINE
  5
B4
330
77
100
AcDbEntity
  8
$DDT_AUDIT_GENERATED_(96)
  6
Continuous
 62
     7
100
AcDbLine
 10
160.7099630075
 20
450.2536735352
 30
0.0
 11
160.7099630075
 21
449.1536735352
 31
0.0
  0
LINE
  5
B5
330
77
100
AcDbEntity
  8
$DDT_AUDIT_GENERATED_(96)
  6
Continuous
 62
     7
100
AcDbLine
 10
160.7099630075
 20
449.1536735352
 30
0.0
 11
161.3799630075
 21
449.1536735352
 31
0.0
  0
ARC
  5
B6
330
77
100
AcDbEntity
  8
$DDT_AUDIT_GENERATED_(96)
  6
Continuous
 62
     7
100
AcDbCircle
 10
161.3799630075
 20
447.7736735352
 30
0.0
 40
1.379999999999971
100
AcDbArc
 50
0.0
 51
89.9999999996
  0
LINE
  5
B7
330
77
100
AcDbEntity
  8
$DDT_AUDIT_GENERATED_(96)
  6
Continuous
 62
     7
100
AcDbLine
 10
162.7599630075
 20
447.7736735352
 30
0.0
 11
162.7599630075
 21
447.1036735352
 31
0.0
  0
CIRCLE
  5
B8
330
77
100
AcDbEntity
  8
$DDT_AUDIT_GENERATED_(96)
  6
Continuous
 62
     7
100
AcDbCircle
 10
163.3099630075
 20
449.7036735352
 30
0.0
 40
4.199999999999998
  0
ENDBLK
  5
BA
330
77
100
AcDbEntity
  8
0
100
AcDbBlockEnd
  0
BLOCK
  5
103
330
BB
100
AcDbEntity
  8
0
100
AcDbBlockBegin
  2
SE1
 70
     0
 10
0.0
 20
0.0
 30
0.0
  3
SE1
  1

  0
LINE
  5
BE
330
BB
100
AcDbEntity
  8
12030696_PROTECT
  6
Continuous
 62
     7
100
AcDbLine
 10
384.4077241857
 20
421.3688411902
 30
0.0
 11
384.4077241857
 21
478.0385058802
 31
0.0
  0
LINE
  5
BF
330
BB
100
AcDbEntity
  8
12030696_PROTECT
  6
Continuous
 62
     7
100
AcDbLine
 10
360.6553722739
 20
420.7468648877
 30
0.0
 11
384.4077241857
 21
421.3688411902
 31
0.0
  0
LINE
  5
C0
330
BB
100
AcDbEntity
  8
12030696_PROTECT
  6
Continuous
 62
     7
100
AcDbLine
 10
384.4077241857
 20
478.0385058802
 30
0.0
 11
360.6553722739
 21
478.6604821827
 31
0.0
  0
ARC
  5
C1
330
BB
100
AcDbEntity
  8
12030696_PROTECT
  6
Continuous
 62
     7
100
AcDbCircle
 10
384.3553703666
 20
476.0391912282
 30
0.0
 40
2.000000000000002
100
AcDbArc
 50
30.3327518427
 51
88.5000022219
  0
ARC
  5
C2
330
BB
100
AcDbEntity
  8
12030696_PROTECT
  6
Continuous
 62
     7
100
AcDbCircle
 10
384.3553703666
 20
423.3681558422
 30
0.0
 40
1.999999999999997
100
AcDbArc
 50
271.4999977781
 51
0.0
  0
LINE
  5
C4
330
BB
100
AcDbEntity
  8
12030697_LEVELIN
  6
Continuous
 62
     7
100
AcDbLine
 10
387.2309524511
 20
421.6673230379
 30
0.0
 11
387.0149825709
 21
421.6673230379
 31
0.0
  0
LINE
  5
C5
330
BB
100
AcDbEntity
  8
12030697_LEVELIN
  6
Continuous
 62
     7
100
AcDbLine
 10
387.3622531674
 20
421.6673230379
 30
0.0
 11
387.2309524511
 21
421.6673230379
 31
0.0
  0
LINE
  5
C6
330
BB
100
AcDbEntity
  8
12030697_LEVELIN
  6
Continuous
 62
     7
100
AcDbLine
 10
387.0149825709
 20
421.6673230379
 30
0.0
 11
386.9553703666
 21
421.6673230379
 31
0.0
  0
ARC
  5
C7
330
BB
100
AcDbEntity
  8
12030697_LEVELIN
  6
Continuous
 62
     7
100
AcDbCircle
 10
386.9553703666
 20
421.8673230379
 30
0.0
 40
0.1999999999999953
100
AcDbArc
 50
180.0
 51
270.0
  0
LINE
  5
C8
330
BB
100
AcDbEntity
  8
410436038__ESCUT
  6
Continuous
 62
     7
100
AcDbLine
 10
360.6553722739
 20
419.8419094868
 30
0.0
 11
360.6553722739
 21
479.5654375835
 31
0.0
  0
LINE
  5
C9
330
BB
100
AcDbEntity
  8
410436038__ESCUT
  6
Continuous
 62
     7
100
AcDbLine
 10
356.535770732
 20
532.7036735352
 30
0.0
 11
356.535770732
 21
366.7036735352
 31
0.0
  0
LINE
  5
CA
330
BB
100
AcDbEntity
  8
410436038__ESCUT
  6
Continuous
 62
     7
100
AcDbLine
 10
352.535770732
 20
536.7036735352
 30
0.0
 11
352.535770732
 21
362.7036735352
 31
0.0
  0
LINE
  5
CB
330
BB
100
AcDbEntity
  8
410436038__ESCUT
  6
Continuous
 62
     7
100
AcDbLine
 10
348.8092065273
 20
358.8059313768
 30
0.0
 11
348.8092065273
 21
358.8058732448
 31
0.0
  0
LINE
  5
CC
330
BB
100
AcDbEntity
  8
410436038__ESCUT
  6
Continuous
 62
     7
100
AcDbLine
 10
348.535770732
 20
358.99196226
 30
0.0
 11
348.535770732
 21
540.4154436948
 31
0.0
  0
SPLINE
  5
CD
330
BB
100
AcDbEntity
  8
410436038__ESCUT
  6
Continuous
 62
     7
100
AcDbSpline
210
0.0
220
0.0
230
1.0
 70
     8
 71
     3
 72
    12
 73
     8
 74
     0
 42
0.0000000003037975
 43
0.0000000001
 40
0.0
 40
0.0
 40
0.0
 40
0.0
 40
0.0625000000000002
 40
0.0625000000000002
 40
0.1250000000000003
 40
0.1250000000000003
 40
0.1994172358556202
 40
0.1994172358556202
 40
0.1994172358556202
 40
0.1994172358556202
 10
360.6397226817579
 20
449.7036735351927
 30
0.0
 10
360.6397226817579
 20
450.6159046077022
 30
0.0
 10
360.6376921893606
 20
451.5110696899379
 30
0.0
 10
360.6276420002915
 20
453.1852506720144
 30
0.0
 10
360.6194702228319
 20
453.9526057788387
 30
0.0
 10
360.5914107358046
 20
455.3521888858871
 30
0.0
 10
360.5684698453705
 20
455.9260024888865
 30
0.0
 10
360.5396950810006
 20
456.2657916181227
 30
0.0
  0
SPLINE
  5
CE
330
BB
100
AcDbEntity
  8
410436038__ESCUT
  6
Continuous
 62
     7
100
AcDbSpline
210
0.0
220
0.0
230
1.0
 70
     8
 71
     3
 72
    18
 73
    14
 74
     0
 42
0.000000000289765
 43
0.0000000001
 40
0.3234831327865789
 40
0.3234831327865789
 40
0.3234831327865789
 40
0.3234831327865789
 40
0.3750000000000006
 40
0.3750000000000006
 40
0.4375000000000005
 40
0.4375000000000005
 40
0.5000000000000004
 40
0.5000000000000004
 40
0.6250000000000003
 40
0.6250000000000003
 40
0.6875000000000002
 40
0.6875000000000002
 40
0.6885700771544315
 40
0.6885700771544315
 40
0.6885700771544315
 40
0.6885700771544315
 10
360.3614283293961
 20
455.8941736605259
 30
0.0
 10
360.3353076053307
 20
455.5619777038257
 30
0.0
 10
360.3102894346682
 20
455.1233559603034
 30
0.0
 10
360.260953871349
 20
453.945652636025
 30
0.0
 10
360.2388847087662
 20
453.1848522778417
 30
0.0
 10
360.2084619640159
 20
451.5109561288714
 30
0.0
 10
360.2004463782615
 20
450.6072699363837
 30
0.0
 10
360.2004032654277
 20
447.903915985325
 30
0.0
 10
360.2343490953624
 20
446.1002926460976
 30
0.0
 10
360.3143627077947
 20
444.1850178987701
 30
0.0
 10
360.3456712667862
 20
443.6689072553651
 30
0.0
 10
360.3783511429865
 20
443.3144435052018
 30
0.0
 10
360.3789014250253
 20
443.3085254890617
 30
0.0
 10
360.3794518730965
 20
443.3026562302887
 30
0.0
  0
SPLINE
  5
CF
330
BB
100
AcDbEntity
  8
410436038__ESCUT
  6
Continuous
 62
     7
100
AcDbSpline
210
0.0
220
0.0
230
1.0
 70
     8
 71
     3
 72
    10
 73
     6
 74
     0
 42
0.0000000003055016
 43
0.0000000001
 40
0.8004746471598784
 40
0.8004746471598784
 40
0.8004746471598784
 40
0.8004746471598784
 40
0.8750000000000001
 40
0.8750000000000001
 40
0.9966223403302837
 40
0.9966223403302837
 40
0.9966223403302837
 40
0.9966223403302837
 10
360.5395774189561
 20
443.1374528850298
 30
0.0
 10
360.5684377738413
 20
443.4762216716121
 30
0.0
 10
360.5912811942233
 20
444.0503567625364
 30
0.0
 10
360.6315637625487
 20
446.0552583323021
 30
0.0
 10
360.6393059473878
 20
447.7828797501111
 30
0.0
 10
360.6397061175981
 20
449.5558617867336
 30
0.0
  0
SPLINE
  5
D0
330
BB
100
AcDbEntity
  8
410436038__ESCUT
  6
Continuous
 62
     7
100
AcDbSpline
210
0.0
220
0.0
230
1.0
 70
     8
 71
     3
 72
    26
 73
    22
 74
     0
 42
0.0000000001874635
 43
0.0000000001
 40
0.0
 40
0.0
 40
0.0
 40
0.0
 40
0.0941709642366279
 40
0.1794964222746026
 40
0.2560313347801996
 40
0.3238198053527901
 40
0.3828962145442307
 40
0.4232188140181862
 40
0.4583702465064889
 40
0.4924725793461322
 40
0.5272345517763736
 40
0.5626569880153244
 40
0.639986492984255
 40
0.7195165693902499
 40
0.7919077721727935
 40
0.8176549576137685
 40
0.8418841048976788
 40
0.867817971708454
 40
0.9026742231356144
 40
0.9467300889942266
 40
1.0
 40
1.0
 40
1.0
 40
1.0
 10
356.5357707319982
 20
366.7036735351927
 30
0.0
 10
356.7932142904659
 20
368.5274947905386
 30
0.0
 10
357.2037835829639
 20
371.4525944859489
 30
0.0
 10
357.7929801992012
 20
376.0541746037784
 30
0.0
 10
358.2710961532459
 20
380.0896892264347
 30
0.0
 10
358.6646721933682
 20
383.6893492366132
 30
0.0
 10
358.9632498618208
 20
386.6461777754502
 30
0.0
 10
359.1877247446103
 20
389.0282375026879
 30
0.0
 10
359.360446381838
 20
390.9689224421461
 30
0.0
 10
359.5154665733257
 20
392.8119352784324
 30
0.0
 10
359.6618124157421
 20
394.660482120431
 30
0.0
 10
359.8554947993653
 20
397.2762801225101
 30
0.0
 10
360.0795481557569
 20
400.6879777758848
 30
0.0
 10
360.2977439654929
 20
404.75858032561
 30
0.0
 10
360.4287423250863
 20
407.9149846642484
 30
0.0
 10
360.5014792593055
 20
410.0897239162502
 30
0.0
 10
360.5410057151967
 20
411.4385779443246
 30
0.0
 10
360.5789825507591
 20
412.9513072655399
 30
0.0
 10
360.6159792792634
 20
414.8070231697154
 30
0.0
 10
360.6481438056745
 20
417.2006146013155
 30
0.0
 10
360.6528964040805
 20
418.7999996681086
 30
0.0
 10
360.6553722739253
 20
419.8419094868391
 30
0.0
  0
SPLINE
  5
D1
330
BB
100
AcDbEntity
  8
410436038__ESCUT
  6
Continuous
 62
     7
100
AcDbSpline
210
0.0
220
0.0
230
1.0
 70
     8
 71
     3
 72
    25
 73
    21
 74
     0
 42
0.0000000001874628
 43
0.0000000001
 40
0.0
 40
0.0
 40
0.0
 40
0.0
 40
0.0423790137076208
 40
0.0764200375803596
 40
0.1021328479844076
 40
0.121431075393263
 40
0.1409691722887322
 40
0.1817078891054155
 40
0.2254289238250987
 40
0.379790352720076
 40
0.4116325995061412
 40
0.4473314224386689
 40
0.4887028219288616
 40
0.5357545117136318
 40
0.5884970898149209
 40
0.6469445966663893
 40
0.7231778540430861
 40
0.8073982540438647
 40
0.8996530633919749
 40
1.0
 40
1.0
 40
1.0
 40
1.0
 10
360.6553722739253
 20
479.5654375835464
 30
0.0
 10
360.6538072220781
 20
480.3943300440001
 30
0.0
 10
360.6508473284066
 20
481.6496078499223
 30
0.0
 10
360.6311949048433
 20
483.4987902019377
 30
0.0
 10
360.6093907907153
 20
484.8983331988353
 30
0.0
 10
360.5870484782675
 20
486.046924829869
 30
0.0
 10
360.5548769761808
 20
487.461160606091
 30
0.0
 10
360.5034344460805
 20
489.3098103624104
 30
0.0
 10
360.3556120619641
 20
493.5536308222034
 30
0.0
 10
360.1474178009946
 20
497.6371980222579
 30
0.0
 10
359.8907904043043
 20
501.5744786747321
 30
0.0
 10
359.7550719048652
 20
503.5062963236401
 30
0.0
 10
359.587926786289
 20
505.7069886324392
 30
0.0
 10
359.3819038020922
 20
508.2085538710529
 30
0.0
 10
359.1312672494524
 20
511.0112942043646
 30
0.0
 10
358.8093382905164
 20
514.3273415980085
 30
0.0
 10
358.3981468355204
 20
518.2028787936525
 30
0.0
 10
357.8812551341731
 20
522.6443743899537
 30
0.0
 10
357.2497435806573
 20
527.6207699525912
 30
0.0
 10
356.8097951527048
 20
530.7602044690057
 30
0.0
 10
356.5357707319982
 20
532.7036735351928
 30
0.0
  0
SPLINE
  5
D2
330
BB
100
AcDbEntity
  8
410436038__ESCUT
  6
Continuous
 62
     7
100
AcDbSpline
210
0.0
220
0.0
230
1.0
 70
     8
 71
     3
 72
    11
 73
     7
 74
     0
 42
0.0000000016494538
 43
0.0000000001
 40
0.0
 40
0.0
 40
0.0
 40
0.0
 40
0.2338079017787429
 40
0.4629763303504876
 40
0.7119004836796728
 40
1.0
 40
1.0
 40
1.0
 40
1.0
 10
356.5357707319982
 20
532.7036735351928
 30
0.0
 10
356.4280928799443
 20
533.2055403449851
 30
0.0
 10
356.2239164908386
 20
534.0540172368499
 30
0.0
 10
355.3516180918178
 20
535.2423761052149
 30
0.0
 10
354.0729055049094
 20
536.1517975974228
 30
0.0
 10
353.1346642295372
 20
536.5003177238876
 30
0.0
 10
352.5357707319982
 20
536.703673535193
 30
0.0
  0
SPLINE
  5
D3
330
BB
100
AcDbEntity
  8
410436038__ESCUT
  6
Continuous
 62
     7
100
AcDbSpline
210
0.0
220
0.0
230
1.0
 70
     8
 71
     3
 72
    11
 73
     7
 74
     0
 42
0.0000000016494538
 43
0.0000000001
 40
0.0
 40
0.0
 40
0.0
 40
0.0
 40
0.2880995163203287
 40
0.5370236696495131
 40
0.7661920982212564
 40
1.0
 40
1.0
 40
1.0
 40
1.0
 10
352.5357707319982
 20
362.7036735351924
 30
0.0
 10
353.1346642295372
 20
362.9070293464979
 30
0.0
 10
354.0729055049093
 20
363.2555494729627
 30
0.0
 10
355.3516180918179
 20
364.1649709651704
 30
0.0
 10
356.2239164908386
 20
365.3533298335356
 30
0.0
 10
356.4280928799443
 20
366.2018067254004
 30
0.0
 10
356.5357707319982
 20
366.7036735351927
 30
0.0
  0
SPLINE
  5
D4
330
BB
100
AcDbEntity
  8
410436038__ESCUT
  6
Continuous
 62
     7
100
AcDbSpline
210
0.0
220
0.0
230
1.0
 70
     8
 71
     3
 72
    11
 73
     7
 74
     0
 42
0.0000000017717767
 43
0.0000000001
 40
0.0
 40
0.0
 40
0.0
 40
0.0
 40
0.2557436678125652
 40
0.4992165500910725
 40
0.7430962106844787
 40
1.0
 40
1.0
 40
1.0
 40
1.0
 10
352.5357707319982
 20
536.703673535193
 30
0.0
 10
352.3442095264742
 20
537.1929499626232
 30
0.0
 10
352.011180100866
 20
537.9984151452384
 30
0.0
 10
351.1517917667168
 20
539.1307171017097
 30
0.0
 10
350.0524046763225
 20
540.0349711762635
 30
0.0
 10
349.2590007218893
 20
540.4020393623332
 30
0.0
 10
348.7758493343339
 20
540.6145537041684
 30
0.0
  0
SPLINE
  5
D5
330
BB
100
AcDbEntity
  8
410436038__ESCUT
  6
Continuous
 62
     7
100
AcDbSpline
210
0.0
220
0.0
230
1.0
 70
     8
 71
     3
 72
    11
 73
     7
 74
     0
 42
0.0000000017717767
 43
0.0000000001
 40
0.0
 40
0.0
 40
0.0
 40
0.0
 40
0.2569037893155213
 40
0.5007834499089275
 40
0.7442563321874348
 40
1.0
 40
1.0
 40
1.0
 40
1.0
 10
348.7758493343339
 20
358.792793366217
 30
0.0
 10
349.2590007218893
 20
359.0053077080523
 30
0.0
 10
350.0524046763225
 20
359.3723758941221
 30
0.0
 10
351.1517917667168
 20
360.2766299686757
 30
0.0
 10
352.0111801008659
 20
361.4089319251472
 30
0.0
 10
352.3442095264742
 20
362.2143971077624
 30
0.0
 10
352.5357707319982
 20
362.7036735351924
 30
0.0
  0
ARC
  5
D6
330
BB
100
AcDbEntity
  8
410436038__ESCUT
  6
Continuous
 62
     7
100
AcDbCircle
 10
348.7357709632
 20
540.4153281114
 30
0.0
 40
0.2000002320269264
100
AcDbArc
 50
66.4293074645
 51
180.0662259312
  0
ARC
  5
D7
330
BB
100
AcDbEntity
  8
410436038__ESCUT
  6
Continuous
 62
     7
100
AcDbCircle
 10
348.7357708507
 20
358.9919618076
 30
0.0
 40
0.2000001189436053
100
AcDbArc
 50
179.9665469302
 51
294.430855681
  0
SPLINE
  5
D8
330
BB
100
AcDbEntity
  8
410436038__ESCUT
  6
Continuous
 62
     7
100
AcDbSpline
210
0.0
220
0.0
230
1.0
 70
     8
 71
     3
 72
    10
 73
     6
 74
     0
 42
0.0000000125044501
 43
0.0000000001
 40
0.0
 40
0.0
 40
0.0
 40
0.0
 40
0.2196581246351953
 40
0.4250435356860967
 40
0.5581526532463693
 40
0.5581526532463693
 40
0.5581526532463693
 40
0.5581526532463693
 10
360.3585335178217
 20
455.7681976408035
 30
0.0
 10
360.3672018264959
 20
455.8721560168419
 30
0.0
 10
360.3808859704757
 20
456.036758678092
 30
0.0
 10
360.3984387720429
 20
456.1785146853025
 30
0.0
 10
360.4042740680841
 20
456.2120161960992
 30
0.0
 10
360.4042485505535
 20
456.2120022810679
 30
0.0
  0
SPLINE
  5
D9
330
BB
100
AcDbEntity
  8
410436038__ESCUT
  6
Continuous
 62
     7
100
AcDbSpline
210
0.0
220
0.0
230
1.0
 70
     8
 71
     3
 72
    10
 73
     6
 74
     0
 42
0.0000000182947378
 43
0.0000000001
 40
0.5221691860713218
 40
0.5221691860713218
 40
0.5221691860713218
 40
0.5221691860713218
 40
0.5961303376817102
 40
0.7800285039155259
 40
1.0
 40
1.0
 40
1.0
 40
1.0
 10
360.4043275161689
 20
443.1949375197386
 30
0.0
 10
360.404337793864
 20
443.1949322324648
 30
0.0
 10
360.4022228031573
 20
443.2061041593766
 30
0.0
 10
360.3917388054379
 20
443.2777351476648
 30
0.0
 10
360.3813220857137
 20
443.3832367392024
 30
0.0
 10
360.3742169297276
 20
443.4542764838761
 30
0.0
  0
SPLINE
  5
DA
330
BB
100
AcDbEntity
  8
410438038__HANDL
  6
Continuous
 62
     7
100
AcDbSpline
210
0.0
220
0.0
230
1.0
 70
     8
 71
     3
 72
    36
 73
    32
 74
     0
 42
0.000000000190153
 43
0.0000000001
 40
0.0
 40
0.0
 40
0.0
 40
0.0
 40
0.0221390106418602
 40
0.0442456318721789
 40
0.0663198924791147
 40
0.0883618211428468
 40
0.1103714464342389
 40
0.1323487968135161
 40
0.1542939006289498
 40
0.1762067861155506
 40
0.1980874813937726
 40
0.2199360144682238
 40
0.241752413226388
 40
0.2635367054373562
 40
0.2852889187505639
 40
0.3070090806945415
 40
0.32869721867567
 40
0.3503533599769509
 40
0.3719775317567781
 40
0.3935697610477275
 40
0.4151300747553467
 40
0.4366584996569619
 40
0.4581550624004897
 40
0.4796197895032585
 40
0.5010527073508378
 40
0.6141169053153258
 40
0.7502238697889897
 40
0.8796563461251132
 40
0.9629896556923733
 40
0.9998435479082742
 40
1.0
 40
1.0
 40
1.0
 40
1.0
 10
390.3989766163965
 20
423.847437173283
 30
0.0
 10
390.3991084558593
 20
424.0150210190412
 30
0.0
 10
390.3993722679336
 20
424.3499438655094
 30
0.0
 10
390.3997276467935
 20
424.9798963800798
 30
0.0
 10
390.4000531171399
 20
425.6992517318222
 30
0.0
 10
390.4003458245257
 20
426.5140584575408
 30
0.0
 10
390.4006065427964
 20
427.4181984094055
 30
0.0
 10
390.4008350745889
 20
428.4083847817641
 30
0.0
 10
390.4010314810586
 20
429.4801760560443
 30
0.0
 10
390.4011957530979
 20
430.6290668251714
 30
0.0
 10
390.4013278992398
 20
431.8502224233848
 30
0.0
 10
390.401427922156
 20
433.138577185534
 30
0.0
 10
390.40149582494
 20
434.4888363973843
 30
0.0
 10
390.4015316094279
 20
435.8955047797161
 30
0.0
 10
390.4015352766457
 20
437.3529085296307
 30
0.0
 10
390.401506826695
 20
438.8552196259816
 30
0.0
 10
390.401446258764
 20
440.3964798720625
 30
0.0
 10
390.4013535711985
 20
441.9706254865219
 30
0.0
 10
390.4012287612056
 20
443.571510920035
 30
0.0
 10
390.4010718259677
 20
445.1929357735615
 30
0.0
 10
390.4008827584897
 20
446.8286600796995
 30
0.0
 10
390.4006615630655
 20
448.472462336666
 30
0.0
 10
390.4004081976831
 20
450.1180373303786
 30
0.0
 10
390.4001227884955
 20
451.7594891060913
 30
0.0
 10
390.3993515575514
 20
455.7134679843437
 30
0.0
 10
390.3976007701526
 20
462.4294548056633
 30
0.0
 10
390.3945281675945
 20
470.2518390006029
 30
0.0
 10
390.3915058978323
 20
474.8476059452471
 30
0.0
 10
390.3894251865692
 20
476.2738396345762
 30
0.0
 10
390.3883955392888
 20
476.4363831470694
 30
0.0
 10
390.38811372781
 20
476.4363868758064
 30
0.0
 10
390.3881125365215
 20
476.4363868915687
 30
0.0
  0
ARC
  5
DB
330
BB
100
AcDbEntity
  8
410438038__HANDL
  6
Continuous
 62
     7
100
AcDbCircle
 10
213.5769715739
 20
424.0892045327
 30
0.0
 40
176.8221703257116
100
AcDbArc
 50
359.5749175612
 51
359.9216599728
  0
ARC
  5
DC
330
BB
100
AcDbEntity
  8
410438038__HANDL
  6
Continuous
 62
     7
100
AcDbCircle
 10
391.8436613144
 20
421.3992165192
 30
0.0
 40
1.999999727829882
100
AcDbArc
 50
89.1794739509
 51
136.4434701755
  0
ARC
  5
DD
330
BB
100
AcDbEntity
  8
410438038__HANDL
  6
Continuous
 62
     7
100
AcDbCircle
 10
391.8342833418
 20
477.8179037766
 30
0.0
 40
1.999999725400725
100
AcDbArc
 50
223.6901837016
 51
270.5630942669
  0
SPLINE
  5
DE
330
BB
100
AcDbEntity
  8
410438038__HANDL
  6
Continuous
 62
     7
100
AcDbSpline
210
0.0
220
0.0
230
1.0
 70
    12
 71
     3
 72
   180
 73
   176
 74
     0
 42
0.0000000001946608
 43
0.0000000001
 40
0.0
 40
0.0
 40
0.0
 40
0.0
 40
0.0156246474717149
 40
0.0156246474717149
 40
0.0312496530674032
 40
0.0312496530674032
 40
0.0468746586630915
 40
0.0468746586630915
 40
0.0546871614609293
 40
0.0546871614609293
 40
0.056640287160386
 40
0.056640287160386
 40
0.0585934128598545
 40
0.0585934128598545
 40
0.0624996642587798
 40
0.0624996642587798
 40
0.078124669854456
 40
0.078124669854456
 40
0.0937496754501443
 40
0.0937496754501443
 40
0.1093746810458326
 40
0.1093746810458326
 40
0.1249996866415209
 40
0.1249996866415209
 40
0.1406246922372096
 40
0.1406246922372096
 40
0.1562496978328979
 40
0.1562496978328979
 40
0.1718747034285866
 40
0.1718747034285866
 40
0.1757809548275115
 40
0.1757809548275115
 40
0.1796872062264243
 40
0.1796872062264243
 40
0.1874997090242749
 40
0.1874997090242749
 40
0.2031247146199632
 40
0.2031247146199632
 40
0.2187497202156519
 40
0.2187497202156519
 40
0.2343747258113277
 40
0.2343747258113277
 40
0.249999731407016
 40
0.249999731407016
 40
0.2656247370027043
 40
0.2656247370027043
 40
0.2812497425983926
 40
0.2812497425983926
 40
0.2890622453962432
 40
0.2890622453962432
 40
0.2910153710956996
 40
0.2910153710956996
 40
0.292968496795156
 40
0.292968496795156
 40
0.2968747481940813
 40
0.2968747481940813
 40
0.31249975378977
 40
0.31249975378977
 40
0.3281247593854583
 40
0.3281247593854583
 40
0.3437497649811466
 40
0.3437497649811466
 40
0.3593747705768349
 40
0.3593747705768349
 40
0.3749997761725108
 40
0.3749997761725108
 40
0.3906247817681994
 40
0.3906247817681994
 40
0.4062497873638877
 40
0.4062497873638877
 40
0.4082029130633566
 40
0.4082029130633566
 40
0.410156038762813
 40
0.410156038762813
 40
0.4140622901617383
 40
0.4140622901617383
 40
0.421874792959576
 40
0.421874792959576
 40
0.4374997985552643
 40
0.4374997985552643
 40
0.4531248041509527
 40
0.4531248041509527
 40
0.4687498097466413
 40
0.4687498097466413
 40
0.48437481534233
 40
0.48437481534233
 40
0.4999998209380183
 40
0.4999998209380183
 40
0.5156248265336941
 40
0.5156248265336941
 40
0.5234373293315444
 40
0.5234373293315444
 40
0.5273435807304696
 40
0.5273435807304696
 40
0.5292967064299264
 40
0.5292967064299264
 40
0.5312498321293825
 40
0.5312498321293825
 40
0.5468748377250707
 40
0.5468748377250707
 40
0.5624998433207594
 40
0.5624998433207594
 40
0.5781248489164478
 40
0.5781248489164478
 40
0.593749854512136
 40
0.593749854512136
 40
0.6093748601078247
 40
0.6093748601078247
 40
0.6249998657035131
 40
0.6249998657035131
 40
0.6406248712992013
 40
0.6406248712992013
 40
0.6445311226981142
 40
0.6445311226981142
 40
0.646484248397583
 40
0.646484248397583
 40
0.6484373740970395
 40
0.6484373740970395
 40
0.65624987689489
 40
0.65624987689489
 40
0.6718748824905658
 40
0.6718748824905658
 40
0.6874998880862542
 40
0.6874998880862542
 40
0.7031248936819429
 40
0.7031248936819429
 40
0.7187498992776311
 40
0.7187498992776311
 40
0.7343749048733195
 40
0.7343749048733195
 40
0.7499999104690082
 40
0.7499999104690082
 40
0.7578124132668459
 40
0.7578124132668459
 40
0.7617186646657711
 40
0.7617186646657711
 40
0.7636717903652276
 40
0.7636717903652276
 40
0.7656249160646961
 40
0.7656249160646961
 40
0.7812499216603848
 40
0.7812499216603848
 40
0.7968749272560733
 40
0.7968749272560733
 40
0.8124999328517493
 40
0.8124999328517493
 40
0.8281249384474375
 40
0.8281249384474375
 40
0.8437499440431259
 40
0.8437499440431259
 40
0.8593749496388142
 40
0.8593749496388142
 40
0.8749999552345028
 40
0.8749999552345028
 40
0.8789062066334281
 40
0.8789062066334281
 40
0.8808593323328842
 40
0.8808593323328842
 40
0.882812458032341
 40
0.882812458032341
 40
0.8906249608301902
 40
0.8906249608301902
 40
0.9062499664258774
 40
0.9062499664258774
 40
0.921874972021564
 40
0.921874972021564
 40
0.9374999776172512
 40
0.9374999776172512
 40
0.9531249832129385
 40
0.9531249832129385
 40
0.9687499888086258
 40
0.9687499888086258
 40
0.9843749944043131
 40
0.9843749944043131
 40
1.0
 40
1.0
 40
1.0
 40
1.0
 10
391.8706430115884
 20
424.4467891505983
 30
0.0
 41
1.0
 10
391.8707838409483
 20
424.5552720467874
 30
0.0
 41
1.0
 10
391.870926651208
 20
424.6720602796017
 30
0.0
 41
1.0
 10
391.8712057700202
 20
424.9223200129902
 30
0.0
 41
1.0
 10
391.8713420784185
 20
425.055791771983
 30
0.0
 41
1.0
 10
391.8716081274808
 20
425.3395868519427
 30
0.0
 41
1.0
 10
391.8717378681861
 20
425.4899099449914
 30
0.0
 41
1.0
 10
391.8719274756232
 20
425.7282404308468
 30
0.0
 41
1.0
 10
391.8719898438445
 20
425.809825748972
 30
0.0
 41
1.0
 10
391.8720667505654
 20
425.914512915916
 30
0.0
 41
1.0
 10
391.8720820836363
 20
425.9355918372208
 30
0.0
 41
1.0
 10
391.8721126098239
 20
425.9779731341176
 30
0.0
 41
1.0
 10
391.8721278055274
 20
425.9992789067595
 30
0.0
 41
1.0
 10
391.8721731910538
 20
426.0635406365219
 30
0.0
 41
1.0
 10
391.8722031792894
 20
426.1068409933162
 30
0.0
 41
1.0
 10
391.8723517837793
 20
426.3256267233011
 30
0.0
 41
1.0
 10
391.8724663921607
 20
426.5079602271648
 30
0.0
 41
1.0
 10
391.8726872076693
 20
426.8869884674553
 30
0.0
 41
1.0
 10
391.8727934146568
 20
427.0836834116842
 30
0.0
 41
1.0
 10
391.8729975227338
 20
427.4912773942156
 30
0.0
 41
1.0
 10
391.8730954237761
 20
427.70217654679
 30
0.0
 41
1.0
 10
391.8732829647665
 20
428.1381078641215
 30
0.0
 41
1.0
 10
391.8733726047255
 20
428.3631400577727
 30
0.0
 41
1.0
 10
391.8735436191016
 20
428.8273503101727
 30
0.0
 41
1.0
 10
391.8736249935646
 20
429.0665283144588
 30
0.0
 41
1.0
 10
391.8737794230487
 20
429.5591273617782
 30
0.0
 41
1.0
 10
391.8738524781398
 20
429.8125482631504
 30
0.0
 41
1.0
 10
391.8739901637892
 20
430.3338175200627
 30
0.0
 41
1.0
 10
391.8740547944783
 20
430.6016656365535
 30
0.0
 41
1.0
 10
391.874130217797
 20
430.9456662665281
 30
0.0
 41
1.0
 10
391.8741450406821
 20
431.0149595721592
 30
0.0
 41
1.0
 10
391.8741740777974
 20
431.1541343890125
 30
0.0
 41
1.0
 10
391.8741882996208
 20
431.2240489664244
 30
0.0
 41
1.0
 10
391.8742300797104
 20
431.4347689614798
 30
0.0
 41
1.0
 10
391.8742567527095
 20
431.5765505079745
 30
0.0
 41
1.0
 10
391.874333264473
 20
432.0057627710722
 30
0.0
 41
1.0
 10
391.8743795978507
 20
432.2970591010362
 30
0.0
 41
1.0
 10
391.8744630510593
 20
432.8898139598659
 30
0.0
 41
1.0
 10
391.8745001708034
 20
433.1912726058831
 30
0.0
 41
1.0
 10
391.8745652744622
 20
433.8042679086591
 30
0.0
 41
1.0
 10
391.8745932583425
 20
434.115804619166
 30
0.0
 41
1.0
 10
391.8746401129172
 20
434.7489322047847
 30
0.0
 41
1.0
 10
391.8746589836663
 20
435.0705230740355
 30
0.0
 41
1.0
 10
391.8746875801913
 20
435.7237947650849
 30
0.0
 41
1.0
 10
391.8746973061016
 20
436.0554755210089
 30
0.0
 41
1.0
 10
391.8747075259545
 20
436.7290234774248
 30
0.0
 41
1.0
 10
391.8747080200067
 20
437.0708905473697
 30
0.0
 41
1.0
 10
391.8747017282753
 20
437.5914510753639
 30
0.0
 41
1.0
 10
391.8746984584421
 20
437.7662650813929
 30
0.0
 41
1.0
 10
391.874692890423
 20
437.9864163789321
 30
0.0
 41
1.0
 10
391.8746917027735
 20
438.0305283386837
 30
0.0
 41
1.0
 10
391.8746891789672
 20
438.1189161146947
 30
0.0
 41
1.0
 10
391.8746878425544
 20
438.1631986060291
 30
0.0
 41
1.0
 10
391.8746836155031
 20
438.2961252325891
 30
0.0
 41
1.0
 10
391.874680505673
 20
438.3849008777976
 30
0.0
 41
1.0
 10
391.8746635054243
 20
438.8295642892451
 30
0.0
 41
1.0
 10
391.8746452641138
 20
439.1878063281595
 30
0.0
 41
1.0
 10
391.874599662644
 20
439.9092242535443
 30
0.0
 41
1.0
 10
391.8745723023489
 20
440.272400214987
 30
0.0
 41
1.0
 10
391.8745085674749
 20
441.003628832689
 30
0.0
 41
1.0
 10
391.8744721928518
 20
441.3716815314119
 30
0.0
 41
1.0
 10
391.8743904788102
 20
442.1126361212583
 30
0.0
 41
1.0
 10
391.8743451393853
 20
442.4855380253599
 30
0.0
 41
1.0
 10
391.8742454916315
 20
443.2361923517722
 30
0.0
 41
1.0
 10
391.8741911833473
 20
443.6139447584658
 30
0.0
 41
1.0
 10
391.8740735400171
 20
444.3743302846757
 30
0.0
 41
1.0
 10
391.8740102050778
 20
444.75696335891
 30
0.0
 41
1.0
 10
391.8738743952994
 20
445.5271701899696
 30
0.0
 41
1.0
 10
391.8738019205564
 20
445.9147438686102
 30
0.0
 41
1.0
 10
391.8737151484608
 20
446.3535949055088
 30
0.0
 41
1.0
 10
391.873705434329
 20
446.4023954676708
 30
0.0
 41
1.0
 10
391.8736858600802
 20
446.5000754798387
 30
0.0
 41
1.0
 10
391.8736759977725
 20
446.5489656953316
 30
0.0
 41
1.0
 10
391.8736462062367
 20
446.695681274779
 30
0.0
 41
1.0
 10
391.8736260906905
 20
446.7934620493041
 30
0.0
 41
1.0
 10
391.8735649846583
 20
447.0867160273739
 30
0.0
 41
1.0
 10
391.8735232348573
 20
447.2821008976072
 30
0.0
 41
1.0
 10
391.8733949774253
 20
447.8679056316905
 30
0.0
 41
1.0
 10
391.8733054632967
 20
448.2579758017253
 30
0.0
 41
1.0
 10
391.8731185335876
 20
449.0371974468151
 30
0.0
 41
1.0
 10
391.8730211178676
 20
449.4263489106235
 30
0.0
 41
1.0
 10
391.8728184521989
 20
450.203741339192
 30
0.0
 41
1.0
 10
391.8727132021923
 20
450.5919822984855
 30
0.0
 41
1.0
 10
391.8724948879934
 20
451.3675564492077
 30
0.0
 41
1.0
 10
391.8723818238056
 20
451.7548896405811
 30
0.0
 41
1.0
 10
391.8721478548736
 20
452.5286456031174
 30
0.0
 41
1.0
 10
391.8720269501285
 20
452.9150683796345
 30
0.0
 41
1.0
 10
391.8717772264741
 20
453.6869953973139
 30
0.0
 41
1.0
 10
391.8716484076177
 20
454.072499649613
 30
0.0
 41
1.0
 10
391.8714491514044
 20
454.6500567591621
 30
0.0
 41
1.0
 10
391.8713817276153
 20
454.8424592051898
 30
0.0
 41
1.0
 10
391.8712790691363
 20
455.1308862639364
 30
0.0
 41
1.0
 10
391.8712445958077
 20
455.2269991787487
 30
0.0
 41
1.0
 10
391.8711925029239
 20
455.3711241501971
 30
0.0
 41
1.0
 10
391.8711750766036
 20
455.4191533171232
 30
0.0
 41
1.0
 10
391.871140140645
 20
455.515074794227
 30
0.0
 41
1.0
 10
391.8711226255945
 20
455.5629821248337
 30
0.0
 41
1.0
 10
391.8709645675915
 20
455.9936687523865
 30
0.0
 41
1.0
 10
391.8708210685128
 20
456.3730944600395
 30
0.0
 41
1.0
 10
391.8705281703469
 20
457.1252570979186
 30
0.0
 41
1.0
 10
391.8703787711388
 20
457.4979939215158
 30
0.0
 41
1.0
 10
391.8700741409487
 20
458.2368605714991
 30
0.0
 41
1.0
 10
391.8699189098579
 20
458.6029903359153
 30
0.0
 41
1.0
 10
391.8696026485497
 20
459.3286843245536
 30
0.0
 41
1.0
 10
391.8694416183206
 20
459.688248527022
 30
0.0
 41
1.0
 10
391.8691137569325
 20
460.4008137668563
 30
0.0
 41
1.0
 10
391.8689469258302
 20
460.7538148211378
 30
0.0
 41
1.0
 10
391.8686074265475
 20
461.4532171268477
 30
0.0
 41
1.0
 10
391.868434758419
 20
461.7996184350645
 30
0.0
 41
1.0
 10
391.8680835135916
 20
462.4857444997522
 30
0.0
 41
1.0
 10
391.8679049369222
 20
462.825469356927
 30
0.0
 41
1.0
 10
391.8676779549923
 20
463.2458780813411
 30
0.0
 41
1.0
 10
391.8676323704581
 20
463.3297473504558
 30
0.0
 41
1.0
 10
391.8675637098581
 20
463.4552308096452
 30
0.0
 41
1.0
 10
391.8675407684661
 20
463.4970183103974
 30
0.0
 41
1.0
 10
391.867494830689
 20
463.5804138680603
 30
0.0
 41
1.0
 10
391.8674718364554
 20
463.6220181300258
 30
0.0
 41
1.0
 10
391.8673567388872
 20
463.8295731631463
 30
0.0
 41
1.0
 10
391.8672642564365
 20
463.9941253006871
 30
0.0
 41
1.0
 10
391.8669856075331
 20
464.4833514915401
 30
0.0
 41
1.0
 10
391.8667982401887
 20
464.8035976514089
 30
0.0
 41
1.0
 10
391.8664203494951
 20
465.432464971864
 30
0.0
 41
1.0
 10
391.866229826076
 20
465.7410859821677
 30
0.0
 41
1.0
 10
391.8658456505393
 20
466.3468141485463
 30
0.0
 41
1.0
 10
391.8656519983642
 20
466.6439212282883
 30
0.0
 41
1.0
 10
391.8652615739553
 20
467.2266633871637
 30
0.0
 41
1.0
 10
391.8650648017443
 20
467.5122984584889
 30
0.0
 41
1.0
 10
391.8646681277961
 20
468.0720704085274
 30
0.0
 41
1.0
 10
391.8644682260423
 20
468.3462073474018
 30
0.0
 41
1.0
 10
391.8640652650211
 20
468.8828880119129
 30
0.0
 41
1.0
 10
391.8638622057842
 20
469.1454318699365
 30
0.0
 41
1.0
 10
391.8635552133333
 20
469.5304277099023
 30
0.0
 41
1.0
 10
391.8634524817719
 20
469.6572890925993
 30
0.0
 41
1.0
 10
391.8632977774129
 20
469.8453543220463
 30
0.0
 41
1.0
 10
391.8632461081199
 20
469.907671552941
 30
0.0
 41
1.0
 10
391.8631684515848
 20
470.0005876552486
 30
0.0
 41
1.0
 10
391.8631425406403
 20
470.0314663961994
 30
0.0
 41
1.0
 10
391.8630906677358
 20
470.0930367657899
 30
0.0
 41
1.0
 10
391.8630647181031
 20
470.1237137107405
 30
0.0
 41
1.0
 10
391.8628312157232
 20
470.3986416069244
 30
0.0
 41
1.0
 10
391.8626236188374
 20
470.6351657956761
 30
0.0
 41
1.0
 10
391.8622083468371
 20
471.092800321246
 30
0.0
 41
1.0
 10
391.8620006717717
 20
471.3139104008344
 30
0.0
 41
1.0
 10
391.8615852436543
 20
471.7409150964538
 30
0.0
 41
1.0
 10
391.8613774906127
 20
471.9468095595224
 30
0.0
 41
1.0
 10
391.8609619066387
 20
472.3434881710619
 30
0.0
 41
1.0
 10
391.8607540757147
 20
472.5342722598328
 30
0.0
 41
1.0
 10
391.8603383359483
 20
472.9007451858395
 30
0.0
 41
1.0
 10
391.8601304271168
 20
473.0764340524374
 30
0.0
 41
1.0
 10
391.859714531386
 20
473.4126419559931
 30
0.0
 41
1.0
 10
391.8595065444846
 20
473.5731611134224
 30
0.0
 41
1.0
 10
391.8590904924576
 20
473.878863146046
 30
0.0
 41
1.0
 10
391.8588824272609
 20
474.0240462414052
 30
0.0
 41
1.0
 10
391.8586222966003
 20
474.1957753115619
 30
0.0
 41
1.0
 10
391.8585702680133
 20
474.2296333884985
 30
0.0
 41
1.0
 10
391.8584922214376
 20
474.2796850510694
 30
0.0
 41
1.0
 10
391.8584662052961
 20
474.2962463598785
 30
0.0
 41
1.0
 10
391.8584141717812
 20
474.3291231395311
 30
0.0
 41
1.0
 10
391.8583881467821
 20
474.3454433125676
 30
0.0
 41
1.0
 10
391.8582581640154
 20
474.4263378188476
 30
0.0
 41
1.0
 10
391.8581545670015
 20
474.4888362275067
 30
0.0
 41
1.0
 10
391.8578449315663
 20
474.6697496494121
 30
0.0
 41
1.0
 10
391.8576400481419
 20
474.7815863382996
 30
0.0
 41
1.0
 10
391.857233313271
 20
474.9880004277397
 30
0.0
 41
1.0
 10
391.8570314618549
 20
475.0825775929111
 30
0.0
 41
1.0
 10
391.8566307619478
 20
475.2546486868596
 30
0.0
 41
1.0
 10
391.8564319135151
 20
475.3321424912053
 30
0.0
 41
1.0
 10
391.856037209051
 20
475.4701198028179
 30
0.0
 41
1.0
 10
391.855841352976
 20
475.5306032877583
 30
0.0
 41
1.0
 10
391.8554526407023
 20
475.6345319610979
 30
0.0
 41
1.0
 10
391.8552597844463
 20
475.6779772277112
 30
0.0
 41
1.0
 10
391.8548770974066
 20
475.7476996884075
 30
0.0
 41
1.0
 10
391.8546872665969
 20
475.7739770667557
 30
0.0
 41
1.0
 10
391.8543106749994
 20
475.8091282899335
 30
0.0
 41
1.0
 10
391.8541239139673
 20
475.8180024383747
 30
0.0
 41
1.0
 10
391.8539387207921
 20
475.8180006182656
 30
0.0
 41
1.0
  0
SPLINE
  5
DF
330
BB
100
AcDbEntity
  8
410438038__HANDL
  6
Continuous
 62
     7
100
AcDbSpline
210
0.0
220
0.0
230
1.0
 70
    12
 71
     3
 72
     8
 73
     4
 74
     0
 42
0.0000000004271935
 43
0.0000000001
 40
0.0
 40
0.0
 40
0.0
 40
0.0
 40
1.0
 40
1.0
 40
1.0
 40
1.0
 10
391.8539387207921
 20
475.8180006182656
 30
0.0
 41
0.9470217664462149
 10
399.6533582225907
 20
475.8946546030153
 30
0.0
 41
0.9470217664462149
 10
407.4452591983129
 20
476.413401864996
 30
0.0
 41
0.9470217664462149
 10
415.1865296076316
 20
477.3658884230639
 30
0.0
 41
0.9470217664462149
  0
ARC
  5
E0
330
BB
100
AcDbEntity
  8
410438038__HANDL
  6
Continuous
 62
     7
100
AcDbCircle
 10
22158.6726011275
 20
454.0466992904
 30
0.0
 40
21743.49857605625
100
AcDbArc
 50
179.9385521437
 51
180.0621625343
  0
ARC
  5
E1
330
BB
100
AcDbEntity
  8
410438038__HANDL
  6
Continuous
 62
     7
100
AcDbCircle
 10
411.7453105933
 20
395.5721703761
 30
0.0
 40
35.0534737344823
100
AcDbArc
 50
84.3656867948
 51
124.5399966367
  0
ARC
  5
E2
330
BB
100
AcDbEntity
  8
410438038__HANDL
  6
Continuous
 62
     7
100
AcDbCircle
 10
415.3086497562
 20
476.373374491
 30
0.0
 40
0.9999986180604454
100
AcDbArc
 50
9.7013928217
 51
97.0144879616
  0
SPLINE
  5
E3
330
BB
100
AcDbEntity
  8
410438038__HANDL
  6
Continuous
 62
     7
100
AcDbSpline
210
0.0
220
0.0
230
1.0
 70
     8
 71
     3
 72
    45
 73
    41
 74
     0
 42
0.0000000001506628
 43
0.0000000001
 40
0.0
 40
0.0
 40
0.0
 40
0.0
 40
0.0090471153979437
 40
0.0180942307958874
 40
0.0361884615917747
 40
0.0542826923876621
 40
0.0723769231835494
 40
0.1085653847753241
 40
0.1447538463670988
 40
0.1809423079588735
 40
0.2171307695506483
 40
0.2895076927341976
 40
0.3618846159177471
 40
0.3980730775095218
 40
0.4342615391012965
 40
0.4704500006930712
 40
0.5066384622848459
 40
0.5428269238766206
 40
0.5790153854683953
 40
0.61520384706017
 40
0.6513923086519448
 40
0.6875807702437194
 40
0.7056750010396068
 40
0.7237692318354941
 40
0.7418634626313815
 40
0.7599576934272688
 40
0.7780519242231562
 40
0.7961461550190435
 40
0.8323346166108182
 40
0.8504288474067055
 40
0.868523078202593
 40
0.868523078202593
 40
0.8866173089984803
 40
0.9047115397943677
 40
0.922805770590255
 40
0.9409000013861424
 40
0.9589942321820297
 40
0.9770884629779171
 40
0.9951826937738044
 40
1.0
 40
1.0
 40
1.0
 40
1.0
 10
407.6500681704509
 20
359.3234916561695
 30
0.0
 10
407.6223456080093
 20
359.5140488282786
 30
0.0
 10
407.5747649681043
 20
359.8962813981916
 30
0.0
 10
407.4974424172863
 20
360.6627023163346
 30
0.0
 10
407.4231797041953
 20
361.6228250240155
 30
0.0
 10
407.3552735642853
 20
362.7765411786386
 30
0.0
 10
407.2859843164662
 20
364.3163064718296
 30
0.0
 10
407.2319121912643
 20
366.2432149675376
 30
0.0
 10
407.2113181494843
 20
368.5585766959426
 30
0.0
 10
407.2355462779253
 20
370.8769743648585
 30
0.0
 10
407.3322042617953
 20
373.9718632379106
 30
0.0
 10
407.5501042799193
 20
377.8477692007086
 30
0.0
 10
407.8332175763363
 20
381.7394624334066
 30
0.0
 10
408.0694929492573
 20
384.8672893427216
 30
0.0
 10
408.2480902740483
 20
387.2214430830066
 30
0.0
 10
408.4253072150343
 20
389.5848341514406
 30
0.0
 10
408.5984067396653
 20
391.9584187983516
 30
0.0
 10
408.7640347561223
 20
394.3432451580976
 30
0.0
 10
408.9148101559983
 20
396.7404295778656
 30
0.0
 10
409.0433518308843
 20
399.1510884048426
 30
0.0
 10
409.1419266306473
 20
401.5761295481796
 30
0.0
 10
409.1903011462993
 20
403.6094909093326
 30
0.0
 10
409.1996182983673
 20
405.2438815677806
 30
0.0
 10
409.1887743748763
 20
406.4732685019396
 30
0.0
 10
409.1564213415553
 20
407.7059372409416
 30
0.0
 10
409.0977200914033
 20
408.9409901057866
 30
0.0
 10
409.0083682823903
 20
410.1775847085146
 30
0.0
 10
408.8380880887993
 20
411.8260720266606
 30
0.0
 10
408.5667700837174
 20
413.4689172895936
 30
0.0
 10
408.1497270088083
 20
415.0853729359196
 30
0.0
 10
407.8790489305874
 20
415.8770155467506
 30
0.0
 10
407.5705909355804
 20
416.6547453770836
 30
0.0
 10
407.2243530237884
 20
417.4185624268634
 30
0.0
 10
406.5731035094551
 20
418.4982447899323
 30
0.0
 10
405.7837086221611
 20
419.4849800904148
 30
0.0
 10
404.8569670905206
 20
420.3468434084853
 30
0.0
 10
403.8243809698056
 20
421.0806546504371
 30
0.0
 10
402.7091882575359
 20
421.6839447367354
 30
0.0
 10
401.8209334718993
 20
422.044416921576
 30
0.0
 10
401.3139625763517
 20
422.2161839741593
 30
0.0
 10
401.2069458000229
 20
422.2510538381817
 30
0.0
  0
ARC
  5
E4
330
BB
100
AcDbEntity
  8
410438038__HANDL
  6
Continuous
 62
     7
100
AcDbCircle
 10
12099.8323201305
 20
453.8682454154
 30
0.0
 40
11683.55997312932
100
AcDbArc
 50
179.8888091625
 51
180.1120238415
  0
SPLINE
  5
E5
330
BB
100
AcDbEntity
  8
410438038__HANDL
  6
Continuous
 62
     7
100
AcDbSpline
210
0.0
220
0.0
230
1.0
 70
     8
 71
     3
 72
    34
 73
    30
 74
     0
 42
0.0000000001467389
 43
0.0000000001
 40
0.0
 40
0.0
 40
0.0
 40
0.0
 40
0.0289516127728515
 40
0.0620866339702719
 40
0.1248454388478424
 40
0.1863198993658404
 40
0.2495812360435945
 40
0.3747316378762232
 40
0.4998924871565935
 40
0.6244640332005993
 40
0.6554647715672858
 40
0.6865613241160243
 40
0.7177449885308693
 40
0.7492236760266955
 40
0.7813970828299103
 40
0.796980157866561
 40
0.8115078247342656
 40
0.8193705087756754
 40
0.8271134797284447
 40
0.8427970398970853
 40
0.8743526201618609
 40
0.9057591414709916
 40
0.9216417764367557
 40
0.9371209572758202
 40
0.9448471009673697
 40
0.9528236769037066
 40
0.9685259681300868
 40
0.9865307118023079
 40
1.0
 40
1.0
 40
1.0
 40
1.0
 10
415.7530617236422
 20
362.3251347151058
 30
0.0
 10
415.7404809603069
 20
363.0103035269323
 30
0.0
 10
415.7134542688873
 20
364.4796713439699
 30
0.0
 10
415.6530165586738
 20
367.4417857127317
 30
0.0
 10
415.5798215412858
 20
371.1833139935232
 30
0.0
 10
415.5105735140461
 20
375.6419973995731
 30
0.0
 10
415.4578790905425
 20
381.5702721841961
 30
0.0
 10
415.4858365364543
 20
388.9641798731857
 30
0.0
 10
415.6559244103933
 20
397.7209910215538
 30
0.0
 10
415.7608760225404
 20
404.3858301423094
 30
0.0
 10
415.7260832003279
 20
408.8258940474134
 30
0.0
 10
415.685478789534
 20
411.0350458902789
 30
0.0
 10
415.6244930380179
 20
413.2363518310231
 30
0.0
 10
415.55049391058
 20
415.4339612880948
 30
0.0
 10
415.4916111457562
 20
417.2397184548278
 30
0.0
 10
415.4458775968698
 20
418.6356069750388
 30
0.0
 10
415.4171308282124
 20
419.4749418869476
 30
0.0
 10
415.3927477825147
 20
420.1317578538587
 30
0.0
 10
415.3663549799102
 20
420.8064060585851
 30
0.0
 10
415.3158576766928
 20
421.9710100153472
 30
0.0
 10
415.2399909191768
 20
423.5693849341762
 30
0.0
 10
415.1739349082237
 20
425.0912132734214
 30
0.0
 10
415.1312769668475
 20
426.2686068676149
 30
0.0
 10
415.1168264994151
 20
426.9885902089737
 30
0.0
 10
415.1153479453714
 20
427.5541152515015
 30
0.0
 10
415.1210831181322
 20
428.1180127926553
 30
0.0
 10
415.1413729139531
 20
428.857116150667
 30
0.0
 10
415.1755294760798
 20
429.6813677609013
 30
0.0
 10
415.183405561606
 20
430.2240535532734
 30
0.0
 10
415.1868221707007
 20
430.4562931100778
 30
0.0
  0
ARC
  5
E6
330
BB
100
AcDbEntity
  8
410438038__HANDL
  6
Continuous
 62
     7
100
AcDbCircle
 10
358.8453709736
 20
423.870605665
 30
0.0
 40
33.03029791864898
100
AcDbArc
 50
359.1819240712
 51
0.9995234237
  0
ARC
  5
E7
330
BB
100
AcDbEntity
  8
410438038__HANDL
  6
Continuous
 62
     7
100
AcDbCircle
 10
2.0908337131
 20
396.500597486
 30
0.0
 40
421.8662811573994
100
AcDbArc
 50
9.3965754336
 51
10.9371108096
  0
SPLINE
  5
E8
330
BB
100
AcDbEntity
  8
410438038__HANDL
  6
Continuous
 62
     7
100
AcDbSpline
210
0.0
220
0.0
230
1.0
 70
     8
 71
     5
 72
    44
 73
    38
 74
     0
 42
0.0000000006275384
 43
0.0000000001
 40
0.0
 40
0.0
 40
0.0
 40
0.0
 40
0.0
 40
0.0
 40
0.0009920902800694
 40
0.0009920902800694
 40
0.0009920902800694
 40
0.0009920902800694
 40
0.1894519187886594
 40
0.1894519187886594
 40
0.1894519187886594
 40
0.1894519187886594
 40
0.2836818330429534
 40
0.2836818330429534
 40
0.2836818330429534
 40
0.2836818330429534
 40
0.3779117472972471
 40
0.3779117472972471
 40
0.3779117472972471
 40
0.3779117472972471
 40
0.4721416615515411
 40
0.4721416615515411
 40
0.4721416615515411
 40
0.4721416615515411
 40
0.566371575805835
 40
0.566371575805835
 40
0.566371575805835
 40
0.566371575805835
 40
0.754831404314424
 40
0.754831404314424
 40
0.754831404314424
 40
0.754831404314424
 40
0.9432912328230129
 40
0.9432912328230129
 40
0.9432912328230129
 40
0.9432912328230129
 40
1.0
 40
1.0
 40
1.0
 40
1.0
 40
1.0
 40
1.0
 10
415.5195022288868
 20
346.1533533756338
 30
0.0
 10
415.5166596990641
 20
346.155046599668
 30
0.0
 10
415.513817220506
 20
346.1567402028849
 30
0.0
 10
415.5109747954664
 20
346.158434186074
 30
0.0
 10
415.5081324262968
 20
346.1601285499651
 30
0.0
 10
414.9653579684043
 20
346.4837611460586
 30
0.0
 10
414.4275265892132
 20
346.8194631572305
 30
0.0
 10
413.9078777239802
 20
347.1739176791566
 30
0.0
 10
413.4150382777663
 20
347.5494608128375
 30
0.0
 10
412.7218160768482
 20
348.1452966834926
 30
0.0
 10
412.4984148379423
 20
348.3493288353996
 30
0.0
 10
412.2831716637593
 20
348.5588552033696
 30
0.0
 10
412.0762752277173
 20
348.7738408126526
 30
0.0
 10
411.6791294166062
 20
349.2144993425546
 30
0.0
 10
411.4888800415373
 20
349.4401722631726
 30
0.0
 10
411.3069309893013
 20
349.6710732538126
 30
0.0
 10
411.1330471711713
 20
349.9070061179326
 30
0.0
 10
410.8006854278652
 20
350.3884387480506
 30
0.0
 10
410.6422075026883
 20
350.6339385140486
 30
0.0
 10
410.4910702363572
 20
350.8839733084466
 30
0.0
 10
410.3467841423353
 20
351.1382424827026
 30
0.0
 10
410.0708502923623
 20
351.6546006116466
 30
0.0
 10
409.9392025364112
 20
351.9166895663346
 30
0.0
 10
409.8133419462213
 20
352.1823639215946
 30
0.0
 10
409.6926940017802
 20
352.4512753466826
 30
0.0
 10
409.3447910419483
 20
353.2666894705696
 30
0.0
 10
409.1315769000512
 20
353.8218720179936
 30
0.0
 10
408.9328250861363
 20
354.3858774012955
 30
0.0
 10
408.7449514103803
 20
354.9560280255496
 30
0.0
 10
408.3905609079133
 20
356.1052266008586
 30
0.0
 10
408.2240440812013
 20
356.6842745519146
 30
0.0
 10
408.0680059653743
 20
357.2660745888185
 30
0.0
 10
407.9256313229793
 20
357.8499111513966
 30
0.0
 10
407.7702613394203
 20
358.6136041671936
 30
0.0
 10
407.7364007813142
 20
358.7905409963316
 30
0.0
 10
407.7048703602993
 20
358.9678004809596
 30
0.0
 10
407.6759728520673
 20
359.1454300904866
 30
0.0
 10
407.6500681704509
 20
359.3234916561695
 30
0.0
  0
SPLINE
  5
E9
330
BB
100
AcDbEntity
  8
410438038__HANDL
  6
Continuous
 62
     7
100
AcDbSpline
210
0.0
220
0.0
230
1.0
 70
     8
 71
     3
 72
    36
 73
    32
 74
     0
 42
0.000000000145743
 43
0.0000000001
 40
0.0
 40
0.0
 40
0.0
 40
0.0
 40
0.0395067350075248
 40
0.0725635261807298
 40
0.0992461129755117
 40
0.1195940249413533
 40
0.1336252946242195
 40
0.1413462646132987
 40
0.1773259194170851
 40
0.2130450114754105
 40
0.2833644420945247
 40
0.3708696748248126
 40
0.3985800678568321
 40
0.4307194224370102
 40
0.4614077588743953
 40
0.5000600414044111
 40
0.5196584582694223
 40
0.5377796459443368
 40
0.5706556352002172
 40
0.6004826711146741
 40
0.6287142622949345
 40
0.6446480009783844
 40
0.6607574952744119
 40
0.6957258047876143
 40
0.7149776695614205
 40
0.7495160511587117
 40
0.8391196809576575
 40
0.9094182655853998
 40
0.9590146261958954
 40
0.9893779769379024
 40
1.0
 40
1.0
 40
1.0
 40
1.0
 10
417.0652929246059
 20
362.4279395228389
 30
0.0
 10
417.0486580691839
 20
363.3701404267684
 30
0.0
 10
417.0181348482313
 20
365.1007379109622
 30
0.0
 10
416.9705103166723
 20
367.4747863936044
 30
0.0
 10
416.9332575815415
 20
369.3922988228899
 30
0.0
 10
416.9061233097668
 20
370.8550398250778
 30
0.0
 10
416.888419453929
 20
371.8636344101171
 30
0.0
 10
416.8652124577809
 20
373.2466357878347
 30
0.0
 10
416.8361131464613
 20
375.1488713652892
 30
0.0
 10
416.7942386662501
 20
378.5463770140624
 30
0.0
 10
416.7628356977494
 20
383.1631800481849
 30
0.0
 10
416.7686033135035
 20
387.5611377246103
 30
0.0
 10
416.7891907521155
 20
391.0417994527044
 30
0.0
 10
416.8052708730804
 20
393.1789506186073
 30
0.0
 10
416.8249960820687
 20
395.5749091610534
 30
0.0
 10
416.8414612138668
 20
397.6782725043901
 30
0.0
 10
416.8522532581802
 20
399.4898294621246
 30
0.0
 10
416.859597624582
 20
401.1680270235079
 30
0.0
 10
416.863269290727
 20
403.0954823959669
 30
0.0
 10
416.8586728061993
 20
405.271522078449
 30
0.0
 10
416.8469067865224
 20
407.045200725362
 30
0.0
 10
416.8318903955024
 20
408.4885883857732
 30
0.0
 10
416.8108996883214
 20
410.0904539108869
 30
0.0
 10
416.7819299286346
 20
411.7645478219305
 30
0.0
 10
416.7370546818912
 20
413.8577857596048
 30
0.0
 10
416.650962778214
 20
417.1975064454548
 30
0.0
 10
416.5184754068491
 20
421.621779840179
 30
0.0
 10
416.2756462772568
 20
425.7871120784676
 30
0.0
 10
416.2002930975853
 20
428.5264587077595
 30
0.0
 10
416.2814474709847
 20
430.1179830523494
 30
0.0
 10
416.291894817018
 20
430.8381305153982
 30
0.0
 10
416.2946786461559
 20
431.0247402335096
 30
0.0
  0
ARC
  5
EA
330
BB
100
AcDbEntity
  8
410438038__HANDL
  6
Continuous
 62
     7
100
AcDbCircle
 10
-240.8458637769
 20
350.7890467027
 30
0.0
 40
656.7002590946929
100
AcDbArc
 50
0.5245956018
 51
1.0065522978
  0
ARC
  5
EB
330
BB
100
AcDbEntity
  8
410438038__HANDL
  6
Continuous
 62
     7
100
AcDbCircle
 10
269.4604586611
 20
355.6979921978
 30
0.0
 40
146.3705719678447
100
AcDbArc
 50
356.2611621952
 51
0.4320266975
  0
ARC
  5
EC
330
BB
100
AcDbEntity
  8
410438038__HANDL
  6
Continuous
 62
     7
100
AcDbCircle
 10
416.031263239
 20
347.0124812291
 30
0.0
 40
0.9999999999428267
100
AcDbArc
 50
239.2187989082
 51
351.8392597706
  0
SPLINE
  5
ED
330
BB
100
AcDbEntity
  8
410438038__HANDL
  6
Continuous
 62
     7
100
AcDbSpline
210
0.0
220
0.0
230
1.0
 70
     8
 71
     5
 72
    25
 73
    19
 74
     0
 42
0.0000000001322053
 43
0.0000000001
 40
0.0
 40
0.0
 40
0.0
 40
0.0
 40
0.0
 40
0.0
 40
0.125
 40
0.125
 40
0.125
 40
0.25
 40
0.25
 40
0.25
 40
0.625
 40
0.625
 40
0.625
 40
0.8125
 40
0.90625
 40
0.953125
 40
0.9765625
 40
1.0
 40
1.0
 40
1.0
 40
1.0
 40
1.0
 40
1.0
 10
418.2224461852695
 20
433.3409780484326
 30
0.0
 10
417.9067585984274
 20
431.2860380719211
 30
0.0
 10
417.7250741057914
 20
429.4950729336863
 30
0.0
 10
417.6353956841573
 20
427.8955145774104
 30
0.0
 10
417.5560569202573
 20
424.9340752107294
 30
0.0
 10
417.5087661898843
 20
422.1577180996492
 30
0.0
 10
417.4919289738014
 20
420.787199007909
 30
0.0
 10
417.4469972688213
 20
415.2613160957006
 30
0.0
 10
417.4724724528273
 20
409.1024294008656
 30
0.0
 10
417.5316769844083
 20
403.9569759169376
 30
0.0
 10
417.6813723998993
 20
395.1940272442505
 30
0.0
 10
417.9638695878673
 20
382.6954047771646
 30
0.0
 10
418.1042357859163
 20
376.1579165852336
 30
0.0
 10
418.2013147771573
 20
369.3194036821305
 30
0.0
 10
418.1743223173173
 20
362.9161807550696
 30
0.0
 10
418.1167326750173
 20
360.0457597241556
 30
0.0
 10
418.0755885231503
 20
358.7067096087015
 30
0.0
 10
418.0517633673343
 20
358.0628949999566
 30
0.0
 10
418.0390168010553
 20
357.7476241014526
 30
0.0
  0
ARC
  5
EE
330
BB
100
AcDbEntity
  8
410438038__HANDL
  6
Continuous
 62
     7
100
AcDbCircle
 10
815.5727343749
 20
367.1572744091
 30
0.0
 40
398.5355034369393
100
AcDbArc
 50
180.67993262
 51
181.4516697031
  0
ARC
  5
EF
330
BB
100
AcDbEntity
  8
410438038__HANDL
  6
Continuous
 62
     7
100
AcDbCircle
 10
255.4400996359
 20
354.2500921201
 30
0.0
 40
161.7494653923072
100
AcDbArc
 50
357.3850636713
 51
0.9957075059
  0
SPLINE
  5
F0
330
BB
100
AcDbEntity
  8
410438038__HANDL
  6
Continuous
 62
     7
100
AcDbSpline
210
0.0
220
0.0
230
1.0
 70
     8
 71
     5
 72
    26
 73
    20
 74
     0
 42
0.0000000009149578
 43
0.0000000001
 40
0.0
 40
0.0
 40
0.0
 40
0.0
 40
0.0
 40
0.0
 40
0.070975368122173
 40
0.1419507362443461
 40
0.2129261043665191
 40
0.2839014724886921
 40
0.3548768406108652
 40
0.4258522087330383
 40
0.4968275768552113
 40
0.5678029449773843
 40
0.6387783130995573
 40
0.7097536812217304
 40
0.7807290493439034
 40
0.8517044174660765
 40
0.9581674696493361
 40
0.9936551537104226
 40
1.0
 40
1.0
 40
1.0
 40
1.0
 40
1.0
 40
1.0
 10
418.0390168010553
 20
357.7476241014526
 30
0.0
 10
418.0327494312123
 20
357.5926082894646
 30
0.0
 10
418.0195904183482
 20
357.2826019051776
 30
0.0
 10
417.9979883604453
 20
356.8176719628046
 30
0.0
 10
417.9654956630643
 20
356.1979403010326
 30
0.0
 10
417.9188226780722
 20
355.4236064204505
 30
0.0
 10
417.8661853890713
 20
354.6496423863666
 30
0.0
 10
417.8076766053143
 20
353.8760873486456
 30
0.0
 10
417.7433891360553
 20
353.1029804571576
 30
0.0
 10
417.6734157905503
 20
352.3303608617646
 30
0.0
 10
417.5978493780513
 20
351.5582677123356
 30
0.0
 10
417.5167827078153
 20
350.7867401587355
 30
0.0
 10
417.4303085890933
 20
350.0158173508316
 30
0.0
 10
417.3293409553472
 20
349.1685105472566
 30
0.0
 10
417.2316776386733
 20
348.3990000610225
 30
0.0
 10
417.1476185947376
 20
347.7702295920041
 30
0.0
 10
417.0817189351433
 20
347.2955819176983
 30
0.0
 10
417.0360683908085
 20
346.9747455451757
 30
0.0
 10
417.0231051137584
 20
346.8842551263684
 30
0.0
 10
417.0211369686144
 20
346.8705305356186
 30
0.0
  0
LINE
  5
F1
330
BB
100
AcDbEntity
  8
410438038__HANDL
  6
Continuous
 62
     7
100
AcDbLine
 10
418.2964800767
 20
433.8298425368
 30
0.0
 11
418.2224461804
 21
433.3409780168
 31
0.0
  0
SPLINE
  5
F2
330
BB
100
AcDbEntity
  8
410438038__HANDL
  6
Continuous
 62
     7
100
AcDbSpline
210
0.0
220
0.0
230
1.0
 70
     8
 71
     3
 72
    30
 73
    26
 74
     0
 42
0.0000000003078908
 43
0.0000000001
 40
0.0133140597441813
 40
0.0133140597441813
 40
0.0133140597441813
 40
0.0133140597441813
 40
0.0624999999999999
 40
0.0624999999999999
 40
0.1249999999999998
 40
0.1249999999999998
 40
0.1874999999999998
 40
0.1874999999999998
 40
0.2499999999999998
 40
0.2499999999999998
 40
0.3749999999999998
 40
0.3749999999999998
 40
0.4999999999999999
 40
0.4999999999999999
 40
0.5624999999999999
 40
0.5624999999999999
 40
0.6249999999999999
 40
0.6249999999999999
 40
0.6875
 40
0.6875
 40
0.75
 40
0.75
 40
0.875
 40
0.875
 40
0.9835934858073583
 40
0.9835934858073583
 40
0.9835934858073583
 40
0.9835934858073583
 10
418.2962093915233
 20
433.8431814677049
 30
0.0
 10
418.2957606726059
 20
433.8766600709893
 30
0.0
 10
418.2949290554178
 20
433.9729546689785
 30
0.0
 10
418.2932630444859
 20
434.3296798334082
 30
0.0
 10
418.2924886502983
 20
434.6323490974425
 30
0.0
 10
418.2920305752857
 20
435.4231560058153
 30
0.0
 10
418.2923356343647
 20
435.9073255962236
 30
0.0
 10
418.293293910039
 20
437.0515931202783
 30
0.0
 10
418.2939366097013
 20
437.717738702418
 30
0.0
 10
418.293382797685
 20
439.9006673617804
 30
0.0
 10
418.2903598828952
 20
441.660703577092
 30
0.0
 10
418.2899755474683
 20
445.4578615168256
 30
0.0
 10
418.2926099301179
 20
447.5343547111978
 30
0.0
 10
418.2926277407022
 20
450.6219306453835
 30
0.0
 10
418.2918116076722
 20
451.667305104673
 30
0.0
 10
418.2905302312295
 20
453.6911017333558
 30
0.0
 10
418.2900754259373
 20
454.674816713247
 30
0.0
 10
418.2902565105838
 20
456.5855256203543
 30
0.0
 10
418.2909053076341
 20
457.5096621575855
 30
0.0
 10
418.292556528657
 20
459.2198037881567
 30
0.0
 10
418.29355670055
 20
460.0168868334206
 30
0.0
 10
418.2941362855662
 20
462.2273821823983
 30
0.0
 10
418.2918034582015
 20
463.3855098818455
 30
0.0
 10
418.2926536287937
 20
464.8653990035479
 30
0.0
 10
418.2951525402977
 20
465.2649659456479
 30
0.0
 10
418.2961455981143
 20
465.3569004937008
 30
0.0
  0
ARC
  5
F3
330
BB
100
AcDbEntity
  8
410438038__HANDL
  6
Continuous
 62
     7
100
AcDbCircle
 10
5105.5832959721
 20
449.603631564
 30
0.0
 40
4687.313357018809
100
AcDbArc
 50
179.8105699981
 51
179.8180119976
  0
ARC
  5
F4
330
BB
100
AcDbEntity
  8
410438038__HANDL
  6
Continuous
 62
     7
100
AcDbCircle
 10
5105.5832959721
 20
449.603631564
 30
0.0
 40
4687.313357018809
100
AcDbArc
 50
180.1825186737
 51
180.1925171074
  0
ARC
  5
F5
330
BB
100
AcDbEntity
  8
410438038__HANDL
  6
Continuous
 62
     7
100
AcDbCircle
 10
395.817672847
 20
410.0490357923
 30
0.0
 40
13.33917191407762
100
AcDbArc
 50
66.1703606814
 51
67.3034103352
  0
ARC
  5
F6
330
BB
100
AcDbEntity
  8
410438038__HANDL
  6
Continuous
 62
     7
100
AcDbCircle
 10
395.8363382588
 20
410.1642956543
 30
0.0
 40
13.22623693177334
100
AcDbArc
 50
66.0424909914
 51
95.5605810493
  0
ARC
  5
F7
330
BB
100
AcDbEntity
  8
410438038__HANDL
  6
Continuous
 62
     7
100
AcDbCircle
 10
387.8278451285
 20
425.0930683235
 30
0.0
 40
3.421958349222716
100
AcDbArc
 50
236.8647091972
 51
252.2826965019
  0
ARC
  5
F8
330
BB
100
AcDbEntity
  8
410438038__HANDL
  6
Continuous
 62
     7
100
AcDbCircle
 10
387.8278451285
 20
425.0930683235
 30
0.0
 40
3.421958349222716
100
AcDbArc
 50
264.7254347421
 51
315.6453844667
  0
ARC
  5
F9
330
BB
100
AcDbEntity
  8
410438038__HANDL
  6
Continuous
 62
     7
100
AcDbCircle
 10
387.8506039828
 20
474.0474293098
 30
0.0
 40
3.485555955896555
100
AcDbArc
 50
42.3826293119
 51
121.0856594251
  0
LINE
  5
FA
330
BB
100
AcDbEntity
  8
410438038__HANDL
  6
Continuous
 62
     7
100
AcDbLine
 10
394.3970768959
 20
423.3324435983
 30
0.0
 11
394.5544706579
 21
423.3228621669
 31
0.0
  0
ARC
  5
FB
330
BB
100
AcDbEntity
  8
410438038__HANDL
  6
Continuous
 62
     7
100
AcDbCircle
 10
392.2241591101
 20
379.5458687052
 30
0.0
 40
43.84045748589575
100
AcDbArc
 50
87.1590157537
 51
89.1831428547
  0
LINE
  5
FC
330
BB
100
AcDbEntity
  8
410438038__HANDL
  6
Continuous
 62
     7
100
AcDbLine
 10
394.3970768962
 20
423.3324435983
 30
0.0
 11
394.554450169
 21
423.3228634142
 31
0.0
  0
ARC
  5
FD
330
BB
100
AcDbEntity
  8
410438038__HANDL
  6
Continuous
 62
     7
100
AcDbCircle
 10
392.2241591111
 20
379.5458687422
 30
0.0
 40
43.84045744887081
100
AcDbArc
 50
87.1590157523
 51
89.1831428555
  0
SPLINE
  5
FE
330
BB
100
AcDbEntity
  8
410438038__HANDL
  6
Continuous
 62
     7
100
AcDbSpline
210
0.0
220
0.0
230
1.0
 70
     8
 71
     3
 72
    15
 73
    11
 74
     0
 42
0.0000000008552663
 43
0.0000000001
 40
0.0
 40
0.0
 40
0.0
 40
0.0
 40
0.1152943781083473
 40
0.2312344359926359
 40
0.3479494732335016
 40
0.4662738794893499
 40
0.5878571431260555
 40
0.7151669921948196
 40
0.8513526757184124
 40
1.0
 40
1.0
 40
1.0
 40
1.0
 10
418.3090865897139
 20
465.0112888903543
 30
0.0
 10
418.232731032588
 20
465.481159994702
 30
0.0
 10
418.1027295428684
 20
466.2785210429436
 30
0.0
 10
417.8631085824235
 20
467.6434012542426
 30
0.0
 10
417.6114099719876
 20
469.0263376937727
 30
0.0
 10
417.3434645133058
 20
470.4705972643274
 30
0.0
 10
417.0665294367764
 20
471.9644369898187
 30
0.0
 10
416.7895335313758
 20
473.4894013743819
 30
0.0
 10
416.5118861846713
 20
475.0788508192345
 30
0.0
 10
416.366877035604
 20
475.9764572585718
 30
0.0
 10
416.2786062676055
 20
476.5254618007388
 30
0.0
  0
SPLINE
  5
FF
330
BB
100
AcDbEntity
  8
400542038_KAPPE_
  6
Continuous
 62
     7
100
AcDbSpline
210
0.0
220
0.0
230
1.0
 70
     8
 71
     2
 72
     6
 73
     3
 74
     0
 42
0.0000000006827957
 43
0.0000000001
 40
0.0
 40
0.0
 40
0.0
 40
1.0
 40
1.0
 40
1.0
 10
418.4838362058017
 20
464.1717444809989
 30
0.0
 10
419.5444879084616
 20
456.958706030387
 30
0.0
 10
419.5444879084616
 20
449.6036402440786
 30
0.0
  0
SPLINE
  5
100
330
BB
100
AcDbEntity
  8
400542038_KAPPE_
  6
Continuous
 62
     7
100
AcDbSpline
210
0.0
220
0.0
230
1.0
 70
     8
 71
     2
 72
     6
 73
     3
 74
     0
 42
0.0000000006827931
 43
0.0000000001
 40
0.0
 40
0.0
 40
0.0
 40
1.0
 40
1.0
 40
1.0
 10
419.5444879084616
 20
449.6036402440786
 30
0.0
 10
419.5444879084616
 20
442.2485469379811
 30
0.0
 10
418.4838305361016
 20
435.0354816969929
 30
0.0
  0
ARC
  5
101
330
BB
100
AcDbEntity
  8
400542038_KAPPE_
  6
Continuous
 62
     7
100
AcDbCircle
 10
417.9890662767
 20
464.0990098117
 30
0.0
 40
0.5001010349675756
100
AcDbArc
 50
7.6654110968
 51
52.0714079389
  0
ARC
  5
102
330
BB
100
AcDbEntity
  8
400542038_KAPPE_
  6
Continuous
 62
     7
100
AcDbCircle
 10
417.9891109156
 20
435.1081287747
 30
0.0
 40
0.5000028481897223
100
AcDbArc
 50
307.9301141429
 51
351.6461028293
  0
ENDBLK
  5
104
330
BB
100
AcDbEntity
  8
0
100
AcDbBlockEnd
  0
BLOCK
  5
13B
330
105
100
AcDbEntity
  8
0
100
AcDbBlockBegin
  2
SE2
 70
     0
 10
0.0
 20
0.0
 30
0.0
  3
SE2
  1

  0
LINE
  5
107
330
105
100
AcDbEntity
  8
12030696_PROTECT
  6
Continuous
 62
     7
100
AcDbLine
 10
151.6447953525
 20
177.5746140012
 30
0.0
 11
94.9751306625
 21
177.5746140012
 31
0.0
  0
LINE
  5
108
330
105
100
AcDbEntity
  8
12030696_PROTECT
  6
Continuous
 62
     7
100
AcDbLine
 10
94.35315436
 20
201.326965913
 30
0.0
 11
94.9751306625
 21
177.5746140012
 31
0.0
  0
LINE
  5
109
330
105
100
AcDbEntity
  8
12030696_PROTECT
  6
Continuous
 62
     7
100
AcDbLine
 10
151.6447953525
 20
177.5746140012
 30
0.0
 11
152.266771655
 21
201.326965913
 31
0.0
  0
ARC
  5
10A
330
105
100
AcDbEntity
  8
12030696_PROTECT
  6
Continuous
 62
     7
100
AcDbCircle
 10
149.6454807005
 20
177.6269678203
 30
0.0
 40
2.000000000000002
100
AcDbArc
 50
302.9324222447
 51
358.5000022219
  0
ARC
  5
10B
330
105
100
AcDbEntity
  8
12030696_PROTECT
  6
Continuous
 62
     7
100
AcDbCircle
 10
96.9744453145
 20
177.6269678203
 30
0.0
 40
1.999999999999998
100
AcDbArc
 50
181.4999977781
 51
237.1173226519
  0
LINE
  5
10C
330
105
100
AcDbEntity
  8
410436038__ESCUT
  6
Continuous
 62
     7
100
AcDbLine
 10
153.1717270558
 20
201.326965913
 30
0.0
 11
93.4481989591
 21
201.326965913
 31
0.0
  0
LINE
  5
10D
330
105
100
AcDbEntity
  8
410436038__ESCUT
  6
Continuous
 62
     7
100
AcDbLine
 10
40.3099630075
 20
205.4465674549
 30
0.0
 11
206.3099630075
 21
205.4465674549
 31
0.0
  0
LINE
  5
10E
330
105
100
AcDbEntity
  8
410436038__ESCUT
  6
Continuous
 62
     7
100
AcDbLine
 10
36.3099630075
 20
209.4465674549
 30
0.0
 11
210.3099630075
 21
209.4465674549
 31
0.0
  0
LINE
  5
10F
330
105
100
AcDbEntity
  8
410436038__ESCUT
  6
Continuous
 62
     7
100
AcDbLine
 10
214.0217330934
 20
213.4465674549
 30
0.0
 11
32.5982391981
 21
213.4465674549
 31
0.0
  0
ARC
  5
110
330
105
100
AcDbEntity
  8
410436038__ESCUT
  6
Continuous
 62
     7
100
AcDbCircle
 10
148.9356857994
 20
647.0491120566
 30
0.0
 40
445.766494867947
100
AcDbArc
 50
270.9401419853
 51
272.7120672792
  0
ARC
  5
111
330
105
100
AcDbEntity
  8
410436038__ESCUT
  6
Continuous
 62
     7
100
AcDbCircle
 10
97.6842402155
 20
647.0491120566
 30
0.0
 40
445.7664948679435
100
AcDbArc
 50
267.2879923741
 51
269.05993405
  0
SPLINE
  5
112
330
105
100
AcDbEntity
  8
410436038__ESCUT
  6
Continuous
 62
     7
100
AcDbSpline
210
0.0
220
0.0
230
1.0
 70
     8
 71
     3
 72
     8
 73
     4
 74
     0
 42
0.0000000032493825
 43
0.0000000001
 40
0.0
 40
0.0
 40
0.0
 40
0.0
 40
1.0
 40
1.0
 40
1.0
 40
1.0
 10
90.37077847769706
 20
201.3434246409531
 30
0.0
 10
90.52800550324694
 20
201.339036704107
 30
0.0
 10
91.55381233038636
 20
201.3335504614497
 30
0.0
 10
93.44819895911536
 20
201.3269659129814
 30
0.0
  0
SPLINE
  5
113
330
105
100
AcDbEntity
  8
410436038__ESCUT
  6
Continuous
 62
     7
100
AcDbSpline
210
0.0
220
0.0
230
1.0
 70
     8
 71
     3
 72
    19
 73
    15
 74
     0
 42
0.0000000002739622
 43
0.0000000001
 40
0.0
 40
0.0
 40
0.0
 40
0.0
 40
0.1376230440912143
 40
0.2623191154211916
 40
0.374168534439652
 40
0.4732357548946277
 40
0.5595710211076287
 40
0.618499151771477
 40
0.6698700513095899
 40
0.719707778830469
 40
0.7705095148352484
 40
0.8222764638502534
 40
0.9352871137693671
 40
1.0
 40
1.0
 40
1.0
 40
1.0
 10
40.30996300746902
 20
205.4465674549083
 30
0.0
 10
42.13378426281487
 20
205.1891238964408
 30
0.0
 10
45.05888414742006
 20
204.7785545813645
 30
0.0
 10
49.6604635063514
 20
204.1893580556935
 30
0.0
 10
53.69598049002235
 20
203.7112418198865
 30
0.0
 10
57.29563316354231
 20
203.3176666553178
 30
0.0
 10
60.25248271777039
 20
203.0190864788974
 30
0.0
 10
62.63449104125826
 20
202.794617730609
 30
0.0
 10
64.57532694301341
 20
202.6218780776072
 30
0.0
 10
66.417804056811
 20
202.4669218190055
 30
0.0
 10
68.2683906939422
 20
202.3203325483353
 30
0.0
 10
70.8733126815333
 20
202.1279481034977
 30
0.0
 10
73.73502452327355
 20
201.9359644271834
 30
0.0
 10
75.7494604310587
 20
201.8316342835198
 30
0.0
 10
76.61441754927064
 20
201.7872338678307
 30
0.0
  0
SPLINE
  5
114
330
105
100
AcDbEntity
  8
410436038__ESCUT
  6
Continuous
 62
     7
100
AcDbSpline
210
0.0
220
0.0
230
1.0
 70
     8
 71
     3
 72
    18
 73
    14
 74
     0
 42
0.000000000273962
 43
0.0000000001
 40
0.0
 40
0.0
 40
0.0
 40
0.0
 40
0.0936154962387931
 40
0.1401502755322273
 40
0.1923211181665954
 40
0.2527819567899271
 40
0.3215440643832758
 40
0.3986229290689263
 40
0.4840390697658439
 40
0.5954475966414217
 40
0.7185286641418482
 40
0.8533513486281338
 40
1.0
 40
1.0
 40
1.0
 40
1.0
 10
170.0046283919307
 20
201.8049414126644
 30
0.0
 10
171.2562276727276
 20
201.8623643909652
 30
0.0
 10
172.8206414238368
 20
201.9345658783332
 30
0.0
 10
175.1861176960669
 20
202.0925674846148
 30
0.0
 10
177.1108245450795
 20
202.2269305619644
 30
0.0
 10
179.3138535375895
 20
202.3945210865095
 30
0.0
 10
181.8146596629895
 20
202.6003993726648
 30
0.0
 10
184.6176409710892
 20
202.8510818586109
 30
0.0
 10
187.9336096413854
 20
203.1729958117298
 30
0.0
 10
191.8091753557101
 20
203.5841927028017
 30
0.0
 10
196.2506616686823
 20
204.1010826346113
 30
0.0
 10
201.2270601370527
 20
204.7325947420023
 30
0.0
 10
204.3664939412819
 20
205.1725430342019
 30
0.0
 10
206.309963007469
 20
205.4465674549083
 30
0.0
  0
SPLINE
  5
115
330
105
100
AcDbEntity
  8
410436038__ESCUT
  6
Continuous
 62
     7
100
AcDbSpline
210
0.0
220
0.0
230
1.0
 70
     8
 71
     3
 72
     8
 73
     4
 74
     0
 42
0.0000000032493856
 43
0.0000000001
 40
0.0
 40
0.0
 40
0.0
 40
0.0
 40
1.0
 40
1.0
 40
1.0
 40
1.0
 10
153.1717270558227
 20
201.3269659129813
 30
0.0
 10
154.6788178521691
 20
201.3295769037938
 30
0.0
 10
155.7046236262897
 20
201.3352364987698
 30
0.0
 10
156.2491443781846
 20
201.3439446979092
 30
0.0
  0
SPLINE
  5
116
330
105
100
AcDbEntity
  8
410436038__ESCUT
  6
Continuous
 62
     7
100
AcDbSpline
210
0.0
220
0.0
230
1.0
 70
     8
 71
     3
 72
    11
 73
     7
 74
     0
 42
0.0000000016494538
 43
0.0000000001
 40
0.0
 40
0.0
 40
0.0
 40
0.0
 40
0.2338079017787462
 40
0.4629763303504889
 40
0.7119004836796741
 40
1.0
 40
1.0
 40
1.0
 40
1.0
 10
206.309963007469
 20
205.4465674549083
 30
0.0
 10
206.8118298172614
 20
205.5542453069623
 30
0.0
 10
207.6603067091261
 20
205.7584216960681
 30
0.0
 10
208.8486655774912
 20
206.6307200950887
 30
0.0
 10
209.7580870696989
 20
207.9094326819973
 30
0.0
 10
210.1066071961636
 20
208.8476739573695
 30
0.0
 10
210.309963007469
 20
209.4465674549083
 30
0.0
  0
SPLINE
  5
117
330
105
100
AcDbEntity
  8
410436038__ESCUT
  6
Continuous
 62
     7
100
AcDbSpline
210
0.0
220
0.0
230
1.0
 70
     8
 71
     3
 72
    11
 73
     7
 74
     0
 42
0.0000000016494538
 43
0.0000000001
 40
0.0
 40
0.0
 40
0.0
 40
0.0
 40
0.2880995163203282
 40
0.5370236696495121
 40
0.7661920982212569
 40
1.0
 40
1.0
 40
1.0
 40
1.0
 10
36.30996300746869
 20
209.4465674549083
 30
0.0
 10
36.51331881877414
 20
208.8476739573695
 30
0.0
 10
36.8618389452389
 20
207.9094326819973
 30
0.0
 10
37.77126043744671
 20
206.6307200950887
 30
0.0
 10
38.95961930581194
 20
205.758421696068
 30
0.0
 10
39.8080961976766
 20
205.5542453069623
 30
0.0
 10
40.30996300746902
 20
205.4465674549083
 30
0.0
  0
SPLINE
  5
118
330
105
100
AcDbEntity
  8
410436038__ESCUT
  6
Continuous
 62
     7
100
AcDbSpline
210
0.0
220
0.0
230
1.0
 70
     8
 71
     3
 72
    11
 73
     7
 74
     0
 42
0.0000000017717767
 43
0.0000000001
 40
0.0
 40
0.0
 40
0.0
 40
0.0
 40
0.255743667812572
 40
0.4992165500910839
 40
0.7430962106844877
 40
1.0
 40
1.0
 40
1.0
 40
1.0
 10
210.309963007469
 20
209.4465674549083
 30
0.0
 10
210.7992394348991
 20
209.6381286604325
 30
0.0
 10
211.6047046175144
 20
209.9711580860407
 30
0.0
 10
212.7370065739859
 20
210.8305464201897
 30
0.0
 10
213.6412606485399
 20
211.9299335105841
 30
0.0
 10
214.0083288346096
 20
212.7233374650174
 30
0.0
 10
214.2208431764449
 20
213.2064888525727
 30
0.0
  0
SPLINE
  5
119
330
105
100
AcDbEntity
  8
410436038__ESCUT
  6
Continuous
 62
     7
100
AcDbSpline
210
0.0
220
0.0
230
1.0
 70
     8
 71
     3
 72
    11
 73
     7
 74
     0
 42
0.0000000017717767
 43
0.0000000001
 40
0.0
 40
0.0
 40
0.0
 40
0.0
 40
0.2569037893155213
 40
0.5007834499089275
 40
0.7442563321874348
 40
1.0
 40
1.0
 40
1.0
 40
1.0
 10
32.39908283849326
 20
213.2064888525727
 30
0.0
 10
32.6115971803285
 20
212.7233374650174
 30
0.0
 10
32.9786653663982
 20
211.9299335105841
 30
0.0
 10
33.88291944095204
 20
210.8305464201898
 30
0.0
 10
35.01522139742345
 20
209.9711580860407
 30
0.0
 10
35.82068658003861
 20
209.6381286604325
 30
0.0
 10
36.30996300746869
 20
209.4465674549083
 30
0.0
  0
ARC
  5
11A
330
105
100
AcDbEntity
  8
410436038__ESCUT
  6
Continuous
 62
     7
100
AcDbCircle
 10
32.5982381153
 20
213.2465673727
 30
0.0
 40
0.1999998698580026
100
AcDbArc
 50
89.974094626
 51
201.8444145588
  0
ARC
  5
11B
330
105
100
AcDbEntity
  8
410436038__ESCUT
  6
Continuous
 62
     7
100
AcDbCircle
 10
214.0217319198
 20
213.2465674529
 30
0.0
 40
0.1999999967970601
100
AcDbArc
 50
338.4102856945
 51
90.000672517
  0
LINE
  5
11C
330
105
100
AcDbEntity
  8
410436038__ESCUT
  6
Continuous
 62
     7
100
AcDbLine
 10
156.2491582068
 20
201.3426155052
 30
0.0
 11
156.8149959113
 21
201.4596459728
 31
0.0
  0
ARC
  5
11D
330
105
100
AcDbEntity
  8
410436038__ESCUT
  6
Continuous
 62
     7
100
AcDbCircle
 10
169.9491076191
 20
203.2824046524
 30
0.0
 40
1.502568037691566
100
AcDbArc
 50
249.0350115058
 51
273.0075441365
  0
ARC
  5
11E
330
105
100
AcDbEntity
  8
410436038__ESCUT
  6
Continuous
 62
     7
100
AcDbCircle
 10
76.6708183959
 20
203.2824046524
 30
0.0
 40
1.5025680376893
100
AcDbArc
 50
266.9924558634
 51
290.9649884942
  0
ARC
  5
11F
330
105
100
AcDbEntity
  8
410438038__HANDL
  6
Continuous
 62
     7
100
AcDbCircle
 10
135.4402735761
 20
9836.5791548932
 30
0.0
 40
9664.99252609804
100
AcDbArc
 50
269.928162068
 51
270.0871747938
  0
SPLINE
  5
120
330
105
100
AcDbEntity
  8
410438038__HANDL
  6
Continuous
 62
     7
100
AcDbSpline
210
0.0
220
0.0
230
1.0
 70
     8
 71
     3
 72
    16
 73
    12
 74
     0
 42
0.0000000002044448
 43
0.0000000001
 40
0.4514322059147439
 40
0.4514322059147439
 40
0.4514322059147439
 40
0.4514322059147439
 40
0.4581550624004897
 40
0.4796197895032585
 40
0.5010527073508378
 40
0.6141169053153258
 40
0.7502238697889897
 40
0.8796563461251132
 40
0.9629896556923733
 40
0.9998435479082742
 40
1.0
 40
1.0
 40
1.0
 40
1.0
 10
96.49022162609539
 20
171.581852799962
 30
0.0
 10
96.49019651033859
 20
171.5818798468893
 30
0.0
 10
96.49698870140443
 20
171.5819954695152
 30
0.0
 10
96.55988915295147
 20
171.5822153984111
 30
0.0
 10
96.99921175296817
 20
171.5829866293552
 30
0.0
 10
99.09368163106336
 20
171.584737416754
 30
0.0
 10
105.1699797101104
 20
171.5878100193121
 30
0.0
 10
113.0386091095905
 20
171.5908322890744
 30
0.0
 10
119.3039934850067
 20
171.5929130003374
 30
0.0
 10
122.3743500560227
 20
171.5939426476178
 30
0.0
 10
123.3182374837834
 20
171.5942244590966
 30
0.0
 10
123.3222275348159
 20
171.594225650385
 30
0.0
  0
SPLINE
  5
121
330
105
100
AcDbEntity
  8
410438038__HANDL
  6
Continuous
 62
     7
100
AcDbSpline
210
0.0
220
0.0
230
1.0
 70
    12
 71
     3
 72
   104
 73
   100
 74
     0
 42
0.0000000002095914
 43
0.0000000001
 40
0.0
 40
0.0
 40
0.0
 40
0.0
 40
0.0156249999999987
 40
0.0156249999999987
 40
0.0312499999999975
 40
0.0312499999999975
 40
0.0468749999999959
 40
0.0468749999999959
 40
0.0546874999999954
 40
0.0546874999999954
 40
0.0566406249999951
 40
0.0566406249999951
 40
0.0585937499999948
 40
0.0585937499999948
 40
0.0624999999999946
 40
0.0624999999999946
 40
0.0781250000000058
 40
0.0781250000000058
 40
0.0937500000000045
 40
0.0937500000000045
 40
0.1093750000000029
 40
0.1093750000000029
 40
0.1250000000000016
 40
0.1250000000000016
 40
0.1406250000000004
 40
0.1406250000000004
 40
0.1562499999999991
 40
0.1562499999999991
 40
0.1718749999999975
 40
0.1718749999999975
 40
0.1757812499999973
 40
0.1757812499999973
 40
0.179687499999997
 40
0.179687499999997
 40
0.1874999999999962
 40
0.1874999999999962
 40
0.2031249999999949
 40
0.2031249999999949
 40
0.2187499999999937
 40
0.2187499999999937
 40
0.2343750000000045
 40
0.2343750000000045
 40
0.2500000000000036
 40
0.2500000000000036
 40
0.2656250000000023
 40
0.2656250000000023
 40
0.2812500000000007
 40
0.2812500000000007
 40
0.2890624999999999
 40
0.2890624999999999
 40
0.2910156249999999
 40
0.2910156249999999
 40
0.2929687499999997
 40
0.2929687499999997
 40
0.2968749999999994
 40
0.2968749999999994
 40
0.3124999999999982
 40
0.3124999999999982
 40
0.3281249999999969
 40
0.3281249999999969
 40
0.3437499999999953
 40
0.3437499999999953
 40
0.359374999999994
 40
0.359374999999994
 40
0.3750000000000052
 40
0.3750000000000052
 40
0.3906250000000039
 40
0.3906250000000039
 40
0.4062500000000023
 40
0.4062500000000023
 40
0.4101562500000021
 40
0.4101562500000021
 40
0.4140625000000015
 40
0.4140625000000015
 40
0.4218750000000011
 40
0.4218750000000011
 40
0.4374999999999999
 40
0.4374999999999999
 40
0.4531249999999983
 40
0.4531249999999983
 40
0.4687499999999967
 40
0.4687499999999967
 40
0.4843749999999958
 40
0.4843749999999958
 40
0.4999999999999942
 40
0.4999999999999942
 40
0.515625000000005
 40
0.515625000000005
 40
0.5234375000000046
 40
0.5234375000000046
 40
0.5273437500000047
 40
0.5273437500000047
 40
0.5292968750000041
 40
0.5292968750000041
 40
0.5312500000000041
 40
0.5312500000000041
 40
0.5468750000000026
 40
0.5468750000000026
 40
0.5492805706729096
 40
0.5492805706729096
 40
0.5492805706729096
 40
0.5492805706729096
 10
123.3228589891715
 20
170.1283994661145
 30
0.0
 41
1.0
 10
123.7112653244325
 20
170.1285820729599
 30
0.0
 41
1.0
 10
124.0997459833113
 20
170.1287624996504
 30
0.0
 41
1.0
 10
124.8768566463075
 20
170.1291189714895
 30
0.0
 41
1.0
 10
125.2654866354466
 20
170.1292950166165
 30
0.0
 41
1.0
 10
126.0428974464322
 20
170.1296426772033
 30
0.0
 41
1.0
 10
126.4316782662344
 20
170.1298142926888
 30
0.0
 41
1.0
 10
127.0149644672575
 20
170.1300683365271
 30
0.0
 41
1.0
 10
127.2094123704009
 20
170.1301524543515
 30
0.0
 41
1.0
 10
127.452496463147
 20
170.1302568896044
 30
0.0
 41
1.0
 10
127.5011300311994
 20
170.1302777476893
 30
0.0
 41
1.0
 10
127.5983046689013
 20
170.1303193518325
 30
0.0
 41
1.0
 10
127.6468465680391
 20
170.130340098271
 30
0.0
 41
1.0
 10
127.792336386713
 20
170.1304021711493
 30
0.0
 41
1.0
 10
127.8891484322967
 20
170.130443331161
 30
0.0
 41
1.0
 10
128.3723076062591
 20
170.1306480273343
 30
0.0
 41
1.0
 10
128.7559530369086
 20
170.1308082537349
 30
0.0
 41
1.0
 10
129.5175785849585
 20
170.1311217620616
 30
0.0
 41
1.0
 10
129.8955586198784
 20
170.1312750439317
 30
0.0
 41
1.0
 10
130.6459157598065
 20
170.1315747357132
 30
0.0
 41
1.0
 10
131.018292819316
 20
170.1317211455752
 30
0.0
 41
1.0
 10
131.7574724208272
 20
170.1320071242828
 30
0.0
 41
1.0
 10
132.1242749510622
 20
170.1321466930559
 30
0.0
 41
1.0
 10
132.85230078404
 20
170.1324189799093
 30
0.0
 41
1.0
 10
133.2135241079191
 20
170.1325516979375
 30
0.0
 41
1.0
 10
133.9303535542215
 20
170.1328102326641
 30
0.0
 41
1.0
 10
134.2859597321701
 20
170.132936049452
 30
0.0
 41
1.0
 10
134.9914825068994
 20
170.133180688783
 30
0.0
 41
1.0
 10
135.3413991975731
 20
170.1332995115135
 30
0.0
 41
1.0
 10
135.7751709423422
 20
170.1334435823971
 30
0.0
 41
1.0
 10
135.8617907663451
 20
170.1334721888056
 30
0.0
 41
1.0
 10
136.0342661993958
 20
170.1335288223653
 30
0.0
 41
1.0
 10
136.1201567725674
 20
170.1335568613098
 30
0.0
 41
1.0
 10
136.3767926442237
 20
170.1336401490109
 30
0.0
 41
1.0
 10
136.5465022371051
 20
170.1336945687603
 30
0.0
 41
1.0
 10
137.0515274743709
 20
170.1338545427158
 30
0.0
 41
1.0
 10
137.3827417120575
 20
170.1339568133451
 30
0.0
 41
1.0
 10
138.0343888046018
 20
170.1341527195683
 30
0.0
 41
1.0
 10
138.3548215343981
 20
170.1342463551109
 30
0.0
 41
1.0
 10
138.9849955695658
 20
170.1344250600068
 30
0.0
 41
1.0
 10
139.2947368172476
 20
170.1345101293491
 30
0.0
 41
1.0
 10
139.9035537938103
 20
170.1346717196983
 30
0.0
 41
1.0
 10
140.2026295283045
 20
170.1347482406973
 30
0.0
 41
1.0
 10
140.7900781008091
 20
170.1348927016712
 30
0.0
 41
1.0
 10
141.0784510081238
 20
170.1349606417073
 30
0.0
 41
1.0
 10
141.6443921473635
 20
170.1350878566712
 30
0.0
 41
1.0
 10
141.9219605171828
 20
170.1351471317199
 30
0.0
 41
1.0
 10
142.3300826171065
 20
170.1352294419739
 30
0.0
 41
1.0
 10
142.464751034238
 20
170.1352557779143
 30
0.0
 41
1.0
 10
142.6313537440537
 20
170.1352873076634
 30
0.0
 41
1.0
 10
142.6645876340383
 20
170.1352935440949
 30
0.0
 41
1.0
 10
142.7308816275415
 20
170.135305877528
 30
0.0
 41
1.0
 10
142.7639493772717
 20
170.1353119759056
 30
0.0
 41
1.0
 10
142.8627722271063
 20
170.1353300396909
 30
0.0
 41
1.0
 10
142.9281797982913
 20
170.1353417799918
 30
0.0
 41
1.0
 10
143.2528589199356
 20
170.1353989785235
 30
0.0
 41
1.0
 10
143.5050581267473
 20
170.135439930239
 30
0.0
 41
1.0
 10
143.9946358780349
 20
170.1355123884751
 30
0.0
 41
1.0
 10
144.2320141962335
 20
170.135543894805
 30
0.0
 41
1.0
 10
144.6921226242285
 20
170.1355975709318
 30
0.0
 41
1.0
 10
144.9148526056105
 20
170.1356197406565
 30
0.0
 41
1.0
 10
145.3457476930741
 20
170.1356547958172
 30
0.0
 41
1.0
 10
145.5539127594159
 20
170.1356676812486
 30
0.0
 41
1.0
 10
145.9556747214179
 20
170.1356841652467
 30
0.0
 41
1.0
 10
146.1492716632291
 20
170.1356877638477
 30
0.0
 41
1.0
 10
146.5218073507199
 20
170.1356856166657
 30
0.0
 41
1.0
 10
146.7007462316805
 20
170.1356798709689
 30
0.0
 41
1.0
 10
147.0437863389352
 20
170.1356589210128
 30
0.0
 41
1.0
 10
147.2078877993316
 20
170.1356437169019
 30
0.0
 41
1.0
 10
147.4035695983167
 20
170.1356186912108
 30
0.0
 41
1.0
 10
147.4422395413921
 20
170.1356133839961
 30
0.0
 41
1.0
 10
147.5186039759849
 20
170.1356021675565
 30
0.0
 41
1.0
 10
147.5562379111758
 20
170.1355962673491
 30
0.0
 41
1.0
 10
147.6675039604691
 20
170.1355776956186
 30
0.0
 41
1.0
 10
147.739500544599
 20
170.1355641531164
 30
0.0
 41
1.0
 10
147.9490123395148
 20
170.1355200760358
 30
0.0
 41
1.0
 10
148.0800529806326
 20
170.1354860936852
 30
0.0
 41
1.0
 10
148.3251254556654
 20
170.1354090729074
 30
0.0
 41
1.0
 10
148.4391570807609
 20
170.1353660343591
 30
0.0
 41
1.0
 10
148.6503640010129
 20
170.1352709840348
 30
0.0
 41
1.0
 10
148.7475391946161
 20
170.1352189721631
 30
0.0
 41
1.0
 10
148.9250845025707
 20
170.1351060043217
 30
0.0
 41
1.0
 10
149.0054546154396
 20
170.1350450483914
 30
0.0
 41
1.0
 10
149.1493413103528
 20
170.1349141688445
 30
0.0
 41
1.0
 10
149.2128579908812
 20
170.1348442453348
 30
0.0
 41
1.0
 10
149.3228882185342
 20
170.1346953535358
 30
0.0
 41
1.0
 10
149.3694019710742
 20
170.1346163854135
 30
0.0
 41
1.0
 10
149.426228791678
 20
170.1344910500083
 30
0.0
 41
1.0
 10
149.4430129186567
 20
170.1344481238797
 30
0.0
 41
1.0
 10
149.4649200222197
 20
170.1343819965433
 30
0.0
 41
1.0
 10
149.4716774858326
 20
170.1343596643817
 30
0.0
 41
1.0
 10
149.4809918223177
 20
170.1343257292053
 30
0.0
 41
1.0
 10
149.483959476946
 20
170.1343143446933
 30
0.0
 41
1.0
 10
149.4896132684648
 20
170.1342914591524
 30
0.0
 41
1.0
 10
149.492300427885
 20
170.1342799545156
 30
0.0
 41
1.0
 10
149.5152307050493
 20
170.1341758575748
 30
0.0
 41
1.0
 10
149.5266995537489
 20
170.1340793808109
 30
0.0
 41
1.0
 10
149.5298371564394
 20
170.1339635827158
 30
0.0
 41
1.0
 10
149.5300483625501
 20
170.133948041592
 30
0.0
 41
1.0
 10
149.5300525602014
 20
170.1339324088694
 30
0.0
 41
1.0
  0
SPLINE
  5
122
330
105
100
AcDbEntity
  8
410438038__HANDL
  6
Continuous
 62
     7
100
AcDbSpline
210
0.0
220
0.0
230
1.0
 70
    12
 71
     3
 72
   102
 73
    98
 74
     0
 42
0.0000000002097059
 43
0.0000000001
 40
0.4504141857785958
 40
0.4504141857785958
 40
0.4504141857785958
 40
0.4504141857785958
 40
0.4531248041509527
 40
0.4531248041509527
 40
0.4687498097466413
 40
0.4687498097466413
 40
0.48437481534233
 40
0.48437481534233
 40
0.4999998209380183
 40
0.4999998209380183
 40
0.5156248265336941
 40
0.5156248265336941
 40
0.5234373293315444
 40
0.5234373293315444
 40
0.5273435807304696
 40
0.5273435807304696
 40
0.5292967064299264
 40
0.5292967064299264
 40
0.5312498321293825
 40
0.5312498321293825
 40
0.5468748377250707
 40
0.5468748377250707
 40
0.5624998433207594
 40
0.5624998433207594
 40
0.5781248489164478
 40
0.5781248489164478
 40
0.593749854512136
 40
0.593749854512136
 40
0.6093748601078247
 40
0.6093748601078247
 40
0.6249998657035131
 40
0.6249998657035131
 40
0.6406248712992013
 40
0.6406248712992013
 40
0.6445311226981142
 40
0.6445311226981142
 40
0.646484248397583
 40
0.646484248397583
 40
0.6484373740970395
 40
0.6484373740970395
 40
0.65624987689489
 40
0.65624987689489
 40
0.6718748824905658
 40
0.6718748824905658
 40
0.6874998880862542
 40
0.6874998880862542
 40
0.7031248936819429
 40
0.7031248936819429
 40
0.7187498992776311
 40
0.7187498992776311
 40
0.7343749048733195
 40
0.7343749048733195
 40
0.7499999104690082
 40
0.7499999104690082
 40
0.7578124132668459
 40
0.7578124132668459
 40
0.7617186646657711
 40
0.7617186646657711
 40
0.7636717903652276
 40
0.7636717903652276
 40
0.7656249160646961
 40
0.7656249160646961
 40
0.7812499216603848
 40
0.7812499216603848
 40
0.7968749272560733
 40
0.7968749272560733
 40
0.8124999328517493
 40
0.8124999328517493
 40
0.8281249384474375
 40
0.8281249384474375
 40
0.8437499440431259
 40
0.8437499440431259
 40
0.8593749496388142
 40
0.8593749496388142
 40
0.8749999552345028
 40
0.8749999552345028
 40
0.8789062066334281
 40
0.8789062066334281
 40
0.8808593323328842
 40
0.8808593323328842
 40
0.882812458032341
 40
0.882812458032341
 40
0.8906249608301902
 40
0.8906249608301902
 40
0.9062499664258774
 40
0.9062499664258774
 40
0.921874972021564
 40
0.921874972021564
 40
0.9374999776172512
 40
0.9374999776172512
 40
0.9531249832129385
 40
0.9531249832129385
 40
0.9687499888086258
 40
0.9687499888086258
 40
0.9843749944043131
 40
0.9843749944043131
 40
1.0
 40
1.0
 40
1.0
 40
1.0
 10
97.11542314968499
 20
170.1093660181954
 30
0.0
 41
1.0
 10
97.11542850598461
 20
170.1093833614179
 30
0.0
 41
1.0
 10
97.11569430134136
 20
170.1094008227025
 30
0.0
 41
1.0
 10
97.11925119071977
 20
170.1095197347077
 30
0.0
 41
1.0
 10
97.13092268231517
 20
170.1096249847143
 30
0.0
 41
1.0
 10
97.17149446540837
 20
170.1098432989132
 30
0.0
 41
1.0
 10
97.20039475776207
 20
170.109956363101
 30
0.0
 41
1.0
 10
97.27547446656497
 20
170.110190332033
 30
0.0
 41
1.0
 10
97.32165378144097
 20
170.110311236778
 30
0.0
 41
1.0
 10
97.43144554007377
 20
170.1105609604325
 30
0.0
 41
1.0
 10
97.49505777264467
 20
170.1106897792889
 30
0.0
 41
1.0
 10
97.60374772408446
 20
170.1108890355022
 30
0.0
 41
1.0
 10
97.64219050818787
 20
170.1109564592913
 30
0.0
 41
1.0
 10
97.70320661511347
 20
170.1110591177703
 30
0.0
 41
1.0
 10
97.72410403040458
 20
170.1110935910989
 30
0.0
 41
1.0
 10
97.75629284648826
 20
170.1111456839827
 30
0.0
 41
1.0
 10
97.76716187831207
 20
170.111163110303
 30
0.0
 41
1.0
 10
97.78915312710157
 20
170.1111980462616
 30
0.0
 41
1.0
 10
97.80027867697787
 20
170.1112155613121
 30
0.0
 41
1.0
 10
97.90157473538896
 20
170.1113736193151
 30
0.0
 41
1.0
 10
97.99990351915966
 20
170.1115171183938
 30
0.0
 41
1.0
 10
98.21283287073526
 20
170.1118100165597
 30
0.0
 41
1.0
 10
98.32743369788477
 20
170.1119594157678
 30
0.0
 41
1.0
 10
98.57270818756177
 20
170.1122640459579
 30
0.0
 41
1.0
 10
98.70338200082207
 20
170.1124192770487
 30
0.0
 41
1.0
 10
98.98070160845587
 20
170.1127355383569
 30
0.0
 41
1.0
 10
99.12734745575466
 20
170.112896568586
 30
0.0
 41
1.0
 10
99.43660535199588
 20
170.1132244299741
 30
0.0
 41
1.0
 10
99.59921735976917
 20
170.1133912610764
 30
0.0
 41
1.0
 10
99.94049670410146
 20
170.1137307603591
 30
0.0
 41
1.0
 10
100.1191639025152
 20
170.1139034284876
 30
0.0
 41
1.0
 10
100.4927403337767
 20
170.114254673315
 30
0.0
 41
1.0
 10
100.6876493216277
 20
170.1144332499844
 30
0.0
 41
1.0
 10
100.9416180686899
 20
170.1146602319143
 30
0.0
 41
1.0
 10
100.9929287074517
 20
170.1147058164485
 30
0.0
 41
1.0
 10
101.0706742102141
 20
170.1147744770485
 30
0.0
 41
1.0
 10
101.0967275439919
 20
170.1147974184405
 30
0.0
 41
1.0
 10
101.1490493326417
 20
170.1148433562176
 30
0.0
 41
1.0
 10
101.1753152775543
 20
170.1148663504512
 30
0.0
 41
1.0
 10
101.3071687861983
 20
170.1149814480194
 30
0.0
 41
1.0
 10
101.4143274813527
 20
170.1150739304701
 30
0.0
 41
1.0
 10
101.7407801814574
 20
170.1153525793735
 30
0.0
 41
1.0
 10
101.9650481854952
 20
170.1155399467179
 30
0.0
 41
1.0
 10
102.4266429388701
 20
170.1159178374115
 30
0.0
 41
1.0
 10
102.6639698570162
 20
170.1161083608306
 30
0.0
 41
1.0
 10
103.1515575849926
 20
170.1164925363673
 30
0.0
 41
1.0
 10
103.4018184805819
 20
170.1166861885424
 30
0.0
 41
1.0
 10
103.9152271473307
 20
170.1170766129513
 30
0.0
 41
1.0
 10
104.1783749272666
 20
170.1172733851623
 30
0.0
 41
1.0
 10
104.7175867846305
 20
170.1176700591105
 30
0.0
 41
1.0
 10
104.9936507944616
 20
170.1178699608643
 30
0.0
 41
1.0
 10
105.5588018510958
 20
170.1182729218855
 30
0.0
 41
1.0
 10
105.8478887491652
 20
170.1184759811224
 30
0.0
 41
1.0
 10
106.2914268321844
 20
170.1187829735733
 30
0.0
 41
1.0
 10
106.440924792589
 20
170.1188857051347
 30
0.0
 41
1.0
 10
106.6676732207967
 20
170.1190404094937
 30
0.0
 41
1.0
 10
106.7436729876508
 20
170.1190920787867
 30
0.0
 41
1.0
 10
106.8583014167781
 20
170.1191697353218
 30
0.0
 41
1.0
 10
106.8966156924077
 20
170.1191956462663
 30
0.0
 41
1.0
 10
106.9734544330711
 20
170.1192475191708
 30
0.0
 41
1.0
 10
107.0119606764126
 20
170.1192734688034
 30
0.0
 41
1.0
 10
107.3590556021696
 20
170.1195069711834
 30
0.0
 41
1.0
 10
107.6719381719079
 20
170.1197145680692
 30
0.0
 41
1.0
 10
108.3062453953305
 20
170.1201298400695
 30
0.0
 41
1.0
 10
108.6276701915354
 20
170.1203375151349
 30
0.0
 41
1.0
 10
109.2789519243256
 20
170.1207529432523
 30
0.0
 41
1.0
 10
109.6088089456683
 20
170.120960696294
 30
0.0
 41
1.0
 10
110.2768968569158
 20
170.1213762802679
 30
0.0
 41
1.0
 10
110.6151277799043
 20
170.1215841111919
 30
0.0
 41
1.0
 10
111.2999551467245
 20
170.1219998509583
 30
0.0
 41
1.0
 10
111.6465515742958
 20
170.1222077597898
 30
0.0
 41
1.0
 10
112.3481512802374
 20
170.1226236555206
 30
0.0
 41
1.0
 10
112.7031544918398
 20
170.122831642422
 30
0.0
 41
1.0
 10
113.4216600111167
 20
170.123247694449
 30
0.0
 41
1.0
 10
113.7851621967637
 20
170.1234557596457
 30
0.0
 41
1.0
 10
114.2449430950092
 20
170.1237158903063
 30
0.0
 41
1.0
 10
114.337169569925
 20
170.1237679188933
 30
0.0
 41
1.0
 10
114.4759168572613
 20
170.123845965469
 30
0.0
 41
1.0
 10
114.5222338839939
 20
170.1238719816105
 30
0.0
 41
1.0
 10
114.6150041765182
 20
170.1239240151254
 30
0.0
 41
1.0
 10
114.6614711014981
 20
170.1239500401245
 30
0.0
 41
1.0
 10
114.8938872434624
 20
170.1240800228912
 30
0.0
 41
1.0
 10
115.0801977405623
 20
170.1241836199052
 30
0.0
 41
1.0
 10
115.6402500982853
 20
170.1244932553403
 30
0.0
 41
1.0
 10
116.0151122326869
 20
170.1246981387647
 30
0.0
 41
1.0
 10
116.7677757194868
 20
170.1251048736356
 30
0.0
 41
1.0
 10
117.145577111954
 20
170.1253067250516
 30
0.0
 41
1.0
 10
117.9040891338028
 20
170.1257074249588
 30
0.0
 41
1.0
 10
118.2847997843688
 20
170.1259062733916
 30
0.0
 41
1.0
 10
119.0491179012734
 20
170.1263009778556
 30
0.0
 41
1.0
 10
119.432725371412
 20
170.1264968339306
 30
0.0
 41
1.0
 10
120.2028418960519
 20
170.1268855462044
 30
0.0
 41
1.0
 10
120.5893509372332
 20
170.1270784024603
 30
0.0
 41
1.0
 10
121.3652927049643
 20
170.1274610895001
 30
0.0
 41
1.0
 10
121.7547254001245
 20
170.1276509203097
 30
0.0
 41
1.0
 10
122.5365545748288
 20
170.1280275119072
 30
0.0
 41
1.0
 10
122.9289513175121
 20
170.1282142729393
 30
0.0
 41
1.0
 10
123.3228589891715
 20
170.1283994661145
 30
0.0
 41
1.0
  0
SPLINE
  5
123
330
105
100
AcDbEntity
  8
410438038__HANDL
  6
Continuous
 62
     7
100
AcDbSpline
210
0.0
220
0.0
230
1.0
 70
     8
 71
     3
 72
    20
 73
    16
 74
     0
 42
0.0000000002425432
 43
0.0000000001
 40
0.0
 40
0.0
 40
0.0
 40
0.0
 40
0.0242772096180285
 40
0.0489729970514065
 40
0.0740563538593124
 40
0.099492649947102
 40
0.1252438012427721
 40
0.1748509802901491
 40
0.2501592934591493
 40
0.3227980197024351
 40
0.3751708353683955
 40
0.4999160358387956
 40
0.5468817479522678
 40
0.6249857014603436
 40
0.6731795954706671
 40
0.6731795954706671
 40
0.6731795954706671
 40
0.6731795954706671
 10
123.3228589891729
 20
146.795808579275
 30
0.0
 10
123.8462306958091
 20
146.7958853106541
 30
0.0
 10
124.9019978720708
 20
146.796041666019
 30
0.0
 10
126.4933695425005
 20
146.796718192363
 30
0.0
 10
128.0989224986058
 20
146.7977490316444
 30
0.0
 10
129.7104074982541
 20
146.7990392092898
 30
0.0
 10
131.8100531574969
 20
146.8016898333878
 30
0.0
 10
134.8679457564678
 20
146.8024503660214
 30
0.0
 10
138.6348270281921
 20
146.7998142533901
 30
0.0
 10
142.0420783443193
 20
146.7971352916501
 30
0.0
 10
145.7465496982807
 20
146.7976124709082
 30
0.0
 10
148.3163917494745
 20
146.8033732384695
 30
0.0
 10
150.1618631882414
 20
146.8010825261496
 30
0.0
 10
150.9236504230485
 20
146.7981634812641
 30
0.0
 10
151.0776247409895
 20
146.7972013031996
 30
0.0
 10
151.0778747709258
 20
146.7971712829099
 30
0.0
  0
SPLINE
  5
124
330
105
100
AcDbEntity
  8
410438038__HANDL
  6
Continuous
 62
     7
100
AcDbSpline
210
0.0
220
0.0
230
1.0
 70
     8
 71
     3
 72
    19
 73
    15
 74
     0
 42
0.0000000002425973
 43
0.0000000001
 40
0.3266815663285868
 40
0.3266815663285868
 40
0.3266815663285868
 40
0.3266815663285868
 40
0.3748094480590393
 40
0.4996069735302455
 40
0.5382252152781564
 40
0.6246753138013713
 40
0.6770644193790688
 40
0.7497264467456595
 40
0.7802496069425974
 40
0.81568069145031
 40
0.8557924278579404
 40
0.9002346959771681
 40
0.9485162838228428
 40
1.0
 40
1.0
 40
1.0
 40
1.0
 10
95.568545282264
 20
146.797506898587
 30
0.0
 10
95.56842943654969
 20
146.7974601499187
 30
0.0
 10
95.77794787829541
 20
146.7980736096497
 30
0.0
 10
96.96581202563577
 20
146.8036206873583
 30
0.0
 10
99.30596686910464
 20
146.8005548695848
 30
0.0
 10
101.4673344713733
 20
146.7976794520952
 30
0.0
 10
104.6033627839858
 20
146.7970624905022
 30
0.0
 10
107.2505805070649
 20
146.7993568188752
 30
0.0
 10
109.8023804164005
 20
146.8008571707829
 30
0.0
 10
111.8417396391851
 20
146.8010341449803
 30
0.0
 10
114.2435407197278
 20
146.8006717285039
 30
0.0
 10
116.9959531054011
 20
146.7996684506385
 30
0.0
 10
120.0616827390351
 20
146.7980900330907
 30
0.0
 10
122.2127858644405
 20
146.7965846510287
 30
0.0
 10
123.3228589891729
 20
146.795808579275
 30
0.0
  0
ARC
  5
125
330
105
100
AcDbEntity
  8
410438038__HANDL
  6
Continuous
 62
     7
100
AcDbCircle
 10
136.7077130831
 20
2429.2660088084
 30
0.0
 40
2283.617244720776
100
AcDbArc
 50
269.6641731263
 51
270.3398726208
  0
SPLINE
  5
126
330
105
100
AcDbEntity
  8
410438038__HANDL
  6
Continuous
 62
     7
100
AcDbSpline
210
0.0
220
0.0
230
1.0
 70
    12
 71
     3
 72
    80
 73
    76
 74
     0
 42
0.0000000002500359
 43
0.0000000001
 40
0.3266290663254174
 40
0.3266290663254174
 40
0.3266290663254174
 40
0.3266290663254174
 40
0.3418700573103263
 40
0.3418700573103263
 40
0.3734952927234684
 40
0.3734952927234684
 40
0.4051205281366086
 40
0.4051205281366086
 40
0.4209331458431789
 40
0.4209331458431789
 40
0.4288394546964641
 40
0.4288394546964641
 40
0.4327926091231065
 40
0.4327926091231065
 40
0.4347691863364287
 40
0.4347691863364287
 40
0.4367457635497507
 40
0.4367457635497507
 40
0.468370998962891
 40
0.468370998962891
 40
0.4999962343760313
 40
0.4999962343760313
 40
0.5316214697891734
 40
0.5316214697891734
 40
0.5632467052023137
 40
0.5632467052023137
 40
0.5711530140555988
 40
0.5711530140555988
 40
0.5751061684822413
 40
0.5751061684822413
 40
0.5770827456955634
 40
0.5770827456955634
 40
0.579059322908884
 40
0.579059322908884
 40
0.5948719406154557
 40
0.5948719406154557
 40
0.6264971760285959
 40
0.6264971760285959
 40
0.658122411441738
 40
0.658122411441738
 40
0.673935029148308
 40
0.673935029148308
 40
0.6897476468548782
 40
0.6897476468548782
 40
0.7213728822680187
 40
0.7213728822680187
 40
0.7253260366946611
 40
0.7253260366946611
 40
0.7292791911213037
 40
0.7292791911213037
 40
0.7371854999745906
 40
0.7371854999745906
 40
0.7529981176811608
 40
0.7529981176811608
 40
0.7846233530943012
 40
0.7846233530943012
 40
0.816248588507443
 40
0.816248588507443
 40
0.8478738239205835
 40
0.8478738239205835
 40
0.8636864416271536
 40
0.8636864416271536
 40
0.8676395960537961
 40
0.8676395960537961
 40
0.8715927504804386
 40
0.8715927504804386
 40
0.8794990593337237
 40
0.8794990593337237
 40
0.9111242947468656
 40
0.9111242947468656
 40
0.9427495301600061
 40
0.9427495301600061
 40
0.9743747655731481
 40
0.9743747655731481
 40
1.0
 40
1.0
 40
1.0
 40
1.0
 10
96.39190786086908
 20
145.688941950079
 30
0.0
 41
1.0
 10
96.3920848154667
 20
145.6889578930367
 30
0.0
 41
1.0
 10
96.39793280537481
 20
145.6890205190546
 30
0.0
 41
1.0
 10
96.43319981383851
 20
145.6893562954692
 30
0.0
 41
1.0
 10
96.48119291591861
 20
145.6897531805552
 30
0.0
 41
1.0
 10
96.6254171907489
 20
145.6906809872372
 30
0.0
 41
1.0
 10
96.72164756046351
 20
145.6912118902513
 30
0.0
 41
1.0
 10
96.90265757061911
 20
145.6919831468582
 30
0.0
 41
1.0
 10
96.96911129442991
 20
145.6922363560352
 30
0.0
 41
1.0
 10
97.07808770291281
 20
145.6925974540192
 30
0.0
 41
1.0
 10
97.1159629025297
 20
145.6927147203752
 30
0.0
 41
1.0
 10
97.1751192896665
 20
145.6928845368612
 30
0.0
 41
1.0
 10
97.19522871148662
 20
145.6929401297772
 30
0.0
 41
1.0
 10
97.22598141596842
 20
145.6930218324702
 30
0.0
 41
1.0
 10
97.2363330440899
 20
145.6930487922322
 30
0.0
 41
1.0
 10
97.25721400773502
 20
145.6931020749232
 30
0.0
 41
1.0
 10
97.2677444200353
 20
145.6931284010072
 30
0.0
 41
1.0
 10
97.44828667594781
 20
145.6935703870222
 30
0.0
 41
1.0
 10
97.64114275334302
 20
145.6939004362422
 30
0.0
 41
1.0
 10
98.07145131244931
 20
145.6943224607972
 30
0.0
 41
1.0
 10
98.30890628763781
 20
145.6944145743912
 30
0.0
 41
1.0
 10
98.82792271096821
 20
145.6943459712282
 30
0.0
 41
1.0
 10
99.1094845661222
 20
145.6941852648462
 30
0.0
 41
1.0
 10
99.7169542573543
 20
145.6936449636922
 30
0.0
 41
1.0
 10
100.0428604949529
 20
145.6932652569732
 30
0.0
 41
1.0
 10
100.4785762608574
 20
145.6927064297552
 30
0.0
 41
1.0
 10
100.567137979357
 20
145.6925905834732
 30
0.0
 41
1.0
 10
100.7021259067158
 20
145.6924120777452
 30
0.0
 41
1.0
 10
100.747479466349
 20
145.6923517881723
 30
0.0
 41
1.0
 10
100.8160486040287
 20
145.6922603610912
 30
0.0
 41
1.0
 10
100.8389947845936
 20
145.6922297200572
 30
0.0
 41
1.0
 10
100.8850671721917
 20
145.6921681400982
 30
0.0
 41
1.0
 10
100.9081993546205
 20
145.6921371931772
 30
0.0
 41
1.0
 10
101.1170550563248
 20
145.6918576774822
 30
0.0
 41
1.0
 10
101.3072956108737
 20
145.6916022525962
 30
0.0
 41
1.0
 10
101.8915707732418
 20
145.6908439026912
 30
0.0
 41
1.0
 10
102.2991401039853
 20
145.6903478015582
 30
0.0
 41
1.0
 10
103.149690996492
 20
145.6895554441732
 30
0.0
 41
1.0
 10
103.5926738464043
 20
145.6892592551452
 30
0.0
 41
1.0
 10
104.2836305616555
 20
145.6891265066583
 30
0.0
 41
1.0
 10
104.5183683421792
 20
145.6891387882382
 30
0.0
 41
1.0
 10
104.9966572324206
 20
145.6892626842512
 30
0.0
 41
1.0
 10
105.240214981822
 20
145.6893721614912
 30
0.0
 41
1.0
 10
105.9842277258044
 20
145.6898027751792
 30
0.0
 41
1.0
 10
106.498001574848
 20
145.6902251248183
 30
0.0
 41
1.0
 10
107.0965476880733
 20
145.6907436598942
 30
0.0
 41
1.0
 10
107.1633614924322
 20
145.6908019175602
 30
0.0
 41
1.0
 10
107.2972904706638
 20
145.6909190950832
 30
0.0
 41
1.0
 10
107.3644350774735
 20
145.6909780401822
 30
0.0
 41
1.0
 10
107.5664068206089
 20
145.6911554374672
 30
0.0
 41
1.0
 10
107.7017718271737
 20
145.6912744446752
 30
0.0
 41
1.0
 10
108.110000864826
 20
145.6916298904902
 30
0.0
 41
1.0
 10
108.3849981200793
 20
145.6918646475352
 30
0.0
 41
1.0
 10
109.2184129780922
 20
145.6925357868703
 30
0.0
 41
1.0
 10
109.7852419428618
 20
145.6929374725113
 30
0.0
 41
1.0
 10
110.9410426189584
 20
145.6935472105012
 30
0.0
 41
1.0
 10
111.5300147254457
 20
145.6937553414522
 30
0.0
 41
1.0
 10
112.7301792263208
 20
145.6939252266342
 30
0.0
 41
1.0
 10
113.3413710076569
 20
145.6938869438272
 30
0.0
 41
1.0
 10
114.2751620520482
 20
145.6936414574382
 30
0.0
 41
1.0
 10
114.5892626062635
 20
145.6935286666792
 30
0.0
 41
1.0
 10
114.9854932516719
 20
145.6933516183933
 30
0.0
 41
1.0
 10
115.0649196930743
 20
145.6933144138392
 30
0.0
 41
1.0
 10
115.2241349351894
 20
145.6932365137743
 30
0.0
 41
1.0
 10
115.3038124426803
 20
145.6931958725122
 30
0.0
 41
1.0
 10
115.5429879168193
 20
145.6930691230353
 30
0.0
 41
1.0
 10
115.7026577186746
 20
145.6929781694942
 30
0.0
 41
1.0
 10
116.5020962558818
 20
145.6924943416402
 30
0.0
 41
1.0
 10
117.1451290030682
 20
145.6920125794132
 30
0.0
 41
1.0
 10
118.4380315360193
 20
145.6909694252513
 30
0.0
 41
1.0
 10
119.0879016623665
 20
145.6904080474883
 30
0.0
 41
1.0
 10
120.394463097875
 20
145.6893586947013
 30
0.0
 41
1.0
 10
121.0511544611579
 20
145.6888706847473
 30
0.0
 41
1.0
 10
122.2462021779092
 20
145.6882316000857
 30
0.0
 41
1.0
 10
122.783379262579
 20
145.6880385003153
 30
0.0
 41
1.0
 10
123.3228589891745
 20
145.6879904199426
 30
0.0
 41
1.0
  0
ARC
  5
127
330
105
100
AcDbEntity
  8
410438038__HANDL
  6
Continuous
 62
     7
100
AcDbCircle
 10
114.5520010389
 20
-3446.5176058229
 30
0.0
 40
3590.214177452681
100
AcDbArc
 50
89.8600316964
 51
90.1119667482
  0
ARC
  5
128
330
105
100
AcDbEntity
  8
410438038__HANDL
  6
Continuous
 62
     7
100
AcDbCircle
 10
131.200835846
 20
-3450.6527368188
 30
0.0
 40
3594.347228233633
100
AcDbArc
 50
89.8743419185
 51
90.1255743252
  0
ARC
  5
129
330
105
100
AcDbEntity
  8
410438038__HANDL
  6
Continuous
 62
     7
100
AcDbCircle
 10
98.8661739417
 20
174.1317342041
 30
0.0
 40
3.485555955896529
100
AcDbArc
 50
147.9902259385
 51
227.6173706881
  0
ARC
  5
12A
330
105
100
AcDbEntity
  8
410438038__HANDL
  6
Continuous
 62
     7
100
AcDbCircle
 10
147.7537520732
 20
174.1317342041
 30
0.0
 40
3.485555955896518
100
AcDbArc
 50
312.3826293119
 51
32.0206472195
  0
ARC
  5
12B
330
105
100
AcDbEntity
  8
410438038__HANDL
  6
Continuous
 62
     7
100
AcDbCircle
 10
151.5299543391
 20
170.1535337898
 30
0.0
 40
1.999997793776789
100
AcDbArc
 50
133.7681778797
 51
180.5615682122
  0
ARC
  5
12C
330
105
100
AcDbEntity
  8
410438038__HANDL
  6
Continuous
 62
     7
100
AcDbCircle
 10
95.1155234043
 20
170.1292053727
 30
0.0
 40
1.999998074331689
100
AcDbArc
 50
359.4316229588
 51
46.5786425866
  0
SPLINE
  5
12D
330
105
100
AcDbEntity
  8
410438038__HANDL
  6
Continuous
 62
     7
100
AcDbSpline
210
0.0
220
0.0
230
1.0
 70
     8
 71
     3
 72
    11
 73
     7
 74
     0
 42
0.000000000427312
 43
0.0000000001
 40
0.0
 40
0.0
 40
0.0
 40
0.0
 40
0.2223895644272164
 40
0.5521299786087336
 40
0.811220854676036
 40
1.0
 40
1.0
 40
1.0
 40
1.0
 10
151.1086913133711
 20
146.8026111728389
 30
0.0
 10
150.8738150460525
 20
148.6960381763364
 30
0.0
 10
150.3864887663202
 20
152.6854683394696
 30
0.0
 10
149.9003636496043
 20
159.1024073089806
 30
0.0
 10
149.6030746196171
 20
165.2581227090286
 30
0.0
 10
149.564380094632
 20
168.5151679276836
 30
0.0
 10
149.5476487961486
 20
170.1346681346862
 30
0.0
  0
SPLINE
  5
12E
330
105
100
AcDbEntity
  8
410438038__HANDL
  6
Continuous
 62
     7
100
AcDbSpline
210
0.0
220
0.0
230
1.0
 70
     8
 71
     3
 72
    11
 73
     7
 74
     0
 42
0.0000000004277593
 43
0.0000000001
 40
0.0
 40
0.0
 40
0.0
 40
0.0
 40
0.2586546541324791
 40
0.5887276712718423
 40
0.8480837238924361
 40
1.0
 40
1.0
 40
1.0
 40
1.0
 10
97.09099217130215
 20
170.1104652906043
 30
0.0
 10
97.06368174561636
 20
167.8938908548374
 30
0.0
 10
97.00220266532057
 20
163.61990878454
 30
0.0
 10
96.595669080015
 20
156.9234314728238
 30
0.0
 10
96.07997130252889
 20
151.0654521338927
 30
0.0
 10
95.70962406373249
 20
148.0933752767552
 30
0.0
 10
95.54693193838642
 20
146.8016152416933
 30
0.0
  0
ARC
  5
12F
330
105
100
AcDbEntity
  8
410438038__HANDL
  6
Continuous
 62
     7
100
AcDbCircle
 10
150.0853587021
 20
146.6746615704
 30
0.0
 40
1.000004766188105
100
AcDbArc
 50
279.6952129259
 51
7.0135589788
  0
ARC
  5
130
330
105
100
AcDbEntity
  8
410438038__HANDL
  6
Continuous
 62
     7
100
AcDbCircle
 10
96.560354118
 20
146.6746542028
 30
0.0
 40
1.000001674965854
100
AcDbArc
 50
172.9860096069
 51
260.3024607888
  0
ARC
  5
131
330
105
100
AcDbEntity
  8
410438038__HANDL
  6
Continuous
 62
     7
100
AcDbCircle
 10
103.1026444789
 20
376.5682918921
 30
0.0
 40
235.6451789290984
100
AcDbArc
 50
278.7613759599
 51
281.5380811158
  0
ARC
  5
132
330
105
100
AcDbEntity
  8
410438038__HANDL
  6
Continuous
 62
     7
100
AcDbCircle
 10
143.5613383798
 20
376.6656458707
 30
0.0
 40
235.7441965347878
100
AcDbArc
 50
258.4623020854
 51
261.2370749419
  0
ARC
  5
133
330
105
100
AcDbEntity
  8
400542038_KAPPE_
  6
Continuous
 62
     7
100
AcDbCircle
 10
130.7214028634
 20
-2618.3957646008
 30
0.0
 40
2761.90421072472
100
AcDbArc
 50
89.8514379916
 51
89.8572391107
  0
ARC
  5
134
330
105
100
AcDbEntity
  8
400542038_KAPPE_
  6
Continuous
 62
     7
100
AcDbCircle
 10
115.7135729894
 20
-4264.8466059508
 30
0.0
 40
4408.351652916156
100
AcDbArc
 50
90.0874894459
 51
90.0907000421
  0
ARC
  5
135
330
105
100
AcDbEntity
  8
400542038_KAPPE_
  6
Continuous
 62
     7
100
AcDbCircle
 10
108.8078442483
 20
143.9943523279
 30
0.0
 40
0.5001485033244123
100
AcDbArc
 50
217.585341475
 51
261.6359965279
  0
SPLINE
  5
136
330
105
100
AcDbEntity
  8
400542038_KAPPE_
  6
Continuous
 62
     7
100
AcDbSpline
210
0.0
220
0.0
230
1.0
 70
     8
 71
     3
 72
    16
 73
    12
 74
     0
 42
0.0000000006789365
 43
0.0000000001
 40
0.0
 40
0.0
 40
0.0
 40
0.0
 40
0.1480982268056027
 40
0.2699742628143631
 40
0.3705037053248383
 40
0.4653492752130345
 40
0.538047744483341
 40
0.6157829840087364
 40
0.718219223840646
 40
0.8462843321826027
 40
1.0
 40
1.0
 40
1.0
 40
1.0
 10
123.3099630074691
 20
142.437850278445
 30
0.0
 10
124.1097350544978
 20
142.4421175227496
 30
0.0
 10
125.3347263127636
 20
142.4503929174622
 30
0.0
 10
127.1862328115441
 20
142.5075286671499
 30
0.0
 10
128.7352888428516
 20
142.5797043836357
 30
0.0
 10
130.0506020083458
 20
142.6599893001712
 30
0.0
 10
131.2509608320787
 20
142.7481437041382
 30
0.0
 10
132.489327698819
 20
142.8529228907899
 30
0.0
 10
133.9887072513383
 20
143.0000212656687
 30
0.0
 10
135.8975699345864
 20
143.2190657179477
 30
0.0
 10
137.1638376561326
 20
143.3973770856491
 30
0.0
 10
137.9856732113488
 20
143.5143596005306
 30
0.0
  0
SPLINE
  5
137
330
105
100
AcDbEntity
  8
400542038_KAPPE_
  6
Continuous
 62
     7
100
AcDbSpline
210
0.0
220
0.0
230
1.0
 70
     8
 71
     3
 72
    16
 73
    12
 74
     0
 42
0.0000000006788206
 43
0.0000000001
 40
0.0
 40
0.0
 40
0.0
 40
0.0
 40
0.1537157312579541
 40
0.2817808440730353
 40
0.3842170703894065
 40
0.4619522961403477
 40
0.5346507440811546
 40
0.6294962884018233
 40
0.7300257127710204
 40
0.851901741831337
 40
1.0
 40
1.0
 40
1.0
 40
1.0
 10
108.631766157224
 20
143.5147280580968
 30
0.0
 10
109.4537394684284
 20
143.3977055272598
 30
0.0
 10
110.7202193473835
 20
143.2193331883176
 30
0.0
 10
112.6294038220354
 20
143.0002137294959
 30
0.0
 10
114.1290367046356
 20
142.8530649892082
 30
0.0
 10
115.3676131729622
 20
142.7482499281289
 30
0.0
 10
116.5681754613617
 20
142.6600653432059
 30
0.0
 10
117.8837119675637
 20
142.5797529394709
 30
0.0
 10
119.433031570975
 20
142.5075525115674
 30
0.0
 10
121.2848538383014
 20
142.4503972045844
 30
0.0
 10
122.5100542963995
 20
142.4421189802355
 30
0.0
 10
123.3099630074691
 20
142.437850278445
 30
0.0
  0
ARC
  5
138
330
105
100
AcDbEntity
  8
400542038_KAPPE_
  6
Continuous
 62
     7
100
AcDbCircle
 10
137.5241817067
 20
143.9909298886
 30
0.0
 40
0.4967194715802715
100
AcDbArc
 50
278.3288371868
 51
322.1315332934
  0
ARC
  5
139
330
105
100
AcDbEntity
  8
400542038_KAPPE_
  6
Continuous
 62
     7
100
AcDbCircle
 10
109.0589269173
 20
143.9923284355
 30
0.0
 40
0.4976766939974122
100
AcDbArc
 50
217.532671407
 51
261.7659720718
  0
ARC
  5
13A
330
105
100
AcDbEntity
  8
400542038_KAPPE_
  6
Continuous
 62
     7
100
AcDbCircle
 10
109.0556761435
 20
143.9923578421
 30
0.0
 40
0.4976971948861213
100
AcDbArc
 50
217.5027345016
 51
261.0775231907
  0
ENDBLK
  5
13C
330
105
100
AcDbEntity
  8
0
100
AcDbBlockEnd
  0
ENDSEC
  0
SECTION
  2
ENTITIES
  0
LINE
  5
5E
330
1F
100
AcDbEntity
  8
Default
  6
Continuous
 62
     7
100
AcDbLine
 10
386.0386607362
 20
477.02500584
 30
0.0
 11
386.1873793055
 21
423.5971633028
 31
0.0
  0
LINE
  5
5F
330
1F
100
AcDbEntity
  8
Default
  6
Continuous
 62
     7
100
AcDbLine
 10
95.8902265688
 20
175.9463519477
 30
0.0
 11
150.7296994462
 21
175.9463519477
 31
0.0
  0
INSERT
  5
61
330
1F
100
AcDbEntity
  8
Default
100
AcDbBlockReference
  2
SEANNOT_GROUP
 10
0.0
 20
0.0
 30
0.0
  0
INSERT
  5
6C
330
1F
100
AcDbEntity
  8
Default
100
AcDbBlockReference
  2
SEANNOT_GROUP1
 10
0.0
 20
0.0
 30
0.0
  0
INSERT
  5
72
330
1F
100
AcDbEntity
  8
Default
100
AcDbBlockReference
  2
SEANNOT_GROUP2
 10
0.0
 20
0.0
 30
0.0
  0
INSERT
  5
78
330
1F
100
AcDbEntity
  8
Default
100
AcDbBlockReference
  2
SE
 10
0.0
 20
0.0
 30
0.0
  0
INSERT
  5
BC
330
1F
100
AcDbEntity
  8
Default
100
AcDbBlockReference
  2
SE1
 10
0.0
 20
0.0
 30
0.0
  0
INSERT
  5
106
330
1F
100
AcDbEntity
  8
Default
100
AcDbBlockReference
  2
SE2
 10
0.0
 20
0.0
 30
0.0
  0
TEXT
  5
13E
330
1F
100
AcDbEntity
  8
Default
  6
Continuous
 62
     7
100
AcDbText
 10
5.9362635081
 20
53.4225120485
 30
0.0
 40
10.0
  1
Grohe AG^J
  7
SEACAD_seiso_ttf
 11
5.9362635081
 21
63.4225120485
 31
0.0
100
AcDbText
 73
     3
  0
TEXT
  5
13F
330
1F
100
AcDbEntity
  8
Default
  6
Continuous
 62
     7
100
AcDbText
 10
5.9362635081
 20
37.0588756849
 30
0.0
 40
10.0
  1
 
  7
SEACAD_seiso_ttf
 11
5.9362635081
 21
47.0588756849
 31
0.0
100
AcDbText
 73
     3
  0
TEXT
  5
140
330
1F
100
AcDbEntity
  8
Default
  6
Continuous
 62
     7
100
AcDbText
 10
5.9362635081
 20
20.6952393213
 30
0.0
 40
10.0
  1
ecn:
  7
SEACAD_seiso_ttf
 11
5.9362635081
 21
30.6952393213
 31
0.0
100
AcDbText
 73
     3
  0
TEXT
  5
141
330
1F
100
AcDbEntity
  8
Default
  6
Continuous
 62
     7
100
AcDbText
 10
5.9362635081
 20
4.3316029576
 30
0.0
 40
10.0
  1
unit: mm
  7
SEACAD_seiso_ttf
 11
5.9362635081
 21
14.3316029576
 31
0.0
100
AcDbText
 73
     3
  0
LINE
  5
142
330
1F
100
AcDbEntity
  8
Default
  6
Continuous
 62
     7
100
AcDbLine
 10
0.0
 20
0.0
 30
0.0
 11
100.0
 21
0.0
 31
0.0
  0
LINE
  5
143
330
1F
100
AcDbEntity
  8
Default
  6
Continuous
 62
     7
100
AcDbLine
 10
0.0
 20
0.0
 30
0.0
 11
0.0
 21
100.0
 31
0.0
  0
TEXT
  5
144
330
1F
100
AcDbEntity
  8
Default
  6
Continuous
 62
     7
100
AcDbText
 10
24.3923665681
 20
-18.2375342018
 30
0.0
 40
10.0
  1
100 mm
  7
SEACAD_seiso_ttf
 11
24.3923665681
 21
-8.2375342018
 31
0.0
100
AcDbText
 73
     3
  0
TEXT
  5
145
330
1F
100
AcDbEntity
  8
Default
  6
Continuous
 62
     7
100
AcDbText
 10
-7.6150308803
 20
24.6231930421
 30
0.0
 40
10.0
  1
100 mm
 50
90.0
  7
SEACAD_seiso_ttf
 11
-17.6150308803
 21
24.6231930421
 31
0.0
100
AcDbText
 73
     3
  0
TEXT
  5
146
330
1F
100
AcDbEntity
  8
Default
  6
Continuous
 62
     7
100
AcDbText
 10
28.4878128572
 20
20.0907663715
 30
0.0
 40
10.0
  1
224368
  7
SEACAD_seiso_ttf
 11
28.4878128572
 21
30.0907663715
 31
0.0
100
AcDbText
 73
     3
  0
TEXT
  5
147
330
1F
100
AcDbEntity
  8
Default
  6
Continuous
 62
     7
100
AcDbText
 10
5.9012241913
 20
36.7242780188
 30
0.0
 40
10.0
  1
19921000
  7
SEACAD_seiso_ttf
 11
5.9012241913
 21
46.7242780188
 31
0.0
100
AcDbText
 73
     3
  0
ENDSEC
  0
SECTION
  2
OBJECTS
  0
DICTIONARY
  5
C
330
0
100
AcDbDictionary
281
     1
  3
ACAD_GROUP
350
D
  3
ACAD_LAYOUT
350
1A
  3
ACAD_MLEADERSTYLE
350
14B
  3
ACAD_MLINESTYLE
350
17
  3
ACAD_PLOTSETTINGS
350
19
  3
ACAD_PLOTSTYLENAME
350
E
  3
ACAD_SCALELIST
350
3B
  3
ACAD_TABLESTYLE
350
14A
  3
ACAD_VISUALSTYLE
350
2A
  3
AcDbVariableDictionary
350
148
  0
DICTIONARY
  5
D
102
{ACAD_REACTORS
330
C
102
}
330
C
100
AcDbDictionary
281
     1
  0
DICTIONARY
  5
1A
102
{ACAD_REACTORS
330
C
102
}
330
C
100
AcDbDictionary
281
     1
  3
Layout1
350
1E
  3
Model
350
22
  0
DICTIONARY
  5
14B
102
{ACAD_REACTORS
330
C
102
}
330
C
100
AcDbDictionary
281
     1
  0
DICTIONARY
  5
17
102
{ACAD_REACTORS
330
C
102
}
330
C
100
AcDbDictionary
281
     1
  3
Standard
350
18
  0
DICTIONARY
  5
19
102
{ACAD_REACTORS
330
C
102
}
330
C
100
AcDbDictionary
281
     1
  0
ACDBDICTIONARYWDFLT
  5
E
102
{ACAD_REACTORS
330
C
102
}
330
C
100
AcDbDictionary
281
     1
  3
Normal
350
F
100
AcDbDictionaryWithDefault
340
F
  0
DICTIONARY
  5
3B
102
{ACAD_REACTORS
330
C
102
}
330
C
100
AcDbDictionary
281
     1
  3
A0
350
3C
  3
A1
350
3D
  3
A2
350
3E
  3
A3
350
3F
  3
A4
350
40
  3
A5
350
41
  3
A6
350
42
  3
A7
350
43
  3
A8
350
44
  3
A9
350
45
  3
B0
350
46
  3
B1
350
47
  3
B2
350
48
  3
B3
350
49
  3
B4
350
4A
  3
B5
350
4B
  3
B6
350
4C
  3
B7
350
4D
  3
B8
350
4E
  3
B9
350
4F
  3
C0
350
50
  3
C1
350
51
  3
C2
350
52
  3
C3
350
53
  3
C4
350
54
  3
C5
350
55
  3
C6
350
56
  3
C7
350
57
  3
C8
350
58
  3
C9
350
59
  3
D0
350
5A
  3
D1
350
5B
  3
D2
350
5C
  0
DICTIONARY
  5
14A
102
{ACAD_REACTORS
330
C
102
}
330
C
100
AcDbDictionary
281
     1
  0
DICTIONARY
  5
2A
102
{ACAD_REACTORS
330
C
102
}
330
C
100
AcDbDictionary
281
     1
  3
2dWireframe
350
2F
  3
3D Hidden
350
31
  3
3dWireframe
350
30
  3
Basic
350
32
  3
Brighten
350
36
  3
ColorChange
350
3A
  3
Conceptual
350
34
  3
Dim
350
35
  3
Facepattern
350
39
  3
Flat
350
2B
  3
FlatWithEdges
350
2C
  3
Gouraud
350
2D
  3
GouraudWithEdges
350
2E
  3
Linepattern
350
38
  3
Realistic
350
33
  3
Thicken
350
37
  0
DICTIONARY
  5
148
102
{ACAD_REACTORS
330
C
102
}
330
C
100
AcDbDictionary
281
     1
  3
CANNOSCALE
350
149
  3
PSOLHEIGHT
350
14D
  3
PSOLWIDTH
350
14C
  0
LAYOUT
  5
1E
102
{ACAD_REACTORS
330
1A
102
}
330
1A
100
AcDbPlotSettings
  1

  2
none_device
  4

  6

 40
0.0
 41
0.0
 42
0.0
 43
0.0
 44
0.0
 45
0.0
 46
0.0
 47
0.0
 48
0.0
 49
0.0
140
0.0
141
0.0
142
1.0
143
1.0
 70
   688
 72
     0
 73
     0
 74
     5
  7

 75
    16
147
1.0
148
0.0
149
0.0
100
AcDbLayout
  1
Layout1
 70
     1
 71
     1
 10
0.0
 20
0.0
 11
3000.0
 21
4500.0
 12
0.0
 22
0.0
 32
0.0
 14
0.0
 24
0.0
 34
0.0
 15
3000.0
 25
4500.0
 35
0.0
146
0.0
 13
0.0
 23
0.0
 33
0.0
 16
1.0
 26
0.0
 36
0.0
 17
0.0
 27
1.0
 37
0.0
 76
     0
330
1B
  0
LAYOUT
  5
22
102
{ACAD_REACTORS
330
1A
102
}
330
1A
100
AcDbPlotSettings
  1

  2
none_device
  4

  6

 40
0.0
 41
0.0
 42
0.0
 43
0.0
 44
0.0
 45
0.0
 46
0.0
 47
0.0
 48
0.0
 49
0.0
140
0.0
141
0.0
142
1.0
143
1.0
 70
  1712
 72
     0
 73
     0
 74
     0
  7

 75
     0
147
1.0
148
0.0
149
0.0
100
AcDbLayout
  1
Model
 70
     1
 71
     0
 10
0.0
 20
0.0
 11
3000.0
 21
4500.0
 12
0.0
 22
0.0
 32
0.0
 14
0.0
 24
0.0
 34
0.0
 15
3000.0
 25
4500.0
 35
0.0
146
0.0
 13
0.0
 23
0.0
 33
0.0
 16
1.0
 26
0.0
 36
0.0
 17
0.0
 27
1.0
 37
0.0
 76
     0
330
1F
331
29
  0
MLINESTYLE
  5
18
102
{ACAD_REACTORS
330
17
102
}
330
17
100
AcDbMlineStyle
  2
Standard
 70
     0
  3

 62
   256
 51
90.0
 52
90.0
 71
     2
 49
0.5
 62
   256
  6
BYLAYER
 49
-0.5
 62
   256
  6
BYLAYER
  0
ACDBPLACEHOLDER
  5
F
102
{ACAD_REACTORS
330
E
102
}
330
E
  0
SCALE
  5
3C
102
{ACAD_REACTORS
330
3B
102
}
330
3B
100
AcDbScale
 70
     0
300
1:1
140
1.0
141
1.0
290
     1
  0
SCALE
  5
3D
102
{ACAD_REACTORS
330
3B
102
}
330
3B
100
AcDbScale
 70
     0
300
1:2
140
1.0
141
2.0
290
     0
  0
SCALE
  5
3E
102
{ACAD_REACTORS
330
3B
102
}
330
3B
100
AcDbScale
 70
     0
300
1:4
140
1.0
141
4.0
290
     0
  0
SCALE
  5
3F
102
{ACAD_REACTORS
330
3B
102
}
330
3B
100
AcDbScale
 70
     0
300
1:5
140
1.0
141
5.0
290
     0
  0
SCALE
  5
40
102
{ACAD_REACTORS
330
3B
102
}
330
3B
100
AcDbScale
 70
     0
300
1:8
140
1.0
141
8.0
290
     0
  0
SCALE
  5
41
102
{ACAD_REACTORS
330
3B
102
}
330
3B
100
AcDbScale
 70
     0
300
1:10
140
1.0
141
10.0
290
     0
  0
SCALE
  5
42
102
{ACAD_REACTORS
330
3B
102
}
330
3B
100
AcDbScale
 70
     0
300
1:16
140
1.0
141
16.0
290
     0
  0
SCALE
  5
43
102
{ACAD_REACTORS
330
3B
102
}
330
3B
100
AcDbScale
 70
     0
300
1:20
140
1.0
141
20.0
290
     0
  0
SCALE
  5
44
102
{ACAD_REACTORS
330
3B
102
}
330
3B
100
AcDbScale
 70
     0
300
1:30
140
1.0
141
30.0
290
     0
  0
SCALE
  5
45
102
{ACAD_REACTORS
330
3B
102
}
330
3B
100
AcDbScale
 70
     0
300
1:40
140
1.0
141
40.0
290
     0
  0
SCALE
  5
46
102
{ACAD_REACTORS
330
3B
102
}
330
3B
100
AcDbScale
 70
     0
300
1:50
140
1.0
141
50.0
290
     0
  0
SCALE
  5
47
102
{ACAD_REACTORS
330
3B
102
}
330
3B
100
AcDbScale
 70
     0
300
1:100
140
1.0
141
100.0
290
     0
  0
SCALE
  5
48
102
{ACAD_REACTORS
330
3B
102
}
330
3B
100
AcDbScale
 70
     0
300
2:1
140
2.0
141
1.0
290
     0
  0
SCALE
  5
49
102
{ACAD_REACTORS
330
3B
102
}
330
3B
100
AcDbScale
 70
     0
300
4:1
140
4.0
141
1.0
290
     0
  0
SCALE
  5
4A
102
{ACAD_REACTORS
330
3B
102
}
330
3B
100
AcDbScale
 70
     0
300
8:1
140
8.0
141
1.0
290
     0
  0
SCALE
  5
4B
102
{ACAD_REACTORS
330
3B
102
}
330
3B
100
AcDbScale
 70
     0
300
10:1
140
10.0
141
1.0
290
     0
  0
SCALE
  5
4C
102
{ACAD_REACTORS
330
3B
102
}
330
3B
100
AcDbScale
 70
     0
300
100:1
140
100.0
141
1.0
290
     0
  0
SCALE
  5
4D
102
{ACAD_REACTORS
330
3B
102
}
330
3B
100
AcDbScale
 70
     0
300
1/128" = 1'-0"
140
0.0078125
141
12.0
290
     0
  0
SCALE
  5
4E
102
{ACAD_REACTORS
330
3B
102
}
330
3B
100
AcDbScale
 70
     0
300
1/64" = 1'-0"
140
0.015625
141
12.0
290
     0
  0
SCALE
  5
4F
102
{ACAD_REACTORS
330
3B
102
}
330
3B
100
AcDbScale
 70
     0
300
1/32" = 1'-0"
140
0.03125
141
12.0
290
     0
  0
SCALE
  5
50
102
{ACAD_REACTORS
330
3B
102
}
330
3B
100
AcDbScale
 70
     0
300
1/16" = 1'-0"
140
0.0625
141
12.0
290
     0
  0
SCALE
  5
51
102
{ACAD_REACTORS
330
3B
102
}
330
3B
100
AcDbScale
 70
     0
300
3/32" = 1'-0"
140
0.09375
141
12.0
290
     0
  0
SCALE
  5
52
102
{ACAD_REACTORS
330
3B
102
}
330
3B
100
AcDbScale
 70
     0
300
1/8" = 1'-0"
140
0.125
141
12.0
290
     0
  0
SCALE
  5
53
102
{ACAD_REACTORS
330
3B
102
}
330
3B
100
AcDbScale
 70
     0
300
3/16" = 1'-0"
140
0.1875
141
12.0
290
     0
  0
SCALE
  5
54
102
{ACAD_REACTORS
330
3B
102
}
330
3B
100
AcDbScale
 70
     0
300
1/4" = 1'-0"
140
0.25
141
12.0
290
     0
  0
SCALE
  5
55
102
{ACAD_REACTORS
330
3B
102
}
330
3B
100
AcDbScale
 70
     0
300
3/8" = 1'-0"
140
0.375
141
12.0
290
     0
  0
SCALE
  5
56
102
{ACAD_REACTORS
330
3B
102
}
330
3B
100
AcDbScale
 70
     0
300
1/2" = 1'-0"
140
0.5
141
12.0
290
     0
  0
SCALE
  5
57
102
{ACAD_REACTORS
330
3B
102
}
330
3B
100
AcDbScale
 70
     0
300
3/4" = 1'-0"
140
0.75
141
12.0
290
     0
  0
SCALE
  5
58
102
{ACAD_REACTORS
330
3B
102
}
330
3B
100
AcDbScale
 70
     0
300
1" = 1'-0"
140
1.0
141
12.0
290
     0
  0
SCALE
  5
59
102
{ACAD_REACTORS
330
3B
102
}
330
3B
100
AcDbScale
 70
     0
300
1-1/2" = 1'-0"
140
1.5
141
12.0
290
     0
  0
SCALE
  5
5A
102
{ACAD_REACTORS
330
3B
102
}
330
3B
100
AcDbScale
 70
     0
300
3" = 1'-0"
140
3.0
141
12.0
290
     0
  0
SCALE
  5
5B
102
{ACAD_REACTORS
330
3B
102
}
330
3B
100
AcDbScale
 70
     0
300
6" = 1'-0"
140
6.0
141
12.0
290
     0
  0
SCALE
  5
5C
102
{ACAD_REACTORS
330
3B
102
}
330
3B
100
AcDbScale
 70
     0
300
1'-0" = 1'-0"
140
12.0
141
12.0
290
     0
  0
VISUALSTYLE
  5
2F
102
{ACAD_REACTORS
330
2A
102
}
330
2A
100
AcDbVisualStyle
  2
2dWireframe
 70
     4
 71
     0
 72
     2
 73
     0
 90
        0
 40
-0.6
 41
-30.0
 62
     5
 63
     7
 74
     1
 91
        4
 64
     7
 65
   257
 75
     1
175
     1
 42
1.0
 92
        0
 66
   257
 43
1.0
 76
     1
 77
     6
 78
     2
 67
     7
 79
     5
170
     0
171
     0
290
     0
174
     0
 93
        1
 44
0.0
173
     0
291
     0
 45
0.0
1001
ACAD
1000
AcDbSavedByObjectVersion
1070
     0
  0
VISUALSTYLE
  5
31
102
{ACAD_REACTORS
330
2A
102
}
330
2A
100
AcDbVisualStyle
  2
3D Hidden
 70
     6
 71
     1
 72
     2
 73
     2
 90
        0
 40
-0.6
 41
-30.0
 62
     5
 63
     7
 74
     2
 91
        2
 64
     7
 65
   257
 75
     2
175
     1
 42
40.0
 92
        0
 66
   257
 43
1.0
 76
     1
 77
     6
 78
     2
 67
     7
 79
     3
170
     0
171
     0
290
     0
174
     0
 93
        1
 44
0.0
173
     0
291
     0
 45
0.0
1001
ACAD
1000
AcDbSavedByObjectVersion
1070
     0
  0
VISUALSTYLE
  5
30
102
{ACAD_REACTORS
330
2A
102
}
330
2A
100
AcDbVisualStyle
  2
3dWireframe
 70
     5
 71
     0
 72
     2
 73
     0
 90
        0
 40
-0.6
 41
-30.0
 62
     5
 63
     7
 74
     1
 91
        4
 64
     7
 65
   257
 75
     1
175
     1
 42
1.0
 92
        0
 66
   257
 43
1.0
 76
     1
 77
     6
 78
     2
 67
     7
 79
     5
170
     0
171
     0
290
     0
174
     0
 93
        1
 44
0.0
173
     0
291
     0
 45
0.0
1001
ACAD
1000
AcDbSavedByObjectVersion
1070
     0
  0
VISUALSTYLE
  5
32
102
{ACAD_REACTORS
330
2A
102
}
330
2A
100
AcDbVisualStyle
  2
Basic
 70
     7
 71
     1
 72
     0
 73
     1
 90
        0
 40
-0.6
 41
-30.0
 62
     5
 63
     7
 74
     0
 91
        4
 64
     7
 65
   257
 75
     1
175
     1
 42
1.0
 92
        8
 66
     7
 43
1.0
 76
     1
 77
     6
 78
     2
 67
     7
 79
     5
170
     0
171
     0
290
     0
174
     0
 93
        1
 44
0.0
173
     0
291
     1
 45
0.0
1001
ACAD
1000
AcDbSavedByObjectVersion
1070
     0
  0
VISUALSTYLE
  5
36
102
{ACAD_REACTORS
330
2A
102
}
330
2A
100
AcDbVisualStyle
  2
Brighten
 70
    12
 71
     2
 72
     2
 73
     0
 90
        0
 40
-0.6
 41
-30.0
 62
     5
 63
     7
 74
     1
 91
        4
 64
     7
 65
   257
 75
     1
175
     1
 42
1.0
 92
        8
 66
     7
 43
1.0
 76
     1
 77
     6
 78
     2
 67
     7
 79
     5
170
     0
171
     0
290
     0
174
     0
 93
        1
 44
50.0
173
     0
291
     1
 45
0.0
1001
ACAD
1000
AcDbSavedByObjectVersion
1070
     0
  0
VISUALSTYLE
  5
3A
102
{ACAD_REACTORS
330
2A
102
}
330
2A
100
AcDbVisualStyle
  2
ColorChange
 70
    16
 71
     2
 72
     2
 73
     3
 90
        0
 40
-0.6
 41
-30.0
 62
     5
 63
     8
 74
     1
 91
        4
 64
     7
 65
   257
 75
     1
175
     1
 42
1.0
 92
        8
 66
     8
 43
1.0
 76
     1
 77
     6
 78
     2
 67
     7
 79
     5
170
     0
171
     0
290
     0
174
     0
 93
        1
 44
0.0
173
     0
291
     1
 45
0.0
1001
ACAD
1000
AcDbSavedByObjectVersion
1070
     0
  0
VISUALSTYLE
  5
34
102
{ACAD_REACTORS
330
2A
102
}
330
2A
100
AcDbVisualStyle
  2
Conceptual
 70
     9
 71
     3
 72
     2
 73
     0
 90
        0
 40
-0.6
 41
-30.0
 62
     5
 63
     7
 74
     2
 91
        2
 64
     7
 65
   257
 75
     1
175
     1
 42
40.0
 92
        8
 66
     7
 43
1.0
 76
     1
 77
     6
 78
     2
 67
     7
 79
     3
170
     0
171
     0
290
     0
174
     0
 93
        1
 44
0.0
173
     0
291
     0
 45
0.0
1001
ACAD
1000
AcDbSavedByObjectVersion
1070
     0
  0
VISUALSTYLE
  5
35
102
{ACAD_REACTORS
330
2A
102
}
330
2A
100
AcDbVisualStyle
  2
Dim
 70
    11
 71
     2
 72
     2
 73
     0
 90
        0
 40
-0.6
 41
-30.0
 62
     5
 63
     7
 74
     1
 91
        4
 64
     7
 65
   257
 75
     1
175
     1
 42
1.0
 92
        8
 66
     7
 43
1.0
 76
     1
 77
     6
 78
     2
 67
     7
 79
     5
170
     0
171
     0
290
     0
174
     0
 93
        1
 44
-50.0
173
     0
291
     1
 45
0.0
1001
ACAD
1000
AcDbSavedByObjectVersion
1070
     0
  0
VISUALSTYLE
  5
39
102
{ACAD_REACTORS
330
2A
102
}
330
2A
100
AcDbVisualStyle
  2
Facepattern
 70
    15
 71
     2
 72
     2
 73
     0
 90
        0
 40
-0.6
 41
-30.0
 62
     5
 63
     7
 74
     1
 91
        4
 64
     7
 65
   257
 75
     1
175
     1
 42
1.0
 92
        8
 66
     7
 43
1.0
 76
     1
 77
     6
 78
     2
 67
     7
 79
     5
170
     0
171
     0
290
     0
174
     0
 93
        1
 44
0.0
173
     0
291
     1
 45
0.0
1001
ACAD
1000
AcDbSavedByObjectVersion
1070
     0
  0
VISUALSTYLE
  5
2B
102
{ACAD_REACTORS
330
2A
102
}
330
2A
100
AcDbVisualStyle
  2
Flat
 70
     0
 71
     2
 72
     1
 73
     1
 90
        2
 40
-0.6
 41
30.0
 62
     5
 63
     7
 74
     0
 91
        4
 64
     7
 65
   257
 75
     1
175
     1
 42
1.0
 92
        8
 66
     7
 43
1.0
 76
     1
 77
     6
 78
     2
 67
     7
 79
     5
170
     0
171
     0
290
     0
174
     0
 93
       13
 44
0.0
173
     0
291
     1
 45
0.0
1001
ACAD
1000
AcDbSavedByObjectVersion
1070
     0
  0
VISUALSTYLE
  5
2C
102
{ACAD_REACTORS
330
2A
102
}
330
2A
100
AcDbVisualStyle
  2
FlatWithEdges
 70
     1
 71
     2
 72
     1
 73
     1
 90
        2
 40
-0.6
 41
30.0
 62
     5
 63
     7
 74
     1
 91
        4
 64
     7
 65
   257
 75
     1
175
     1
 42
1.0
 92
        0
 66
   257
 43
1.0
 76
     1
 77
     6
 78
     2
 67
     7
 79
     5
170
     0
171
     0
290
     0
174
     0
 93
       13
 44
0.0
173
     0
291
     1
 45
0.0
1001
ACAD
1000
AcDbSavedByObjectVersion
1070
     0
  0
VISUALSTYLE
  5
2D
102
{ACAD_REACTORS
330
2A
102
}
330
2A
100
AcDbVisualStyle
  2
Gouraud
 70
     2
 71
     2
 72
     2
 73
     1
 90
        2
 40
-0.6
 41
30.0
 62
     5
 63
     7
 74
     0
 91
        4
 64
     7
 65
   257
 75
     1
175
     1
 42
1.0
 92
        0
 66
     7
 43
1.0
 76
     1
 77
     6
 78
     2
 67
     7
 79
     5
170
     0
171
     0
290
     0
174
     0
 93
       13
 44
0.0
173
     0
291
     1
 45
0.0
1001
ACAD
1000
AcDbSavedByObjectVersion
1070
     0
  0
VISUALSTYLE
  5
2E
102
{ACAD_REACTORS
330
2A
102
}
330
2A
100
AcDbVisualStyle
  2
GouraudWithEdges
 70
     3
 71
     2
 72
     2
 73
     1
 90
        2
 40
-0.6
 41
30.0
 62
     5
 63
     7
 74
     1
 91
        4
 64
     7
 65
   257
 75
     1
175
     1
 42
1.0
 92
        0
 66
   257
 43
1.0
 76
     1
 77
     6
 78
     2
 67
     7
 79
     5
170
     0
171
     0
290
     0
174
     0
 93
       13
 44
0.0
173
     0
291
     1
 45
0.0
1001
ACAD
1000
AcDbSavedByObjectVersion
1070
     0
  0
VISUALSTYLE
  5
38
102
{ACAD_REACTORS
330
2A
102
}
330
2A
100
AcDbVisualStyle
  2
Linepattern
 70
    14
 71
     2
 72
     2
 73
     0
 90
        0
 40
-0.6
 41
-30.0
 62
     5
 63
     7
 74
     1
 91
        4
 64
     7
 65
   257
 75
     7
175
     7
 42
1.0
 92
        8
 66
     7
 43
1.0
 76
     1
 77
     6
 78
     2
 67
     7
 79
     5
170
     0
171
     0
290
     0
174
     0
 93
        1
 44
0.0
173
     0
291
     1
 45
0.0
1001
ACAD
1000
AcDbSavedByObjectVersion
1070
     0
  0
VISUALSTYLE
  5
33
102
{ACAD_REACTORS
330
2A
102
}
330
2A
100
AcDbVisualStyle
  2
Realistic
 70
     8
 71
     2
 72
     2
 73
     0
 90
        0
 40
-0.6
 41
-30.0
 62
     5
 63
     7
 74
     1
 91
        0
 64
     7
 65
   257
 75
     1
175
     1
 42
1.0
 92
        8
 66
     8
 43
1.0
 76
     1
 77
     6
 78
     2
 67
     7
 79
     5
170
     0
171
     0
290
     0
174
     0
 93
       13
 44
0.0
173
     0
291
     0
 45
0.0
1001
ACAD
1000
AcDbSavedByObjectVersion
1070
     0
  0
VISUALSTYLE
  5
37
102
{ACAD_REACTORS
330
2A
102
}
330
2A
100
AcDbVisualStyle
  2
Thicken
 70
    13
 71
     2
 72
     2
 73
     0
 90
        0
 40
-0.6
 41
-30.0
 62
     5
 63
     7
 74
     1
 91
        4
 64
     7
 65
   257
 75
     1
175
     1
 42
1.0
 92
       12
 66
     7
 43
1.0
 76
     1
 77
     6
 78
     2
 67
     7
 79
     5
170
     0
171
     0
290
     0
174
     0
 93
        1
 44
0.0
173
     0
291
     1
 45
0.0
1001
ACAD
1000
AcDbSavedByObjectVersion
1070
     0
  0
DICTIONARYVAR
  5
149
102
{ACAD_REACTORS
330
148
102
}
330
148
100
DictionaryVariables
280
     0
  1
1:1
  0
DICTIONARYVAR
  5
14D
102
{ACAD_REACTORS
330
148
102
}
330
148
100
DictionaryVariables
280
     0
  1
80.000000
  0
DICTIONARYVAR
  5
14C
102
{ACAD_REACTORS
330
148
102
}
330
148
100
DictionaryVariables
280
     0
  1
5.000000
  0
ENDSEC
  0
EOF
