  0
SECTION
  2
HEADER
  9
$ACADVER
  1
AC1015
  9
$ACADMAINTVER
 70
     6
  9
$DWGCODEPAGE
  3
ANSI_1252
  9
$INSBASE
 10
0.0
 20
0.0
 30
0.0
  9
$EXTMIN
 10
0.0
 20
0.0
 30
0.0
  9
$EXTMAX
 10
1682.0
 20
2378.0
 30
0.0
  9
$LIMMIN
 10
0.0
 20
0.0
  9
$LIMMAX
 10
1682.0
 20
2378.0
  9
$ORTHOMODE
 70
     0
  9
$REGENMODE
 70
     1
  9
$FILLMODE
 70
     1
  9
$QTEXTMODE
 70
     0
  9
$MIRRTEXT
 70
     1
  9
$LTSCALE
 40
1.0
  9
$ATTMODE
 70
     1
  9
$TEXTSIZE
 40
2.5
  9
$TRACEWID
 40
1.0
  9
$TEXTSTYLE
  7
Standard
  9
$CLAYER
  8
0
  9
$CELTYPE
  6
ByLayer
  9
$CECOLOR
 62
   256
  9
$CELTSCALE
 40
1.0
  9
$DISPSILH
 70
     0
  9
$DIMSCALE
 40
1.0
  9
$DIMASZ
 40
2.5
  9
$DIMEXO
 40
0.625
  9
$DIMDLI
 40
3.75
  9
$DIMRND
 40
0.0
  9
$DIMDLE
 40
0.0
  9
$DIMEXE
 40
1.25
  9
$DIMTP
 40
0.0
  9
$DIMTM
 40
0.0
  9
$DIMTXT
 40
2.5
  9
$DIMCEN
 40
2.5
  9
$DIMTSZ
 40
0.0
  9
$DIMTOL
 70
     0
  9
$DIMLIM
 70
     0
  9
$DIMTIH
 70
     0
  9
$DIMTOH
 70
     0
  9
$DIMSE1
 70
     0
  9
$DIMSE2
 70
     0
  9
$DIMTAD
 70
     1
  9
$DIMZIN
 70
     8
  9
$DIMBLK
  1

  9
$DIMASO
 70
     1
  9
$DIMSHO
 70
     1
  9
$DIMPOST
  1

  9
$DIMAPOST
  1

  9
$DIMALT
 70
     0
  9
$DIMALTD
 70
     3
  9
$DIMALTF
 40
0.0393700787
  9
$DIMLFAC
 40
1.0
  9
$DIMTOFL
 70
     1
  9
$DIMTVP
 40
0.0
  9
$DIMTIX
 70
     0
  9
$DIMSOXD
 70
     0
  9
$DIMSAH
 70
     0
  9
$DIMBLK1
  1

  9
$DIMBLK2
  1

  9
$DIMSTYLE
  2
ISO-25
  9
$DIMCLRD
 70
     0
  9
$DIMCLRE
 70
     0
  9
$DIMCLRT
 70
     0
  9
$DIMTFAC
 40
1.0
  9
$DIMGAP
 40
0.625
  9
$DIMJUST
 70
     0
  9
$DIMSD1
 70
     0
  9
$DIMSD2
 70
     0
  9
$DIMTOLJ
 70
     0
  9
$DIMTZIN
 70
     8
  9
$DIMALTZ
 70
     0
  9
$DIMALTTZ
 70
     0
  9
$DIMUPT
 70
     0
  9
$DIMDEC
 70
     2
  9
$DIMTDEC
 70
     2
  9
$DIMALTU
 70
     2
  9
$DIMALTTD
 70
     3
  9
$DIMTXSTY
  7
Standard
  9
$DIMAUNIT
 70
     0
  9
$DIMADEC
 70
     0
  9
$DIMALTRND
 40
0.0
  9
$DIMAZIN
 70
     0
  9
$DIMDSEP
 70
    44
  9
$DIMATFIT
 70
     3
  9
$DIMFRAC
 70
     0
  9
$DIMLDRBLK
  1

  9
$DIMLUNIT
 70
     2
  9
$DIMLWD
 70
    -2
  9
$DIMLWE
 70
    -2
  9
$DIMTMOVE
 70
     0
  9
$LUNITS
 70
     2
  9
$LUPREC
 70
     4
  9
$SKETCHINC
 40
1.0
  9
$FILLETRAD
 40
10.0
  9
$AUNITS
 70
     0
  9
$AUPREC
 70
     0
  9
$MENU
  1
.
  9
$ELEVATION
 40
0.0
  9
$PELEVATION
 40
0.0
  9
$THICKNESS
 40
0.0
  9
$LIMCHECK
 70
     0
  9
$CHAMFERA
 40
10.0
  9
$CHAMFERB
 40
10.0
  9
$CHAMFERC
 40
20.0
  9
$CHAMFERD
 40
0.0
  9
$SKPOLY
 70
     0
  9
$TDCREATE
 40
2455470.663521701
  9
$TDUCREATE
 40
2455470.580188368
  9
$TDUPDATE
 40
2455470.663521713
  9
$TDUUPDATE
 40
2455470.58018838
  9
$TDINDWG
 40
0.0000000116
  9
$TDUSRTIMER
 40
0.0000000116
  9
$USRTIMER
 70
     1
  9
$ANGBASE
 50
0.0
  9
$ANGDIR
 70
     0
  9
$PDMODE
 70
     0
  9
$PDSIZE
 40
0.0
  9
$PLINEWID
 40
0.0
  9
$SPLFRAME
 70
     0
  9
$SPLINETYPE
 70
     6
  9
$SPLINESEGS
 70
     8
  9
$HANDSEED
  5
171
  9
$SURFTAB1
 70
     6
  9
$SURFTAB2
 70
     6
  9
$SURFTYPE
 70
     6
  9
$SURFU
 70
     6
  9
$SURFV
 70
     6
  9
$UCSBASE
  2

  9
$UCSNAME
  2

  9
$UCSORG
 10
0.0
 20
0.0
 30
0.0
  9
$UCSXDIR
 10
1.0
 20
0.0
 30
0.0
  9
$UCSYDIR
 10
0.0
 20
1.0
 30
0.0
  9
$UCSORTHOREF
  2

  9
$UCSORTHOVIEW
 70
     0
  9
$UCSORGTOP
 10
0.0
 20
0.0
 30
0.0
  9
$UCSORGBOTTOM
 10
0.0
 20
0.0
 30
0.0
  9
$UCSORGLEFT
 10
0.0
 20
0.0
 30
0.0
  9
$UCSORGRIGHT
 10
0.0
 20
0.0
 30
0.0
  9
$UCSORGFRONT
 10
0.0
 20
0.0
 30
0.0
  9
$UCSORGBACK
 10
0.0
 20
0.0
 30
0.0
  9
$PUCSBASE
  2

  9
$PUCSNAME
  2

  9
$PUCSORG
 10
0.0
 20
0.0
 30
0.0
  9
$PUCSXDIR
 10
1.0
 20
0.0
 30
0.0
  9
$PUCSYDIR
 10
0.0
 20
1.0
 30
0.0
  9
$PUCSORTHOREF
  2

  9
$PUCSORTHOVIEW
 70
     0
  9
$PUCSORGTOP
 10
0.0
 20
0.0
 30
0.0
  9
$PUCSORGBOTTOM
 10
0.0
 20
0.0
 30
0.0
  9
$PUCSORGLEFT
 10
0.0
 20
0.0
 30
0.0
  9
$PUCSORGRIGHT
 10
0.0
 20
0.0
 30
0.0
  9
$PUCSORGFRONT
 10
0.0
 20
0.0
 30
0.0
  9
$PUCSORGBACK
 10
0.0
 20
0.0
 30
0.0
  9
$USERI1
 70
     0
  9
$USERI2
 70
     0
  9
$USERI3
 70
     0
  9
$USERI4
 70
     0
  9
$USERI5
 70
     0
  9
$USERR1
 40
0.0
  9
$USERR2
 40
0.0
  9
$USERR3
 40
0.0
  9
$USERR4
 40
0.0
  9
$USERR5
 40
0.0
  9
$WORLDVIEW
 70
     1
  9
$SHADEDGE
 70
     3
  9
$SHADEDIF
 70
    70
  9
$TILEMODE
 70
     1
  9
$MAXACTVP
 70
    64
  9
$PINSBASE
 10
0.0
 20
0.0
 30
0.0
  9
$PLIMCHECK
 70
     0
  9
$PEXTMIN
 10
0.0
 20
0.0
 30
0.0
  9
$PEXTMAX
 10
1682.0
 20
2378.0
 30
0.0
  9
$PLIMMIN
 10
0.0
 20
0.0
  9
$PLIMMAX
 10
1682.0
 20
2378.0
  9
$UNITMODE
 70
     0
  9
$VISRETAIN
 70
     1
  9
$PLINEGEN
 70
     0
  9
$PSLTSCALE
 70
     1
  9
$TREEDEPTH
 70
  3020
  9
$CMLSTYLE
  2
Standard
  9
$CMLJUST
 70
     0
  9
$CMLSCALE
 40
20.0
  9
$PROXYGRAPHICS
 70
     1
  9
$MEASUREMENT
 70
     1
  9
$CELWEIGHT
370
    -1
  9
$ENDCAPS
280
     0
  9
$JOINSTYLE
280
     0
  9
$LWDISPLAY
290
     0
  9
$INSUNITS
 70
     4
  9
$HYPERLINKBASE
  1

  9
$STYLESHEET
  1

  9
$XEDIT
290
     1
  9
$CEPSNTYPE
380
     0
  9
$PSTYLEMODE
290
     1
  9
$FINGERPRINTGUID
  2
{B8270C2D-B1B6-409A-BA11-741E459E75E8}
  9
$VERSIONGUID
  2
{FAEB1C32-E019-11D5-929B-00C0DF256EC4}
  9
$EXTNAMES
290
     1
  9
$PSVPSCALE
 40
0.0
  9
$OLESTARTUP
290
     0
  0
ENDSEC
  0
SECTION
  2
CLASSES
  0
CLASS
  1
ACDBDICTIONARYWDFLT
  2
AcDbDictionaryWithDefault
  3
ObjectDBX Classes
 90
        0
280
     0
281
     0
  0
CLASS
  1
VISUALSTYLE
  2
AcDbVisualStyle
  3
ObjectDBX Classes
 90
     4095
280
     0
281
     0
  0
CLASS
  1
SCALE
  2
AcDbScale
  3
ObjectDBX Classes
 90
     1153
280
     0
281
     0
  0
CLASS
  1
DICTIONARYVAR
  2
AcDbDictionaryVar
  3
ObjectDBX Classes
 90
        0
280
     0
281
     0
  0
CLASS
  1
ACDBPLACEHOLDER
  2
AcDbPlaceHolder
  3
ObjectDBX Classes
 90
        0
280
     0
281
     0
  0
CLASS
  1
LAYOUT
  2
AcDbLayout
  3
ObjectDBX Classes
 90
        0
280
     0
281
     0
  0
ENDSEC
  0
SECTION
  2
TABLES
  0
TABLE
  2
VPORT
  5
8
330
0
100
AcDbSymbolTable
 70
     1
  0
VPORT
  5
29
330
8
100
AcDbSymbolTableRecord
100
AcDbViewportTableRecord
  2
*Active
 70
     0
 10
0.0
 20
0.0
 11
1.0
 21
1.0
 12
344.1869158879
 22
148.5
 13
0.0
 23
0.0
 14
10.0
 24
10.0
 15
10.0
 25
10.0
 16
0.0
 26
0.0
 36
1.0
 17
0.0
 27
0.0
 37
0.0
 40
297.0
 41
1.9729729729
 42
50.0
 43
0.0
 44
0.0
 50
0.0
 51
0.0
 71
     0
 72
   100
 73
     1
 74
     3
 75
     0
 76
     0
 77
     0
 78
     0
281
     0
 65
     1
110
0.0
120
0.0
130
0.0
111
1.0
121
0.0
131
0.0
112
0.0
122
1.0
132
0.0
 79
     0
146
0.0
  0
ENDTAB
  0
TABLE
  2
LTYPE
  5
5
330
0
100
AcDbSymbolTable
 70
     3
  0
LTYPE
  5
14
330
5
100
AcDbSymbolTableRecord
100
AcDbLinetypeTableRecord
  2
ByBlock
 70
     0
  3

 72
    65
 73
     0
 40
0.0
  0
LTYPE
  5
15
330
5
100
AcDbSymbolTableRecord
100
AcDbLinetypeTableRecord
  2
ByLayer
 70
     0
  3

 72
    65
 73
     0
 40
0.0
  0
LTYPE
  5
16
330
5
100
AcDbSymbolTableRecord
100
AcDbLinetypeTableRecord
  2
Continuous
 70
     0
  3
Solid line
 72
    65
 73
     0
 40
0.0
  0
LTYPE
  5
60
330
5
100
AcDbSymbolTableRecord
100
AcDbLinetypeTableRecord
  2
CENTER2
 70
     0
  3
Center (.5x) ___ _ ___ _ ___ _ ___ _ ___ _ ___
 72
    65
 73
     4
 40
28.575
 49
19.05
 74
     4
 75
     0
340
0
 46
0.0
 50
0.0
 44
0.0
 45
0.0
 49
-3.175
 74
     4
 75
     0
340
0
 46
0.0
 50
0.0
 44
0.0
 45
0.0
 49
3.175
 74
     4
 75
     0
340
0
 46
0.0
 50
0.0
 44
0.0
 45
0.0
 49
-3.175
 74
     4
 75
     0
340
0
 46
0.0
 50
0.0
 44
0.0
 45
0.0
  0
LTYPE
  5
11A
330
5
100
AcDbSymbolTableRecord
100
AcDbLinetypeTableRecord
  2
DOT2
 70
     0
  3
Dot (.5x) ........................................
 72
    65
 73
     2
 40
3.175
 49
0.0
 74
     4
 75
     0
340
0
 46
0.0
 50
0.0
 44
0.0
 45
0.0
 49
-3.175
 74
     4
 75
     0
340
0
 46
0.0
 50
0.0
 44
0.0
 45
0.0
  0
ENDTAB
  0
TABLE
  2
LAYER
  5
2
330
0
100
AcDbSymbolTable
 70
    12
  0
LAYER
  5
10
330
2
100
AcDbSymbolTableRecord
100
AcDbLayerTableRecord
  2
0
 70
     0
 62
     7
  6
Continuous
370
    -3
390
F
  0
LAYER
  5
5D
330
2
100
AcDbSymbolTableRecord
100
AcDbLayerTableRecord
  2
Default
 70
     0
 62
     7
  6
Continuous
370
    -3
390
F
  0
LAYER
  5
7B
330
2
100
AcDbSymbolTableRecord
100
AcDbLayerTableRecord
  2
$DDT_AUDIT_GENERATED_(7B)
 70
     0
 62
     7
  6
Continuous
370
    -3
390
F
  0
LAYER
  5
93
330
2
100
AcDbSymbolTableRecord
100
AcDbLayerTableRecord
  2
$DDT_AUDIT_GENERATED_(93)
 70
     0
 62
     7
  6
Continuous
370
    -3
390
F
  0
LAYER
  5
96
330
2
100
AcDbSymbolTableRecord
100
AcDbLayerTableRecord
  2
$DDT_AUDIT_GENERATED_(96)
 70
     0
 62
     7
  6
Continuous
370
    -3
390
F
  0
LAYER
  5
AC
330
2
100
AcDbSymbolTableRecord
100
AcDbLayerTableRecord
  2
$DDT_AUDIT_GENERATED_(AC)
 70
     0
 62
     7
  6
Continuous
370
    -3
390
F
  0
LAYER
  5
B0
330
2
100
AcDbSymbolTableRecord
100
AcDbLayerTableRecord
  2
$DDT_AUDIT_GENERATED_(B0)
 70
     0
 62
     7
  6
Continuous
370
    -3
390
F
  0
LAYER
  5
C8
330
2
100
AcDbSymbolTableRecord
100
AcDbLayerTableRecord
  2
$DDT_AUDIT_GENERATED_(C8)
 70
     0
 62
     7
  6
Continuous
370
    -3
390
F
  0
LAYER
  5
CE
330
2
100
AcDbSymbolTableRecord
100
AcDbLayerTableRecord
  2
$DDT_AUDIT_GENERATED_(CE)
 70
     0
 62
     7
  6
Continuous
370
    -3
390
F
  0
LAYER
  5
FC
330
2
100
AcDbSymbolTableRecord
100
AcDbLayerTableRecord
  2
$DDT_AUDIT_GENERATED_(FC)
 70
     0
 62
     7
  6
Continuous
370
    -3
390
F
  0
LAYER
  5
119
330
2
100
AcDbSymbolTableRecord
100
AcDbLayerTableRecord
  2
DV2_Default
 70
     0
 62
     7
  6
Continuous
370
    -3
390
F
  0
LAYER
  5
147
330
2
100
AcDbSymbolTableRecord
100
AcDbLayerTableRecord
  2
$DDT_AUDIT_GENERATED_(147)
 70
     0
 62
     7
  6
Continuous
370
    -3
390
F
  0
ENDTAB
  0
TABLE
  2
STYLE
  5
3
330
0
100
AcDbSymbolTable
 70
     2
  0
STYLE
  5
11
330
3
100
AcDbSymbolTableRecord
100
AcDbTextStyleTableRecord
  2
Standard
 70
     0
 40
0.0
 41
1.0
 50
0.0
 71
     0
 42
2.5
  3
txt
  4

  0
STYLE
  5
160
330
3
100
AcDbSymbolTableRecord
100
AcDbTextStyleTableRecord
  2
SEACAD_seiso_ttf
 70
     0
 40
0.0
 41
1.0
 50
0.0
 71
     0
 42
0.2
  3
seiso.ttf
  4

  0
ENDTAB
  0
TABLE
  2
VIEW
  5
6
330
0
100
AcDbSymbolTable
 70
     0
  0
ENDTAB
  0
TABLE
  2
UCS
  5
7
330
0
100
AcDbSymbolTable
 70
     0
  0
ENDTAB
  0
TABLE
  2
APPID
  5
9
330
0
100
AcDbSymbolTable
 70
     1
  0
APPID
  5
12
330
9
100
AcDbSymbolTableRecord
100
AcDbRegAppTableRecord
  2
ACAD
 70
     0
  0
ENDTAB
  0
TABLE
  2
DIMSTYLE
  5
A
330
0
100
AcDbSymbolTable
 70
     1
100
AcDbDimStyleTable
  0
DIMSTYLE
105
27
330
A
100
AcDbSymbolTableRecord
100
AcDbDimStyleTableRecord
  2
ISO-25
 70
     0
 41
2.5
 42
0.625
 43
3.75
 44
1.25
 73
     0
 74
     0
 77
     1
 78
     8
140
2.5
141
2.5
143
0.0393700787
147
0.625
171
     3
172
     1
271
     2
272
     2
274
     3
278
    44
283
     0
284
     8
340
11
  0
ENDTAB
  0
TABLE
  2
BLOCK_RECORD
  5
1
330
0
100
AcDbSymbolTable
 70
     7
  0
BLOCK_RECORD
  5
1F
330
1
100
AcDbSymbolTableRecord
100
AcDbBlockTableRecord
  2
*Model_Space
340
22
  0
BLOCK_RECORD
  5
1B
330
1
100
AcDbSymbolTableRecord
100
AcDbBlockTableRecord
  2
*Paper_Space
340
1E
  0
BLOCK_RECORD
  5
5E
330
1
100
AcDbSymbolTableRecord
100
AcDbBlockTableRecord
  2
SEANNOT_GROUP
340
0
102
{BLKREFS
331
5F
102
}
  0
BLOCK_RECORD
  5
69
330
1
100
AcDbSymbolTableRecord
100
AcDbBlockTableRecord
  2
SEANNOT_GROUP1
340
0
102
{BLKREFS
331
6A
102
}
  0
BLOCK_RECORD
  5
73
330
1
100
AcDbSymbolTableRecord
100
AcDbBlockTableRecord
  2
SEANNOT_GROUP2
340
0
102
{BLKREFS
331
74
102
}
  0
BLOCK_RECORD
  5
79
330
1
100
AcDbSymbolTableRecord
100
AcDbBlockTableRecord
  2
SE
340
0
102
{BLKREFS
331
7A
102
}
  0
BLOCK_RECORD
  5
C6
330
1
100
AcDbSymbolTableRecord
100
AcDbBlockTableRecord
  2
SE1
340
0
102
{BLKREFS
331
C7
102
}
  0
BLOCK_RECORD
  5
123
330
1
100
AcDbSymbolTableRecord
100
AcDbBlockTableRecord
  2
SE2
340
0
102
{BLKREFS
331
124
102
}
  0
ENDTAB
  0
ENDSEC
  0
SECTION
  2
BLOCKS
  0
BLOCK
  5
20
330
1F
100
AcDbEntity
  8
0
100
AcDbBlockBegin
  2
*Model_Space
 70
     0
 10
0.0
 20
0.0
 30
0.0
  3
*Model_Space
  1

  0
ENDBLK
  5
21
330
1F
100
AcDbEntity
  8
0
100
AcDbBlockEnd
  0
BLOCK
  5
1C
330
1B
100
AcDbEntity
 67
     1
  8
0
100
AcDbBlockBegin
  2
*Paper_Space
 70
     0
 10
0.0
 20
0.0
 30
0.0
  3
*Paper_Space
  1

  0
ENDBLK
  5
1D
330
1B
100
AcDbEntity
 67
     1
  8
0
100
AcDbBlockEnd
  0
BLOCK
  5
67
330
5E
100
AcDbEntity
  8
0
100
AcDbBlockBegin
  2
SEANNOT_GROUP
 70
     0
 10
0.0
 20
0.0
 30
0.0
  3
SEANNOT_GROUP
  1

  0
LINE
  5
61
330
5E
100
AcDbEntity
  8
Default
  6
CENTER2
 62
     7
100
AcDbLine
 10
209.6040633266
 20
540.8812812442
 30
0.0
 11
169.6040642207
 21
540.8812812442
 31
0.0
  0
LINE
  5
62
330
5E
100
AcDbEntity
  8
Default
  6
CENTER2
 62
     7
100
AcDbLine
 10
189.6040637737
 20
560.8812807971
 30
0.0
 11
189.6040637737
 21
520.8812816912
 31
0.0
  0
LINE
  5
63
330
5E
100
AcDbEntity
  8
Default
  6
CENTER2
 62
     7
100
AcDbLine
 10
214.6040632149
 20
540.8812812442
 30
0.0
 11
219.3040637737
 21
540.8812812442
 31
0.0
  0
LINE
  5
64
330
5E
100
AcDbEntity
  8
Default
  6
CENTER2
 62
     7
100
AcDbLine
 10
189.6040637737
 20
565.8812806854
 30
0.0
 11
189.6040637737
 21
570.5812812442
 31
0.0
  0
LINE
  5
65
330
5E
100
AcDbEntity
  8
Default
  6
CENTER2
 62
     7
100
AcDbLine
 10
164.6040643324
 20
540.8812812442
 30
0.0
 11
159.9040637737
 21
540.8812812442
 31
0.0
  0
LINE
  5
66
330
5E
100
AcDbEntity
  8
Default
  6
CENTER2
 62
     7
100
AcDbLine
 10
189.6040637737
 20
515.881281803
 30
0.0
 11
189.6040637737
 21
511.1812812442
 31
0.0
  0
ENDBLK
  5
68
330
5E
100
AcDbEntity
  8
0
100
AcDbBlockEnd
  0
BLOCK
  5
71
330
69
100
AcDbEntity
  8
0
100
AcDbBlockBegin
  2
SEANNOT_GROUP1
 70
     0
 10
0.0
 20
0.0
 30
0.0
  3
SEANNOT_GROUP1
  1

  0
LINE
  5
6B
330
69
100
AcDbEntity
  8
Default
  6
CENTER2
 62
     7
100
AcDbLine
 10
279.6040642207
 20
541.9538055819
 30
0.0
 11
319.6040633266
 21
541.9538055855
 31
0.0
  0
LINE
  5
6C
330
69
100
AcDbEntity
  8
Default
  6
CENTER2
 62
     7
100
AcDbLine
 10
299.6040637754
 20
521.9538060307
 30
0.0
 11
299.6040637719
 21
561.9538051366
 31
0.0
  0
LINE
  5
6D
330
69
100
AcDbEntity
  8
Default
  6
CENTER2
 62
     7
100
AcDbLine
 10
274.6040643324
 20
541.9538055814
 30
0.0
 11
270.1040637737
 21
541.953805581
 31
0.0
  0
LINE
  5
6E
330
69
100
AcDbEntity
  8
Default
  6
CENTER2
 62
     7
100
AcDbLine
 10
299.6040637759
 20
516.9538061425
 30
0.0
 11
299.6040637763
 21
512.4627151343
 31
0.0
  0
LINE
  5
6F
330
69
100
AcDbEntity
  8
Default
  6
CENTER2
 62
     7
100
AcDbLine
 10
324.6040632149
 20
541.9538055859
 30
0.0
 11
329.1040637737
 21
541.9538055863
 31
0.0
  0
LINE
  5
70
330
69
100
AcDbEntity
  8
Default
  6
CENTER2
 62
     7
100
AcDbLine
 10
299.6040637714
 20
566.9538050249
 30
0.0
 11
299.604063771
 21
571.444896033
 31
0.0
  0
ENDBLK
  5
72
330
69
100
AcDbEntity
  8
0
100
AcDbBlockEnd
  0
BLOCK
  5
77
330
73
100
AcDbEntity
  8
0
100
AcDbBlockBegin
  2
SEANNOT_GROUP2
 70
     0
 10
0.0
 20
0.0
 30
0.0
  3
SEANNOT_GROUP2
  1

  0
LINE
  5
75
330
73
100
AcDbEntity
  8
Default
  6
CENTER2
 62
     7
100
AcDbLine
 10
565.3693154084
 20
540.8812812442
 30
0.0
 11
525.3693163025
 21
540.8812812442
 31
0.0
  0
LINE
  5
76
330
73
100
AcDbEntity
  8
Default
  6
CENTER2
 62
     7
100
AcDbLine
 10
545.3693158554
 20
560.8812807971
 30
0.0
 11
545.3693158554
 21
520.8812816912
 31
0.0
  0
ENDBLK
  5
78
330
73
100
AcDbEntity
  8
0
100
AcDbBlockEnd
  0
BLOCK
  5
C4
330
79
100
AcDbEntity
  8
0
100
AcDbBlockBegin
  2
SE
 70
     0
 10
0.0
 20
0.0
 30
0.0
  3
SE
  1

  0
ELLIPSE
  5
7C
330
79
100
AcDbEntity
  8
$DDT_AUDIT_GENERATED_(7B)
  6
Continuous
 62
     7
100
AcDbEllipse
 10
299.6040637737
 20
541.8798274586
 30
0.0
 11
-25.99999999998647
 21
-9.022222292182080E-8
 31
0.0
210
0.0
220
0.0
230
1.0
 40
0.999657325
 41
1.159279477257749
 42
1.982313169393488
  0
ARC
  5
7D
330
79
100
AcDbEntity
  8
$DDT_AUDIT_GENERATED_(7B)
  6
Continuous
 62
     7
100
AcDbCircle
 10
299.2695304683
 20
541.0824583818
 30
0.0
 40
26.33454603178897
100
AcDbArc
 50
358.0932162299
 51
359.9986373492
  0
ARC
  5
7E
330
79
100
AcDbEntity
  8
$DDT_AUDIT_GENERATED_(7B)
  6
Continuous
 62
     7
100
AcDbCircle
 10
299.9399439742
 20
541.0824659226
 30
0.0
 40
26.33589243206567
100
AcDbArc
 50
179.9818984006
 51
181.906702666
  0
ELLIPSE
  5
7F
330
79
100
AcDbEntity
  8
$DDT_AUDIT_GENERATED_(7B)
  6
Continuous
 62
     7
100
AcDbEllipse
 10
299.6040637737
 20
541.0761951455
 30
0.0
 11
-26.0000000000006
 21
8.427105042431438E-11
 31
0.0
210
0.0
220
0.0
230
1.0
 40
0.999657325
 41
0.0334784774980818
 42
1.18279078515522
  0
ELLIPSE
  5
80
330
79
100
AcDbEntity
  8
$DDT_AUDIT_GENERATED_(7B)
  6
Continuous
 62
     7
100
AcDbEllipse
 10
299.6040637737
 20
541.0761951455
 30
0.0
 11
-26.0000000000006
 21
8.427105042431438E-11
 31
0.0
210
0.0
220
0.0
230
1.0
 40
0.999657325
 41
1.958939142010669
 42
3.108114176098193
  0
ELLIPSE
  5
81
330
79
100
AcDbEntity
  8
$DDT_AUDIT_GENERATED_(7B)
  6
Continuous
 62
     7
100
AcDbEllipse
 10
299.6040637737
 20
541.9538055837
 30
0.0
 11
-26.0000000000014
 21
-2.328835258316730E-9
 31
0.0
210
0.0
220
0.0
230
1.0
 40
0.999657325
 41
3.14159265358979
 42
6.283185307179584
  0
LINE
  5
82
330
79
100
AcDbEntity
  8
$DDT_AUDIT_GENERATED_(7B)
  6
Continuous
 62
     7
100
AcDbLine
 10
309.4040637737
 20
453.5655848511
 30
0.0
 11
309.4040637737
 21
453.4059054664
 31
0.0
  0
LINE
  5
83
330
79
100
AcDbEntity
  8
$DDT_AUDIT_GENERATED_(7B)
  6
Continuous
 62
     7
100
AcDbLine
 10
309.4040637737
 20
516.4237700327
 30
0.0
 11
309.4040637737
 21
453.5655848511
 31
0.0
  0
LINE
  5
84
330
79
100
AcDbEntity
  8
$DDT_AUDIT_GENERATED_(7B)
  6
Continuous
 62
     7
100
AcDbLine
 10
309.4040637737
 20
517.1011074034
 30
0.0
 11
309.4040637737
 21
516.4237700327
 31
0.0
  0
ELLIPSE
  5
85
330
79
100
AcDbEntity
  8
$DDT_AUDIT_GENERATED_(7B)
  6
Continuous
 62
     7
100
AcDbEllipse
 10
308.7040637737
 20
453.5655848511
 30
0.0
 11
0.7000000000000547
 21
2.914335439641036E-13
 31
0.0
210
0.0
220
0.0
230
1.0
 40
0.999657325
 41
4.712388980384273
 42
6.283185307179586
  0
LINE
  5
86
330
79
100
AcDbEntity
  8
$DDT_AUDIT_GENERATED_(7B)
  6
Continuous
 62
     7
100
AcDbLine
 10
289.8040637737
 20
453.5655848511
 30
0.0
 11
289.8040637737
 21
516.4237700327
 31
0.0
  0
LINE
  5
87
330
79
100
AcDbEntity
  8
$DDT_AUDIT_GENERATED_(7B)
  6
Continuous
 62
     7
100
AcDbLine
 10
289.8040637737
 20
516.4237700327
 30
0.0
 11
289.8040637737
 21
517.1011074034
 31
0.0
  0
ELLIPSE
  5
88
330
79
100
AcDbEntity
  8
$DDT_AUDIT_GENERATED_(7B)
  6
Continuous
 62
     7
100
AcDbEllipse
 10
290.5040637737
 20
453.5655848511
 30
0.0
 11
0.6999999999999488
 21
4.579669976578771E-13
 31
0.0
210
0.0
220
0.0
230
1.0
 40
0.999657325
 41
3.141592653589793
 42
4.712388980384036
  0
ARC
  5
89
330
79
100
AcDbEntity
  8
$DDT_AUDIT_GENERATED_(7B)
  6
Continuous
 62
     7
100
AcDbCircle
 10
288.8820795074
 20
516.9328916757
 30
0.0
 40
0.9219888655531397
100
AcDbArc
 50
359.8190244634
 51
69.559900641
  0
LINE
  5
8A
330
79
100
AcDbEntity
  8
$DDT_AUDIT_GENERATED_(7B)
  6
Continuous
 62
     7
100
AcDbLine
 10
289.8040637737
 20
453.4059054664
 30
0.0
 11
289.8040637737
 21
453.5655848511
 31
0.0
  0
ELLIPSE
  5
8B
330
79
100
AcDbEntity
  8
$DDT_AUDIT_GENERATED_(7B)
  6
Continuous
 62
     7
100
AcDbEllipse
 10
290.5040637737
 20
453.4059054664
 30
0.0
 11
-0.6999999999999471
 21
4.579669976578771E-13
 31
0.0
210
0.0
220
0.0
230
1.0
 40
0.999657325
 41
0.0
 42
1.570796326795551
  0
ELLIPSE
  5
8C
330
79
100
AcDbEntity
  8
$DDT_AUDIT_GENERATED_(7B)
  6
Continuous
 62
     7
100
AcDbEllipse
 10
308.7040637737
 20
453.4059054664
 30
0.0
 11
-0.6999999999999488
 21
4.579669976578771E-13
 31
0.0
210
0.0
220
0.0
230
1.0
 40
0.999657325
 41
1.570796326795551
 42
3.141592653589793
  0
ARC
  5
8D
330
79
100
AcDbEntity
  8
$DDT_AUDIT_GENERATED_(7B)
  6
Continuous
 62
     7
100
AcDbCircle
 10
310.3260480399
 20
516.9328916757
 30
0.0
 40
0.921988865553124
100
AcDbArc
 50
110.440099359
 51
180.1809755366
  0
LINE
  5
8E
330
79
100
AcDbEntity
  8
$DDT_AUDIT_GENERATED_(7B)
  6
Continuous
 62
     7
100
AcDbLine
 10
308.7040637737
 20
452.7061453389
 30
0.0
 11
308.7040637737
 21
452.7059054664
 31
0.0
  0
LINE
  5
8F
330
79
100
AcDbEntity
  8
$DDT_AUDIT_GENERATED_(7B)
  6
Continuous
 62
     7
100
AcDbLine
 10
290.5040637737
 20
452.7061453389
 30
0.0
 11
290.5040637737
 21
452.7059054664
 31
0.0
  0
LINE
  5
90
330
79
100
AcDbEntity
  8
$DDT_AUDIT_GENERATED_(7B)
  6
Continuous
 62
     7
100
AcDbLine
 10
325.6040637737
 20
541.0800469678
 30
0.0
 11
325.6040637737
 21
541.9538055837
 31
0.0
  0
LINE
  5
91
330
79
100
AcDbEntity
  8
$DDT_AUDIT_GENERATED_(7B)
  6
Continuous
 62
     7
100
AcDbLine
 10
273.6040637737
 20
541.9538055837
 30
0.0
 11
273.6040637737
 21
541.0808153186
 31
0.0
  0
LINE
  5
92
330
79
100
AcDbEntity
  8
$DDT_AUDIT_GENERATED_(7B)
  6
Continuous
 62
     7
100
AcDbLine
 10
290.5040637737
 20
452.7059054664
 30
0.0
 11
308.7040637737
 21
452.7059054664
 31
0.0
  0
ARC
  5
94
330
79
100
AcDbEntity
  8
$DDT_AUDIT_GENERATED_(93)
  6
Continuous
 62
     7
100
AcDbCircle
 10
189.6040637737
 20
540.8812812442
 30
0.0
 40
26.2
100
AcDbArc
 50
303.6029968607
 51
0.0
  0
ARC
  5
95
330
79
100
AcDbEntity
  8
$DDT_AUDIT_GENERATED_(93)
  6
Continuous
 62
     7
100
AcDbCircle
 10
189.6040637737
 20
540.8812812442
 30
0.0
 40
26.2
100
AcDbArc
 50
0.0
 51
236.3970031393
  0
LINE
  5
97
330
79
100
AcDbEntity
  8
$DDT_AUDIT_GENERATED_(96)
  6
Continuous
 62
     7
100
AcDbLine
 10
334.6040637737
 20
574.2815249319
 30
0.0
 11
334.6040637737
 21
507.4810375564
 31
0.0
  0
ELLIPSE
  5
98
330
79
100
AcDbEntity
  8
$DDT_AUDIT_GENERATED_(96)
  6
Continuous
 62
     7
100
AcDbEllipse
 10
333.0038200488
 20
574.2810375193
 30
0.0
 11
-1.131715502671329
 21
-1.13171550267133
 31
0.0
210
0.0
220
0.0
230
1.0
 40
0.9996954599
 41
2.356346783439939
 42
3.926838523739612
  0
LINE
  5
99
330
79
100
AcDbEntity
  8
$DDT_AUDIT_GENERATED_(96)
  6
Continuous
 62
     7
100
AcDbLine
 10
154.6040637737
 20
507.4810375564
 30
0.0
 11
154.6040637737
 21
574.2815249319
 31
0.0
  0
ELLIPSE
  5
9A
330
79
100
AcDbEntity
  8
$DDT_AUDIT_GENERATED_(96)
  6
Continuous
 62
     7
100
AcDbEllipse
 10
156.2043074985
 20
507.481524969
 30
0.0
 11
1.131715502671329
 21
1.13171550267133
 31
0.0
210
0.0
220
0.0
230
1.0
 40
0.9996954599
 41
2.356346783439939
 42
3.926838523739612
  0
LINE
  5
9B
330
79
100
AcDbEntity
  8
$DDT_AUDIT_GENERATED_(96)
  6
Continuous
 62
     7
100
AcDbLine
 10
156.2038200859
 20
575.8812812442
 30
0.0
 11
333.0043074614
 21
575.8812812442
 31
0.0
  0
ELLIPSE
  5
9C
330
79
100
AcDbEntity
  8
$DDT_AUDIT_GENERATED_(96)
  6
Continuous
 62
     7
100
AcDbEllipse
 10
156.2043074985
 20
574.2810375193
 30
0.0
 11
1.131715502671329
 21
-1.131715502671329
 31
0.0
210
0.0
220
0.0
230
1.0
 40
0.9996954599
 41
2.356346783439903
 42
3.926838523739629
  0
LINE
  5
9D
330
79
100
AcDbEntity
  8
$DDT_AUDIT_GENERATED_(96)
  6
Continuous
 62
     7
100
AcDbLine
 10
333.0043074614
 20
505.8812812442
 30
0.0
 11
309.4040637737
 21
505.8812812442
 31
0.0
  0
LINE
  5
9E
330
79
100
AcDbEntity
  8
$DDT_AUDIT_GENERATED_(96)
  6
Continuous
 62
     7
100
AcDbLine
 10
289.8040637737
 20
505.8812812442
 30
0.0
 11
204.1040637737
 21
505.8812812442
 31
0.0
  0
LINE
  5
9F
330
79
100
AcDbEntity
  8
$DDT_AUDIT_GENERATED_(96)
  6
Continuous
 62
     7
100
AcDbLine
 10
175.1040637737
 20
505.8812812442
 30
0.0
 11
156.2038200859
 21
505.8812812442
 31
0.0
  0
ELLIPSE
  5
A0
330
79
100
AcDbEntity
  8
$DDT_AUDIT_GENERATED_(96)
  6
Continuous
 62
     7
100
AcDbEllipse
 10
333.0038200488
 20
507.481524969
 30
0.0
 11
-1.131715502671329
 21
1.131715502671329
 31
0.0
210
0.0
220
0.0
230
1.0
 40
0.9996954599
 41
2.356346783439903
 42
3.926838523739612
  0
ARC
  5
A1
330
79
100
AcDbEntity
  8
$DDT_AUDIT_GENERATED_(96)
  6
Continuous
 62
     7
100
AcDbCircle
 10
189.6040637737
 20
540.8812812442
 30
0.0
 40
26.25
100
AcDbArc
 50
303.5305100811
 51
0.0
  0
ARC
  5
A2
330
79
100
AcDbEntity
  8
$DDT_AUDIT_GENERATED_(96)
  6
Continuous
 62
     7
100
AcDbCircle
 10
189.6040637737
 20
540.8812812442
 30
0.0
 40
26.25
100
AcDbArc
 50
0.0
 51
236.4694899189
  0
ARC
  5
A3
330
79
100
AcDbEntity
  8
$DDT_AUDIT_GENERATED_(96)
  6
Continuous
 62
     7
100
AcDbCircle
 10
299.6040637737
 20
540.8812812442
 30
0.0
 40
26.49999999999999
100
AcDbArc
 50
291.703981419
 51
0.0
  0
ARC
  5
A4
330
79
100
AcDbEntity
  8
$DDT_AUDIT_GENERATED_(96)
  6
Continuous
 62
     7
100
AcDbCircle
 10
299.6040637737
 20
540.8812812442
 30
0.0
 40
26.49999999999999
100
AcDbArc
 50
151.0731697986
 51
248.296018581
  0
ARC
  5
A5
330
79
100
AcDbEntity
  8
$DDT_AUDIT_GENERATED_(96)
  6
Continuous
 62
     7
100
AcDbCircle
 10
299.6040637737
 20
540.8812812442
 30
0.0
 40
26.49999999999999
100
AcDbArc
 50
0.0
 51
28.9268302014
  0
ELLIPSE
  5
A6
330
79
100
AcDbEntity
  8
$DDT_AUDIT_GENERATED_(96)
  6
Continuous
 62
     7
100
AcDbEllipse
 10
332.7769042047
 20
574.0541216752
 30
0.0
 11
-1.131715502671329
 21
-1.13171550267133
 31
0.0
210
0.0
220
0.0
230
1.0
 40
0.9996954599
 41
3.040800843534148
 42
3.047269253705199
  0
LINE
  5
A7
330
79
100
AcDbEntity
  8
$DDT_AUDIT_GENERATED_(96)
  6
Continuous
 62
     7
100
AcDbLine
 10
334.016715967
 20
575.0662535629
 30
0.0
 11
334.016715967
 21
575.0742499504
 31
0.0
  0
LINE
  5
A8
330
79
100
AcDbEntity
  8
$DDT_AUDIT_GENERATED_(96)
  6
Continuous
 62
     7
100
AcDbLine
 10
334.016715967
 20
575.0742499504
 30
0.0
 11
334.0101456339
 21
575.0742499504
 31
0.0
  0
ELLIPSE
  5
A9
330
79
100
AcDbEntity
  8
$DDT_AUDIT_GENERATED_(96)
  6
Continuous
 62
     7
100
AcDbEllipse
 10
332.7769042047
 20
507.7084408131
 30
0.0
 11
-1.131715502671329
 21
1.131715502671329
 31
0.0
210
0.0
220
0.0
230
1.0
 40
0.9996954599
 41
3.235916053474921
 42
3.242384463645188
  0
LINE
  5
AA
330
79
100
AcDbEntity
  8
$DDT_AUDIT_GENERATED_(96)
  6
Continuous
 62
     7
100
AcDbLine
 10
334.0101456339
 20
506.688312538
 30
0.0
 11
334.016715967
 21
506.688312538
 31
0.0
  0
LINE
  5
AB
330
79
100
AcDbEntity
  8
$DDT_AUDIT_GENERATED_(96)
  6
Continuous
 62
     7
100
AcDbLine
 10
334.016715967
 20
506.688312538
 30
0.0
 11
334.016715967
 21
506.6963089255
 31
0.0
  0
ARC
  5
AD
330
79
100
AcDbEntity
  8
$DDT_AUDIT_GENERATED_(AC)
  6
Continuous
 62
     7
100
AcDbCircle
 10
299.6040637737
 20
540.8812812442
 30
0.0
 40
26.25
100
AcDbArc
 50
0.0
 51
14.6427249866
  0
ARC
  5
AE
330
79
100
AcDbEntity
  8
$DDT_AUDIT_GENERATED_(AC)
  6
Continuous
 62
     7
100
AcDbCircle
 10
299.6040637737
 20
540.8812812442
 30
0.0
 40
26.25
100
AcDbArc
 50
165.3572750134
 51
248.0487934763
  0
ARC
  5
AF
330
79
100
AcDbEntity
  8
$DDT_AUDIT_GENERATED_(AC)
  6
Continuous
 62
     7
100
AcDbCircle
 10
299.6040637737
 20
540.8812812442
 30
0.0
 40
26.25
100
AcDbArc
 50
291.9650317666
 51
0.0
  0
LINE
  5
B1
330
79
100
AcDbEntity
  8
$DDT_AUDIT_GENERATED_(B0)
  6
Continuous
 62
     7
100
AcDbLine
 10
175.1040637737
 20
505.7780039683
 30
0.0
 11
175.1040637737
 21
506.9023130497
 31
0.0
  0
LINE
  5
B2
330
79
100
AcDbEntity
  8
$DDT_AUDIT_GENERATED_(B0)
  6
Continuous
 62
     7
100
AcDbLine
 10
175.1040637737
 20
506.9023130497
 30
0.0
 11
175.1040637737
 21
512.1931994686
 31
0.0
  0
LINE
  5
B3
330
79
100
AcDbEntity
  8
$DDT_AUDIT_GENERATED_(B0)
  6
Continuous
 62
     7
100
AcDbLine
 10
175.1040637737
 20
512.1931994686
 30
0.0
 11
175.1040637737
 21
546.8812812442
 31
0.0
  0
LINE
  5
B4
330
79
100
AcDbEntity
  8
$DDT_AUDIT_GENERATED_(B0)
  6
Continuous
 62
     7
100
AcDbLine
 10
175.6040637737
 20
547.3812812442
 30
0.0
 11
203.6040637737
 21
547.3812812442
 31
0.0
  0
LINE
  5
B5
330
79
100
AcDbEntity
  8
$DDT_AUDIT_GENERATED_(B0)
  6
Continuous
 62
     7
100
AcDbLine
 10
204.1040637737
 20
546.8812812442
 30
0.0
 11
204.1040637737
 21
512.1931994686
 31
0.0
  0
LINE
  5
B6
330
79
100
AcDbEntity
  8
$DDT_AUDIT_GENERATED_(B0)
  6
Continuous
 62
     7
100
AcDbLine
 10
204.1040637737
 20
512.1931994686
 30
0.0
 11
204.1040637737
 21
506.9023130497
 31
0.0
  0
LINE
  5
B7
330
79
100
AcDbEntity
  8
$DDT_AUDIT_GENERATED_(B0)
  6
Continuous
 62
     7
100
AcDbLine
 10
204.1040637737
 20
506.9023130497
 30
0.0
 11
204.1040637737
 21
505.7780039683
 31
0.0
  0
ARC
  5
B8
330
79
100
AcDbEntity
  8
$DDT_AUDIT_GENERATED_(B0)
  6
Continuous
 62
     7
100
AcDbCircle
 10
175.6040637737
 20
546.8812812442
 30
0.0
 40
0.5000000000000004
100
AcDbArc
 50
90.0
 51
180.0
  0
ARC
  5
B9
330
79
100
AcDbEntity
  8
$DDT_AUDIT_GENERATED_(B0)
  6
Continuous
 62
     7
100
AcDbCircle
 10
203.6040637737
 20
546.8812812442
 30
0.0
 40
0.5000000000000003
100
AcDbArc
 50
0.0
 51
90.0
  0
ELLIPSE
  5
BA
330
79
100
AcDbEntity
  8
$DDT_AUDIT_GENERATED_(B0)
  6
Continuous
 62
     7
100
AcDbEllipse
 10
180.3540637737
 20
505.9858681355
 30
0.0
 11
-3.600000000000005
 21
0.0
 31
0.0
210
0.0
220
0.0
230
1.0
 40
0.0871557427
 41
4.71238898038469
 42
5.877541163377614
  0
ELLIPSE
  5
BB
330
79
100
AcDbEntity
  8
$DDT_AUDIT_GENERATED_(B0)
  6
Continuous
 62
     7
100
AcDbEllipse
 10
198.8540637737
 20
505.9858681355
 30
0.0
 11
-3.600000000000047
 21
0.0
 31
0.0
210
0.0
220
0.0
230
1.0
 40
0.0871557427
 41
3.521940751259441
 42
4.71238898038469
  0
LINE
  5
BC
330
79
100
AcDbEntity
  8
$DDT_AUDIT_GENERATED_(B0)
  6
Continuous
 62
     7
100
AcDbLine
 10
180.3540637737
 20
506.2973456282
 30
0.0
 11
180.3540637737
 21
506.2996288094
 31
0.0
  0
LINE
  5
BD
330
79
100
AcDbEntity
  8
$DDT_AUDIT_GENERATED_(B0)
  6
Continuous
 62
     7
100
AcDbLine
 10
198.8540637737
 20
506.2996288094
 30
0.0
 11
198.8540637737
 21
506.2973456282
 31
0.0
  0
ARC
  5
BE
330
79
100
AcDbEntity
  8
$DDT_AUDIT_GENERATED_(B0)
  6
Continuous
 62
     7
100
AcDbCircle
 10
203.6040637737
 20
505.7780039683
 30
0.0
 40
0.5000000000000004
100
AcDbArc
 50
270.0
 51
0.0
  0
LINE
  5
BF
330
79
100
AcDbEntity
  8
$DDT_AUDIT_GENERATED_(B0)
  6
Continuous
 62
     7
100
AcDbLine
 10
175.6040637737
 20
505.2780039683
 30
0.0
 11
203.6040637737
 21
505.2780039683
 31
0.0
  0
ARC
  5
C0
330
79
100
AcDbEntity
  8
$DDT_AUDIT_GENERATED_(B0)
  6
Continuous
 62
     7
100
AcDbCircle
 10
175.6040637737
 20
505.7780039683
 30
0.0
 40
0.5000000000000003
100
AcDbArc
 50
180.0
 51
270.0
  0
SPLINE
  5
C1
330
79
100
AcDbEntity
  8
$DDT_AUDIT_GENERATED_(B0)
  6
Continuous
 62
     7
100
AcDbSpline
210
0.0
220
0.0
230
1.0
 70
     8
 71
     3
 72
     9
 73
     5
 74
     0
 42
0.0000000328266058
 43
0.0000000001
 40
0.6453778379157741
 40
0.6453778379157741
 40
0.6453778379157741
 40
0.6453778379157741
 40
0.7963727400919044
 40
1.0
 40
1.0
 40
1.0
 40
1.0
 10
177.0581616003278
 20
506.0928204395393
 30
0.0
 10
177.0580918783289
 20
506.0928488293183
 30
0.0
 10
177.0767313850334
 20
506.0996348866993
 30
0.0
 10
177.1266490275047
 20
506.1105215080671
 30
0.0
 10
177.1627514878818
 20
506.1187406650699
 30
0.0
  0
SPLINE
  5
C2
330
79
100
AcDbEntity
  8
$DDT_AUDIT_GENERATED_(B0)
  6
Continuous
 62
     7
100
AcDbSpline
210
0.0
220
0.0
230
1.0
 70
     8
 71
     3
 72
     9
 73
     5
 74
     0
 42
0.0000000354344257
 43
0.0000000001
 40
0.0
 40
0.0
 40
0.0
 40
0.0
 40
0.1655086465134031
 40
0.3221847201095136
 40
0.3221847201095136
 40
0.3221847201095136
 40
0.3221847201095136
 10
202.0629566837433
 20
506.114365601184
 30
0.0
 10
202.0912773115707
 20
506.107983521786
 30
0.0
 10
202.1356038714018
 20
506.0984548469657
 30
0.0
 10
202.1506400826011
 20
506.0927575694303
 30
0.0
 10
202.1501684085137
 20
506.0928122951728
 30
0.0
  0
LINE
  5
C3
330
79
100
AcDbEntity
  8
$DDT_AUDIT_GENERATED_(B0)
  6
Continuous
 62
     7
100
AcDbLine
 10
180.3540637737
 20
506.2973456282
 30
0.0
 11
198.8540637737
 21
506.2973456282
 31
0.0
  0
ENDBLK
  5
C5
330
79
100
AcDbEntity
  8
0
100
AcDbBlockEnd
  0
BLOCK
  5
121
330
C6
100
AcDbEntity
  8
0
100
AcDbBlockBegin
  2
SE1
 70
     0
 10
0.0
 20
0.0
 30
0.0
  3
SE1
  1

  0
LINE
  5
C9
330
C6
100
AcDbEntity
  8
$DDT_AUDIT_GENERATED_(C8)
  6
Continuous
 62
     7
100
AcDbLine
 10
274.3540637737
 20
280.9663152436
 30
0.0
 11
324.8540637737
 21
280.9663152436
 31
0.0
  0
LINE
  5
CA
330
C6
100
AcDbEntity
  8
$DDT_AUDIT_GENERATED_(C8)
  6
Continuous
 62
     7
100
AcDbLine
 10
273.8540637737
 20
282.0718918514
 30
0.0
 11
273.8540637737
 21
281.4663152436
 31
0.0
  0
LINE
  5
CB
330
C6
100
AcDbEntity
  8
$DDT_AUDIT_GENERATED_(C8)
  6
Continuous
 62
     7
100
AcDbLine
 10
325.3540637737
 20
281.4663152436
 30
0.0
 11
325.3540637737
 21
282.0718918514
 31
0.0
  0
ARC
  5
CC
330
C6
100
AcDbEntity
  8
$DDT_AUDIT_GENERATED_(C8)
  6
Continuous
 62
     7
100
AcDbCircle
 10
324.8540637737
 20
281.4663152436
 30
0.0
 40
0.5000000000000004
100
AcDbArc
 50
270.0
 51
0.0
  0
ARC
  5
CD
330
C6
100
AcDbEntity
  8
$DDT_AUDIT_GENERATED_(C8)
  6
Continuous
 62
     7
100
AcDbCircle
 10
274.3540637737
 20
281.4663152436
 30
0.0
 40
0.5000000000000004
100
AcDbArc
 50
180.0
 51
270.0
  0
LINE
  5
CF
330
C6
100
AcDbEntity
  8
$DDT_AUDIT_GENERATED_(CE)
  6
Continuous
 62
     7
100
AcDbLine
 10
172.1040637737
 20
278.4706785113
 30
0.0
 11
207.1040637737
 21
278.4706785113
 31
0.0
  0
LINE
  5
D0
330
C6
100
AcDbEntity
  8
$DDT_AUDIT_GENERATED_(CE)
  6
Continuous
 62
     7
100
AcDbLine
 10
207.1040637737
 20
278.4706785113
 30
0.0
 11
207.1040637737
 21
297.5706785113
 31
0.0
  0
LINE
  5
D1
330
C6
100
AcDbEntity
  8
$DDT_AUDIT_GENERATED_(CE)
  6
Continuous
 62
     7
100
AcDbLine
 10
172.1040637737
 20
297.5706785113
 30
0.0
 11
172.1040637737
 21
278.4706785113
 31
0.0
  0
ELLIPSE
  5
D2
330
C6
100
AcDbEntity
  8
$DDT_AUDIT_GENERATED_(7B)
  6
Continuous
 62
     7
100
AcDbEllipse
 10
299.6040637737
 20
277.2810388266
 30
0.0
 11
0.0
 21
24.05394005062394
 31
0.0
210
0.0
220
0.0
230
1.0
 40
1.0
 41
1.575254154671369
 42
1.581837399424756
  0
ELLIPSE
  5
D3
330
C6
100
AcDbEntity
  8
$DDT_AUDIT_GENERATED_(7B)
  6
Continuous
 62
     7
100
AcDbEllipse
 10
299.6040637737
 20
277.2810388266
 30
0.0
 11
0.0
 21
22.48323375558235
 31
0.0
210
0.0
220
0.0
230
1.0
 40
1.0
 41
4.70134790775484
 42
4.707693002770561
  0
ELLIPSE
  5
D4
330
C6
100
AcDbEntity
  8
$DDT_AUDIT_GENERATED_(7B)
  6
Continuous
 62
     7
100
AcDbEllipse
 10
299.6040637737
 20
284.9703522854
 30
0.0
 11
27.46190811600766
 21
-1.965218983253645E-14
 31
0.0
210
0.0
220
0.0
230
1.0
 40
0.5986208108
 41
4.121129390491626
 42
5.23934550126048
  0
SPLINE
  5
D5
330
C6
100
AcDbEntity
  8
$DDT_AUDIT_GENERATED_(7B)
  6
Continuous
 62
     7
100
AcDbSpline
210
0.0
220
0.0
230
1.0
 70
     8
 71
     3
 72
    10
 73
     6
 74
     0
 42
0.000000017111203
 43
0.0000000001
 40
0.4167119529554117
 40
0.4167119529554117
 40
0.4167119529554117
 40
0.4167119529554117
 40
0.5
 40
0.5
 40
1.0
 40
1.0
 40
1.0
 40
1.0
 10
274.5393536156611
 20
279.1035631063942
 30
0.0
 10
274.542523527531
 20
279.09488738207
 30
0.0
 10
274.5461417643745
 20
279.0852471971039
 30
0.0
 10
274.5745900128484
 20
279.0110153197929
 30
0.0
 10
274.614528504445
 20
278.9140435464693
 30
0.0
 10
274.6672789933759
 20
278.787631581648
 30
0.0
  0
SPLINE
  5
D6
330
C6
100
AcDbEntity
  8
$DDT_AUDIT_GENERATED_(7B)
  6
Continuous
 62
     7
100
AcDbSpline
210
0.0
220
0.0
230
1.0
 70
     8
 71
     3
 72
    10
 73
     6
 74
     0
 42
0.0000000193933
 43
0.0000000001
 40
0.0
 40
0.0
 40
0.0
 40
0.0
 40
0.5
 40
0.5
 40
0.7394733496999877
 40
0.7394733496999877
 40
0.7394733496999877
 40
0.7394733496999877
 10
324.5408485539283
 20
278.787631581648
 30
0.0
 10
324.5935830155278
 20
278.914005138362
 30
0.0
 10
324.6330669629496
 20
279.0098517743133
 30
0.0
 10
324.6693439121147
 20
279.1044170598623
 30
0.0
 10
324.6774315514634
 20
279.1271639918785
 30
0.0
 10
324.6817292126566
 20
279.1418281800943
 30
0.0
  0
ARC
  5
D7
330
C6
100
AcDbEntity
  8
$DDT_AUDIT_GENERATED_(7B)
  6
Continuous
 62
     7
100
AcDbCircle
 10
285.7395865647
 20
283.4177205171
 30
0.0
 40
12.00140485542215
100
AcDbArc
 50
202.6931396636
 51
208.7345413906
  0
ARC
  5
D8
330
C6
100
AcDbEntity
  8
$DDT_AUDIT_GENERATED_(7B)
  6
Continuous
 62
     7
100
AcDbCircle
 10
313.4685245261
 20
283.417728442
 30
0.0
 40
12.00142309532946
100
AcDbArc
 50
331.2654632046
 51
337.3068557413
  0
SPLINE
  5
D9
330
C6
100
AcDbEntity
  8
$DDT_AUDIT_GENERATED_(7B)
  6
Continuous
 62
     7
100
AcDbSpline
210
0.0
220
0.0
230
1.0
 70
     8
 71
     3
 72
     8
 73
     4
 74
     0
 42
0.000000199760225
 43
0.0000000001
 40
0.0
 40
0.0
 40
0.0
 40
0.0
 40
0.0454110210278775
 40
0.0454110210278775
 40
0.0454110210278775
 40
0.0454110210278775
 10
324.9638775860635
 20
279.3578008516212
 30
0.0
 10
324.964662182813
 20
279.3584735980149
 30
0.0
 10
324.9653073314692
 20
279.3588211936052
 30
0.0
 10
324.965813715871
 20
279.3588444643615
 30
0.0
  0
SPLINE
  5
DA
330
C6
100
AcDbEntity
  8
$DDT_AUDIT_GENERATED_(7B)
  6
Continuous
 62
     7
100
AcDbSpline
210
0.0
220
0.0
230
1.0
 70
     8
 71
     3
 72
     8
 73
     4
 74
     0
 42
0.0000002007397665
 43
0.0000000001
 40
0.954187449501207
 40
0.954187449501207
 40
0.954187449501207
 40
0.954187449501207
 40
1.0
 40
1.0
 40
1.0
 40
1.0
 10
274.2423042192842
 20
279.3588321161363
 30
0.0
 10
274.2428102326132
 20
279.3588226962985
 30
0.0
 10
274.243458527049
 20
279.3584794607267
 30
0.0
 10
274.2442499612407
 20
279.3578008516212
 30
0.0
  0
ELLIPSE
  5
DB
330
C6
100
AcDbEntity
  8
$DDT_AUDIT_GENERATED_(7B)
  6
Continuous
 62
     7
100
AcDbEllipse
 10
299.6040637737
 20
279.380319209
 30
0.0
 11
-25.37439975342192
 21
5.335462659524976E-15
 31
0.0
210
0.0
220
0.0
230
1.0
 40
0.0261769483
 41
0.1580040982241245
 42
0.3988201290111895
  0
ELLIPSE
  5
DC
330
C6
100
AcDbEntity
  8
$DDT_AUDIT_GENERATED_(7B)
  6
Continuous
 62
     7
100
AcDbEllipse
 10
299.6040637737
 20
279.380319209
 30
0.0
 11
-25.37439975342192
 21
5.335462659524976E-15
 31
0.0
210
0.0
220
0.0
230
1.0
 40
0.0261769483
 41
-3.540412782600942
 42
-3.294153686718182
  0
ELLIPSE
  5
DD
330
C6
100
AcDbEntity
  8
$DDT_AUDIT_GENERATED_(7B)
  6
Continuous
 62
     7
100
AcDbEllipse
 10
324.9638775861
 20
279.0579036541
 30
0.0
 11
0.1832811526756537
 21
-0.2375037243368406
 31
0.0
210
0.0
220
0.0
230
1.0
 40
0.9990826929
 41
3.141830142950445
 42
3.705635371226505
  0
SPLINE
  5
DE
330
C6
100
AcDbEntity
  8
$DDT_AUDIT_GENERATED_(7B)
  6
Continuous
 62
     7
100
AcDbSpline
210
0.0
220
0.0
230
1.0
 70
     8
 71
     3
 72
    10
 73
     6
 74
     0
 42
0.0000000265697251
 43
0.0000000001
 40
0.0
 40
0.0
 40
0.0
 40
0.0
 40
0.5
 40
0.5
 40
0.792937668031054
 40
0.792937668031054
 40
0.792937668031054
 40
0.792937668031054
 10
324.0836130222568
 20
277.5507710812609
 30
0.0
 10
324.0168367909133
 20
277.5637851611889
 30
0.0
 10
323.949815300817
 20
277.5539672083163
 30
0.0
 10
323.869226675749
 20
277.5051286661516
 30
0.0
 10
323.8452740181332
 20
277.4802745727473
 30
0.0
 10
323.8286871622515
 20
277.4506896931561
 30
0.0
  0
SPLINE
  5
DF
330
C6
100
AcDbEntity
  8
$DDT_AUDIT_GENERATED_(7B)
  6
Continuous
 62
     7
100
AcDbSpline
210
0.0
220
0.0
230
1.0
 70
     8
 71
     3
 72
    10
 73
     6
 74
     0
 42
0.0000000265747118
 43
0.0000000001
 40
0.2038146675034739
 40
0.2038146675034739
 40
0.2038146675034739
 40
0.2038146675034739
 40
0.5
 40
0.5
 40
1.0
 40
1.0
 40
1.0
 40
1.0
 10
275.3799890463742
 20
277.4497041135571
 30
0.0
 10
275.3633834212948
 20
277.4797229340155
 30
0.0
 10
275.3392302860854
 20
277.5049290749297
 30
0.0
 10
275.2583128669264
 20
277.5539667622824
 30
0.0
 10
275.1912909278288
 20
277.5637851945995
 30
0.0
 10
275.1245145250473
 20
277.5507710812608
 30
0.0
  0
SPLINE
  5
E0
330
C6
100
AcDbEntity
  8
$DDT_AUDIT_GENERATED_(7B)
  6
Continuous
 62
     7
100
AcDbSpline
210
0.0
220
0.0
230
1.0
 70
     8
 71
     3
 72
     8
 73
     4
 74
     0
 42
0.0000001788095541
 43
0.0000000001
 40
0.0
 40
0.0
 40
0.0
 40
0.0
 40
0.0455952314999836
 40
0.0455952314999836
 40
0.0455952314999836
 40
0.0455952314999836
 10
273.9184648171607
 20
279.3578008516212
 30
0.0
 10
273.9176918049641
 20
279.3584721797688
 30
0.0
 10
273.9169515397225
 20
279.3588196927343
 30
0.0
 10
273.9162436335205
 20
279.3588440675699
 30
0.0
  0
SPLINE
  5
E1
330
C6
100
AcDbEntity
  8
$DDT_AUDIT_GENERATED_(7B)
  6
Continuous
 62
     7
100
AcDbSpline
210
0.0
220
0.0
230
1.0
 70
     8
 71
     3
 72
     8
 73
     4
 74
     0
 42
0.00000017908065
 43
0.0000000001
 40
0.9537943895858249
 40
0.9537943895858249
 40
0.9537943895858249
 40
0.9537943895858249
 40
1.0
 40
1.0
 40
1.0
 40
1.0
 10
325.2919138126036
 20
279.358832111224
 30
0.0
 10
325.2911963569468
 20
279.3588245780048
 30
0.0
 10
325.2904460884494
 20
279.3584811649238
 30
0.0
 10
325.2896627301436
 20
279.3578008516212
 30
0.0
  0
ELLIPSE
  5
E2
330
C6
100
AcDbEntity
  8
$DDT_AUDIT_GENERATED_(7B)
  6
Continuous
 62
     7
100
AcDbEllipse
 10
299.6040637737
 20
244.8665622933
 30
0.0
 11
-25.32621567611577
 21
-2.243024459853682E-14
 31
0.0
210
0.0
220
0.0
230
1.0
 40
0.0261769483
 41
0.1733177655196268
 42
0.7735997064236955
  0
ELLIPSE
  5
E3
330
C6
100
AcDbEntity
  8
$DDT_AUDIT_GENERATED_(7B)
  6
Continuous
 62
     7
100
AcDbEllipse
 10
299.6040637737
 20
244.8665622933
 30
0.0
 11
-25.32621567611577
 21
-2.243024459853682E-14
 31
0.0
210
0.0
220
0.0
230
1.0
 40
0.0261769483
 41
-3.915192360013485
 42
-3.292540621797377
  0
ELLIPSE
  5
E4
330
C6
100
AcDbEntity
  8
$DDT_AUDIT_GENERATED_(7B)
  6
Continuous
 62
     7
100
AcDbEllipse
 10
299.6040637737
 20
244.8665622933
 30
0.0
 11
-25.32621567611577
 21
-2.243024459853682E-14
 31
0.0
210
0.0
220
0.0
230
1.0
 40
0.0261769483
 41
3.272491396224452
 42
6.179996874267681
  0
LINE
  5
E5
330
C6
100
AcDbEntity
  8
$DDT_AUDIT_GENERATED_(7B)
  6
Continuous
 62
     7
100
AcDbLine
 10
273.6040637737
 20
278.90398472
 30
0.0
 11
273.6040637737
 21
245.5658315156
 31
0.0
  0
LINE
  5
E6
330
C6
100
AcDbEntity
  8
$DDT_AUDIT_GENERATED_(7B)
  6
Continuous
 62
     7
100
AcDbLine
 10
325.6040637737
 20
245.5658315156
 30
0.0
 11
325.6040637737
 21
278.9333268543
 31
0.0
  0
LINE
  5
E7
330
C6
100
AcDbEntity
  8
$DDT_AUDIT_GENERATED_(7B)
  6
Continuous
 62
     7
100
AcDbLine
 10
274.2458965973
 20
279.3588288767
 30
0.0
 11
273.9173530113
 21
279.3588288767
 31
0.0
  0
LINE
  5
E8
330
C6
100
AcDbEntity
  8
$DDT_AUDIT_GENERATED_(7B)
  6
Continuous
 62
     7
100
AcDbLine
 10
325.2911936897
 20
279.3588288767
 30
0.0
 11
324.9610612237
 21
279.3588288767
 31
0.0
  0
ARC
  5
E9
330
C6
100
AcDbEntity
  8
$DDT_AUDIT_GENERATED_(7B)
  6
Continuous
 62
     7
100
AcDbCircle
 10
324.9538051737
 20
279.073774153
 30
0.0
 40
0.2818714264410032
100
AcDbArc
 50
88.6428213029
 51
139.3974324372
  0
SPLINE
  5
EA
330
C6
100
AcDbEntity
  8
$DDT_AUDIT_GENERATED_(7B)
  6
Continuous
 62
     7
100
AcDbSpline
210
0.0
220
0.0
230
1.0
 70
     8
 71
     3
 72
    11
 73
     7
 74
     0
 42
0.0000000503978689
 43
0.0000000001
 40
0.0
 40
0.0
 40
0.0
 40
0.0
 40
0.0205413731541328
 40
0.4139568616976042
 40
0.8845582144503198
 40
1.0
 40
1.0
 40
1.0
 40
1.0
 10
274.4271100597375
 20
279.2954498188501
 30
0.0
 10
274.4262778068401
 20
279.296194917606
 30
0.0
 10
274.4117723130005
 20
279.3091424526866
 30
0.0
 10
274.3571024146434
 20
279.3391920408131
 30
0.0
 10
274.2919821251293
 20
279.360960953213
 30
0.0
 10
274.2541233607558
 20
279.3565539702604
 30
0.0
 10
274.2454879396746
 20
279.3554993153967
 30
0.0
  0
ARC
  5
EB
330
C6
100
AcDbEntity
  8
$DDT_AUDIT_GENERATED_(7B)
  6
Continuous
 62
     7
100
AcDbCircle
 10
323.4199358977
 20
278.0032803664
 30
0.0
 40
0.6653829457436029
100
AcDbArc
 50
309.6247271234
 51
331.9345405896
  0
ARC
  5
EC
330
C6
100
AcDbEntity
  8
$DDT_AUDIT_GENERATED_(7B)
  6
Continuous
 62
     7
100
AcDbCircle
 10
322.7556485028
 20
278.0990037333
 30
0.0
 40
1.253208381021409
100
AcDbArc
 50
320.4135308089
 51
328.8441918864
  0
ARC
  5
ED
330
C6
100
AcDbEntity
  8
$DDT_AUDIT_GENERATED_(7B)
  6
Continuous
 62
     7
100
AcDbCircle
 10
275.8921731322
 20
278.0880188122
 30
0.0
 40
0.7985444973472168
100
AcDbArc
 50
206.9592097248
 51
228.4354152331
  0
ARC
  5
EE
330
C6
100
AcDbEntity
  8
$DDT_AUDIT_GENERATED_(7B)
  6
Continuous
 62
     7
100
AcDbCircle
 10
292.4120752789
 20
293.0203694024
 30
0.0
 40
23.09948791379713
100
AcDbArc
 50
222.8853038319
 51
249.7275799003
  0
ARC
  5
EF
330
C6
100
AcDbEntity
  8
$DDT_AUDIT_GENERATED_(7B)
  6
Continuous
 62
     7
100
AcDbCircle
 10
306.0064813845
 20
294.0409199408
 30
0.0
 40
24.37344710890834
100
AcDbArc
 50
287.4714916857
 51
316.6199844639
  0
ARC
  5
F0
330
C6
100
AcDbEntity
  8
$DDT_AUDIT_GENERATED_(7B)
  6
Continuous
 62
     7
100
AcDbCircle
 10
276.1151399174
 20
277.8484317296
 30
0.0
 40
0.8338449225167444
100
AcDbArc
 50
208.5074574243
 51
221.088695355
  0
SPLINE
  5
F1
330
C6
100
AcDbEntity
  8
$DDT_AUDIT_GENERATED_(7B)
  6
Continuous
 62
     7
100
AcDbSpline
210
0.0
220
0.0
230
1.0
 70
     8
 71
     3
 72
    14
 73
    10
 74
     0
 42
0.000000015804727
 43
0.0000000001
 40
0.0
 40
0.0
 40
0.0
 40
0.0
 40
0.3936407723449892
 40
0.5606300248045337
 40
0.643767222481301
 40
0.7253193228427843
 40
0.8196418061506182
 40
0.9216260247630125
 40
1.0
 40
1.0
 40
1.0
 40
1.0
 10
325.6039721878824
 20
278.9291454691897
 30
0.0
 10
325.6053171604492
 20
278.9736344349454
 30
0.0
 10
325.6026005311597
 20
279.0347662090729
 30
0.0
 10
325.5945778472164
 20
279.1065415353322
 30
0.0
 10
325.5725442777791
 20
279.1770452982311
 30
0.0
 10
325.5312779538897
 20
279.2486311889106
 30
0.0
 10
325.4586289849089
 20
279.3158947188485
 30
0.0
 10
325.3619239710478
 20
279.3584313822396
 30
0.0
 10
325.2998234989655
 20
279.3558965504599
 30
0.0
 10
325.2683834470481
 20
279.3539820336407
 30
0.0
  0
SPLINE
  5
F2
330
C6
100
AcDbEntity
  8
$DDT_AUDIT_GENERATED_(7B)
  6
Continuous
 62
     7
100
AcDbSpline
210
0.0
220
0.0
230
1.0
 70
     8
 71
     3
 72
    17
 73
    13
 74
     0
 42
0.0000000114555294
 43
0.0000000001
 40
0.0
 40
0.0
 40
0.0
 40
0.0
 40
0.0164593090553464
 40
0.0885046871626463
 40
0.1454195922398085
 40
0.1948524125904036
 40
0.2401414579118026
 40
0.2873079484692073
 40
0.3559764555306595
 40
0.5137328307776338
 40
0.9020636387253234
 40
1.0
 40
1.0
 40
1.0
 40
1.0
 10
273.9185448939593
 20
279.3549683663835
 30
0.0
 10
273.9086890288047
 20
279.3563604513064
 30
0.0
 10
273.8630597530357
 20
279.36254117648
 30
0.0
 10
273.7806767750729
 20
279.3325166296996
 30
0.0
 10
273.7027001724545
 20
279.2764401224937
 30
0.0
 10
273.6549836999718
 20
279.2142341839287
 30
0.0
 10
273.6294156153967
 20
279.1591939319788
 30
0.0
 10
273.615946245002
 20
279.1120161918729
 30
0.0
 10
273.6073182397085
 20
279.0582738098644
 30
0.0
 10
273.6027106569834
 20
278.9682053410361
 30
0.0
 10
273.6043769611167
 20
278.8417925576514
 30
0.0
 10
273.6097661496437
 20
278.7011110213911
 30
0.0
 10
273.6110738879302
 20
278.6679020939846
 30
0.0
  0
ARC
  5
F3
330
C6
100
AcDbEntity
  8
$DDT_AUDIT_GENERATED_(7B)
  6
Continuous
 62
     7
100
AcDbCircle
 10
299.6040637737
 20
920.4105788496
 30
0.0
 40
676.2499999999993
100
AcDbArc
 50
268.4647233349
 51
270.0
  0
ARC
  5
F4
330
C6
100
AcDbEntity
  8
$DDT_AUDIT_GENERATED_(7B)
  6
Continuous
 62
     7
100
AcDbCircle
 10
299.6040637737
 20
920.4105788496
 30
0.0
 40
676.2499999999992
100
AcDbArc
 50
270.0
 51
271.5352766651
  0
SPLINE
  5
F5
330
C6
100
AcDbEntity
  8
$DDT_AUDIT_GENERATED_(7B)
  6
Continuous
 62
     7
100
AcDbSpline
210
0.0
220
0.0
230
1.0
 70
     8
 71
     3
 72
    14
 73
    10
 74
     0
 42
0.0000000077176214
 43
0.0000000001
 40
0.0
 40
0.0
 40
0.0
 40
0.0
 40
0.0277907475907857
 40
0.4483468967308756
 40
0.6025627714463319
 40
0.725199302153193
 40
0.8242629254416818
 40
0.9207137593900241
 40
1.0
 40
1.0
 40
1.0
 40
1.0
 10
324.7330208605998
 20
244.7767857817629
 30
0.0
 10
324.7415471403671
 20
244.7779728115874
 30
0.0
 10
324.8603965827485
 20
244.7947174386731
 30
0.0
 10
324.9744392133837
 20
244.8222509625422
 30
0.0
 10
325.152855879482
 20
244.8873726857963
 30
0.0
 10
325.2860742462797
 20
244.9590704563104
 30
0.0
 10
325.4366554378485
 20
245.0881376052533
 30
0.0
 10
325.5769199550451
 20
245.3028022718127
 30
0.0
 10
325.5889151156121
 20
245.4675251651641
 30
0.0
 10
325.595168730415
 20
245.5559605605044
 30
0.0
  0
SPLINE
  5
F6
330
C6
100
AcDbEntity
  8
$DDT_AUDIT_GENERATED_(7B)
  6
Continuous
 62
     7
100
AcDbSpline
210
0.0
220
0.0
230
1.0
 70
     8
 71
     3
 72
    15
 73
    11
 74
     0
 42
0.0000000069622935
 43
0.0000000001
 40
0.0
 40
0.0
 40
0.0
 40
0.0
 40
0.0046348619045909
 40
0.0936818488061261
 40
0.1726240558584798
 40
0.2534616348879514
 40
0.3486365589867419
 40
0.4775116609224571
 40
0.6770988368407257
 40
1.0
 40
1.0
 40
1.0
 40
1.0
 10
273.6071333388293
 20
245.5804830357667
 30
0.0
 10
273.605951877339
 20
245.5748959036602
 30
0.0
 10
273.5854136360438
 20
245.4776721430268
 30
0.0
 10
273.6562629049481
 20
245.2650952951344
 30
0.0
 10
273.7883884838275
 20
245.0703990966952
 30
0.0
 10
273.9282063182158
 20
244.9566003477526
 30
0.0
 10
274.0509629683576
 20
244.8896603523501
 30
0.0
 10
274.1778175622852
 20
244.8415930070086
 30
0.0
 10
274.3396045622404
 20
244.7986731679672
 30
0.0
 10
274.4823521773033
 20
244.7753844008634
 30
0.0
 10
274.5853368549928
 20
244.7602608868606
 30
0.0
  0
LINE
  5
F7
330
C6
100
AcDbEntity
  8
$DDT_AUDIT_GENERATED_(93)
  6
Continuous
 62
     7
100
AcDbLine
 10
163.7040637737
 20
297.5706785113
 30
0.0
 11
215.5040637737
 21
297.5706785113
 31
0.0
  0
LINE
  5
F8
330
C6
100
AcDbEntity
  8
$DDT_AUDIT_GENERATED_(93)
  6
Continuous
 62
     7
100
AcDbLine
 10
163.4040637737
 20
297.9706785113
 30
0.0
 11
163.4040637737
 21
297.8706785113
 31
0.0
  0
LINE
  5
F9
330
C6
100
AcDbEntity
  8
$DDT_AUDIT_GENERATED_(93)
  6
Continuous
 62
     7
100
AcDbLine
 10
215.8040637737
 20
297.8706785113
 30
0.0
 11
215.8040637737
 21
297.9706785113
 31
0.0
  0
ARC
  5
FA
330
C6
100
AcDbEntity
  8
$DDT_AUDIT_GENERATED_(93)
  6
Continuous
 62
     7
100
AcDbCircle
 10
163.7040637737
 20
297.8706785113
 30
0.0
 40
0.2999999999999947
100
AcDbArc
 50
180.0
 51
270.0
  0
ARC
  5
FB
330
C6
100
AcDbEntity
  8
$DDT_AUDIT_GENERATED_(93)
  6
Continuous
 62
     7
100
AcDbCircle
 10
215.5040637737
 20
297.8706785113
 30
0.0
 40
0.3000000000000086
100
AcDbArc
 50
270.0
 51
0.0
  0
ARC
  5
FD
330
C6
100
AcDbEntity
  8
$DDT_AUDIT_GENERATED_(FC)
  6
Continuous
 62
     7
100
AcDbCircle
 10
299.6040637737
 20
287.96742053
 30
0.0
 40
25.00000000000011
100
AcDbArc
 50
196.2628434031
 51
212.663124012
  0
ARC
  5
FE
330
C6
100
AcDbEntity
  8
$DDT_AUDIT_GENERATED_(FC)
  6
Continuous
 62
     7
100
AcDbCircle
 10
299.6040637737
 20
287.96742053
 30
0.0
 40
25.00000000000005
100
AcDbArc
 50
327.2315942998
 51
343.7371565969
  0
LINE
  5
FF
330
C6
100
AcDbEntity
  8
$DDT_AUDIT_GENERATED_(FC)
  6
Continuous
 62
     7
100
AcDbLine
 10
273.5246277875
 20
297.9706785113
 30
0.0
 11
273.6599538032
 21
282.4630574861
 31
0.0
  0
LINE
  5
100
330
C6
100
AcDbEntity
  8
$DDT_AUDIT_GENERATED_(FC)
  6
Continuous
 62
     7
100
AcDbLine
 10
325.5481737441
 20
282.4630574861
 30
0.0
 11
325.6834997599
 21
297.9706785113
 31
0.0
  0
ARC
  5
101
330
C6
100
AcDbEntity
  8
$DDT_AUDIT_GENERATED_(FC)
  6
Continuous
 62
     7
100
AcDbCircle
 10
325.0481927806
 20
282.46742053
 30
0.0
 40
0.5000000000000004
100
AcDbArc
 50
307.7155667608
 51
359.5000256491
  0
ARC
  5
102
330
C6
100
AcDbEntity
  8
$DDT_AUDIT_GENERATED_(FC)
  6
Continuous
 62
     7
100
AcDbCircle
 10
274.1599347667
 20
282.46742053
 30
0.0
 40
0.5000000000000033
100
AcDbArc
 50
180.4999743509
 51
232.2844332392
  0
LINE
  5
103
330
C6
100
AcDbEntity
  8
$DDT_AUDIT_GENERATED_(96)
  6
Continuous
 62
     7
100
AcDbLine
 10
332.7596319195
 20
297.9706785113
 30
0.0
 11
156.4484956278
 21
297.9706785113
 31
0.0
  0
LINE
  5
104
330
C6
100
AcDbEntity
  8
$DDT_AUDIT_GENERATED_(96)
  6
Continuous
 62
     7
100
AcDbLine
 10
332.7596319195
 20
297.9706785113
 30
0.0
 11
333.3595405366
 21
297.9706785113
 31
0.0
  0
ARC
  5
105
330
C6
100
AcDbEntity
  8
$DDT_AUDIT_GENERATED_(96)
  6
Continuous
 62
     7
100
AcDbCircle
 10
333.3595405366
 20
298.9706785113
 30
0.0
 40
0.9999999999999979
100
AcDbArc
 50
270.0
 51
359.0
  0
LINE
  5
106
330
C6
100
AcDbEntity
  8
$DDT_AUDIT_GENERATED_(96)
  6
Continuous
 62
     7
100
AcDbLine
 10
334.6040637737
 20
312.9706785113
 30
0.0
 11
334.3593882318
 21
298.9532261049
 31
0.0
  0
LINE
  5
107
330
C6
100
AcDbEntity
  8
$DDT_AUDIT_GENERATED_(96)
  6
Continuous
 62
     7
100
AcDbLine
 10
333.0043074614
 20
312.9706785113
 30
0.0
 11
334.6040637737
 21
312.9706785113
 31
0.0
  0
LINE
  5
108
330
C6
100
AcDbEntity
  8
$DDT_AUDIT_GENERATED_(96)
  6
Continuous
 62
     7
100
AcDbLine
 10
155.8485870107
 20
297.9706785113
 30
0.0
 11
156.4484956278
 21
297.9706785113
 31
0.0
  0
LINE
  5
109
330
C6
100
AcDbEntity
  8
$DDT_AUDIT_GENERATED_(96)
  6
Continuous
 62
     7
100
AcDbLine
 10
154.8487393155
 20
298.9532261049
 30
0.0
 11
154.6040637737
 21
312.9706785113
 31
0.0
  0
LINE
  5
10A
330
C6
100
AcDbEntity
  8
$DDT_AUDIT_GENERATED_(96)
  6
Continuous
 62
     7
100
AcDbLine
 10
156.2038200859
 20
312.9706785113
 30
0.0
 11
333.0043074614
 21
312.9706785113
 31
0.0
  0
LINE
  5
10B
330
C6
100
AcDbEntity
  8
$DDT_AUDIT_GENERATED_(96)
  6
Continuous
 62
     7
100
AcDbLine
 10
154.6040637737
 20
312.9706785113
 30
0.0
 11
156.2038200859
 21
312.9706785113
 31
0.0
  0
ARC
  5
10C
330
C6
100
AcDbEntity
  8
$DDT_AUDIT_GENERATED_(96)
  6
Continuous
 62
     7
100
AcDbCircle
 10
155.8485870107
 20
298.9706785113
 30
0.0
 40
0.999999999999987
100
AcDbArc
 50
181.0
 51
270.0
  0
ELLIPSE
  5
10D
330
C6
100
AcDbEntity
  8
$DDT_AUDIT_GENERATED_(96)
  6
Continuous
 62
     7
100
AcDbEllipse
 10
333.7970324799
 20
358.4137882526
 30
0.0
 11
-1.600243650640572
 21
-91.67789734506641
 31
0.0
210
0.0
220
0.0
230
0.9999999999999999
 40
0.0174497492
 41
0.8798738565296703
 42
0.8827909326865558
  0
LINE
  5
10E
330
C6
100
AcDbEntity
  8
$DDT_AUDIT_GENERATED_(96)
  6
Continuous
 62
     7
100
AcDbLine
 10
334.016715967
 20
300.1769732554
 30
0.0
 11
334.016715967
 21
299.9706785113
 31
0.0
  0
LINE
  5
10F
330
C6
100
AcDbEntity
  8
$DDT_AUDIT_GENERATED_(96)
  6
Continuous
 62
     7
100
AcDbLine
 10
334.016715967
 20
299.9706785113
 30
0.0
 11
334.0101456339
 21
299.9706785113
 31
0.0
  0
LINE
  5
110
330
C6
100
AcDbEntity
  8
$DDT_AUDIT_GENERATED_(B0)
  6
Continuous
 62
     7
100
AcDbLine
 10
175.1040637737
 20
134.8370881942
 30
0.0
 11
175.1040637737
 21
135.2999807758
 31
0.0
  0
LINE
  5
111
330
C6
100
AcDbEntity
  8
$DDT_AUDIT_GENERATED_(B0)
  6
Continuous
 62
     7
100
AcDbLine
 10
175.1040637737
 20
135.2999807758
 30
0.0
 11
175.1040637737
 21
173.1553793033
 31
0.0
  0
LINE
  5
112
330
C6
100
AcDbEntity
  8
$DDT_AUDIT_GENERATED_(B0)
  6
Continuous
 62
     7
100
AcDbLine
 10
175.1040637737
 20
173.1553793033
 30
0.0
 11
175.1040637737
 21
278.4706785113
 31
0.0
  0
LINE
  5
113
330
C6
100
AcDbEntity
  8
$DDT_AUDIT_GENERATED_(B0)
  6
Continuous
 62
     7
100
AcDbLine
 10
204.1040637737
 20
278.4706785113
 30
0.0
 11
204.1040637737
 21
173.1553793033
 31
0.0
  0
LINE
  5
114
330
C6
100
AcDbEntity
  8
$DDT_AUDIT_GENERATED_(B0)
  6
Continuous
 62
     7
100
AcDbLine
 10
204.1040637737
 20
173.1553793033
 30
0.0
 11
204.1040637737
 21
135.2999807758
 31
0.0
  0
LINE
  5
115
330
C6
100
AcDbEntity
  8
$DDT_AUDIT_GENERATED_(B0)
  6
Continuous
 62
     7
100
AcDbLine
 10
204.1040637737
 20
135.2999807758
 30
0.0
 11
204.1040637737
 21
134.8370881942
 31
0.0
  0
ARC
  5
116
330
C6
100
AcDbEntity
  8
$DDT_AUDIT_GENERATED_(B0)
  6
Continuous
 62
     7
100
AcDbCircle
 10
175.6040637737
 20
134.8370881942
 30
0.0
 40
0.5000000000000004
100
AcDbArc
 50
180.0
 51
270.0
  0
LINE
  5
117
330
C6
100
AcDbEntity
  8
$DDT_AUDIT_GENERATED_(B0)
  6
Continuous
 62
     7
100
AcDbLine
 10
175.6040637737
 20
134.3370881942
 30
0.0
 11
203.6040637737
 21
134.3370881942
 31
0.0
  0
ARC
  5
118
330
C6
100
AcDbEntity
  8
$DDT_AUDIT_GENERATED_(B0)
  6
Continuous
 62
     7
100
AcDbCircle
 10
203.6040637737
 20
134.8370881942
 30
0.0
 40
0.5000000000000004
100
AcDbArc
 50
270.0
 51
0.0
  0
LINE
  5
11B
330
C6
100
AcDbEntity
  8
DV2_Default
  6
DOT2
 62
     7
100
AcDbLine
 10
178.6040637737
 20
312.9706785113
 30
0.0
 11
200.6040637737
 21
312.9706785113
 31
0.0
  0
LINE
  5
11C
330
C6
100
AcDbEntity
  8
DV2_Default
  6
CENTER2
 62
     7
100
AcDbLine
 10
209.6040633266
 20
312.9706785113
 30
0.0
 11
169.6040642207
 21
312.9706785113
 31
0.0
  0
LINE
  5
11D
330
C6
100
AcDbEntity
  8
DV2_Default
  6
CENTER2
 62
     7
100
AcDbLine
 10
189.6040637737
 20
320.9652549022
 30
0.0
 11
189.6040637737
 21
292.9706789584
 31
0.0
  0
LINE
  5
11E
330
C6
100
AcDbEntity
  8
DV2_Default
  6
DOT2
 62
     7
100
AcDbLine
 10
325.5481737441
 20
312.9706785113
 30
0.0
 11
273.393731486
 21
312.9706785113
 31
0.0
  0
LINE
  5
11F
330
C6
100
AcDbEntity
  8
DV2_Default
  6
CENTER2
 62
     7
100
AcDbLine
 10
319.470952168
 20
312.9706785113
 30
0.0
 11
279.4709530621
 21
312.9706785113
 31
0.0
  0
LINE
  5
120
330
C6
100
AcDbEntity
  8
DV2_Default
  6
CENTER2
 62
     7
100
AcDbLine
 10
299.470952615
 20
320.9652549022
 30
0.0
 11
299.470952615
 21
292.9706789584
 31
0.0
  0
ENDBLK
  5
122
330
C6
100
AcDbEntity
  8
0
100
AcDbBlockEnd
  0
BLOCK
  5
15E
330
123
100
AcDbEntity
  8
0
100
AcDbBlockBegin
  2
SE2
 70
     0
 10
0.0
 20
0.0
 30
0.0
  3
SE2
  1

  0
ARC
  5
125
330
123
100
AcDbEntity
  8
$DDT_AUDIT_GENERATED_(7B)
  6
Continuous
 62
     7
100
AcDbCircle
 10
594.9859919685
 20
484.4125916184
 30
0.0
 40
31.26055636175883
100
AcDbArc
 50
84.9395163514
 51
98.0604794502
  0
LINE
  5
126
330
123
100
AcDbEntity
  8
$DDT_AUDIT_GENERATED_(7B)
  6
Continuous
 62
     7
100
AcDbLine
 10
579.6324227292
 20
515.3771488092
 30
0.0
 11
579.1347820078
 21
534.3812812442
 31
0.0
  0
LINE
  5
127
330
123
100
AcDbEntity
  8
$DDT_AUDIT_GENERATED_(7B)
  6
Continuous
 62
     7
100
AcDbLine
 10
594.4357104137
 20
567.3414363484
 30
0.0
 11
582.6782805225
 21
547.3812812442
 31
0.0
  0
LINE
  5
128
330
123
100
AcDbEntity
  8
$DDT_AUDIT_GENERATED_(7B)
  6
Continuous
 62
     7
100
AcDbLine
 10
609.6756824686
 20
516.8732061818
 30
0.0
 11
609.6148199354
 21
516.4420938966
 31
0.0
  0
LINE
  5
129
330
123
100
AcDbEntity
  8
$DDT_AUDIT_GENERATED_(7B)
  6
Continuous
 62
     7
100
AcDbLine
 10
609.6148199354
 20
516.4420938966
 30
0.0
 11
611.2608194426
 21
453.5839087149
 31
0.0
  0
LINE
  5
12A
330
123
100
AcDbEntity
  8
$DDT_AUDIT_GENERATED_(7B)
  6
Continuous
 62
     7
100
AcDbLine
 10
610.5793831789
 20
452.8658247236
 30
0.0
 11
604.4814734966
 21
452.7061453389
 31
0.0
  0
ARC
  5
12B
330
123
100
AcDbEntity
  8
$DDT_AUDIT_GENERATED_(7B)
  6
Continuous
 62
     7
100
AcDbCircle
 10
610.5610593151
 20
453.5655848511
 30
0.0
 40
0.6999999999999889
100
AcDbArc
 50
271.5
 51
1.5
  0
LINE
  5
12C
330
123
100
AcDbEntity
  8
$DDT_AUDIT_GENERATED_(7B)
  6
Continuous
 62
     7
100
AcDbLine
 10
603.7633895053
 20
453.3875816026
 30
0.0
 11
602.131275692
 21
515.7154935291
 31
0.0
  0
ARC
  5
12D
330
123
100
AcDbEntity
  8
$DDT_AUDIT_GENERATED_(7B)
  6
Continuous
 62
     7
100
AcDbCircle
 10
604.4631496328
 20
453.4059054664
 30
0.0
 40
0.6999999999999893
100
AcDbArc
 50
181.5
 51
271.5
  0
LINE
  5
12E
330
123
100
AcDbEntity
  8
$DDT_AUDIT_GENERATED_(7B)
  6
Continuous
 62
     7
100
AcDbLine
 10
610.629652888
 20
515.8887370092
 30
0.0
 11
613.4547635072
 21
515.9627151343
 31
0.0
  0
LINE
  5
12F
330
123
100
AcDbEntity
  8
$DDT_AUDIT_GENERATED_(7B)
  6
Continuous
 62
     7
100
AcDbLine
 10
597.7434017349
 20
515.5512986472
 30
0.0
 11
600.6330796382
 21
515.6269675261
 31
0.0
  0
LINE
  5
130
330
123
100
AcDbEntity
  8
$DDT_AUDIT_GENERATED_(7B)
  6
Continuous
 62
     7
100
AcDbLine
 10
579.9401730112
 20
515.0851046961
 30
0.0
 11
590.6315274161
 21
515.3650676641
 31
0.0
  0
LINE
  5
131
330
123
100
AcDbEntity
  8
$DDT_AUDIT_GENERATED_(7B)
  6
Continuous
 62
     7
100
AcDbLine
 10
612.0935621952
 20
567.944896033
 30
0.0
 11
594.6863460773
 21
567.489072037
 31
0.0
  0
ARC
  5
132
330
123
100
AcDbEntity
  8
$DDT_AUDIT_GENERATED_(7B)
  6
Continuous
 62
     7
100
AcDbCircle
 10
610.6558298363
 20
514.8890796842
 30
0.0
 40
1.000000000000004
100
AcDbArc
 50
91.5
 51
181.5
  0
ARC
  5
133
330
123
100
AcDbEntity
  8
$DDT_AUDIT_GENERATED_(7B)
  6
Continuous
 62
     7
100
AcDbCircle
 10
594.6941991618
 20
567.1891748395
 30
0.0
 40
0.2999999999999893
100
AcDbArc
 50
96.379202145
 51
149.5
  0
ARC
  5
134
330
123
100
AcDbEntity
  8
$DDT_AUDIT_GENERATED_(7B)
  6
Continuous
 62
     7
100
AcDbCircle
 10
579.9323199267
 20
515.3850018936
 30
0.0
 40
0.3000000000000013
100
AcDbArc
 50
181.5
 51
271.5
  0
ARC
  5
135
330
123
100
AcDbEntity
  8
$DDT_AUDIT_GENERATED_(7B)
  6
Continuous
 62
     7
100
AcDbCircle
 10
600.6723450607
 20
514.1274815387
 30
0.0
 40
1.500000000000003
100
AcDbArc
 50
1.5
 51
91.5
  0
ARC
  5
136
330
123
100
AcDbEntity
  8
$DDT_AUDIT_GENERATED_(7B)
  6
Continuous
 62
     7
100
AcDbCircle
 10
-62.0705844828
 20
524.2823739586
 30
0.0
 40
676.2499999999992
100
AcDbArc
 50
359.3537157962
 51
0.8556691672
  0
ARC
  5
137
330
123
100
AcDbEntity
  8
$DDT_AUDIT_GENERATED_(7B)
  6
Continuous
 62
     7
100
AcDbCircle
 10
-62.0705844828
 20
524.2823739586
 30
0.0
 40
676.2499999999992
100
AcDbArc
 50
1.9574526997
 51
3.6462842038
  0
ARC
  5
138
330
123
100
AcDbEntity
  8
$DDT_AUDIT_GENERATED_(7B)
  6
Continuous
 62
     7
100
AcDbCircle
 10
613.4364396434
 20
516.6624752618
 30
0.0
 40
0.6999999999999993
100
AcDbArc
 50
271.5
 51
359.3537157964
  0
ARC
  5
139
330
123
100
AcDbEntity
  8
$DDT_AUDIT_GENERATED_(7B)
  6
Continuous
 62
     7
100
AcDbCircle
 10
612.111886059
 20
567.2451359055
 30
0.0
 40
0.7000000000001335
100
AcDbArc
 50
3.6462842036
 51
91.5
  0
LINE
  5
13A
330
123
100
AcDbEntity
  8
$DDT_AUDIT_GENERATED_(93)
  6
Continuous
 62
     7
100
AcDbLine
 10
560.7693158554
 20
514.9812812442
 30
0.0
 11
560.7693158554
 21
566.7812812442
 31
0.0
  0
LINE
  5
13B
330
123
100
AcDbEntity
  8
$DDT_AUDIT_GENERATED_(93)
  6
Continuous
 62
     7
100
AcDbLine
 10
560.3693158554
 20
514.6812812442
 30
0.0
 11
560.4693158554
 21
514.6812812442
 31
0.0
  0
LINE
  5
13C
330
123
100
AcDbEntity
  8
$DDT_AUDIT_GENERATED_(93)
  6
Continuous
 62
     7
100
AcDbLine
 10
560.4693158554
 20
567.0812812442
 30
0.0
 11
560.3693158554
 21
567.0812812442
 31
0.0
  0
ARC
  5
13D
330
123
100
AcDbEntity
  8
$DDT_AUDIT_GENERATED_(93)
  6
Continuous
 62
     7
100
AcDbCircle
 10
560.4693158554
 20
514.9812812442
 30
0.0
 40
0.3000000000000017
100
AcDbArc
 50
270.0
 51
0.0
  0
ARC
  5
13E
330
123
100
AcDbEntity
  8
$DDT_AUDIT_GENERATED_(93)
  6
Continuous
 62
     7
100
AcDbCircle
 10
560.4693158554
 20
566.7812812442
 30
0.0
 40
0.2999999999999947
100
AcDbArc
 50
0.0
 51
90.0
  0
LINE
  5
13F
330
123
100
AcDbEntity
  8
$DDT_AUDIT_GENERATED_(FC)
  6
Continuous
 62
     7
100
AcDbLine
 10
576.3725738367
 20
566.3254102511
 30
0.0
 11
576.3725738367
 21
547.3812812442
 31
0.0
  0
LINE
  5
140
330
123
100
AcDbEntity
  8
$DDT_AUDIT_GENERATED_(FC)
  6
Continuous
 62
     7
100
AcDbLine
 10
576.3725738367
 20
534.3812812442
 30
0.0
 11
576.3725738367
 21
515.4371522372
 31
0.0
  0
ARC
  5
141
330
123
100
AcDbEntity
  8
$DDT_AUDIT_GENERATED_(FC)
  6
Continuous
 62
     7
100
AcDbCircle
 10
570.3725738367
 20
540.8812812442
 30
0.0
 40
25.00000000000001
100
AcDbArc
 50
283.8865403626
 51
291.5940528162
  0
ARC
  5
142
330
123
100
AcDbEntity
  8
$DDT_AUDIT_GENERATED_(FC)
  6
Continuous
 62
     7
100
AcDbCircle
 10
570.3725738367
 20
540.8812812442
 30
0.0
 40
25.00000000000005
100
AcDbArc
 50
42.512788165
 51
76.1134596374
  0
LINE
  5
143
330
123
100
AcDbEntity
  8
$DDT_AUDIT_GENERATED_(FC)
  6
Continuous
 62
     7
100
AcDbLine
 10
560.7119406157
 20
514.8048351456
 30
0.0
 11
575.8769368807
 21
514.9371712737
 31
0.0
  0
LINE
  5
144
330
123
100
AcDbEntity
  8
$DDT_AUDIT_GENERATED_(FC)
  6
Continuous
 62
     7
100
AcDbLine
 10
575.8769368807
 20
566.8253912146
 30
0.0
 11
560.7119406157
 21
566.9577273428
 31
0.0
  0
ARC
  5
145
330
123
100
AcDbEntity
  8
$DDT_AUDIT_GENERATED_(FC)
  6
Continuous
 62
     7
100
AcDbCircle
 10
575.8725738367
 20
566.3254102511
 30
0.0
 40
0.5000000000000004
100
AcDbArc
 50
0.0
 51
89.5000256491
  0
ARC
  5
146
330
123
100
AcDbEntity
  8
$DDT_AUDIT_GENERATED_(FC)
  6
Continuous
 62
     7
100
AcDbCircle
 10
575.8725738367
 20
515.4371522372
 30
0.0
 40
0.5000000000000033
100
AcDbArc
 50
270.4999743509
 51
0.0
  0
LINE
  5
148
330
123
100
AcDbEntity
  8
$DDT_AUDIT_GENERATED_(147)
  6
Continuous
 62
     7
100
AcDbLine
 10
543.3693158554
 20
557.8812812442
 30
0.0
 11
543.3181260777
 21
557.8812812442
 31
0.0
  0
LINE
  5
149
330
123
100
AcDbEntity
  8
$DDT_AUDIT_GENERATED_(96)
  6
Continuous
 62
     7
100
AcDbLine
 10
560.3693158554
 20
507.1258044812
 30
0.0
 11
560.3693158554
 21
507.7257130983
 31
0.0
  0
LINE
  5
14A
330
123
100
AcDbEntity
  8
$DDT_AUDIT_GENERATED_(96)
  6
Continuous
 62
     7
100
AcDbLine
 10
559.3867682619
 20
506.125956786
 30
0.0
 11
545.3693158554
 21
505.8812812442
 31
0.0
  0
LINE
  5
14B
330
123
100
AcDbEntity
  8
$DDT_AUDIT_GENERATED_(96)
  6
Continuous
 62
     7
100
AcDbLine
 10
545.3693158554
 20
507.4810375564
 30
0.0
 11
545.3693158554
 21
574.2815249319
 31
0.0
  0
LINE
  5
14C
330
123
100
AcDbEntity
  8
$DDT_AUDIT_GENERATED_(96)
  6
Continuous
 62
     7
100
AcDbLine
 10
545.3693158554
 20
505.8812812442
 30
0.0
 11
545.3693158554
 21
507.4810375564
 31
0.0
  0
ARC
  5
14D
330
123
100
AcDbEntity
  8
$DDT_AUDIT_GENERATED_(96)
  6
Continuous
 62
     7
100
AcDbCircle
 10
559.3693158554
 20
507.1258044812
 30
0.0
 40
0.999999999999987
100
AcDbArc
 50
271.0
 51
0.0
  0
LINE
  5
14E
330
123
100
AcDbEntity
  8
$DDT_AUDIT_GENERATED_(96)
  6
Continuous
 62
     7
100
AcDbLine
 10
560.3693158554
 20
574.03684939
 30
0.0
 11
560.3693158554
 21
507.7257130983
 31
0.0
  0
LINE
  5
14F
330
123
100
AcDbEntity
  8
$DDT_AUDIT_GENERATED_(96)
  6
Continuous
 62
     7
100
AcDbLine
 10
560.3693158554
 20
574.03684939
 30
0.0
 11
560.3693158554
 21
574.6367580071
 31
0.0
  0
ARC
  5
150
330
123
100
AcDbEntity
  8
$DDT_AUDIT_GENERATED_(96)
  6
Continuous
 62
     7
100
AcDbCircle
 10
559.3693158554
 20
574.6367580071
 30
0.0
 40
0.9999999999999979
100
AcDbArc
 50
0.0
 51
89.0
  0
LINE
  5
151
330
123
100
AcDbEntity
  8
$DDT_AUDIT_GENERATED_(96)
  6
Continuous
 62
     7
100
AcDbLine
 10
545.3693158554
 20
574.2815249319
 30
0.0
 11
545.3693158554
 21
575.8812812442
 31
0.0
  0
LINE
  5
152
330
123
100
AcDbEntity
  8
$DDT_AUDIT_GENERATED_(96)
  6
Continuous
 62
     7
100
AcDbLine
 10
545.3693158554
 20
575.8812812442
 30
0.0
 11
559.3867682619
 21
575.6366057023
 31
0.0
  0
LINE
  5
153
330
123
100
AcDbEntity
  8
$DDT_AUDIT_GENERATED_(B0)
  6
Continuous
 62
     7
100
AcDbLine
 10
685.1846150635
 20
534.3812812442
 30
0.0
 11
560.7693158554
 21
534.3812812442
 31
0.0
  0
LINE
  5
154
330
123
100
AcDbEntity
  8
$DDT_AUDIT_GENERATED_(B0)
  6
Continuous
 62
     7
100
AcDbLine
 10
560.7693158554
 20
547.3812812442
 30
0.0
 11
685.1846150635
 21
547.3812812442
 31
0.0
  0
ARC
  5
155
330
123
100
AcDbEntity
  8
$DDT_AUDIT_GENERATED_(B0)
  6
Continuous
 62
     7
100
AcDbCircle
 10
683.826335395
 20
508.4167847857
 30
0.0
 40
25.99999999999999
100
AcDbArc
 50
6.2718476738
 51
87.0054178827
  0
ARC
  5
156
330
123
100
AcDbEntity
  8
$DDT_AUDIT_GENERATED_(B0)
  6
Continuous
 62
     7
100
AcDbCircle
 10
685.1846150635
 20
508.8812812442
 30
0.0
 40
38.50000000000001
100
AcDbArc
 50
5.0
 51
90.0
  0
LINE
  5
157
330
123
100
AcDbEntity
  8
$DDT_AUDIT_GENERATED_(B0)
  6
Continuous
 62
     7
100
AcDbLine
 10
710.1538972182
 20
505.7344260969
 30
0.0
 11
709.6707189863
 21
511.2571785593
 31
0.0
  0
LINE
  5
158
330
123
100
AcDbEntity
  8
$DDT_AUDIT_GENERATED_(B0)
  6
Continuous
 62
     7
100
AcDbLine
 10
723.53811094
 20
512.23677734
 30
0.0
 11
724.0010035217
 21
506.9458909211
 31
0.0
  0
LINE
  5
159
330
123
100
AcDbEntity
  8
$DDT_AUDIT_GENERATED_(B0)
  6
Continuous
 62
     7
100
AcDbLine
 10
723.546484044
 20
506.4042157007
 30
0.0
 11
710.6955724386
 21
505.2799066192
 31
0.0
  0
ARC
  5
15A
330
123
100
AcDbEntity
  8
$DDT_AUDIT_GENERATED_(B0)
  6
Continuous
 62
     7
100
AcDbCircle
 10
723.5029061726
 20
506.9023130497
 30
0.0
 40
0.5000000000000058
100
AcDbArc
 50
275.0
 51
5.0
  0
LINE
  5
15B
330
123
100
AcDbEntity
  8
$DDT_AUDIT_GENERATED_(B0)
  6
Continuous
 62
     7
100
AcDbLine
 10
709.6707189863
 20
511.2571785593
 30
0.0
 11
710.1683349498
 21
511.3062586922
 31
0.0
  0
LINE
  5
15C
330
123
100
AcDbEntity
  8
$DDT_AUDIT_GENERATED_(B0)
  6
Continuous
 62
     7
100
AcDbLine
 10
685.1846150635
 20
534.3812812442
 30
0.0
 11
685.1976220898
 21
534.8812812442
 31
0.0
  0
ARC
  5
15D
330
123
100
AcDbEntity
  8
$DDT_AUDIT_GENERATED_(B0)
  6
Continuous
 62
     7
100
AcDbCircle
 10
710.6519945672
 20
505.7780039683
 30
0.0
 40
0.5000000000000051
100
AcDbArc
 50
185.0
 51
275.0
  0
ENDBLK
  5
15F
330
123
100
AcDbEntity
  8
0
100
AcDbBlockEnd
  0
ENDSEC
  0
SECTION
  2
ENTITIES
  0
INSERT
  5
5F
330
1F
100
AcDbEntity
  8
Default
100
AcDbBlockReference
  2
SEANNOT_GROUP
 10
0.0
 20
0.0
 30
0.0
  0
INSERT
  5
6A
330
1F
100
AcDbEntity
  8
Default
100
AcDbBlockReference
  2
SEANNOT_GROUP1
 10
0.0
 20
0.0
 30
0.0
  0
INSERT
  5
74
330
1F
100
AcDbEntity
  8
Default
100
AcDbBlockReference
  2
SEANNOT_GROUP2
 10
0.0
 20
0.0
 30
0.0
  0
INSERT
  5
7A
330
1F
100
AcDbEntity
  8
Default
100
AcDbBlockReference
  2
SE
 10
0.0
 20
0.0
 30
0.0
  0
INSERT
  5
C7
330
1F
100
AcDbEntity
  8
Default
100
AcDbBlockReference
  2
SE1
 10
0.0
 20
0.0
 30
0.0
  0
INSERT
  5
124
330
1F
100
AcDbEntity
  8
Default
100
AcDbBlockReference
  2
SE2
 10
0.0
 20
0.0
 30
0.0
  0
TEXT
  5
161
330
1F
100
AcDbEntity
  8
Default
  6
Continuous
 62
     7
100
AcDbText
 10
5.9362635081
 20
53.4225120485
 30
0.0
 40
10.0
  1
Grohe AG^J
  7
SEACAD_seiso_ttf
 11
5.9362635081
 21
63.4225120485
 31
0.0
100
AcDbText
 73
     3
  0
TEXT
  5
162
330
1F
100
AcDbEntity
  8
Default
  6
Continuous
 62
     7
100
AcDbText
 10
5.9362635081
 20
37.0588756849
 30
0.0
 40
10.0
  1
 
  7
SEACAD_seiso_ttf
 11
5.9362635081
 21
47.0588756849
 31
0.0
100
AcDbText
 73
     3
  0
TEXT
  5
163
330
1F
100
AcDbEntity
  8
Default
  6
Continuous
 62
     7
100
AcDbText
 10
5.9362635081
 20
20.6952393213
 30
0.0
 40
10.0
  1
ecn: 
  7
SEACAD_seiso_ttf
 11
5.9362635081
 21
30.6952393213
 31
0.0
100
AcDbText
 73
     3
  0
TEXT
  5
164
330
1F
100
AcDbEntity
  8
Default
  6
Continuous
 62
     7
100
AcDbText
 10
5.9362635081
 20
4.3316029576
 30
0.0
 40
10.0
  1
unit: mm
  7
SEACAD_seiso_ttf
 11
5.9362635081
 21
14.3316029576
 31
0.0
100
AcDbText
 73
     3
  0
LINE
  5
165
330
1F
100
AcDbEntity
  8
Default
  6
Continuous
 62
     7
100
AcDbLine
 10
0.0
 20
0.0
 30
0.0
 11
100.0
 21
0.0
 31
0.0
  0
LINE
  5
166
330
1F
100
AcDbEntity
  8
Default
  6
Continuous
 62
     7
100
AcDbLine
 10
0.0
 20
0.0
 30
0.0
 11
0.0
 21
100.0
 31
0.0
  0
TEXT
  5
167
330
1F
100
AcDbEntity
  8
Default
  6
Continuous
 62
     7
100
AcDbText
 10
24.3923665681
 20
-18.2375342018
 30
0.0
 40
10.0
  1
100 mm
  7
SEACAD_seiso_ttf
 11
24.3923665681
 21
-8.2375342018
 31
0.0
100
AcDbText
 73
     3
  0
TEXT
  5
168
330
1F
100
AcDbEntity
  8
Default
  6
Continuous
 62
     7
100
AcDbText
 10
-7.6150308803
 20
24.6231930421
 30
0.0
 40
10.0
  1
100 mm
 50
90.0
  7
SEACAD_seiso_ttf
 11
-17.6150308803
 21
24.6231930421
 31
0.0
100
AcDbText
 73
     3
  0
TEXT
  5
169
330
1F
100
AcDbEntity
  8
Default
  6
Continuous
 62
     7
100
AcDbText
 10
28.4878128572
 20
20.0907663715
 30
0.0
 40
10.0
  1
213992
  7
SEACAD_seiso_ttf
 11
28.4878128572
 21
30.0907663715
 31
0.0
100
AcDbText
 73
     3
  0
TEXT
  5
16A
330
1F
100
AcDbEntity
  8
Default
  6
Continuous
 62
     7
100
AcDbText
 10
5.9012241913
 20
36.7242780188
 30
0.0
 40
10.0
  1
19300000
  7
SEACAD_seiso_ttf
 11
5.9012241913
 21
46.7242780188
 31
0.0
100
AcDbText
 73
     3
  0
ENDSEC
  0
SECTION
  2
OBJECTS
  0
DICTIONARY
  5
C
330
0
100
AcDbDictionary
281
     1
  3
ACAD_GROUP
350
D
  3
ACAD_LAYOUT
350
1A
  3
ACAD_MLEADERSTYLE
350
16E
  3
ACAD_MLINESTYLE
350
17
  3
ACAD_PLOTSETTINGS
350
19
  3
ACAD_PLOTSTYLENAME
350
E
  3
ACAD_SCALELIST
350
3B
  3
ACAD_TABLESTYLE
350
16D
  3
ACAD_VISUALSTYLE
350
2A
  3
AcDbVariableDictionary
350
16B
  0
DICTIONARY
  5
D
102
{ACAD_REACTORS
330
C
102
}
330
C
100
AcDbDictionary
281
     1
  0
DICTIONARY
  5
1A
102
{ACAD_REACTORS
330
C
102
}
330
C
100
AcDbDictionary
281
     1
  3
Layout1
350
1E
  3
Model
350
22
  0
DICTIONARY
  5
16E
102
{ACAD_REACTORS
330
C
102
}
330
C
100
AcDbDictionary
281
     1
  0
DICTIONARY
  5
17
102
{ACAD_REACTORS
330
C
102
}
330
C
100
AcDbDictionary
281
     1
  3
Standard
350
18
  0
DICTIONARY
  5
19
102
{ACAD_REACTORS
330
C
102
}
330
C
100
AcDbDictionary
281
     1
  0
ACDBDICTIONARYWDFLT
  5
E
102
{ACAD_REACTORS
330
C
102
}
330
C
100
AcDbDictionary
281
     1
  3
Normal
350
F
100
AcDbDictionaryWithDefault
340
F
  0
DICTIONARY
  5
3B
102
{ACAD_REACTORS
330
C
102
}
330
C
100
AcDbDictionary
281
     1
  3
A0
350
3C
  3
A1
350
3D
  3
A2
350
3E
  3
A3
350
3F
  3
A4
350
40
  3
A5
350
41
  3
A6
350
42
  3
A7
350
43
  3
A8
350
44
  3
A9
350
45
  3
B0
350
46
  3
B1
350
47
  3
B2
350
48
  3
B3
350
49
  3
B4
350
4A
  3
B5
350
4B
  3
B6
350
4C
  3
B7
350
4D
  3
B8
350
4E
  3
B9
350
4F
  3
C0
350
50
  3
C1
350
51
  3
C2
350
52
  3
C3
350
53
  3
C4
350
54
  3
C5
350
55
  3
C6
350
56
  3
C7
350
57
  3
C8
350
58
  3
C9
350
59
  3
D0
350
5A
  3
D1
350
5B
  3
D2
350
5C
  0
DICTIONARY
  5
16D
102
{ACAD_REACTORS
330
C
102
}
330
C
100
AcDbDictionary
281
     1
  0
DICTIONARY
  5
2A
102
{ACAD_REACTORS
330
C
102
}
330
C
100
AcDbDictionary
281
     1
  3
2dWireframe
350
2F
  3
3D Hidden
350
31
  3
3dWireframe
350
30
  3
Basic
350
32
  3
Brighten
350
36
  3
ColorChange
350
3A
  3
Conceptual
350
34
  3
Dim
350
35
  3
Facepattern
350
39
  3
Flat
350
2B
  3
FlatWithEdges
350
2C
  3
Gouraud
350
2D
  3
GouraudWithEdges
350
2E
  3
Linepattern
350
38
  3
Realistic
350
33
  3
Thicken
350
37
  0
DICTIONARY
  5
16B
102
{ACAD_REACTORS
330
C
102
}
330
C
100
AcDbDictionary
281
     1
  3
CANNOSCALE
350
16C
  3
PSOLHEIGHT
350
170
  3
PSOLWIDTH
350
16F
  0
LAYOUT
  5
1E
102
{ACAD_REACTORS
330
1A
102
}
330
1A
100
AcDbPlotSettings
  1

  2
none_device
  4

  6

 40
0.0
 41
0.0
 42
0.0
 43
0.0
 44
0.0
 45
0.0
 46
0.0
 47
0.0
 48
0.0
 49
0.0
140
0.0
141
0.0
142
1.0
143
1.0
 70
   688
 72
     0
 73
     0
 74
     5
  7

 75
    16
147
1.0
148
0.0
149
0.0
100
AcDbLayout
  1
Layout1
 70
     1
 71
     1
 10
0.0
 20
0.0
 11
1682.0
 21
2378.0
 12
0.0
 22
0.0
 32
0.0
 14
0.0
 24
0.0
 34
0.0
 15
1682.0
 25
2378.0
 35
0.0
146
0.0
 13
0.0
 23
0.0
 33
0.0
 16
1.0
 26
0.0
 36
0.0
 17
0.0
 27
1.0
 37
0.0
 76
     0
330
1B
  0
LAYOUT
  5
22
102
{ACAD_REACTORS
330
1A
102
}
330
1A
100
AcDbPlotSettings
  1

  2
none_device
  4

  6

 40
0.0
 41
0.0
 42
0.0
 43
0.0
 44
0.0
 45
0.0
 46
0.0
 47
0.0
 48
0.0
 49
0.0
140
0.0
141
0.0
142
1.0
143
1.0
 70
  1712
 72
     0
 73
     0
 74
     0
  7

 75
     0
147
1.0
148
0.0
149
0.0
100
AcDbLayout
  1
Model
 70
     1
 71
     0
 10
0.0
 20
0.0
 11
1682.0
 21
2378.0
 12
0.0
 22
0.0
 32
0.0
 14
0.0
 24
0.0
 34
0.0
 15
1682.0
 25
2378.0
 35
0.0
146
0.0
 13
0.0
 23
0.0
 33
0.0
 16
1.0
 26
0.0
 36
0.0
 17
0.0
 27
1.0
 37
0.0
 76
     0
330
1F
331
29
  0
MLINESTYLE
  5
18
102
{ACAD_REACTORS
330
17
102
}
330
17
100
AcDbMlineStyle
  2
Standard
 70
     0
  3

 62
   256
 51
90.0
 52
90.0
 71
     2
 49
0.5
 62
   256
  6
BYLAYER
 49
-0.5
 62
   256
  6
BYLAYER
  0
ACDBPLACEHOLDER
  5
F
102
{ACAD_REACTORS
330
E
102
}
330
E
  0
SCALE
  5
3C
102
{ACAD_REACTORS
330
3B
102
}
330
3B
100
AcDbScale
 70
     0
300
1:1
140
1.0
141
1.0
290
     1
  0
SCALE
  5
3D
102
{ACAD_REACTORS
330
3B
102
}
330
3B
100
AcDbScale
 70
     0
300
1:2
140
1.0
141
2.0
290
     0
  0
SCALE
  5
3E
102
{ACAD_REACTORS
330
3B
102
}
330
3B
100
AcDbScale
 70
     0
300
1:4
140
1.0
141
4.0
290
     0
  0
SCALE
  5
3F
102
{ACAD_REACTORS
330
3B
102
}
330
3B
100
AcDbScale
 70
     0
300
1:5
140
1.0
141
5.0
290
     0
  0
SCALE
  5
40
102
{ACAD_REACTORS
330
3B
102
}
330
3B
100
AcDbScale
 70
     0
300
1:8
140
1.0
141
8.0
290
     0
  0
SCALE
  5
41
102
{ACAD_REACTORS
330
3B
102
}
330
3B
100
AcDbScale
 70
     0
300
1:10
140
1.0
141
10.0
290
     0
  0
SCALE
  5
42
102
{ACAD_REACTORS
330
3B
102
}
330
3B
100
AcDbScale
 70
     0
300
1:16
140
1.0
141
16.0
290
     0
  0
SCALE
  5
43
102
{ACAD_REACTORS
330
3B
102
}
330
3B
100
AcDbScale
 70
     0
300
1:20
140
1.0
141
20.0
290
     0
  0
SCALE
  5
44
102
{ACAD_REACTORS
330
3B
102
}
330
3B
100
AcDbScale
 70
     0
300
1:30
140
1.0
141
30.0
290
     0
  0
SCALE
  5
45
102
{ACAD_REACTORS
330
3B
102
}
330
3B
100
AcDbScale
 70
     0
300
1:40
140
1.0
141
40.0
290
     0
  0
SCALE
  5
46
102
{ACAD_REACTORS
330
3B
102
}
330
3B
100
AcDbScale
 70
     0
300
1:50
140
1.0
141
50.0
290
     0
  0
SCALE
  5
47
102
{ACAD_REACTORS
330
3B
102
}
330
3B
100
AcDbScale
 70
     0
300
1:100
140
1.0
141
100.0
290
     0
  0
SCALE
  5
48
102
{ACAD_REACTORS
330
3B
102
}
330
3B
100
AcDbScale
 70
     0
300
2:1
140
2.0
141
1.0
290
     0
  0
SCALE
  5
49
102
{ACAD_REACTORS
330
3B
102
}
330
3B
100
AcDbScale
 70
     0
300
4:1
140
4.0
141
1.0
290
     0
  0
SCALE
  5
4A
102
{ACAD_REACTORS
330
3B
102
}
330
3B
100
AcDbScale
 70
     0
300
8:1
140
8.0
141
1.0
290
     0
  0
SCALE
  5
4B
102
{ACAD_REACTORS
330
3B
102
}
330
3B
100
AcDbScale
 70
     0
300
10:1
140
10.0
141
1.0
290
     0
  0
SCALE
  5
4C
102
{ACAD_REACTORS
330
3B
102
}
330
3B
100
AcDbScale
 70
     0
300
100:1
140
100.0
141
1.0
290
     0
  0
SCALE
  5
4D
102
{ACAD_REACTORS
330
3B
102
}
330
3B
100
AcDbScale
 70
     0
300
1/128" = 1'-0"
140
0.0078125
141
12.0
290
     0
  0
SCALE
  5
4E
102
{ACAD_REACTORS
330
3B
102
}
330
3B
100
AcDbScale
 70
     0
300
1/64" = 1'-0"
140
0.015625
141
12.0
290
     0
  0
SCALE
  5
4F
102
{ACAD_REACTORS
330
3B
102
}
330
3B
100
AcDbScale
 70
     0
300
1/32" = 1'-0"
140
0.03125
141
12.0
290
     0
  0
SCALE
  5
50
102
{ACAD_REACTORS
330
3B
102
}
330
3B
100
AcDbScale
 70
     0
300
1/16" = 1'-0"
140
0.0625
141
12.0
290
     0
  0
SCALE
  5
51
102
{ACAD_REACTORS
330
3B
102
}
330
3B
100
AcDbScale
 70
     0
300
3/32" = 1'-0"
140
0.09375
141
12.0
290
     0
  0
SCALE
  5
52
102
{ACAD_REACTORS
330
3B
102
}
330
3B
100
AcDbScale
 70
     0
300
1/8" = 1'-0"
140
0.125
141
12.0
290
     0
  0
SCALE
  5
53
102
{ACAD_REACTORS
330
3B
102
}
330
3B
100
AcDbScale
 70
     0
300
3/16" = 1'-0"
140
0.1875
141
12.0
290
     0
  0
SCALE
  5
54
102
{ACAD_REACTORS
330
3B
102
}
330
3B
100
AcDbScale
 70
     0
300
1/4" = 1'-0"
140
0.25
141
12.0
290
     0
  0
SCALE
  5
55
102
{ACAD_REACTORS
330
3B
102
}
330
3B
100
AcDbScale
 70
     0
300
3/8" = 1'-0"
140
0.375
141
12.0
290
     0
  0
SCALE
  5
56
102
{ACAD_REACTORS
330
3B
102
}
330
3B
100
AcDbScale
 70
     0
300
1/2" = 1'-0"
140
0.5
141
12.0
290
     0
  0
SCALE
  5
57
102
{ACAD_REACTORS
330
3B
102
}
330
3B
100
AcDbScale
 70
     0
300
3/4" = 1'-0"
140
0.75
141
12.0
290
     0
  0
SCALE
  5
58
102
{ACAD_REACTORS
330
3B
102
}
330
3B
100
AcDbScale
 70
     0
300
1" = 1'-0"
140
1.0
141
12.0
290
     0
  0
SCALE
  5
59
102
{ACAD_REACTORS
330
3B
102
}
330
3B
100
AcDbScale
 70
     0
300
1-1/2" = 1'-0"
140
1.5
141
12.0
290
     0
  0
SCALE
  5
5A
102
{ACAD_REACTORS
330
3B
102
}
330
3B
100
AcDbScale
 70
     0
300
3" = 1'-0"
140
3.0
141
12.0
290
     0
  0
SCALE
  5
5B
102
{ACAD_REACTORS
330
3B
102
}
330
3B
100
AcDbScale
 70
     0
300
6" = 1'-0"
140
6.0
141
12.0
290
     0
  0
SCALE
  5
5C
102
{ACAD_REACTORS
330
3B
102
}
330
3B
100
AcDbScale
 70
     0
300
1'-0" = 1'-0"
140
12.0
141
12.0
290
     0
  0
VISUALSTYLE
  5
2F
102
{ACAD_REACTORS
330
2A
102
}
330
2A
100
AcDbVisualStyle
  2
2dWireframe
 70
     4
 71
     0
 72
     2
 73
     0
 90
        0
 40
-0.6
 41
-30.0
 62
     5
 63
     7
 74
     1
 91
        4
 64
     7
 65
   257
 75
     1
175
     1
 42
1.0
 92
        0
 66
   257
 43
1.0
 76
     1
 77
     6
 78
     2
 67
     7
 79
     5
170
     0
171
     0
290
     0
174
     0
 93
        1
 44
0.0
173
     0
291
     0
 45
0.0
1001
ACAD
1000
AcDbSavedByObjectVersion
1070
     0
  0
VISUALSTYLE
  5
31
102
{ACAD_REACTORS
330
2A
102
}
330
2A
100
AcDbVisualStyle
  2
3D Hidden
 70
     6
 71
     1
 72
     2
 73
     2
 90
        0
 40
-0.6
 41
-30.0
 62
     5
 63
     7
 74
     2
 91
        2
 64
     7
 65
   257
 75
     2
175
     1
 42
40.0
 92
        0
 66
   257
 43
1.0
 76
     1
 77
     6
 78
     2
 67
     7
 79
     3
170
     0
171
     0
290
     0
174
     0
 93
        1
 44
0.0
173
     0
291
     0
 45
0.0
1001
ACAD
1000
AcDbSavedByObjectVersion
1070
     0
  0
VISUALSTYLE
  5
30
102
{ACAD_REACTORS
330
2A
102
}
330
2A
100
AcDbVisualStyle
  2
3dWireframe
 70
     5
 71
     0
 72
     2
 73
     0
 90
        0
 40
-0.6
 41
-30.0
 62
     5
 63
     7
 74
     1
 91
        4
 64
     7
 65
   257
 75
     1
175
     1
 42
1.0
 92
        0
 66
   257
 43
1.0
 76
     1
 77
     6
 78
     2
 67
     7
 79
     5
170
     0
171
     0
290
     0
174
     0
 93
        1
 44
0.0
173
     0
291
     0
 45
0.0
1001
ACAD
1000
AcDbSavedByObjectVersion
1070
     0
  0
VISUALSTYLE
  5
32
102
{ACAD_REACTORS
330
2A
102
}
330
2A
100
AcDbVisualStyle
  2
Basic
 70
     7
 71
     1
 72
     0
 73
     1
 90
        0
 40
-0.6
 41
-30.0
 62
     5
 63
     7
 74
     0
 91
        4
 64
     7
 65
   257
 75
     1
175
     1
 42
1.0
 92
        8
 66
     7
 43
1.0
 76
     1
 77
     6
 78
     2
 67
     7
 79
     5
170
     0
171
     0
290
     0
174
     0
 93
        1
 44
0.0
173
     0
291
     1
 45
0.0
1001
ACAD
1000
AcDbSavedByObjectVersion
1070
     0
  0
VISUALSTYLE
  5
36
102
{ACAD_REACTORS
330
2A
102
}
330
2A
100
AcDbVisualStyle
  2
Brighten
 70
    12
 71
     2
 72
     2
 73
     0
 90
        0
 40
-0.6
 41
-30.0
 62
     5
 63
     7
 74
     1
 91
        4
 64
     7
 65
   257
 75
     1
175
     1
 42
1.0
 92
        8
 66
     7
 43
1.0
 76
     1
 77
     6
 78
     2
 67
     7
 79
     5
170
     0
171
     0
290
     0
174
     0
 93
        1
 44
50.0
173
     0
291
     1
 45
0.0
1001
ACAD
1000
AcDbSavedByObjectVersion
1070
     0
  0
VISUALSTYLE
  5
3A
102
{ACAD_REACTORS
330
2A
102
}
330
2A
100
AcDbVisualStyle
  2
ColorChange
 70
    16
 71
     2
 72
     2
 73
     3
 90
        0
 40
-0.6
 41
-30.0
 62
     5
 63
     8
 74
     1
 91
        4
 64
     7
 65
   257
 75
     1
175
     1
 42
1.0
 92
        8
 66
     8
 43
1.0
 76
     1
 77
     6
 78
     2
 67
     7
 79
     5
170
     0
171
     0
290
     0
174
     0
 93
        1
 44
0.0
173
     0
291
     1
 45
0.0
1001
ACAD
1000
AcDbSavedByObjectVersion
1070
     0
  0
VISUALSTYLE
  5
34
102
{ACAD_REACTORS
330
2A
102
}
330
2A
100
AcDbVisualStyle
  2
Conceptual
 70
     9
 71
     3
 72
     2
 73
     0
 90
        0
 40
-0.6
 41
-30.0
 62
     5
 63
     7
 74
     2
 91
        2
 64
     7
 65
   257
 75
     1
175
     1
 42
40.0
 92
        8
 66
     7
 43
1.0
 76
     1
 77
     6
 78
     2
 67
     7
 79
     3
170
     0
171
     0
290
     0
174
     0
 93
        1
 44
0.0
173
     0
291
     0
 45
0.0
1001
ACAD
1000
AcDbSavedByObjectVersion
1070
     0
  0
VISUALSTYLE
  5
35
102
{ACAD_REACTORS
330
2A
102
}
330
2A
100
AcDbVisualStyle
  2
Dim
 70
    11
 71
     2
 72
     2
 73
     0
 90
        0
 40
-0.6
 41
-30.0
 62
     5
 63
     7
 74
     1
 91
        4
 64
     7
 65
   257
 75
     1
175
     1
 42
1.0
 92
        8
 66
     7
 43
1.0
 76
     1
 77
     6
 78
     2
 67
     7
 79
     5
170
     0
171
     0
290
     0
174
     0
 93
        1
 44
-50.0
173
     0
291
     1
 45
0.0
1001
ACAD
1000
AcDbSavedByObjectVersion
1070
     0
  0
VISUALSTYLE
  5
39
102
{ACAD_REACTORS
330
2A
102
}
330
2A
100
AcDbVisualStyle
  2
Facepattern
 70
    15
 71
     2
 72
     2
 73
     0
 90
        0
 40
-0.6
 41
-30.0
 62
     5
 63
     7
 74
     1
 91
        4
 64
     7
 65
   257
 75
     1
175
     1
 42
1.0
 92
        8
 66
     7
 43
1.0
 76
     1
 77
     6
 78
     2
 67
     7
 79
     5
170
     0
171
     0
290
     0
174
     0
 93
        1
 44
0.0
173
     0
291
     1
 45
0.0
1001
ACAD
1000
AcDbSavedByObjectVersion
1070
     0
  0
VISUALSTYLE
  5
2B
102
{ACAD_REACTORS
330
2A
102
}
330
2A
100
AcDbVisualStyle
  2
Flat
 70
     0
 71
     2
 72
     1
 73
     1
 90
        2
 40
-0.6
 41
30.0
 62
     5
 63
     7
 74
     0
 91
        4
 64
     7
 65
   257
 75
     1
175
     1
 42
1.0
 92
        8
 66
     7
 43
1.0
 76
     1
 77
     6
 78
     2
 67
     7
 79
     5
170
     0
171
     0
290
     0
174
     0
 93
       13
 44
0.0
173
     0
291
     1
 45
0.0
1001
ACAD
1000
AcDbSavedByObjectVersion
1070
     0
  0
VISUALSTYLE
  5
2C
102
{ACAD_REACTORS
330
2A
102
}
330
2A
100
AcDbVisualStyle
  2
FlatWithEdges
 70
     1
 71
     2
 72
     1
 73
     1
 90
        2
 40
-0.6
 41
30.0
 62
     5
 63
     7
 74
     1
 91
        4
 64
     7
 65
   257
 75
     1
175
     1
 42
1.0
 92
        0
 66
   257
 43
1.0
 76
     1
 77
     6
 78
     2
 67
     7
 79
     5
170
     0
171
     0
290
     0
174
     0
 93
       13
 44
0.0
173
     0
291
     1
 45
0.0
1001
ACAD
1000
AcDbSavedByObjectVersion
1070
     0
  0
VISUALSTYLE
  5
2D
102
{ACAD_REACTORS
330
2A
102
}
330
2A
100
AcDbVisualStyle
  2
Gouraud
 70
     2
 71
     2
 72
     2
 73
     1
 90
        2
 40
-0.6
 41
30.0
 62
     5
 63
     7
 74
     0
 91
        4
 64
     7
 65
   257
 75
     1
175
     1
 42
1.0
 92
        0
 66
     7
 43
1.0
 76
     1
 77
     6
 78
     2
 67
     7
 79
     5
170
     0
171
     0
290
     0
174
     0
 93
       13
 44
0.0
173
     0
291
     1
 45
0.0
1001
ACAD
1000
AcDbSavedByObjectVersion
1070
     0
  0
VISUALSTYLE
  5
2E
102
{ACAD_REACTORS
330
2A
102
}
330
2A
100
AcDbVisualStyle
  2
GouraudWithEdges
 70
     3
 71
     2
 72
     2
 73
     1
 90
        2
 40
-0.6
 41
30.0
 62
     5
 63
     7
 74
     1
 91
        4
 64
     7
 65
   257
 75
     1
175
     1
 42
1.0
 92
        0
 66
   257
 43
1.0
 76
     1
 77
     6
 78
     2
 67
     7
 79
     5
170
     0
171
     0
290
     0
174
     0
 93
       13
 44
0.0
173
     0
291
     1
 45
0.0
1001
ACAD
1000
AcDbSavedByObjectVersion
1070
     0
  0
VISUALSTYLE
  5
38
102
{ACAD_REACTORS
330
2A
102
}
330
2A
100
AcDbVisualStyle
  2
Linepattern
 70
    14
 71
     2
 72
     2
 73
     0
 90
        0
 40
-0.6
 41
-30.0
 62
     5
 63
     7
 74
     1
 91
        4
 64
     7
 65
   257
 75
     7
175
     7
 42
1.0
 92
        8
 66
     7
 43
1.0
 76
     1
 77
     6
 78
     2
 67
     7
 79
     5
170
     0
171
     0
290
     0
174
     0
 93
        1
 44
0.0
173
     0
291
     1
 45
0.0
1001
ACAD
1000
AcDbSavedByObjectVersion
1070
     0
  0
VISUALSTYLE
  5
33
102
{ACAD_REACTORS
330
2A
102
}
330
2A
100
AcDbVisualStyle
  2
Realistic
 70
     8
 71
     2
 72
     2
 73
     0
 90
        0
 40
-0.6
 41
-30.0
 62
     5
 63
     7
 74
     1
 91
        0
 64
     7
 65
   257
 75
     1
175
     1
 42
1.0
 92
        8
 66
     8
 43
1.0
 76
     1
 77
     6
 78
     2
 67
     7
 79
     5
170
     0
171
     0
290
     0
174
     0
 93
       13
 44
0.0
173
     0
291
     0
 45
0.0
1001
ACAD
1000
AcDbSavedByObjectVersion
1070
     0
  0
VISUALSTYLE
  5
37
102
{ACAD_REACTORS
330
2A
102
}
330
2A
100
AcDbVisualStyle
  2
Thicken
 70
    13
 71
     2
 72
     2
 73
     0
 90
        0
 40
-0.6
 41
-30.0
 62
     5
 63
     7
 74
     1
 91
        4
 64
     7
 65
   257
 75
     1
175
     1
 42
1.0
 92
       12
 66
     7
 43
1.0
 76
     1
 77
     6
 78
     2
 67
     7
 79
     5
170
     0
171
     0
290
     0
174
     0
 93
        1
 44
0.0
173
     0
291
     1
 45
0.0
1001
ACAD
1000
AcDbSavedByObjectVersion
1070
     0
  0
DICTIONARYVAR
  5
16C
102
{ACAD_REACTORS
330
16B
102
}
330
16B
100
DictionaryVariables
280
     0
  1
1:1
  0
DICTIONARYVAR
  5
170
102
{ACAD_REACTORS
330
16B
102
}
330
16B
100
DictionaryVariables
280
     0
  1
80.000000
  0
DICTIONARYVAR
  5
16F
102
{ACAD_REACTORS
330
16B
102
}
330
16B
100
DictionaryVariables
280
     0
  1
5.000000
  0
ENDSEC
  0
EOF
