999
Converted by 3D Exploration 
999
XDimension Software, LLC
999
http://www.xdsoft.com/explorer/
0
SECTION
2
HEADER
9
$ACADVER
1
AC1008
9
$UCSORG
10
0.0
20
0.0
30
0.0
9
$UCSXDIR
10
1.0
20
0.0
30
0.0
9
$TILEMODE
70
1
9
$UCSYDIR
10
0.0
20
1.0
30
0.0
9
$EXTMIN
10
-16.000000
20
-24.916000
30
-24.916000
9
$EXTMAX
10
111.500000
20
24.916000
30
41.500000
0
ENDSEC
0
SECTION
2
TABLES
0
TABLE
2
LTYPE
70
1
0
LTYPE
2
CONTINUOUS
70
64
3
Solid line
72
65
73
0
40
0.0
0
ENDTAB
0
TABLE
2
LAYER
70
87
0
LAYER
2
OBJECT__0
70
0
62
253
6
CONTINUOUS
0
LAYER
2
OBJECT__1
70
0
62
253
6
CONTINUOUS
0
LAYER
2
OBJECT__3
70
0
62
253
6
CONTINUOUS
0
LAYER
2
OBJECT__4
70
0
62
253
6
CONTINUOUS
0
LAYER
2
OBJECT__5
70
0
62
253
6
CONTINUOUS
0
LAYER
2
OBJECT__6
70
0
62
253
6
CONTINUOUS
0
LAYER
2
OBJECT__7
70
0
62
253
6
CONTINUOUS
0
LAYER
2
OBJECT__8
70
0
62
253
6
CONTINUOUS
0
LAYER
2
OBJECT__9
70
0
62
253
6
CONTINUOUS
0
LAYER
2
OBJECT__10
70
0
62
253
6
CONTINUOUS
0
LAYER
2
OBJECT__11
70
0
62
253
6
CONTINUOUS
0
LAYER
2
OBJECT__12
70
0
62
253
6
CONTINUOUS
0
LAYER
2
OBJECT__13
70
0
62
253
6
CONTINUOUS
0
LAYER
2
OBJECT__14
70
0
62
253
6
CONTINUOUS
0
LAYER
2
OBJECT__15
70
0
62
253
6
CONTINUOUS
0
LAYER
2
OBJECT__16
70
0
62
253
6
CONTINUOUS
0
LAYER
2
OBJECT__17
70
0
62
253
6
CONTINUOUS
0
LAYER
2
OBJECT__18
70
0
62
253
6
CONTINUOUS
0
LAYER
2
OBJECT__19
70
0
62
253
6
CONTINUOUS
0
LAYER
2
OBJECT__20
70
0
62
253
6
CONTINUOUS
0
LAYER
2
OBJECT__21
70
0
62
253
6
CONTINUOUS
0
LAYER
2
OBJECT__22
70
0
62
253
6
CONTINUOUS
0
LAYER
2
OBJECT__23
70
0
62
253
6
CONTINUOUS
0
LAYER
2
OBJECT__24
70
0
62
253
6
CONTINUOUS
0
LAYER
2
OBJECT__25
70
0
62
253
6
CONTINUOUS
0
LAYER
2
OBJECT__26
70
0
62
253
6
CONTINUOUS
0
LAYER
2
OBJECT__27
70
0
62
253
6
CONTINUOUS
0
LAYER
2
OBJECT__28
70
0
62
253
6
CONTINUOUS
0
LAYER
2
OBJECT__29
70
0
62
253
6
CONTINUOUS
0
LAYER
2
OBJECT__30
70
0
62
253
6
CONTINUOUS
0
LAYER
2
OBJECT__31
70
0
62
253
6
CONTINUOUS
0
LAYER
2
OBJECT__32
70
0
62
253
6
CONTINUOUS
0
LAYER
2
OBJECT__33
70
0
62
253
6
CONTINUOUS
0
LAYER
2
OBJECT__34
70
0
62
253
6
CONTINUOUS
0
LAYER
2
OBJECT__35
70
0
62
253
6
CONTINUOUS
0
LAYER
2
OBJECT__36
70
0
62
253
6
CONTINUOUS
0
LAYER
2
OBJECT__37
70
0
62
253
6
CONTINUOUS
0
LAYER
2
OBJECT__38
70
0
62
253
6
CONTINUOUS
0
LAYER
2
OBJECT__39
70
0
62
253
6
CONTINUOUS
0
LAYER
2
OBJECT__40
70
0
62
253
6
CONTINUOUS
0
LAYER
2
OBJECT__41
70
0
62
253
6
CONTINUOUS
0
LAYER
2
OBJECT__42
70
0
62
253
6
CONTINUOUS
0
LAYER
2
OBJECT__43
70
0
62
253
6
CONTINUOUS
0
LAYER
2
OBJECT__44
70
0
62
253
6
CONTINUOUS
0
LAYER
2
OBJECT__45
70
0
62
253
6
CONTINUOUS
0
LAYER
2
OBJECT__46
70
0
62
253
6
CONTINUOUS
0
LAYER
2
OBJECT__47
70
0
62
253
6
CONTINUOUS
0
LAYER
2
OBJECT__48
70
0
62
253
6
CONTINUOUS
0
LAYER
2
OBJECT__49
70
0
62
253
6
CONTINUOUS
0
LAYER
2
OBJECT__50
70
0
62
253
6
CONTINUOUS
0
LAYER
2
OBJECT__51
70
0
62
253
6
CONTINUOUS
0
LAYER
2
OBJECT__52
70
0
62
253
6
CONTINUOUS
0
LAYER
2
OBJECT__53
70
0
62
253
6
CONTINUOUS
0
LAYER
2
OBJECT__54
70
0
62
253
6
CONTINUOUS
0
LAYER
2
OBJECT__55
70
0
62
253
6
CONTINUOUS
0
LAYER
2
OBJECT__56
70
0
62
253
6
CONTINUOUS
0
LAYER
2
OBJECT__57
70
0
62
253
6
CONTINUOUS
0
LAYER
2
OBJECT__58
70
0
62
253
6
CONTINUOUS
0
LAYER
2
OBJECT__59
70
0
62
253
6
CONTINUOUS
0
LAYER
2
OBJECT__60
70
0
62
253
6
CONTINUOUS
0
LAYER
2
OBJECT__61
70
0
62
253
6
CONTINUOUS
0
LAYER
2
OBJECT__62
70
0
62
253
6
CONTINUOUS
0
LAYER
2
OBJECT__63
70
0
62
253
6
CONTINUOUS
0
LAYER
2
OBJECT__64
70
0
62
253
6
CONTINUOUS
0
LAYER
2
OBJECT__65
70
0
62
253
6
CONTINUOUS
0
LAYER
2
OBJECT__66
70
0
62
253
6
CONTINUOUS
0
LAYER
2
OBJECT__67
70
0
62
253
6
CONTINUOUS
0
LAYER
2
OBJECT__68
70
0
62
253
6
CONTINUOUS
0
LAYER
2
OBJECT__69
70
0
62
253
6
CONTINUOUS
0
LAYER
2
OBJECT__70
70
0
62
253
6
CONTINUOUS
0
LAYER
2
OBJECT__71
70
0
62
253
6
CONTINUOUS
0
LAYER
2
OBJECT__72
70
0
62
253
6
CONTINUOUS
0
LAYER
2
OBJECT__73
70
0
62
253
6
CONTINUOUS
0
LAYER
2
OBJECT__74
70
0
62
253
6
CONTINUOUS
0
LAYER
2
OBJECT__75
70
0
62
253
6
CONTINUOUS
0
LAYER
2
OBJECT__76
70
0
62
253
6
CONTINUOUS
0
LAYER
2
OBJECT__77
70
0
62
253
6
CONTINUOUS
0
LAYER
2
OBJECT__78
70
0
62
253
6
CONTINUOUS
0
LAYER
2
OBJECT__80
70
0
62
253
6
CONTINUOUS
0
LAYER
2
OBJECT__81
70
0
62
253
6
CONTINUOUS
0
LAYER
2
OBJECT__82
70
0
62
253
6
CONTINUOUS
0
LAYER
2
OBJECT__83
70
0
62
253
6
CONTINUOUS
0
LAYER
2
OBJECT__84
70
0
62
253
6
CONTINUOUS
0
LAYER
2
OBJECT__85
70
0
62
253
6
CONTINUOUS
0
LAYER
2
OBJECT__86
70
0
62
253
6
CONTINUOUS
0
ENDTAB
0
TABLE
2
STYLE
70
1
0
STYLE
2
STANDARD
70
0
40
0.0
41
1.0
50
0.0
71
0
42
0.2
3
txt
4
1
0
ENDTAB
0
TABLE
2
UCS
70
0
0
ENDTAB
0
ENDSEC
0
SECTION
2
ENTITIES
0
POLYLINE
8
OBJECT__0
66
1
70
64
71
7
72
5
62
253
0
VERTEX
8
OBJECT__0
10
6.819000
20
-3.937000
30
26.131001
70
192
0
VERTEX
8
OBJECT__0
10
6.819000
20
3.937000
30
26.131001
70
192
0
VERTEX
8
OBJECT__0
10
0.000000
20
7.874000
30
26.131001
70
192
0
VERTEX
8
OBJECT__0
10
-7.874000
20
0.000000
30
26.131001
70
192
0
VERTEX
8
OBJECT__0
10
-6.819000
20
-3.937000
30
26.131001
70
192
0
VERTEX
8
OBJECT__0
10
-6.819000
20
3.937000
30
26.131001
70
192
0
VERTEX
8
OBJECT__0
10
0.000000
20
-7.874000
30
26.131001
70
192
0
VERTEX
8
OBJECT__0
10
0
20
0
30
0
70
128
71
1
72
2
73
3
0
VERTEX
8
OBJECT__0
10
0
20
0
30
0
70
128
71
1
72
4
73
5
0
VERTEX
8
OBJECT__0
10
0
20
0
30
0
70
128
71
3
72
6
73
1
0
VERTEX
8
OBJECT__0
10
0
20
0
30
0
70
128
71
6
72
4
73
1
0
VERTEX
8
OBJECT__0
10
0
20
0
30
0
70
128
71
5
72
7
73
1
0
SEQEND
8
OBJECT__0
0
POLYLINE
8
OBJECT__1
66
1
70
64
71
14
72
14
62
253
0
VERTEX
8
OBJECT__1
10
6.819000
20
-3.937000
30
41.500000
70
192
0
VERTEX
8
OBJECT__1
10
6.819000
20
-3.937000
30
26.131001
70
192
0
VERTEX
8
OBJECT__1
10
0.000000
20
-7.874000
30
26.131001
70
192
0
VERTEX
8
OBJECT__1
10
6.819000
20
3.937000
30
41.500000
70
192
0
VERTEX
8
OBJECT__1
10
6.819000
20
3.937000
30
26.131001
70
192
0
VERTEX
8
OBJECT__1
10
0.000000
20
7.874000
30
41.500000
70
192
0
VERTEX
8
OBJECT__1
10
0.000000
20
7.874000
30
26.131001
70
192
0
VERTEX
8
OBJECT__1
10
-6.819000
20
3.937000
30
41.500000
70
192
0
VERTEX
8
OBJECT__1
10
-6.819000
20
3.937000
30
26.131001
70
192
0
VERTEX
8
OBJECT__1
10
-6.819000
20
-3.937000
30
41.500000
70
192
0
VERTEX
8
OBJECT__1
10
-6.819000
20
-3.937000
30
26.131001
70
192
0
VERTEX
8
OBJECT__1
10
-7.874000
20
0.000000
30
26.131001
70
192
0
VERTEX
8
OBJECT__1
10
-7.874000
20
0.000000
30
41.500000
70
192
0
VERTEX
8
OBJECT__1
10
0.000000
20
-7.874000
30
41.500000
70
192
0
VERTEX
8
OBJECT__1
10
0
20
0
30
0
70
128
71
1
72
2
73
3
0
VERTEX
8
OBJECT__1
10
0
20
0
30
0
70
128
71
4
72
5
73
2
0
VERTEX
8
OBJECT__1
10
0
20
0
30
0
70
128
71
6
72
7
73
5
0
VERTEX
8
OBJECT__1
10
0
20
0
30
0
70
128
71
8
72
9
73
7
0
VERTEX
8
OBJECT__1
10
0
20
0
30
0
70
128
71
10
72
11
73
12
0
VERTEX
8
OBJECT__1
10
0
20
0
30
0
70
128
71
9
72
8
73
13
0
VERTEX
8
OBJECT__1
10
0
20
0
30
0
70
128
71
13
72
12
73
9
0
VERTEX
8
OBJECT__1
10
0
20
0
30
0
70
128
71
14
72
3
73
11
0
VERTEX
8
OBJECT__1
10
0
20
0
30
0
70
128
71
11
72
10
73
14
0
VERTEX
8
OBJECT__1
10
0
20
0
30
0
70
128
71
12
72
13
73
10
0
VERTEX
8
OBJECT__1
10
0
20
0
30
0
70
128
71
7
72
6
73
8
0
VERTEX
8
OBJECT__1
10
0
20
0
30
0
70
128
71
5
72
4
73
6
0
VERTEX
8
OBJECT__1
10
0
20
0
30
0
70
128
71
2
72
1
73
4
0
VERTEX
8
OBJECT__1
10
0
20
0
30
0
70
128
71
3
72
14
73
1
0
SEQEND
8
OBJECT__1
0
POLYLINE
8
OBJECT__3
66
1
70
64
71
13
72
13
62
253
0
VERTEX
8
OBJECT__3
10
-15.588000
20
0.000000
30
41.500000
70
192
0
VERTEX
8
OBJECT__3
10
-7.874000
20
0.000000
30
41.500000
70
192
0
VERTEX
8
OBJECT__3
10
-6.819000
20
3.937000
30
41.500000
70
192
0
VERTEX
8
OBJECT__3
10
-7.794000
20
-13.500000
30
41.500000
70
192
0
VERTEX
8
OBJECT__3
10
-6.819000
20
-3.937000
30
41.500000
70
192
0
VERTEX
8
OBJECT__3
10
-7.794000
20
13.500000
30
41.500000
70
192
0
VERTEX
8
OBJECT__3
10
7.794000
20
-13.500000
30
41.500000
70
192
0
VERTEX
8
OBJECT__3
10
0.000000
20
-7.874000
30
41.500000
70
192
0
VERTEX
8
OBJECT__3
10
7.794000
20
13.500000
30
41.500000
70
192
0
VERTEX
8
OBJECT__3
10
0.000000
20
7.874000
30
41.500000
70
192
0
VERTEX
8
OBJECT__3
10
15.588000
20
0.000000
30
41.500000
70
192
0
VERTEX
8
OBJECT__3
10
6.819000
20
3.937000
30
41.500000
70
192
0
VERTEX
8
OBJECT__3
10
6.819000
20
-3.937000
30
41.500000
70
192
0
VERTEX
8
OBJECT__3
10
0
20
0
30
0
70
128
71
1
72
2
73
3
0
VERTEX
8
OBJECT__3
10
0
20
0
30
0
70
128
71
1
72
4
73
5
0
VERTEX
8
OBJECT__3
10
0
20
0
30
0
70
128
71
5
72
2
73
1
0
VERTEX
8
OBJECT__3
10
0
20
0
30
0
70
128
71
3
72
6
73
1
0
VERTEX
8
OBJECT__3
10
0
20
0
30
0
70
128
71
4
72
7
73
8
0
VERTEX
8
OBJECT__3
10
0
20
0
30
0
70
128
71
9
72
6
73
10
0
VERTEX
8
OBJECT__3
10
0
20
0
30
0
70
128
71
8
72
5
73
4
0
VERTEX
8
OBJECT__3
10
0
20
0
30
0
70
128
71
11
72
9
73
12
0
VERTEX
8
OBJECT__3
10
0
20
0
30
0
70
128
71
3
72
10
73
6
0
VERTEX
8
OBJECT__3
10
0
20
0
30
0
70
128
71
7
72
11
73
13
0
VERTEX
8
OBJECT__3
10
0
20
0
30
0
70
128
71
10
72
12
73
9
0
VERTEX
8
OBJECT__3
10
0
20
0
30
0
70
128
71
12
72
13
73
11
0
VERTEX
8
OBJECT__3
10
0
20
0
30
0
70
128
71
13
72
8
73
7
0
SEQEND
8
OBJECT__3
0
POLYLINE
8
OBJECT__4
66
1
70
64
71
4
72
2
62
253
0
VERTEX
8
OBJECT__4
10
-15.588000
20
0.000000
30
29.500000
70
192
0
VERTEX
8
OBJECT__4
10
-7.794000
20
-13.500000
30
29.500000
70
192
0
VERTEX
8
OBJECT__4
10
-7.794000
20
-13.500000
30
41.500000
70
192
0
VERTEX
8
OBJECT__4
10
-15.588000
20
0.000000
30
41.500000
70
192
0
VERTEX
8
OBJECT__4
10
0
20
0
30
0
70
128
71
1
72
2
73
3
0
VERTEX
8
OBJECT__4
10
0
20
0
30
0
70
128
71
3
72
4
73
1
0
SEQEND
8
OBJECT__4
0
POLYLINE
8
OBJECT__5
66
1
70
64
71
4
72
2
62
253
0
VERTEX
8
OBJECT__5
10
-7.794000
20
-13.500000
30
29.500000
70
192
0
VERTEX
8
OBJECT__5
10
7.794000
20
-13.500000
30
29.500000
70
192
0
VERTEX
8
OBJECT__5
10
7.794000
20
-13.500000
30
41.500000
70
192
0
VERTEX
8
OBJECT__5
10
-7.794000
20
-13.500000
30
41.500000
70
192
0
VERTEX
8
OBJECT__5
10
0
20
0
30
0
70
128
71
1
72
2
73
3
0
VERTEX
8
OBJECT__5
10
0
20
0
30
0
70
128
71
3
72
4
73
1
0
SEQEND
8
OBJECT__5
0
POLYLINE
8
OBJECT__6
66
1
70
64
71
4
72
2
62
253
0
VERTEX
8
OBJECT__6
10
7.794000
20
-13.500000
30
29.500000
70
192
0
VERTEX
8
OBJECT__6
10
15.588000
20
0.000000
30
29.500000
70
192
0
VERTEX
8
OBJECT__6
10
15.588000
20
0.000000
30
41.500000
70
192
0
VERTEX
8
OBJECT__6
10
7.794000
20
-13.500000
30
41.500000
70
192
0
VERTEX
8
OBJECT__6
10
0
20
0
30
0
70
128
71
1
72
2
73
3
0
VERTEX
8
OBJECT__6
10
0
20
0
30
0
70
128
71
3
72
4
73
1
0
SEQEND
8
OBJECT__6
0
POLYLINE
8
OBJECT__7
66
1
70
64
71
4
72
2
62
253
0
VERTEX
8
OBJECT__7
10
15.588000
20
0.000000
30
29.500000
70
192
0
VERTEX
8
OBJECT__7
10
7.794000
20
13.500000
30
29.500000
70
192
0
VERTEX
8
OBJECT__7
10
7.794000
20
13.500000
30
41.500000
70
192
0
VERTEX
8
OBJECT__7
10
15.588000
20
0.000000
30
41.500000
70
192
0
VERTEX
8
OBJECT__7
10
0
20
0
30
0
70
128
71
1
72
2
73
3
0
VERTEX
8
OBJECT__7
10
0
20
0
30
0
70
128
71
3
72
4
73
1
0
SEQEND
8
OBJECT__7
0
POLYLINE
8
OBJECT__8
66
1
70
64
71
4
72
2
62
253
0
VERTEX
8
OBJECT__8
10
7.794000
20
13.500000
30
41.500000
70
192
0
VERTEX
8
OBJECT__8
10
7.794000
20
13.500000
30
29.500000
70
192
0
VERTEX
8
OBJECT__8
10
-7.794000
20
13.500000
30
29.500000
70
192
0
VERTEX
8
OBJECT__8
10
-7.794000
20
13.500000
30
41.500000
70
192
0
VERTEX
8
OBJECT__8
10
0
20
0
30
0
70
128
71
1
72
2
73
3
0
VERTEX
8
OBJECT__8
10
0
20
0
30
0
70
128
71
3
72
4
73
1
0
SEQEND
8
OBJECT__8
0
POLYLINE
8
OBJECT__9
66
1
70
64
71
4
72
2
62
253
0
VERTEX
8
OBJECT__9
10
-7.794000
20
13.500000
30
29.500000
70
192
0
VERTEX
8
OBJECT__9
10
-15.588000
20
0.000000
30
29.500000
70
192
0
VERTEX
8
OBJECT__9
10
-15.588000
20
0.000000
30
41.500000
70
192
0
VERTEX
8
OBJECT__9
10
-7.794000
20
13.500000
30
41.500000
70
192
0
VERTEX
8
OBJECT__9
10
0
20
0
30
0
70
128
71
1
72
2
73
3
0
VERTEX
8
OBJECT__9
10
0
20
0
30
0
70
128
71
3
72
4
73
1
0
SEQEND
8
OBJECT__9
0
POLYLINE
8
OBJECT__10
66
1
70
64
71
14
72
14
62
253
0
VERTEX
8
OBJECT__10
10
-7.794000
20
-13.500000
30
29.500000
70
192
0
VERTEX
8
OBJECT__10
10
-9.334000
20
-9.334000
30
29.500000
70
192
0
VERTEX
8
OBJECT__10
10
0.000000
20
-13.200000
30
29.500000
70
192
0
VERTEX
8
OBJECT__10
10
15.588000
20
0.000000
30
29.500000
70
192
0
VERTEX
8
OBJECT__10
10
13.200000
20
0.000000
30
29.500000
70
192
0
VERTEX
8
OBJECT__10
10
9.334000
20
9.334000
30
29.500000
70
192
0
VERTEX
8
OBJECT__10
10
7.794000
20
-13.500000
30
29.500000
70
192
0
VERTEX
8
OBJECT__10
10
9.334000
20
-9.334000
30
29.500000
70
192
0
VERTEX
8
OBJECT__10
10
-15.588000
20
0.000000
30
29.500000
70
192
0
VERTEX
8
OBJECT__10
10
-13.200000
20
0.000000
30
29.500000
70
192
0
VERTEX
8
OBJECT__10
10
-7.794000
20
13.500000
30
29.500000
70
192
0
VERTEX
8
OBJECT__10
10
-9.334000
20
9.334000
30
29.500000
70
192
0
VERTEX
8
OBJECT__10
10
7.794000
20
13.500000
30
29.500000
70
192
0
VERTEX
8
OBJECT__10
10
0.000000
20
13.200000
30
29.500000
70
192
0
VERTEX
8
OBJECT__10
10
0
20
0
30
0
70
128
71
1
72
2
73
3
0
VERTEX
8
OBJECT__10
10
0
20
0
30
0
70
128
71
4
72
5
73
6
0
VERTEX
8
OBJECT__10
10
0
20
0
30
0
70
128
71
4
72
7
73
8
0
VERTEX
8
OBJECT__10
10
0
20
0
30
0
70
128
71
3
72
7
73
1
0
VERTEX
8
OBJECT__10
10
0
20
0
30
0
70
128
71
9
72
10
73
2
0
VERTEX
8
OBJECT__10
10
0
20
0
30
0
70
128
71
8
72
5
73
4
0
VERTEX
8
OBJECT__10
10
0
20
0
30
0
70
128
71
2
72
1
73
9
0
VERTEX
8
OBJECT__10
10
0
20
0
30
0
70
128
71
9
72
11
73
12
0
VERTEX
8
OBJECT__10
10
0
20
0
30
0
70
128
71
6
72
13
73
4
0
VERTEX
8
OBJECT__10
10
0
20
0
30
0
70
128
71
12
72
10
73
9
0
VERTEX
8
OBJECT__10
10
0
20
0
30
0
70
128
71
3
72
8
73
7
0
VERTEX
8
OBJECT__10
10
0
20
0
30
0
70
128
71
11
72
14
73
12
0
VERTEX
8
OBJECT__10
10
0
20
0
30
0
70
128
71
6
72
14
73
13
0
VERTEX
8
OBJECT__10
10
0
20
0
30
0
70
128
71
14
72
11
73
13
0
SEQEND
8
OBJECT__10
0
POLYLINE
8
OBJECT__11
66
1
70
64
71
25
72
25
62
253
0
VERTEX
8
OBJECT__11
10
0.000000
20
13.200000
30
29.500000
70
192
0
VERTEX
8
OBJECT__11
10
9.334000
20
9.334000
30
29.500000
70
192
0
VERTEX
8
OBJECT__11
10
8.166000
20
10.371000
30
26.131001
70
192
0
VERTEX
8
OBJECT__11
10
0.264000
20
13.197000
30
26.131001
70
192
0
VERTEX
8
OBJECT__11
10
9.076000
20
9.143000
30
26.131001
70
192
0
VERTEX
8
OBJECT__11
10
13.200000
20
0.000000
30
29.500000
70
192
0
VERTEX
8
OBJECT__11
10
12.299000
20
4.793000
30
26.131001
70
192
0
VERTEX
8
OBJECT__11
10
13.200000
20
0.000000
30
26.131001
70
192
0
VERTEX
8
OBJECT__11
10
9.334000
20
-9.334000
30
29.500000
70
192
0
VERTEX
8
OBJECT__11
10
8.994000
20
-9.093000
30
26.131001
70
192
0
VERTEX
8
OBJECT__11
10
12.564000
20
-4.048000
30
26.131001
70
192
0
VERTEX
8
OBJECT__11
10
0.000000
20
-13.200000
30
29.500000
70
192
0
VERTEX
8
OBJECT__11
10
0.000000
20
-13.200000
30
26.131001
70
192
0
VERTEX
8
OBJECT__11
10
7.997000
20
-10.502000
30
26.131001
70
192
0
VERTEX
8
OBJECT__11
10
-9.334000
20
-9.334000
30
29.500000
70
192
0
VERTEX
8
OBJECT__11
10
-7.646000
20
-10.760000
30
26.131001
70
192
0
VERTEX
8
OBJECT__11
10
-9.144000
20
-9.156000
30
26.131001
70
192
0
VERTEX
8
OBJECT__11
10
-13.200000
20
0.000000
30
29.500000
70
192
0
VERTEX
8
OBJECT__11
10
-13.200000
20
0.000000
30
26.131001
70
192
0
VERTEX
8
OBJECT__11
10
-11.258000
20
-6.892000
30
26.131001
70
192
0
VERTEX
8
OBJECT__11
10
-9.334000
20
9.334000
30
29.500000
70
192
0
VERTEX
8
OBJECT__11
10
-11.258000
20
6.892000
30
26.131001
70
192
0
VERTEX
8
OBJECT__11
10
-9.106000
20
9.114000
30
26.131001
70
192
0
VERTEX
8
OBJECT__11
10
0.021000
20
13.127000
30
26.131001
70
192
0
VERTEX
8
OBJECT__11
10
-7.248000
20
11.032000
30
26.131001
70
192
0
VERTEX
8
OBJECT__11
10
0
20
0
30
0
70
128
71
1
72
2
73
3
0
VERTEX
8
OBJECT__11
10
0
20
0
30
0
70
128
71
3
72
4
73
1
0
VERTEX
8
OBJECT__11
10
0
20
0
30
0
70
128
71
2
72
5
73
3
0
VERTEX
8
OBJECT__11
10
0
20
0
30
0
70
128
71
2
72
6
73
7
0
VERTEX
8
OBJECT__11
10
0
20
0
30
0
70
128
71
6
72
8
73
7
0
VERTEX
8
OBJECT__11
10
0
20
0
30
0
70
128
71
9
72
10
73
11
0
VERTEX
8
OBJECT__11
10
0
20
0
30
0
70
128
71
11
72
6
73
9
0
VERTEX
8
OBJECT__11
10
0
20
0
30
0
70
128
71
12
72
13
73
14
0
VERTEX
8
OBJECT__11
10
0
20
0
30
0
70
128
71
14
72
9
73
12
0
VERTEX
8
OBJECT__11
10
0
20
0
30
0
70
128
71
12
72
15
73
16
0
VERTEX
8
OBJECT__11
10
0
20
0
30
0
70
128
71
15
72
17
73
16
0
VERTEX
8
OBJECT__11
10
0
20
0
30
0
70
128
71
18
72
19
73
20
0
VERTEX
8
OBJECT__11
10
0
20
0
30
0
70
128
71
20
72
15
73
18
0
VERTEX
8
OBJECT__11
10
0
20
0
30
0
70
128
71
18
72
21
73
22
0
VERTEX
8
OBJECT__11
10
0
20
0
30
0
70
128
71
21
72
23
73
22
0
VERTEX
8
OBJECT__11
10
0
20
0
30
0
70
128
71
1
72
24
73
25
0
VERTEX
8
OBJECT__11
10
0
20
0
30
0
70
128
71
25
72
21
73
1
0
VERTEX
8
OBJECT__11
10
0
20
0
30
0
70
128
71
25
72
23
73
21
0
VERTEX
8
OBJECT__11
10
0
20
0
30
0
70
128
71
22
72
19
73
18
0
VERTEX
8
OBJECT__11
10
0
20
0
30
0
70
128
71
20
72
17
73
15
0
VERTEX
8
OBJECT__11
10
0
20
0
30
0
70
128
71
16
72
13
73
12
0
VERTEX
8
OBJECT__11
10
0
20
0
30
0
70
128
71
14
72
10
73
9
0
VERTEX
8
OBJECT__11
10
0
20
0
30
0
70
128
71
11
72
8
73
6
0
VERTEX
8
OBJECT__11
10
0
20
0
30
0
70
128
71
7
72
5
73
2
0
VERTEX
8
OBJECT__11
10
0
20
0
30
0
70
128
71
4
72
24
73
1
0
SEQEND
8
OBJECT__11
0
POLYLINE
8
OBJECT__12
66
1
70
64
71
40
72
38
62
253
0
VERTEX
8
OBJECT__12
10
12.299000
20
4.793000
30
26.131001
70
192
0
VERTEX
8
OBJECT__12
10
13.200000
20
0.000000
30
26.131001
70
192
0
VERTEX
8
OBJECT__12
10
13.113000
20
1.516000
30
19.850000
70
192
0
VERTEX
8
OBJECT__12
10
13.200000
20
0.000000
30
19.850000
70
192
0
VERTEX
8
OBJECT__12
10
8.166000
20
10.371000
30
26.131001
70
192
0
VERTEX
8
OBJECT__12
10
9.076000
20
9.143000
30
26.131001
70
192
0
VERTEX
8
OBJECT__12
10
9.293000
20
9.374000
30
19.851999
70
192
0
VERTEX
8
OBJECT__12
10
9.680000
20
8.975000
30
19.855000
70
192
0
VERTEX
8
OBJECT__12
10
11.872000
20
5.770000
30
19.856001
70
192
0
VERTEX
8
OBJECT__12
10
10.889000
20
7.207000
30
19.855000
70
192
0
VERTEX
8
OBJECT__12
10
12.236000
20
4.776000
30
19.854000
70
192
0
VERTEX
8
OBJECT__12
10
12.104000
20
5.266000
30
19.855000
70
192
0
VERTEX
8
OBJECT__12
10
5.667000
20
11.922000
30
19.816999
70
192
0
VERTEX
8
OBJECT__12
10
4.052000
20
12.563000
30
19.822001
70
192
0
VERTEX
8
OBJECT__12
10
6.164000
20
11.673000
30
19.820000
70
192
0
VERTEX
8
OBJECT__12
10
8.086000
20
10.261000
30
19.840000
70
192
0
VERTEX
8
OBJECT__12
10
0.264000
20
13.197000
30
26.131001
70
192
0
VERTEX
8
OBJECT__12
10
-7.248000
20
11.032000
30
26.131001
70
192
0
VERTEX
8
OBJECT__12
10
-5.891000
20
11.813000
30
20.985001
70
192
0
VERTEX
8
OBJECT__12
10
-7.168000
20
11.084000
30
21.002001
70
192
0
VERTEX
8
OBJECT__12
10
0.021000
20
13.127000
30
26.131001
70
192
0
VERTEX
8
OBJECT__12
10
-4.713000
20
12.265000
30
20.740999
70
192
0
VERTEX
8
OBJECT__12
10
-3.535000
20
12.718000
30
20.497000
70
192
0
VERTEX
8
OBJECT__12
10
-0.393000
20
13.195000
30
19.778999
70
192
0
VERTEX
8
OBJECT__12
10
-2.736000
20
12.913000
30
20.298000
70
192
0
VERTEX
8
OBJECT__12
10
0.253000
20
13.125000
30
19.759001
70
192
0
VERTEX
8
OBJECT__12
10
-0.239000
20
13.198000
30
19.750999
70
192
0
VERTEX
8
OBJECT__12
10
-9.106000
20
9.114000
30
26.131001
70
192
0
VERTEX
8
OBJECT__12
10
-8.452000
20
9.965000
30
20.947001
70
192
0
VERTEX
8
OBJECT__12
10
-10.001000
20
8.615000
30
20.879999
70
192
0
VERTEX
8
OBJECT__12
10
-7.240000
20
11.022000
30
20.999001
70
192
0
VERTEX
8
OBJECT__12
10
-11.258000
20
6.892000
30
26.131001
70
192
0
VERTEX
8
OBJECT__12
10
-13.200000
20
0.000000
30
26.131001
70
192
0
VERTEX
8
OBJECT__12
10
-12.879000
20
2.893000
30
19.061001
70
192
0
VERTEX
8
OBJECT__12
10
-13.128000
20
1.376000
30
18.438999
70
192
0
VERTEX
8
OBJECT__12
10
-12.865000
20
2.957000
30
19.103001
70
192
0
VERTEX
8
OBJECT__12
10
-11.981000
20
5.541000
30
20.268000
70
192
0
VERTEX
8
OBJECT__12
10
-11.403000
20
6.438000
30
20.447001
70
192
0
VERTEX
8
OBJECT__12
10
-11.153000
20
6.827000
30
20.524000
70
192
0
VERTEX
8
OBJECT__12
10
-13.200000
20
0.000000
30
18.450001
70
192
0
VERTEX
8
OBJECT__12
10
0
20
0
30
0
70
128
71
1
72
2
73
3
0
VERTEX
8
OBJECT__12
10
0
20
0
30
0
70
128
71
2
72
4
73
3
0
VERTEX
8
OBJECT__12
10
0
20
0
30
0
70
128
71
5
72
6
73
7
0
VERTEX
8
OBJECT__12
10
0
20
0
30
0
70
128
71
6
72
8
73
7
0
VERTEX
8
OBJECT__12
10
0
20
0
30
0
70
128
71
1
72
9
73
10
0
VERTEX
8
OBJECT__12
10
0
20
0
30
0
70
128
71
10
72
6
73
1
0
VERTEX
8
OBJECT__12
10
0
20
0
30
0
70
128
71
1
72
11
73
12
0
VERTEX
8
OBJECT__12
10
0
20
0
30
0
70
128
71
12
72
9
73
1
0
VERTEX
8
OBJECT__12
10
0
20
0
30
0
70
128
71
10
72
8
73
6
0
VERTEX
8
OBJECT__12
10
0
20
0
30
0
70
128
71
5
72
13
73
14
0
VERTEX
8
OBJECT__12
10
0
20
0
30
0
70
128
71
5
72
15
73
13
0
VERTEX
8
OBJECT__12
10
0
20
0
30
0
70
128
71
5
72
16
73
15
0
VERTEX
8
OBJECT__12
10
0
20
0
30
0
70
128
71
14
72
17
73
5
0
VERTEX
8
OBJECT__12
10
0
20
0
30
0
70
128
71
18
72
19
73
20
0
VERTEX
8
OBJECT__12
10
0
20
0
30
0
70
128
71
18
72
21
73
22
0
VERTEX
8
OBJECT__12
10
0
20
0
30
0
70
128
71
21
72
23
73
22
0
VERTEX
8
OBJECT__12
10
0
20
0
30
0
70
128
71
24
72
25
73
21
0
VERTEX
8
OBJECT__12
10
0
20
0
30
0
70
128
71
17
72
26
73
27
0
VERTEX
8
OBJECT__12
10
0
20
0
30
0
70
128
71
27
72
24
73
17
0
VERTEX
8
OBJECT__12
10
0
20
0
30
0
70
128
71
21
72
17
73
24
0
VERTEX
8
OBJECT__12
10
0
20
0
30
0
70
128
71
25
72
23
73
21
0
VERTEX
8
OBJECT__12
10
0
20
0
30
0
70
128
71
22
72
19
73
18
0
VERTEX
8
OBJECT__12
10
0
20
0
30
0
70
128
71
28
72
29
73
30
0
VERTEX
8
OBJECT__12
10
0
20
0
30
0
70
128
71
18
72
31
73
29
0
VERTEX
8
OBJECT__12
10
0
20
0
30
0
70
128
71
29
72
28
73
18
0
VERTEX
8
OBJECT__12
10
0
20
0
30
0
70
128
71
30
72
32
73
28
0
VERTEX
8
OBJECT__12
10
0
20
0
30
0
70
128
71
33
72
34
73
35
0
VERTEX
8
OBJECT__12
10
0
20
0
30
0
70
128
71
33
72
36
73
34
0
VERTEX
8
OBJECT__12
10
0
20
0
30
0
70
128
71
33
72
37
73
36
0
VERTEX
8
OBJECT__12
10
0
20
0
30
0
70
128
71
32
72
38
73
37
0
VERTEX
8
OBJECT__12
10
0
20
0
30
0
70
128
71
32
72
39
73
38
0
VERTEX
8
OBJECT__12
10
0
20
0
30
0
70
128
71
37
72
33
73
32
0
VERTEX
8
OBJECT__12
10
0
20
0
30
0
70
128
71
35
72
40
73
33
0
VERTEX
8
OBJECT__12
10
0
20
0
30
0
70
128
71
30
72
39
73
32
0
VERTEX
8
OBJECT__12
10
0
20
0
30
0
70
128
71
20
72
31
73
18
0
VERTEX
8
OBJECT__12
10
0
20
0
30
0
70
128
71
14
72
26
73
17
0
VERTEX
8
OBJECT__12
10
0
20
0
30
0
70
128
71
7
72
16
73
5
0
VERTEX
8
OBJECT__12
10
0
20
0
30
0
70
128
71
3
72
11
73
1
0
SEQEND
8
OBJECT__12
0
POLYLINE
8
OBJECT__13
66
1
70
64
71
8
72
6
62
253
0
VERTEX
8
OBJECT__13
10
-2.736000
20
12.913000
30
20.298000
70
192
0
VERTEX
8
OBJECT__13
10
-0.393000
20
13.195000
30
19.778999
70
192
0
VERTEX
8
OBJECT__13
10
-0.400000
20
13.198000
30
19.771000
70
192
0
VERTEX
8
OBJECT__13
10
-1.476000
20
13.259000
30
19.351000
70
192
0
VERTEX
8
OBJECT__13
10
-3.732000
20
12.822000
30
19.995001
70
192
0
VERTEX
8
OBJECT__13
10
-3.614000
20
12.760000
30
20.294001
70
192
0
VERTEX
8
OBJECT__13
10
-3.535000
20
12.718000
30
20.497000
70
192
0
VERTEX
8
OBJECT__13
10
-0.479000
20
13.300000
30
19.145000
70
192
0
VERTEX
8
OBJECT__13
10
0
20
0
30
0
70
128
71
1
72
2
73
3
0
VERTEX
8
OBJECT__13
10
0
20
0
30
0
70
128
71
4
72
5
73
1
0
VERTEX
8
OBJECT__13
10
0
20
0
30
0
70
128
71
1
72
5
73
6
0
VERTEX
8
OBJECT__13
10
0
20
0
30
0
70
128
71
6
72
7
73
1
0
VERTEX
8
OBJECT__13
10
0
20
0
30
0
70
128
71
3
72
4
73
1
0
VERTEX
8
OBJECT__13
10
0
20
0
30
0
70
128
71
3
72
8
73
4
0
SEQEND
8
OBJECT__13
0
POLYLINE
8
OBJECT__14
66
1
70
64
71
8
72
7
62
253
0
VERTEX
8
OBJECT__14
10
-4.785000
20
12.357000
30
20.636000
70
192
0
VERTEX
8
OBJECT__14
10
-3.614000
20
12.760000
30
20.294001
70
192
0
VERTEX
8
OBJECT__14
10
-4.476000
20
12.474000
30
20.336000
70
192
0
VERTEX
8
OBJECT__14
10
-3.732000
20
12.822000
30
19.995001
70
192
0
VERTEX
8
OBJECT__14
10
-4.713000
20
12.265000
30
20.740999
70
192
0
VERTEX
8
OBJECT__14
10
-3.535000
20
12.718000
30
20.497000
70
192
0
VERTEX
8
OBJECT__14
10
-5.891000
20
11.813000
30
20.985001
70
192
0
VERTEX
8
OBJECT__14
10
-4.811000
20
12.317000
30
20.490000
70
192
0
VERTEX
8
OBJECT__14
10
0
20
0
30
0
70
128
71
1
72
2
73
3
0
VERTEX
8
OBJECT__14
10
0
20
0
30
0
70
128
71
2
72
4
73
3
0
VERTEX
8
OBJECT__14
10
0
20
0
30
0
70
128
71
2
72
1
73
5
0
VERTEX
8
OBJECT__14
10
0
20
0
30
0
70
128
71
5
72
6
73
2
0
VERTEX
8
OBJECT__14
10
0
20
0
30
0
70
128
71
5
72
1
73
7
0
VERTEX
8
OBJECT__14
10
0
20
0
30
0
70
128
71
7
72
1
73
8
0
VERTEX
8
OBJECT__14
10
0
20
0
30
0
70
128
71
3
72
8
73
1
0
SEQEND
8
OBJECT__14
0
POLYLINE
8
OBJECT__15
66
1
70
64
71
31
72
29
62
253
0
VERTEX
8
OBJECT__15
10
-3.732000
20
12.822000
30
19.995001
70
192
0
VERTEX
8
OBJECT__15
10
-8.153000
20
13.286000
30
8.129000
70
192
0
VERTEX
8
OBJECT__15
10
-8.183000
20
13.284000
30
8.137000
70
192
0
VERTEX
8
OBJECT__15
10
-8.191000
20
13.284000
30
8.139000
70
192
0
VERTEX
8
OBJECT__15
10
-8.193000
20
13.283000
30
8.140000
70
192
0
VERTEX
8
OBJECT__15
10
-8.033000
20
13.293000
30
8.094000
70
192
0
VERTEX
8
OBJECT__15
10
-1.476000
20
13.259000
30
19.351000
70
192
0
VERTEX
8
OBJECT__15
10
-7.711000
20
13.300000
30
8.000000
70
192
0
VERTEX
8
OBJECT__15
10
-7.743000
20
13.300000
30
8.009000
70
192
0
VERTEX
8
OBJECT__15
10
-4.476000
20
12.474000
30
20.336000
70
192
0
VERTEX
8
OBJECT__15
10
-8.688000
20
13.232000
30
8.279000
70
192
0
VERTEX
8
OBJECT__15
10
-9.860000
20
12.970000
30
8.586000
70
192
0
VERTEX
8
OBJECT__15
10
-10.299000
20
12.750000
30
8.680000
70
192
0
VERTEX
8
OBJECT__15
10
-7.168000
20
11.084000
30
21.002001
70
192
0
VERTEX
8
OBJECT__15
10
-5.891000
20
11.813000
30
20.985001
70
192
0
VERTEX
8
OBJECT__15
10
-4.811000
20
12.317000
30
20.490000
70
192
0
VERTEX
8
OBJECT__15
10
-12.137000
20
11.828000
30
9.071000
70
192
0
VERTEX
8
OBJECT__15
10
-8.452000
20
9.965000
30
20.947001
70
192
0
VERTEX
8
OBJECT__15
10
-7.240000
20
11.022000
30
20.999001
70
192
0
VERTEX
8
OBJECT__15
10
-13.807000
20
10.227000
30
9.252000
70
192
0
VERTEX
8
OBJECT__15
10
-14.622000
20
8.840000
30
9.134000
70
192
0
VERTEX
8
OBJECT__15
10
-11.403000
20
6.438000
30
20.447001
70
192
0
VERTEX
8
OBJECT__15
10
-11.153000
20
6.827000
30
20.524000
70
192
0
VERTEX
8
OBJECT__15
10
-12.824000
20
11.169000
30
9.145000
70
192
0
VERTEX
8
OBJECT__15
10
-10.001000
20
8.615000
30
20.879999
70
192
0
VERTEX
8
OBJECT__15
10
-14.994000
20
8.208000
30
9.081000
70
192
0
VERTEX
8
OBJECT__15
10
-15.499000
20
6.480000
30
8.556000
70
192
0
VERTEX
8
OBJECT__15
10
-13.091000
20
3.259000
30
18.198000
70
192
0
VERTEX
8
OBJECT__15
10
-11.981000
20
5.541000
30
20.268000
70
192
0
VERTEX
8
OBJECT__15
10
-12.865000
20
2.957000
30
19.103001
70
192
0
VERTEX
8
OBJECT__15
10
-0.479000
20
13.300000
30
19.145000
70
192
0
VERTEX
8
OBJECT__15
10
0
20
0
30
0
70
128
71
1
72
2
73
3
0
VERTEX
8
OBJECT__15
10
0
20
0
30
0
70
128
71
4
72
5
73
1
0
VERTEX
8
OBJECT__15
10
0
20
0
30
0
70
128
71
3
72
4
73
1
0
VERTEX
8
OBJECT__15
10
0
20
0
30
0
70
128
71
1
72
6
73
2
0
VERTEX
8
OBJECT__15
10
0
20
0
30
0
70
128
71
1
72
7
73
8
0
VERTEX
8
OBJECT__15
10
0
20
0
30
0
70
128
71
8
72
9
73
1
0
VERTEX
8
OBJECT__15
10
0
20
0
30
0
70
128
71
9
72
6
73
1
0
VERTEX
8
OBJECT__15
10
0
20
0
30
0
70
128
71
10
72
1
73
5
0
VERTEX
8
OBJECT__15
10
0
20
0
30
0
70
128
71
5
72
11
73
10
0
VERTEX
8
OBJECT__15
10
0
20
0
30
0
70
128
71
11
72
12
73
10
0
VERTEX
8
OBJECT__15
10
0
20
0
30
0
70
128
71
12
72
13
73
10
0
VERTEX
8
OBJECT__15
10
0
20
0
30
0
70
128
71
13
72
14
73
15
0
VERTEX
8
OBJECT__15
10
0
20
0
30
0
70
128
71
15
72
16
73
13
0
VERTEX
8
OBJECT__15
10
0
20
0
30
0
70
128
71
13
72
17
73
18
0
VERTEX
8
OBJECT__15
10
0
20
0
30
0
70
128
71
18
72
19
73
13
0
VERTEX
8
OBJECT__15
10
0
20
0
30
0
70
128
71
19
72
14
73
13
0
VERTEX
8
OBJECT__15
10
0
20
0
30
0
70
128
71
16
72
10
73
13
0
VERTEX
8
OBJECT__15
10
0
20
0
30
0
70
128
71
20
72
21
73
22
0
VERTEX
8
OBJECT__15
10
0
20
0
30
0
70
128
71
22
72
23
73
20
0
VERTEX
8
OBJECT__15
10
0
20
0
30
0
70
128
71
24
72
20
73
25
0
VERTEX
8
OBJECT__15
10
0
20
0
30
0
70
128
71
25
72
18
73
24
0
VERTEX
8
OBJECT__15
10
0
20
0
30
0
70
128
71
26
72
27
73
28
0
VERTEX
8
OBJECT__15
10
0
20
0
30
0
70
128
71
28
72
29
73
26
0
VERTEX
8
OBJECT__15
10
0
20
0
30
0
70
128
71
21
72
26
73
29
0
VERTEX
8
OBJECT__15
10
0
20
0
30
0
70
128
71
29
72
22
73
21
0
VERTEX
8
OBJECT__15
10
0
20
0
30
0
70
128
71
28
72
30
73
29
0
VERTEX
8
OBJECT__15
10
0
20
0
30
0
70
128
71
23
72
25
73
20
0
VERTEX
8
OBJECT__15
10
0
20
0
30
0
70
128
71
17
72
24
73
18
0
VERTEX
8
OBJECT__15
10
0
20
0
30
0
70
128
71
7
72
31
73
8
0
SEQEND
8
OBJECT__15
0
POLYLINE
8
OBJECT__16
66
1
70
64
71
15
72
13
62
253
0
VERTEX
8
OBJECT__16
10
6.989000
20
13.300000
30
16.948999
70
192
0
VERTEX
8
OBJECT__16
10
7.663000
20
12.485000
30
18.412001
70
192
0
VERTEX
8
OBJECT__16
10
9.360000
20
12.448000
30
17.750000
70
192
0
VERTEX
8
OBJECT__16
10
13.829000
20
13.241000
30
13.011000
70
192
0
VERTEX
8
OBJECT__16
10
13.486000
20
13.300000
30
12.670000
70
192
0
VERTEX
8
OBJECT__16
10
9.516000
20
13.300000
30
15.771000
70
192
0
VERTEX
8
OBJECT__16
10
13.806000
20
12.397000
30
14.671000
70
192
0
VERTEX
8
OBJECT__16
10
14.673000
20
12.394000
30
13.852000
70
192
0
VERTEX
8
OBJECT__16
10
4.846000
20
13.300000
30
17.948000
70
192
0
VERTEX
8
OBJECT__16
10
-0.479000
20
13.300000
30
19.145000
70
192
0
VERTEX
8
OBJECT__16
10
0.253000
20
13.125000
30
19.759001
70
192
0
VERTEX
8
OBJECT__16
10
-0.239000
20
13.198000
30
19.750999
70
192
0
VERTEX
8
OBJECT__16
10
4.052000
20
12.563000
30
19.822001
70
192
0
VERTEX
8
OBJECT__16
10
-0.400000
20
13.198000
30
19.771000
70
192
0
VERTEX
8
OBJECT__16
10
-0.393000
20
13.195000
30
19.778999
70
192
0
VERTEX
8
OBJECT__16
10
0
20
0
30
0
70
128
71
1
72
2
73
3
0
VERTEX
8
OBJECT__16
10
0
20
0
30
0
70
128
71
4
72
5
73
6
0
VERTEX
8
OBJECT__16
10
0
20
0
30
0
70
128
71
4
72
3
73
7
0
VERTEX
8
OBJECT__16
10
0
20
0
30
0
70
128
71
7
72
8
73
4
0
VERTEX
8
OBJECT__16
10
0
20
0
30
0
70
128
71
6
72
3
73
4
0
VERTEX
8
OBJECT__16
10
0
20
0
30
0
70
128
71
9
72
10
73
11
0
VERTEX
8
OBJECT__16
10
0
20
0
30
0
70
128
71
10
72
12
73
11
0
VERTEX
8
OBJECT__16
10
0
20
0
30
0
70
128
71
2
72
1
73
9
0
VERTEX
8
OBJECT__16
10
0
20
0
30
0
70
128
71
9
72
13
73
2
0
VERTEX
8
OBJECT__16
10
0
20
0
30
0
70
128
71
12
72
10
73
14
0
VERTEX
8
OBJECT__16
10
0
20
0
30
0
70
128
71
14
72
15
73
12
0
VERTEX
8
OBJECT__16
10
0
20
0
30
0
70
128
71
11
72
13
73
9
0
VERTEX
8
OBJECT__16
10
0
20
0
30
0
70
128
71
3
72
6
73
1
0
SEQEND
8
OBJECT__16
0
POLYLINE
8
OBJECT__17
66
1
70
64
71
14
72
12
62
253
0
VERTEX
8
OBJECT__17
10
13.486000
20
13.300000
30
12.670000
70
192
0
VERTEX
8
OBJECT__17
10
14.673000
20
12.394000
30
13.852000
70
192
0
VERTEX
8
OBJECT__17
10
17.295000
20
12.512000
30
10.803000
70
192
0
VERTEX
8
OBJECT__17
10
17.518000
20
13.300000
30
8.187000
70
192
0
VERTEX
8
OBJECT__17
10
18.729000
20
12.577000
30
9.137000
70
192
0
VERTEX
8
OBJECT__17
10
20.920000
20
12.721000
30
5.662000
70
192
0
VERTEX
8
OBJECT__17
10
20.232000
20
13.300000
30
3.904000
70
192
0
VERTEX
8
OBJECT__17
10
21.016001
20
12.987000
30
4.275000
70
192
0
VERTEX
8
OBJECT__17
10
21.094999
20
13.206000
30
3.133000
70
192
0
VERTEX
8
OBJECT__17
10
20.613001
20
13.300000
30
2.960000
70
192
0
VERTEX
8
OBJECT__17
10
21.110001
20
13.247000
30
2.923000
70
192
0
VERTEX
8
OBJECT__17
10
20.895000
20
13.296000
30
2.495000
70
192
0
VERTEX
8
OBJECT__17
10
13.829000
20
13.241000
30
13.011000
70
192
0
VERTEX
8
OBJECT__17
10
20.768000
20
13.300000
30
2.482000
70
192
0
VERTEX
8
OBJECT__17
10
0
20
0
30
0
70
128
71
1
72
2
73
3
0
VERTEX
8
OBJECT__17
10
0
20
0
30
0
70
128
71
3
72
4
73
1
0
VERTEX
8
OBJECT__17
10
0
20
0
30
0
70
128
71
4
72
5
73
6
0
VERTEX
8
OBJECT__17
10
0
20
0
30
0
70
128
71
6
72
7
73
4
0
VERTEX
8
OBJECT__17
10
0
20
0
30
0
70
128
71
7
72
8
73
9
0
VERTEX
8
OBJECT__17
10
0
20
0
30
0
70
128
71
10
72
11
73
12
0
VERTEX
8
OBJECT__17
10
0
20
0
30
0
70
128
71
10
72
9
73
11
0
VERTEX
8
OBJECT__17
10
0
20
0
30
0
70
128
71
13
72
2
73
1
0
VERTEX
8
OBJECT__17
10
0
20
0
30
0
70
128
71
12
72
14
73
10
0
VERTEX
8
OBJECT__17
10
0
20
0
30
0
70
128
71
9
72
10
73
7
0
VERTEX
8
OBJECT__17
10
0
20
0
30
0
70
128
71
6
72
8
73
7
0
VERTEX
8
OBJECT__17
10
0
20
0
30
0
70
128
71
3
72
5
73
4
0
SEQEND
8
OBJECT__17
0
POLYLINE
8
OBJECT__18
66
1
70
64
71
22
72
20
62
253
0
VERTEX
8
OBJECT__18
10
8.086000
20
10.261000
30
19.840000
70
192
0
VERTEX
8
OBJECT__18
10
9.360000
20
12.448000
30
17.750000
70
192
0
VERTEX
8
OBJECT__18
10
7.663000
20
12.485000
30
18.412001
70
192
0
VERTEX
8
OBJECT__18
10
6.164000
20
11.673000
30
19.820000
70
192
0
VERTEX
8
OBJECT__18
10
9.293000
20
9.374000
30
19.851999
70
192
0
VERTEX
8
OBJECT__18
10
9.680000
20
8.975000
30
19.855000
70
192
0
VERTEX
8
OBJECT__18
10
14.715000
20
8.402000
30
16.632000
70
192
0
VERTEX
8
OBJECT__18
10
14.697000
20
10.086000
30
15.459000
70
192
0
VERTEX
8
OBJECT__18
10
14.673000
20
12.394000
30
13.852000
70
192
0
VERTEX
8
OBJECT__18
10
13.806000
20
12.397000
30
14.671000
70
192
0
VERTEX
8
OBJECT__18
10
10.889000
20
7.207000
30
19.855000
70
192
0
VERTEX
8
OBJECT__18
10
14.726000
20
6.709000
30
17.237000
70
192
0
VERTEX
8
OBJECT__18
10
4.052000
20
12.563000
30
19.822001
70
192
0
VERTEX
8
OBJECT__18
10
5.667000
20
11.922000
30
19.816999
70
192
0
VERTEX
8
OBJECT__18
10
14.755000
20
0.000000
30
18.662001
70
192
0
VERTEX
8
OBJECT__18
10
14.744000
20
3.850000
30
18.259001
70
192
0
VERTEX
8
OBJECT__18
10
13.113000
20
1.516000
30
19.850000
70
192
0
VERTEX
8
OBJECT__18
10
12.236000
20
4.776000
30
19.854000
70
192
0
VERTEX
8
OBJECT__18
10
12.104000
20
5.266000
30
19.855000
70
192
0
VERTEX
8
OBJECT__18
10
14.735000
20
5.358000
30
17.719999
70
192
0
VERTEX
8
OBJECT__18
10
11.872000
20
5.770000
30
19.856001
70
192
0
VERTEX
8
OBJECT__18
10
13.200000
20
0.000000
30
19.850000
70
192
0
VERTEX
8
OBJECT__18
10
0
20
0
30
0
70
128
71
1
72
2
73
3
0
VERTEX
8
OBJECT__18
10
0
20
0
30
0
70
128
71
3
72
4
73
1
0
VERTEX
8
OBJECT__18
10
0
20
0
30
0
70
128
71
1
72
5
73
2
0
VERTEX
8
OBJECT__18
10
0
20
0
30
0
70
128
71
5
72
6
73
2
0
VERTEX
8
OBJECT__18
10
0
20
0
30
0
70
128
71
2
72
7
73
8
0
VERTEX
8
OBJECT__18
10
0
20
0
30
0
70
128
71
8
72
9
73
10
0
VERTEX
8
OBJECT__18
10
0
20
0
30
0
70
128
71
11
72
12
73
7
0
VERTEX
8
OBJECT__18
10
0
20
0
30
0
70
128
71
7
72
2
73
11
0
VERTEX
8
OBJECT__18
10
0
20
0
30
0
70
128
71
8
72
10
73
2
0
VERTEX
8
OBJECT__18
10
0
20
0
30
0
70
128
71
3
72
13
73
14
0
VERTEX
8
OBJECT__18
10
0
20
0
30
0
70
128
71
14
72
4
73
3
0
VERTEX
8
OBJECT__18
10
0
20
0
30
0
70
128
71
15
72
16
73
17
0
VERTEX
8
OBJECT__18
10
0
20
0
30
0
70
128
71
18
72
17
73
16
0
VERTEX
8
OBJECT__18
10
0
20
0
30
0
70
128
71
19
72
18
73
20
0
VERTEX
8
OBJECT__18
10
0
20
0
30
0
70
128
71
20
72
12
73
19
0
VERTEX
8
OBJECT__18
10
0
20
0
30
0
70
128
71
12
72
11
73
21
0
VERTEX
8
OBJECT__18
10
0
20
0
30
0
70
128
71
21
72
19
73
12
0
VERTEX
8
OBJECT__18
10
0
20
0
30
0
70
128
71
16
72
20
73
18
0
VERTEX
8
OBJECT__18
10
0
20
0
30
0
70
128
71
17
72
22
73
15
0
VERTEX
8
OBJECT__18
10
0
20
0
30
0
70
128
71
6
72
11
73
2
0
SEQEND
8
OBJECT__18
0
POLYLINE
8
OBJECT__19
66
1
70
64
71
18
72
16
62
253
0
VERTEX
8
OBJECT__19
10
20.757000
20
7.595000
30
11.681000
70
192
0
VERTEX
8
OBJECT__19
10
14.715000
20
8.402000
30
16.632000
70
192
0
VERTEX
8
OBJECT__19
10
14.726000
20
6.709000
30
17.237000
70
192
0
VERTEX
8
OBJECT__19
10
14.697000
20
10.086000
30
15.459000
70
192
0
VERTEX
8
OBJECT__19
10
20.785000
20
4.121000
30
13.307000
70
192
0
VERTEX
8
OBJECT__19
10
14.735000
20
5.358000
30
17.719999
70
192
0
VERTEX
8
OBJECT__19
10
20.782000
20
3.982000
30
13.328000
70
192
0
VERTEX
8
OBJECT__19
10
20.791000
20
10.639000
30
8.977000
70
192
0
VERTEX
8
OBJECT__19
10
20.920000
20
12.721000
30
5.662000
70
192
0
VERTEX
8
OBJECT__19
10
18.729000
20
12.577000
30
9.137000
70
192
0
VERTEX
8
OBJECT__19
10
20.757000
20
7.627000
30
11.653000
70
192
0
VERTEX
8
OBJECT__19
10
17.295000
20
12.512000
30
10.803000
70
192
0
VERTEX
8
OBJECT__19
10
14.673000
20
12.394000
30
13.852000
70
192
0
VERTEX
8
OBJECT__19
10
20.788000
20
10.597000
30
9.043000
70
192
0
VERTEX
8
OBJECT__19
10
14.744000
20
3.850000
30
18.259001
70
192
0
VERTEX
8
OBJECT__19
10
14.755000
20
0.000000
30
18.662001
70
192
0
VERTEX
8
OBJECT__19
10
18.881001
20
0.000000
30
15.380000
70
192
0
VERTEX
8
OBJECT__19
10
20.697001
20
0.000000
30
13.935000
70
192
0
VERTEX
8
OBJECT__19
10
0
20
0
30
0
70
128
71
1
72
2
73
3
0
VERTEX
8
OBJECT__19
10
0
20
0
30
0
70
128
71
1
72
4
73
2
0
VERTEX
8
OBJECT__19
10
0
20
0
30
0
70
128
71
3
72
5
73
1
0
VERTEX
8
OBJECT__19
10
0
20
0
30
0
70
128
71
6
72
7
73
5
0
VERTEX
8
OBJECT__19
10
0
20
0
30
0
70
128
71
3
72
6
73
5
0
VERTEX
8
OBJECT__19
10
0
20
0
30
0
70
128
71
8
72
9
73
10
0
VERTEX
8
OBJECT__19
10
0
20
0
30
0
70
128
71
11
72
12
73
13
0
VERTEX
8
OBJECT__19
10
0
20
0
30
0
70
128
71
11
72
14
73
12
0
VERTEX
8
OBJECT__19
10
0
20
0
30
0
70
128
71
13
72
4
73
11
0
VERTEX
8
OBJECT__19
10
0
20
0
30
0
70
128
71
15
72
16
73
17
0
VERTEX
8
OBJECT__19
10
0
20
0
30
0
70
128
71
7
72
6
73
15
0
VERTEX
8
OBJECT__19
10
0
20
0
30
0
70
128
71
17
72
7
73
15
0
VERTEX
8
OBJECT__19
10
0
20
0
30
0
70
128
71
17
72
18
73
7
0
VERTEX
8
OBJECT__19
10
0
20
0
30
0
70
128
71
14
72
8
73
12
0
VERTEX
8
OBJECT__19
10
0
20
0
30
0
70
128
71
10
72
12
73
8
0
VERTEX
8
OBJECT__19
10
0
20
0
30
0
70
128
71
1
72
11
73
4
0
SEQEND
8
OBJECT__19
0
POLYLINE
8
OBJECT__20
66
1
70
64
71
22
72
20
62
253
0
VERTEX
8
OBJECT__20
10
14.714000
20
-8.400000
30
16.634001
70
192
0
VERTEX
8
OBJECT__20
10
14.725000
20
-6.707000
30
17.233000
70
192
0
VERTEX
8
OBJECT__20
10
10.916000
20
-7.204000
30
19.855000
70
192
0
VERTEX
8
OBJECT__20
10
9.293000
20
-9.374000
30
19.851999
70
192
0
VERTEX
8
OBJECT__20
10
13.630000
20
-12.398000
30
14.826000
70
192
0
VERTEX
8
OBJECT__20
10
14.673000
20
-12.394000
30
13.852000
70
192
0
VERTEX
8
OBJECT__20
10
14.696000
20
-10.086000
30
15.459000
70
192
0
VERTEX
8
OBJECT__20
10
8.891000
20
-9.757000
30
19.849001
70
192
0
VERTEX
8
OBJECT__20
10
9.334000
20
-12.448000
30
17.764000
70
192
0
VERTEX
8
OBJECT__20
10
7.930000
20
-10.402000
30
19.839001
70
192
0
VERTEX
8
OBJECT__20
10
5.667000
20
-11.922000
30
19.816999
70
192
0
VERTEX
8
OBJECT__20
10
7.664000
20
-12.484000
30
18.414000
70
192
0
VERTEX
8
OBJECT__20
10
14.755000
20
0.000000
30
18.662001
70
192
0
VERTEX
8
OBJECT__20
10
13.200000
20
0.000000
30
19.850000
70
192
0
VERTEX
8
OBJECT__20
10
13.113000
20
-1.516000
30
19.850000
70
192
0
VERTEX
8
OBJECT__20
10
14.745000
20
-3.747000
30
18.281000
70
192
0
VERTEX
8
OBJECT__20
10
13.037000
20
-2.066000
30
19.850000
70
192
0
VERTEX
8
OBJECT__20
10
14.734000
20
-5.355000
30
17.711000
70
192
0
VERTEX
8
OBJECT__20
10
12.427000
20
-4.005000
30
19.853001
70
192
0
VERTEX
8
OBJECT__20
10
11.872000
20
-5.770000
30
19.856001
70
192
0
VERTEX
8
OBJECT__20
10
11.619000
20
-6.265000
30
19.857000
70
192
0
VERTEX
8
OBJECT__20
10
4.052000
20
-12.563000
30
19.822001
70
192
0
VERTEX
8
OBJECT__20
10
0
20
0
30
0
70
128
71
1
72
2
73
3
0
VERTEX
8
OBJECT__20
10
0
20
0
30
0
70
128
71
3
72
4
73
1
0
VERTEX
8
OBJECT__20
10
0
20
0
30
0
70
128
71
5
72
6
73
7
0
VERTEX
8
OBJECT__20
10
0
20
0
30
0
70
128
71
1
72
8
73
9
0
VERTEX
8
OBJECT__20
10
0
20
0
30
0
70
128
71
9
72
5
73
1
0
VERTEX
8
OBJECT__20
10
0
20
0
30
0
70
128
71
10
72
11
73
12
0
VERTEX
8
OBJECT__20
10
0
20
0
30
0
70
128
71
9
72
8
73
10
0
VERTEX
8
OBJECT__20
10
0
20
0
30
0
70
128
71
12
72
9
73
10
0
VERTEX
8
OBJECT__20
10
0
20
0
30
0
70
128
71
7
72
1
73
5
0
VERTEX
8
OBJECT__20
10
0
20
0
30
0
70
128
71
4
72
8
73
1
0
VERTEX
8
OBJECT__20
10
0
20
0
30
0
70
128
71
13
72
14
73
15
0
VERTEX
8
OBJECT__20
10
0
20
0
30
0
70
128
71
15
72
16
73
13
0
VERTEX
8
OBJECT__20
10
0
20
0
30
0
70
128
71
15
72
17
73
16
0
VERTEX
8
OBJECT__20
10
0
20
0
30
0
70
128
71
18
72
16
73
19
0
VERTEX
8
OBJECT__20
10
0
20
0
30
0
70
128
71
20
72
2
73
18
0
VERTEX
8
OBJECT__20
10
0
20
0
30
0
70
128
71
19
72
20
73
18
0
VERTEX
8
OBJECT__20
10
0
20
0
30
0
70
128
71
20
72
21
73
2
0
VERTEX
8
OBJECT__20
10
0
20
0
30
0
70
128
71
17
72
19
73
16
0
VERTEX
8
OBJECT__20
10
0
20
0
30
0
70
128
71
21
72
3
73
2
0
VERTEX
8
OBJECT__20
10
0
20
0
30
0
70
128
71
11
72
22
73
12
0
SEQEND
8
OBJECT__20
0
POLYLINE
8
OBJECT__21
66
1
70
64
71
18
72
16
62
253
0
VERTEX
8
OBJECT__21
10
20.791000
20
-10.639000
30
8.977000
70
192
0
VERTEX
8
OBJECT__21
10
17.295000
20
-12.512000
30
10.803000
70
192
0
VERTEX
8
OBJECT__21
10
18.729000
20
-12.577000
30
9.137000
70
192
0
VERTEX
8
OBJECT__21
10
20.757000
20
-7.627000
30
11.653000
70
192
0
VERTEX
8
OBJECT__21
10
14.696000
20
-10.086000
30
15.459000
70
192
0
VERTEX
8
OBJECT__21
10
14.673000
20
-12.394000
30
13.852000
70
192
0
VERTEX
8
OBJECT__21
10
20.788000
20
-10.597000
30
9.043000
70
192
0
VERTEX
8
OBJECT__21
10
20.757000
20
-7.595000
30
11.681000
70
192
0
VERTEX
8
OBJECT__21
10
20.785000
20
-4.121000
30
13.307000
70
192
0
VERTEX
8
OBJECT__21
10
14.725000
20
-6.707000
30
17.233000
70
192
0
VERTEX
8
OBJECT__21
10
14.714000
20
-8.400000
30
16.634001
70
192
0
VERTEX
8
OBJECT__21
10
14.734000
20
-5.355000
30
17.711000
70
192
0
VERTEX
8
OBJECT__21
10
14.745000
20
-3.747000
30
18.281000
70
192
0
VERTEX
8
OBJECT__21
10
20.782000
20
-3.982000
30
13.328000
70
192
0
VERTEX
8
OBJECT__21
10
18.881001
20
0.000000
30
15.380000
70
192
0
VERTEX
8
OBJECT__21
10
14.755000
20
0.000000
30
18.662001
70
192
0
VERTEX
8
OBJECT__21
10
20.697001
20
0.000000
30
13.935000
70
192
0
VERTEX
8
OBJECT__21
10
20.920000
20
-12.721000
30
5.662000
70
192
0
VERTEX
8
OBJECT__21
10
0
20
0
30
0
70
128
71
1
72
2
73
3
0
VERTEX
8
OBJECT__21
10
0
20
0
30
0
70
128
71
4
72
5
73
6
0
VERTEX
8
OBJECT__21
10
0
20
0
30
0
70
128
71
6
72
2
73
4
0
VERTEX
8
OBJECT__21
10
0
20
0
30
0
70
128
71
2
72
1
73
7
0
VERTEX
8
OBJECT__21
10
0
20
0
30
0
70
128
71
8
72
9
73
10
0
VERTEX
8
OBJECT__21
10
0
20
0
30
0
70
128
71
10
72
11
73
8
0
VERTEX
8
OBJECT__21
10
0
20
0
30
0
70
128
71
9
72
12
73
10
0
VERTEX
8
OBJECT__21
10
0
20
0
30
0
70
128
71
11
72
5
73
8
0
VERTEX
8
OBJECT__21
10
0
20
0
30
0
70
128
71
5
72
4
73
8
0
VERTEX
8
OBJECT__21
10
0
20
0
30
0
70
128
71
13
72
14
73
15
0
VERTEX
8
OBJECT__21
10
0
20
0
30
0
70
128
71
15
72
16
73
13
0
VERTEX
8
OBJECT__21
10
0
20
0
30
0
70
128
71
14
72
17
73
15
0
VERTEX
8
OBJECT__21
10
0
20
0
30
0
70
128
71
13
72
12
73
14
0
VERTEX
8
OBJECT__21
10
0
20
0
30
0
70
128
71
9
72
14
73
12
0
VERTEX
8
OBJECT__21
10
0
20
0
30
0
70
128
71
2
72
7
73
4
0
VERTEX
8
OBJECT__21
10
0
20
0
30
0
70
128
71
3
72
18
73
1
0
SEQEND
8
OBJECT__21
0
POLYLINE
8
OBJECT__22
66
1
70
64
71
14
72
12
62
253
0
VERTEX
8
OBJECT__22
10
13.486000
20
-13.300000
30
12.670000
70
192
0
VERTEX
8
OBJECT__22
10
17.518000
20
-13.300000
30
8.187000
70
192
0
VERTEX
8
OBJECT__22
10
17.295000
20
-12.512000
30
10.803000
70
192
0
VERTEX
8
OBJECT__22
10
18.729000
20
-12.577000
30
9.137000
70
192
0
VERTEX
8
OBJECT__22
10
14.673000
20
-12.394000
30
13.852000
70
192
0
VERTEX
8
OBJECT__22
10
13.834000
20
-13.239000
30
13.017000
70
192
0
VERTEX
8
OBJECT__22
10
20.613001
20
-13.300000
30
2.960000
70
192
0
VERTEX
8
OBJECT__22
10
20.768000
20
-13.300000
30
2.482000
70
192
0
VERTEX
8
OBJECT__22
10
20.895000
20
-13.296000
30
2.495000
70
192
0
VERTEX
8
OBJECT__22
10
21.110001
20
-13.247000
30
2.923000
70
192
0
VERTEX
8
OBJECT__22
10
20.232000
20
-13.300000
30
3.904000
70
192
0
VERTEX
8
OBJECT__22
10
21.094999
20
-13.206000
30
3.133000
70
192
0
VERTEX
8
OBJECT__22
10
20.920000
20
-12.721000
30
5.662000
70
192
0
VERTEX
8
OBJECT__22
10
21.016001
20
-12.987000
30
4.275000
70
192
0
VERTEX
8
OBJECT__22
10
0
20
0
30
0
70
128
71
1
72
2
73
3
0
VERTEX
8
OBJECT__22
10
0
20
0
30
0
70
128
71
2
72
4
73
3
0
VERTEX
8
OBJECT__22
10
0
20
0
30
0
70
128
71
1
72
5
73
6
0
VERTEX
8
OBJECT__22
10
0
20
0
30
0
70
128
71
7
72
8
73
9
0
VERTEX
8
OBJECT__22
10
0
20
0
30
0
70
128
71
9
72
10
73
7
0
VERTEX
8
OBJECT__22
10
0
20
0
30
0
70
128
71
11
72
7
73
12
0
VERTEX
8
OBJECT__22
10
0
20
0
30
0
70
128
71
2
72
11
73
13
0
VERTEX
8
OBJECT__22
10
0
20
0
30
0
70
128
71
11
72
14
73
13
0
VERTEX
8
OBJECT__22
10
0
20
0
30
0
70
128
71
13
72
4
73
2
0
VERTEX
8
OBJECT__22
10
0
20
0
30
0
70
128
71
12
72
14
73
11
0
VERTEX
8
OBJECT__22
10
0
20
0
30
0
70
128
71
10
72
12
73
7
0
VERTEX
8
OBJECT__22
10
0
20
0
30
0
70
128
71
3
72
5
73
1
0
SEQEND
8
OBJECT__22
0
POLYLINE
8
OBJECT__23
66
1
70
64
71
14
72
12
62
253
0
VERTEX
8
OBJECT__23
10
13.834000
20
-13.239000
30
13.017000
70
192
0
VERTEX
8
OBJECT__23
10
14.673000
20
-12.394000
30
13.852000
70
192
0
VERTEX
8
OBJECT__23
10
13.630000
20
-12.398000
30
14.826000
70
192
0
VERTEX
8
OBJECT__23
10
9.334000
20
-12.448000
30
17.764000
70
192
0
VERTEX
8
OBJECT__23
10
9.480000
20
-13.300000
30
15.793000
70
192
0
VERTEX
8
OBJECT__23
10
13.486000
20
-13.300000
30
12.670000
70
192
0
VERTEX
8
OBJECT__23
10
6.989000
20
-13.300000
30
16.948999
70
192
0
VERTEX
8
OBJECT__23
10
7.664000
20
-12.484000
30
18.414000
70
192
0
VERTEX
8
OBJECT__23
10
4.052000
20
-12.563000
30
19.822001
70
192
0
VERTEX
8
OBJECT__23
10
4.801000
20
-13.300000
30
17.962999
70
192
0
VERTEX
8
OBJECT__23
10
-0.479000
20
-13.300000
30
19.143999
70
192
0
VERTEX
8
OBJECT__23
10
2.204000
20
-13.015000
30
19.746000
70
192
0
VERTEX
8
OBJECT__23
10
-0.002000
20
-13.167000
30
19.775999
70
192
0
VERTEX
8
OBJECT__23
10
-0.398000
20
-13.194000
30
19.781000
70
192
0
VERTEX
8
OBJECT__23
10
0
20
0
30
0
70
128
71
1
72
2
73
3
0
VERTEX
8
OBJECT__23
10
0
20
0
30
0
70
128
71
1
72
4
73
5
0
VERTEX
8
OBJECT__23
10
0
20
0
30
0
70
128
71
5
72
6
73
1
0
VERTEX
8
OBJECT__23
10
0
20
0
30
0
70
128
71
7
72
5
73
4
0
VERTEX
8
OBJECT__23
10
0
20
0
30
0
70
128
71
4
72
8
73
7
0
VERTEX
8
OBJECT__23
10
0
20
0
30
0
70
128
71
8
72
9
73
10
0
VERTEX
8
OBJECT__23
10
0
20
0
30
0
70
128
71
11
72
10
73
12
0
VERTEX
8
OBJECT__23
10
0
20
0
30
0
70
128
71
12
72
13
73
11
0
VERTEX
8
OBJECT__23
10
0
20
0
30
0
70
128
71
10
72
9
73
12
0
VERTEX
8
OBJECT__23
10
0
20
0
30
0
70
128
71
13
72
14
73
11
0
VERTEX
8
OBJECT__23
10
0
20
0
30
0
70
128
71
10
72
7
73
8
0
VERTEX
8
OBJECT__23
10
0
20
0
30
0
70
128
71
3
72
4
73
1
0
SEQEND
8
OBJECT__23
0
POLYLINE
8
OBJECT__24
66
1
70
64
71
7
72
5
62
253
0
VERTEX
8
OBJECT__24
10
-3.632000
20
-12.770000
30
20.247999
70
192
0
VERTEX
8
OBJECT__24
10
-0.894000
20
-13.293000
30
19.225000
70
192
0
VERTEX
8
OBJECT__24
10
-2.083000
20
-13.035000
30
20.143999
70
192
0
VERTEX
8
OBJECT__24
10
-3.535000
20
-12.718000
30
20.497000
70
192
0
VERTEX
8
OBJECT__24
10
-0.398000
20
-13.194000
30
19.781000
70
192
0
VERTEX
8
OBJECT__24
10
-0.479000
20
-13.300000
30
19.143999
70
192
0
VERTEX
8
OBJECT__24
10
-3.732000
20
-12.822000
30
19.995001
70
192
0
VERTEX
8
OBJECT__24
10
0
20
0
30
0
70
128
71
1
72
2
73
3
0
VERTEX
8
OBJECT__24
10
0
20
0
30
0
70
128
71
3
72
4
73
1
0
VERTEX
8
OBJECT__24
10
0
20
0
30
0
70
128
71
5
72
3
73
2
0
VERTEX
8
OBJECT__24
10
0
20
0
30
0
70
128
71
2
72
6
73
5
0
VERTEX
8
OBJECT__24
10
0
20
0
30
0
70
128
71
1
72
7
73
2
0
SEQEND
8
OBJECT__24
0
POLYLINE
8
OBJECT__25
66
1
70
64
71
9
72
8
62
253
0
VERTEX
8
OBJECT__25
10
-4.797000
20
-12.363000
30
20.608999
70
192
0
VERTEX
8
OBJECT__25
10
-4.811000
20
-12.317000
30
20.490000
70
192
0
VERTEX
8
OBJECT__25
10
-4.476000
20
-12.474000
30
20.336000
70
192
0
VERTEX
8
OBJECT__25
10
-3.632000
20
-12.770000
30
20.247999
70
192
0
VERTEX
8
OBJECT__25
10
-3.865000
20
-12.621000
30
20.573000
70
192
0
VERTEX
8
OBJECT__25
10
-3.535000
20
-12.718000
30
20.497000
70
192
0
VERTEX
8
OBJECT__25
10
-5.891000
20
-11.813000
30
20.985001
70
192
0
VERTEX
8
OBJECT__25
10
-4.717000
20
-12.281000
30
20.746000
70
192
0
VERTEX
8
OBJECT__25
10
-3.732000
20
-12.822000
30
19.995001
70
192
0
VERTEX
8
OBJECT__25
10
0
20
0
30
0
70
128
71
1
72
2
73
3
0
VERTEX
8
OBJECT__25
10
0
20
0
30
0
70
128
71
3
72
4
73
1
0
VERTEX
8
OBJECT__25
10
0
20
0
30
0
70
128
71
1
72
4
73
5
0
VERTEX
8
OBJECT__25
10
0
20
0
30
0
70
128
71
4
72
6
73
5
0
VERTEX
8
OBJECT__25
10
0
20
0
30
0
70
128
71
7
72
1
73
8
0
VERTEX
8
OBJECT__25
10
0
20
0
30
0
70
128
71
5
72
8
73
1
0
VERTEX
8
OBJECT__25
10
0
20
0
30
0
70
128
71
2
72
1
73
7
0
VERTEX
8
OBJECT__25
10
0
20
0
30
0
70
128
71
3
72
9
73
4
0
SEQEND
8
OBJECT__25
0
POLYLINE
8
OBJECT__26
66
1
70
64
71
39
72
37
62
253
0
VERTEX
8
OBJECT__26
10
-11.258000
20
-6.892000
30
26.131001
70
192
0
VERTEX
8
OBJECT__26
10
-13.200000
20
0.000000
30
26.131001
70
192
0
VERTEX
8
OBJECT__26
10
-11.981000
20
-5.541000
30
20.268000
70
192
0
VERTEX
8
OBJECT__26
10
-11.403000
20
-6.438000
30
20.447001
70
192
0
VERTEX
8
OBJECT__26
10
-13.200000
20
0.000000
30
18.450001
70
192
0
VERTEX
8
OBJECT__26
10
-13.128000
20
-1.376000
30
18.438999
70
192
0
VERTEX
8
OBJECT__26
10
-12.865000
20
-2.957000
30
19.103001
70
192
0
VERTEX
8
OBJECT__26
10
-7.646000
20
-10.760000
30
26.131001
70
192
0
VERTEX
8
OBJECT__26
10
-9.144000
20
-9.156000
30
26.131001
70
192
0
VERTEX
8
OBJECT__26
10
-8.452000
20
-9.965000
30
20.947001
70
192
0
VERTEX
8
OBJECT__26
10
-10.001000
20
-8.615000
30
20.879999
70
192
0
VERTEX
8
OBJECT__26
10
-7.600000
20
-10.707000
30
20.983000
70
192
0
VERTEX
8
OBJECT__26
10
-11.153000
20
-6.827000
30
20.524000
70
192
0
VERTEX
8
OBJECT__26
10
0.000000
20
-13.200000
30
26.131001
70
192
0
VERTEX
8
OBJECT__26
10
-2.083000
20
-13.035000
30
20.143999
70
192
0
VERTEX
8
OBJECT__26
10
-0.398000
20
-13.194000
30
19.781000
70
192
0
VERTEX
8
OBJECT__26
10
-3.535000
20
-12.718000
30
20.497000
70
192
0
VERTEX
8
OBJECT__26
10
-3.865000
20
-12.621000
30
20.573000
70
192
0
VERTEX
8
OBJECT__26
10
-5.891000
20
-11.813000
30
20.985001
70
192
0
VERTEX
8
OBJECT__26
10
-4.717000
20
-12.281000
30
20.746000
70
192
0
VERTEX
8
OBJECT__26
10
-7.168000
20
-11.084000
30
21.002001
70
192
0
VERTEX
8
OBJECT__26
10
7.997000
20
-10.502000
30
26.131001
70
192
0
VERTEX
8
OBJECT__26
10
4.052000
20
-12.563000
30
19.822001
70
192
0
VERTEX
8
OBJECT__26
10
5.667000
20
-11.922000
30
19.816999
70
192
0
VERTEX
8
OBJECT__26
10
-0.002000
20
-13.167000
30
19.775999
70
192
0
VERTEX
8
OBJECT__26
10
2.204000
20
-13.015000
30
19.746000
70
192
0
VERTEX
8
OBJECT__26
10
12.564000
20
-4.048000
30
26.131001
70
192
0
VERTEX
8
OBJECT__26
10
11.619000
20
-6.265000
30
19.857000
70
192
0
VERTEX
8
OBJECT__26
10
11.872000
20
-5.770000
30
19.856001
70
192
0
VERTEX
8
OBJECT__26
10
8.994000
20
-9.093000
30
26.131001
70
192
0
VERTEX
8
OBJECT__26
10
10.916000
20
-7.204000
30
19.855000
70
192
0
VERTEX
8
OBJECT__26
10
9.293000
20
-9.374000
30
19.851999
70
192
0
VERTEX
8
OBJECT__26
10
7.930000
20
-10.402000
30
19.839001
70
192
0
VERTEX
8
OBJECT__26
10
8.891000
20
-9.757000
30
19.849001
70
192
0
VERTEX
8
OBJECT__26
10
13.200000
20
0.000000
30
26.131001
70
192
0
VERTEX
8
OBJECT__26
10
13.037000
20
-2.066000
30
19.850000
70
192
0
VERTEX
8
OBJECT__26
10
12.427000
20
-4.005000
30
19.853001
70
192
0
VERTEX
8
OBJECT__26
10
13.113000
20
-1.516000
30
19.850000
70
192
0
VERTEX
8
OBJECT__26
10
13.200000
20
0.000000
30
19.850000
70
192
0
VERTEX
8
OBJECT__26
10
0
20
0
30
0
70
128
71
1
72
2
73
3
0
VERTEX
8
OBJECT__26
10
0
20
0
30
0
70
128
71
3
72
4
73
1
0
VERTEX
8
OBJECT__26
10
0
20
0
30
0
70
128
71
2
72
5
73
6
0
VERTEX
8
OBJECT__26
10
0
20
0
30
0
70
128
71
6
72
7
73
2
0
VERTEX
8
OBJECT__26
10
0
20
0
30
0
70
128
71
7
72
3
73
2
0
VERTEX
8
OBJECT__26
10
0
20
0
30
0
70
128
71
8
72
9
73
10
0
VERTEX
8
OBJECT__26
10
0
20
0
30
0
70
128
71
9
72
11
73
10
0
VERTEX
8
OBJECT__26
10
0
20
0
30
0
70
128
71
10
72
12
73
8
0
VERTEX
8
OBJECT__26
10
0
20
0
30
0
70
128
71
1
72
13
73
11
0
VERTEX
8
OBJECT__26
10
0
20
0
30
0
70
128
71
14
72
15
73
16
0
VERTEX
8
OBJECT__26
10
0
20
0
30
0
70
128
71
14
72
17
73
15
0
VERTEX
8
OBJECT__26
10
0
20
0
30
0
70
128
71
14
72
18
73
17
0
VERTEX
8
OBJECT__26
10
0
20
0
30
0
70
128
71
14
72
8
73
19
0
VERTEX
8
OBJECT__26
10
0
20
0
30
0
70
128
71
19
72
20
73
14
0
VERTEX
8
OBJECT__26
10
0
20
0
30
0
70
128
71
20
72
18
73
14
0
VERTEX
8
OBJECT__26
10
0
20
0
30
0
70
128
71
8
72
12
73
21
0
VERTEX
8
OBJECT__26
10
0
20
0
30
0
70
128
71
21
72
19
73
8
0
VERTEX
8
OBJECT__26
10
0
20
0
30
0
70
128
71
22
72
14
73
23
0
VERTEX
8
OBJECT__26
10
0
20
0
30
0
70
128
71
23
72
24
73
22
0
VERTEX
8
OBJECT__26
10
0
20
0
30
0
70
128
71
14
72
25
73
26
0
VERTEX
8
OBJECT__26
10
0
20
0
30
0
70
128
71
26
72
23
73
14
0
VERTEX
8
OBJECT__26
10
0
20
0
30
0
70
128
71
27
72
28
73
29
0
VERTEX
8
OBJECT__26
10
0
20
0
30
0
70
128
71
27
72
30
73
31
0
VERTEX
8
OBJECT__26
10
0
20
0
30
0
70
128
71
30
72
32
73
31
0
VERTEX
8
OBJECT__26
10
0
20
0
30
0
70
128
71
31
72
28
73
27
0
VERTEX
8
OBJECT__26
10
0
20
0
30
0
70
128
71
22
72
33
73
34
0
VERTEX
8
OBJECT__26
10
0
20
0
30
0
70
128
71
34
72
30
73
22
0
VERTEX
8
OBJECT__26
10
0
20
0
30
0
70
128
71
34
72
32
73
30
0
VERTEX
8
OBJECT__26
10
0
20
0
30
0
70
128
71
35
72
27
73
36
0
VERTEX
8
OBJECT__26
10
0
20
0
30
0
70
128
71
27
72
37
73
36
0
VERTEX
8
OBJECT__26
10
0
20
0
30
0
70
128
71
36
72
38
73
35
0
VERTEX
8
OBJECT__26
10
0
20
0
30
0
70
128
71
38
72
39
73
35
0
VERTEX
8
OBJECT__26
10
0
20
0
30
0
70
128
71
29
72
37
73
27
0
VERTEX
8
OBJECT__26
10
0
20
0
30
0
70
128
71
24
72
33
73
22
0
VERTEX
8
OBJECT__26
10
0
20
0
30
0
70
128
71
16
72
25
73
14
0
VERTEX
8
OBJECT__26
10
0
20
0
30
0
70
128
71
9
72
1
73
11
0
VERTEX
8
OBJECT__26
10
0
20
0
30
0
70
128
71
4
72
13
73
1
0
SEQEND
8
OBJECT__26
0
POLYLINE
8
OBJECT__27
66
1
70
64
71
34
72
32
62
253
0
VERTEX
8
OBJECT__27
10
-14.649000
20
-8.867000
30
9.152000
70
192
0
VERTEX
8
OBJECT__27
10
-11.403000
20
-6.438000
30
20.447001
70
192
0
VERTEX
8
OBJECT__27
10
-13.091000
20
-3.259000
30
18.198000
70
192
0
VERTEX
8
OBJECT__27
10
-15.499000
20
-6.480000
30
8.556000
70
192
0
VERTEX
8
OBJECT__27
10
-14.889000
20
-8.194000
30
8.984000
70
192
0
VERTEX
8
OBJECT__27
10
-11.981000
20
-5.541000
30
20.268000
70
192
0
VERTEX
8
OBJECT__27
10
-12.865000
20
-2.957000
30
19.103001
70
192
0
VERTEX
8
OBJECT__27
10
-12.830000
20
-11.188000
30
9.150000
70
192
0
VERTEX
8
OBJECT__27
10
-8.452000
20
-9.965000
30
20.947001
70
192
0
VERTEX
8
OBJECT__27
10
-10.001000
20
-8.615000
30
20.879999
70
192
0
VERTEX
8
OBJECT__27
10
-13.699000
20
-10.136000
30
9.177000
70
192
0
VERTEX
8
OBJECT__27
10
-11.153000
20
-6.827000
30
20.524000
70
192
0
VERTEX
8
OBJECT__27
10
-14.574000
20
-9.077000
30
9.204000
70
192
0
VERTEX
8
OBJECT__27
10
-4.476000
20
-12.474000
30
20.336000
70
192
0
VERTEX
8
OBJECT__27
10
-8.186000
20
-13.226000
30
8.129000
70
192
0
VERTEX
8
OBJECT__27
10
-8.185000
20
-13.226000
30
8.129000
70
192
0
VERTEX
8
OBJECT__27
10
-3.732000
20
-12.822000
30
19.995001
70
192
0
VERTEX
8
OBJECT__27
10
-8.177000
20
-13.227000
30
8.127000
70
192
0
VERTEX
8
OBJECT__27
10
-8.147000
20
-13.232000
30
8.119000
70
192
0
VERTEX
8
OBJECT__27
10
-8.679000
20
-13.149000
30
8.264000
70
192
0
VERTEX
8
OBJECT__27
10
-9.892000
20
-12.960000
30
8.594000
70
192
0
VERTEX
8
OBJECT__27
10
-9.860000
20
-12.965000
30
8.585000
70
192
0
VERTEX
8
OBJECT__27
10
-10.292000
20
-12.740000
30
8.675000
70
192
0
VERTEX
8
OBJECT__27
10
-7.742000
20
-13.295000
30
8.008000
70
192
0
VERTEX
8
OBJECT__27
10
-7.711000
20
-13.300000
30
8.000000
70
192
0
VERTEX
8
OBJECT__27
10
-8.028000
20
-13.251000
30
8.086000
70
192
0
VERTEX
8
OBJECT__27
10
-0.479000
20
-13.300000
30
19.143999
70
192
0
VERTEX
8
OBJECT__27
10
-0.894000
20
-13.293000
30
19.225000
70
192
0
VERTEX
8
OBJECT__27
10
-7.600000
20
-10.707000
30
20.983000
70
192
0
VERTEX
8
OBJECT__27
10
-7.168000
20
-11.084000
30
21.002001
70
192
0
VERTEX
8
OBJECT__27
10
-12.596000
20
-11.472000
30
9.142000
70
192
0
VERTEX
8
OBJECT__27
10
-12.098000
20
-11.746000
30
9.041000
70
192
0
VERTEX
8
OBJECT__27
10
-4.811000
20
-12.317000
30
20.490000
70
192
0
VERTEX
8
OBJECT__27
10
-5.891000
20
-11.813000
30
20.985001
70
192
0
VERTEX
8
OBJECT__27
10
0
20
0
30
0
70
128
71
1
72
2
73
3
0
VERTEX
8
OBJECT__27
10
0
20
0
30
0
70
128
71
3
72
4
73
5
0
VERTEX
8
OBJECT__27
10
0
20
0
30
0
70
128
71
3
72
2
73
6
0
VERTEX
8
OBJECT__27
10
0
20
0
30
0
70
128
71
6
72
7
73
3
0
VERTEX
8
OBJECT__27
10
0
20
0
30
0
70
128
71
8
72
9
73
10
0
VERTEX
8
OBJECT__27
10
0
20
0
30
0
70
128
71
11
72
12
73
2
0
VERTEX
8
OBJECT__27
10
0
20
0
30
0
70
128
71
11
72
10
73
12
0
VERTEX
8
OBJECT__27
10
0
20
0
30
0
70
128
71
2
72
13
73
11
0
VERTEX
8
OBJECT__27
10
0
20
0
30
0
70
128
71
2
72
1
73
13
0
VERTEX
8
OBJECT__27
10
0
20
0
30
0
70
128
71
14
72
15
73
16
0
VERTEX
8
OBJECT__27
10
0
20
0
30
0
70
128
71
16
72
17
73
14
0
VERTEX
8
OBJECT__27
10
0
20
0
30
0
70
128
71
16
72
18
73
17
0
VERTEX
8
OBJECT__27
10
0
20
0
30
0
70
128
71
18
72
19
73
17
0
VERTEX
8
OBJECT__27
10
0
20
0
30
0
70
128
71
14
72
20
73
15
0
VERTEX
8
OBJECT__27
10
0
20
0
30
0
70
128
71
14
72
21
73
22
0
VERTEX
8
OBJECT__27
10
0
20
0
30
0
70
128
71
22
72
20
73
14
0
VERTEX
8
OBJECT__27
10
0
20
0
30
0
70
128
71
14
72
23
73
21
0
VERTEX
8
OBJECT__27
10
0
20
0
30
0
70
128
71
17
72
24
73
25
0
VERTEX
8
OBJECT__27
10
0
20
0
30
0
70
128
71
17
72
26
73
24
0
VERTEX
8
OBJECT__27
10
0
20
0
30
0
70
128
71
17
72
19
73
26
0
VERTEX
8
OBJECT__27
10
0
20
0
30
0
70
128
71
25
72
27
73
28
0
VERTEX
8
OBJECT__27
10
0
20
0
30
0
70
128
71
25
72
28
73
17
0
VERTEX
8
OBJECT__27
10
0
20
0
30
0
70
128
71
23
72
29
73
9
0
VERTEX
8
OBJECT__27
10
0
20
0
30
0
70
128
71
23
72
30
73
29
0
VERTEX
8
OBJECT__27
10
0
20
0
30
0
70
128
71
9
72
31
73
32
0
VERTEX
8
OBJECT__27
10
0
20
0
30
0
70
128
71
23
72
33
73
34
0
VERTEX
8
OBJECT__27
10
0
20
0
30
0
70
128
71
23
72
14
73
33
0
VERTEX
8
OBJECT__27
10
0
20
0
30
0
70
128
71
34
72
30
73
23
0
VERTEX
8
OBJECT__27
10
0
20
0
30
0
70
128
71
9
72
8
73
31
0
VERTEX
8
OBJECT__27
10
0
20
0
30
0
70
128
71
9
72
32
73
23
0
VERTEX
8
OBJECT__27
10
0
20
0
30
0
70
128
71
10
72
11
73
8
0
VERTEX
8
OBJECT__27
10
0
20
0
30
0
70
128
71
3
72
5
73
1
0
SEQEND
8
OBJECT__27
0
POLYLINE
8
OBJECT__28
66
1
70
64
71
9
72
7
62
253
0
VERTEX
8
OBJECT__28
10
-13.091000
20
-3.259000
30
18.198000
70
192
0
VERTEX
8
OBJECT__28
10
-15.598000
20
-5.719000
30
8.342000
70
192
0
VERTEX
8
OBJECT__28
10
-15.563000
20
-6.101000
30
8.394000
70
192
0
VERTEX
8
OBJECT__28
10
-15.727000
20
-3.259000
30
8.358000
70
192
0
VERTEX
8
OBJECT__28
10
-15.898000
20
0.000000
30
8.381000
70
192
0
VERTEX
8
OBJECT__28
10
-13.128000
20
-1.376000
30
18.438999
70
192
0
VERTEX
8
OBJECT__28
10
-12.865000
20
-2.957000
30
19.103001
70
192
0
VERTEX
8
OBJECT__28
10
-13.200000
20
0.000000
30
18.450001
70
192
0
VERTEX
8
OBJECT__28
10
-15.499000
20
-6.480000
30
8.556000
70
192
0
VERTEX
8
OBJECT__28
10
0
20
0
30
0
70
128
71
1
72
2
73
3
0
VERTEX
8
OBJECT__28
10
0
20
0
30
0
70
128
71
1
72
4
73
2
0
VERTEX
8
OBJECT__28
10
0
20
0
30
0
70
128
71
5
72
4
73
6
0
VERTEX
8
OBJECT__28
10
0
20
0
30
0
70
128
71
6
72
4
73
1
0
VERTEX
8
OBJECT__28
10
0
20
0
30
0
70
128
71
1
72
7
73
6
0
VERTEX
8
OBJECT__28
10
0
20
0
30
0
70
128
71
6
72
8
73
5
0
VERTEX
8
OBJECT__28
10
0
20
0
30
0
70
128
71
3
72
9
73
1
0
SEQEND
8
OBJECT__28
0
POLYLINE
8
OBJECT__29
66
1
70
64
71
6
72
4
62
253
0
VERTEX
8
OBJECT__29
10
-15.542000
20
-6.937000
30
7.781000
70
192
0
VERTEX
8
OBJECT__29
10
-15.499000
20
-6.480000
30
8.556000
70
192
0
VERTEX
8
OBJECT__29
10
-15.563000
20
-6.101000
30
8.394000
70
192
0
VERTEX
8
OBJECT__29
10
-15.700000
20
-5.719000
30
7.566000
70
192
0
VERTEX
8
OBJECT__29
10
-15.622000
20
-6.318000
30
7.672000
70
192
0
VERTEX
8
OBJECT__29
10
-15.598000
20
-5.719000
30
8.342000
70
192
0
VERTEX
8
OBJECT__29
10
0
20
0
30
0
70
128
71
1
72
2
73
3
0
VERTEX
8
OBJECT__29
10
0
20
0
30
0
70
128
71
4
72
5
73
3
0
VERTEX
8
OBJECT__29
10
0
20
0
30
0
70
128
71
3
72
6
73
4
0
VERTEX
8
OBJECT__29
10
0
20
0
30
0
70
128
71
3
72
5
73
1
0
SEQEND
8
OBJECT__29
0
POLYLINE
8
OBJECT__30
66
1
70
64
71
35
72
33
62
253
0
VERTEX
8
OBJECT__30
10
-15.499000
20
-6.480000
30
8.556000
70
192
0
VERTEX
8
OBJECT__30
10
-15.542000
20
-6.937000
30
7.781000
70
192
0
VERTEX
8
OBJECT__30
10
-15.220000
20
-8.059000
30
8.070000
70
192
0
VERTEX
8
OBJECT__30
10
-14.889000
20
-8.194000
30
8.984000
70
192
0
VERTEX
8
OBJECT__30
10
-13.837000
20
-10.307000
30
8.249000
70
192
0
VERTEX
8
OBJECT__30
10
-13.699000
20
-10.136000
30
9.177000
70
192
0
VERTEX
8
OBJECT__30
10
-14.574000
20
-9.077000
30
9.204000
70
192
0
VERTEX
8
OBJECT__30
10
-15.000000
20
-8.417000
30
8.098000
70
192
0
VERTEX
8
OBJECT__30
10
-14.649000
20
-8.867000
30
9.152000
70
192
0
VERTEX
8
OBJECT__30
10
-12.830000
20
-11.188000
30
9.150000
70
192
0
VERTEX
8
OBJECT__30
10
-13.558000
20
-10.760000
30
8.285000
70
192
0
VERTEX
8
OBJECT__30
10
-12.139000
20
-11.757000
30
8.234000
70
192
0
VERTEX
8
OBJECT__30
10
-12.098000
20
-11.746000
30
9.041000
70
192
0
VERTEX
8
OBJECT__30
10
-12.596000
20
-11.472000
30
9.142000
70
192
0
VERTEX
8
OBJECT__30
10
-13.169000
20
-11.033000
30
8.271000
70
192
0
VERTEX
8
OBJECT__30
10
-10.864000
20
-12.653000
30
8.188000
70
192
0
VERTEX
8
OBJECT__30
10
-9.882000
20
-12.854000
30
8.130000
70
192
0
VERTEX
8
OBJECT__30
10
-9.892000
20
-12.960000
30
8.594000
70
192
0
VERTEX
8
OBJECT__30
10
-10.292000
20
-12.740000
30
8.675000
70
192
0
VERTEX
8
OBJECT__30
10
-9.860000
20
-12.965000
30
8.585000
70
192
0
VERTEX
8
OBJECT__30
10
-8.682000
20
-13.101000
30
8.058000
70
192
0
VERTEX
8
OBJECT__30
10
-8.679000
20
-13.149000
30
8.264000
70
192
0
VERTEX
8
OBJECT__30
10
-8.187000
20
-13.202000
30
8.028000
70
192
0
VERTEX
8
OBJECT__30
10
-8.187000
20
-13.226000
30
8.130000
70
192
0
VERTEX
8
OBJECT__30
10
-8.185000
20
-13.203000
30
8.028000
70
192
0
VERTEX
8
OBJECT__30
10
-8.185000
20
-13.226000
30
8.129000
70
192
0
VERTEX
8
OBJECT__30
10
-8.177000
20
-13.204000
30
8.028000
70
192
0
VERTEX
8
OBJECT__30
10
-8.177000
20
-13.227000
30
8.127000
70
192
0
VERTEX
8
OBJECT__30
10
-8.147000
20
-13.210000
30
8.026000
70
192
0
VERTEX
8
OBJECT__30
10
-8.147000
20
-13.232000
30
8.119000
70
192
0
VERTEX
8
OBJECT__30
10
-8.028000
20
-13.235000
30
8.019000
70
192
0
VERTEX
8
OBJECT__30
10
-8.028000
20
-13.251000
30
8.086000
70
192
0
VERTEX
8
OBJECT__30
10
-7.742000
20
-13.294000
30
8.002000
70
192
0
VERTEX
8
OBJECT__30
10
-7.742000
20
-13.295000
30
8.008000
70
192
0
VERTEX
8
OBJECT__30
10
-7.711000
20
-13.300000
30
8.000000
70
192
0
VERTEX
8
OBJECT__30
10
0
20
0
30
0
70
128
71
1
72
2
73
3
0
VERTEX
8
OBJECT__30
10
0
20
0
30
0
70
128
71
3
72
4
73
1
0
VERTEX
8
OBJECT__30
10
0
20
0
30
0
70
128
71
5
72
6
73
7
0
VERTEX
8
OBJECT__30
10
0
20
0
30
0
70
128
71
7
72
8
73
5
0
VERTEX
8
OBJECT__30
10
0
20
0
30
0
70
128
71
7
72
9
73
8
0
VERTEX
8
OBJECT__30
10
0
20
0
30
0
70
128
71
10
72
6
73
11
0
VERTEX
8
OBJECT__30
10
0
20
0
30
0
70
128
71
12
72
13
73
14
0
VERTEX
8
OBJECT__30
10
0
20
0
30
0
70
128
71
14
72
15
73
12
0
VERTEX
8
OBJECT__30
10
0
20
0
30
0
70
128
71
14
72
10
73
15
0
VERTEX
8
OBJECT__30
10
0
20
0
30
0
70
128
71
6
72
5
73
11
0
VERTEX
8
OBJECT__30
10
0
20
0
30
0
70
128
71
13
72
12
73
16
0
VERTEX
8
OBJECT__30
10
0
20
0
30
0
70
128
71
17
72
18
73
19
0
VERTEX
8
OBJECT__30
10
0
20
0
30
0
70
128
71
17
72
20
73
18
0
VERTEX
8
OBJECT__30
10
0
20
0
30
0
70
128
71
19
72
16
73
17
0
VERTEX
8
OBJECT__30
10
0
20
0
30
0
70
128
71
17
72
21
73
22
0
VERTEX
8
OBJECT__30
10
0
20
0
30
0
70
128
71
21
72
23
73
24
0
VERTEX
8
OBJECT__30
10
0
20
0
30
0
70
128
71
23
72
25
73
26
0
VERTEX
8
OBJECT__30
10
0
20
0
30
0
70
128
71
25
72
27
73
28
0
VERTEX
8
OBJECT__30
10
0
20
0
30
0
70
128
71
27
72
29
73
30
0
VERTEX
8
OBJECT__30
10
0
20
0
30
0
70
128
71
29
72
31
73
32
0
VERTEX
8
OBJECT__30
10
0
20
0
30
0
70
128
71
31
72
33
73
34
0
VERTEX
8
OBJECT__30
10
0
20
0
30
0
70
128
71
34
72
33
73
35
0
VERTEX
8
OBJECT__30
10
0
20
0
30
0
70
128
71
34
72
32
73
31
0
VERTEX
8
OBJECT__30
10
0
20
0
30
0
70
128
71
32
72
30
73
29
0
VERTEX
8
OBJECT__30
10
0
20
0
30
0
70
128
71
30
72
28
73
27
0
VERTEX
8
OBJECT__30
10
0
20
0
30
0
70
128
71
28
72
26
73
25
0
VERTEX
8
OBJECT__30
10
0
20
0
30
0
70
128
71
26
72
24
73
23
0
VERTEX
8
OBJECT__30
10
0
20
0
30
0
70
128
71
24
72
22
73
21
0
VERTEX
8
OBJECT__30
10
0
20
0
30
0
70
128
71
22
72
20
73
17
0
VERTEX
8
OBJECT__30
10
0
20
0
30
0
70
128
71
16
72
19
73
13
0
VERTEX
8
OBJECT__30
10
0
20
0
30
0
70
128
71
11
72
15
73
10
0
VERTEX
8
OBJECT__30
10
0
20
0
30
0
70
128
71
9
72
4
73
8
0
VERTEX
8
OBJECT__30
10
0
20
0
30
0
70
128
71
3
72
8
73
4
0
SEQEND
8
OBJECT__30
0
POLYLINE
8
OBJECT__31
66
1
70
64
71
10
72
8
62
253
0
VERTEX
8
OBJECT__31
10
-13.091000
20
3.259000
30
18.198000
70
192
0
VERTEX
8
OBJECT__31
10
-15.551000
20
6.085000
30
8.445000
70
192
0
VERTEX
8
OBJECT__31
10
-15.598000
20
5.719000
30
8.342000
70
192
0
VERTEX
8
OBJECT__31
10
-15.499000
20
6.480000
30
8.556000
70
192
0
VERTEX
8
OBJECT__31
10
-13.128000
20
1.376000
30
18.438999
70
192
0
VERTEX
8
OBJECT__31
10
-12.879000
20
2.893000
30
19.061001
70
192
0
VERTEX
8
OBJECT__31
10
-15.727000
20
3.259000
30
8.358000
70
192
0
VERTEX
8
OBJECT__31
10
-15.898000
20
0.000000
30
8.381000
70
192
0
VERTEX
8
OBJECT__31
10
-13.200000
20
0.000000
30
18.450001
70
192
0
VERTEX
8
OBJECT__31
10
-12.865000
20
2.957000
30
19.103001
70
192
0
VERTEX
8
OBJECT__31
10
0
20
0
30
0
70
128
71
1
72
2
73
3
0
VERTEX
8
OBJECT__31
10
0
20
0
30
0
70
128
71
1
72
4
73
2
0
VERTEX
8
OBJECT__31
10
0
20
0
30
0
70
128
71
5
72
6
73
1
0
VERTEX
8
OBJECT__31
10
0
20
0
30
0
70
128
71
1
72
7
73
5
0
VERTEX
8
OBJECT__31
10
0
20
0
30
0
70
128
71
8
72
9
73
5
0
VERTEX
8
OBJECT__31
10
0
20
0
30
0
70
128
71
5
72
7
73
8
0
VERTEX
8
OBJECT__31
10
0
20
0
30
0
70
128
71
6
72
10
73
1
0
VERTEX
8
OBJECT__31
10
0
20
0
30
0
70
128
71
3
72
7
73
1
0
SEQEND
8
OBJECT__31
0
POLYLINE
8
OBJECT__32
66
1
70
64
71
6
72
4
62
253
0
VERTEX
8
OBJECT__32
10
-15.645000
20
6.331000
30
7.619000
70
192
0
VERTEX
8
OBJECT__32
10
-15.700000
20
5.719000
30
7.566000
70
192
0
VERTEX
8
OBJECT__32
10
-15.598000
20
5.719000
30
8.342000
70
192
0
VERTEX
8
OBJECT__32
10
-15.551000
20
6.085000
30
8.445000
70
192
0
VERTEX
8
OBJECT__32
10
-15.499000
20
6.480000
30
8.556000
70
192
0
VERTEX
8
OBJECT__32
10
-15.542000
20
6.937000
30
7.781000
70
192
0
VERTEX
8
OBJECT__32
10
0
20
0
30
0
70
128
71
1
72
2
73
3
0
VERTEX
8
OBJECT__32
10
0
20
0
30
0
70
128
71
1
72
4
73
5
0
VERTEX
8
OBJECT__32
10
0
20
0
30
0
70
128
71
5
72
6
73
1
0
VERTEX
8
OBJECT__32
10
0
20
0
30
0
70
128
71
3
72
4
73
1
0
SEQEND
8
OBJECT__32
0
POLYLINE
8
OBJECT__33
66
1
70
64
71
29
72
27
62
253
0
VERTEX
8
OBJECT__33
10
-14.994000
20
8.208000
30
9.081000
70
192
0
VERTEX
8
OBJECT__33
10
-15.064000
20
8.453000
30
8.133000
70
192
0
VERTEX
8
OBJECT__33
10
-15.542000
20
6.937000
30
7.781000
70
192
0
VERTEX
8
OBJECT__33
10
-13.915000
20
10.352000
30
8.280000
70
192
0
VERTEX
8
OBJECT__33
10
-14.622000
20
8.840000
30
9.134000
70
192
0
VERTEX
8
OBJECT__33
10
-12.237000
20
11.897000
30
8.256000
70
192
0
VERTEX
8
OBJECT__33
10
-13.163000
20
11.044000
30
8.269000
70
192
0
VERTEX
8
OBJECT__33
10
-12.824000
20
11.169000
30
9.145000
70
192
0
VERTEX
8
OBJECT__33
10
-13.807000
20
10.227000
30
9.252000
70
192
0
VERTEX
8
OBJECT__33
10
-12.137000
20
11.828000
30
9.071000
70
192
0
VERTEX
8
OBJECT__33
10
-10.299000
20
12.750000
30
8.680000
70
192
0
VERTEX
8
OBJECT__33
10
-9.910000
20
12.992000
30
8.133000
70
192
0
VERTEX
8
OBJECT__33
10
-9.860000
20
12.970000
30
8.586000
70
192
0
VERTEX
8
OBJECT__33
10
-8.688000
20
13.232000
30
8.279000
70
192
0
VERTEX
8
OBJECT__33
10
-8.710000
20
13.237000
30
8.060000
70
192
0
VERTEX
8
OBJECT__33
10
-8.193000
20
13.283000
30
8.140000
70
192
0
VERTEX
8
OBJECT__33
10
-8.204000
20
13.285000
30
8.030000
70
192
0
VERTEX
8
OBJECT__33
10
-8.191000
20
13.284000
30
8.139000
70
192
0
VERTEX
8
OBJECT__33
10
-8.201000
20
13.285000
30
8.029000
70
192
0
VERTEX
8
OBJECT__33
10
-8.183000
20
13.284000
30
8.137000
70
192
0
VERTEX
8
OBJECT__33
10
-8.194000
20
13.285000
30
8.029000
70
192
0
VERTEX
8
OBJECT__33
10
-8.153000
20
13.286000
30
8.129000
70
192
0
VERTEX
8
OBJECT__33
10
-8.163000
20
13.287000
30
8.027000
70
192
0
VERTEX
8
OBJECT__33
10
-8.033000
20
13.293000
30
8.094000
70
192
0
VERTEX
8
OBJECT__33
10
-8.040000
20
13.293000
30
8.020000
70
192
0
VERTEX
8
OBJECT__33
10
-7.743000
20
13.300000
30
8.009000
70
192
0
VERTEX
8
OBJECT__33
10
-7.743000
20
13.300000
30
8.002000
70
192
0
VERTEX
8
OBJECT__33
10
-7.711000
20
13.300000
30
8.000000
70
192
0
VERTEX
8
OBJECT__33
10
-15.499000
20
6.480000
30
8.556000
70
192
0
VERTEX
8
OBJECT__33
10
0
20
0
30
0
70
128
71
1
72
2
73
3
0
VERTEX
8
OBJECT__33
10
0
20
0
30
0
70
128
71
4
72
2
73
5
0
VERTEX
8
OBJECT__33
10
0
20
0
30
0
70
128
71
2
72
1
73
5
0
VERTEX
8
OBJECT__33
10
0
20
0
30
0
70
128
71
6
72
7
73
8
0
VERTEX
8
OBJECT__33
10
0
20
0
30
0
70
128
71
9
72
8
73
7
0
VERTEX
8
OBJECT__33
10
0
20
0
30
0
70
128
71
7
72
4
73
9
0
VERTEX
8
OBJECT__33
10
0
20
0
30
0
70
128
71
6
72
10
73
11
0
VERTEX
8
OBJECT__33
10
0
20
0
30
0
70
128
71
11
72
12
73
6
0
VERTEX
8
OBJECT__33
10
0
20
0
30
0
70
128
71
12
72
13
73
14
0
VERTEX
8
OBJECT__33
10
0
20
0
30
0
70
128
71
15
72
14
73
16
0
VERTEX
8
OBJECT__33
10
0
20
0
30
0
70
128
71
17
72
16
73
18
0
VERTEX
8
OBJECT__33
10
0
20
0
30
0
70
128
71
19
72
18
73
20
0
VERTEX
8
OBJECT__33
10
0
20
0
30
0
70
128
71
21
72
20
73
22
0
VERTEX
8
OBJECT__33
10
0
20
0
30
0
70
128
71
23
72
22
73
24
0
VERTEX
8
OBJECT__33
10
0
20
0
30
0
70
128
71
25
72
24
73
26
0
VERTEX
8
OBJECT__33
10
0
20
0
30
0
70
128
71
27
72
26
73
28
0
VERTEX
8
OBJECT__33
10
0
20
0
30
0
70
128
71
26
72
27
73
25
0
VERTEX
8
OBJECT__33
10
0
20
0
30
0
70
128
71
24
72
25
73
23
0
VERTEX
8
OBJECT__33
10
0
20
0
30
0
70
128
71
22
72
23
73
21
0
VERTEX
8
OBJECT__33
10
0
20
0
30
0
70
128
71
20
72
21
73
19
0
VERTEX
8
OBJECT__33
10
0
20
0
30
0
70
128
71
18
72
19
73
17
0
VERTEX
8
OBJECT__33
10
0
20
0
30
0
70
128
71
16
72
17
73
15
0
VERTEX
8
OBJECT__33
10
0
20
0
30
0
70
128
71
14
72
15
73
12
0
VERTEX
8
OBJECT__33
10
0
20
0
30
0
70
128
71
11
72
13
73
12
0
VERTEX
8
OBJECT__33
10
0
20
0
30
0
70
128
71
8
72
10
73
6
0
VERTEX
8
OBJECT__33
10
0
20
0
30
0
70
128
71
5
72
9
73
4
0
VERTEX
8
OBJECT__33
10
0
20
0
30
0
70
128
71
3
72
29
73
1
0
SEQEND
8
OBJECT__33
0
POLYLINE
8
OBJECT__34
66
1
70
64
71
5
72
3
62
253
0
VERTEX
8
OBJECT__34
10
-16.000000
20
0.000000
30
7.606000
70
192
0
VERTEX
8
OBJECT__34
10
-15.898000
20
0.000000
30
8.381000
70
192
0
VERTEX
8
OBJECT__34
10
-15.727000
20
3.259000
30
8.358000
70
192
0
VERTEX
8
OBJECT__34
10
-15.700000
20
5.719000
30
7.566000
70
192
0
VERTEX
8
OBJECT__34
10
-15.598000
20
5.719000
30
8.342000
70
192
0
VERTEX
8
OBJECT__34
10
0
20
0
30
0
70
128
71
1
72
2
73
3
0
VERTEX
8
OBJECT__34
10
0
20
0
30
0
70
128
71
3
72
4
73
1
0
VERTEX
8
OBJECT__34
10
0
20
0
30
0
70
128
71
3
72
5
73
4
0
SEQEND
8
OBJECT__34
0
POLYLINE
8
OBJECT__35
66
1
70
64
71
5
72
3
62
253
0
VERTEX
8
OBJECT__35
10
-16.000000
20
0.000000
30
7.606000
70
192
0
VERTEX
8
OBJECT__35
10
-15.700000
20
-5.719000
30
7.566000
70
192
0
VERTEX
8
OBJECT__35
10
-15.727000
20
-3.259000
30
8.358000
70
192
0
VERTEX
8
OBJECT__35
10
-15.598000
20
-5.719000
30
8.342000
70
192
0
VERTEX
8
OBJECT__35
10
-15.898000
20
0.000000
30
8.381000
70
192
0
VERTEX
8
OBJECT__35
10
0
20
0
30
0
70
128
71
1
72
2
73
3
0
VERTEX
8
OBJECT__35
10
0
20
0
30
0
70
128
71
2
72
4
73
3
0
VERTEX
8
OBJECT__35
10
0
20
0
30
0
70
128
71
3
72
5
73
1
0
SEQEND
8
OBJECT__35
0
POLYLINE
8
OBJECT__36
66
1
70
64
71
4
72
2
62
253
0
VERTEX
8
OBJECT__36
10
-16.000000
20
0.000000
30
-7.606000
70
192
0
VERTEX
8
OBJECT__36
10
-16.000000
20
0.000000
30
7.606000
70
192
0
VERTEX
8
OBJECT__36
10
-15.700000
20
5.719000
30
7.566000
70
192
0
VERTEX
8
OBJECT__36
10
-15.700000
20
5.719000
30
-7.566000
70
192
0
VERTEX
8
OBJECT__36
10
0
20
0
30
0
70
128
71
1
72
2
73
3
0
VERTEX
8
OBJECT__36
10
0
20
0
30
0
70
128
71
3
72
4
73
1
0
SEQEND
8
OBJECT__36
0
POLYLINE
8
OBJECT__37
66
1
70
64
71
4
72
2
62
253
0
VERTEX
8
OBJECT__37
10
-16.000000
20
0.000000
30
7.606000
70
192
0
VERTEX
8
OBJECT__37
10
-16.000000
20
0.000000
30
-7.606000
70
192
0
VERTEX
8
OBJECT__37
10
-15.700000
20
-5.719000
30
-7.566000
70
192
0
VERTEX
8
OBJECT__37
10
-15.700000
20
-5.719000
30
7.566000
70
192
0
VERTEX
8
OBJECT__37
10
0
20
0
30
0
70
128
71
1
72
2
73
3
0
VERTEX
8
OBJECT__37
10
0
20
0
30
0
70
128
71
3
72
4
73
1
0
SEQEND
8
OBJECT__37
0
POLYLINE
8
OBJECT__38
66
1
70
64
71
35
72
33
62
253
0
VERTEX
8
OBJECT__38
10
-13.837000
20
10.307000
30
-8.249000
70
192
0
VERTEX
8
OBJECT__38
10
-15.542000
20
6.937000
30
7.781000
70
192
0
VERTEX
8
OBJECT__38
10
-15.064000
20
8.453000
30
8.133000
70
192
0
VERTEX
8
OBJECT__38
10
-13.915000
20
10.352000
30
8.280000
70
192
0
VERTEX
8
OBJECT__38
10
-15.000000
20
8.417000
30
-8.098000
70
192
0
VERTEX
8
OBJECT__38
10
-15.645000
20
6.331000
30
7.619000
70
192
0
VERTEX
8
OBJECT__38
10
-13.163000
20
11.044000
30
8.269000
70
192
0
VERTEX
8
OBJECT__38
10
-13.169000
20
11.033000
30
-8.271000
70
192
0
VERTEX
8
OBJECT__38
10
-13.558000
20
10.760000
30
-8.285000
70
192
0
VERTEX
8
OBJECT__38
10
-15.622000
20
6.318000
30
-7.672000
70
192
0
VERTEX
8
OBJECT__38
10
-15.700000
20
5.719000
30
-7.566000
70
192
0
VERTEX
8
OBJECT__38
10
-15.542000
20
6.937000
30
-7.781000
70
192
0
VERTEX
8
OBJECT__38
10
-15.220000
20
8.059000
30
-8.070000
70
192
0
VERTEX
8
OBJECT__38
10
-15.700000
20
5.719000
30
7.566000
70
192
0
VERTEX
8
OBJECT__38
10
-7.743000
20
13.300000
30
8.002000
70
192
0
VERTEX
8
OBJECT__38
10
-8.185000
20
13.203000
30
-8.028000
70
192
0
VERTEX
8
OBJECT__38
10
-8.186000
20
13.202000
30
-8.028000
70
192
0
VERTEX
8
OBJECT__38
10
-7.742000
20
13.294000
30
-8.002000
70
192
0
VERTEX
8
OBJECT__38
10
-8.028000
20
13.235000
30
-8.019000
70
192
0
VERTEX
8
OBJECT__38
10
-8.147000
20
13.210000
30
-8.026000
70
192
0
VERTEX
8
OBJECT__38
10
-8.177000
20
13.204000
30
-8.028000
70
192
0
VERTEX
8
OBJECT__38
10
-7.711000
20
13.300000
30
8.000000
70
192
0
VERTEX
8
OBJECT__38
10
-7.711000
20
13.300000
30
-8.000000
70
192
0
VERTEX
8
OBJECT__38
10
-8.682000
20
13.101000
30
-8.058000
70
192
0
VERTEX
8
OBJECT__38
10
-8.163000
20
13.287000
30
8.027000
70
192
0
VERTEX
8
OBJECT__38
10
-8.040000
20
13.293000
30
8.020000
70
192
0
VERTEX
8
OBJECT__38
10
-8.194000
20
13.285000
30
8.029000
70
192
0
VERTEX
8
OBJECT__38
10
-8.203000
20
13.285000
30
8.030000
70
192
0
VERTEX
8
OBJECT__38
10
-8.201000
20
13.285000
30
8.029000
70
192
0
VERTEX
8
OBJECT__38
10
-12.237000
20
11.897000
30
8.256000
70
192
0
VERTEX
8
OBJECT__38
10
-12.139000
20
11.757000
30
-8.234000
70
192
0
VERTEX
8
OBJECT__38
10
-9.910000
20
12.992000
30
8.133000
70
192
0
VERTEX
8
OBJECT__38
10
-9.882000
20
12.854000
30
-8.130000
70
192
0
VERTEX
8
OBJECT__38
10
-10.864000
20
12.653000
30
-8.188000
70
192
0
VERTEX
8
OBJECT__38
10
-8.710000
20
13.237000
30
8.060000
70
192
0
VERTEX
8
OBJECT__38
10
0
20
0
30
0
70
128
71
1
72
2
73
3
0
VERTEX
8
OBJECT__38
10
0
20
0
30
0
70
128
71
3
72
4
73
1
0
VERTEX
8
OBJECT__38
10
0
20
0
30
0
70
128
71
2
72
1
73
5
0
VERTEX
8
OBJECT__38
10
0
20
0
30
0
70
128
71
5
72
6
73
2
0
VERTEX
8
OBJECT__38
10
0
20
0
30
0
70
128
71
7
72
8
73
9
0
VERTEX
8
OBJECT__38
10
0
20
0
30
0
70
128
71
9
72
1
73
7
0
VERTEX
8
OBJECT__38
10
0
20
0
30
0
70
128
71
6
72
10
73
11
0
VERTEX
8
OBJECT__38
10
0
20
0
30
0
70
128
71
6
72
12
73
10
0
VERTEX
8
OBJECT__38
10
0
20
0
30
0
70
128
71
6
72
5
73
13
0
VERTEX
8
OBJECT__38
10
0
20
0
30
0
70
128
71
13
72
12
73
6
0
VERTEX
8
OBJECT__38
10
0
20
0
30
0
70
128
71
11
72
14
73
6
0
VERTEX
8
OBJECT__38
10
0
20
0
30
0
70
128
71
15
72
16
73
17
0
VERTEX
8
OBJECT__38
10
0
20
0
30
0
70
128
71
15
72
18
73
19
0
VERTEX
8
OBJECT__38
10
0
20
0
30
0
70
128
71
19
72
20
73
15
0
VERTEX
8
OBJECT__38
10
0
20
0
30
0
70
128
71
20
72
21
73
15
0
VERTEX
8
OBJECT__38
10
0
20
0
30
0
70
128
71
18
72
15
73
22
0
VERTEX
8
OBJECT__38
10
0
20
0
30
0
70
128
71
22
72
23
73
18
0
VERTEX
8
OBJECT__38
10
0
20
0
30
0
70
128
71
21
72
16
73
15
0
VERTEX
8
OBJECT__38
10
0
20
0
30
0
70
128
71
24
72
25
73
26
0
VERTEX
8
OBJECT__38
10
0
20
0
30
0
70
128
71
24
72
27
73
25
0
VERTEX
8
OBJECT__38
10
0
20
0
30
0
70
128
71
24
72
28
73
29
0
VERTEX
8
OBJECT__38
10
0
20
0
30
0
70
128
71
29
72
27
73
24
0
VERTEX
8
OBJECT__38
10
0
20
0
30
0
70
128
71
7
72
30
73
31
0
VERTEX
8
OBJECT__38
10
0
20
0
30
0
70
128
71
30
72
32
73
33
0
VERTEX
8
OBJECT__38
10
0
20
0
30
0
70
128
71
33
72
34
73
30
0
VERTEX
8
OBJECT__38
10
0
20
0
30
0
70
128
71
35
72
28
73
24
0
VERTEX
8
OBJECT__38
10
0
20
0
30
0
70
128
71
33
72
32
73
35
0
VERTEX
8
OBJECT__38
10
0
20
0
30
0
70
128
71
24
72
33
73
35
0
VERTEX
8
OBJECT__38
10
0
20
0
30
0
70
128
71
34
72
31
73
30
0
VERTEX
8
OBJECT__38
10
0
20
0
30
0
70
128
71
31
72
8
73
7
0
VERTEX
8
OBJECT__38
10
0
20
0
30
0
70
128
71
26
72
15
73
24
0
VERTEX
8
OBJECT__38
10
0
20
0
30
0
70
128
71
17
72
24
73
15
0
VERTEX
8
OBJECT__38
10
0
20
0
30
0
70
128
71
4
72
7
73
1
0
SEQEND
8
OBJECT__38
0
POLYLINE
8
OBJECT__39
66
1
70
64
71
6
72
4
62
253
0
VERTEX
8
OBJECT__39
10
-15.542000
20
6.937000
30
-7.781000
70
192
0
VERTEX
8
OBJECT__39
10
-15.499000
20
6.480000
30
-8.556000
70
192
0
VERTEX
8
OBJECT__39
10
-15.563000
20
6.101000
30
-8.394000
70
192
0
VERTEX
8
OBJECT__39
10
-15.700000
20
5.719000
30
-7.566000
70
192
0
VERTEX
8
OBJECT__39
10
-15.622000
20
6.318000
30
-7.672000
70
192
0
VERTEX
8
OBJECT__39
10
-15.598000
20
5.719000
30
-8.342000
70
192
0
VERTEX
8
OBJECT__39
10
0
20
0
30
0
70
128
71
1
72
2
73
3
0
VERTEX
8
OBJECT__39
10
0
20
0
30
0
70
128
71
4
72
5
73
3
0
VERTEX
8
OBJECT__39
10
0
20
0
30
0
70
128
71
3
72
6
73
4
0
VERTEX
8
OBJECT__39
10
0
20
0
30
0
70
128
71
3
72
5
73
1
0
SEQEND
8
OBJECT__39
0
POLYLINE
8
OBJECT__40
66
1
70
64
71
5
72
3
62
253
0
VERTEX
8
OBJECT__40
10
-16.000000
20
0.000000
30
-7.606000
70
192
0
VERTEX
8
OBJECT__40
10
-15.700000
20
5.719000
30
-7.566000
70
192
0
VERTEX
8
OBJECT__40
10
-15.727000
20
3.259000
30
-8.358000
70
192
0
VERTEX
8
OBJECT__40
10
-15.598000
20
5.719000
30
-8.342000
70
192
0
VERTEX
8
OBJECT__40
10
-15.898000
20
0.000000
30
-8.381000
70
192
0
VERTEX
8
OBJECT__40
10
0
20
0
30
0
70
128
71
1
72
2
73
3
0
VERTEX
8
OBJECT__40
10
0
20
0
30
0
70
128
71
2
72
4
73
3
0
VERTEX
8
OBJECT__40
10
0
20
0
30
0
70
128
71
3
72
5
73
1
0
SEQEND
8
OBJECT__40
0
POLYLINE
8
OBJECT__41
66
1
70
64
71
35
72
33
62
253
0
VERTEX
8
OBJECT__41
10
-15.499000
20
6.480000
30
-8.556000
70
192
0
VERTEX
8
OBJECT__41
10
-15.542000
20
6.937000
30
-7.781000
70
192
0
VERTEX
8
OBJECT__41
10
-15.220000
20
8.059000
30
-8.070000
70
192
0
VERTEX
8
OBJECT__41
10
-14.889000
20
8.194000
30
-8.984000
70
192
0
VERTEX
8
OBJECT__41
10
-13.837000
20
10.307000
30
-8.249000
70
192
0
VERTEX
8
OBJECT__41
10
-13.699000
20
10.136000
30
-9.177000
70
192
0
VERTEX
8
OBJECT__41
10
-14.574000
20
9.077000
30
-9.204000
70
192
0
VERTEX
8
OBJECT__41
10
-15.000000
20
8.417000
30
-8.098000
70
192
0
VERTEX
8
OBJECT__41
10
-14.649000
20
8.867000
30
-9.152000
70
192
0
VERTEX
8
OBJECT__41
10
-12.830000
20
11.188000
30
-9.150000
70
192
0
VERTEX
8
OBJECT__41
10
-13.558000
20
10.760000
30
-8.285000
70
192
0
VERTEX
8
OBJECT__41
10
-12.139000
20
11.757000
30
-8.234000
70
192
0
VERTEX
8
OBJECT__41
10
-12.098000
20
11.746000
30
-9.041000
70
192
0
VERTEX
8
OBJECT__41
10
-12.596000
20
11.472000
30
-9.142000
70
192
0
VERTEX
8
OBJECT__41
10
-13.169000
20
11.033000
30
-8.271000
70
192
0
VERTEX
8
OBJECT__41
10
-10.864000
20
12.653000
30
-8.188000
70
192
0
VERTEX
8
OBJECT__41
10
-9.882000
20
12.854000
30
-8.130000
70
192
0
VERTEX
8
OBJECT__41
10
-9.892000
20
12.960000
30
-8.594000
70
192
0
VERTEX
8
OBJECT__41
10
-10.292000
20
12.740000
30
-8.675000
70
192
0
VERTEX
8
OBJECT__41
10
-9.860000
20
12.965000
30
-8.585000
70
192
0
VERTEX
8
OBJECT__41
10
-8.682000
20
13.101000
30
-8.058000
70
192
0
VERTEX
8
OBJECT__41
10
-8.679000
20
13.149000
30
-8.264000
70
192
0
VERTEX
8
OBJECT__41
10
-8.187000
20
13.202000
30
-8.028000
70
192
0
VERTEX
8
OBJECT__41
10
-8.187000
20
13.226000
30
-8.130000
70
192
0
VERTEX
8
OBJECT__41
10
-8.185000
20
13.203000
30
-8.028000
70
192
0
VERTEX
8
OBJECT__41
10
-8.185000
20
13.226000
30
-8.129000
70
192
0
VERTEX
8
OBJECT__41
10
-8.177000
20
13.204000
30
-8.028000
70
192
0
VERTEX
8
OBJECT__41
10
-8.177000
20
13.227000
30
-8.127000
70
192
0
VERTEX
8
OBJECT__41
10
-8.147000
20
13.210000
30
-8.026000
70
192
0
VERTEX
8
OBJECT__41
10
-8.147000
20
13.232000
30
-8.119000
70
192
0
VERTEX
8
OBJECT__41
10
-8.028000
20
13.235000
30
-8.019000
70
192
0
VERTEX
8
OBJECT__41
10
-8.028000
20
13.251000
30
-8.086000
70
192
0
VERTEX
8
OBJECT__41
10
-7.742000
20
13.294000
30
-8.002000
70
192
0
VERTEX
8
OBJECT__41
10
-7.742000
20
13.295000
30
-8.008000
70
192
0
VERTEX
8
OBJECT__41
10
-7.711000
20
13.300000
30
-8.000000
70
192
0
VERTEX
8
OBJECT__41
10
0
20
0
30
0
70
128
71
1
72
2
73
3
0
VERTEX
8
OBJECT__41
10
0
20
0
30
0
70
128
71
3
72
4
73
1
0
VERTEX
8
OBJECT__41
10
0
20
0
30
0
70
128
71
5
72
6
73
7
0
VERTEX
8
OBJECT__41
10
0
20
0
30
0
70
128
71
7
72
8
73
5
0
VERTEX
8
OBJECT__41
10
0
20
0
30
0
70
128
71
7
72
9
73
8
0
VERTEX
8
OBJECT__41
10
0
20
0
30
0
70
128
71
10
72
6
73
11
0
VERTEX
8
OBJECT__41
10
0
20
0
30
0
70
128
71
12
72
13
73
14
0
VERTEX
8
OBJECT__41
10
0
20
0
30
0
70
128
71
14
72
15
73
12
0
VERTEX
8
OBJECT__41
10
0
20
0
30
0
70
128
71
14
72
10
73
15
0
VERTEX
8
OBJECT__41
10
0
20
0
30
0
70
128
71
6
72
5
73
11
0
VERTEX
8
OBJECT__41
10
0
20
0
30
0
70
128
71
13
72
12
73
16
0
VERTEX
8
OBJECT__41
10
0
20
0
30
0
70
128
71
17
72
18
73
19
0
VERTEX
8
OBJECT__41
10
0
20
0
30
0
70
128
71
17
72
20
73
18
0
VERTEX
8
OBJECT__41
10
0
20
0
30
0
70
128
71
19
72
16
73
17
0
VERTEX
8
OBJECT__41
10
0
20
0
30
0
70
128
71
17
72
21
73
22
0
VERTEX
8
OBJECT__41
10
0
20
0
30
0
70
128
71
21
72
23
73
24
0
VERTEX
8
OBJECT__41
10
0
20
0
30
0
70
128
71
23
72
25
73
26
0
VERTEX
8
OBJECT__41
10
0
20
0
30
0
70
128
71
25
72
27
73
28
0
VERTEX
8
OBJECT__41
10
0
20
0
30
0
70
128
71
27
72
29
73
30
0
VERTEX
8
OBJECT__41
10
0
20
0
30
0
70
128
71
29
72
31
73
32
0
VERTEX
8
OBJECT__41
10
0
20
0
30
0
70
128
71
31
72
33
73
34
0
VERTEX
8
OBJECT__41
10
0
20
0
30
0
70
128
71
34
72
33
73
35
0
VERTEX
8
OBJECT__41
10
0
20
0
30
0
70
128
71
34
72
32
73
31
0
VERTEX
8
OBJECT__41
10
0
20
0
30
0
70
128
71
32
72
30
73
29
0
VERTEX
8
OBJECT__41
10
0
20
0
30
0
70
128
71
30
72
28
73
27
0
VERTEX
8
OBJECT__41
10
0
20
0
30
0
70
128
71
28
72
26
73
25
0
VERTEX
8
OBJECT__41
10
0
20
0
30
0
70
128
71
26
72
24
73
23
0
VERTEX
8
OBJECT__41
10
0
20
0
30
0
70
128
71
24
72
22
73
21
0
VERTEX
8
OBJECT__41
10
0
20
0
30
0
70
128
71
22
72
20
73
17
0
VERTEX
8
OBJECT__41
10
0
20
0
30
0
70
128
71
16
72
19
73
13
0
VERTEX
8
OBJECT__41
10
0
20
0
30
0
70
128
71
11
72
15
73
10
0
VERTEX
8
OBJECT__41
10
0
20
0
30
0
70
128
71
9
72
4
73
8
0
VERTEX
8
OBJECT__41
10
0
20
0
30
0
70
128
71
3
72
8
73
4
0
SEQEND
8
OBJECT__41
0
POLYLINE
8
OBJECT__42
66
1
70
64
71
27
72
25
62
253
0
VERTEX
8
OBJECT__42
10
20.101999
20
13.300000
30
-2.127000
70
192
0
VERTEX
8
OBJECT__42
10
20.232000
20
13.300000
30
-3.904000
70
192
0
VERTEX
8
OBJECT__42
10
17.518000
20
13.300000
30
-8.187000
70
192
0
VERTEX
8
OBJECT__42
10
20.101999
20
13.300000
30
2.127000
70
192
0
VERTEX
8
OBJECT__42
10
-0.479000
20
13.300000
30
19.145000
70
192
0
VERTEX
8
OBJECT__42
10
17.518000
20
13.300000
30
8.187000
70
192
0
VERTEX
8
OBJECT__42
10
9.516000
20
13.300000
30
15.771000
70
192
0
VERTEX
8
OBJECT__42
10
13.486000
20
13.300000
30
12.670000
70
192
0
VERTEX
8
OBJECT__42
10
20.613001
20
13.300000
30
-2.960000
70
192
0
VERTEX
8
OBJECT__42
10
-7.711000
20
13.300000
30
-8.000000
70
192
0
VERTEX
8
OBJECT__42
10
-7.711000
20
13.300000
30
8.000000
70
192
0
VERTEX
8
OBJECT__42
10
19.500999
20
13.300000
30
0.000000
70
192
0
VERTEX
8
OBJECT__42
10
20.232000
20
13.300000
30
3.904000
70
192
0
VERTEX
8
OBJECT__42
10
4.846000
20
13.300000
30
17.948000
70
192
0
VERTEX
8
OBJECT__42
10
6.989000
20
13.300000
30
16.948999
70
192
0
VERTEX
8
OBJECT__42
10
6.989000
20
13.300000
30
-16.948999
70
192
0
VERTEX
8
OBJECT__42
10
4.801000
20
13.300000
30
-17.962999
70
192
0
VERTEX
8
OBJECT__42
10
20.750000
20
13.300000
30
-2.482000
70
192
0
VERTEX
8
OBJECT__42
10
9.480000
20
13.300000
30
-15.793000
70
192
0
VERTEX
8
OBJECT__42
10
13.486000
20
13.300000
30
-12.670000
70
192
0
VERTEX
8
OBJECT__42
10
19.513000
20
13.300000
30
0.355000
70
192
0
VERTEX
8
OBJECT__42
10
20.613001
20
13.300000
30
2.960000
70
192
0
VERTEX
8
OBJECT__42
10
19.513000
20
13.300000
30
-0.355000
70
192
0
VERTEX
8
OBJECT__42
10
20.750000
20
13.300000
30
2.482000
70
192
0
VERTEX
8
OBJECT__42
10
-0.479000
20
13.300000
30
-19.145000
70
192
0
VERTEX
8
OBJECT__42
10
20.768000
20
13.300000
30
2.482000
70
192
0
VERTEX
8
OBJECT__42
10
20.768000
20
13.300000
30
-2.482000
70
192
0
VERTEX
8
OBJECT__42
10
0
20
0
30
0
70
128
71
1
72
2
73
3
0
VERTEX
8
OBJECT__42
10
0
20
0
30
0
70
128
71
4
72
5
73
6
0
VERTEX
8
OBJECT__42
10
0
20
0
30
0
70
128
71
8
72
6
73
7
0
VERTEX
8
OBJECT__42
10
0
20
0
30
0
70
128
71
1
72
9
73
2
0
VERTEX
8
OBJECT__42
10
0
20
0
30
0
70
128
71
10
72
11
73
12
0
VERTEX
8
OBJECT__42
10
0
20
0
30
0
70
128
71
6
72
13
73
4
0
VERTEX
8
OBJECT__42
10
0
20
0
30
0
70
128
71
6
72
5
73
14
0
VERTEX
8
OBJECT__42
10
0
20
0
30
0
70
128
71
6
72
15
73
7
0
VERTEX
8
OBJECT__42
10
0
20
0
30
0
70
128
71
1
72
16
73
17
0
VERTEX
8
OBJECT__42
10
0
20
0
30
0
70
128
71
1
72
18
73
9
0
VERTEX
8
OBJECT__42
10
0
20
0
30
0
70
128
71
19
72
3
73
20
0
VERTEX
8
OBJECT__42
10
0
20
0
30
0
70
128
71
11
72
21
73
12
0
VERTEX
8
OBJECT__42
10
0
20
0
30
0
70
128
71
11
72
5
73
4
0
VERTEX
8
OBJECT__42
10
0
20
0
30
0
70
128
71
13
72
22
73
4
0
VERTEX
8
OBJECT__42
10
0
20
0
30
0
70
128
71
14
72
15
73
6
0
VERTEX
8
OBJECT__42
10
0
20
0
30
0
70
128
71
1
72
19
73
16
0
VERTEX
8
OBJECT__42
10
0
20
0
30
0
70
128
71
3
72
19
73
1
0
VERTEX
8
OBJECT__42
10
0
20
0
30
0
70
128
71
10
72
23
73
1
0
VERTEX
8
OBJECT__42
10
0
20
0
30
0
70
128
71
4
72
21
73
11
0
VERTEX
8
OBJECT__42
10
0
20
0
30
0
70
128
71
22
72
24
73
4
0
VERTEX
8
OBJECT__42
10
0
20
0
30
0
70
128
71
17
72
25
73
1
0
VERTEX
8
OBJECT__42
10
0
20
0
30
0
70
128
71
12
72
23
73
10
0
VERTEX
8
OBJECT__42
10
0
20
0
30
0
70
128
71
22
72
26
73
24
0
VERTEX
8
OBJECT__42
10
0
20
0
30
0
70
128
71
1
72
25
73
10
0
VERTEX
8
OBJECT__42
10
0
20
0
30
0
70
128
71
18
72
27
73
9
0
SEQEND
8
OBJECT__42
0
POLYLINE
8
OBJECT__43
66
1
70
64
71
14
72
12
62
253
0
VERTEX
8
OBJECT__43
10
13.486000
20
13.300000
30
-12.670000
70
192
0
VERTEX
8
OBJECT__43
10
17.518000
20
13.300000
30
-8.187000
70
192
0
VERTEX
8
OBJECT__43
10
17.295000
20
12.512000
30
-10.803000
70
192
0
VERTEX
8
OBJECT__43
10
18.729000
20
12.577000
30
-9.137000
70
192
0
VERTEX
8
OBJECT__43
10
14.673000
20
12.394000
30
-13.852000
70
192
0
VERTEX
8
OBJECT__43
10
13.834000
20
13.239000
30
-13.017000
70
192
0
VERTEX
8
OBJECT__43
10
20.613001
20
13.300000
30
-2.960000
70
192
0
VERTEX
8
OBJECT__43
10
20.768000
20
13.300000
30
-2.482000
70
192
0
VERTEX
8
OBJECT__43
10
20.895000
20
13.296000
30
-2.495000
70
192
0
VERTEX
8
OBJECT__43
10
21.110001
20
13.247000
30
-2.923000
70
192
0
VERTEX
8
OBJECT__43
10
20.232000
20
13.300000
30
-3.904000
70
192
0
VERTEX
8
OBJECT__43
10
21.094999
20
13.206000
30
-3.133000
70
192
0
VERTEX
8
OBJECT__43
10
20.920000
20
12.721000
30
-5.662000
70
192
0
VERTEX
8
OBJECT__43
10
21.016001
20
12.987000
30
-4.275000
70
192
0
VERTEX
8
OBJECT__43
10
0
20
0
30
0
70
128
71
1
72
2
73
3
0
VERTEX
8
OBJECT__43
10
0
20
0
30
0
70
128
71
2
72
4
73
3
0
VERTEX
8
OBJECT__43
10
0
20
0
30
0
70
128
71
1
72
5
73
6
0
VERTEX
8
OBJECT__43
10
0
20
0
30
0
70
128
71
7
72
8
73
9
0
VERTEX
8
OBJECT__43
10
0
20
0
30
0
70
128
71
9
72
10
73
7
0
VERTEX
8
OBJECT__43
10
0
20
0
30
0
70
128
71
11
72
7
73
12
0
VERTEX
8
OBJECT__43
10
0
20
0
30
0
70
128
71
2
72
11
73
13
0
VERTEX
8
OBJECT__43
10
0
20
0
30
0
70
128
71
11
72
14
73
13
0
VERTEX
8
OBJECT__43
10
0
20
0
30
0
70
128
71
13
72
4
73
2
0
VERTEX
8
OBJECT__43
10
0
20
0
30
0
70
128
71
12
72
14
73
11
0
VERTEX
8
OBJECT__43
10
0
20
0
30
0
70
128
71
10
72
12
73
7
0
VERTEX
8
OBJECT__43
10
0
20
0
30
0
70
128
71
3
72
5
73
1
0
SEQEND
8
OBJECT__43
0
POLYLINE
8
OBJECT__44
66
1
70
64
71
35
72
33
62
253
0
VERTEX
8
OBJECT__44
10
-13.837000
20
-10.307000
30
8.249000
70
192
0
VERTEX
8
OBJECT__44
10
-15.542000
20
-6.937000
30
-7.781000
70
192
0
VERTEX
8
OBJECT__44
10
-15.064000
20
-8.453000
30
-8.133000
70
192
0
VERTEX
8
OBJECT__44
10
-13.915000
20
-10.352000
30
-8.280000
70
192
0
VERTEX
8
OBJECT__44
10
-15.000000
20
-8.417000
30
8.098000
70
192
0
VERTEX
8
OBJECT__44
10
-15.645000
20
-6.331000
30
-7.619000
70
192
0
VERTEX
8
OBJECT__44
10
-13.163000
20
-11.044000
30
-8.269000
70
192
0
VERTEX
8
OBJECT__44
10
-13.169000
20
-11.033000
30
8.271000
70
192
0
VERTEX
8
OBJECT__44
10
-13.558000
20
-10.760000
30
8.285000
70
192
0
VERTEX
8
OBJECT__44
10
-15.622000
20
-6.318000
30
7.672000
70
192
0
VERTEX
8
OBJECT__44
10
-15.700000
20
-5.719000
30
7.566000
70
192
0
VERTEX
8
OBJECT__44
10
-15.542000
20
-6.937000
30
7.781000
70
192
0
VERTEX
8
OBJECT__44
10
-15.220000
20
-8.059000
30
8.070000
70
192
0
VERTEX
8
OBJECT__44
10
-15.700000
20
-5.719000
30
-7.566000
70
192
0
VERTEX
8
OBJECT__44
10
-7.743000
20
-13.300000
30
-8.002000
70
192
0
VERTEX
8
OBJECT__44
10
-8.185000
20
-13.203000
30
8.028000
70
192
0
VERTEX
8
OBJECT__44
10
-8.186000
20
-13.202000
30
8.028000
70
192
0
VERTEX
8
OBJECT__44
10
-7.742000
20
-13.294000
30
8.002000
70
192
0
VERTEX
8
OBJECT__44
10
-8.028000
20
-13.235000
30
8.019000
70
192
0
VERTEX
8
OBJECT__44
10
-8.147000
20
-13.210000
30
8.026000
70
192
0
VERTEX
8
OBJECT__44
10
-7.711000
20
-13.300000
30
-8.000000
70
192
0
VERTEX
8
OBJECT__44
10
-7.711000
20
-13.300000
30
8.000000
70
192
0
VERTEX
8
OBJECT__44
10
-8.177000
20
-13.204000
30
8.028000
70
192
0
VERTEX
8
OBJECT__44
10
-8.682000
20
-13.101000
30
8.058000
70
192
0
VERTEX
8
OBJECT__44
10
-8.163000
20
-13.287000
30
-8.027000
70
192
0
VERTEX
8
OBJECT__44
10
-8.040000
20
-13.293000
30
-8.020000
70
192
0
VERTEX
8
OBJECT__44
10
-8.194000
20
-13.285000
30
-8.029000
70
192
0
VERTEX
8
OBJECT__44
10
-8.203000
20
-13.285000
30
-8.030000
70
192
0
VERTEX
8
OBJECT__44
10
-8.201000
20
-13.285000
30
-8.029000
70
192
0
VERTEX
8
OBJECT__44
10
-12.237000
20
-11.897000
30
-8.256000
70
192
0
VERTEX
8
OBJECT__44
10
-12.139000
20
-11.757000
30
8.234000
70
192
0
VERTEX
8
OBJECT__44
10
-9.910000
20
-12.992000
30
-8.133000
70
192
0
VERTEX
8
OBJECT__44
10
-9.882000
20
-12.854000
30
8.130000
70
192
0
VERTEX
8
OBJECT__44
10
-10.864000
20
-12.653000
30
8.188000
70
192
0
VERTEX
8
OBJECT__44
10
-8.710000
20
-13.237000
30
-8.060000
70
192
0
VERTEX
8
OBJECT__44
10
0
20
0
30
0
70
128
71
1
72
2
73
3
0
VERTEX
8
OBJECT__44
10
0
20
0
30
0
70
128
71
3
72
4
73
1
0
VERTEX
8
OBJECT__44
10
0
20
0
30
0
70
128
71
2
72
1
73
5
0
VERTEX
8
OBJECT__44
10
0
20
0
30
0
70
128
71
5
72
6
73
2
0
VERTEX
8
OBJECT__44
10
0
20
0
30
0
70
128
71
7
72
8
73
9
0
VERTEX
8
OBJECT__44
10
0
20
0
30
0
70
128
71
9
72
1
73
7
0
VERTEX
8
OBJECT__44
10
0
20
0
30
0
70
128
71
6
72
10
73
11
0
VERTEX
8
OBJECT__44
10
0
20
0
30
0
70
128
71
6
72
12
73
10
0
VERTEX
8
OBJECT__44
10
0
20
0
30
0
70
128
71
6
72
5
73
13
0
VERTEX
8
OBJECT__44
10
0
20
0
30
0
70
128
71
13
72
12
73
6
0
VERTEX
8
OBJECT__44
10
0
20
0
30
0
70
128
71
11
72
14
73
6
0
VERTEX
8
OBJECT__44
10
0
20
0
30
0
70
128
71
15
72
16
73
17
0
VERTEX
8
OBJECT__44
10
0
20
0
30
0
70
128
71
15
72
18
73
19
0
VERTEX
8
OBJECT__44
10
0
20
0
30
0
70
128
71
19
72
20
73
15
0
VERTEX
8
OBJECT__44
10
0
20
0
30
0
70
128
71
18
72
15
73
21
0
VERTEX
8
OBJECT__44
10
0
20
0
30
0
70
128
71
21
72
22
73
18
0
VERTEX
8
OBJECT__44
10
0
20
0
30
0
70
128
71
20
72
23
73
15
0
VERTEX
8
OBJECT__44
10
0
20
0
30
0
70
128
71
23
72
16
73
15
0
VERTEX
8
OBJECT__44
10
0
20
0
30
0
70
128
71
24
72
25
73
26
0
VERTEX
8
OBJECT__44
10
0
20
0
30
0
70
128
71
24
72
27
73
25
0
VERTEX
8
OBJECT__44
10
0
20
0
30
0
70
128
71
24
72
28
73
29
0
VERTEX
8
OBJECT__44
10
0
20
0
30
0
70
128
71
29
72
27
73
24
0
VERTEX
8
OBJECT__44
10
0
20
0
30
0
70
128
71
7
72
30
73
31
0
VERTEX
8
OBJECT__44
10
0
20
0
30
0
70
128
71
30
72
32
73
33
0
VERTEX
8
OBJECT__44
10
0
20
0
30
0
70
128
71
33
72
34
73
30
0
VERTEX
8
OBJECT__44
10
0
20
0
30
0
70
128
71
35
72
28
73
24
0
VERTEX
8
OBJECT__44
10
0
20
0
30
0
70
128
71
33
72
32
73
35
0
VERTEX
8
OBJECT__44
10
0
20
0
30
0
70
128
71
24
72
33
73
35
0
VERTEX
8
OBJECT__44
10
0
20
0
30
0
70
128
71
34
72
31
73
30
0
VERTEX
8
OBJECT__44
10
0
20
0
30
0
70
128
71
31
72
8
73
7
0
VERTEX
8
OBJECT__44
10
0
20
0
30
0
70
128
71
26
72
15
73
24
0
VERTEX
8
OBJECT__44
10
0
20
0
30
0
70
128
71
17
72
24
73
15
0
VERTEX
8
OBJECT__44
10
0
20
0
30
0
70
128
71
4
72
7
73
1
0
SEQEND
8
OBJECT__44
0
POLYLINE
8
OBJECT__45
66
1
70
64
71
6
72
4
62
253
0
VERTEX
8
OBJECT__45
10
-15.645000
20
-6.331000
30
-7.619000
70
192
0
VERTEX
8
OBJECT__45
10
-15.700000
20
-5.719000
30
-7.566000
70
192
0
VERTEX
8
OBJECT__45
10
-15.598000
20
-5.719000
30
-8.342000
70
192
0
VERTEX
8
OBJECT__45
10
-15.551000
20
-6.085000
30
-8.445000
70
192
0
VERTEX
8
OBJECT__45
10
-15.499000
20
-6.480000
30
-8.556000
70
192
0
VERTEX
8
OBJECT__45
10
-15.542000
20
-6.937000
30
-7.781000
70
192
0
VERTEX
8
OBJECT__45
10
0
20
0
30
0
70
128
71
1
72
2
73
3
0
VERTEX
8
OBJECT__45
10
0
20
0
30
0
70
128
71
1
72
4
73
5
0
VERTEX
8
OBJECT__45
10
0
20
0
30
0
70
128
71
5
72
6
73
1
0
VERTEX
8
OBJECT__45
10
0
20
0
30
0
70
128
71
3
72
4
73
1
0
SEQEND
8
OBJECT__45
0
POLYLINE
8
OBJECT__46
66
1
70
64
71
5
72
3
62
253
0
VERTEX
8
OBJECT__46
10
-16.000000
20
0.000000
30
-7.606000
70
192
0
VERTEX
8
OBJECT__46
10
-15.898000
20
0.000000
30
-8.381000
70
192
0
VERTEX
8
OBJECT__46
10
-15.727000
20
-3.259000
30
-8.358000
70
192
0
VERTEX
8
OBJECT__46
10
-15.700000
20
-5.719000
30
-7.566000
70
192
0
VERTEX
8
OBJECT__46
10
-15.598000
20
-5.719000
30
-8.342000
70
192
0
VERTEX
8
OBJECT__46
10
0
20
0
30
0
70
128
71
1
72
2
73
3
0
VERTEX
8
OBJECT__46
10
0
20
0
30
0
70
128
71
3
72
4
73
1
0
VERTEX
8
OBJECT__46
10
0
20
0
30
0
70
128
71
3
72
5
73
4
0
SEQEND
8
OBJECT__46
0
POLYLINE
8
OBJECT__47
66
1
70
64
71
9
72
7
62
253
0
VERTEX
8
OBJECT__47
10
-13.091000
20
3.259000
30
-18.198000
70
192
0
VERTEX
8
OBJECT__47
10
-15.598000
20
5.719000
30
-8.342000
70
192
0
VERTEX
8
OBJECT__47
10
-15.563000
20
6.101000
30
-8.394000
70
192
0
VERTEX
8
OBJECT__47
10
-15.727000
20
3.259000
30
-8.358000
70
192
0
VERTEX
8
OBJECT__47
10
-15.898000
20
0.000000
30
-8.381000
70
192
0
VERTEX
8
OBJECT__47
10
-13.128000
20
1.376000
30
-18.438999
70
192
0
VERTEX
8
OBJECT__47
10
-12.865000
20
2.957000
30
-19.103001
70
192
0
VERTEX
8
OBJECT__47
10
-13.200000
20
0.000000
30
-18.450001
70
192
0
VERTEX
8
OBJECT__47
10
-15.499000
20
6.480000
30
-8.556000
70
192
0
VERTEX
8
OBJECT__47
10
0
20
0
30
0
70
128
71
1
72
2
73
3
0
VERTEX
8
OBJECT__47
10
0
20
0
30
0
70
128
71
1
72
4
73
2
0
VERTEX
8
OBJECT__47
10
0
20
0
30
0
70
128
71
5
72
4
73
6
0
VERTEX
8
OBJECT__47
10
0
20
0
30
0
70
128
71
6
72
4
73
1
0
VERTEX
8
OBJECT__47
10
0
20
0
30
0
70
128
71
1
72
7
73
6
0
VERTEX
8
OBJECT__47
10
0
20
0
30
0
70
128
71
6
72
8
73
5
0
VERTEX
8
OBJECT__47
10
0
20
0
30
0
70
128
71
3
72
9
73
1
0
SEQEND
8
OBJECT__47
0
POLYLINE
8
OBJECT__48
66
1
70
64
71
29
72
27
62
253
0
VERTEX
8
OBJECT__48
10
-14.994000
20
-8.208000
30
-9.081000
70
192
0
VERTEX
8
OBJECT__48
10
-15.064000
20
-8.453000
30
-8.133000
70
192
0
VERTEX
8
OBJECT__48
10
-15.542000
20
-6.937000
30
-7.781000
70
192
0
VERTEX
8
OBJECT__48
10
-13.915000
20
-10.352000
30
-8.280000
70
192
0
VERTEX
8
OBJECT__48
10
-14.622000
20
-8.840000
30
-9.134000
70
192
0
VERTEX
8
OBJECT__48
10
-12.237000
20
-11.897000
30
-8.256000
70
192
0
VERTEX
8
OBJECT__48
10
-13.163000
20
-11.044000
30
-8.269000
70
192
0
VERTEX
8
OBJECT__48
10
-12.824000
20
-11.169000
30
-9.145000
70
192
0
VERTEX
8
OBJECT__48
10
-13.807000
20
-10.227000
30
-9.252000
70
192
0
VERTEX
8
OBJECT__48
10
-12.137000
20
-11.828000
30
-9.071000
70
192
0
VERTEX
8
OBJECT__48
10
-10.299000
20
-12.750000
30
-8.680000
70
192
0
VERTEX
8
OBJECT__48
10
-9.910000
20
-12.992000
30
-8.133000
70
192
0
VERTEX
8
OBJECT__48
10
-9.860000
20
-12.970000
30
-8.586000
70
192
0
VERTEX
8
OBJECT__48
10
-8.688000
20
-13.232000
30
-8.279000
70
192
0
VERTEX
8
OBJECT__48
10
-8.710000
20
-13.237000
30
-8.060000
70
192
0
VERTEX
8
OBJECT__48
10
-8.193000
20
-13.283000
30
-8.140000
70
192
0
VERTEX
8
OBJECT__48
10
-8.204000
20
-13.285000
30
-8.030000
70
192
0
VERTEX
8
OBJECT__48
10
-8.191000
20
-13.284000
30
-8.139000
70
192
0
VERTEX
8
OBJECT__48
10
-8.201000
20
-13.285000
30
-8.029000
70
192
0
VERTEX
8
OBJECT__48
10
-8.183000
20
-13.284000
30
-8.137000
70
192
0
VERTEX
8
OBJECT__48
10
-8.194000
20
-13.285000
30
-8.029000
70
192
0
VERTEX
8
OBJECT__48
10
-8.153000
20
-13.286000
30
-8.129000
70
192
0
VERTEX
8
OBJECT__48
10
-8.163000
20
-13.287000
30
-8.027000
70
192
0
VERTEX
8
OBJECT__48
10
-8.033000
20
-13.293000
30
-8.094000
70
192
0
VERTEX
8
OBJECT__48
10
-8.040000
20
-13.293000
30
-8.020000
70
192
0
VERTEX
8
OBJECT__48
10
-7.743000
20
-13.300000
30
-8.009000
70
192
0
VERTEX
8
OBJECT__48
10
-7.743000
20
-13.300000
30
-8.002000
70
192
0
VERTEX
8
OBJECT__48
10
-7.711000
20
-13.300000
30
-8.000000
70
192
0
VERTEX
8
OBJECT__48
10
-15.499000
20
-6.480000
30
-8.556000
70
192
0
VERTEX
8
OBJECT__48
10
0
20
0
30
0
70
128
71
1
72
2
73
3
0
VERTEX
8
OBJECT__48
10
0
20
0
30
0
70
128
71
4
72
2
73
5
0
VERTEX
8
OBJECT__48
10
0
20
0
30
0
70
128
71
2
72
1
73
5
0
VERTEX
8
OBJECT__48
10
0
20
0
30
0
70
128
71
6
72
7
73
8
0
VERTEX
8
OBJECT__48
10
0
20
0
30
0
70
128
71
9
72
8
73
7
0
VERTEX
8
OBJECT__48
10
0
20
0
30
0
70
128
71
7
72
4
73
9
0
VERTEX
8
OBJECT__48
10
0
20
0
30
0
70
128
71
6
72
10
73
11
0
VERTEX
8
OBJECT__48
10
0
20
0
30
0
70
128
71
11
72
12
73
6
0
VERTEX
8
OBJECT__48
10
0
20
0
30
0
70
128
71
12
72
13
73
14
0
VERTEX
8
OBJECT__48
10
0
20
0
30
0
70
128
71
15
72
14
73
16
0
VERTEX
8
OBJECT__48
10
0
20
0
30
0
70
128
71
17
72
16
73
18
0
VERTEX
8
OBJECT__48
10
0
20
0
30
0
70
128
71
19
72
18
73
20
0
VERTEX
8
OBJECT__48
10
0
20
0
30
0
70
128
71
21
72
20
73
22
0
VERTEX
8
OBJECT__48
10
0
20
0
30
0
70
128
71
23
72
22
73
24
0
VERTEX
8
OBJECT__48
10
0
20
0
30
0
70
128
71
25
72
24
73
26
0
VERTEX
8
OBJECT__48
10
0
20
0
30
0
70
128
71
27
72
26
73
28
0
VERTEX
8
OBJECT__48
10
0
20
0
30
0
70
128
71
26
72
27
73
25
0
VERTEX
8
OBJECT__48
10
0
20
0
30
0
70
128
71
24
72
25
73
23
0
VERTEX
8
OBJECT__48
10
0
20
0
30
0
70
128
71
22
72
23
73
21
0
VERTEX
8
OBJECT__48
10
0
20
0
30
0
70
128
71
20
72
21
73
19
0
VERTEX
8
OBJECT__48
10
0
20
0
30
0
70
128
71
18
72
19
73
17
0
VERTEX
8
OBJECT__48
10
0
20
0
30
0
70
128
71
16
72
17
73
15
0
VERTEX
8
OBJECT__48
10
0
20
0
30
0
70
128
71
14
72
15
73
12
0
VERTEX
8
OBJECT__48
10
0
20
0
30
0
70
128
71
11
72
13
73
12
0
VERTEX
8
OBJECT__48
10
0
20
0
30
0
70
128
71
8
72
10
73
6
0
VERTEX
8
OBJECT__48
10
0
20
0
30
0
70
128
71
5
72
9
73
4
0
VERTEX
8
OBJECT__48
10
0
20
0
30
0
70
128
71
3
72
29
73
1
0
SEQEND
8
OBJECT__48
0
POLYLINE
8
OBJECT__49
66
1
70
64
71
10
72
8
62
253
0
VERTEX
8
OBJECT__49
10
-13.091000
20
-3.259000
30
-18.198000
70
192
0
VERTEX
8
OBJECT__49
10
-15.551000
20
-6.085000
30
-8.445000
70
192
0
VERTEX
8
OBJECT__49
10
-15.598000
20
-5.719000
30
-8.342000
70
192
0
VERTEX
8
OBJECT__49
10
-15.499000
20
-6.480000
30
-8.556000
70
192
0
VERTEX
8
OBJECT__49
10
-13.128000
20
-1.376000
30
-18.438999
70
192
0
VERTEX
8
OBJECT__49
10
-12.879000
20
-2.893000
30
-19.061001
70
192
0
VERTEX
8
OBJECT__49
10
-15.727000
20
-3.259000
30
-8.358000
70
192
0
VERTEX
8
OBJECT__49
10
-15.898000
20
0.000000
30
-8.381000
70
192
0
VERTEX
8
OBJECT__49
10
-13.200000
20
0.000000
30
-18.450001
70
192
0
VERTEX
8
OBJECT__49
10
-12.865000
20
-2.957000
30
-19.103001
70
192
0
VERTEX
8
OBJECT__49
10
0
20
0
30
0
70
128
71
1
72
2
73
3
0
VERTEX
8
OBJECT__49
10
0
20
0
30
0
70
128
71
1
72
4
73
2
0
VERTEX
8
OBJECT__49
10
0
20
0
30
0
70
128
71
5
72
6
73
1
0
VERTEX
8
OBJECT__49
10
0
20
0
30
0
70
128
71
1
72
7
73
5
0
VERTEX
8
OBJECT__49
10
0
20
0
30
0
70
128
71
8
72
9
73
5
0
VERTEX
8
OBJECT__49
10
0
20
0
30
0
70
128
71
5
72
7
73
8
0
VERTEX
8
OBJECT__49
10
0
20
0
30
0
70
128
71
6
72
10
73
1
0
VERTEX
8
OBJECT__49
10
0
20
0
30
0
70
128
71
3
72
7
73
1
0
SEQEND
8
OBJECT__49
0
POLYLINE
8
OBJECT__50
66
1
70
64
71
27
72
25
62
253
0
VERTEX
8
OBJECT__50
10
20.101999
20
-13.300000
30
2.127000
70
192
0
VERTEX
8
OBJECT__50
10
20.232000
20
-13.300000
30
3.904000
70
192
0
VERTEX
8
OBJECT__50
10
17.518000
20
-13.300000
30
8.187000
70
192
0
VERTEX
8
OBJECT__50
10
20.613001
20
-13.300000
30
2.960000
70
192
0
VERTEX
8
OBJECT__50
10
6.989000
20
-13.300000
30
16.948999
70
192
0
VERTEX
8
OBJECT__50
10
4.801000
20
-13.300000
30
17.962999
70
192
0
VERTEX
8
OBJECT__50
10
20.750000
20
-13.300000
30
2.482000
70
192
0
VERTEX
8
OBJECT__50
10
9.480000
20
-13.300000
30
15.793000
70
192
0
VERTEX
8
OBJECT__50
10
13.486000
20
-13.300000
30
12.670000
70
192
0
VERTEX
8
OBJECT__50
10
-7.711000
20
-13.300000
30
8.000000
70
192
0
VERTEX
8
OBJECT__50
10
-7.711000
20
-13.300000
30
-8.000000
70
192
0
VERTEX
8
OBJECT__50
10
19.500999
20
-13.300000
30
0.000000
70
192
0
VERTEX
8
OBJECT__50
10
20.101999
20
-13.300000
30
-2.127000
70
192
0
VERTEX
8
OBJECT__50
10
-0.479000
20
-13.300000
30
-19.145000
70
192
0
VERTEX
8
OBJECT__50
10
17.518000
20
-13.300000
30
-8.187000
70
192
0
VERTEX
8
OBJECT__50
10
9.516000
20
-13.300000
30
-15.771000
70
192
0
VERTEX
8
OBJECT__50
10
13.486000
20
-13.300000
30
-12.670000
70
192
0
VERTEX
8
OBJECT__50
10
19.513000
20
-13.300000
30
-0.355000
70
192
0
VERTEX
8
OBJECT__50
10
20.232000
20
-13.300000
30
-3.904000
70
192
0
VERTEX
8
OBJECT__50
10
4.846000
20
-13.300000
30
-17.948000
70
192
0
VERTEX
8
OBJECT__50
10
6.989000
20
-13.300000
30
-16.948999
70
192
0
VERTEX
8
OBJECT__50
10
-0.479000
20
-13.300000
30
19.143999
70
192
0
VERTEX
8
OBJECT__50
10
19.513000
20
-13.300000
30
0.355000
70
192
0
VERTEX
8
OBJECT__50
10
20.613001
20
-13.300000
30
-2.960000
70
192
0
VERTEX
8
OBJECT__50
10
20.750000
20
-13.300000
30
-2.482000
70
192
0
VERTEX
8
OBJECT__50
10
20.768000
20
-13.300000
30
-2.482000
70
192
0
VERTEX
8
OBJECT__50
10
20.768000
20
-13.300000
30
2.482000
70
192
0
VERTEX
8
OBJECT__50
10
0
20
0
30
0
70
128
71
1
72
2
73
3
0
VERTEX
8
OBJECT__50
10
0
20
0
30
0
70
128
71
1
72
4
73
2
0
VERTEX
8
OBJECT__50
10
0
20
0
30
0
70
128
71
1
72
5
73
6
0
VERTEX
8
OBJECT__50
10
0
20
0
30
0
70
128
71
1
72
7
73
4
0
VERTEX
8
OBJECT__50
10
0
20
0
30
0
70
128
71
8
72
3
73
9
0
VERTEX
8
OBJECT__50
10
0
20
0
30
0
70
128
71
10
72
11
73
12
0
VERTEX
8
OBJECT__50
10
0
20
0
30
0
70
128
71
13
72
14
73
15
0
VERTEX
8
OBJECT__50
10
0
20
0
30
0
70
128
71
17
72
15
73
16
0
VERTEX
8
OBJECT__50
10
0
20
0
30
0
70
128
71
1
72
8
73
5
0
VERTEX
8
OBJECT__50
10
0
20
0
30
0
70
128
71
3
72
8
73
1
0
VERTEX
8
OBJECT__50
10
0
20
0
30
0
70
128
71
11
72
18
73
12
0
VERTEX
8
OBJECT__50
10
0
20
0
30
0
70
128
71
11
72
14
73
13
0
VERTEX
8
OBJECT__50
10
0
20
0
30
0
70
128
71
15
72
19
73
13
0
VERTEX
8
OBJECT__50
10
0
20
0
30
0
70
128
71
15
72
14
73
20
0
VERTEX
8
OBJECT__50
10
0
20
0
30
0
70
128
71
15
72
21
73
16
0
VERTEX
8
OBJECT__50
10
0
20
0
30
0
70
128
71
6
72
22
73
1
0
VERTEX
8
OBJECT__50
10
0
20
0
30
0
70
128
71
10
72
23
73
1
0
VERTEX
8
OBJECT__50
10
0
20
0
30
0
70
128
71
13
72
18
73
11
0
VERTEX
8
OBJECT__50
10
0
20
0
30
0
70
128
71
19
72
24
73
13
0
VERTEX
8
OBJECT__50
10
0
20
0
30
0
70
128
71
20
72
21
73
15
0
VERTEX
8
OBJECT__50
10
0
20
0
30
0
70
128
71
12
72
23
73
10
0
VERTEX
8
OBJECT__50
10
0
20
0
30
0
70
128
71
24
72
25
73
13
0
VERTEX
8
OBJECT__50
10
0
20
0
30
0
70
128
71
1
72
22
73
10
0
VERTEX
8
OBJECT__50
10
0
20
0
30
0
70
128
71
24
72
26
73
25
0
VERTEX
8
OBJECT__50
10
0
20
0
30
0
70
128
71
7
72
27
73
4
0
SEQEND
8
OBJECT__50
0
POLYLINE
8
OBJECT__51
66
1
70
64
71
14
72
12
62
253
0
VERTEX
8
OBJECT__51
10
13.486000
20
-13.300000
30
-12.670000
70
192
0
VERTEX
8
OBJECT__51
10
14.673000
20
-12.394000
30
-13.852000
70
192
0
VERTEX
8
OBJECT__51
10
17.295000
20
-12.512000
30
-10.803000
70
192
0
VERTEX
8
OBJECT__51
10
17.518000
20
-13.300000
30
-8.187000
70
192
0
VERTEX
8
OBJECT__51
10
18.729000
20
-12.577000
30
-9.137000
70
192
0
VERTEX
8
OBJECT__51
10
20.920000
20
-12.721000
30
-5.662000
70
192
0
VERTEX
8
OBJECT__51
10
20.232000
20
-13.300000
30
-3.904000
70
192
0
VERTEX
8
OBJECT__51
10
21.016001
20
-12.987000
30
-4.275000
70
192
0
VERTEX
8
OBJECT__51
10
21.094999
20
-13.206000
30
-3.133000
70
192
0
VERTEX
8
OBJECT__51
10
20.613001
20
-13.300000
30
-2.960000
70
192
0
VERTEX
8
OBJECT__51
10
21.110001
20
-13.247000
30
-2.923000
70
192
0
VERTEX
8
OBJECT__51
10
20.895000
20
-13.296000
30
-2.495000
70
192
0
VERTEX
8
OBJECT__51
10
13.829000
20
-13.241000
30
-13.011000
70
192
0
VERTEX
8
OBJECT__51
10
20.768000
20
-13.300000
30
-2.482000
70
192
0
VERTEX
8
OBJECT__51
10
0
20
0
30
0
70
128
71
1
72
2
73
3
0
VERTEX
8
OBJECT__51
10
0
20
0
30
0
70
128
71
3
72
4
73
1
0
VERTEX
8
OBJECT__51
10
0
20
0
30
0
70
128
71
4
72
5
73
6
0
VERTEX
8
OBJECT__51
10
0
20
0
30
0
70
128
71
6
72
7
73
4
0
VERTEX
8
OBJECT__51
10
0
20
0
30
0
70
128
71
7
72
8
73
9
0
VERTEX
8
OBJECT__51
10
0
20
0
30
0
70
128
71
10
72
11
73
12
0
VERTEX
8
OBJECT__51
10
0
20
0
30
0
70
128
71
10
72
9
73
11
0
VERTEX
8
OBJECT__51
10
0
20
0
30
0
70
128
71
13
72
2
73
1
0
VERTEX
8
OBJECT__51
10
0
20
0
30
0
70
128
71
12
72
14
73
10
0
VERTEX
8
OBJECT__51
10
0
20
0
30
0
70
128
71
9
72
10
73
7
0
VERTEX
8
OBJECT__51
10
0
20
0
30
0
70
128
71
6
72
8
73
7
0
VERTEX
8
OBJECT__51
10
0
20
0
30
0
70
128
71
3
72
5
73
4
0
SEQEND
8
OBJECT__51
0
POLYLINE
8
OBJECT__52
66
1
70
64
71
18
72
16
62
253
0
VERTEX
8
OBJECT__52
10
20.791000
20
10.639000
30
-8.977000
70
192
0
VERTEX
8
OBJECT__52
10
17.295000
20
12.512000
30
-10.803000
70
192
0
VERTEX
8
OBJECT__52
10
18.729000
20
12.577000
30
-9.137000
70
192
0
VERTEX
8
OBJECT__52
10
20.757000
20
7.627000
30
-11.653000
70
192
0
VERTEX
8
OBJECT__52
10
14.696000
20
10.086000
30
-15.459000
70
192
0
VERTEX
8
OBJECT__52
10
14.673000
20
12.394000
30
-13.852000
70
192
0
VERTEX
8
OBJECT__52
10
20.788000
20
10.597000
30
-9.043000
70
192
0
VERTEX
8
OBJECT__52
10
20.757000
20
7.595000
30
-11.681000
70
192
0
VERTEX
8
OBJECT__52
10
20.785000
20
4.121000
30
-13.307000
70
192
0
VERTEX
8
OBJECT__52
10
14.725000
20
6.707000
30
-17.233000
70
192
0
VERTEX
8
OBJECT__52
10
14.714000
20
8.400000
30
-16.634001
70
192
0
VERTEX
8
OBJECT__52
10
14.734000
20
5.355000
30
-17.711000
70
192
0
VERTEX
8
OBJECT__52
10
14.745000
20
3.747000
30
-18.281000
70
192
0
VERTEX
8
OBJECT__52
10
20.782000
20
3.982000
30
-13.328000
70
192
0
VERTEX
8
OBJECT__52
10
18.881001
20
0.000000
30
-15.380000
70
192
0
VERTEX
8
OBJECT__52
10
14.755000
20
0.000000
30
-18.662001
70
192
0
VERTEX
8
OBJECT__52
10
20.697001
20
0.000000
30
-13.935000
70
192
0
VERTEX
8
OBJECT__52
10
20.920000
20
12.721000
30
-5.662000
70
192
0
VERTEX
8
OBJECT__52
10
0
20
0
30
0
70
128
71
1
72
2
73
3
0
VERTEX
8
OBJECT__52
10
0
20
0
30
0
70
128
71
4
72
5
73
6
0
VERTEX
8
OBJECT__52
10
0
20
0
30
0
70
128
71
6
72
2
73
4
0
VERTEX
8
OBJECT__52
10
0
20
0
30
0
70
128
71
2
72
1
73
7
0
VERTEX
8
OBJECT__52
10
0
20
0
30
0
70
128
71
8
72
9
73
10
0
VERTEX
8
OBJECT__52
10
0
20
0
30
0
70
128
71
10
72
11
73
8
0
VERTEX
8
OBJECT__52
10
0
20
0
30
0
70
128
71
9
72
12
73
10
0
VERTEX
8
OBJECT__52
10
0
20
0
30
0
70
128
71
11
72
5
73
8
0
VERTEX
8
OBJECT__52
10
0
20
0
30
0
70
128
71
5
72
4
73
8
0
VERTEX
8
OBJECT__52
10
0
20
0
30
0
70
128
71
13
72
14
73
15
0
VERTEX
8
OBJECT__52
10
0
20
0
30
0
70
128
71
15
72
16
73
13
0
VERTEX
8
OBJECT__52
10
0
20
0
30
0
70
128
71
14
72
17
73
15
0
VERTEX
8
OBJECT__52
10
0
20
0
30
0
70
128
71
13
72
12
73
14
0
VERTEX
8
OBJECT__52
10
0
20
0
30
0
70
128
71
9
72
14
73
12
0
VERTEX
8
OBJECT__52
10
0
20
0
30
0
70
128
71
2
72
7
73
4
0
VERTEX
8
OBJECT__52
10
0
20
0
30
0
70
128
71
3
72
18
73
1
0
SEQEND
8
OBJECT__52
0
POLYLINE
8
OBJECT__53
66
1
70
64
71
16
72
14
62
253
0
VERTEX
8
OBJECT__53
10
13.834000
20
13.239000
30
-13.017000
70
192
0
VERTEX
8
OBJECT__53
10
14.673000
20
12.394000
30
-13.852000
70
192
0
VERTEX
8
OBJECT__53
10
13.630000
20
12.398000
30
-14.826000
70
192
0
VERTEX
8
OBJECT__53
10
9.334000
20
12.448000
30
-17.764000
70
192
0
VERTEX
8
OBJECT__53
10
9.480000
20
13.300000
30
-15.793000
70
192
0
VERTEX
8
OBJECT__53
10
13.486000
20
13.300000
30
-12.670000
70
192
0
VERTEX
8
OBJECT__53
10
6.989000
20
13.300000
30
-16.948999
70
192
0
VERTEX
8
OBJECT__53
10
7.664000
20
12.484000
30
-18.414000
70
192
0
VERTEX
8
OBJECT__53
10
-0.239000
20
13.198000
30
-19.750999
70
192
0
VERTEX
8
OBJECT__53
10
-0.393000
20
13.195000
30
-19.778999
70
192
0
VERTEX
8
OBJECT__53
10
-0.400000
20
13.198000
30
-19.771000
70
192
0
VERTEX
8
OBJECT__53
10
4.052000
20
12.563000
30
-19.822001
70
192
0
VERTEX
8
OBJECT__53
10
4.801000
20
13.300000
30
-17.962999
70
192
0
VERTEX
8
OBJECT__53
10
-0.479000
20
13.300000
30
-19.145000
70
192
0
VERTEX
8
OBJECT__53
10
2.204000
20
13.015000
30
-19.746000
70
192
0
VERTEX
8
OBJECT__53
10
-0.001000
20
13.180000
30
-19.750999
70
192
0
VERTEX
8
OBJECT__53
10
0
20
0
30
0
70
128
71
1
72
2
73
3
0
VERTEX
8
OBJECT__53
10
0
20
0
30
0
70
128
71
1
72
4
73
5
0
VERTEX
8
OBJECT__53
10
0
20
0
30
0
70
128
71
5
72
6
73
1
0
VERTEX
8
OBJECT__53
10
0
20
0
30
0
70
128
71
7
72
5
73
4
0
VERTEX
8
OBJECT__53
10
0
20
0
30
0
70
128
71
4
72
8
73
7
0
VERTEX
8
OBJECT__53
10
0
20
0
30
0
70
128
71
9
72
10
73
11
0
VERTEX
8
OBJECT__53
10
0
20
0
30
0
70
128
71
8
72
12
73
13
0
VERTEX
8
OBJECT__53
10
0
20
0
30
0
70
128
71
14
72
13
73
15
0
VERTEX
8
OBJECT__53
10
0
20
0
30
0
70
128
71
15
72
16
73
14
0
VERTEX
8
OBJECT__53
10
0
20
0
30
0
70
128
71
13
72
12
73
15
0
VERTEX
8
OBJECT__53
10
0
20
0
30
0
70
128
71
16
72
9
73
14
0
VERTEX
8
OBJECT__53
10
0
20
0
30
0
70
128
71
13
72
7
73
8
0
VERTEX
8
OBJECT__53
10
0
20
0
30
0
70
128
71
11
72
14
73
9
0
VERTEX
8
OBJECT__53
10
0
20
0
30
0
70
128
71
3
72
4
73
1
0
SEQEND
8
OBJECT__53
0
POLYLINE
8
OBJECT__54
66
1
70
64
71
34
72
32
62
253
0
VERTEX
8
OBJECT__54
10
-4.476000
20
12.474000
30
-20.336000
70
192
0
VERTEX
8
OBJECT__54
10
-8.186000
20
13.226000
30
-8.129000
70
192
0
VERTEX
8
OBJECT__54
10
-8.185000
20
13.226000
30
-8.129000
70
192
0
VERTEX
8
OBJECT__54
10
-3.732000
20
12.822000
30
-19.995001
70
192
0
VERTEX
8
OBJECT__54
10
-8.177000
20
13.227000
30
-8.127000
70
192
0
VERTEX
8
OBJECT__54
10
-8.147000
20
13.232000
30
-8.119000
70
192
0
VERTEX
8
OBJECT__54
10
-8.679000
20
13.149000
30
-8.264000
70
192
0
VERTEX
8
OBJECT__54
10
-9.892000
20
12.960000
30
-8.594000
70
192
0
VERTEX
8
OBJECT__54
10
-9.860000
20
12.965000
30
-8.585000
70
192
0
VERTEX
8
OBJECT__54
10
-10.292000
20
12.740000
30
-8.675000
70
192
0
VERTEX
8
OBJECT__54
10
-7.742000
20
13.295000
30
-8.008000
70
192
0
VERTEX
8
OBJECT__54
10
-7.711000
20
13.300000
30
-8.000000
70
192
0
VERTEX
8
OBJECT__54
10
-8.028000
20
13.251000
30
-8.086000
70
192
0
VERTEX
8
OBJECT__54
10
-0.479000
20
13.300000
30
-19.145000
70
192
0
VERTEX
8
OBJECT__54
10
-0.894000
20
13.293000
30
-19.225000
70
192
0
VERTEX
8
OBJECT__54
10
-7.600000
20
10.707000
30
-20.983000
70
192
0
VERTEX
8
OBJECT__54
10
-8.452000
20
9.965000
30
-20.947001
70
192
0
VERTEX
8
OBJECT__54
10
-7.168000
20
11.084000
30
-21.002001
70
192
0
VERTEX
8
OBJECT__54
10
-12.596000
20
11.472000
30
-9.142000
70
192
0
VERTEX
8
OBJECT__54
10
-12.098000
20
11.746000
30
-9.041000
70
192
0
VERTEX
8
OBJECT__54
10
-4.811000
20
12.317000
30
-20.490000
70
192
0
VERTEX
8
OBJECT__54
10
-5.891000
20
11.813000
30
-20.985001
70
192
0
VERTEX
8
OBJECT__54
10
-12.830000
20
11.188000
30
-9.150000
70
192
0
VERTEX
8
OBJECT__54
10
-10.001000
20
8.615000
30
-20.879999
70
192
0
VERTEX
8
OBJECT__54
10
-13.699000
20
10.136000
30
-9.177000
70
192
0
VERTEX
8
OBJECT__54
10
-11.153000
20
6.827000
30
-20.524000
70
192
0
VERTEX
8
OBJECT__54
10
-11.403000
20
6.438000
30
-20.447001
70
192
0
VERTEX
8
OBJECT__54
10
-14.574000
20
9.077000
30
-9.204000
70
192
0
VERTEX
8
OBJECT__54
10
-14.649000
20
8.867000
30
-9.152000
70
192
0
VERTEX
8
OBJECT__54
10
-13.091000
20
3.259000
30
-18.198000
70
192
0
VERTEX
8
OBJECT__54
10
-15.499000
20
6.480000
30
-8.556000
70
192
0
VERTEX
8
OBJECT__54
10
-14.889000
20
8.194000
30
-8.984000
70
192
0
VERTEX
8
OBJECT__54
10
-11.981000
20
5.541000
30
-20.268000
70
192
0
VERTEX
8
OBJECT__54
10
-12.865000
20
2.957000
30
-19.103001
70
192
0
VERTEX
8
OBJECT__54
10
0
20
0
30
0
70
128
71
1
72
2
73
3
0
VERTEX
8
OBJECT__54
10
0
20
0
30
0
70
128
71
3
72
4
73
1
0
VERTEX
8
OBJECT__54
10
0
20
0
30
0
70
128
71
3
72
5
73
4
0
VERTEX
8
OBJECT__54
10
0
20
0
30
0
70
128
71
5
72
6
73
4
0
VERTEX
8
OBJECT__54
10
0
20
0
30
0
70
128
71
1
72
7
73
2
0
VERTEX
8
OBJECT__54
10
0
20
0
30
0
70
128
71
1
72
8
73
9
0
VERTEX
8
OBJECT__54
10
0
20
0
30
0
70
128
71
9
72
7
73
1
0
VERTEX
8
OBJECT__54
10
0
20
0
30
0
70
128
71
1
72
10
73
8
0
VERTEX
8
OBJECT__54
10
0
20
0
30
0
70
128
71
4
72
11
73
12
0
VERTEX
8
OBJECT__54
10
0
20
0
30
0
70
128
71
4
72
13
73
11
0
VERTEX
8
OBJECT__54
10
0
20
0
30
0
70
128
71
4
72
6
73
13
0
VERTEX
8
OBJECT__54
10
0
20
0
30
0
70
128
71
12
72
14
73
15
0
VERTEX
8
OBJECT__54
10
0
20
0
30
0
70
128
71
12
72
15
73
4
0
VERTEX
8
OBJECT__54
10
0
20
0
30
0
70
128
71
10
72
16
73
17
0
VERTEX
8
OBJECT__54
10
0
20
0
30
0
70
128
71
10
72
18
73
16
0
VERTEX
8
OBJECT__54
10
0
20
0
30
0
70
128
71
17
72
19
73
20
0
VERTEX
8
OBJECT__54
10
0
20
0
30
0
70
128
71
10
72
21
73
22
0
VERTEX
8
OBJECT__54
10
0
20
0
30
0
70
128
71
10
72
1
73
21
0
VERTEX
8
OBJECT__54
10
0
20
0
30
0
70
128
71
22
72
18
73
10
0
VERTEX
8
OBJECT__54
10
0
20
0
30
0
70
128
71
17
72
23
73
19
0
VERTEX
8
OBJECT__54
10
0
20
0
30
0
70
128
71
23
72
17
73
24
0
VERTEX
8
OBJECT__54
10
0
20
0
30
0
70
128
71
25
72
26
73
27
0
VERTEX
8
OBJECT__54
10
0
20
0
30
0
70
128
71
25
72
24
73
26
0
VERTEX
8
OBJECT__54
10
0
20
0
30
0
70
128
71
27
72
28
73
25
0
VERTEX
8
OBJECT__54
10
0
20
0
30
0
70
128
71
27
72
29
73
28
0
VERTEX
8
OBJECT__54
10
0
20
0
30
0
70
128
71
29
72
27
73
30
0
VERTEX
8
OBJECT__54
10
0
20
0
30
0
70
128
71
30
72
31
73
32
0
VERTEX
8
OBJECT__54
10
0
20
0
30
0
70
128
71
30
72
27
73
33
0
VERTEX
8
OBJECT__54
10
0
20
0
30
0
70
128
71
33
72
34
73
30
0
VERTEX
8
OBJECT__54
10
0
20
0
30
0
70
128
71
30
72
32
73
29
0
VERTEX
8
OBJECT__54
10
0
20
0
30
0
70
128
71
24
72
25
73
23
0
VERTEX
8
OBJECT__54
10
0
20
0
30
0
70
128
71
17
72
20
73
10
0
SEQEND
8
OBJECT__54
0
POLYLINE
8
OBJECT__55
66
1
70
64
71
8
72
6
62
253
0
VERTEX
8
OBJECT__55
10
-0.400000
20
13.198000
30
-19.771000
70
192
0
VERTEX
8
OBJECT__55
10
-0.393000
20
13.195000
30
-19.778999
70
192
0
VERTEX
8
OBJECT__55
10
-2.736000
20
12.913000
30
-20.298000
70
192
0
VERTEX
8
OBJECT__55
10
-3.632000
20
12.770000
30
-20.247999
70
192
0
VERTEX
8
OBJECT__55
10
-3.732000
20
12.822000
30
-19.995001
70
192
0
VERTEX
8
OBJECT__55
10
-0.894000
20
13.293000
30
-19.225000
70
192
0
VERTEX
8
OBJECT__55
10
-0.479000
20
13.300000
30
-19.145000
70
192
0
VERTEX
8
OBJECT__55
10
-3.535000
20
12.718000
30
-20.497000
70
192
0
VERTEX
8
OBJECT__55
10
0
20
0
30
0
70
128
71
1
72
2
73
3
0
VERTEX
8
OBJECT__55
10
0
20
0
30
0
70
128
71
3
72
4
73
1
0
VERTEX
8
OBJECT__55
10
0
20
0
30
0
70
128
71
4
72
5
73
6
0
VERTEX
8
OBJECT__55
10
0
20
0
30
0
70
128
71
6
72
1
73
4
0
VERTEX
8
OBJECT__55
10
0
20
0
30
0
70
128
71
6
72
7
73
1
0
VERTEX
8
OBJECT__55
10
0
20
0
30
0
70
128
71
3
72
8
73
4
0
SEQEND
8
OBJECT__55
0
POLYLINE
8
OBJECT__56
66
1
70
64
71
9
72
8
62
253
0
VERTEX
8
OBJECT__56
10
-4.797000
20
12.363000
30
-20.608999
70
192
0
VERTEX
8
OBJECT__56
10
-4.811000
20
12.317000
30
-20.490000
70
192
0
VERTEX
8
OBJECT__56
10
-4.476000
20
12.474000
30
-20.336000
70
192
0
VERTEX
8
OBJECT__56
10
-3.632000
20
12.770000
30
-20.247999
70
192
0
VERTEX
8
OBJECT__56
10
-3.865000
20
12.621000
30
-20.573000
70
192
0
VERTEX
8
OBJECT__56
10
-3.535000
20
12.718000
30
-20.497000
70
192
0
VERTEX
8
OBJECT__56
10
-5.891000
20
11.813000
30
-20.985001
70
192
0
VERTEX
8
OBJECT__56
10
-4.717000
20
12.281000
30
-20.746000
70
192
0
VERTEX
8
OBJECT__56
10
-3.732000
20
12.822000
30
-19.995001
70
192
0
VERTEX
8
OBJECT__56
10
0
20
0
30
0
70
128
71
1
72
2
73
3
0
VERTEX
8
OBJECT__56
10
0
20
0
30
0
70
128
71
3
72
4
73
1
0
VERTEX
8
OBJECT__56
10
0
20
0
30
0
70
128
71
1
72
4
73
5
0
VERTEX
8
OBJECT__56
10
0
20
0
30
0
70
128
71
4
72
6
73
5
0
VERTEX
8
OBJECT__56
10
0
20
0
30
0
70
128
71
7
72
1
73
8
0
VERTEX
8
OBJECT__56
10
0
20
0
30
0
70
128
71
5
72
8
73
1
0
VERTEX
8
OBJECT__56
10
0
20
0
30
0
70
128
71
2
72
1
73
7
0
VERTEX
8
OBJECT__56
10
0
20
0
30
0
70
128
71
3
72
9
73
4
0
SEQEND
8
OBJECT__56
0
POLYLINE
8
OBJECT__57
66
1
70
64
71
40
72
38
62
253
0
VERTEX
8
OBJECT__57
10
-11.258000
20
6.892000
30
-26.131001
70
192
0
VERTEX
8
OBJECT__57
10
-13.200000
20
0.000000
30
-26.131001
70
192
0
VERTEX
8
OBJECT__57
10
-11.981000
20
5.541000
30
-20.268000
70
192
0
VERTEX
8
OBJECT__57
10
-11.403000
20
6.438000
30
-20.447001
70
192
0
VERTEX
8
OBJECT__57
10
-13.200000
20
0.000000
30
-18.450001
70
192
0
VERTEX
8
OBJECT__57
10
-13.128000
20
1.376000
30
-18.438999
70
192
0
VERTEX
8
OBJECT__57
10
-12.865000
20
2.957000
30
-19.103001
70
192
0
VERTEX
8
OBJECT__57
10
-7.646000
20
10.760000
30
-26.131001
70
192
0
VERTEX
8
OBJECT__57
10
-9.144000
20
9.156000
30
-26.131001
70
192
0
VERTEX
8
OBJECT__57
10
-8.452000
20
9.965000
30
-20.947001
70
192
0
VERTEX
8
OBJECT__57
10
-10.001000
20
8.615000
30
-20.879999
70
192
0
VERTEX
8
OBJECT__57
10
-7.600000
20
10.707000
30
-20.983000
70
192
0
VERTEX
8
OBJECT__57
10
-11.153000
20
6.827000
30
-20.524000
70
192
0
VERTEX
8
OBJECT__57
10
0.000000
20
13.200000
30
-26.131001
70
192
0
VERTEX
8
OBJECT__57
10
-0.393000
20
13.195000
30
-19.778999
70
192
0
VERTEX
8
OBJECT__57
10
-0.239000
20
13.198000
30
-19.750999
70
192
0
VERTEX
8
OBJECT__57
10
-2.736000
20
12.913000
30
-20.298000
70
192
0
VERTEX
8
OBJECT__57
10
-3.535000
20
12.718000
30
-20.497000
70
192
0
VERTEX
8
OBJECT__57
10
-3.865000
20
12.621000
30
-20.573000
70
192
0
VERTEX
8
OBJECT__57
10
-5.891000
20
11.813000
30
-20.985001
70
192
0
VERTEX
8
OBJECT__57
10
-4.717000
20
12.281000
30
-20.746000
70
192
0
VERTEX
8
OBJECT__57
10
-7.168000
20
11.084000
30
-21.002001
70
192
0
VERTEX
8
OBJECT__57
10
7.997000
20
10.502000
30
-26.131001
70
192
0
VERTEX
8
OBJECT__57
10
4.052000
20
12.563000
30
-19.822001
70
192
0
VERTEX
8
OBJECT__57
10
5.667000
20
11.922000
30
-19.816999
70
192
0
VERTEX
8
OBJECT__57
10
-0.001000
20
13.180000
30
-19.750999
70
192
0
VERTEX
8
OBJECT__57
10
2.204000
20
13.015000
30
-19.746000
70
192
0
VERTEX
8
OBJECT__57
10
12.564000
20
4.048000
30
-26.131001
70
192
0
VERTEX
8
OBJECT__57
10
11.619000
20
6.265000
30
-19.857000
70
192
0
VERTEX
8
OBJECT__57
10
11.872000
20
5.770000
30
-19.856001
70
192
0
VERTEX
8
OBJECT__57
10
8.994000
20
9.093000
30
-26.131001
70
192
0
VERTEX
8
OBJECT__57
10
10.916000
20
7.204000
30
-19.855000
70
192
0
VERTEX
8
OBJECT__57
10
9.293000
20
9.374000
30
-19.851999
70
192
0
VERTEX
8
OBJECT__57
10
7.930000
20
10.402000
30
-19.839001
70
192
0
VERTEX
8
OBJECT__57
10
8.891000
20
9.757000
30
-19.849001
70
192
0
VERTEX
8
OBJECT__57
10
13.200000
20
0.000000
30
-26.131001
70
192
0
VERTEX
8
OBJECT__57
10
13.037000
20
2.066000
30
-19.850000
70
192
0
VERTEX
8
OBJECT__57
10
12.427000
20
4.005000
30
-19.853001
70
192
0
VERTEX
8
OBJECT__57
10
13.113000
20
1.516000
30
-19.850000
70
192
0
VERTEX
8
OBJECT__57
10
13.200000
20
0.000000
30
-19.850000
70
192
0
VERTEX
8
OBJECT__57
10
0
20
0
30
0
70
128
71
1
72
2
73
3
0
VERTEX
8
OBJECT__57
10
0
20
0
30
0
70
128
71
3
72
4
73
1
0
VERTEX
8
OBJECT__57
10
0
20
0
30
0
70
128
71
2
72
5
73
6
0
VERTEX
8
OBJECT__57
10
0
20
0
30
0
70
128
71
6
72
7
73
2
0
VERTEX
8
OBJECT__57
10
0
20
0
30
0
70
128
71
7
72
3
73
2
0
VERTEX
8
OBJECT__57
10
0
20
0
30
0
70
128
71
8
72
9
73
10
0
VERTEX
8
OBJECT__57
10
0
20
0
30
0
70
128
71
9
72
11
73
10
0
VERTEX
8
OBJECT__57
10
0
20
0
30
0
70
128
71
10
72
12
73
8
0
VERTEX
8
OBJECT__57
10
0
20
0
30
0
70
128
71
1
72
13
73
11
0
VERTEX
8
OBJECT__57
10
0
20
0
30
0
70
128
71
14
72
15
73
16
0
VERTEX
8
OBJECT__57
10
0
20
0
30
0
70
128
71
14
72
17
73
15
0
VERTEX
8
OBJECT__57
10
0
20
0
30
0
70
128
71
14
72
18
73
17
0
VERTEX
8
OBJECT__57
10
0
20
0
30
0
70
128
71
14
72
19
73
18
0
VERTEX
8
OBJECT__57
10
0
20
0
30
0
70
128
71
14
72
8
73
20
0
VERTEX
8
OBJECT__57
10
0
20
0
30
0
70
128
71
20
72
21
73
14
0
VERTEX
8
OBJECT__57
10
0
20
0
30
0
70
128
71
21
72
19
73
14
0
VERTEX
8
OBJECT__57
10
0
20
0
30
0
70
128
71
8
72
12
73
22
0
VERTEX
8
OBJECT__57
10
0
20
0
30
0
70
128
71
22
72
20
73
8
0
VERTEX
8
OBJECT__57
10
0
20
0
30
0
70
128
71
23
72
14
73
24
0
VERTEX
8
OBJECT__57
10
0
20
0
30
0
70
128
71
24
72
25
73
23
0
VERTEX
8
OBJECT__57
10
0
20
0
30
0
70
128
71
14
72
26
73
27
0
VERTEX
8
OBJECT__57
10
0
20
0
30
0
70
128
71
27
72
24
73
14
0
VERTEX
8
OBJECT__57
10
0
20
0
30
0
70
128
71
28
72
29
73
30
0
VERTEX
8
OBJECT__57
10
0
20
0
30
0
70
128
71
28
72
31
73
32
0
VERTEX
8
OBJECT__57
10
0
20
0
30
0
70
128
71
31
72
33
73
32
0
VERTEX
8
OBJECT__57
10
0
20
0
30
0
70
128
71
32
72
29
73
28
0
VERTEX
8
OBJECT__57
10
0
20
0
30
0
70
128
71
23
72
34
73
35
0
VERTEX
8
OBJECT__57
10
0
20
0
30
0
70
128
71
35
72
31
73
23
0
VERTEX
8
OBJECT__57
10
0
20
0
30
0
70
128
71
35
72
33
73
31
0
VERTEX
8
OBJECT__57
10
0
20
0
30
0
70
128
71
36
72
28
73
37
0
VERTEX
8
OBJECT__57
10
0
20
0
30
0
70
128
71
28
72
38
73
37
0
VERTEX
8
OBJECT__57
10
0
20
0
30
0
70
128
71
37
72
39
73
36
0
VERTEX
8
OBJECT__57
10
0
20
0
30
0
70
128
71
39
72
40
73
36
0
VERTEX
8
OBJECT__57
10
0
20
0
30
0
70
128
71
30
72
38
73
28
0
VERTEX
8
OBJECT__57
10
0
20
0
30
0
70
128
71
25
72
34
73
23
0
VERTEX
8
OBJECT__57
10
0
20
0
30
0
70
128
71
16
72
26
73
14
0
VERTEX
8
OBJECT__57
10
0
20
0
30
0
70
128
71
9
72
1
73
11
0
VERTEX
8
OBJECT__57
10
0
20
0
30
0
70
128
71
4
72
13
73
1
0
SEQEND
8
OBJECT__57
0
POLYLINE
8
OBJECT__58
66
1
70
64
71
22
72
20
62
253
0
VERTEX
8
OBJECT__58
10
14.755000
20
0.000000
30
-18.662001
70
192
0
VERTEX
8
OBJECT__58
10
13.200000
20
0.000000
30
-19.850000
70
192
0
VERTEX
8
OBJECT__58
10
13.113000
20
1.516000
30
-19.850000
70
192
0
VERTEX
8
OBJECT__58
10
14.745000
20
3.747000
30
-18.281000
70
192
0
VERTEX
8
OBJECT__58
10
13.037000
20
2.066000
30
-19.850000
70
192
0
VERTEX
8
OBJECT__58
10
14.734000
20
5.355000
30
-17.711000
70
192
0
VERTEX
8
OBJECT__58
10
12.427000
20
4.005000
30
-19.853001
70
192
0
VERTEX
8
OBJECT__58
10
11.872000
20
5.770000
30
-19.856001
70
192
0
VERTEX
8
OBJECT__58
10
14.725000
20
6.707000
30
-17.233000
70
192
0
VERTEX
8
OBJECT__58
10
11.619000
20
6.265000
30
-19.857000
70
192
0
VERTEX
8
OBJECT__58
10
14.714000
20
8.400000
30
-16.634001
70
192
0
VERTEX
8
OBJECT__58
10
10.916000
20
7.204000
30
-19.855000
70
192
0
VERTEX
8
OBJECT__58
10
9.293000
20
9.374000
30
-19.851999
70
192
0
VERTEX
8
OBJECT__58
10
13.630000
20
12.398000
30
-14.826000
70
192
0
VERTEX
8
OBJECT__58
10
14.673000
20
12.394000
30
-13.852000
70
192
0
VERTEX
8
OBJECT__58
10
14.696000
20
10.086000
30
-15.459000
70
192
0
VERTEX
8
OBJECT__58
10
8.891000
20
9.757000
30
-19.849001
70
192
0
VERTEX
8
OBJECT__58
10
9.334000
20
12.448000
30
-17.764000
70
192
0
VERTEX
8
OBJECT__58
10
7.930000
20
10.402000
30
-19.839001
70
192
0
VERTEX
8
OBJECT__58
10
5.667000
20
11.922000
30
-19.816999
70
192
0
VERTEX
8
OBJECT__58
10
7.664000
20
12.484000
30
-18.414000
70
192
0
VERTEX
8
OBJECT__58
10
4.052000
20
12.563000
30
-19.822001
70
192
0
VERTEX
8
OBJECT__58
10
0
20
0
30
0
70
128
71
1
72
2
73
3
0
VERTEX
8
OBJECT__58
10
0
20
0
30
0
70
128
71
3
72
4
73
1
0
VERTEX
8
OBJECT__58
10
0
20
0
30
0
70
128
71
3
72
5
73
4
0
VERTEX
8
OBJECT__58
10
0
20
0
30
0
70
128
71
6
72
4
73
7
0
VERTEX
8
OBJECT__58
10
0
20
0
30
0
70
128
71
8
72
9
73
6
0
VERTEX
8
OBJECT__58
10
0
20
0
30
0
70
128
71
7
72
8
73
6
0
VERTEX
8
OBJECT__58
10
0
20
0
30
0
70
128
71
8
72
10
73
9
0
VERTEX
8
OBJECT__58
10
0
20
0
30
0
70
128
71
5
72
7
73
4
0
VERTEX
8
OBJECT__58
10
0
20
0
30
0
70
128
71
11
72
9
73
12
0
VERTEX
8
OBJECT__58
10
0
20
0
30
0
70
128
71
12
72
13
73
11
0
VERTEX
8
OBJECT__58
10
0
20
0
30
0
70
128
71
14
72
15
73
16
0
VERTEX
8
OBJECT__58
10
0
20
0
30
0
70
128
71
11
72
17
73
18
0
VERTEX
8
OBJECT__58
10
0
20
0
30
0
70
128
71
18
72
14
73
11
0
VERTEX
8
OBJECT__58
10
0
20
0
30
0
70
128
71
19
72
20
73
21
0
VERTEX
8
OBJECT__58
10
0
20
0
30
0
70
128
71
18
72
17
73
19
0
VERTEX
8
OBJECT__58
10
0
20
0
30
0
70
128
71
21
72
18
73
19
0
VERTEX
8
OBJECT__58
10
0
20
0
30
0
70
128
71
16
72
11
73
14
0
VERTEX
8
OBJECT__58
10
0
20
0
30
0
70
128
71
13
72
17
73
11
0
VERTEX
8
OBJECT__58
10
0
20
0
30
0
70
128
71
20
72
22
73
21
0
VERTEX
8
OBJECT__58
10
0
20
0
30
0
70
128
71
10
72
12
73
9
0
SEQEND
8
OBJECT__58
0
POLYLINE
8
OBJECT__59
66
1
70
64
71
22
72
20
62
253
0
VERTEX
8
OBJECT__59
10
14.755000
20
0.000000
30
-18.662001
70
192
0
VERTEX
8
OBJECT__59
10
14.744000
20
-3.850000
30
-18.259001
70
192
0
VERTEX
8
OBJECT__59
10
13.113000
20
-1.516000
30
-19.850000
70
192
0
VERTEX
8
OBJECT__59
10
12.441000
20
-4.015000
30
-19.853001
70
192
0
VERTEX
8
OBJECT__59
10
12.104000
20
-5.266000
30
-19.855000
70
192
0
VERTEX
8
OBJECT__59
10
14.735000
20
-5.358000
30
-17.719999
70
192
0
VERTEX
8
OBJECT__59
10
14.726000
20
-6.709000
30
-17.237000
70
192
0
VERTEX
8
OBJECT__59
10
10.889000
20
-7.207000
30
-19.855000
70
192
0
VERTEX
8
OBJECT__59
10
11.872000
20
-5.770000
30
-19.856001
70
192
0
VERTEX
8
OBJECT__59
10
7.913000
20
-10.388000
30
-19.837999
70
192
0
VERTEX
8
OBJECT__59
10
9.360000
20
-12.448000
30
-17.750000
70
192
0
VERTEX
8
OBJECT__59
10
7.663000
20
-12.485000
30
-18.412001
70
192
0
VERTEX
8
OBJECT__59
10
6.164000
20
-11.673000
30
-19.820000
70
192
0
VERTEX
8
OBJECT__59
10
9.293000
20
-9.374000
30
-19.851999
70
192
0
VERTEX
8
OBJECT__59
10
9.680000
20
-8.975000
30
-19.855000
70
192
0
VERTEX
8
OBJECT__59
10
14.715000
20
-8.402000
30
-16.632000
70
192
0
VERTEX
8
OBJECT__59
10
14.697000
20
-10.086000
30
-15.459000
70
192
0
VERTEX
8
OBJECT__59
10
14.673000
20
-12.394000
30
-13.852000
70
192
0
VERTEX
8
OBJECT__59
10
13.806000
20
-12.397000
30
-14.671000
70
192
0
VERTEX
8
OBJECT__59
10
4.052000
20
-12.563000
30
-19.822001
70
192
0
VERTEX
8
OBJECT__59
10
5.667000
20
-11.922000
30
-19.816999
70
192
0
VERTEX
8
OBJECT__59
10
13.200000
20
0.000000
30
-19.850000
70
192
0
VERTEX
8
OBJECT__59
10
0
20
0
30
0
70
128
71
1
72
2
73
3
0
VERTEX
8
OBJECT__59
10
0
20
0
30
0
70
128
71
4
72
3
73
2
0
VERTEX
8
OBJECT__59
10
0
20
0
30
0
70
128
71
5
72
4
73
6
0
VERTEX
8
OBJECT__59
10
0
20
0
30
0
70
128
71
6
72
7
73
5
0
VERTEX
8
OBJECT__59
10
0
20
0
30
0
70
128
71
7
72
8
73
9
0
VERTEX
8
OBJECT__59
10
0
20
0
30
0
70
128
71
9
72
5
73
7
0
VERTEX
8
OBJECT__59
10
0
20
0
30
0
70
128
71
2
72
6
73
4
0
VERTEX
8
OBJECT__59
10
0
20
0
30
0
70
128
71
10
72
11
73
12
0
VERTEX
8
OBJECT__59
10
0
20
0
30
0
70
128
71
12
72
13
73
10
0
VERTEX
8
OBJECT__59
10
0
20
0
30
0
70
128
71
10
72
14
73
11
0
VERTEX
8
OBJECT__59
10
0
20
0
30
0
70
128
71
14
72
15
73
11
0
VERTEX
8
OBJECT__59
10
0
20
0
30
0
70
128
71
11
72
16
73
17
0
VERTEX
8
OBJECT__59
10
0
20
0
30
0
70
128
71
17
72
18
73
19
0
VERTEX
8
OBJECT__59
10
0
20
0
30
0
70
128
71
8
72
7
73
16
0
VERTEX
8
OBJECT__59
10
0
20
0
30
0
70
128
71
16
72
11
73
8
0
VERTEX
8
OBJECT__59
10
0
20
0
30
0
70
128
71
17
72
19
73
11
0
VERTEX
8
OBJECT__59
10
0
20
0
30
0
70
128
71
12
72
20
73
21
0
VERTEX
8
OBJECT__59
10
0
20
0
30
0
70
128
71
21
72
13
73
12
0
VERTEX
8
OBJECT__59
10
0
20
0
30
0
70
128
71
15
72
8
73
11
0
VERTEX
8
OBJECT__59
10
0
20
0
30
0
70
128
71
3
72
22
73
1
0
SEQEND
8
OBJECT__59
0
POLYLINE
8
OBJECT__60
66
1
70
64
71
18
72
16
62
253
0
VERTEX
8
OBJECT__60
10
20.757000
20
-7.595000
30
-11.681000
70
192
0
VERTEX
8
OBJECT__60
10
14.715000
20
-8.402000
30
-16.632000
70
192
0
VERTEX
8
OBJECT__60
10
14.726000
20
-6.709000
30
-17.237000
70
192
0
VERTEX
8
OBJECT__60
10
14.697000
20
-10.086000
30
-15.459000
70
192
0
VERTEX
8
OBJECT__60
10
20.785000
20
-4.121000
30
-13.307000
70
192
0
VERTEX
8
OBJECT__60
10
14.735000
20
-5.358000
30
-17.719999
70
192
0
VERTEX
8
OBJECT__60
10
20.782000
20
-3.982000
30
-13.328000
70
192
0
VERTEX
8
OBJECT__60
10
20.791000
20
-10.639000
30
-8.977000
70
192
0
VERTEX
8
OBJECT__60
10
20.920000
20
-12.721000
30
-5.662000
70
192
0
VERTEX
8
OBJECT__60
10
18.729000
20
-12.577000
30
-9.137000
70
192
0
VERTEX
8
OBJECT__60
10
20.757000
20
-7.627000
30
-11.653000
70
192
0
VERTEX
8
OBJECT__60
10
17.295000
20
-12.512000
30
-10.803000
70
192
0
VERTEX
8
OBJECT__60
10
14.673000
20
-12.394000
30
-13.852000
70
192
0
VERTEX
8
OBJECT__60
10
20.788000
20
-10.597000
30
-9.043000
70
192
0
VERTEX
8
OBJECT__60
10
14.744000
20
-3.850000
30
-18.259001
70
192
0
VERTEX
8
OBJECT__60
10
14.755000
20
0.000000
30
-18.662001
70
192
0
VERTEX
8
OBJECT__60
10
18.881001
20
0.000000
30
-15.380000
70
192
0
VERTEX
8
OBJECT__60
10
20.697001
20
0.000000
30
-13.935000
70
192
0
VERTEX
8
OBJECT__60
10
0
20
0
30
0
70
128
71
1
72
2
73
3
0
VERTEX
8
OBJECT__60
10
0
20
0
30
0
70
128
71
1
72
4
73
2
0
VERTEX
8
OBJECT__60
10
0
20
0
30
0
70
128
71
3
72
5
73
1
0
VERTEX
8
OBJECT__60
10
0
20
0
30
0
70
128
71
6
72
7
73
5
0
VERTEX
8
OBJECT__60
10
0
20
0
30
0
70
128
71
3
72
6
73
5
0
VERTEX
8
OBJECT__60
10
0
20
0
30
0
70
128
71
8
72
9
73
10
0
VERTEX
8
OBJECT__60
10
0
20
0
30
0
70
128
71
11
72
12
73
13
0
VERTEX
8
OBJECT__60
10
0
20
0
30
0
70
128
71
11
72
14
73
12
0
VERTEX
8
OBJECT__60
10
0
20
0
30
0
70
128
71
13
72
4
73
11
0
VERTEX
8
OBJECT__60
10
0
20
0
30
0
70
128
71
15
72
16
73
17
0
VERTEX
8
OBJECT__60
10
0
20
0
30
0
70
128
71
7
72
6
73
15
0
VERTEX
8
OBJECT__60
10
0
20
0
30
0
70
128
71
17
72
7
73
15
0
VERTEX
8
OBJECT__60
10
0
20
0
30
0
70
128
71
17
72
18
73
7
0
VERTEX
8
OBJECT__60
10
0
20
0
30
0
70
128
71
14
72
8
73
12
0
VERTEX
8
OBJECT__60
10
0
20
0
30
0
70
128
71
10
72
12
73
8
0
VERTEX
8
OBJECT__60
10
0
20
0
30
0
70
128
71
1
72
11
73
4
0
SEQEND
8
OBJECT__60
0
POLYLINE
8
OBJECT__61
66
1
70
64
71
15
72
13
62
253
0
VERTEX
8
OBJECT__61
10
6.989000
20
-13.300000
30
-16.948999
70
192
0
VERTEX
8
OBJECT__61
10
7.663000
20
-12.485000
30
-18.412001
70
192
0
VERTEX
8
OBJECT__61
10
9.360000
20
-12.448000
30
-17.750000
70
192
0
VERTEX
8
OBJECT__61
10
13.829000
20
-13.241000
30
-13.011000
70
192
0
VERTEX
8
OBJECT__61
10
13.486000
20
-13.300000
30
-12.670000
70
192
0
VERTEX
8
OBJECT__61
10
9.516000
20
-13.300000
30
-15.771000
70
192
0
VERTEX
8
OBJECT__61
10
13.806000
20
-12.397000
30
-14.671000
70
192
0
VERTEX
8
OBJECT__61
10
14.673000
20
-12.394000
30
-13.852000
70
192
0
VERTEX
8
OBJECT__61
10
4.846000
20
-13.300000
30
-17.948000
70
192
0
VERTEX
8
OBJECT__61
10
-0.479000
20
-13.300000
30
-19.145000
70
192
0
VERTEX
8
OBJECT__61
10
-0.005000
20
-13.163000
30
-19.754999
70
192
0
VERTEX
8
OBJECT__61
10
-0.239000
20
-13.198000
30
-19.750999
70
192
0
VERTEX
8
OBJECT__61
10
4.052000
20
-12.563000
30
-19.822001
70
192
0
VERTEX
8
OBJECT__61
10
-0.400000
20
-13.198000
30
-19.771000
70
192
0
VERTEX
8
OBJECT__61
10
-0.393000
20
-13.195000
30
-19.778999
70
192
0
VERTEX
8
OBJECT__61
10
0
20
0
30
0
70
128
71
1
72
2
73
3
0
VERTEX
8
OBJECT__61
10
0
20
0
30
0
70
128
71
4
72
5
73
6
0
VERTEX
8
OBJECT__61
10
0
20
0
30
0
70
128
71
4
72
3
73
7
0
VERTEX
8
OBJECT__61
10
0
20
0
30
0
70
128
71
7
72
8
73
4
0
VERTEX
8
OBJECT__61
10
0
20
0
30
0
70
128
71
6
72
3
73
4
0
VERTEX
8
OBJECT__61
10
0
20
0
30
0
70
128
71
9
72
10
73
11
0
VERTEX
8
OBJECT__61
10
0
20
0
30
0
70
128
71
10
72
12
73
11
0
VERTEX
8
OBJECT__61
10
0
20
0
30
0
70
128
71
2
72
1
73
9
0
VERTEX
8
OBJECT__61
10
0
20
0
30
0
70
128
71
9
72
13
73
2
0
VERTEX
8
OBJECT__61
10
0
20
0
30
0
70
128
71
12
72
10
73
14
0
VERTEX
8
OBJECT__61
10
0
20
0
30
0
70
128
71
14
72
15
73
12
0
VERTEX
8
OBJECT__61
10
0
20
0
30
0
70
128
71
11
72
13
73
9
0
VERTEX
8
OBJECT__61
10
0
20
0
30
0
70
128
71
3
72
6
73
1
0
SEQEND
8
OBJECT__61
0
POLYLINE
8
OBJECT__62
66
1
70
64
71
39
72
37
62
253
0
VERTEX
8
OBJECT__62
10
12.564000
20
-4.048000
30
-26.131001
70
192
0
VERTEX
8
OBJECT__62
10
13.200000
20
0.000000
30
-26.131001
70
192
0
VERTEX
8
OBJECT__62
10
13.113000
20
-1.516000
30
-19.850000
70
192
0
VERTEX
8
OBJECT__62
10
13.200000
20
0.000000
30
-19.850000
70
192
0
VERTEX
8
OBJECT__62
10
7.997000
20
-10.502000
30
-26.131001
70
192
0
VERTEX
8
OBJECT__62
10
8.994000
20
-9.093000
30
-26.131001
70
192
0
VERTEX
8
OBJECT__62
10
9.293000
20
-9.374000
30
-19.851999
70
192
0
VERTEX
8
OBJECT__62
10
9.680000
20
-8.975000
30
-19.855000
70
192
0
VERTEX
8
OBJECT__62
10
11.872000
20
-5.770000
30
-19.856001
70
192
0
VERTEX
8
OBJECT__62
10
10.889000
20
-7.207000
30
-19.855000
70
192
0
VERTEX
8
OBJECT__62
10
12.441000
20
-4.015000
30
-19.853001
70
192
0
VERTEX
8
OBJECT__62
10
12.104000
20
-5.266000
30
-19.855000
70
192
0
VERTEX
8
OBJECT__62
10
5.667000
20
-11.922000
30
-19.816999
70
192
0
VERTEX
8
OBJECT__62
10
4.052000
20
-12.563000
30
-19.822001
70
192
0
VERTEX
8
OBJECT__62
10
6.164000
20
-11.673000
30
-19.820000
70
192
0
VERTEX
8
OBJECT__62
10
7.913000
20
-10.388000
30
-19.837999
70
192
0
VERTEX
8
OBJECT__62
10
0.000000
20
-13.200000
30
-26.131001
70
192
0
VERTEX
8
OBJECT__62
10
-7.646000
20
-10.760000
30
-26.131001
70
192
0
VERTEX
8
OBJECT__62
10
-5.891000
20
-11.813000
30
-20.985001
70
192
0
VERTEX
8
OBJECT__62
10
-7.168000
20
-11.084000
30
-21.002001
70
192
0
VERTEX
8
OBJECT__62
10
-4.713000
20
-12.265000
30
-20.740999
70
192
0
VERTEX
8
OBJECT__62
10
-3.535000
20
-12.718000
30
-20.497000
70
192
0
VERTEX
8
OBJECT__62
10
-0.005000
20
-13.163000
30
-19.754999
70
192
0
VERTEX
8
OBJECT__62
10
-0.239000
20
-13.198000
30
-19.750999
70
192
0
VERTEX
8
OBJECT__62
10
-0.393000
20
-13.195000
30
-19.778999
70
192
0
VERTEX
8
OBJECT__62
10
-2.736000
20
-12.913000
30
-20.298000
70
192
0
VERTEX
8
OBJECT__62
10
-9.144000
20
-9.156000
30
-26.131001
70
192
0
VERTEX
8
OBJECT__62
10
-8.452000
20
-9.965000
30
-20.947001
70
192
0
VERTEX
8
OBJECT__62
10
-10.001000
20
-8.615000
30
-20.879999
70
192
0
VERTEX
8
OBJECT__62
10
-7.600000
20
-10.707000
30
-20.983000
70
192
0
VERTEX
8
OBJECT__62
10
-11.258000
20
-6.892000
30
-26.131001
70
192
0
VERTEX
8
OBJECT__62
10
-13.200000
20
0.000000
30
-26.131001
70
192
0
VERTEX
8
OBJECT__62
10
-12.879000
20
-2.893000
30
-19.061001
70
192
0
VERTEX
8
OBJECT__62
10
-13.128000
20
-1.376000
30
-18.438999
70
192
0
VERTEX
8
OBJECT__62
10
-12.865000
20
-2.957000
30
-19.103001
70
192
0
VERTEX
8
OBJECT__62
10
-11.981000
20
-5.541000
30
-20.268000
70
192
0
VERTEX
8
OBJECT__62
10
-11.403000
20
-6.438000
30
-20.447001
70
192
0
VERTEX
8
OBJECT__62
10
-11.153000
20
-6.827000
30
-20.524000
70
192
0
VERTEX
8
OBJECT__62
10
-13.200000
20
0.000000
30
-18.450001
70
192
0
VERTEX
8
OBJECT__62
10
0
20
0
30
0
70
128
71
1
72
2
73
3
0
VERTEX
8
OBJECT__62
10
0
20
0
30
0
70
128
71
2
72
4
73
3
0
VERTEX
8
OBJECT__62
10
0
20
0
30
0
70
128
71
5
72
6
73
7
0
VERTEX
8
OBJECT__62
10
0
20
0
30
0
70
128
71
6
72
8
73
7
0
VERTEX
8
OBJECT__62
10
0
20
0
30
0
70
128
71
1
72
9
73
10
0
VERTEX
8
OBJECT__62
10
0
20
0
30
0
70
128
71
10
72
6
73
1
0
VERTEX
8
OBJECT__62
10
0
20
0
30
0
70
128
71
1
72
11
73
12
0
VERTEX
8
OBJECT__62
10
0
20
0
30
0
70
128
71
12
72
9
73
1
0
VERTEX
8
OBJECT__62
10
0
20
0
30
0
70
128
71
10
72
8
73
6
0
VERTEX
8
OBJECT__62
10
0
20
0
30
0
70
128
71
5
72
13
73
14
0
VERTEX
8
OBJECT__62
10
0
20
0
30
0
70
128
71
5
72
15
73
13
0
VERTEX
8
OBJECT__62
10
0
20
0
30
0
70
128
71
5
72
16
73
15
0
VERTEX
8
OBJECT__62
10
0
20
0
30
0
70
128
71
14
72
17
73
5
0
VERTEX
8
OBJECT__62
10
0
20
0
30
0
70
128
71
18
72
19
73
20
0
VERTEX
8
OBJECT__62
10
0
20
0
30
0
70
128
71
17
72
21
73
19
0
VERTEX
8
OBJECT__62
10
0
20
0
30
0
70
128
71
17
72
22
73
21
0
VERTEX
8
OBJECT__62
10
0
20
0
30
0
70
128
71
17
72
23
73
24
0
VERTEX
8
OBJECT__62
10
0
20
0
30
0
70
128
71
24
72
25
73
17
0
VERTEX
8
OBJECT__62
10
0
20
0
30
0
70
128
71
25
72
26
73
17
0
VERTEX
8
OBJECT__62
10
0
20
0
30
0
70
128
71
26
72
22
73
17
0
VERTEX
8
OBJECT__62
10
0
20
0
30
0
70
128
71
19
72
18
73
17
0
VERTEX
8
OBJECT__62
10
0
20
0
30
0
70
128
71
27
72
28
73
29
0
VERTEX
8
OBJECT__62
10
0
20
0
30
0
70
128
71
18
72
30
73
28
0
VERTEX
8
OBJECT__62
10
0
20
0
30
0
70
128
71
28
72
27
73
18
0
VERTEX
8
OBJECT__62
10
0
20
0
30
0
70
128
71
29
72
31
73
27
0
VERTEX
8
OBJECT__62
10
0
20
0
30
0
70
128
71
32
72
33
73
34
0
VERTEX
8
OBJECT__62
10
0
20
0
30
0
70
128
71
32
72
35
73
33
0
VERTEX
8
OBJECT__62
10
0
20
0
30
0
70
128
71
32
72
36
73
35
0
VERTEX
8
OBJECT__62
10
0
20
0
30
0
70
128
71
31
72
37
73
36
0
VERTEX
8
OBJECT__62
10
0
20
0
30
0
70
128
71
31
72
38
73
37
0
VERTEX
8
OBJECT__62
10
0
20
0
30
0
70
128
71
36
72
32
73
31
0
VERTEX
8
OBJECT__62
10
0
20
0
30
0
70
128
71
34
72
39
73
32
0
VERTEX
8
OBJECT__62
10
0
20
0
30
0
70
128
71
29
72
38
73
31
0
VERTEX
8
OBJECT__62
10
0
20
0
30
0
70
128
71
20
72
30
73
18
0
VERTEX
8
OBJECT__62
10
0
20
0
30
0
70
128
71
14
72
23
73
17
0
VERTEX
8
OBJECT__62
10
0
20
0
30
0
70
128
71
7
72
16
73
5
0
VERTEX
8
OBJECT__62
10
0
20
0
30
0
70
128
71
3
72
11
73
1
0
SEQEND
8
OBJECT__62
0
POLYLINE
8
OBJECT__63
66
1
70
64
71
31
72
29
62
253
0
VERTEX
8
OBJECT__63
10
-3.732000
20
-12.822000
30
-19.995001
70
192
0
VERTEX
8
OBJECT__63
10
-8.153000
20
-13.286000
30
-8.129000
70
192
0
VERTEX
8
OBJECT__63
10
-8.183000
20
-13.284000
30
-8.137000
70
192
0
VERTEX
8
OBJECT__63
10
-8.191000
20
-13.284000
30
-8.139000
70
192
0
VERTEX
8
OBJECT__63
10
-8.193000
20
-13.283000
30
-8.140000
70
192
0
VERTEX
8
OBJECT__63
10
-8.033000
20
-13.293000
30
-8.094000
70
192
0
VERTEX
8
OBJECT__63
10
-1.476000
20
-13.259000
30
-19.351000
70
192
0
VERTEX
8
OBJECT__63
10
-7.711000
20
-13.300000
30
-8.000000
70
192
0
VERTEX
8
OBJECT__63
10
-7.743000
20
-13.300000
30
-8.009000
70
192
0
VERTEX
8
OBJECT__63
10
-4.476000
20
-12.474000
30
-20.336000
70
192
0
VERTEX
8
OBJECT__63
10
-8.688000
20
-13.232000
30
-8.279000
70
192
0
VERTEX
8
OBJECT__63
10
-9.860000
20
-12.970000
30
-8.586000
70
192
0
VERTEX
8
OBJECT__63
10
-10.299000
20
-12.750000
30
-8.680000
70
192
0
VERTEX
8
OBJECT__63
10
-7.168000
20
-11.084000
30
-21.002001
70
192
0
VERTEX
8
OBJECT__63
10
-5.891000
20
-11.813000
30
-20.985001
70
192
0
VERTEX
8
OBJECT__63
10
-4.811000
20
-12.317000
30
-20.490000
70
192
0
VERTEX
8
OBJECT__63
10
-12.137000
20
-11.828000
30
-9.071000
70
192
0
VERTEX
8
OBJECT__63
10
-8.452000
20
-9.965000
30
-20.947001
70
192
0
VERTEX
8
OBJECT__63
10
-7.600000
20
-10.707000
30
-20.983000
70
192
0
VERTEX
8
OBJECT__63
10
-13.807000
20
-10.227000
30
-9.252000
70
192
0
VERTEX
8
OBJECT__63
10
-14.622000
20
-8.840000
30
-9.134000
70
192
0
VERTEX
8
OBJECT__63
10
-11.403000
20
-6.438000
30
-20.447001
70
192
0
VERTEX
8
OBJECT__63
10
-11.153000
20
-6.827000
30
-20.524000
70
192
0
VERTEX
8
OBJECT__63
10
-12.824000
20
-11.169000
30
-9.145000
70
192
0
VERTEX
8
OBJECT__63
10
-10.001000
20
-8.615000
30
-20.879999
70
192
0
VERTEX
8
OBJECT__63
10
-14.994000
20
-8.208000
30
-9.081000
70
192
0
VERTEX
8
OBJECT__63
10
-15.499000
20
-6.480000
30
-8.556000
70
192
0
VERTEX
8
OBJECT__63
10
-13.091000
20
-3.259000
30
-18.198000
70
192
0
VERTEX
8
OBJECT__63
10
-11.981000
20
-5.541000
30
-20.268000
70
192
0
VERTEX
8
OBJECT__63
10
-12.865000
20
-2.957000
30
-19.103001
70
192
0
VERTEX
8
OBJECT__63
10
-0.479000
20
-13.300000
30
-19.145000
70
192
0
VERTEX
8
OBJECT__63
10
0
20
0
30
0
70
128
71
1
72
2
73
3
0
VERTEX
8
OBJECT__63
10
0
20
0
30
0
70
128
71
4
72
5
73
1
0
VERTEX
8
OBJECT__63
10
0
20
0
30
0
70
128
71
3
72
4
73
1
0
VERTEX
8
OBJECT__63
10
0
20
0
30
0
70
128
71
1
72
6
73
2
0
VERTEX
8
OBJECT__63
10
0
20
0
30
0
70
128
71
1
72
7
73
8
0
VERTEX
8
OBJECT__63
10
0
20
0
30
0
70
128
71
8
72
9
73
1
0
VERTEX
8
OBJECT__63
10
0
20
0
30
0
70
128
71
9
72
6
73
1
0
VERTEX
8
OBJECT__63
10
0
20
0
30
0
70
128
71
10
72
1
73
5
0
VERTEX
8
OBJECT__63
10
0
20
0
30
0
70
128
71
5
72
11
73
10
0
VERTEX
8
OBJECT__63
10
0
20
0
30
0
70
128
71
11
72
12
73
10
0
VERTEX
8
OBJECT__63
10
0
20
0
30
0
70
128
71
12
72
13
73
10
0
VERTEX
8
OBJECT__63
10
0
20
0
30
0
70
128
71
13
72
14
73
15
0
VERTEX
8
OBJECT__63
10
0
20
0
30
0
70
128
71
15
72
16
73
13
0
VERTEX
8
OBJECT__63
10
0
20
0
30
0
70
128
71
13
72
17
73
18
0
VERTEX
8
OBJECT__63
10
0
20
0
30
0
70
128
71
18
72
19
73
13
0
VERTEX
8
OBJECT__63
10
0
20
0
30
0
70
128
71
19
72
14
73
13
0
VERTEX
8
OBJECT__63
10
0
20
0
30
0
70
128
71
16
72
10
73
13
0
VERTEX
8
OBJECT__63
10
0
20
0
30
0
70
128
71
20
72
21
73
22
0
VERTEX
8
OBJECT__63
10
0
20
0
30
0
70
128
71
22
72
23
73
20
0
VERTEX
8
OBJECT__63
10
0
20
0
30
0
70
128
71
24
72
20
73
25
0
VERTEX
8
OBJECT__63
10
0
20
0
30
0
70
128
71
25
72
18
73
24
0
VERTEX
8
OBJECT__63
10
0
20
0
30
0
70
128
71
26
72
27
73
28
0
VERTEX
8
OBJECT__63
10
0
20
0
30
0
70
128
71
28
72
29
73
26
0
VERTEX
8
OBJECT__63
10
0
20
0
30
0
70
128
71
21
72
26
73
29
0
VERTEX
8
OBJECT__63
10
0
20
0
30
0
70
128
71
29
72
22
73
21
0
VERTEX
8
OBJECT__63
10
0
20
0
30
0
70
128
71
28
72
30
73
29
0
VERTEX
8
OBJECT__63
10
0
20
0
30
0
70
128
71
23
72
25
73
20
0
VERTEX
8
OBJECT__63
10
0
20
0
30
0
70
128
71
17
72
24
73
18
0
VERTEX
8
OBJECT__63
10
0
20
0
30
0
70
128
71
7
72
31
73
8
0
SEQEND
8
OBJECT__63
0
POLYLINE
8
OBJECT__64
66
1
70
64
71
8
72
6
62
253
0
VERTEX
8
OBJECT__64
10
-2.736000
20
-12.913000
30
-20.298000
70
192
0
VERTEX
8
OBJECT__64
10
-0.393000
20
-13.195000
30
-19.778999
70
192
0
VERTEX
8
OBJECT__64
10
-0.400000
20
-13.198000
30
-19.771000
70
192
0
VERTEX
8
OBJECT__64
10
-1.476000
20
-13.259000
30
-19.351000
70
192
0
VERTEX
8
OBJECT__64
10
-3.732000
20
-12.822000
30
-19.995001
70
192
0
VERTEX
8
OBJECT__64
10
-3.614000
20
-12.760000
30
-20.294001
70
192
0
VERTEX
8
OBJECT__64
10
-3.535000
20
-12.718000
30
-20.497000
70
192
0
VERTEX
8
OBJECT__64
10
-0.479000
20
-13.300000
30
-19.145000
70
192
0
VERTEX
8
OBJECT__64
10
0
20
0
30
0
70
128
71
1
72
2
73
3
0
VERTEX
8
OBJECT__64
10
0
20
0
30
0
70
128
71
4
72
5
73
1
0
VERTEX
8
OBJECT__64
10
0
20
0
30
0
70
128
71
1
72
5
73
6
0
VERTEX
8
OBJECT__64
10
0
20
0
30
0
70
128
71
6
72
7
73
1
0
VERTEX
8
OBJECT__64
10
0
20
0
30
0
70
128
71
3
72
4
73
1
0
VERTEX
8
OBJECT__64
10
0
20
0
30
0
70
128
71
3
72
8
73
4
0
SEQEND
8
OBJECT__64
0
POLYLINE
8
OBJECT__65
66
1
70
64
71
8
72
7
62
253
0
VERTEX
8
OBJECT__65
10
-4.785000
20
-12.357000
30
-20.636000
70
192
0
VERTEX
8
OBJECT__65
10
-3.614000
20
-12.760000
30
-20.294001
70
192
0
VERTEX
8
OBJECT__65
10
-4.476000
20
-12.474000
30
-20.336000
70
192
0
VERTEX
8
OBJECT__65
10
-3.732000
20
-12.822000
30
-19.995001
70
192
0
VERTEX
8
OBJECT__65
10
-4.713000
20
-12.265000
30
-20.740999
70
192
0
VERTEX
8
OBJECT__65
10
-3.535000
20
-12.718000
30
-20.497000
70
192
0
VERTEX
8
OBJECT__65
10
-5.891000
20
-11.813000
30
-20.985001
70
192
0
VERTEX
8
OBJECT__65
10
-4.811000
20
-12.317000
30
-20.490000
70
192
0
VERTEX
8
OBJECT__65
10
0
20
0
30
0
70
128
71
1
72
2
73
3
0
VERTEX
8
OBJECT__65
10
0
20
0
30
0
70
128
71
2
72
4
73
3
0
VERTEX
8
OBJECT__65
10
0
20
0
30
0
70
128
71
2
72
1
73
5
0
VERTEX
8
OBJECT__65
10
0
20
0
30
0
70
128
71
5
72
6
73
2
0
VERTEX
8
OBJECT__65
10
0
20
0
30
0
70
128
71
5
72
1
73
7
0
VERTEX
8
OBJECT__65
10
0
20
0
30
0
70
128
71
7
72
1
73
8
0
VERTEX
8
OBJECT__65
10
0
20
0
30
0
70
128
71
3
72
8
73
1
0
SEQEND
8
OBJECT__65
0
POLYLINE
8
OBJECT__66
66
1
70
64
71
24
72
24
62
253
0
VERTEX
8
OBJECT__66
10
0.000000
20
-13.200000
30
-29.500000
70
192
0
VERTEX
8
OBJECT__66
10
9.334000
20
-9.334000
30
-29.500000
70
192
0
VERTEX
8
OBJECT__66
10
7.997000
20
-10.502000
30
-26.131001
70
192
0
VERTEX
8
OBJECT__66
10
8.994000
20
-9.093000
30
-26.131001
70
192
0
VERTEX
8
OBJECT__66
10
13.200000
20
0.000000
30
-29.500000
70
192
0
VERTEX
8
OBJECT__66
10
12.564000
20
-4.048000
30
-26.131001
70
192
0
VERTEX
8
OBJECT__66
10
13.200000
20
0.000000
30
-26.131001
70
192
0
VERTEX
8
OBJECT__66
10
9.334000
20
9.334000
30
-29.500000
70
192
0
VERTEX
8
OBJECT__66
10
8.994000
20
9.093000
30
-26.131001
70
192
0
VERTEX
8
OBJECT__66
10
12.564000
20
4.048000
30
-26.131001
70
192
0
VERTEX
8
OBJECT__66
10
0.000000
20
13.200000
30
-29.500000
70
192
0
VERTEX
8
OBJECT__66
10
0.000000
20
13.200000
30
-26.131001
70
192
0
VERTEX
8
OBJECT__66
10
7.997000
20
10.502000
30
-26.131001
70
192
0
VERTEX
8
OBJECT__66
10
-9.334000
20
9.334000
30
-29.500000
70
192
0
VERTEX
8
OBJECT__66
10
-7.646000
20
10.760000
30
-26.131001
70
192
0
VERTEX
8
OBJECT__66
10
-9.144000
20
9.156000
30
-26.131001
70
192
0
VERTEX
8
OBJECT__66
10
-13.200000
20
0.000000
30
-29.500000
70
192
0
VERTEX
8
OBJECT__66
10
-13.200000
20
0.000000
30
-26.131001
70
192
0
VERTEX
8
OBJECT__66
10
-11.258000
20
6.892000
30
-26.131001
70
192
0
VERTEX
8
OBJECT__66
10
-9.334000
20
-9.334000
30
-29.500000
70
192
0
VERTEX
8
OBJECT__66
10
-11.258000
20
-6.892000
30
-26.131001
70
192
0
VERTEX
8
OBJECT__66
10
-9.144000
20
-9.156000
30
-26.131001
70
192
0
VERTEX
8
OBJECT__66
10
0.000000
20
-13.200000
30
-26.131001
70
192
0
VERTEX
8
OBJECT__66
10
-7.646000
20
-10.760000
30
-26.131001
70
192
0
VERTEX
8
OBJECT__66
10
0
20
0
30
0
70
128
71
1
72
2
73
3
0
VERTEX
8
OBJECT__66
10
0
20
0
30
0
70
128
71
2
72
4
73
3
0
VERTEX
8
OBJECT__66
10
0
20
0
30
0
70
128
71
2
72
5
73
6
0
VERTEX
8
OBJECT__66
10
0
20
0
30
0
70
128
71
5
72
7
73
6
0
VERTEX
8
OBJECT__66
10
0
20
0
30
0
70
128
71
8
72
9
73
10
0
VERTEX
8
OBJECT__66
10
0
20
0
30
0
70
128
71
10
72
5
73
8
0
VERTEX
8
OBJECT__66
10
0
20
0
30
0
70
128
71
11
72
12
73
13
0
VERTEX
8
OBJECT__66
10
0
20
0
30
0
70
128
71
13
72
8
73
11
0
VERTEX
8
OBJECT__66
10
0
20
0
30
0
70
128
71
11
72
14
73
15
0
VERTEX
8
OBJECT__66
10
0
20
0
30
0
70
128
71
14
72
16
73
15
0
VERTEX
8
OBJECT__66
10
0
20
0
30
0
70
128
71
17
72
18
73
19
0
VERTEX
8
OBJECT__66
10
0
20
0
30
0
70
128
71
19
72
14
73
17
0
VERTEX
8
OBJECT__66
10
0
20
0
30
0
70
128
71
17
72
20
73
21
0
VERTEX
8
OBJECT__66
10
0
20
0
30
0
70
128
71
20
72
22
73
21
0
VERTEX
8
OBJECT__66
10
0
20
0
30
0
70
128
71
1
72
23
73
24
0
VERTEX
8
OBJECT__66
10
0
20
0
30
0
70
128
71
24
72
20
73
1
0
VERTEX
8
OBJECT__66
10
0
20
0
30
0
70
128
71
24
72
22
73
20
0
VERTEX
8
OBJECT__66
10
0
20
0
30
0
70
128
71
21
72
18
73
17
0
VERTEX
8
OBJECT__66
10
0
20
0
30
0
70
128
71
19
72
16
73
14
0
VERTEX
8
OBJECT__66
10
0
20
0
30
0
70
128
71
15
72
12
73
11
0
VERTEX
8
OBJECT__66
10
0
20
0
30
0
70
128
71
13
72
9
73
8
0
VERTEX
8
OBJECT__66
10
0
20
0
30
0
70
128
71
10
72
7
73
5
0
VERTEX
8
OBJECT__66
10
0
20
0
30
0
70
128
71
6
72
4
73
2
0
VERTEX
8
OBJECT__66
10
0
20
0
30
0
70
128
71
3
72
23
73
1
0
SEQEND
8
OBJECT__66
0
POLYLINE
8
OBJECT__67
66
1
70
64
71
14
72
14
62
253
0
VERTEX
8
OBJECT__67
10
15.588000
20
0.000000
30
-29.500000
70
192
0
VERTEX
8
OBJECT__67
10
7.794000
20
13.500000
30
-29.500000
70
192
0
VERTEX
8
OBJECT__67
10
9.334000
20
9.334000
30
-29.500000
70
192
0
VERTEX
8
OBJECT__67
10
0.000000
20
13.200000
30
-29.500000
70
192
0
VERTEX
8
OBJECT__67
10
-7.794000
20
13.500000
30
-29.500000
70
192
0
VERTEX
8
OBJECT__67
10
-9.334000
20
9.334000
30
-29.500000
70
192
0
VERTEX
8
OBJECT__67
10
-15.588000
20
0.000000
30
-29.500000
70
192
0
VERTEX
8
OBJECT__67
10
-13.200000
20
0.000000
30
-29.500000
70
192
0
VERTEX
8
OBJECT__67
10
7.794000
20
-13.500000
30
-29.500000
70
192
0
VERTEX
8
OBJECT__67
10
9.334000
20
-9.334000
30
-29.500000
70
192
0
VERTEX
8
OBJECT__67
10
0.000000
20
-13.200000
30
-29.500000
70
192
0
VERTEX
8
OBJECT__67
10
13.200000
20
0.000000
30
-29.500000
70
192
0
VERTEX
8
OBJECT__67
10
-7.794000
20
-13.500000
30
-29.500000
70
192
0
VERTEX
8
OBJECT__67
10
-9.334000
20
-9.334000
30
-29.500000
70
192
0
VERTEX
8
OBJECT__67
10
0
20
0
30
0
70
128
71
1
72
2
73
3
0
VERTEX
8
OBJECT__67
10
0
20
0
30
0
70
128
71
2
72
4
73
3
0
VERTEX
8
OBJECT__67
10
0
20
0
30
0
70
128
71
5
72
6
73
4
0
VERTEX
8
OBJECT__67
10
0
20
0
30
0
70
128
71
4
72
2
73
5
0
VERTEX
8
OBJECT__67
10
0
20
0
30
0
70
128
71
7
72
8
73
6
0
VERTEX
8
OBJECT__67
10
0
20
0
30
0
70
128
71
9
72
10
73
11
0
VERTEX
8
OBJECT__67
10
0
20
0
30
0
70
128
71
1
72
12
73
10
0
VERTEX
8
OBJECT__67
10
0
20
0
30
0
70
128
71
6
72
5
73
7
0
VERTEX
8
OBJECT__67
10
0
20
0
30
0
70
128
71
7
72
13
73
14
0
VERTEX
8
OBJECT__67
10
0
20
0
30
0
70
128
71
10
72
9
73
1
0
VERTEX
8
OBJECT__67
10
0
20
0
30
0
70
128
71
14
72
8
73
7
0
VERTEX
8
OBJECT__67
10
0
20
0
30
0
70
128
71
3
72
12
73
1
0
VERTEX
8
OBJECT__67
10
0
20
0
30
0
70
128
71
13
72
11
73
14
0
VERTEX
8
OBJECT__67
10
0
20
0
30
0
70
128
71
11
72
13
73
9
0
SEQEND
8
OBJECT__67
0
POLYLINE
8
OBJECT__68
66
1
70
64
71
4
72
2
62
253
0
VERTEX
8
OBJECT__68
10
15.588000
20
0.000000
30
-41.500000
70
192
0
VERTEX
8
OBJECT__68
10
7.794000
20
13.500000
30
-41.500000
70
192
0
VERTEX
8
OBJECT__68
10
7.794000
20
13.500000
30
-29.500000
70
192
0
VERTEX
8
OBJECT__68
10
15.588000
20
0.000000
30
-29.500000
70
192
0
VERTEX
8
OBJECT__68
10
0
20
0
30
0
70
128
71
1
72
2
73
3
0
VERTEX
8
OBJECT__68
10
0
20
0
30
0
70
128
71
3
72
4
73
1
0
SEQEND
8
OBJECT__68
0
POLYLINE
8
OBJECT__69
66
1
70
64
71
4
72
2
62
253
0
VERTEX
8
OBJECT__69
10
7.794000
20
-13.500000
30
-41.500000
70
192
0
VERTEX
8
OBJECT__69
10
15.588000
20
0.000000
30
-41.500000
70
192
0
VERTEX
8
OBJECT__69
10
15.588000
20
0.000000
30
-29.500000
70
192
0
VERTEX
8
OBJECT__69
10
7.794000
20
-13.500000
30
-29.500000
70
192
0
VERTEX
8
OBJECT__69
10
0
20
0
30
0
70
128
71
1
72
2
73
3
0
VERTEX
8
OBJECT__69
10
0
20
0
30
0
70
128
71
3
72
4
73
1
0
SEQEND
8
OBJECT__69
0
POLYLINE
8
OBJECT__70
66
1
70
64
71
4
72
2
62
253
0
VERTEX
8
OBJECT__70
10
-7.794000
20
-13.500000
30
-41.500000
70
192
0
VERTEX
8
OBJECT__70
10
7.794000
20
-13.500000
30
-41.500000
70
192
0
VERTEX
8
OBJECT__70
10
7.794000
20
-13.500000
30
-29.500000
70
192
0
VERTEX
8
OBJECT__70
10
-7.794000
20
-13.500000
30
-29.500000
70
192
0
VERTEX
8
OBJECT__70
10
0
20
0
30
0
70
128
71
1
72
2
73
3
0
VERTEX
8
OBJECT__70
10
0
20
0
30
0
70
128
71
3
72
4
73
1
0
SEQEND
8
OBJECT__70
0
POLYLINE
8
OBJECT__71
66
1
70
64
71
4
72
2
62
253
0
VERTEX
8
OBJECT__71
10
-15.588000
20
0.000000
30
-41.500000
70
192
0
VERTEX
8
OBJECT__71
10
-7.794000
20
-13.500000
30
-41.500000
70
192
0
VERTEX
8
OBJECT__71
10
-7.794000
20
-13.500000
30
-29.500000
70
192
0
VERTEX
8
OBJECT__71
10
-15.588000
20
0.000000
30
-29.500000
70
192
0
VERTEX
8
OBJECT__71
10
0
20
0
30
0
70
128
71
1
72
2
73
3
0
VERTEX
8
OBJECT__71
10
0
20
0
30
0
70
128
71
3
72
4
73
1
0
SEQEND
8
OBJECT__71
0
POLYLINE
8
OBJECT__72
66
1
70
64
71
4
72
2
62
253
0
VERTEX
8
OBJECT__72
10
-7.794000
20
13.500000
30
-41.500000
70
192
0
VERTEX
8
OBJECT__72
10
-15.588000
20
0.000000
30
-41.500000
70
192
0
VERTEX
8
OBJECT__72
10
-15.588000
20
0.000000
30
-29.500000
70
192
0
VERTEX
8
OBJECT__72
10
-7.794000
20
13.500000
30
-29.500000
70
192
0
VERTEX
8
OBJECT__72
10
0
20
0
30
0
70
128
71
1
72
2
73
3
0
VERTEX
8
OBJECT__72
10
0
20
0
30
0
70
128
71
3
72
4
73
1
0
SEQEND
8
OBJECT__72
0
POLYLINE
8
OBJECT__73
66
1
70
64
71
4
72
2
62
253
0
VERTEX
8
OBJECT__73
10
7.794000
20
13.500000
30
-29.500000
70
192
0
VERTEX
8
OBJECT__73
10
7.794000
20
13.500000
30
-41.500000
70
192
0
VERTEX
8
OBJECT__73
10
-7.794000
20
13.500000
30
-41.500000
70
192
0
VERTEX
8
OBJECT__73
10
-7.794000
20
13.500000
30
-29.500000
70
192
0
VERTEX
8
OBJECT__73
10
0
20
0
30
0
70
128
71
1
72
2
73
3
0
VERTEX
8
OBJECT__73
10
0
20
0
30
0
70
128
71
3
72
4
73
1
0
SEQEND
8
OBJECT__73
0
POLYLINE
8
OBJECT__74
66
1
70
64
71
13
72
13
62
253
0
VERTEX
8
OBJECT__74
10
-15.588000
20
0.000000
30
-41.500000
70
192
0
VERTEX
8
OBJECT__74
10
-7.874000
20
0.000000
30
-41.500000
70
192
0
VERTEX
8
OBJECT__74
10
-6.819000
20
-3.937000
30
-41.500000
70
192
0
VERTEX
8
OBJECT__74
10
-7.794000
20
13.500000
30
-41.500000
70
192
0
VERTEX
8
OBJECT__74
10
-6.819000
20
3.937000
30
-41.500000
70
192
0
VERTEX
8
OBJECT__74
10
7.794000
20
13.500000
30
-41.500000
70
192
0
VERTEX
8
OBJECT__74
10
15.588000
20
0.000000
30
-41.500000
70
192
0
VERTEX
8
OBJECT__74
10
6.819000
20
3.937000
30
-41.500000
70
192
0
VERTEX
8
OBJECT__74
10
7.794000
20
-13.500000
30
-41.500000
70
192
0
VERTEX
8
OBJECT__74
10
6.819000
20
-3.937000
30
-41.500000
70
192
0
VERTEX
8
OBJECT__74
10
-7.794000
20
-13.500000
30
-41.500000
70
192
0
VERTEX
8
OBJECT__74
10
0.000000
20
-7.874000
30
-41.500000
70
192
0
VERTEX
8
OBJECT__74
10
0.000000
20
7.874000
30
-41.500000
70
192
0
VERTEX
8
OBJECT__74
10
0
20
0
30
0
70
128
71
1
72
2
73
3
0
VERTEX
8
OBJECT__74
10
0
20
0
30
0
70
128
71
1
72
4
73
5
0
VERTEX
8
OBJECT__74
10
0
20
0
30
0
70
128
71
6
72
7
73
8
0
VERTEX
8
OBJECT__74
10
0
20
0
30
0
70
128
71
7
72
9
73
10
0
VERTEX
8
OBJECT__74
10
0
20
0
30
0
70
128
71
5
72
2
73
1
0
VERTEX
8
OBJECT__74
10
0
20
0
30
0
70
128
71
10
72
8
73
7
0
VERTEX
8
OBJECT__74
10
0
20
0
30
0
70
128
71
9
72
11
73
12
0
VERTEX
8
OBJECT__74
10
0
20
0
30
0
70
128
71
3
72
11
73
1
0
VERTEX
8
OBJECT__74
10
0
20
0
30
0
70
128
71
4
72
6
73
13
0
VERTEX
8
OBJECT__74
10
0
20
0
30
0
70
128
71
12
72
10
73
9
0
VERTEX
8
OBJECT__74
10
0
20
0
30
0
70
128
71
13
72
5
73
4
0
VERTEX
8
OBJECT__74
10
0
20
0
30
0
70
128
71
3
72
12
73
11
0
VERTEX
8
OBJECT__74
10
0
20
0
30
0
70
128
71
8
72
13
73
6
0
SEQEND
8
OBJECT__74
0
POLYLINE
8
OBJECT__75
66
1
70
64
71
14
72
14
62
253
0
VERTEX
8
OBJECT__75
10
-6.819000
20
-3.937000
30
-41.500000
70
192
0
VERTEX
8
OBJECT__75
10
-6.819000
20
-3.937000
30
-26.131001
70
192
0
VERTEX
8
OBJECT__75
10
0.000000
20
-7.874000
30
-26.131001
70
192
0
VERTEX
8
OBJECT__75
10
-6.819000
20
3.937000
30
-41.500000
70
192
0
VERTEX
8
OBJECT__75
10
-6.819000
20
3.937000
30
-26.131001
70
192
0
VERTEX
8
OBJECT__75
10
-7.874000
20
0.000000
30
-26.131001
70
192
0
VERTEX
8
OBJECT__75
10
-7.874000
20
0.000000
30
-41.500000
70
192
0
VERTEX
8
OBJECT__75
10
0.000000
20
7.874000
30
-41.500000
70
192
0
VERTEX
8
OBJECT__75
10
0.000000
20
7.874000
30
-26.131001
70
192
0
VERTEX
8
OBJECT__75
10
6.819000
20
3.937000
30
-41.500000
70
192
0
VERTEX
8
OBJECT__75
10
6.819000
20
3.937000
30
-26.131001
70
192
0
VERTEX
8
OBJECT__75
10
6.819000
20
-3.937000
30
-41.500000
70
192
0
VERTEX
8
OBJECT__75
10
6.819000
20
-3.937000
30
-26.131001
70
192
0
VERTEX
8
OBJECT__75
10
0.000000
20
-7.874000
30
-41.500000
70
192
0
VERTEX
8
OBJECT__75
10
0
20
0
30
0
70
128
71
1
72
2
73
3
0
VERTEX
8
OBJECT__75
10
0
20
0
30
0
70
128
71
4
72
5
73
6
0
VERTEX
8
OBJECT__75
10
0
20
0
30
0
70
128
71
2
72
1
73
7
0
VERTEX
8
OBJECT__75
10
0
20
0
30
0
70
128
71
7
72
6
73
2
0
VERTEX
8
OBJECT__75
10
0
20
0
30
0
70
128
71
8
72
9
73
5
0
VERTEX
8
OBJECT__75
10
0
20
0
30
0
70
128
71
10
72
11
73
9
0
VERTEX
8
OBJECT__75
10
0
20
0
30
0
70
128
71
12
72
13
73
11
0
VERTEX
8
OBJECT__75
10
0
20
0
30
0
70
128
71
14
72
3
73
13
0
VERTEX
8
OBJECT__75
10
0
20
0
30
0
70
128
71
13
72
12
73
14
0
VERTEX
8
OBJECT__75
10
0
20
0
30
0
70
128
71
11
72
10
73
12
0
VERTEX
8
OBJECT__75
10
0
20
0
30
0
70
128
71
9
72
8
73
10
0
VERTEX
8
OBJECT__75
10
0
20
0
30
0
70
128
71
5
72
4
73
8
0
VERTEX
8
OBJECT__75
10
0
20
0
30
0
70
128
71
6
72
7
73
4
0
VERTEX
8
OBJECT__75
10
0
20
0
30
0
70
128
71
3
72
14
73
1
0
SEQEND
8
OBJECT__75
0
POLYLINE
8
OBJECT__76
66
1
70
64
71
7
72
5
62
253
0
VERTEX
8
OBJECT__76
10
6.819000
20
-3.937000
30
-26.131001
70
192
0
VERTEX
8
OBJECT__76
10
-6.819000
20
3.937000
30
-26.131001
70
192
0
VERTEX
8
OBJECT__76
10
0.000000
20
7.874000
30
-26.131001
70
192
0
VERTEX
8
OBJECT__76
10
-7.874000
20
0.000000
30
-26.131001
70
192
0
VERTEX
8
OBJECT__76
10
0.000000
20
-7.874000
30
-26.131001
70
192
0
VERTEX
8
OBJECT__76
10
-6.819000
20
-3.937000
30
-26.131001
70
192
0
VERTEX
8
OBJECT__76
10
6.819000
20
3.937000
30
-26.131001
70
192
0
VERTEX
8
OBJECT__76
10
0
20
0
30
0
70
128
71
1
72
2
73
3
0
VERTEX
8
OBJECT__76
10
0
20
0
30
0
70
128
71
1
72
4
73
2
0
VERTEX
8
OBJECT__76
10
0
20
0
30
0
70
128
71
1
72
5
73
6
0
VERTEX
8
OBJECT__76
10
0
20
0
30
0
70
128
71
6
72
4
73
1
0
VERTEX
8
OBJECT__76
10
0
20
0
30
0
70
128
71
3
72
7
73
1
0
SEQEND
8
OBJECT__76
0
POLYLINE
8
OBJECT__77
66
1
70
64
71
18
72
16
62
253
0
VERTEX
8
OBJECT__77
10
19.000000
20
21.906000
30
-2.030000
70
192
0
VERTEX
8
OBJECT__77
10
19.000000
20
14.821000
30
-16.257999
70
192
0
VERTEX
8
OBJECT__77
10
19.000000
20
7.947000
30
-20.514000
70
192
0
VERTEX
8
OBJECT__77
10
19.000000
20
19.694000
30
-9.806000
70
192
0
VERTEX
8
OBJECT__77
10
19.000000
20
0.000000
30
-22.000000
70
192
0
VERTEX
8
OBJECT__77
10
19.000000
20
11.582000
30
18.705000
70
192
0
VERTEX
8
OBJECT__77
10
19.000000
20
17.556000
30
13.258000
70
192
0
VERTEX
8
OBJECT__77
10
19.000000
20
-21.160000
30
6.021000
70
192
0
VERTEX
8
OBJECT__77
10
19.000000
20
-17.556000
30
13.258000
70
192
0
VERTEX
8
OBJECT__77
10
19.000000
20
-19.694000
30
-9.806000
70
192
0
VERTEX
8
OBJECT__77
10
19.000000
20
-21.906000
30
-2.030000
70
192
0
VERTEX
8
OBJECT__77
10
19.000000
20
-7.947000
30
-20.514000
70
192
0
VERTEX
8
OBJECT__77
10
19.000000
20
-14.821000
30
-16.257999
70
192
0
VERTEX
8
OBJECT__77
10
19.000000
20
21.160000
30
6.021000
70
192
0
VERTEX
8
OBJECT__77
10
19.000000
20
4.042000
30
21.625000
70
192
0
VERTEX
8
OBJECT__77
10
19.000000
20
-11.582000
30
18.705000
70
192
0
VERTEX
8
OBJECT__77
10
19.000000
20
0.000000
30
22.000000
70
192
0
VERTEX
8
OBJECT__77
10
19.000000
20
-4.042000
30
21.625000
70
192
0
VERTEX
8
OBJECT__77
10
0
20
0
30
0
70
128
71
1
72
2
73
3
0
VERTEX
8
OBJECT__77
10
0
20
0
30
0
70
128
71
1
72
4
73
2
0
VERTEX
8
OBJECT__77
10
0
20
0
30
0
70
128
71
5
72
6
73
7
0
VERTEX
8
OBJECT__77
10
0
20
0
30
0
70
128
71
5
72
8
73
9
0
VERTEX
8
OBJECT__77
10
0
20
0
30
0
70
128
71
5
72
10
73
11
0
VERTEX
8
OBJECT__77
10
0
20
0
30
0
70
128
71
5
72
12
73
13
0
VERTEX
8
OBJECT__77
10
0
20
0
30
0
70
128
71
5
72
14
73
1
0
VERTEX
8
OBJECT__77
10
0
20
0
30
0
70
128
71
5
72
15
73
6
0
VERTEX
8
OBJECT__77
10
0
20
0
30
0
70
128
71
9
72
16
73
5
0
VERTEX
8
OBJECT__77
10
0
20
0
30
0
70
128
71
13
72
10
73
5
0
VERTEX
8
OBJECT__77
10
0
20
0
30
0
70
128
71
7
72
14
73
5
0
VERTEX
8
OBJECT__77
10
0
20
0
30
0
70
128
71
11
72
8
73
5
0
VERTEX
8
OBJECT__77
10
0
20
0
30
0
70
128
71
5
72
17
73
15
0
VERTEX
8
OBJECT__77
10
0
20
0
30
0
70
128
71
16
72
18
73
5
0
VERTEX
8
OBJECT__77
10
0
20
0
30
0
70
128
71
18
72
17
73
5
0
VERTEX
8
OBJECT__77
10
0
20
0
30
0
70
128
71
3
72
5
73
1
0
SEQEND
8
OBJECT__77
0
POLYLINE
8
OBJECT__78
66
1
70
64
71
36
72
36
62
253
0
VERTEX
8
OBJECT__78
10
93.000000
20
8.647000
30
-22.320999
70
192
0
VERTEX
8
OBJECT__78
10
93.000000
20
0.000000
30
-23.938000
70
192
0
VERTEX
8
OBJECT__78
10
19.000000
20
0.000000
30
-22.000000
70
192
0
VERTEX
8
OBJECT__78
10
93.000000
20
16.127001
30
-17.690001
70
192
0
VERTEX
8
OBJECT__78
10
19.000000
20
7.947000
30
-20.514000
70
192
0
VERTEX
8
OBJECT__78
10
93.000000
20
21.427999
30
-10.670000
70
192
0
VERTEX
8
OBJECT__78
10
19.000000
20
14.821000
30
-16.257999
70
192
0
VERTEX
8
OBJECT__78
10
93.000000
20
23.836000
30
-2.209000
70
192
0
VERTEX
8
OBJECT__78
10
19.000000
20
19.694000
30
-9.806000
70
192
0
VERTEX
8
OBJECT__78
10
93.000000
20
23.024000
30
6.551000
70
192
0
VERTEX
8
OBJECT__78
10
19.000000
20
21.906000
30
-2.030000
70
192
0
VERTEX
8
OBJECT__78
10
93.000000
20
19.103001
30
14.426000
70
192
0
VERTEX
8
OBJECT__78
10
19.000000
20
21.160000
30
6.021000
70
192
0
VERTEX
8
OBJECT__78
10
93.000000
20
12.602000
30
20.351999
70
192
0
VERTEX
8
OBJECT__78
10
19.000000
20
17.556000
30
13.258000
70
192
0
VERTEX
8
OBJECT__78
10
93.000000
20
4.399000
30
23.530001
70
192
0
VERTEX
8
OBJECT__78
10
19.000000
20
11.582000
30
18.705000
70
192
0
VERTEX
8
OBJECT__78
10
93.000000
20
-4.399000
30
23.530001
70
192
0
VERTEX
8
OBJECT__78
10
93.000000
20
0.000000
30
23.938000
70
192
0
VERTEX
8
OBJECT__78
10
19.000000
20
0.000000
30
22.000000
70
192
0
VERTEX
8
OBJECT__78
10
19.000000
20
4.042000
30
21.625000
70
192
0
VERTEX
8
OBJECT__78
10
93.000000
20
-12.602000
30
20.351999
70
192
0
VERTEX
8
OBJECT__78
10
19.000000
20
-4.042000
30
21.625000
70
192
0
VERTEX
8
OBJECT__78
10
93.000000
20
-19.103001
30
14.426000
70
192
0
VERTEX
8
OBJECT__78
10
19.000000
20
-11.582000
30
18.705000
70
192
0
VERTEX
8
OBJECT__78
10
93.000000
20
-23.024000
30
6.551000
70
192
0
VERTEX
8
OBJECT__78
10
19.000000
20
-17.556000
30
13.258000
70
192
0
VERTEX
8
OBJECT__78
10
93.000000
20
-23.836000
30
-2.209000
70
192
0
VERTEX
8
OBJECT__78
10
19.000000
20
-21.160000
30
6.021000
70
192
0
VERTEX
8
OBJECT__78
10
93.000000
20
-21.427999
30
-10.670000
70
192
0
VERTEX
8
OBJECT__78
10
19.000000
20
-21.906000
30
-2.030000
70
192
0
VERTEX
8
OBJECT__78
10
93.000000
20
-16.127001
30
-17.690001
70
192
0
VERTEX
8
OBJECT__78
10
19.000000
20
-19.694000
30
-9.806000
70
192
0
VERTEX
8
OBJECT__78
10
93.000000
20
-8.647000
30
-22.320999
70
192
0
VERTEX
8
OBJECT__78
10
19.000000
20
-14.821000
30
-16.257999
70
192
0
VERTEX
8
OBJECT__78
10
19.000000
20
-7.947000
30
-20.514000
70
192
0
VERTEX
8
OBJECT__78
10
0
20
0
30
0
70
128
71
1
72
2
73
3
0
VERTEX
8
OBJECT__78
10
0
20
0
30
0
70
128
71
4
72
1
73
5
0
VERTEX
8
OBJECT__78
10
0
20
0
30
0
70
128
71
6
72
4
73
7
0
VERTEX
8
OBJECT__78
10
0
20
0
30
0
70
128
71
8
72
6
73
9
0
VERTEX
8
OBJECT__78
10
0
20
0
30
0
70
128
71
10
72
8
73
11
0
VERTEX
8
OBJECT__78
10
0
20
0
30
0
70
128
71
12
72
10
73
13
0
VERTEX
8
OBJECT__78
10
0
20
0
30
0
70
128
71
14
72
12
73
15
0
VERTEX
8
OBJECT__78
10
0
20
0
30
0
70
128
71
16
72
14
73
17
0
VERTEX
8
OBJECT__78
10
0
20
0
30
0
70
128
71
18
72
19
73
20
0
VERTEX
8
OBJECT__78
10
0
20
0
30
0
70
128
71
19
72
16
73
21
0
VERTEX
8
OBJECT__78
10
0
20
0
30
0
70
128
71
21
72
20
73
19
0
VERTEX
8
OBJECT__78
10
0
20
0
30
0
70
128
71
22
72
18
73
23
0
VERTEX
8
OBJECT__78
10
0
20
0
30
0
70
128
71
24
72
22
73
25
0
VERTEX
8
OBJECT__78
10
0
20
0
30
0
70
128
71
26
72
24
73
27
0
VERTEX
8
OBJECT__78
10
0
20
0
30
0
70
128
71
28
72
26
73
29
0
VERTEX
8
OBJECT__78
10
0
20
0
30
0
70
128
71
30
72
28
73
31
0
VERTEX
8
OBJECT__78
10
0
20
0
30
0
70
128
71
32
72
30
73
33
0
VERTEX
8
OBJECT__78
10
0
20
0
30
0
70
128
71
34
72
32
73
35
0
VERTEX
8
OBJECT__78
10
0
20
0
30
0
70
128
71
2
72
34
73
36
0
VERTEX
8
OBJECT__78
10
0
20
0
30
0
70
128
71
36
72
3
73
2
0
VERTEX
8
OBJECT__78
10
0
20
0
30
0
70
128
71
35
72
36
73
34
0
VERTEX
8
OBJECT__78
10
0
20
0
30
0
70
128
71
33
72
35
73
32
0
VERTEX
8
OBJECT__78
10
0
20
0
30
0
70
128
71
31
72
33
73
30
0
VERTEX
8
OBJECT__78
10
0
20
0
30
0
70
128
71
29
72
31
73
28
0
VERTEX
8
OBJECT__78
10
0
20
0
30
0
70
128
71
27
72
29
73
26
0
VERTEX
8
OBJECT__78
10
0
20
0
30
0
70
128
71
25
72
27
73
24
0
VERTEX
8
OBJECT__78
10
0
20
0
30
0
70
128
71
23
72
25
73
22
0
VERTEX
8
OBJECT__78
10
0
20
0
30
0
70
128
71
20
72
23
73
18
0
VERTEX
8
OBJECT__78
10
0
20
0
30
0
70
128
71
17
72
21
73
16
0
VERTEX
8
OBJECT__78
10
0
20
0
30
0
70
128
71
15
72
17
73
14
0
VERTEX
8
OBJECT__78
10
0
20
0
30
0
70
128
71
13
72
15
73
12
0
VERTEX
8
OBJECT__78
10
0
20
0
30
0
70
128
71
11
72
13
73
10
0
VERTEX
8
OBJECT__78
10
0
20
0
30
0
70
128
71
9
72
11
73
8
0
VERTEX
8
OBJECT__78
10
0
20
0
30
0
70
128
71
7
72
9
73
6
0
VERTEX
8
OBJECT__78
10
0
20
0
30
0
70
128
71
5
72
7
73
4
0
VERTEX
8
OBJECT__78
10
0
20
0
30
0
70
128
71
3
72
5
73
1
0
SEQEND
8
OBJECT__78
0
POLYLINE
8
OBJECT__80
66
1
70
64
71
36
72
36
62
253
0
VERTEX
8
OBJECT__80
10
93.000000
20
-21.910000
30
-12.650000
70
192
0
VERTEX
8
OBJECT__80
10
93.000000
20
-21.427999
30
-10.670000
70
192
0
VERTEX
8
OBJECT__80
10
93.000000
20
-16.127001
30
-17.690001
70
192
0
VERTEX
8
OBJECT__80
10
93.000000
20
-24.916000
30
-4.393000
70
192
0
VERTEX
8
OBJECT__80
10
93.000000
20
-23.836000
30
-2.209000
70
192
0
VERTEX
8
OBJECT__80
10
93.000000
20
16.263000
30
19.381001
70
192
0
VERTEX
8
OBJECT__80
10
93.000000
20
21.910000
30
12.650000
70
192
0
VERTEX
8
OBJECT__80
10
93.000000
20
19.103001
30
14.426000
70
192
0
VERTEX
8
OBJECT__80
10
93.000000
20
24.916000
30
4.393000
70
192
0
VERTEX
8
OBJECT__80
10
93.000000
20
23.024000
30
6.551000
70
192
0
VERTEX
8
OBJECT__80
10
93.000000
20
24.916000
30
-4.393000
70
192
0
VERTEX
8
OBJECT__80
10
93.000000
20
23.836000
30
-2.209000
70
192
0
VERTEX
8
OBJECT__80
10
93.000000
20
21.910000
30
-12.650000
70
192
0
VERTEX
8
OBJECT__80
10
93.000000
20
21.427999
30
-10.670000
70
192
0
VERTEX
8
OBJECT__80
10
93.000000
20
-16.263000
30
-19.381001
70
192
0
VERTEX
8
OBJECT__80
10
93.000000
20
-8.647000
30
-22.320999
70
192
0
VERTEX
8
OBJECT__80
10
93.000000
20
-24.916000
30
4.393000
70
192
0
VERTEX
8
OBJECT__80
10
93.000000
20
-23.024000
30
6.551000
70
192
0
VERTEX
8
OBJECT__80
10
93.000000
20
-21.910000
30
12.650000
70
192
0
VERTEX
8
OBJECT__80
10
93.000000
20
-19.103001
30
14.426000
70
192
0
VERTEX
8
OBJECT__80
10
93.000000
20
-8.653000
30
23.774000
70
192
0
VERTEX
8
OBJECT__80
10
93.000000
20
-4.399000
30
23.530001
70
192
0
VERTEX
8
OBJECT__80
10
93.000000
20
-12.602000
30
20.351999
70
192
0
VERTEX
8
OBJECT__80
10
93.000000
20
0.000000
30
25.299999
70
192
0
VERTEX
8
OBJECT__80
10
93.000000
20
0.000000
30
23.938000
70
192
0
VERTEX
8
OBJECT__80
10
93.000000
20
8.653000
30
23.774000
70
192
0
VERTEX
8
OBJECT__80
10
93.000000
20
4.399000
30
23.530001
70
192
0
VERTEX
8
OBJECT__80
10
93.000000
20
12.602000
30
20.351999
70
192
0
VERTEX
8
OBJECT__80
10
93.000000
20
16.263000
30
-19.381001
70
192
0
VERTEX
8
OBJECT__80
10
93.000000
20
8.653000
30
-23.774000
70
192
0
VERTEX
8
OBJECT__80
10
93.000000
20
8.647000
30
-22.320999
70
192
0
VERTEX
8
OBJECT__80
10
93.000000
20
0.000000
30
-25.299999
70
192
0
VERTEX
8
OBJECT__80
10
93.000000
20
0.000000
30
-23.938000
70
192
0
VERTEX
8
OBJECT__80
10
93.000000
20
-16.263000
30
19.381001
70
192
0
VERTEX
8
OBJECT__80
10
93.000000
20
16.127001
30
-17.690001
70
192
0
VERTEX
8
OBJECT__80
10
93.000000
20
-8.653000
30
-23.774000
70
192
0
VERTEX
8
OBJECT__80
10
0
20
0
30
0
70
128
71
1
72
2
73
3
0
VERTEX
8
OBJECT__80
10
0
20
0
30
0
70
128
71
4
72
5
73
2
0
VERTEX
8
OBJECT__80
10
0
20
0
30
0
70
128
71
6
72
7
73
8
0
VERTEX
8
OBJECT__80
10
0
20
0
30
0
70
128
71
7
72
9
73
10
0
VERTEX
8
OBJECT__80
10
0
20
0
30
0
70
128
71
9
72
11
73
12
0
VERTEX
8
OBJECT__80
10
0
20
0
30
0
70
128
71
11
72
13
73
14
0
VERTEX
8
OBJECT__80
10
0
20
0
30
0
70
128
71
15
72
3
73
16
0
VERTEX
8
OBJECT__80
10
0
20
0
30
0
70
128
71
2
72
1
73
4
0
VERTEX
8
OBJECT__80
10
0
20
0
30
0
70
128
71
17
72
18
73
5
0
VERTEX
8
OBJECT__80
10
0
20
0
30
0
70
128
71
19
72
20
73
18
0
VERTEX
8
OBJECT__80
10
0
20
0
30
0
70
128
71
21
72
22
73
23
0
VERTEX
8
OBJECT__80
10
0
20
0
30
0
70
128
71
24
72
25
73
22
0
VERTEX
8
OBJECT__80
10
0
20
0
30
0
70
128
71
24
72
26
73
27
0
VERTEX
8
OBJECT__80
10
0
20
0
30
0
70
128
71
26
72
6
73
28
0
VERTEX
8
OBJECT__80
10
0
20
0
30
0
70
128
71
10
72
8
73
7
0
VERTEX
8
OBJECT__80
10
0
20
0
30
0
70
128
71
14
72
12
73
11
0
VERTEX
8
OBJECT__80
10
0
20
0
30
0
70
128
71
29
72
30
73
31
0
VERTEX
8
OBJECT__80
10
0
20
0
30
0
70
128
71
30
72
32
73
33
0
VERTEX
8
OBJECT__80
10
0
20
0
30
0
70
128
71
3
72
15
73
1
0
VERTEX
8
OBJECT__80
10
0
20
0
30
0
70
128
71
18
72
17
73
19
0
VERTEX
8
OBJECT__80
10
0
20
0
30
0
70
128
71
34
72
23
73
20
0
VERTEX
8
OBJECT__80
10
0
20
0
30
0
70
128
71
22
72
21
73
24
0
VERTEX
8
OBJECT__80
10
0
20
0
30
0
70
128
71
28
72
27
73
26
0
VERTEX
8
OBJECT__80
10
0
20
0
30
0
70
128
71
12
72
10
73
9
0
VERTEX
8
OBJECT__80
10
0
20
0
30
0
70
128
71
13
72
29
73
35
0
VERTEX
8
OBJECT__80
10
0
20
0
30
0
70
128
71
33
72
31
73
30
0
VERTEX
8
OBJECT__80
10
0
20
0
30
0
70
128
71
5
72
4
73
17
0
VERTEX
8
OBJECT__80
10
0
20
0
30
0
70
128
71
23
72
34
73
21
0
VERTEX
8
OBJECT__80
10
0
20
0
30
0
70
128
71
8
72
28
73
6
0
VERTEX
8
OBJECT__80
10
0
20
0
30
0
70
128
71
31
72
35
73
29
0
VERTEX
8
OBJECT__80
10
0
20
0
30
0
70
128
71
36
72
16
73
33
0
VERTEX
8
OBJECT__80
10
0
20
0
30
0
70
128
71
20
72
19
73
34
0
VERTEX
8
OBJECT__80
10
0
20
0
30
0
70
128
71
35
72
14
73
13
0
VERTEX
8
OBJECT__80
10
0
20
0
30
0
70
128
71
16
72
36
73
15
0
VERTEX
8
OBJECT__80
10
0
20
0
30
0
70
128
71
33
72
32
73
36
0
VERTEX
8
OBJECT__80
10
0
20
0
30
0
70
128
71
27
72
25
73
24
0
SEQEND
8
OBJECT__80
0
POLYLINE
8
OBJECT__81
66
1
70
64
71
36
72
36
62
253
0
VERTEX
8
OBJECT__81
10
111.500000
20
8.653000
30
23.774000
70
192
0
VERTEX
8
OBJECT__81
10
93.000000
20
8.653000
30
23.774000
70
192
0
VERTEX
8
OBJECT__81
10
93.000000
20
0.000000
30
25.299999
70
192
0
VERTEX
8
OBJECT__81
10
111.500000
20
16.263000
30
19.381001
70
192
0
VERTEX
8
OBJECT__81
10
93.000000
20
16.263000
30
19.381001
70
192
0
VERTEX
8
OBJECT__81
10
111.500000
20
21.910000
30
12.650000
70
192
0
VERTEX
8
OBJECT__81
10
93.000000
20
21.910000
30
12.650000
70
192
0
VERTEX
8
OBJECT__81
10
111.500000
20
24.916000
30
4.393000
70
192
0
VERTEX
8
OBJECT__81
10
93.000000
20
24.916000
30
4.393000
70
192
0
VERTEX
8
OBJECT__81
10
111.500000
20
24.916000
30
-4.393000
70
192
0
VERTEX
8
OBJECT__81
10
93.000000
20
24.916000
30
-4.393000
70
192
0
VERTEX
8
OBJECT__81
10
111.500000
20
21.910000
30
-12.650000
70
192
0
VERTEX
8
OBJECT__81
10
93.000000
20
21.910000
30
-12.650000
70
192
0
VERTEX
8
OBJECT__81
10
111.500000
20
16.263000
30
-19.381001
70
192
0
VERTEX
8
OBJECT__81
10
93.000000
20
16.263000
30
-19.381001
70
192
0
VERTEX
8
OBJECT__81
10
111.500000
20
8.653000
30
-23.774000
70
192
0
VERTEX
8
OBJECT__81
10
93.000000
20
8.653000
30
-23.774000
70
192
0
VERTEX
8
OBJECT__81
10
111.500000
20
0.000000
30
-25.299999
70
192
0
VERTEX
8
OBJECT__81
10
93.000000
20
0.000000
30
-25.299999
70
192
0
VERTEX
8
OBJECT__81
10
111.500000
20
-8.653000
30
-23.774000
70
192
0
VERTEX
8
OBJECT__81
10
93.000000
20
-8.653000
30
-23.774000
70
192
0
VERTEX
8
OBJECT__81
10
111.500000
20
-16.263000
30
-19.381001
70
192
0
VERTEX
8
OBJECT__81
10
93.000000
20
-16.263000
30
-19.381001
70
192
0
VERTEX
8
OBJECT__81
10
111.500000
20
-21.910000
30
-12.650000
70
192
0
VERTEX
8
OBJECT__81
10
93.000000
20
-21.910000
30
-12.650000
70
192
0
VERTEX
8
OBJECT__81
10
111.500000
20
-24.916000
30
-4.393000
70
192
0
VERTEX
8
OBJECT__81
10
93.000000
20
-24.916000
30
-4.393000
70
192
0
VERTEX
8
OBJECT__81
10
111.500000
20
-24.916000
30
4.393000
70
192
0
VERTEX
8
OBJECT__81
10
93.000000
20
-24.916000
30
4.393000
70
192
0
VERTEX
8
OBJECT__81
10
111.500000
20
-21.910000
30
12.650000
70
192
0
VERTEX
8
OBJECT__81
10
93.000000
20
-21.910000
30
12.650000
70
192
0
VERTEX
8
OBJECT__81
10
111.500000
20
-16.263000
30
19.381001
70
192
0
VERTEX
8
OBJECT__81
10
93.000000
20
-16.263000
30
19.381001
70
192
0
VERTEX
8
OBJECT__81
10
111.500000
20
-8.653000
30
23.774000
70
192
0
VERTEX
8
OBJECT__81
10
93.000000
20
-8.653000
30
23.774000
70
192
0
VERTEX
8
OBJECT__81
10
111.500000
20
0.000000
30
25.299999
70
192
0
VERTEX
8
OBJECT__81
10
0
20
0
30
0
70
128
71
1
72
2
73
3
0
VERTEX
8
OBJECT__81
10
0
20
0
30
0
70
128
71
4
72
5
73
2
0
VERTEX
8
OBJECT__81
10
0
20
0
30
0
70
128
71
6
72
7
73
5
0
VERTEX
8
OBJECT__81
10
0
20
0
30
0
70
128
71
8
72
9
73
7
0
VERTEX
8
OBJECT__81
10
0
20
0
30
0
70
128
71
10
72
11
73
9
0
VERTEX
8
OBJECT__81
10
0
20
0
30
0
70
128
71
12
72
13
73
11
0
VERTEX
8
OBJECT__81
10
0
20
0
30
0
70
128
71
14
72
15
73
13
0
VERTEX
8
OBJECT__81
10
0
20
0
30
0
70
128
71
16
72
17
73
15
0
VERTEX
8
OBJECT__81
10
0
20
0
30
0
70
128
71
18
72
19
73
17
0
VERTEX
8
OBJECT__81
10
0
20
0
30
0
70
128
71
20
72
21
73
19
0
VERTEX
8
OBJECT__81
10
0
20
0
30
0
70
128
71
22
72
23
73
21
0
VERTEX
8
OBJECT__81
10
0
20
0
30
0
70
128
71
24
72
25
73
23
0
VERTEX
8
OBJECT__81
10
0
20
0
30
0
70
128
71
26
72
27
73
25
0
VERTEX
8
OBJECT__81
10
0
20
0
30
0
70
128
71
28
72
29
73
27
0
VERTEX
8
OBJECT__81
10
0
20
0
30
0
70
128
71
30
72
31
73
29
0
VERTEX
8
OBJECT__81
10
0
20
0
30
0
70
128
71
32
72
33
73
31
0
VERTEX
8
OBJECT__81
10
0
20
0
30
0
70
128
71
34
72
35
73
33
0
VERTEX
8
OBJECT__81
10
0
20
0
30
0
70
128
71
36
72
3
73
35
0
VERTEX
8
OBJECT__81
10
0
20
0
30
0
70
128
71
35
72
34
73
36
0
VERTEX
8
OBJECT__81
10
0
20
0
30
0
70
128
71
33
72
32
73
34
0
VERTEX
8
OBJECT__81
10
0
20
0
30
0
70
128
71
31
72
30
73
32
0
VERTEX
8
OBJECT__81
10
0
20
0
30
0
70
128
71
29
72
28
73
30
0
VERTEX
8
OBJECT__81
10
0
20
0
30
0
70
128
71
27
72
26
73
28
0
VERTEX
8
OBJECT__81
10
0
20
0
30
0
70
128
71
25
72
24
73
26
0
VERTEX
8
OBJECT__81
10
0
20
0
30
0
70
128
71
23
72
22
73
24
0
VERTEX
8
OBJECT__81
10
0
20
0
30
0
70
128
71
21
72
20
73
22
0
VERTEX
8
OBJECT__81
10
0
20
0
30
0
70
128
71
19
72
18
73
20
0
VERTEX
8
OBJECT__81
10
0
20
0
30
0
70
128
71
17
72
16
73
18
0
VERTEX
8
OBJECT__81
10
0
20
0
30
0
70
128
71
15
72
14
73
16
0
VERTEX
8
OBJECT__81
10
0
20
0
30
0
70
128
71
13
72
12
73
14
0
VERTEX
8
OBJECT__81
10
0
20
0
30
0
70
128
71
11
72
10
73
12
0
VERTEX
8
OBJECT__81
10
0
20
0
30
0
70
128
71
9
72
8
73
10
0
VERTEX
8
OBJECT__81
10
0
20
0
30
0
70
128
71
7
72
6
73
8
0
VERTEX
8
OBJECT__81
10
0
20
0
30
0
70
128
71
5
72
4
73
6
0
VERTEX
8
OBJECT__81
10
0
20
0
30
0
70
128
71
2
72
1
73
4
0
VERTEX
8
OBJECT__81
10
0
20
0
30
0
70
128
71
3
72
36
73
1
0
SEQEND
8
OBJECT__81
0
POLYLINE
8
OBJECT__82
66
1
70
64
71
36
72
36
62
253
0
VERTEX
8
OBJECT__82
10
111.500000
20
0.000000
30
25.299999
70
192
0
VERTEX
8
OBJECT__82
10
111.500000
20
0.000000
30
23.422001
70
192
0
VERTEX
8
OBJECT__82
10
111.500000
20
4.304000
30
23.023001
70
192
0
VERTEX
8
OBJECT__82
10
111.500000
20
-8.653000
30
23.774000
70
192
0
VERTEX
8
OBJECT__82
10
111.500000
20
-4.304000
30
23.023001
70
192
0
VERTEX
8
OBJECT__82
10
111.500000
20
8.653000
30
23.774000
70
192
0
VERTEX
8
OBJECT__82
10
111.500000
20
12.330000
30
19.914000
70
192
0
VERTEX
8
OBJECT__82
10
111.500000
20
-16.263000
30
19.381001
70
192
0
VERTEX
8
OBJECT__82
10
111.500000
20
-12.330000
30
19.914000
70
192
0
VERTEX
8
OBJECT__82
10
111.500000
20
24.916000
30
-4.393000
70
192
0
VERTEX
8
OBJECT__82
10
111.500000
20
23.322001
30
-2.161000
70
192
0
VERTEX
8
OBJECT__82
10
111.500000
20
20.966000
30
-10.440000
70
192
0
VERTEX
8
OBJECT__82
10
111.500000
20
24.916000
30
4.393000
70
192
0
VERTEX
8
OBJECT__82
10
111.500000
20
22.528000
30
6.410000
70
192
0
VERTEX
8
OBJECT__82
10
111.500000
20
16.263000
30
19.381001
70
192
0
VERTEX
8
OBJECT__82
10
111.500000
20
18.691000
30
14.115000
70
192
0
VERTEX
8
OBJECT__82
10
111.500000
20
8.653000
30
-23.774000
70
192
0
VERTEX
8
OBJECT__82
10
111.500000
20
8.461000
30
-21.840000
70
192
0
VERTEX
8
OBJECT__82
10
111.500000
20
0.000000
30
-23.422001
70
192
0
VERTEX
8
OBJECT__82
10
111.500000
20
16.263000
30
-19.381001
70
192
0
VERTEX
8
OBJECT__82
10
111.500000
20
15.779000
30
-17.309000
70
192
0
VERTEX
8
OBJECT__82
10
111.500000
20
21.910000
30
12.650000
70
192
0
VERTEX
8
OBJECT__82
10
111.500000
20
-21.910000
30
12.650000
70
192
0
VERTEX
8
OBJECT__82
10
111.500000
20
-18.691000
30
14.115000
70
192
0
VERTEX
8
OBJECT__82
10
111.500000
20
21.910000
30
-12.650000
70
192
0
VERTEX
8
OBJECT__82
10
111.500000
20
-24.916000
30
4.393000
70
192
0
VERTEX
8
OBJECT__82
10
111.500000
20
-24.916000
30
-4.393000
70
192
0
VERTEX
8
OBJECT__82
10
111.500000
20
-23.322001
30
-2.161000
70
192
0
VERTEX
8
OBJECT__82
10
111.500000
20
-21.910000
30
-12.650000
70
192
0
VERTEX
8
OBJECT__82
10
111.500000
20
-20.966000
30
-10.440000
70
192
0
VERTEX
8
OBJECT__82
10
111.500000
20
-22.528000
30
6.410000
70
192
0
VERTEX
8
OBJECT__82
10
111.500000
20
-16.263000
30
-19.381001
70
192
0
VERTEX
8
OBJECT__82
10
111.500000
20
-15.779000
30
-17.309000
70
192
0
VERTEX
8
OBJECT__82
10
111.500000
20
-8.653000
30
-23.774000
70
192
0
VERTEX
8
OBJECT__82
10
111.500000
20
-8.461000
30
-21.840000
70
192
0
VERTEX
8
OBJECT__82
10
111.500000
20
0.000000
30
-25.299999
70
192
0
VERTEX
8
OBJECT__82
10
0
20
0
30
0
70
128
71
1
72
2
73
3
0
VERTEX
8
OBJECT__82
10
0
20
0
30
0
70
128
71
1
72
4
73
5
0
VERTEX
8
OBJECT__82
10
0
20
0
30
0
70
128
71
6
72
3
73
7
0
VERTEX
8
OBJECT__82
10
0
20
0
30
0
70
128
71
5
72
2
73
1
0
VERTEX
8
OBJECT__82
10
0
20
0
30
0
70
128
71
3
72
6
73
1
0
VERTEX
8
OBJECT__82
10
0
20
0
30
0
70
128
71
4
72
8
73
9
0
VERTEX
8
OBJECT__82
10
0
20
0
30
0
70
128
71
10
72
11
73
12
0
VERTEX
8
OBJECT__82
10
0
20
0
30
0
70
128
71
13
72
14
73
11
0
VERTEX
8
OBJECT__82
10
0
20
0
30
0
70
128
71
15
72
7
73
16
0
VERTEX
8
OBJECT__82
10
0
20
0
30
0
70
128
71
9
72
5
73
4
0
VERTEX
8
OBJECT__82
10
0
20
0
30
0
70
128
71
17
72
18
73
19
0
VERTEX
8
OBJECT__82
10
0
20
0
30
0
70
128
71
20
72
21
73
18
0
VERTEX
8
OBJECT__82
10
0
20
0
30
0
70
128
71
11
72
10
73
13
0
VERTEX
8
OBJECT__82
10
0
20
0
30
0
70
128
71
22
72
16
73
14
0
VERTEX
8
OBJECT__82
10
0
20
0
30
0
70
128
71
7
72
15
73
6
0
VERTEX
8
OBJECT__82
10
0
20
0
30
0
70
128
71
8
72
23
73
24
0
VERTEX
8
OBJECT__82
10
0
20
0
30
0
70
128
71
18
72
17
73
20
0
VERTEX
8
OBJECT__82
10
0
20
0
30
0
70
128
71
25
72
12
73
21
0
VERTEX
8
OBJECT__82
10
0
20
0
30
0
70
128
71
14
72
13
73
22
0
VERTEX
8
OBJECT__82
10
0
20
0
30
0
70
128
71
24
72
9
73
8
0
VERTEX
8
OBJECT__82
10
0
20
0
30
0
70
128
71
26
72
27
73
28
0
VERTEX
8
OBJECT__82
10
0
20
0
30
0
70
128
71
27
72
29
73
30
0
VERTEX
8
OBJECT__82
10
0
20
0
30
0
70
128
71
21
72
20
73
25
0
VERTEX
8
OBJECT__82
10
0
20
0
30
0
70
128
71
16
72
22
73
15
0
VERTEX
8
OBJECT__82
10
0
20
0
30
0
70
128
71
23
72
26
73
31
0
VERTEX
8
OBJECT__82
10
0
20
0
30
0
70
128
71
30
72
28
73
27
0
VERTEX
8
OBJECT__82
10
0
20
0
30
0
70
128
71
12
72
25
73
10
0
VERTEX
8
OBJECT__82
10
0
20
0
30
0
70
128
71
28
72
31
73
26
0
VERTEX
8
OBJECT__82
10
0
20
0
30
0
70
128
71
29
72
32
73
33
0
VERTEX
8
OBJECT__82
10
0
20
0
30
0
70
128
71
32
72
34
73
35
0
VERTEX
8
OBJECT__82
10
0
20
0
30
0
70
128
71
31
72
24
73
23
0
VERTEX
8
OBJECT__82
10
0
20
0
30
0
70
128
71
35
72
33
73
32
0
VERTEX
8
OBJECT__82
10
0
20
0
30
0
70
128
71
33
72
30
73
29
0
VERTEX
8
OBJECT__82
10
0
20
0
30
0
70
128
71
34
72
36
73
19
0
VERTEX
8
OBJECT__82
10
0
20
0
30
0
70
128
71
19
72
35
73
34
0
VERTEX
8
OBJECT__82
10
0
20
0
30
0
70
128
71
19
72
36
73
17
0
SEQEND
8
OBJECT__82
0
POLYLINE
8
OBJECT__83
66
1
70
64
71
35
72
35
62
253
0
VERTEX
8
OBJECT__83
10
111.500000
20
0.000000
30
-23.422001
70
192
0
VERTEX
8
OBJECT__83
10
111.500000
20
8.461000
30
-21.840000
70
192
0
VERTEX
8
OBJECT__83
10
53.000000
20
7.908000
30
-20.412001
70
192
0
VERTEX
8
OBJECT__83
10
111.500000
20
15.779000
30
-17.309000
70
192
0
VERTEX
8
OBJECT__83
10
53.000000
20
14.747000
30
-16.177000
70
192
0
VERTEX
8
OBJECT__83
10
111.500000
20
20.966000
30
-10.440000
70
192
0
VERTEX
8
OBJECT__83
10
53.000000
20
19.594999
30
-9.757000
70
192
0
VERTEX
8
OBJECT__83
10
111.500000
20
23.322001
30
-2.161000
70
192
0
VERTEX
8
OBJECT__83
10
53.000000
20
21.797001
30
-2.020000
70
192
0
VERTEX
8
OBJECT__83
10
111.500000
20
22.528000
30
6.410000
70
192
0
VERTEX
8
OBJECT__83
10
53.000000
20
21.054001
30
5.990000
70
192
0
VERTEX
8
OBJECT__83
10
111.500000
20
18.691000
30
14.115000
70
192
0
VERTEX
8
OBJECT__83
10
53.000000
20
17.469000
30
13.192000
70
192
0
VERTEX
8
OBJECT__83
10
111.500000
20
12.330000
30
19.914000
70
192
0
VERTEX
8
OBJECT__83
10
53.000000
20
11.524000
30
18.611000
70
192
0
VERTEX
8
OBJECT__83
10
111.500000
20
4.304000
30
23.023001
70
192
0
VERTEX
8
OBJECT__83
10
53.000000
20
4.022000
30
21.517000
70
192
0
VERTEX
8
OBJECT__83
10
111.500000
20
0.000000
30
23.422001
70
192
0
VERTEX
8
OBJECT__83
10
53.000000
20
-4.022000
30
21.517000
70
192
0
VERTEX
8
OBJECT__83
10
111.500000
20
-4.304000
30
23.023001
70
192
0
VERTEX
8
OBJECT__83
10
111.500000
20
-12.330000
30
19.914000
70
192
0
VERTEX
8
OBJECT__83
10
53.000000
20
-11.524000
30
18.611000
70
192
0
VERTEX
8
OBJECT__83
10
111.500000
20
-18.691000
30
14.115000
70
192
0
VERTEX
8
OBJECT__83
10
53.000000
20
-17.469000
30
13.192000
70
192
0
VERTEX
8
OBJECT__83
10
111.500000
20
-22.528000
30
6.410000
70
192
0
VERTEX
8
OBJECT__83
10
53.000000
20
-21.054001
30
5.990000
70
192
0
VERTEX
8
OBJECT__83
10
111.500000
20
-23.322001
30
-2.161000
70
192
0
VERTEX
8
OBJECT__83
10
53.000000
20
-21.797001
30
-2.020000
70
192
0
VERTEX
8
OBJECT__83
10
111.500000
20
-20.966000
30
-10.440000
70
192
0
VERTEX
8
OBJECT__83
10
53.000000
20
-19.594999
30
-9.757000
70
192
0
VERTEX
8
OBJECT__83
10
111.500000
20
-15.779000
30
-17.309000
70
192
0
VERTEX
8
OBJECT__83
10
53.000000
20
-14.747000
30
-16.177000
70
192
0
VERTEX
8
OBJECT__83
10
111.500000
20
-8.461000
30
-21.840000
70
192
0
VERTEX
8
OBJECT__83
10
53.000000
20
-7.908000
30
-20.412001
70
192
0
VERTEX
8
OBJECT__83
10
53.000000
20
0.000000
30
-21.889999
70
192
0
VERTEX
8
OBJECT__83
10
0
20
0
30
0
70
128
71
1
72
2
73
3
0
VERTEX
8
OBJECT__83
10
0
20
0
30
0
70
128
71
2
72
4
73
5
0
VERTEX
8
OBJECT__83
10
0
20
0
30
0
70
128
71
4
72
6
73
7
0
VERTEX
8
OBJECT__83
10
0
20
0
30
0
70
128
71
6
72
8
73
9
0
VERTEX
8
OBJECT__83
10
0
20
0
30
0
70
128
71
8
72
10
73
11
0
VERTEX
8
OBJECT__83
10
0
20
0
30
0
70
128
71
10
72
12
73
13
0
VERTEX
8
OBJECT__83
10
0
20
0
30
0
70
128
71
12
72
14
73
15
0
VERTEX
8
OBJECT__83
10
0
20
0
30
0
70
128
71
14
72
16
73
17
0
VERTEX
8
OBJECT__83
10
0
20
0
30
0
70
128
71
17
72
16
73
18
0
VERTEX
8
OBJECT__83
10
0
20
0
30
0
70
128
71
18
72
19
73
17
0
VERTEX
8
OBJECT__83
10
0
20
0
30
0
70
128
71
20
72
21
73
22
0
VERTEX
8
OBJECT__83
10
0
20
0
30
0
70
128
71
21
72
23
73
24
0
VERTEX
8
OBJECT__83
10
0
20
0
30
0
70
128
71
23
72
25
73
26
0
VERTEX
8
OBJECT__83
10
0
20
0
30
0
70
128
71
25
72
27
73
28
0
VERTEX
8
OBJECT__83
10
0
20
0
30
0
70
128
71
27
72
29
73
30
0
VERTEX
8
OBJECT__83
10
0
20
0
30
0
70
128
71
29
72
31
73
32
0
VERTEX
8
OBJECT__83
10
0
20
0
30
0
70
128
71
31
72
33
73
34
0
VERTEX
8
OBJECT__83
10
0
20
0
30
0
70
128
71
33
72
1
73
35
0
VERTEX
8
OBJECT__83
10
0
20
0
30
0
70
128
71
35
72
34
73
33
0
VERTEX
8
OBJECT__83
10
0
20
0
30
0
70
128
71
34
72
32
73
31
0
VERTEX
8
OBJECT__83
10
0
20
0
30
0
70
128
71
32
72
30
73
29
0
VERTEX
8
OBJECT__83
10
0
20
0
30
0
70
128
71
30
72
28
73
27
0
VERTEX
8
OBJECT__83
10
0
20
0
30
0
70
128
71
28
72
26
73
25
0
VERTEX
8
OBJECT__83
10
0
20
0
30
0
70
128
71
26
72
24
73
23
0
VERTEX
8
OBJECT__83
10
0
20
0
30
0
70
128
71
24
72
22
73
21
0
VERTEX
8
OBJECT__83
10
0
20
0
30
0
70
128
71
22
72
19
73
20
0
VERTEX
8
OBJECT__83
10
0
20
0
30
0
70
128
71
18
72
20
73
19
0
VERTEX
8
OBJECT__83
10
0
20
0
30
0
70
128
71
17
72
15
73
14
0
VERTEX
8
OBJECT__83
10
0
20
0
30
0
70
128
71
15
72
13
73
12
0
VERTEX
8
OBJECT__83
10
0
20
0
30
0
70
128
71
13
72
11
73
10
0
VERTEX
8
OBJECT__83
10
0
20
0
30
0
70
128
71
11
72
9
73
8
0
VERTEX
8
OBJECT__83
10
0
20
0
30
0
70
128
71
9
72
7
73
6
0
VERTEX
8
OBJECT__83
10
0
20
0
30
0
70
128
71
7
72
5
73
4
0
VERTEX
8
OBJECT__83
10
0
20
0
30
0
70
128
71
5
72
3
73
2
0
VERTEX
8
OBJECT__83
10
0
20
0
30
0
70
128
71
3
72
35
73
1
0
SEQEND
8
OBJECT__83
0
POLYLINE
8
OBJECT__84
66
1
70
64
71
27
72
27
62
253
0
VERTEX
8
OBJECT__84
10
53.000000
20
14.747000
30
-16.177000
70
192
0
VERTEX
8
OBJECT__84
10
53.000000
20
5.196000
30
-3.000000
70
192
0
VERTEX
8
OBJECT__84
10
53.000000
20
2.052000
30
-5.638000
70
192
0
VERTEX
8
OBJECT__84
10
53.000000
20
-17.469000
30
13.192000
70
192
0
VERTEX
8
OBJECT__84
10
53.000000
20
-21.054001
30
5.990000
70
192
0
VERTEX
8
OBJECT__84
10
53.000000
20
-5.909000
30
1.042000
70
192
0
VERTEX
8
OBJECT__84
10
53.000000
20
0.000000
30
-21.889999
70
192
0
VERTEX
8
OBJECT__84
10
53.000000
20
7.908000
30
-20.412001
70
192
0
VERTEX
8
OBJECT__84
10
53.000000
20
21.797001
30
-2.020000
70
192
0
VERTEX
8
OBJECT__84
10
53.000000
20
5.909000
30
1.042000
70
192
0
VERTEX
8
OBJECT__84
10
53.000000
20
17.469000
30
13.192000
70
192
0
VERTEX
8
OBJECT__84
10
53.000000
20
3.857000
30
4.596000
70
192
0
VERTEX
8
OBJECT__84
10
53.000000
20
4.022000
30
21.517000
70
192
0
VERTEX
8
OBJECT__84
10
53.000000
20
0.000000
30
6.000000
70
192
0
VERTEX
8
OBJECT__84
10
53.000000
20
-4.022000
30
21.517000
70
192
0
VERTEX
8
OBJECT__84
10
53.000000
20
-11.524000
30
18.611000
70
192
0
VERTEX
8
OBJECT__84
10
53.000000
20
-3.857000
30
4.596000
70
192
0
VERTEX
8
OBJECT__84
10
53.000000
20
-21.797001
30
-2.020000
70
192
0
VERTEX
8
OBJECT__84
10
53.000000
20
-19.594999
30
-9.757000
70
192
0
VERTEX
8
OBJECT__84
10
53.000000
20
-5.196000
30
-3.000000
70
192
0
VERTEX
8
OBJECT__84
10
53.000000
20
-14.747000
30
-16.177000
70
192
0
VERTEX
8
OBJECT__84
10
53.000000
20
-7.908000
30
-20.412001
70
192
0
VERTEX
8
OBJECT__84
10
53.000000
20
-2.052000
30
-5.638000
70
192
0
VERTEX
8
OBJECT__84
10
53.000000
20
19.594999
30
-9.757000
70
192
0
VERTEX
8
OBJECT__84
10
53.000000
20
21.054001
30
5.990000
70
192
0
VERTEX
8
OBJECT__84
10
53.000000
20
11.524000
30
18.611000
70
192
0
VERTEX
8
OBJECT__84
10
53.000000
20
0.000000
30
-6.000000
70
192
0
VERTEX
8
OBJECT__84
10
0
20
0
30
0
70
128
71
1
72
2
73
3
0
VERTEX
8
OBJECT__84
10
0
20
0
30
0
70
128
71
4
72
5
73
6
0
VERTEX
8
OBJECT__84
10
0
20
0
30
0
70
128
71
7
72
8
73
3
0
VERTEX
8
OBJECT__84
10
0
20
0
30
0
70
128
71
3
72
8
73
1
0
VERTEX
8
OBJECT__84
10
0
20
0
30
0
70
128
71
9
72
10
73
2
0
VERTEX
8
OBJECT__84
10
0
20
0
30
0
70
128
71
11
72
12
73
10
0
VERTEX
8
OBJECT__84
10
0
20
0
30
0
70
128
71
13
72
14
73
12
0
VERTEX
8
OBJECT__84
10
0
20
0
30
0
70
128
71
15
72
16
73
17
0
VERTEX
8
OBJECT__84
10
0
20
0
30
0
70
128
71
17
72
16
73
4
0
VERTEX
8
OBJECT__84
10
0
20
0
30
0
70
128
71
18
72
19
73
20
0
VERTEX
8
OBJECT__84
10
0
20
0
30
0
70
128
71
21
72
22
73
23
0
VERTEX
8
OBJECT__84
10
0
20
0
30
0
70
128
71
1
72
24
73
2
0
VERTEX
8
OBJECT__84
10
0
20
0
30
0
70
128
71
2
72
24
73
9
0
VERTEX
8
OBJECT__84
10
0
20
0
30
0
70
128
71
10
72
25
73
11
0
VERTEX
8
OBJECT__84
10
0
20
0
30
0
70
128
71
12
72
26
73
13
0
VERTEX
8
OBJECT__84
10
0
20
0
30
0
70
128
71
6
72
17
73
4
0
VERTEX
8
OBJECT__84
10
0
20
0
30
0
70
128
71
6
72
5
73
18
0
VERTEX
8
OBJECT__84
10
0
20
0
30
0
70
128
71
20
72
19
73
21
0
VERTEX
8
OBJECT__84
10
0
20
0
30
0
70
128
71
7
72
27
73
23
0
VERTEX
8
OBJECT__84
10
0
20
0
30
0
70
128
71
9
72
25
73
10
0
VERTEX
8
OBJECT__84
10
0
20
0
30
0
70
128
71
13
72
15
73
14
0
VERTEX
8
OBJECT__84
10
0
20
0
30
0
70
128
71
20
72
6
73
18
0
VERTEX
8
OBJECT__84
10
0
20
0
30
0
70
128
71
23
72
22
73
7
0
VERTEX
8
OBJECT__84
10
0
20
0
30
0
70
128
71
11
72
26
73
12
0
VERTEX
8
OBJECT__84
10
0
20
0
30
0
70
128
71
23
72
20
73
21
0
VERTEX
8
OBJECT__84
10
0
20
0
30
0
70
128
71
17
72
14
73
15
0
VERTEX
8
OBJECT__84
10
0
20
0
30
0
70
128
71
3
72
27
73
7
0
SEQEND
8
OBJECT__84
0
POLYLINE
8
OBJECT__85
66
1
70
64
71
20
72
20
62
253
0
VERTEX
8
OBJECT__85
10
65.500000
20
3.857000
30
4.596000
70
192
0
VERTEX
8
OBJECT__85
10
53.000000
20
3.857000
30
4.596000
70
192
0
VERTEX
8
OBJECT__85
10
53.000000
20
0.000000
30
6.000000
70
192
0
VERTEX
8
OBJECT__85
10
65.500000
20
5.909000
30
1.042000
70
192
0
VERTEX
8
OBJECT__85
10
53.000000
20
5.909000
30
1.042000
70
192
0
VERTEX
8
OBJECT__85
10
65.500000
20
5.196000
30
-3.000000
70
192
0
VERTEX
8
OBJECT__85
10
53.000000
20
5.196000
30
-3.000000
70
192
0
VERTEX
8
OBJECT__85
10
65.500000
20
2.052000
30
-5.638000
70
192
0
VERTEX
8
OBJECT__85
10
53.000000
20
2.052000
30
-5.638000
70
192
0
VERTEX
8
OBJECT__85
10
65.500000
20
-2.052000
30
-5.638000
70
192
0
VERTEX
8
OBJECT__85
10
53.000000
20
-2.052000
30
-5.638000
70
192
0
VERTEX
8
OBJECT__85
10
53.000000
20
0.000000
30
-6.000000
70
192
0
VERTEX
8
OBJECT__85
10
65.500000
20
0.000000
30
-6.000000
70
192
0
VERTEX
8
OBJECT__85
10
65.500000
20
-5.196000
30
-3.000000
70
192
0
VERTEX
8
OBJECT__85
10
53.000000
20
-5.196000
30
-3.000000
70
192
0
VERTEX
8
OBJECT__85
10
65.500000
20
-5.909000
30
1.042000
70
192
0
VERTEX
8
OBJECT__85
10
53.000000
20
-5.909000
30
1.042000
70
192
0
VERTEX
8
OBJECT__85
10
65.500000
20
-3.857000
30
4.596000
70
192
0
VERTEX
8
OBJECT__85
10
53.000000
20
-3.857000
30
4.596000
70
192
0
VERTEX
8
OBJECT__85
10
65.500000
20
0.000000
30
6.000000
70
192
0
VERTEX
8
OBJECT__85
10
0
20
0
30
0
70
128
71
1
72
2
73
3
0
VERTEX
8
OBJECT__85
10
0
20
0
30
0
70
128
71
4
72
5
73
2
0
VERTEX
8
OBJECT__85
10
0
20
0
30
0
70
128
71
6
72
7
73
5
0
VERTEX
8
OBJECT__85
10
0
20
0
30
0
70
128
71
8
72
9
73
7
0
VERTEX
8
OBJECT__85
10
0
20
0
30
0
70
128
71
10
72
11
73
12
0
VERTEX
8
OBJECT__85
10
0
20
0
30
0
70
128
71
9
72
8
73
13
0
VERTEX
8
OBJECT__85
10
0
20
0
30
0
70
128
71
13
72
12
73
9
0
VERTEX
8
OBJECT__85
10
0
20
0
30
0
70
128
71
14
72
15
73
11
0
VERTEX
8
OBJECT__85
10
0
20
0
30
0
70
128
71
16
72
17
73
15
0
VERTEX
8
OBJECT__85
10
0
20
0
30
0
70
128
71
18
72
19
73
17
0
VERTEX
8
OBJECT__85
10
0
20
0
30
0
70
128
71
20
72
3
73
19
0
VERTEX
8
OBJECT__85
10
0
20
0
30
0
70
128
71
19
72
18
73
20
0
VERTEX
8
OBJECT__85
10
0
20
0
30
0
70
128
71
17
72
16
73
18
0
VERTEX
8
OBJECT__85
10
0
20
0
30
0
70
128
71
15
72
14
73
16
0
VERTEX
8
OBJECT__85
10
0
20
0
30
0
70
128
71
11
72
10
73
14
0
VERTEX
8
OBJECT__85
10
0
20
0
30
0
70
128
71
12
72
13
73
10
0
VERTEX
8
OBJECT__85
10
0
20
0
30
0
70
128
71
7
72
6
73
8
0
VERTEX
8
OBJECT__85
10
0
20
0
30
0
70
128
71
5
72
4
73
6
0
VERTEX
8
OBJECT__85
10
0
20
0
30
0
70
128
71
2
72
1
73
4
0
VERTEX
8
OBJECT__85
10
0
20
0
30
0
70
128
71
3
72
20
73
1
0
SEQEND
8
OBJECT__85
0
POLYLINE
8
OBJECT__86
66
1
70
64
71
10
72
8
62
253
0
VERTEX
8
OBJECT__86
10
65.500000
20
2.052000
30
-5.638000
70
192
0
VERTEX
8
OBJECT__86
10
65.500000
20
5.909000
30
1.042000
70
192
0
VERTEX
8
OBJECT__86
10
65.500000
20
3.857000
30
4.596000
70
192
0
VERTEX
8
OBJECT__86
10
65.500000
20
-5.196000
30
-3.000000
70
192
0
VERTEX
8
OBJECT__86
10
65.500000
20
0.000000
30
6.000000
70
192
0
VERTEX
8
OBJECT__86
10
65.500000
20
-3.857000
30
4.596000
70
192
0
VERTEX
8
OBJECT__86
10
65.500000
20
5.196000
30
-3.000000
70
192
0
VERTEX
8
OBJECT__86
10
65.500000
20
-5.909000
30
1.042000
70
192
0
VERTEX
8
OBJECT__86
10
65.500000
20
0.000000
30
-6.000000
70
192
0
VERTEX
8
OBJECT__86
10
65.500000
20
-2.052000
30
-5.638000
70
192
0
VERTEX
8
OBJECT__86
10
0
20
0
30
0
70
128
71
1
72
2
73
3
0
VERTEX
8
OBJECT__86
10
0
20
0
30
0
70
128
71
4
72
5
73
6
0
VERTEX
8
OBJECT__86
10
0
20
0
30
0
70
128
71
1
72
7
73
2
0
VERTEX
8
OBJECT__86
10
0
20
0
30
0
70
128
71
6
72
8
73
4
0
VERTEX
8
OBJECT__86
10
0
20
0
30
0
70
128
71
5
72
9
73
1
0
VERTEX
8
OBJECT__86
10
0
20
0
30
0
70
128
71
4
72
10
73
5
0
VERTEX
8
OBJECT__86
10
0
20
0
30
0
70
128
71
10
72
9
73
5
0
VERTEX
8
OBJECT__86
10
0
20
0
30
0
70
128
71
3
72
5
73
1
0
SEQEND
8
OBJECT__86
0
ENDSEC
0
EOF
