  0
SECTION
  2
HEADER
  9
$ACADVER
  1
AC1009
  9
$DWGCODEPAGE
  3
ansi_1252
  9
$INSBASE
 10
0.0
 20
0.0
 30
0.0
  9
$EXTMIN
 10
1.000000000000000E+20
 20
1.000000000000000E+20
 30
1.000000000000000E+20
  9
$EXTMAX
 10
-1.000000000000000E+20
 20
-1.000000000000000E+20
 30
-1.000000000000000E+20
  9
$LIMMIN
 10
0.0
 20
0.0
  9
$LIMMAX
 10
12.0
 20
9.0
  9
$ORTHOMODE
 70
     0
  9
$REGENMODE
 70
     1
  9
$FILLMODE
 70
     1
  9
$QTEXTMODE
 70
     0
  9
$MIRRTEXT
 70
     1
  9
$DRAGMODE
 70
     2
  9
$LTSCALE
 40
1.0
  9
$OSMODE
 70
    37
  9
$ATTMODE
 70
     1
  9
$TEXTSIZE
 40
0.2
  9
$TRACEWID
 40
0.05
  9
$TEXTSTYLE
  7
STANDARD
  9
$CLAYER
  8
0
  9
$CELTYPE
  6
BYLAYER
  9
$CECOLOR
 62
   256
  9
$DIMSCALE
 40
1.0
  9
$DIMASZ
 40
0.18
  9
$DIMEXO
 40
0.0625
  9
$DIMDLI
 40
0.38
  9
$DIMRND
 40
0.0
  9
$DIMDLE
 40
0.0
  9
$DIMEXE
 40
0.18
  9
$DIMTP
 40
0.0
  9
$DIMTM
 40
0.0
  9
$DIMTXT
 40
0.18
  9
$DIMCEN
 40
0.09
  9
$DIMTSZ
 40
0.0
  9
$DIMTOL
 70
     0
  9
$DIMLIM
 70
     0
  9
$DIMTIH
 70
     1
  9
$DIMTOH
 70
     1
  9
$DIMSE1
 70
     0
  9
$DIMSE2
 70
     0
  9
$DIMTAD
 70
     0
  9
$DIMZIN
 70
     0
  9
$DIMBLK
  1

  9
$DIMASO
 70
     1
  9
$DIMSHO
 70
     1
  9
$DIMPOST
  1

  9
$DIMAPOST
  1

  9
$DIMALT
 70
     0
  9
$DIMALTD
 70
     2
  9
$DIMALTF
 40
25.4
  9
$DIMLFAC
 40
1.0
  9
$DIMTOFL
 70
     0
  9
$DIMTVP
 40
0.0
  9
$DIMTIX
 70
     0
  9
$DIMSOXD
 70
     0
  9
$DIMSAH
 70
     0
  9
$DIMBLK1
  1

  9
$DIMBLK2
  1

  9
$DIMSTYLE
  2
STANDARD
  9
$DIMCLRD
 70
     0
  9
$DIMCLRE
 70
     0
  9
$DIMCLRT
 70
     0
  9
$DIMTFAC
 40
1.0
  9
$DIMGAP
 40
0.09
  9
$LUNITS
 70
     2
  9
$LUPREC
 70
     4
  9
$SKETCHINC
 40
0.1
  9
$FILLETRAD
 40
0.5
  9
$AUNITS
 70
     0
  9
$AUPREC
 70
     0
  9
$MENU
  1
.
  9
$ELEVATION
 40
0.0
  9
$PELEVATION
 40
0.0
  9
$THICKNESS
 40
0.0
  9
$LIMCHECK
 70
     0
  9
$CHAMFERA
 40
0.5
  9
$CHAMFERB
 40
0.5
  9
$SKPOLY
 70
     0
  9
$TDCREATE
 40
2455457.71426956
  9
$TDUPDATE
 40
2455457.71426956
  9
$TDINDWG
 40
0.0000000116
  9
$TDUSRTIMER
 40
0.0000000116
  9
$USRTIMER
 70
     1
  9
$ANGBASE
 50
0.0
  9
$ANGDIR
 70
     0
  9
$PDMODE
 70
     0
  9
$PDSIZE
 40
0.0
  9
$PLINEWID
 40
0.0
  9
$COORDS
 70
     1
  9
$SPLFRAME
 70
     0
  9
$SPLINETYPE
 70
     6
  9
$SPLINESEGS
 70
     8
  9
$ATTDIA
 70
     0
  9
$ATTREQ
 70
     1
  9
$HANDLING
 70
     1
  9
$HANDSEED
  5
D13
  9
$SURFTAB1
 70
     6
  9
$SURFTAB2
 70
     6
  9
$SURFTYPE
 70
     6
  9
$SURFU
 70
     6
  9
$SURFV
 70
     6
  9
$UCSNAME
  2

  9
$UCSORG
 10
0.0
 20
0.0
 30
0.0
  9
$UCSXDIR
 10
1.0
 20
0.0
 30
0.0
  9
$UCSYDIR
 10
0.0
 20
1.0
 30
0.0
  9
$PUCSNAME
  2

  9
$PUCSORG
 10
0.0
 20
0.0
 30
0.0
  9
$PUCSXDIR
 10
1.0
 20
0.0
 30
0.0
  9
$PUCSYDIR
 10
0.0
 20
1.0
 30
0.0
  9
$USERI1
 70
     0
  9
$USERI2
 70
     0
  9
$USERI3
 70
     0
  9
$USERI4
 70
     0
  9
$USERI5
 70
     0
  9
$USERR1
 40
0.0
  9
$USERR2
 40
0.0
  9
$USERR3
 40
0.0
  9
$USERR4
 40
0.0
  9
$USERR5
 40
0.0
  9
$WORLDVIEW
 70
     1
  9
$SHADEDGE
 70
     3
  9
$SHADEDIF
 70
    70
  9
$TILEMODE
 70
     1
  9
$MAXACTVP
 70
    64
  9
$PLIMCHECK
 70
     0
  9
$PEXTMIN
 10
1.000000000000000E+20
 20
1.000000000000000E+20
 30
1.000000000000000E+20
  9
$PEXTMAX
 10
-1.000000000000000E+20
 20
-1.000000000000000E+20
 30
-1.000000000000000E+20
  9
$PLIMMIN
 10
0.0
 20
0.0
  9
$PLIMMAX
 10
12.0
 20
9.0
  9
$UNITMODE
 70
     0
  9
$VISRETAIN
 70
     1
  9
$PLINEGEN
 70
     0
  9
$PSLTSCALE
 70
     1
  0
ENDSEC
  0
SECTION
  2
TABLES
  0
TABLE
  2
VPORT
 70
     1
  0
VPORT
  2
*ACTIVE
 70
     0
 10
0.0
 20
0.0
 11
1.0
 21
1.0
 12
0.0
 22
0.0
 13
0.0
 23
0.0
 14
0.5
 24
0.5
 15
0.5
 25
0.5
 16
642.56787109375
 26
367.1500244140625
 36
642.5679321289062
 17
99.5775146484375
 27
40.66949462890625
 37
210.198486328125
 40
351.6359621031405
 41
1.972972972850329
 42
50.0
 43
0.0
 44
0.0
 50
0.0
 51
0.0
 71
     0
 72
   100
 73
     1
 74
     3
 75
     0
 76
     0
 77
     0
 78
     0
  0
ENDTAB
  0
TABLE
  2
LTYPE
 70
     1
  0
LTYPE
  2
CONTINUOUS
 70
     0
  3
Solid line
 72
    65
 73
     0
 40
0.0
  0
ENDTAB
  0
TABLE
  2
LAYER
 70
     2
  0
LAYER
  2
0
 70
     0
 62
     7
  6
CONTINUOUS
  0
LAYER
  2
LAYER_1
 70
     0
 62
     7
  6
CONTINUOUS
  0
ENDTAB
  0
TABLE
  2
STYLE
 70
     1
  0
STYLE
  2
STANDARD
 70
     0
 40
0.0
 41
1.0
 50
0.0
 71
     0
 42
0.2
  3
txt
  4

  0
ENDTAB
  0
TABLE
  2
VIEW
 70
     0
  0
ENDTAB
  0
TABLE
  2
UCS
 70
     0
  0
ENDTAB
  0
TABLE
  2
APPID
 70
     1
  0
APPID
  2
ACAD
 70
     0
  0
ENDTAB
  0
TABLE
  2
DIMSTYLE
 70
     1
  0
DIMSTYLE
  2
STANDARD
 70
     0
  3

  4

  5

  6

  7

 40
1.0
 41
0.18
 42
0.0625
 43
0.38
 44
0.18
 45
0.0
 46
0.0
 47
0.0
 48
0.0
140
0.18
141
0.09
142
0.0
143
25.4
144
1.0
145
0.0
146
1.0
147
0.09
 71
     0
 72
     0
 73
     1
 74
     1
 75
     0
 76
     0
 77
     0
 78
     0
170
     0
171
     2
172
     0
173
     0
174
     0
175
     0
176
     0
177
     0
178
     0
  0
ENDTAB
  0
ENDSEC
  0
SECTION
  2
BLOCKS
  0
BLOCK
  8
0
  2
$MODEL_SPACE
 70
     0
 10
0.0
 20
0.0
 30
0.0
  3
$MODEL_SPACE
  1

  0
ENDBLK
  5
21
  8
0
  0
BLOCK
 67
     1
  8
0
  2
$PAPER_SPACE
 70
     0
 10
0.0
 20
0.0
 30
0.0
  3
$PAPER_SPACE
  1

  0
ENDBLK
  5
1D
 67
     1
  8
0
  0
BLOCK
  8
0
  2
E3_NODE
 70
     0
 10
0.0
 20
0.0
 30
0.0
  3
E3_NODE
  1

  0
POLYLINE
  5
3C
  8
0
 62
     9
 66
     1
 10
0.0
 20
0.0
 30
0.0
 70
    64
 71
    12
 72
    10
  0
VERTEX
  5
3D
  8
0
 10
210.3679962158203
 20
-8.46399974822998
 30
255.9340057373047
 70
   192
  0
VERTEX
  5
3E
  8
0
 10
226.8699951171875
 20
-6.054999828338623
 30
258.843994140625
 70
   192
  0
VERTEX
  5
3F
  8
0
 10
222.1730041503906
 20
-10.1879997253418
 30
258.0159912109375
 70
   192
  0
VERTEX
  5
40
  8
0
 10
228.6210021972656
 20
0.0
 30
259.1520080566406
 70
   192
  0
VERTEX
  5
41
  8
0
 10
216.02099609375
 20
11.08600044250488
 30
256.9309997558594
 70
   192
  0
VERTEX
  5
42
  8
0
 10
222.1730041503906
 20
10.1879997253418
 30
258.0159912109375
 70
   192
  0
VERTEX
  5
43
  8
0
 10
207.0079956054688
 20
3.154999971389771
 30
255.3419952392578
 70
   192
  0
VERTEX
  5
44
  8
0
 10
210.3679962158203
 20
8.46399974822998
 30
255.9340057373047
 70
   192
  0
VERTEX
  5
45
  8
0
 10
216.02099609375
 20
-11.08600044250488
 30
256.9309997558594
 70
   192
  0
VERTEX
  5
46
  8
0
 10
207.0079956054688
 20
-3.154999971389771
 30
255.3419952392578
 70
   192
  0
VERTEX
  5
47
  8
0
 10
206.5610046386719
 20
0.0
 30
255.2630004882812
 70
   192
  0
VERTEX
  5
48
  8
0
 10
226.8699951171875
 20
6.054999828338623
 30
258.843994140625
 70
   192
  0
VERTEX
  5
49
  8
0
 62
     9
 10
0.0
 20
0.0
 30
0.0
 70
   128
 71
     3
 72
     2
 73
     1
  0
VERTEX
  5
4A
  8
0
 62
     9
 10
0.0
 20
0.0
 30
0.0
 70
   128
 71
     6
 72
     5
 73
     4
  0
VERTEX
  5
4B
  8
0
 62
     9
 10
0.0
 20
0.0
 30
0.0
 70
   128
 71
     8
 72
     7
 73
     4
  0
VERTEX
  5
4C
  8
0
 62
     9
 10
0.0
 20
0.0
 30
0.0
 70
   128
 71
     1
 72
     9
 73
     3
  0
VERTEX
  5
4D
  8
0
 62
     9
 10
0.0
 20
0.0
 30
0.0
 70
   128
 71
     4
 72
     5
 73
     8
  0
VERTEX
  5
4E
  8
0
 62
     9
 10
0.0
 20
0.0
 30
0.0
 70
   128
 71
     2
 72
     4
 73
    10
  0
VERTEX
  5
4F
  8
0
 62
     9
 10
0.0
 20
0.0
 30
0.0
 70
   128
 71
     7
 72
    11
 73
     4
  0
VERTEX
  5
50
  8
0
 62
     9
 10
0.0
 20
0.0
 30
0.0
 70
   128
 71
     2
 72
    10
 73
     1
  0
VERTEX
  5
51
  8
0
 62
     9
 10
0.0
 20
0.0
 30
0.0
 70
   128
 71
     4
 72
    11
 73
    10
  0
VERTEX
  5
52
  8
0
 62
     9
 10
0.0
 20
0.0
 30
0.0
 70
   128
 71
     4
 72
    12
 73
     6
  0
SEQEND
  5
53
  8
0
 62
     9
  0
ENDBLK
  5
57
  8
0
  0
BLOCK
  8
0
  2
E3_NODE_1_
 70
     0
 10
0.0
 20
0.0
 30
0.0
  3
E3_NODE_1_
  1

  0
POLYLINE
  5
59
  8
0
 62
     9
 66
     1
 10
0.0
 20
0.0
 30
0.0
 70
    64
 71
    24
 72
    24
  0
VERTEX
  5
5A
  8
0
 10
226.8699951171875
 20
-6.054999828338623
 30
258.843994140625
 70
   192
  0
VERTEX
  5
5B
  8
0
 10
228.6210021972656
 20
0.0
 30
259.1520080566406
 70
   192
  0
VERTEX
  5
5C
  8
0
 10
228.1880035400391
 20
0.0
 30
261.6050109863281
 70
   192
  0
VERTEX
  5
5D
  8
0
 10
222.1730041503906
 20
-10.1879997253418
 30
258.0159912109375
 70
   192
  0
VERTEX
  5
5E
  8
0
 10
226.4369964599609
 20
-6.054999828338623
 30
261.2959899902344
 70
   192
  0
VERTEX
  5
5F
  8
0
 10
216.02099609375
 20
-11.08600044250488
 30
256.9309997558594
 70
   192
  0
VERTEX
  5
60
  8
0
 10
221.7400054931641
 20
-10.1879997253418
 30
260.4679870605469
 70
   192
  0
VERTEX
  5
61
  8
0
 10
210.3679962158203
 20
-8.46399974822998
 30
255.9340057373047
 70
   192
  0
VERTEX
  5
62
  8
0
 10
215.5890045166016
 20
-11.08600044250488
 30
259.3829956054688
 70
   192
  0
VERTEX
  5
63
  8
0
 10
207.0079956054688
 20
-3.154999971389771
 30
255.3419952392578
 70
   192
  0
VERTEX
  5
64
  8
0
 10
209.9349975585938
 20
-8.46399974822998
 30
258.385986328125
 70
   192
  0
VERTEX
  5
65
  8
0
 10
206.1289978027344
 20
0.0
 30
257.7149963378906
 70
   192
  0
VERTEX
  5
66
  8
0
 10
206.5749969482422
 20
3.154999971389771
 30
257.7940063476562
 70
   192
  0
VERTEX
  5
67
  8
0
 10
207.0079956054688
 20
3.154999971389771
 30
255.3419952392578
 70
   192
  0
VERTEX
  5
68
  8
0
 10
206.5749969482422
 20
-3.154999971389771
 30
257.7940063476562
 70
   192
  0
VERTEX
  5
69
  8
0
 10
206.5610046386719
 20
0.0
 30
255.2630004882812
 70
   192
  0
VERTEX
  5
6A
  8
0
 10
209.9349975585938
 20
8.46399974822998
 30
258.385986328125
 70
   192
  0
VERTEX
  5
6B
  8
0
 10
210.3679962158203
 20
8.46399974822998
 30
255.9340057373047
 70
   192
  0
VERTEX
  5
6C
  8
0
 10
215.5890045166016
 20
11.08600044250488
 30
259.3829956054688
 70
   192
  0
VERTEX
  5
6D
  8
0
 10
216.02099609375
 20
11.08600044250488
 30
256.9309997558594
 70
   192
  0
VERTEX
  5
6E
  8
0
 10
221.7400054931641
 20
10.1879997253418
 30
260.4679870605469
 70
   192
  0
VERTEX
  5
6F
  8
0
 10
222.1730041503906
 20
10.1879997253418
 30
258.0159912109375
 70
   192
  0
VERTEX
  5
70
  8
0
 10
226.4369964599609
 20
6.054999828338623
 30
261.2959899902344
 70
   192
  0
VERTEX
  5
71
  8
0
 10
226.8699951171875
 20
6.054999828338623
 30
258.843994140625
 70
   192
  0
VERTEX
  5
72
  8
0
 62
     9
 10
0.0
 20
0.0
 30
0.0
 70
   128
 71
     3
 72
     2
 73
     1
  0
VERTEX
  5
73
  8
0
 62
     9
 10
0.0
 20
0.0
 30
0.0
 70
   128
 71
     5
 72
     1
 73
     4
  0
VERTEX
  5
74
  8
0
 62
     9
 10
0.0
 20
0.0
 30
0.0
 70
   128
 71
     7
 72
     4
 73
     6
  0
VERTEX
  5
75
  8
0
 62
     9
 10
0.0
 20
0.0
 30
0.0
 70
   128
 71
     9
 72
     6
 73
     8
  0
VERTEX
  5
76
  8
0
 62
     9
 10
0.0
 20
0.0
 30
0.0
 70
   128
 71
    11
 72
     8
 73
    10
  0
VERTEX
  5
77
  8
0
 62
     9
 10
0.0
 20
0.0
 30
0.0
 70
   128
 71
    14
 72
    13
 73
    12
  0
VERTEX
  5
78
  8
0
 62
     9
 10
0.0
 20
0.0
 30
0.0
 70
   128
 71
    12
 72
    15
 73
    10
  0
VERTEX
  5
79
  8
0
 62
     9
 10
0.0
 20
0.0
 30
0.0
 70
   128
 71
    10
 72
    16
 73
    12
  0
VERTEX
  5
7A
  8
0
 62
     9
 10
0.0
 20
0.0
 30
0.0
 70
   128
 71
    14
 72
    18
 73
    17
  0
VERTEX
  5
7B
  8
0
 62
     9
 10
0.0
 20
0.0
 30
0.0
 70
   128
 71
    18
 72
    20
 73
    19
  0
VERTEX
  5
7C
  8
0
 62
     9
 10
0.0
 20
0.0
 30
0.0
 70
   128
 71
    20
 72
    22
 73
    21
  0
VERTEX
  5
7D
  8
0
 62
     9
 10
0.0
 20
0.0
 30
0.0
 70
   128
 71
    22
 72
    24
 73
    23
  0
VERTEX
  5
7E
  8
0
 62
     9
 10
0.0
 20
0.0
 30
0.0
 70
   128
 71
    24
 72
     2
 73
     3
  0
VERTEX
  5
7F
  8
0
 62
     9
 10
0.0
 20
0.0
 30
0.0
 70
   128
 71
     3
 72
    23
 73
    24
  0
VERTEX
  5
80
  8
0
 62
     9
 10
0.0
 20
0.0
 30
0.0
 70
   128
 71
    23
 72
    21
 73
    22
  0
VERTEX
  5
81
  8
0
 62
     9
 10
0.0
 20
0.0
 30
0.0
 70
   128
 71
    21
 72
    19
 73
    20
  0
VERTEX
  5
82
  8
0
 62
     9
 10
0.0
 20
0.0
 30
0.0
 70
   128
 71
    19
 72
    17
 73
    18
  0
VERTEX
  5
83
  8
0
 62
     9
 10
0.0
 20
0.0
 30
0.0
 70
   128
 71
    17
 72
    13
 73
    14
  0
VERTEX
  5
84
  8
0
 62
     9
 10
0.0
 20
0.0
 30
0.0
 70
   128
 71
    12
 72
    16
 73
    14
  0
VERTEX
  5
85
  8
0
 62
     9
 10
0.0
 20
0.0
 30
0.0
 70
   128
 71
    10
 72
    15
 73
    11
  0
VERTEX
  5
86
  8
0
 62
     9
 10
0.0
 20
0.0
 30
0.0
 70
   128
 71
     8
 72
    11
 73
     9
  0
VERTEX
  5
87
  8
0
 62
     9
 10
0.0
 20
0.0
 30
0.0
 70
   128
 71
     6
 72
     9
 73
     7
  0
VERTEX
  5
88
  8
0
 62
     9
 10
0.0
 20
0.0
 30
0.0
 70
   128
 71
     4
 72
     7
 73
     5
  0
VERTEX
  5
89
  8
0
 62
     9
 10
0.0
 20
0.0
 30
0.0
 70
   128
 71
     1
 72
     5
 73
     3
  0
SEQEND
  5
8A
  8
0
 62
     9
  0
ENDBLK
  5
8D
  8
0
  0
BLOCK
  8
0
  2
E3_NODE_2_
 70
     0
 10
0.0
 20
0.0
 30
0.0
  3
E3_NODE_2_
  1

  0
POLYLINE
  5
8F
  8
0
 62
     9
 66
     1
 10
0.0
 20
0.0
 30
0.0
 70
    64
 71
    20
 72
    18
  0
VERTEX
  5
90
  8
0
 10
-5.525000095367432
 20
74.41999816894531
 30
39.65700149536133
 70
   192
  0
VERTEX
  5
91
  8
0
 10
-18.13199996948242
 20
76.23899841308594
 30
47.35599899291992
 70
   192
  0
VERTEX
  5
92
  8
0
 10
-18.98500061035156
 20
75.41600036621094
 30
47.2140007019043
 70
   192
  0
VERTEX
  5
93
  8
0
 10
-13.61699962615967
 20
78.38800048828125
 30
46.5629997253418
 70
   192
  0
VERTEX
  5
94
  8
0
 10
-7.011000156402588
 20
77.03900146484375
 30
42.25099945068359
 70
   192
  0
VERTEX
  5
95
  8
0
 10
-19.4370002746582
 20
74.51399993896484
 30
46.81100082397461
 70
   192
  0
VERTEX
  5
96
  8
0
 10
-13.41899967193604
 20
70.47699737548828
 30
40.91400146484375
 70
   192
  0
VERTEX
  5
97
  8
0
 10
-12.00800037384033
 20
70.60399627685547
 30
40.28400039672852
 70
   192
  0
VERTEX
  5
98
  8
0
 10
-17.7180004119873
 20
71.78199768066406
 30
44.01900100708008
 70
   192
  0
VERTEX
  5
99
  8
0
 10
-15.26700019836426
 20
70.71099853515625
 30
42.02000045776367
 70
   192
  0
VERTEX
  5
9A
  8
0
 10
-19.51899909973145
 20
74.35099792480469
 30
46.73899841308594
 70
   192
  0
VERTEX
  5
9B
  8
0
 10
-19.20899963378906
 20
73.03199768066406
 30
45.65599822998047
 70
   192
  0
VERTEX
  5
9C
  8
0
 10
-16.43600082397461
 20
77.30599975585938
 30
47.2400016784668
 70
   192
  0
VERTEX
  5
9D
  8
0
 10
-11.06599998474121
 20
78.77200317382812
 30
45.53200149536133
 70
   192
  0
VERTEX
  5
9E
  8
0
 10
-18.13899993896484
 20
71.96600341796875
 30
44.36399841308594
 70
   192
  0
VERTEX
  5
9F
  8
0
 10
-16.13999938964844
 20
77.41999816894531
 30
47.16899871826172
 70
   192
  0
VERTEX
  5
A0
  8
0
 10
-5.576000213623047
 20
76.4260025024414
 30
41.0890007019043
 70
   192
  0
VERTEX
  5
A1
  8
0
 10
-8.204999923706055
 20
71.79499816894531
 30
39.18199920654297
 70
   192
  0
VERTEX
  5
A2
  8
0
 10
-8.37399959564209
 20
71.74199676513672
 30
39.23099899291992
 70
   192
  0
VERTEX
  5
A3
  8
0
 10
-5.506999969482422
 20
73.7030029296875
 30
39.14500045776367
 70
   192
  0
VERTEX
  5
A4
  8
0
 62
     9
 10
0.0
 20
0.0
 30
0.0
 70
   128
 71
     3
 72
     2
 73
     1
  0
VERTEX
  5
A5
  8
0
 62
     9
 10
0.0
 20
0.0
 30
0.0
 70
   128
 71
     5
 72
     1
 73
     4
  0
VERTEX
  5
A6
  8
0
 62
     9
 10
0.0
 20
0.0
 30
0.0
 70
   128
 71
     8
 72
     7
 73
     6
  0
VERTEX
  5
A7
  8
0
 62
     9
 10
0.0
 20
0.0
 30
0.0
 70
   128
 71
    10
 72
     9
 73
     6
  0
VERTEX
  5
A8
  8
0
 62
     9
 10
0.0
 20
0.0
 30
0.0
 70
   128
 71
    12
 72
    11
 73
     6
  0
VERTEX
  5
A9
  8
0
 62
     9
 10
0.0
 20
0.0
 30
0.0
 70
   128
 71
     2
 72
    13
 73
     1
  0
VERTEX
  5
AA
  8
0
 62
     9
 10
0.0
 20
0.0
 30
0.0
 70
   128
 71
     4
 72
    14
 73
     5
  0
VERTEX
  5
AB
  8
0
 62
     9
 10
0.0
 20
0.0
 30
0.0
 70
   128
 71
     6
 72
     7
 73
    10
  0
VERTEX
  5
AC
  8
0
 62
     9
 10
0.0
 20
0.0
 30
0.0
 70
   128
 71
     6
 72
    15
 73
    12
  0
VERTEX
  5
AD
  8
0
 62
     9
 10
0.0
 20
0.0
 30
0.0
 70
   128
 71
    13
 72
    16
 73
     1
  0
VERTEX
  5
AE
  8
0
 62
     9
 10
0.0
 20
0.0
 30
0.0
 70
   128
 71
     5
 72
    17
 73
     1
  0
VERTEX
  5
AF
  8
0
 62
     9
 10
0.0
 20
0.0
 30
0.0
 70
   128
 71
     6
 72
     9
 73
    15
  0
VERTEX
  5
B0
  8
0
 62
     9
 10
0.0
 20
0.0
 30
0.0
 70
   128
 71
     1
 72
    16
 73
     4
  0
VERTEX
  5
B1
  8
0
 62
     9
 10
0.0
 20
0.0
 30
0.0
 70
   128
 71
    18
 72
     6
 73
     1
  0
VERTEX
  5
B2
  8
0
 62
     9
 10
0.0
 20
0.0
 30
0.0
 70
   128
 71
     6
 72
    19
 73
     8
  0
VERTEX
  5
B3
  8
0
 62
     9
 10
0.0
 20
0.0
 30
0.0
 70
   128
 71
     1
 72
    20
 73
    18
  0
VERTEX
  5
B4
  8
0
 62
     9
 10
0.0
 20
0.0
 30
0.0
 70
   128
 71
     1
 72
     6
 73
     3
  0
VERTEX
  5
B5
  8
0
 62
     9
 10
0.0
 20
0.0
 30
0.0
 70
   128
 71
     6
 72
    18
 73
    19
  0
SEQEND
  5
B6
  8
0
 62
     9
  0
ENDBLK
  5
B9
  8
0
  0
BLOCK
  8
0
  2
E3_NODE_3_
 70
     0
 10
0.0
 20
0.0
 30
0.0
  3
E3_NODE_3_
  1

  0
POLYLINE
  5
BB
  8
0
 62
     9
 66
     1
 10
0.0
 20
0.0
 30
0.0
 70
    64
 71
    85
 72
   109
  0
VERTEX
  5
BC
  8
0
 10
4.132999897003174
 20
111.6809997558594
 30
63.99100112915039
 70
   192
  0
VERTEX
  5
BD
  8
0
 10
12.62800025939941
 20
110.1719970703125
 30
81.38099670410156
 70
   192
  0
VERTEX
  5
BE
  8
0
 10
14.14799976348877
 20
106.6620025634766
 30
79.56099700927734
 70
   192
  0
VERTEX
  5
BF
  8
0
 10
43.79399871826172
 20
72.82499694824219
 30
141.9680023193359
 70
   192
  0
VERTEX
  5
C0
  8
0
 10
29.12299919128418
 20
92.46399688720703
 30
111.088996887207
 70
   192
  0
VERTEX
  5
C1
  8
0
 10
30.37100028991699
 20
95.29499816894531
 30
117.3570022583008
 70
   192
  0
VERTEX
  5
C2
  8
0
 10
44.04199981689453
 20
78.677001953125
 30
145.4600067138672
 70
   192
  0
VERTEX
  5
C3
  8
0
 10
44.05400085449219
 20
78.64399719238281
 30
145.4329986572266
 70
   192
  0
VERTEX
  5
C4
  8
0
 10
44.26399993896484
 20
78.06600189208984
 30
144.968994140625
 70
   192
  0
VERTEX
  5
C5
  8
0
 10
11.92500019073486
 20
103.3450012207031
 30
80.39900207519531
 70
   192
  0
VERTEX
  5
C6
  8
0
 10
7.383999824523926
 20
102.1510009765625
 30
81.74099731445312
 70
   192
  0
VERTEX
  5
C7
  8
0
 10
1.220000028610229
 20
103.6080017089844
 30
69.64299774169922
 70
   192
  0
VERTEX
  5
C8
  8
0
 10
4.382999897003174
 20
105.7389984130859
 30
64.82499694824219
 70
   192
  0
VERTEX
  5
C9
  8
0
 10
8.107000350952148
 20
101.4800033569336
 30
83.16000366210938
 70
   192
  0
VERTEX
  5
CA
  8
0
 10
39.45999908447266
 20
65.71099853515625
 30
139.7769927978516
 70
   192
  0
VERTEX
  5
CB
  8
0
 10
37.29600143432617
 20
65.01300048828125
 30
140.447998046875
 70
   192
  0
VERTEX
  5
CC
  8
0
 10
39.44800186157227
 20
65.7040023803711
 30
139.7779998779297
 70
   192
  0
VERTEX
  5
CD
  8
0
 10
41.27799987792969
 20
67.5510025024414
 30
139.9889984130859
 70
   192
  0
VERTEX
  5
CE
  8
0
 10
22.25099945068359
 20
86.13600158691406
 30
110.9189987182617
 70
   192
  0
VERTEX
  5
CF
  8
0
 10
25.98200035095215
 20
89.0009994506836
 30
109.015998840332
 70
   192
  0
VERTEX
  5
D0
  8
0
 10
41.30799865722656
 20
67.58100128173828
 30
139.9920043945312
 70
   192
  0
VERTEX
  5
D1
  8
0
 10
0.3790000081062317
 20
112.7259979248047
 30
67.99400329589844
 70
   192
  0
VERTEX
  5
D2
  8
0
 10
2.053999900817871
 20
113.338996887207
 30
71.28099822998047
 70
   192
  0
VERTEX
  5
D3
  8
0
 10
8.527999877929688
 20
111.8539962768555
 30
83.98600006103516
 70
   192
  0
VERTEX
  5
D4
  8
0
 10
-5.170000076293945
 20
100.2149963378906
 30
44.92499923706055
 70
   192
  0
VERTEX
  5
D5
  8
0
 10
-2.607000112533569
 20
106.1470031738281
 30
50.06600189208984
 70
   192
  0
VERTEX
  5
D6
  8
0
 10
-1.212000012397766
 20
103.443000793457
 30
51.29999923706055
 70
   192
  0
VERTEX
  5
D7
  8
0
 10
0.5249999761581421
 20
109.9000015258789
 30
56.55199813842773
 70
   192
  0
VERTEX
  5
D8
  8
0
 10
6.11299991607666
 20
108.6149978637695
 30
62.54499816894531
 70
   192
  0
VERTEX
  5
D9
  8
0
 10
2.914999961853027
 20
106.8109970092773
 30
55.74499893188477
 70
   192
  0
VERTEX
  5
DA
  8
0
 10
-8.071000099182129
 20
82.3479995727539
 30
39.50600051879883
 70
   192
  0
VERTEX
  5
DB
  8
0
 10
-6.999000072479248
 20
92.2490005493164
 30
41.41799926757812
 70
   192
  0
VERTEX
  5
DC
  8
0
 10
-4.276000022888184
 20
87.51200103759766
 30
40.73899841308594
 70
   192
  0
VERTEX
  5
DD
  8
0
 10
-3.704999923706055
 20
91.48300170898438
 30
41.85699844360352
 70
   192
  0
VERTEX
  5
DE
  8
0
 10
-2.960000038146973
 20
95.04900360107422
 30
43.37099838256836
 70
   192
  0
VERTEX
  5
DF
  8
0
 10
-2.466000080108643
 20
98.2030029296875
 30
45.82300186157227
 70
   192
  0
VERTEX
  5
E0
  8
0
 10
-10.09700012207031
 20
102.4759979248047
 30
47.43299865722656
 70
   192
  0
VERTEX
  5
E1
  8
0
 10
-6.949999809265137
 20
107.8239974975586
 30
53.60900115966797
 70
   192
  0
VERTEX
  5
E2
  8
0
 10
-3.622999906539917
 20
111.2610015869141
 30
60.13899993896484
 70
   192
  0
VERTEX
  5
E3
  8
0
 10
-5.285999774932861
 20
110.6520004272461
 30
56.87400054931641
 70
   192
  0
VERTEX
  5
E4
  8
0
 10
-12.94600009918213
 20
83.2490005493164
 30
41.84299850463867
 70
   192
  0
VERTEX
  5
E5
  8
0
 10
-12.69999980926514
 20
89.86599731445312
 30
42.32400131225586
 70
   192
  0
VERTEX
  5
E6
  8
0
 10
-12.94600009918213
 20
83.24800109863281
 30
41.84199905395508
 70
   192
  0
VERTEX
  5
E7
  8
0
 10
-11.79100036621094
 20
94.27100372314453
 30
44.10800170898438
 70
   192
  0
VERTEX
  5
E8
  8
0
 10
21.77599906921387
 20
103.7689971923828
 30
99.96099853515625
 70
   192
  0
VERTEX
  5
E9
  8
0
 10
43.48199844360352
 20
80.21299743652344
 30
146.6950073242188
 70
   192
  0
VERTEX
  5
EA
  8
0
 10
30.01099967956543
 20
94.30799865722656
 30
126.1490020751953
 70
   192
  0
VERTEX
  5
EB
  8
0
 10
41.36199951171875
 20
81.26599884033203
 30
148.4259948730469
 70
   192
  0
VERTEX
  5
EC
  8
0
 10
19.38400077819824
 20
104.3809967041016
 30
105.2929992675781
 70
   192
  0
VERTEX
  5
ED
  8
0
 10
21.23900032043457
 20
103.1039962768555
 30
108.9339981079102
 70
   192
  0
VERTEX
  5
EE
  8
0
 10
28.64299964904785
 20
95.87899780273438
 30
123.4660034179688
 70
   192
  0
VERTEX
  5
EF
  8
0
 10
21.98100090026855
 20
100.3379974365234
 30
96.06900024414062
 70
   192
  0
VERTEX
  5
F0
  8
0
 10
41.51599884033203
 20
67.79199981689453
 30
140.0169982910156
 70
   192
  0
VERTEX
  5
F1
  8
0
 10
19.17600059509277
 20
97.04900360107422
 30
95.22699737548828
 70
   192
  0
VERTEX
  5
F2
  8
0
 10
17.5629997253418
 20
92.71700286865234
 30
101.7180023193359
 70
   192
  0
VERTEX
  5
F3
  8
0
 10
15.1269998550415
 20
94.9749984741211
 30
96.93800354003906
 70
   192
  0
VERTEX
  5
F4
  8
0
 10
-1.368000030517578
 20
101.9680023193359
 30
53.01100158691406
 70
   192
  0
VERTEX
  5
F5
  8
0
 10
-1.353000044822693
 20
104.2160034179688
 30
64.59500122070312
 70
   192
  0
VERTEX
  5
F6
  8
0
 10
-4.828000068664551
 20
101.5930023193359
 30
57.77399826049805
 70
   192
  0
VERTEX
  5
F7
  8
0
 10
-5.525000095367432
 20
74.41999816894531
 30
39.65700149536133
 70
   192
  0
VERTEX
  5
F8
  8
0
 10
-5.506999969482422
 20
73.7030029296875
 30
39.14500045776367
 70
   192
  0
VERTEX
  5
F9
  8
0
 10
-8.204999923706055
 20
71.79499816894531
 30
39.18199920654297
 70
   192
  0
VERTEX
  5
FA
  8
0
 10
-5.441999912261963
 20
83.38099670410156
 30
40.59999847412109
 70
   192
  0
VERTEX
  5
FB
  8
0
 10
-8.37399959564209
 20
71.74199676513672
 30
39.23099899291992
 70
   192
  0
VERTEX
  5
FC
  8
0
 10
-12.00800037384033
 20
70.60399627685547
 30
40.28400039672852
 70
   192
  0
VERTEX
  5
FD
  8
0
 10
-6.863999843597412
 20
100.0559997558594
 30
53.77700042724609
 70
   192
  0
VERTEX
  5
FE
  8
0
 10
-2.752000093460083
 20
100.1330032348633
 30
50.78200149536133
 70
   192
  0
VERTEX
  5
FF
  8
0
 10
-1.881999969482422
 20
99.7490005493164
 30
48.88800048828125
 70
   192
  0
VERTEX
  5
100
  8
0
 10
-2.069999933242798
 20
97.92400360107422
 30
45.9640007019043
 70
   192
  0
VERTEX
  5
101
  8
0
 10
-2.569000005722046
 20
100.1279983520508
 30
50.55400085449219
 70
   192
  0
VERTEX
  5
102
  8
0
 10
-2.489000082015991
 20
100.1259994506836
 30
50.45399856567383
 70
   192
  0
VERTEX
  5
103
  8
0
 10
-3.038000106811523
 20
94.51200103759766
 30
43.65499877929688
 70
   192
  0
VERTEX
  5
104
  8
0
 10
-2.072000026702881
 20
97.90699768066406
 30
45.93600082397461
 70
   192
  0
VERTEX
  5
105
  8
0
 10
-4.270999908447266
 20
87.41000366210938
 30
41.14500045776367
 70
   192
  0
VERTEX
  5
106
  8
0
 10
-4.640999794006348
 20
84.18699645996094
 30
40.73400115966797
 70
   192
  0
VERTEX
  5
107
  8
0
 10
-3.569999933242798
 20
91.44599914550781
 30
42.57199859619141
 70
   192
  0
VERTEX
  5
108
  8
0
 10
-5.576000213623047
 20
76.4260025024414
 30
41.0890007019043
 70
   192
  0
VERTEX
  5
109
  8
0
 10
-5.809999942779541
 20
81.73799896240234
 30
41.76100158691406
 70
   192
  0
VERTEX
  5
10A
  8
0
 10
-6.644000053405762
 20
81.3239974975586
 30
42.48300170898438
 70
   192
  0
VERTEX
  5
10B
  8
0
 10
-4.829999923706055
 20
83.79100036621094
 30
40.90000152587891
 70
   192
  0
VERTEX
  5
10C
  8
0
 10
-7.011000156402588
 20
77.03900146484375
 30
42.25099945068359
 70
   192
  0
VERTEX
  5
10D
  8
0
 10
-11.08199977874756
 20
79.90399932861328
 30
45.49900054931641
 70
   192
  0
VERTEX
  5
10E
  8
0
 10
-11.06599998474121
 20
78.77200317382812
 30
45.53200149536133
 70
   192
  0
VERTEX
  5
10F
  8
0
 10
-11.08399963378906
 20
81.00499725341797
 30
45.49700164794922
 70
   192
  0
VERTEX
  5
110
  8
0
 10
-13.41899967193604
 20
70.47699737548828
 30
40.91400146484375
 70
   192
  0
VERTEX
  5
111
  8
0
 62
     9
 10
0.0
 20
0.0
 30
0.0
 70
   128
 71
     3
 72
     2
 73
     1
  0
VERTEX
  5
112
  8
0
 62
     9
 10
0.0
 20
0.0
 30
0.0
 70
   128
 71
     6
 72
     5
 73
     4
  0
VERTEX
  5
113
  8
0
 62
     9
 10
0.0
 20
0.0
 30
0.0
 70
   128
 71
     8
 72
     7
 73
     6
  0
VERTEX
  5
114
  8
0
 62
     9
 10
0.0
 20
0.0
 30
0.0
 70
   128
 71
     6
 72
     9
 73
     8
  0
VERTEX
  5
115
  8
0
 62
     9
 10
0.0
 20
0.0
 30
0.0
 70
   128
 71
    12
 72
    11
 73
    10
  0
VERTEX
  5
116
  8
0
 62
     9
 10
0.0
 20
0.0
 30
0.0
 70
   128
 71
    10
 72
    13
 73
    12
  0
VERTEX
  5
117
  8
0
 62
     9
 10
0.0
 20
0.0
 30
0.0
 70
   128
 71
    11
 72
    14
 73
    10
  0
VERTEX
  5
118
  8
0
 62
     9
 10
0.0
 20
0.0
 30
0.0
 70
   128
 71
    17
 72
    16
 73
    15
  0
VERTEX
  5
119
  8
0
 62
     9
 10
0.0
 20
0.0
 30
0.0
 70
   128
 71
    15
 72
    18
 73
    17
  0
VERTEX
  5
11A
  8
0
 62
     9
 10
0.0
 20
0.0
 30
0.0
 70
   128
 71
    19
 72
    17
 73
    18
  0
VERTEX
  5
11B
  8
0
 62
     9
 10
0.0
 20
0.0
 30
0.0
 70
   128
 71
    18
 72
    20
 73
    19
  0
VERTEX
  5
11C
  8
0
 62
     9
 10
0.0
 20
0.0
 30
0.0
 70
   128
 71
    18
 72
    21
 73
    20
  0
VERTEX
  5
11D
  8
0
 62
     9
 10
0.0
 20
0.0
 30
0.0
 70
   128
 71
    19
 72
    16
 73
    17
  0
VERTEX
  5
11E
  8
0
 62
     9
 10
0.0
 20
0.0
 30
0.0
 70
   128
 71
    23
 72
    22
 73
     2
  0
VERTEX
  5
11F
  8
0
 62
     9
 10
0.0
 20
0.0
 30
0.0
 70
   128
 71
     1
 72
     2
 73
    22
  0
VERTEX
  5
120
  8
0
 62
     9
 10
0.0
 20
0.0
 30
0.0
 70
   128
 71
     2
 72
    24
 73
    23
  0
VERTEX
  5
121
  8
0
 62
     9
 10
0.0
 20
0.0
 30
0.0
 70
   128
 71
    27
 72
    26
 73
    25
  0
VERTEX
  5
122
  8
0
 62
     9
 10
0.0
 20
0.0
 30
0.0
 70
   128
 71
    29
 72
     1
 73
    28
  0
VERTEX
  5
123
  8
0
 62
     9
 10
0.0
 20
0.0
 30
0.0
 70
   128
 71
    30
 72
    28
 73
    26
  0
VERTEX
  5
124
  8
0
 62
     9
 10
0.0
 20
0.0
 30
0.0
 70
   128
 71
    33
 72
    32
 73
    31
  0
VERTEX
  5
125
  8
0
 62
     9
 10
0.0
 20
0.0
 30
0.0
 70
   128
 71
    33
 72
    34
 73
    32
  0
VERTEX
  5
126
  8
0
 62
     9
 10
0.0
 20
0.0
 30
0.0
 70
   128
 71
    35
 72
    25
 73
    32
  0
VERTEX
  5
127
  8
0
 62
     9
 10
0.0
 20
0.0
 30
0.0
 70
   128
 71
    35
 72
    36
 73
    25
  0
VERTEX
  5
128
  8
0
 62
     9
 10
0.0
 20
0.0
 30
0.0
 70
   128
 71
    26
 72
    38
 73
    37
  0
VERTEX
  5
129
  8
0
 62
     9
 10
0.0
 20
0.0
 30
0.0
 70
   128
 71
    28
 72
     1
 73
    39
  0
VERTEX
  5
12A
  8
0
 62
     9
 10
0.0
 20
0.0
 30
0.0
 70
   128
 71
     1
 72
    22
 73
    39
  0
VERTEX
  5
12B
  8
0
 62
     9
 10
0.0
 20
0.0
 30
0.0
 70
   128
 71
    38
 72
    26
 73
    28
  0
VERTEX
  5
12C
  8
0
 62
     9
 10
0.0
 20
0.0
 30
0.0
 70
   128
 71
    28
 72
    40
 73
    38
  0
VERTEX
  5
12D
  8
0
 62
     9
 10
0.0
 20
0.0
 30
0.0
 70
   128
 71
    42
 72
    41
 73
    31
  0
VERTEX
  5
12E
  8
0
 62
     9
 10
0.0
 20
0.0
 30
0.0
 70
   128
 71
    31
 72
    32
 73
    42
  0
VERTEX
  5
12F
  8
0
 62
     9
 10
0.0
 20
0.0
 30
0.0
 70
   128
 71
    41
 72
    43
 73
    31
  0
VERTEX
  5
130
  8
0
 62
     9
 10
0.0
 20
0.0
 30
0.0
 70
   128
 71
    25
 72
    37
 73
    44
  0
VERTEX
  5
131
  8
0
 62
     9
 10
0.0
 20
0.0
 30
0.0
 70
   128
 71
     5
 72
     6
 73
    45
  0
VERTEX
  5
132
  8
0
 62
     9
 10
0.0
 20
0.0
 30
0.0
 70
   128
 71
    47
 72
     6
 73
    46
  0
VERTEX
  5
133
  8
0
 62
     9
 10
0.0
 20
0.0
 30
0.0
 70
   128
 71
    46
 72
    48
 73
    47
  0
VERTEX
  5
134
  8
0
 62
     9
 10
0.0
 20
0.0
 30
0.0
 70
   128
 71
    50
 72
    49
 73
     6
  0
VERTEX
  5
135
  8
0
 62
     9
 10
0.0
 20
0.0
 30
0.0
 70
   128
 71
     6
 72
    51
 73
    50
  0
VERTEX
  5
136
  8
0
 62
     9
 10
0.0
 20
0.0
 30
0.0
 70
   128
 71
    45
 72
     6
 73
    49
  0
VERTEX
  5
137
  8
0
 62
     9
 10
0.0
 20
0.0
 30
0.0
 70
   128
 71
     6
 72
    47
 73
    51
  0
VERTEX
  5
138
  8
0
 62
     9
 10
0.0
 20
0.0
 30
0.0
 70
   128
 71
    52
 72
    45
 73
     2
  0
VERTEX
  5
139
  8
0
 62
     9
 10
0.0
 20
0.0
 30
0.0
 70
   128
 71
    45
 72
    49
 73
    24
  0
VERTEX
  5
13A
  8
0
 62
     9
 10
0.0
 20
0.0
 30
0.0
 70
   128
 71
     5
 72
    20
 73
    53
  0
VERTEX
  5
13B
  8
0
 62
     9
 10
0.0
 20
0.0
 30
0.0
 70
   128
 71
    53
 72
     4
 73
     5
  0
VERTEX
  5
13C
  8
0
 62
     9
 10
0.0
 20
0.0
 30
0.0
 70
   128
 71
    56
 72
    55
 73
    54
  0
VERTEX
  5
13D
  8
0
 62
     9
 10
0.0
 20
0.0
 30
0.0
 70
   128
 71
    55
 72
    19
 73
    20
  0
VERTEX
  5
13E
  8
0
 62
     9
 10
0.0
 20
0.0
 30
0.0
 70
   128
 71
    20
 72
    54
 73
    55
  0
VERTEX
  5
13F
  8
0
 62
     9
 10
0.0
 20
0.0
 30
0.0
 70
   128
 71
    14
 72
    56
 73
    54
  0
VERTEX
  5
140
  8
0
 62
     9
 10
0.0
 20
0.0
 30
0.0
 70
   128
 71
    54
 72
    10
 73
    14
  0
VERTEX
  5
141
  8
0
 62
     9
 10
0.0
 20
0.0
 30
0.0
 70
   128
 71
    20
 72
     5
 73
    52
  0
VERTEX
  5
142
  8
0
 62
     9
 10
0.0
 20
0.0
 30
0.0
 70
   128
 71
    10
 72
    54
 73
    52
  0
VERTEX
  5
143
  8
0
 62
     9
 10
0.0
 20
0.0
 30
0.0
 70
   128
 71
    13
 72
    10
 73
     3
  0
VERTEX
  5
144
  8
0
 62
     9
 10
0.0
 20
0.0
 30
0.0
 70
   128
 71
    58
 72
    13
 73
    57
  0
VERTEX
  5
145
  8
0
 62
     9
 10
0.0
 20
0.0
 30
0.0
 70
   128
 71
    57
 72
    59
 73
    58
  0
VERTEX
  5
146
  8
0
 62
     9
 10
0.0
 20
0.0
 30
0.0
 70
   128
 71
    58
 72
    12
 73
    13
  0
VERTEX
  5
147
  8
0
 62
     9
 10
0.0
 20
0.0
 30
0.0
 70
   128
 71
    30
 72
    27
 73
    57
  0
VERTEX
  5
148
  8
0
 62
     9
 10
0.0
 20
0.0
 30
0.0
 70
   128
 71
    57
 72
    13
 73
    30
  0
VERTEX
  5
149
  8
0
 62
     9
 10
0.0
 20
0.0
 30
0.0
 70
   128
 71
    62
 72
    61
 73
    60
  0
VERTEX
  5
14A
  8
0
 62
     9
 10
0.0
 20
0.0
 30
0.0
 70
   128
 71
    60
 72
    63
 73
    31
  0
VERTEX
  5
14B
  8
0
 62
     9
 10
0.0
 20
0.0
 30
0.0
 70
   128
 71
    31
 72
    64
 73
    60
  0
VERTEX
  5
14C
  8
0
 62
     9
 10
0.0
 20
0.0
 30
0.0
 70
   128
 71
    64
 72
    31
 73
    43
  0
VERTEX
  5
14D
  8
0
 62
     9
 10
0.0
 20
0.0
 30
0.0
 70
   128
 71
    43
 72
    65
 73
    64
  0
VERTEX
  5
14E
  8
0
 62
     9
 10
0.0
 20
0.0
 30
0.0
 70
   128
 71
    57
 72
    67
 73
    66
  0
VERTEX
  5
14F
  8
0
 62
     9
 10
0.0
 20
0.0
 30
0.0
 70
   128
 71
    66
 72
    59
 73
    57
  0
VERTEX
  5
150
  8
0
 62
     9
 10
0.0
 20
0.0
 30
0.0
 70
   128
 71
    69
 72
    68
 73
    27
  0
VERTEX
  5
151
  8
0
 62
     9
 10
0.0
 20
0.0
 30
0.0
 70
   128
 71
    70
 72
    57
 73
    27
  0
VERTEX
  5
152
  8
0
 62
     9
 10
0.0
 20
0.0
 30
0.0
 70
   128
 71
    27
 72
    71
 73
    70
  0
VERTEX
  5
153
  8
0
 62
     9
 10
0.0
 20
0.0
 30
0.0
 70
   128
 71
    27
 72
    68
 73
    71
  0
VERTEX
  5
154
  8
0
 62
     9
 10
0.0
 20
0.0
 30
0.0
 70
   128
 71
    72
 72
    35
 73
    34
  0
VERTEX
  5
155
  8
0
 62
     9
 10
0.0
 20
0.0
 30
0.0
 70
   128
 71
    35
 72
    72
 73
    73
  0
VERTEX
  5
156
  8
0
 62
     9
 10
0.0
 20
0.0
 30
0.0
 70
   128
 71
    73
 72
    36
 73
    35
  0
VERTEX
  5
157
  8
0
 62
     9
 10
0.0
 20
0.0
 30
0.0
 70
   128
 71
    73
 72
    69
 73
    36
  0
VERTEX
  5
158
  8
0
 62
     9
 10
0.0
 20
0.0
 30
0.0
 70
   128
 71
    75
 72
    74
 73
    33
  0
VERTEX
  5
159
  8
0
 62
     9
 10
0.0
 20
0.0
 30
0.0
 70
   128
 71
    34
 72
    33
 73
    74
  0
VERTEX
  5
15A
  8
0
 62
     9
 10
0.0
 20
0.0
 30
0.0
 70
   128
 71
    74
 72
    76
 73
    34
  0
VERTEX
  5
15B
  8
0
 62
     9
 10
0.0
 20
0.0
 30
0.0
 70
   128
 71
    33
 72
    63
 73
    75
  0
VERTEX
  5
15C
  8
0
 62
     9
 10
0.0
 20
0.0
 30
0.0
 70
   128
 71
    79
 72
    78
 73
    77
  0
VERTEX
  5
15D
  8
0
 62
     9
 10
0.0
 20
0.0
 30
0.0
 70
   128
 71
    63
 72
    77
 73
    78
  0
VERTEX
  5
15E
  8
0
 62
     9
 10
0.0
 20
0.0
 30
0.0
 70
   128
 71
    78
 72
    80
 73
    63
  0
VERTEX
  5
15F
  8
0
 62
     9
 10
0.0
 20
0.0
 30
0.0
 70
   128
 71
    79
 72
    77
 73
    81
  0
VERTEX
  5
160
  8
0
 62
     9
 10
0.0
 20
0.0
 30
0.0
 70
   128
 71
    83
 72
    82
 73
    79
  0
VERTEX
  5
161
  8
0
 62
     9
 10
0.0
 20
0.0
 30
0.0
 70
   128
 71
    82
 72
    84
 73
    79
  0
VERTEX
  5
162
  8
0
 62
     9
 10
0.0
 20
0.0
 30
0.0
 70
   128
 71
    79
 72
    81
 73
    83
  0
VERTEX
  5
163
  8
0
 62
     9
 10
0.0
 20
0.0
 30
0.0
 70
   128
 71
    63
 72
    60
 73
    77
  0
VERTEX
  5
164
  8
0
 62
     9
 10
0.0
 20
0.0
 30
0.0
 70
   128
 71
    63
 72
    80
 73
    75
  0
VERTEX
  5
165
  8
0
 62
     9
 10
0.0
 20
0.0
 30
0.0
 70
   128
 71
    34
 72
    76
 73
    72
  0
VERTEX
  5
166
  8
0
 62
     9
 10
0.0
 20
0.0
 30
0.0
 70
   128
 71
    27
 72
    36
 73
    69
  0
VERTEX
  5
167
  8
0
 62
     9
 10
0.0
 20
0.0
 30
0.0
 70
   128
 71
    57
 72
    70
 73
    67
  0
VERTEX
  5
168
  8
0
 62
     9
 10
0.0
 20
0.0
 30
0.0
 70
   128
 71
    43
 72
    85
 73
    65
  0
VERTEX
  5
169
  8
0
 62
     9
 10
0.0
 20
0.0
 30
0.0
 70
   128
 71
    60
 72
    64
 73
    62
  0
VERTEX
  5
16A
  8
0
 62
     9
 10
0.0
 20
0.0
 30
0.0
 70
   128
 71
    13
 72
    29
 73
    30
  0
VERTEX
  5
16B
  8
0
 62
     9
 10
0.0
 20
0.0
 30
0.0
 70
   128
 71
     3
 72
    29
 73
    13
  0
VERTEX
  5
16C
  8
0
 62
     9
 10
0.0
 20
0.0
 30
0.0
 70
   128
 71
    52
 72
     3
 73
    10
  0
VERTEX
  5
16D
  8
0
 62
     9
 10
0.0
 20
0.0
 30
0.0
 70
   128
 71
    52
 72
    54
 73
    20
  0
VERTEX
  5
16E
  8
0
 62
     9
 10
0.0
 20
0.0
 30
0.0
 70
   128
 71
    20
 72
    21
 73
    53
  0
VERTEX
  5
16F
  8
0
 62
     9
 10
0.0
 20
0.0
 30
0.0
 70
   128
 71
    24
 72
     2
 73
    45
  0
VERTEX
  5
170
  8
0
 62
     9
 10
0.0
 20
0.0
 30
0.0
 70
   128
 71
     2
 72
     3
 73
    52
  0
VERTEX
  5
171
  8
0
 62
     9
 10
0.0
 20
0.0
 30
0.0
 70
   128
 71
     6
 72
     7
 73
    46
  0
VERTEX
  5
172
  8
0
 62
     9
 10
0.0
 20
0.0
 30
0.0
 70
   128
 71
    45
 72
    52
 73
     5
  0
VERTEX
  5
173
  8
0
 62
     9
 10
0.0
 20
0.0
 30
0.0
 70
   128
 71
    44
 72
    32
 73
    25
  0
VERTEX
  5
174
  8
0
 62
     9
 10
0.0
 20
0.0
 30
0.0
 70
   128
 71
    32
 72
    44
 73
    42
  0
VERTEX
  5
175
  8
0
 62
     9
 10
0.0
 20
0.0
 30
0.0
 70
   128
 71
    28
 72
    39
 73
    40
  0
VERTEX
  5
176
  8
0
 62
     9
 10
0.0
 20
0.0
 30
0.0
 70
   128
 71
    37
 72
    25
 73
    26
  0
VERTEX
  5
177
  8
0
 62
     9
 10
0.0
 20
0.0
 30
0.0
 70
   128
 71
    32
 72
    34
 73
    35
  0
VERTEX
  5
178
  8
0
 62
     9
 10
0.0
 20
0.0
 30
0.0
 70
   128
 71
    31
 72
    63
 73
    33
  0
VERTEX
  5
179
  8
0
 62
     9
 10
0.0
 20
0.0
 30
0.0
 70
   128
 71
    26
 72
    27
 73
    30
  0
VERTEX
  5
17A
  8
0
 62
     9
 10
0.0
 20
0.0
 30
0.0
 70
   128
 71
    28
 72
    30
 73
    29
  0
VERTEX
  5
17B
  8
0
 62
     9
 10
0.0
 20
0.0
 30
0.0
 70
   128
 71
    25
 72
    36
 73
    27
  0
VERTEX
  5
17C
  8
0
 62
     9
 10
0.0
 20
0.0
 30
0.0
 70
   128
 71
     4
 72
     9
 73
     6
  0
VERTEX
  5
17D
  8
0
 62
     9
 10
0.0
 20
0.0
 30
0.0
 70
   128
 71
     1
 72
    29
 73
     3
  0
SEQEND
  5
17E
  8
0
 62
     9
  0
ENDBLK
  5
181
  8
0
  0
BLOCK
  8
0
  2
E3_NODE_4_
 70
     0
 10
0.0
 20
0.0
 30
0.0
  3
E3_NODE_4_
  1

  0
POLYLINE
  5
183
  8
0
 62
     9
 66
     1
 10
0.0
 20
0.0
 30
0.0
 70
    64
 71
    35
 72
    48
  0
VERTEX
  5
184
  8
0
 10
46.72499847412109
 20
68.14900207519531
 30
149.8079986572266
 70
   192
  0
VERTEX
  5
185
  8
0
 10
46.35300064086914
 20
75.0790023803711
 30
151.2830047607422
 70
   192
  0
VERTEX
  5
186
  8
0
 10
45.05099868774414
 20
73.51899719238281
 30
155.0839996337891
 70
   192
  0
VERTEX
  5
187
  8
0
 10
34.65999984741211
 20
72.62100219726562
 30
146.4960021972656
 70
   192
  0
VERTEX
  5
188
  8
0
 10
39.93000030517578
 20
67.80799865722656
 30
153.9340057373047
 70
   192
  0
VERTEX
  5
189
  8
0
 10
41.19300079345703
 20
74.8290023803711
 30
154.4140014648438
 70
   192
  0
VERTEX
  5
18A
  8
0
 10
37.37400054931641
 20
78.63400268554688
 30
148.8309936523438
 70
   192
  0
VERTEX
  5
18B
  8
0
 10
36.76900100708008
 20
77.9219970703125
 30
148.6990051269531
 70
   192
  0
VERTEX
  5
18C
  8
0
 10
34.59600067138672
 20
67.55699920654297
 30
143.3979949951172
 70
   192
  0
VERTEX
  5
18D
  8
0
 10
35.49499893188477
 20
65.7040023803711
 30
141.7940063476562
 70
   192
  0
VERTEX
  5
18E
  8
0
 10
37.69800186157227
 20
63.24399948120117
 30
144.8269958496094
 70
   192
  0
VERTEX
  5
18F
  8
0
 10
38.31700134277344
 20
63.39599990844727
 30
148.6900024414062
 70
   192
  0
VERTEX
  5
190
  8
0
 10
43.79399871826172
 20
72.82499694824219
 30
141.9680023193359
 70
   192
  0
VERTEX
  5
191
  8
0
 10
44.26399993896484
 20
78.06600189208984
 30
144.968994140625
 70
   192
  0
VERTEX
  5
192
  8
0
 10
44.48699951171875
 20
78.46399688720703
 30
150.4989929199219
 70
   192
  0
VERTEX
  5
193
  8
0
 10
43.72299957275391
 20
77.55000305175781
 30
152.7209930419922
 70
   192
  0
VERTEX
  5
194
  8
0
 10
44.04199981689453
 20
78.677001953125
 30
145.4600067138672
 70
   192
  0
VERTEX
  5
195
  8
0
 10
43.48199844360352
 20
80.21299743652344
 30
146.6950073242188
 70
   192
  0
VERTEX
  5
196
  8
0
 10
44.05400085449219
 20
78.64399719238281
 30
145.4329986572266
 70
   192
  0
VERTEX
  5
197
  8
0
 10
45.01100158691406
 20
66.04499816894531
 30
154.8240051269531
 70
   192
  0
VERTEX
  5
198
  8
0
 10
42.10599899291992
 20
62.01599884033203
 30
149.3139953613281
 70
   192
  0
VERTEX
  5
199
  8
0
 10
41.27799987792969
 20
67.5510025024414
 30
139.9889984130859
 70
   192
  0
VERTEX
  5
19A
  8
0
 10
43.41600036621094
 20
63.65499877929688
 30
145.5980072021484
 70
   192
  0
VERTEX
  5
19B
  8
0
 10
40.63199996948242
 20
63.39599990844727
 30
143.0440063476562
 70
   192
  0
VERTEX
  5
19C
  8
0
 10
37.29600143432617
 20
65.01300048828125
 30
140.447998046875
 70
   192
  0
VERTEX
  5
19D
  8
0
 10
39.45999908447266
 20
65.71099853515625
 30
139.7769927978516
 70
   192
  0
VERTEX
  5
19E
  8
0
 10
39.875
 20
62.40599822998047
 30
145.1790008544922
 70
   192
  0
VERTEX
  5
19F
  8
0
 10
41.30799865722656
 20
67.58100128173828
 30
139.9920043945312
 70
   192
  0
VERTEX
  5
1A0
  8
0
 10
41.51599884033203
 20
67.79199981689453
 30
140.0169982910156
 70
   192
  0
VERTEX
  5
1A1
  8
0
 10
34.45399856567383
 20
67.8489990234375
 30
143.6499938964844
 70
   192
  0
VERTEX
  5
1A2
  8
0
 10
34.58100128173828
 20
67.58799743652344
 30
143.4239959716797
 70
   192
  0
VERTEX
  5
1A3
  8
0
 10
38.72100067138672
 20
80.22200012207031
 30
149.1260070800781
 70
   192
  0
VERTEX
  5
1A4
  8
0
 10
41.46900177001953
 20
78.3239974975586
 30
152.3329925537109
 70
   192
  0
VERTEX
  5
1A5
  8
0
 10
41.36199951171875
 20
81.26599884033203
 30
148.4259948730469
 70
   192
  0
VERTEX
  5
1A6
  8
0
 10
37.40200042724609
 20
78.66799926757812
 30
148.8379974365234
 70
   192
  0
VERTEX
  5
1A7
  8
0
 62
     9
 10
0.0
 20
0.0
 30
0.0
 70
   128
 71
     3
 72
     2
 73
     1
  0
VERTEX
  5
1A8
  8
0
 62
     9
 10
0.0
 20
0.0
 30
0.0
 70
   128
 71
     6
 72
     5
 73
     4
  0
VERTEX
  5
1A9
  8
0
 62
     9
 10
0.0
 20
0.0
 30
0.0
 70
   128
 71
     8
 72
     7
 73
     6
  0
VERTEX
  5
1AA
  8
0
 62
     9
 10
0.0
 20
0.0
 30
0.0
 70
   128
 71
    11
 72
    10
 73
     9
  0
VERTEX
  5
1AB
  8
0
 62
     9
 10
0.0
 20
0.0
 30
0.0
 70
   128
 71
     9
 72
    12
 73
    11
  0
VERTEX
  5
1AC
  8
0
 62
     9
 10
0.0
 20
0.0
 30
0.0
 70
   128
 71
     2
 72
    14
 73
    13
  0
VERTEX
  5
1AD
  8
0
 62
     9
 10
0.0
 20
0.0
 30
0.0
 70
   128
 71
    13
 72
     1
 73
     2
  0
VERTEX
  5
1AE
  8
0
 62
     9
 10
0.0
 20
0.0
 30
0.0
 70
   128
 71
    16
 72
    15
 73
     2
  0
VERTEX
  5
1AF
  8
0
 62
     9
 10
0.0
 20
0.0
 30
0.0
 70
   128
 71
    15
 72
    18
 73
    17
  0
VERTEX
  5
1B0
  8
0
 62
     9
 10
0.0
 20
0.0
 30
0.0
 70
   128
 71
    17
 72
     2
 73
    15
  0
VERTEX
  5
1B1
  8
0
 62
     9
 10
0.0
 20
0.0
 30
0.0
 70
   128
 71
    17
 72
    19
 73
     2
  0
VERTEX
  5
1B2
  8
0
 62
     9
 10
0.0
 20
0.0
 30
0.0
 70
   128
 71
    21
 72
    20
 73
     1
  0
VERTEX
  5
1B3
  8
0
 62
     9
 10
0.0
 20
0.0
 30
0.0
 70
   128
 71
    24
 72
    23
 73
    22
  0
VERTEX
  5
1B4
  8
0
 62
     9
 10
0.0
 20
0.0
 30
0.0
 70
   128
 71
    26
 72
    25
 73
    24
  0
VERTEX
  5
1B5
  8
0
 62
     9
 10
0.0
 20
0.0
 30
0.0
 70
   128
 71
    27
 72
    21
 73
    23
  0
VERTEX
  5
1B6
  8
0
 62
     9
 10
0.0
 20
0.0
 30
0.0
 70
   128
 71
    23
 72
     1
 73
    13
  0
VERTEX
  5
1B7
  8
0
 62
     9
 10
0.0
 20
0.0
 30
0.0
 70
   128
 71
    29
 72
    28
 73
    23
  0
VERTEX
  5
1B8
  8
0
 62
     9
 10
0.0
 20
0.0
 30
0.0
 70
   128
 71
    28
 72
    22
 73
    23
  0
VERTEX
  5
1B9
  8
0
 62
     9
 10
0.0
 20
0.0
 30
0.0
 70
   128
 71
    12
 72
    30
 73
     4
  0
VERTEX
  5
1BA
  8
0
 62
     9
 10
0.0
 20
0.0
 30
0.0
 70
   128
 71
     4
 72
     5
 73
    12
  0
VERTEX
  5
1BB
  8
0
 62
     9
 10
0.0
 20
0.0
 30
0.0
 70
   128
 71
    12
 72
    31
 73
    30
  0
VERTEX
  5
1BC
  8
0
 62
     9
 10
0.0
 20
0.0
 30
0.0
 70
   128
 71
    21
 72
    12
 73
     5
  0
VERTEX
  5
1BD
  8
0
 62
     9
 10
0.0
 20
0.0
 30
0.0
 70
   128
 71
    27
 72
    11
 73
    12
  0
VERTEX
  5
1BE
  8
0
 62
     9
 10
0.0
 20
0.0
 30
0.0
 70
   128
 71
    33
 72
     6
 73
    32
  0
VERTEX
  5
1BF
  8
0
 62
     9
 10
0.0
 20
0.0
 30
0.0
 70
   128
 71
    32
 72
    34
 73
    33
  0
VERTEX
  5
1C0
  8
0
 62
     9
 10
0.0
 20
0.0
 30
0.0
 70
   128
 71
     6
 72
    35
 73
    32
  0
VERTEX
  5
1C1
  8
0
 62
     9
 10
0.0
 20
0.0
 30
0.0
 70
   128
 71
     3
 72
    20
 73
     5
  0
VERTEX
  5
1C2
  8
0
 62
     9
 10
0.0
 20
0.0
 30
0.0
 70
   128
 71
    16
 72
     3
 73
     6
  0
VERTEX
  5
1C3
  8
0
 62
     9
 10
0.0
 20
0.0
 30
0.0
 70
   128
 71
    33
 72
    34
 73
    16
  0
VERTEX
  5
1C4
  8
0
 62
     9
 10
0.0
 20
0.0
 30
0.0
 70
   128
 71
     6
 72
    33
 73
    16
  0
VERTEX
  5
1C5
  8
0
 62
     9
 10
0.0
 20
0.0
 30
0.0
 70
   128
 71
     5
 72
     6
 73
     3
  0
VERTEX
  5
1C6
  8
0
 62
     9
 10
0.0
 20
0.0
 30
0.0
 70
   128
 71
     6
 72
     7
 73
    35
  0
VERTEX
  5
1C7
  8
0
 62
     9
 10
0.0
 20
0.0
 30
0.0
 70
   128
 71
    12
 72
    21
 73
    27
  0
VERTEX
  5
1C8
  8
0
 62
     9
 10
0.0
 20
0.0
 30
0.0
 70
   128
 71
     5
 72
    20
 73
    21
  0
VERTEX
  5
1C9
  8
0
 62
     9
 10
0.0
 20
0.0
 30
0.0
 70
   128
 71
    12
 72
     9
 73
    31
  0
VERTEX
  5
1CA
  8
0
 62
     9
 10
0.0
 20
0.0
 30
0.0
 70
   128
 71
    27
 72
    25
 73
    11
  0
VERTEX
  5
1CB
  8
0
 62
     9
 10
0.0
 20
0.0
 30
0.0
 70
   128
 71
    13
 72
    29
 73
    23
  0
VERTEX
  5
1CC
  8
0
 62
     9
 10
0.0
 20
0.0
 30
0.0
 70
   128
 71
    23
 72
    24
 73
    27
  0
VERTEX
  5
1CD
  8
0
 62
     9
 10
0.0
 20
0.0
 30
0.0
 70
   128
 71
    22
 72
    26
 73
    24
  0
VERTEX
  5
1CE
  8
0
 62
     9
 10
0.0
 20
0.0
 30
0.0
 70
   128
 71
     1
 72
    23
 73
    21
  0
VERTEX
  5
1CF
  8
0
 62
     9
 10
0.0
 20
0.0
 30
0.0
 70
   128
 71
    15
 72
    34
 73
    18
  0
VERTEX
  5
1D0
  8
0
 62
     9
 10
0.0
 20
0.0
 30
0.0
 70
   128
 71
    16
 72
    34
 73
    15
  0
VERTEX
  5
1D1
  8
0
 62
     9
 10
0.0
 20
0.0
 30
0.0
 70
   128
 71
     2
 72
     3
 73
    16
  0
VERTEX
  5
1D2
  8
0
 62
     9
 10
0.0
 20
0.0
 30
0.0
 70
   128
 71
     2
 72
    19
 73
    14
  0
VERTEX
  5
1D3
  8
0
 62
     9
 10
0.0
 20
0.0
 30
0.0
 70
   128
 71
    11
 72
    25
 73
    10
  0
VERTEX
  5
1D4
  8
0
 62
     9
 10
0.0
 20
0.0
 30
0.0
 70
   128
 71
     4
 72
     8
 73
     6
  0
VERTEX
  5
1D5
  8
0
 62
     9
 10
0.0
 20
0.0
 30
0.0
 70
   128
 71
    24
 72
    25
 73
    27
  0
VERTEX
  5
1D6
  8
0
 62
     9
 10
0.0
 20
0.0
 30
0.0
 70
   128
 71
     1
 72
    20
 73
     3
  0
SEQEND
  5
1D7
  8
0
 62
     9
  0
ENDBLK
  5
1DA
  8
0
  0
BLOCK
  8
0
  2
E3_NODE_5_
 70
     0
 10
0.0
 20
0.0
 30
0.0
  3
E3_NODE_5_
  1

  0
POLYLINE
  5
1DC
  8
0
 62
     9
 66
     1
 10
0.0
 20
0.0
 30
0.0
 70
    64
 71
    12
 72
    10
  0
VERTEX
  5
1DD
  8
0
 10
-2.845999956130981
 20
94.01699829101562
 30
44.46200180053711
 70
   192
  0
VERTEX
  5
1DE
  8
0
 10
-2.697999954223633
 20
96.51799774169922
 30
48.01699829101562
 70
   192
  0
VERTEX
  5
1DF
  8
0
 10
-2.075000047683716
 20
94.80699920654297
 30
47.55899810791016
 70
   192
  0
VERTEX
  5
1E0
  8
0
 10
-2.010999917984009
 20
95.02799987792969
 30
47.8120002746582
 70
   192
  0
VERTEX
  5
1E1
  8
0
 10
-2.092999935150146
 20
95.31800079345703
 30
48.63800048828125
 70
   192
  0
VERTEX
  5
1E2
  8
0
 10
-2.585999965667725
 20
97.12799835205078
 30
48.13700103759766
 70
   192
  0
VERTEX
  5
1E3
  8
0
 10
-2.072000026702881
 20
97.90699768066406
 30
45.93600082397461
 70
   192
  0
VERTEX
  5
1E4
  8
0
 10
-3.038000106811523
 20
94.51200103759766
 30
43.65499877929688
 70
   192
  0
VERTEX
  5
1E5
  8
0
 10
-2.069999933242798
 20
97.92400360107422
 30
45.9640007019043
 70
   192
  0
VERTEX
  5
1E6
  8
0
 10
-1.881999969482422
 20
99.7490005493164
 30
48.88800048828125
 70
   192
  0
VERTEX
  5
1E7
  8
0
 10
-2.216000080108643
 20
99.15499877929688
 30
48.5359992980957
 70
   192
  0
VERTEX
  5
1E8
  8
0
 10
-2.539999961853027
 20
93.22699737548828
 30
45.74599838256836
 70
   192
  0
VERTEX
  5
1E9
  8
0
 62
     9
 10
0.0
 20
0.0
 30
0.0
 70
   128
 71
     3
 72
     2
 73
     1
  0
VERTEX
  5
1EA
  8
0
 62
     9
 10
0.0
 20
0.0
 30
0.0
 70
   128
 71
     3
 72
     4
 73
     2
  0
VERTEX
  5
1EB
  8
0
 62
     9
 10
0.0
 20
0.0
 30
0.0
 70
   128
 71
     4
 72
     5
 73
     2
  0
VERTEX
  5
1EC
  8
0
 62
     9
 10
0.0
 20
0.0
 30
0.0
 70
   128
 71
     2
 72
     6
 73
     1
  0
VERTEX
  5
1ED
  8
0
 62
     9
 10
0.0
 20
0.0
 30
0.0
 70
   128
 71
     1
 72
     6
 73
     7
  0
VERTEX
  5
1EE
  8
0
 62
     9
 10
0.0
 20
0.0
 30
0.0
 70
   128
 71
     7
 72
     8
 73
     1
  0
VERTEX
  5
1EF
  8
0
 62
     9
 10
0.0
 20
0.0
 30
0.0
 70
   128
 71
     6
 72
     9
 73
     7
  0
VERTEX
  5
1F0
  8
0
 62
     9
 10
0.0
 20
0.0
 30
0.0
 70
   128
 71
    11
 72
    10
 73
     9
  0
VERTEX
  5
1F1
  8
0
 62
     9
 10
0.0
 20
0.0
 30
0.0
 70
   128
 71
     6
 72
    11
 73
     9
  0
VERTEX
  5
1F2
  8
0
 62
     9
 10
0.0
 20
0.0
 30
0.0
 70
   128
 71
     1
 72
    12
 73
     3
  0
SEQEND
  5
1F3
  8
0
 62
     9
  0
ENDBLK
  5
1F6
  8
0
  0
BLOCK
  8
0
  2
E3_NODE_6_
 70
     0
 10
0.0
 20
0.0
 30
0.0
  3
E3_NODE_6_
  1

  0
POLYLINE
  5
1F8
  8
0
 62
     9
 66
     1
 10
0.0
 20
0.0
 30
0.0
 70
    64
 71
    10
 72
     8
  0
VERTEX
  5
1F9
  8
0
 10
-2.585999965667725
 20
97.12799835205078
 30
48.13700103759766
 70
   192
  0
VERTEX
  5
1FA
  8
0
 10
-2.216000080108643
 20
99.15499877929688
 30
48.5359992980957
 70
   192
  0
VERTEX
  5
1FB
  8
0
 10
-3.282999992370605
 20
98.16200256347656
 30
49.26100158691406
 70
   192
  0
VERTEX
  5
1FC
  8
0
 10
-2.489000082015991
 20
100.1259994506836
 30
50.45399856567383
 70
   192
  0
VERTEX
  5
1FD
  8
0
 10
-1.881999969482422
 20
99.7490005493164
 30
48.88800048828125
 70
   192
  0
VERTEX
  5
1FE
  8
0
 10
-2.092999935150146
 20
95.31800079345703
 30
48.63800048828125
 70
   192
  0
VERTEX
  5
1FF
  8
0
 10
-2.697999954223633
 20
96.51799774169922
 30
48.01699829101562
 70
   192
  0
VERTEX
  5
200
  8
0
 10
-3.232000112533569
 20
95.98899841308594
 30
49.15499877929688
 70
   192
  0
VERTEX
  5
201
  8
0
 10
-3.263999938964844
 20
97.33000183105469
 30
49.22000122070312
 70
   192
  0
VERTEX
  5
202
  8
0
 10
-2.750999927520752
 20
95.40599822998047
 30
49.73500061035156
 70
   192
  0
VERTEX
  5
203
  8
0
 62
     9
 10
0.0
 20
0.0
 30
0.0
 70
   128
 71
     3
 72
     2
 73
     1
  0
VERTEX
  5
204
  8
0
 62
     9
 10
0.0
 20
0.0
 30
0.0
 70
   128
 71
     2
 72
     3
 73
     4
  0
VERTEX
  5
205
  8
0
 62
     9
 10
0.0
 20
0.0
 30
0.0
 70
   128
 71
     4
 72
     5
 73
     2
  0
VERTEX
  5
206
  8
0
 62
     9
 10
0.0
 20
0.0
 30
0.0
 70
   128
 71
     8
 72
     7
 73
     6
  0
VERTEX
  5
207
  8
0
 62
     9
 10
0.0
 20
0.0
 30
0.0
 70
   128
 71
     7
 72
     8
 73
     9
  0
VERTEX
  5
208
  8
0
 62
     9
 10
0.0
 20
0.0
 30
0.0
 70
   128
 71
     9
 72
     1
 73
     7
  0
VERTEX
  5
209
  8
0
 62
     9
 10
0.0
 20
0.0
 30
0.0
 70
   128
 71
     6
 72
    10
 73
     8
  0
VERTEX
  5
20A
  8
0
 62
     9
 10
0.0
 20
0.0
 30
0.0
 70
   128
 71
     1
 72
     9
 73
     3
  0
SEQEND
  5
20B
  8
0
 62
     9
  0
ENDBLK
  5
20E
  8
0
  0
BLOCK
  8
0
  2
E3_NODE_7_
 70
     0
 10
0.0
 20
0.0
 30
0.0
  3
E3_NODE_7_
  1

  0
POLYLINE
  5
210
  8
0
 62
     9
 66
     1
 10
0.0
 20
0.0
 30
0.0
 70
    64
 71
     8
 72
     6
  0
VERTEX
  5
211
  8
0
 10
-4.47700023651123
 20
84.01599884033203
 30
41.94400024414062
 70
   192
  0
VERTEX
  5
212
  8
0
 10
-4.640999794006348
 20
84.18699645996094
 30
40.73400115966797
 70
   192
  0
VERTEX
  5
213
  8
0
 10
-4.270999908447266
 20
87.41000366210938
 30
41.14500045776367
 70
   192
  0
VERTEX
  5
214
  8
0
 10
-3.569999933242798
 20
91.44599914550781
 30
42.57199859619141
 70
   192
  0
VERTEX
  5
215
  8
0
 10
-3.038000106811523
 20
94.51200103759766
 30
43.65499877929688
 70
   192
  0
VERTEX
  5
216
  8
0
 10
-2.845999956130981
 20
94.01699829101562
 30
44.46200180053711
 70
   192
  0
VERTEX
  5
217
  8
0
 10
-2.539999961853027
 20
93.22699737548828
 30
45.74599838256836
 70
   192
  0
VERTEX
  5
218
  8
0
 10
-3.802999973297119
 20
88.5999984741211
 30
43.26599884033203
 70
   192
  0
VERTEX
  5
219
  8
0
 62
     9
 10
0.0
 20
0.0
 30
0.0
 70
   128
 71
     3
 72
     2
 73
     1
  0
VERTEX
  5
21A
  8
0
 62
     9
 10
0.0
 20
0.0
 30
0.0
 70
   128
 71
     6
 72
     5
 73
     4
  0
VERTEX
  5
21B
  8
0
 62
     9
 10
0.0
 20
0.0
 30
0.0
 70
   128
 71
     8
 72
     7
 73
     4
  0
VERTEX
  5
21C
  8
0
 62
     9
 10
0.0
 20
0.0
 30
0.0
 70
   128
 71
     4
 72
     3
 73
     8
  0
VERTEX
  5
21D
  8
0
 62
     9
 10
0.0
 20
0.0
 30
0.0
 70
   128
 71
     4
 72
     7
 73
     6
  0
VERTEX
  5
21E
  8
0
 62
     9
 10
0.0
 20
0.0
 30
0.0
 70
   128
 71
     1
 72
     8
 73
     3
  0
SEQEND
  5
21F
  8
0
 62
     9
  0
ENDBLK
  5
222
  8
0
  0
BLOCK
  8
0
  2
E3_NODE_8_
 70
     0
 10
0.0
 20
0.0
 30
0.0
  3
E3_NODE_8_
  1

  0
POLYLINE
  5
224
  8
0
 62
     9
 66
     1
 10
0.0
 20
0.0
 30
0.0
 70
    64
 71
     8
 72
     6
  0
VERTEX
  5
225
  8
0
 10
3.144000053405762
 20
89.87300109863281
 30
56.9010009765625
 70
   192
  0
VERTEX
  5
226
  8
0
 10
-2.539999961853027
 20
93.22699737548828
 30
45.74599838256836
 70
   192
  0
VERTEX
  5
227
  8
0
 10
-2.075000047683716
 20
94.80699920654297
 30
47.55899810791016
 70
   192
  0
VERTEX
  5
228
  8
0
 10
3.094000101089478
 20
91.822998046875
 30
57.51300048828125
 70
   192
  0
VERTEX
  5
229
  8
0
 10
-2.092999935150146
 20
95.31800079345703
 30
48.63800048828125
 70
   192
  0
VERTEX
  5
22A
  8
0
 10
-2.750999927520752
 20
95.40599822998047
 30
49.73500061035156
 70
   192
  0
VERTEX
  5
22B
  8
0
 10
-2.010999917984009
 20
95.02799987792969
 30
47.8120002746582
 70
   192
  0
VERTEX
  5
22C
  8
0
 10
1.715999960899353
 20
92.76899719238281
 30
58.5
 70
   192
  0
VERTEX
  5
22D
  8
0
 62
     9
 10
0.0
 20
0.0
 30
0.0
 70
   128
 71
     3
 72
     2
 73
     1
  0
VERTEX
  5
22E
  8
0
 62
     9
 10
0.0
 20
0.0
 30
0.0
 70
   128
 71
     6
 72
     5
 73
     4
  0
VERTEX
  5
22F
  8
0
 62
     9
 10
0.0
 20
0.0
 30
0.0
 70
   128
 71
     7
 72
     3
 73
     4
  0
VERTEX
  5
230
  8
0
 62
     9
 10
0.0
 20
0.0
 30
0.0
 70
   128
 71
     4
 72
     5
 73
     7
  0
VERTEX
  5
231
  8
0
 62
     9
 10
0.0
 20
0.0
 30
0.0
 70
   128
 71
     4
 72
     8
 73
     6
  0
VERTEX
  5
232
  8
0
 62
     9
 10
0.0
 20
0.0
 30
0.0
 70
   128
 71
     1
 72
     4
 73
     3
  0
SEQEND
  5
233
  8
0
 62
     9
  0
ENDBLK
  5
236
  8
0
  0
BLOCK
  8
0
  2
E3_NODE_9_
 70
     0
 10
0.0
 20
0.0
 30
0.0
  3
E3_NODE_9_
  1

  0
POLYLINE
  5
238
  8
0
 62
     9
 66
     1
 10
0.0
 20
0.0
 30
0.0
 70
    64
 71
     5
 72
     3
  0
VERTEX
  5
239
  8
0
 10
1.968999981880188
 20
80.21199798583984
 30
54.59500122070312
 70
   192
  0
VERTEX
  5
23A
  8
0
 10
-3.802999973297119
 20
88.5999984741211
 30
43.26599884033203
 70
   192
  0
VERTEX
  5
23B
  8
0
 10
-2.539999961853027
 20
93.22699737548828
 30
45.74599838256836
 70
   192
  0
VERTEX
  5
23C
  8
0
 10
-4.47700023651123
 20
84.01599884033203
 30
41.94400024414062
 70
   192
  0
VERTEX
  5
23D
  8
0
 10
3.144000053405762
 20
89.87300109863281
 30
56.9010009765625
 70
   192
  0
VERTEX
  5
23E
  8
0
 62
     9
 10
0.0
 20
0.0
 30
0.0
 70
   128
 71
     3
 72
     2
 73
     1
  0
VERTEX
  5
23F
  8
0
 62
     9
 10
0.0
 20
0.0
 30
0.0
 70
   128
 71
     2
 72
     4
 73
     1
  0
VERTEX
  5
240
  8
0
 62
     9
 10
0.0
 20
0.0
 30
0.0
 70
   128
 71
     1
 72
     5
 73
     3
  0
SEQEND
  5
241
  8
0
 62
     9
  0
ENDBLK
  5
244
  8
0
  0
BLOCK
  8
0
  2
E3_NODE_10_
 70
     0
 10
0.0
 20
0.0
 30
0.0
  3
E3_NODE_10_
  1

  0
POLYLINE
  5
246
  8
0
 62
     9
 66
     1
 10
0.0
 20
0.0
 30
0.0
 70
    64
 71
    10
 72
     8
  0
VERTEX
  5
247
  8
0
 10
-3.043999910354614
 20
95.36900329589844
 30
50.0359992980957
 70
   192
  0
VERTEX
  5
248
  8
0
 10
-3.519000053405762
 20
95.96299743652344
 30
49.43399810791016
 70
   192
  0
VERTEX
  5
249
  8
0
 10
-7.671000003814697
 20
95.8270034790039
 30
52.19400024414062
 70
   192
  0
VERTEX
  5
24A
  8
0
 10
-3.54200005531311
 20
97.322998046875
 30
49.50299835205078
 70
   192
  0
VERTEX
  5
24B
  8
0
 10
-7.632999897003174
 20
97.25299835205078
 30
52.26800155639648
 70
   192
  0
VERTEX
  5
24C
  8
0
 10
-3.555999994277954
 20
98.16699981689453
 30
49.54499816894531
 70
   192
  0
VERTEX
  5
24D
  8
0
 10
-2.752000093460083
 20
100.1330032348633
 30
50.78200149536133
 70
   192
  0
VERTEX
  5
24E
  8
0
 10
-6.863999843597412
 20
100.0559997558594
 30
53.77700042724609
 70
   192
  0
VERTEX
  5
24F
  8
0
 10
-7.610000133514404
 20
98.13500213623047
 30
52.31399917602539
 70
   192
  0
VERTEX
  5
250
  8
0
 10
-7.302999973297119
 20
95.1989974975586
 30
52.91899871826172
 70
   192
  0
VERTEX
  5
251
  8
0
 62
     9
 10
0.0
 20
0.0
 30
0.0
 70
   128
 71
     3
 72
     2
 73
     1
  0
VERTEX
  5
252
  8
0
 62
     9
 10
0.0
 20
0.0
 30
0.0
 70
   128
 71
     4
 72
     2
 73
     3
  0
VERTEX
  5
253
  8
0
 62
     9
 10
0.0
 20
0.0
 30
0.0
 70
   128
 71
     3
 72
     5
 73
     4
  0
VERTEX
  5
254
  8
0
 62
     9
 10
0.0
 20
0.0
 30
0.0
 70
   128
 71
     6
 72
     4
 73
     5
  0
VERTEX
  5
255
  8
0
 62
     9
 10
0.0
 20
0.0
 30
0.0
 70
   128
 71
     9
 72
     8
 73
     7
  0
VERTEX
  5
256
  8
0
 62
     9
 10
0.0
 20
0.0
 30
0.0
 70
   128
 71
     7
 72
     6
 73
     9
  0
VERTEX
  5
257
  8
0
 62
     9
 10
0.0
 20
0.0
 30
0.0
 70
   128
 71
     5
 72
     9
 73
     6
  0
VERTEX
  5
258
  8
0
 62
     9
 10
0.0
 20
0.0
 30
0.0
 70
   128
 71
     1
 72
    10
 73
     3
  0
SEQEND
  5
259
  8
0
 62
     9
  0
ENDBLK
  5
25C
  8
0
  0
BLOCK
  8
0
  2
E3_NODE_11_
 70
     0
 10
0.0
 20
0.0
 30
0.0
  3
E3_NODE_11_
  1

  0
POLYLINE
  5
25E
  8
0
 62
     9
 66
     1
 10
0.0
 20
0.0
 30
0.0
 70
    64
 71
    10
 72
     8
  0
VERTEX
  5
25F
  8
0
 10
-7.671000003814697
 20
95.8270034790039
 30
52.19400024414062
 70
   192
  0
VERTEX
  5
260
  8
0
 10
-7.632999897003174
 20
97.25299835205078
 30
52.26800155639648
 70
   192
  0
VERTEX
  5
261
  8
0
 10
-12.27600002288818
 20
97.322998046875
 30
53.95299911499023
 70
   192
  0
VERTEX
  5
262
  8
0
 10
-12.13799953460693
 20
95.36900329589844
 30
54.66899871826172
 70
   192
  0
VERTEX
  5
263
  8
0
 10
-7.302999973297119
 20
95.1989974975586
 30
52.91899871826172
 70
   192
  0
VERTEX
  5
264
  8
0
 10
-12.34500026702881
 20
95.96299743652344
 30
53.93099975585938
 70
   192
  0
VERTEX
  5
265
  8
0
 10
-11.70600032806396
 20
100.1330032348633
 30
55.34299850463867
 70
   192
  0
VERTEX
  5
266
  8
0
 10
-12.23400020599365
 20
98.16699981689453
 30
53.96699905395508
 70
   192
  0
VERTEX
  5
267
  8
0
 10
-7.610000133514404
 20
98.13500213623047
 30
52.31399917602539
 70
   192
  0
VERTEX
  5
268
  8
0
 10
-6.863999843597412
 20
100.0559997558594
 30
53.77700042724609
 70
   192
  0
VERTEX
  5
269
  8
0
 62
     9
 10
0.0
 20
0.0
 30
0.0
 70
   128
 71
     3
 72
     2
 73
     1
  0
VERTEX
  5
26A
  8
0
 62
     9
 10
0.0
 20
0.0
 30
0.0
 70
   128
 71
     1
 72
     5
 73
     4
  0
VERTEX
  5
26B
  8
0
 62
     9
 10
0.0
 20
0.0
 30
0.0
 70
   128
 71
     4
 72
     6
 73
     1
  0
VERTEX
  5
26C
  8
0
 62
     9
 10
0.0
 20
0.0
 30
0.0
 70
   128
 71
     9
 72
     8
 73
     7
  0
VERTEX
  5
26D
  8
0
 62
     9
 10
0.0
 20
0.0
 30
0.0
 70
   128
 71
     8
 72
     9
 73
     2
  0
VERTEX
  5
26E
  8
0
 62
     9
 10
0.0
 20
0.0
 30
0.0
 70
   128
 71
     2
 72
     3
 73
     8
  0
VERTEX
  5
26F
  8
0
 62
     9
 10
0.0
 20
0.0
 30
0.0
 70
   128
 71
     7
 72
    10
 73
     9
  0
VERTEX
  5
270
  8
0
 62
     9
 10
0.0
 20
0.0
 30
0.0
 70
   128
 71
     1
 72
     6
 73
     3
  0
SEQEND
  5
271
  8
0
 62
     9
  0
ENDBLK
  5
274
  8
0
  0
BLOCK
  8
0
  2
E3_NODE_12_
 70
     0
 10
0.0
 20
0.0
 30
0.0
  3
E3_NODE_12_
  1

  0
POLYLINE
  5
276
  8
0
 62
     9
 66
     1
 10
0.0
 20
0.0
 30
0.0
 70
    64
 71
    11
 72
     9
  0
VERTEX
  5
277
  8
0
 10
-12.23400020599365
 20
98.16699981689453
 30
53.96699905395508
 70
   192
  0
VERTEX
  5
278
  8
0
 10
-11.99699974060059
 20
100.1279983520508
 30
55.35699844360352
 70
   192
  0
VERTEX
  5
279
  8
0
 10
-12.125
 20
100.1259994506836
 30
55.36299896240234
 70
   192
  0
VERTEX
  5
27A
  8
0
 10
-11.70600032806396
 20
100.1330032348633
 30
55.34299850463867
 70
   192
  0
VERTEX
  5
27B
  8
0
 10
-12.27600002288818
 20
97.322998046875
 30
53.95299911499023
 70
   192
  0
VERTEX
  5
27C
  8
0
 10
-12.62399959564209
 20
98.16300201416016
 30
54.02000045776367
 70
   192
  0
VERTEX
  5
27D
  8
0
 10
-12.66800022125244
 20
97.33000183105469
 30
54.01200103759766
 70
   192
  0
VERTEX
  5
27E
  8
0
 10
-12.73999977111816
 20
95.98999786376953
 30
53.99900054931641
 70
   192
  0
VERTEX
  5
27F
  8
0
 10
-12.34500026702881
 20
95.96299743652344
 30
53.93099975585938
 70
   192
  0
VERTEX
  5
280
  8
0
 10
-12.55399990081787
 20
95.40599822998047
 30
54.72900009155273
 70
   192
  0
VERTEX
  5
281
  8
0
 10
-12.13799953460693
 20
95.36900329589844
 30
54.66899871826172
 70
   192
  0
VERTEX
  5
282
  8
0
 62
     9
 10
0.0
 20
0.0
 30
0.0
 70
   128
 71
     3
 72
     2
 73
     1
  0
VERTEX
  5
283
  8
0
 62
     9
 10
0.0
 20
0.0
 30
0.0
 70
   128
 71
     2
 72
     4
 73
     1
  0
VERTEX
  5
284
  8
0
 62
     9
 10
0.0
 20
0.0
 30
0.0
 70
   128
 71
     6
 72
     1
 73
     5
  0
VERTEX
  5
285
  8
0
 62
     9
 10
0.0
 20
0.0
 30
0.0
 70
   128
 71
     5
 72
     7
 73
     6
  0
VERTEX
  5
286
  8
0
 62
     9
 10
0.0
 20
0.0
 30
0.0
 70
   128
 71
     8
 72
     7
 73
     5
  0
VERTEX
  5
287
  8
0
 62
     9
 10
0.0
 20
0.0
 30
0.0
 70
   128
 71
    10
 72
     8
 73
     9
  0
VERTEX
  5
288
  8
0
 62
     9
 10
0.0
 20
0.0
 30
0.0
 70
   128
 71
     9
 72
    11
 73
    10
  0
VERTEX
  5
289
  8
0
 62
     9
 10
0.0
 20
0.0
 30
0.0
 70
   128
 71
     5
 72
     9
 73
     8
  0
VERTEX
  5
28A
  8
0
 62
     9
 10
0.0
 20
0.0
 30
0.0
 70
   128
 71
     1
 72
     6
 73
     3
  0
SEQEND
  5
28B
  8
0
 62
     9
  0
ENDBLK
  5
28E
  8
0
  0
BLOCK
  8
0
  2
E3_NODE_13_
 70
     0
 10
0.0
 20
0.0
 30
0.0
  3
E3_NODE_13_
  1

  0
POLYLINE
  5
290
  8
0
 62
     9
 66
     1
 10
0.0
 20
0.0
 30
0.0
 70
    64
 71
    10
 72
     8
  0
VERTEX
  5
291
  8
0
 10
-12.125
 20
100.1259994506836
 30
55.36299896240234
 70
   192
  0
VERTEX
  5
292
  8
0
 10
-13.74899959564209
 20
99.7490005493164
 30
54.93399810791016
 70
   192
  0
VERTEX
  5
293
  8
0
 10
-13.83699989318848
 20
99.15499877929688
 30
54.45800018310547
 70
   192
  0
VERTEX
  5
294
  8
0
 10
-13.94299983978271
 20
97.12799835205078
 30
53.92399978637695
 70
   192
  0
VERTEX
  5
295
  8
0
 10
-12.66800022125244
 20
97.33000183105469
 30
54.01200103759766
 70
   192
  0
VERTEX
  5
296
  8
0
 10
-12.62399959564209
 20
98.16300201416016
 30
54.02000045776367
 70
   192
  0
VERTEX
  5
297
  8
0
 10
-13.97399997711182
 20
96.51799774169922
 30
53.76300048828125
 70
   192
  0
VERTEX
  5
298
  8
0
 10
-13.82800006866455
 20
95.31800079345703
 30
54.61700057983398
 70
   192
  0
VERTEX
  5
299
  8
0
 10
-12.55399990081787
 20
95.40599822998047
 30
54.72900009155273
 70
   192
  0
VERTEX
  5
29A
  8
0
 10
-12.73999977111816
 20
95.98999786376953
 30
53.99900054931641
 70
   192
  0
VERTEX
  5
29B
  8
0
 62
     9
 10
0.0
 20
0.0
 30
0.0
 70
   128
 71
     3
 72
     2
 73
     1
  0
VERTEX
  5
29C
  8
0
 62
     9
 10
0.0
 20
0.0
 30
0.0
 70
   128
 71
     6
 72
     5
 73
     4
  0
VERTEX
  5
29D
  8
0
 62
     9
 10
0.0
 20
0.0
 30
0.0
 70
   128
 71
     4
 72
     3
 73
     6
  0
VERTEX
  5
29E
  8
0
 62
     9
 10
0.0
 20
0.0
 30
0.0
 70
   128
 71
     7
 72
     4
 73
     5
  0
VERTEX
  5
29F
  8
0
 62
     9
 10
0.0
 20
0.0
 30
0.0
 70
   128
 71
    10
 72
     9
 73
     8
  0
VERTEX
  5
2A0
  8
0
 62
     9
 10
0.0
 20
0.0
 30
0.0
 70
   128
 71
     8
 72
     7
 73
    10
  0
VERTEX
  5
2A1
  8
0
 62
     9
 10
0.0
 20
0.0
 30
0.0
 70
   128
 71
     5
 72
    10
 73
     7
  0
VERTEX
  5
2A2
  8
0
 62
     9
 10
0.0
 20
0.0
 30
0.0
 70
   128
 71
     1
 72
     6
 73
     3
  0
SEQEND
  5
2A3
  8
0
 62
     9
  0
ENDBLK
  5
2A6
  8
0
  0
BLOCK
  8
0
  2
E3_NODE_14_
 70
     0
 10
0.0
 20
0.0
 30
0.0
  3
E3_NODE_14_
  1

  0
POLYLINE
  5
2A8
  8
0
 62
     9
 66
     1
 10
0.0
 20
0.0
 30
0.0
 70
    64
 71
    12
 72
    10
  0
VERTEX
  5
2A9
  8
0
 10
-15.9370002746582
 20
97.89399719238281
 30
53.10499954223633
 70
   192
  0
VERTEX
  5
2AA
  8
0
 10
-17.30299949645996
 20
94.51200103759766
 30
50.92300033569336
 70
   192
  0
VERTEX
  5
2AB
  8
0
 10
-16.76399993896484
 20
94.01699829101562
 30
51.55300140380859
 70
   192
  0
VERTEX
  5
2AC
  8
0
 10
-13.94299983978271
 20
97.12799835205078
 30
53.92399978637695
 70
   192
  0
VERTEX
  5
2AD
  8
0
 10
-13.83699989318848
 20
99.15499877929688
 30
54.45800018310547
 70
   192
  0
VERTEX
  5
2AE
  8
0
 10
-15.8129997253418
 20
98.2020034790039
 30
53.30400085449219
 70
   192
  0
VERTEX
  5
2AF
  8
0
 10
-15.90499973297119
 20
93.22699737548828
 30
52.55599975585938
 70
   192
  0
VERTEX
  5
2B0
  8
0
 10
-14.69999980926514
 20
94.80599975585938
 30
54.00199890136719
 70
   192
  0
VERTEX
  5
2B1
  8
0
 10
-13.97399997711182
 20
96.51799774169922
 30
53.76300048828125
 70
   192
  0
VERTEX
  5
2B2
  8
0
 10
-14.52099990844727
 20
95.04000091552734
 30
54.21599960327148
 70
   192
  0
VERTEX
  5
2B3
  8
0
 10
-13.82800006866455
 20
95.31800079345703
 30
54.61700057983398
 70
   192
  0
VERTEX
  5
2B4
  8
0
 10
-13.74899959564209
 20
99.7490005493164
 30
54.93399810791016
 70
   192
  0
VERTEX
  5
2B5
  8
0
 62
     9
 10
0.0
 20
0.0
 30
0.0
 70
   128
 71
     3
 72
     2
 73
     1
  0
VERTEX
  5
2B6
  8
0
 62
     9
 10
0.0
 20
0.0
 30
0.0
 70
   128
 71
     6
 72
     5
 73
     4
  0
VERTEX
  5
2B7
  8
0
 62
     9
 10
0.0
 20
0.0
 30
0.0
 70
   128
 71
     4
 72
     1
 73
     6
  0
VERTEX
  5
2B8
  8
0
 62
     9
 10
0.0
 20
0.0
 30
0.0
 70
   128
 71
     1
 72
     4
 73
     3
  0
VERTEX
  5
2B9
  8
0
 62
     9
 10
0.0
 20
0.0
 30
0.0
 70
   128
 71
     8
 72
     7
 73
     3
  0
VERTEX
  5
2BA
  8
0
 62
     9
 10
0.0
 20
0.0
 30
0.0
 70
   128
 71
     3
 72
     9
 73
     8
  0
VERTEX
  5
2BB
  8
0
 62
     9
 10
0.0
 20
0.0
 30
0.0
 70
   128
 71
     9
 72
    10
 73
     8
  0
VERTEX
  5
2BC
  8
0
 62
     9
 10
0.0
 20
0.0
 30
0.0
 70
   128
 71
     9
 72
    11
 73
    10
  0
VERTEX
  5
2BD
  8
0
 62
     9
 10
0.0
 20
0.0
 30
0.0
 70
   128
 71
     3
 72
     4
 73
     9
  0
VERTEX
  5
2BE
  8
0
 62
     9
 10
0.0
 20
0.0
 30
0.0
 70
   128
 71
     6
 72
    12
 73
     5
  0
SEQEND
  5
2BF
  8
0
 62
     9
  0
ENDBLK
  5
2C2
  8
0
  0
BLOCK
  8
0
  2
E3_NODE_15_
 70
     0
 10
0.0
 20
0.0
 30
0.0
  3
E3_NODE_15_
  1

  0
POLYLINE
  5
2C4
  8
0
 62
     9
 66
     1
 10
0.0
 20
0.0
 30
0.0
 70
    64
 71
    90
 72
   114
  0
VERTEX
  5
2C5
  8
0
 10
-5.065999984741211
 20
111.6809997558594
 30
68.67900085449219
 70
   192
  0
VERTEX
  5
2C6
  8
0
 10
-7.39900016784668
 20
108.6149978637695
 30
69.43000030517578
 70
   192
  0
VERTEX
  5
2C7
  8
0
 10
1.644000053405762
 20
106.6620025634766
 30
85.93299865722656
 70
   192
  0
VERTEX
  5
2C8
  8
0
 10
22.68600082397461
 20
95.29499816894531
 30
121.2730026245117
 70
   192
  0
VERTEX
  5
2C9
  8
0
 10
36.76900100708008
 20
77.9219970703125
 30
148.6990051269531
 70
   192
  0
VERTEX
  5
2CA
  8
0
 10
37.37400054931641
 20
78.63400268554688
 30
148.8309936523438
 70
   192
  0
VERTEX
  5
2CB
  8
0
 10
34.65999984741211
 20
72.62100219726562
 30
146.4960021972656
 70
   192
  0
VERTEX
  5
2CC
  8
0
 10
18.34900093078613
 20
92.46399688720703
 30
116.5790023803711
 70
   192
  0
VERTEX
  5
2CD
  8
0
 10
3.628999948501587
 20
103.3450012207031
 30
84.62699890136719
 70
   192
  0
VERTEX
  5
2CE
  8
0
 10
7.383999824523926
 20
102.1510009765625
 30
81.74099731445312
 70
   192
  0
VERTEX
  5
2CF
  8
0
 10
8.107000350952148
 20
101.4800033569336
 30
83.16000366210938
 70
   192
  0
VERTEX
  5
2D0
  8
0
 10
-4.537000179290771
 20
105.7389984130859
 30
69.37100219726562
 70
   192
  0
VERTEX
  5
2D1
  8
0
 10
1.220000028610229
 20
103.6080017089844
 30
69.64299774169922
 70
   192
  0
VERTEX
  5
2D2
  8
0
 10
34.59600067138672
 20
67.55699920654297
 30
143.3979949951172
 70
   192
  0
VERTEX
  5
2D3
  8
0
 10
18.51799964904785
 20
89.0009994506836
 30
112.8199996948242
 70
   192
  0
VERTEX
  5
2D4
  8
0
 10
22.25099945068359
 20
86.13600158691406
 30
110.9189987182617
 70
   192
  0
VERTEX
  5
2D5
  8
0
 10
37.29600143432617
 20
65.01300048828125
 30
140.447998046875
 70
   192
  0
VERTEX
  5
2D6
  8
0
 10
35.49499893188477
 20
65.7040023803711
 30
141.7940063476562
 70
   192
  0
VERTEX
  5
2D7
  8
0
 10
4.010000228881836
 20
110.1719970703125
 30
85.77300262451172
 70
   192
  0
VERTEX
  5
2D8
  8
0
 10
8.527999877929688
 20
111.8539962768555
 30
83.98600006103516
 70
   192
  0
VERTEX
  5
2D9
  8
0
 10
2.053999900817871
 20
113.338996887207
 30
71.28099822998047
 70
   192
  0
VERTEX
  5
2DA
  8
0
 10
-12.36900043487549
 20
106.1480026245117
 30
55.04000091552734
 70
   192
  0
VERTEX
  5
2DB
  8
0
 10
-15.02200031280518
 20
100.2160034179688
 30
49.94499969482422
 70
   192
  0
VERTEX
  5
2DC
  8
0
 10
-15.41499996185303
 20
100.9550018310547
 30
54.83000183105469
 70
   192
  0
VERTEX
  5
2DD
  8
0
 10
-15.7810001373291
 20
98.19400024414062
 30
52.65399932861328
 70
   192
  0
VERTEX
  5
2DE
  8
0
 10
-8.963000297546387
 20
109.9000015258789
 30
61.38700103759766
 70
   192
  0
VERTEX
  5
2DF
  8
0
 10
-11.02099990844727
 20
106.8119964599609
 30
62.84600067138672
 70
   192
  0
VERTEX
  5
2E0
  8
0
 10
-12.17399978637695
 20
103.4400024414062
 30
56.89099884033203
 70
   192
  0
VERTEX
  5
2E1
  8
0
 10
-17.70100021362305
 20
82.3489990234375
 30
44.41299819946289
 70
   192
  0
VERTEX
  5
2E2
  8
0
 10
-18.42700004577637
 20
83.36799621582031
 30
47.22900009155273
 70
   192
  0
VERTEX
  5
2E3
  8
0
 10
-18.93400001525879
 20
87.51300048828125
 30
48.20800018310547
 70
   192
  0
VERTEX
  5
2E4
  8
0
 10
-16.78400039672852
 20
92.2490005493164
 30
46.40399932861328
 70
   192
  0
VERTEX
  5
2E5
  8
0
 10
-17.66500091552734
 20
91.52799987792969
 30
49.35100173950195
 70
   192
  0
VERTEX
  5
2E6
  8
0
 10
-17.57900047302246
 20
95.04900360107422
 30
50.81999969482422
 70
   192
  0
VERTEX
  5
2E7
  8
0
 10
-6.949999809265137
 20
107.8249969482422
 30
53.61000061035156
 70
   192
  0
VERTEX
  5
2E8
  8
0
 10
-10.09700012207031
 20
102.4759979248047
 30
47.43299865722656
 70
   192
  0
VERTEX
  5
2E9
  8
0
 10
0.3790000081062317
 20
112.7259979248047
 30
67.99400329589844
 70
   192
  0
VERTEX
  5
2EA
  8
0
 10
-3.622999906539917
 20
111.2610015869141
 30
60.13899993896484
 70
   192
  0
VERTEX
  5
2EB
  8
0
 10
-5.285999774932861
 20
110.6520004272461
 30
56.87400054931641
 70
   192
  0
VERTEX
  5
2EC
  8
0
 10
-12.69999980926514
 20
89.86599731445312
 30
42.32400131225586
 70
   192
  0
VERTEX
  5
2ED
  8
0
 10
-11.79100036621094
 20
94.2699966430664
 30
44.10800170898438
 70
   192
  0
VERTEX
  5
2EE
  8
0
 10
13.66499996185303
 20
103.7689971923828
 30
104.0940017700195
 70
   192
  0
VERTEX
  5
2EF
  8
0
 10
10.39500045776367
 20
100.3369979858398
 30
101.9729995727539
 70
   192
  0
VERTEX
  5
2F0
  8
0
 10
38.72100067138672
 20
80.22200012207031
 30
149.1260070800781
 70
   192
  0
VERTEX
  5
2F1
  8
0
 10
41.36199951171875
 20
81.26599884033203
 30
148.4259948730469
 70
   192
  0
VERTEX
  5
2F2
  8
0
 10
30.01099967956543
 20
94.30799865722656
 30
126.1490020751953
 70
   192
  0
VERTEX
  5
2F3
  8
0
 10
37.40200042724609
 20
78.66799926757812
 30
148.8379974365234
 70
   192
  0
VERTEX
  5
2F4
  8
0
 10
28.64299964904785
 20
95.87899780273438
 30
123.4660034179688
 70
   192
  0
VERTEX
  5
2F5
  8
0
 10
21.23900032043457
 20
103.1039962768555
 30
108.9339981079102
 70
   192
  0
VERTEX
  5
2F6
  8
0
 10
19.38400077819824
 20
104.3809967041016
 30
105.2929992675781
 70
   192
  0
VERTEX
  5
2F7
  8
0
 10
34.45399856567383
 20
67.8489990234375
 30
143.6499938964844
 70
   192
  0
VERTEX
  5
2F8
  8
0
 10
34.58100128173828
 20
67.58799743652344
 30
143.4239959716797
 70
   192
  0
VERTEX
  5
2F9
  8
0
 10
11.36200046539307
 20
97.04900360107422
 30
99.20800018310547
 70
   192
  0
VERTEX
  5
2FA
  8
0
 10
17.5629997253418
 20
92.71700286865234
 30
101.7180023193359
 70
   192
  0
VERTEX
  5
2FB
  8
0
 10
15.1269998550415
 20
94.9749984741211
 30
96.93800354003906
 70
   192
  0
VERTEX
  5
2FC
  8
0
 10
-1.353000044822693
 20
104.2160034179688
 30
64.59500122070312
 70
   192
  0
VERTEX
  5
2FD
  8
0
 10
-10.71500015258789
 20
101.9690017700195
 30
57.77399826049805
 70
   192
  0
VERTEX
  5
2FE
  8
0
 10
-4.828000068664551
 20
101.5930023193359
 30
57.77399826049805
 70
   192
  0
VERTEX
  5
2FF
  8
0
 10
-12.94600009918213
 20
83.24800109863281
 30
41.84199905395508
 70
   192
  0
VERTEX
  5
300
  8
0
 10
-15.26700019836426
 20
70.71099853515625
 30
42.02000045776367
 70
   192
  0
VERTEX
  5
301
  8
0
 10
-17.7180004119873
 20
71.78199768066406
 30
44.01900100708008
 70
   192
  0
VERTEX
  5
302
  8
0
 10
-13.41899967193604
 20
70.47699737548828
 30
40.91400146484375
 70
   192
  0
VERTEX
  5
303
  8
0
 10
-12.94600009918213
 20
83.2490005493164
 30
41.84299850463867
 70
   192
  0
VERTEX
  5
304
  8
0
 10
-19.20899963378906
 20
73.03199768066406
 30
45.65599822998047
 70
   192
  0
VERTEX
  5
305
  8
0
 10
-19.4370002746582
 20
74.51399993896484
 30
46.81100082397461
 70
   192
  0
VERTEX
  5
306
  8
0
 10
-19.51899909973145
 20
74.35099792480469
 30
46.73899841308594
 70
   192
  0
VERTEX
  5
307
  8
0
 10
-18.13899993896484
 20
71.96600341796875
 30
44.36399841308594
 70
   192
  0
VERTEX
  5
308
  8
0
 10
-11.08199977874756
 20
79.90399932861328
 30
45.49900054931641
 70
   192
  0
VERTEX
  5
309
  8
0
 10
-16.13100051879883
 20
81.322998046875
 30
47.31700134277344
 70
   192
  0
VERTEX
  5
30A
  8
0
 10
-13.61699962615967
 20
78.38800048828125
 30
46.5629997253418
 70
   192
  0
VERTEX
  5
30B
  8
0
 10
-11.06599998474121
 20
78.77200317382812
 30
45.53200149536133
 70
   192
  0
VERTEX
  5
30C
  8
0
 10
-16.13999938964844
 20
77.41999816894531
 30
47.16899871826172
 70
   192
  0
VERTEX
  5
30D
  8
0
 10
-17.8700008392334
 20
82.28199768066406
 30
47.70399856567383
 70
   192
  0
VERTEX
  5
30E
  8
0
 10
-18.52899932861328
 20
83.75299835205078
 30
47.86199951171875
 70
   192
  0
VERTEX
  5
30F
  8
0
 10
-18.98500061035156
 20
75.41600036621094
 30
47.2140007019043
 70
   192
  0
VERTEX
  5
310
  8
0
 10
-18.13199996948242
 20
76.23899841308594
 30
47.35599899291992
 70
   192
  0
VERTEX
  5
311
  8
0
 10
-16.13199996948242
 20
81.3239974975586
 30
47.31700134277344
 70
   192
  0
VERTEX
  5
312
  8
0
 10
-16.43600082397461
 20
77.30599975585938
 30
47.2400016784668
 70
   192
  0
VERTEX
  5
313
  8
0
 10
-18.55100059509277
 20
87.90499877929688
 30
48.56600189208984
 70
   192
  0
VERTEX
  5
314
  8
0
 10
-18.72400093078613
 20
84.18699645996094
 30
47.90900039672852
 70
   192
  0
VERTEX
  5
315
  8
0
 10
-15.9370002746582
 20
97.89399719238281
 30
53.10499954223633
 70
   192
  0
VERTEX
  5
316
  8
0
 10
-17.8799991607666
 20
91.45500183105469
 30
49.83200073242188
 70
   192
  0
VERTEX
  5
317
  8
0
 10
-17.30299949645996
 20
94.51200103759766
 30
50.92300033569336
 70
   192
  0
VERTEX
  5
318
  8
0
 10
-12.125
 20
100.1259994506836
 30
55.36299896240234
 70
   192
  0
VERTEX
  5
319
  8
0
 10
-11.99699974060059
 20
100.1279983520508
 30
55.35699844360352
 70
   192
  0
VERTEX
  5
31A
  8
0
 10
-13.74899959564209
 20
99.7490005493164
 30
54.93399810791016
 70
   192
  0
VERTEX
  5
31B
  8
0
 10
-15.8129997253418
 20
98.2020034790039
 30
53.30400085449219
 70
   192
  0
VERTEX
  5
31C
  8
0
 10
-6.863999843597412
 20
100.0559997558594
 30
53.77700042724609
 70
   192
  0
VERTEX
  5
31D
  8
0
 10
-11.70600032806396
 20
100.1330032348633
 30
55.34299850463867
 70
   192
  0
VERTEX
  5
31E
  8
0
 10
-11.08399963378906
 20
81.00499725341797
 30
45.49700164794922
 70
   192
  0
VERTEX
  5
31F
  8
0
 62
     9
 10
0.0
 20
0.0
 30
0.0
 70
   128
 71
     3
 72
     2
 73
     1
  0
VERTEX
  5
320
  8
0
 62
     9
 10
0.0
 20
0.0
 30
0.0
 70
   128
 71
     6
 72
     5
 73
     4
  0
VERTEX
  5
321
  8
0
 62
     9
 10
0.0
 20
0.0
 30
0.0
 70
   128
 71
     4
 72
     5
 73
     7
  0
VERTEX
  5
322
  8
0
 62
     9
 10
0.0
 20
0.0
 30
0.0
 70
   128
 71
     7
 72
     8
 73
     4
  0
VERTEX
  5
323
  8
0
 62
     9
 10
0.0
 20
0.0
 30
0.0
 70
   128
 71
    11
 72
    10
 73
     9
  0
VERTEX
  5
324
  8
0
 62
     9
 10
0.0
 20
0.0
 30
0.0
 70
   128
 71
    13
 72
    12
 73
     9
  0
VERTEX
  5
325
  8
0
 62
     9
 10
0.0
 20
0.0
 30
0.0
 70
   128
 71
     9
 72
    10
 73
    13
  0
VERTEX
  5
326
  8
0
 62
     9
 10
0.0
 20
0.0
 30
0.0
 70
   128
 71
    16
 72
    15
 73
    14
  0
VERTEX
  5
327
  8
0
 62
     9
 10
0.0
 20
0.0
 30
0.0
 70
   128
 71
    18
 72
    17
 73
    16
  0
VERTEX
  5
328
  8
0
 62
     9
 10
0.0
 20
0.0
 30
0.0
 70
   128
 71
    14
 72
    18
 73
    16
  0
VERTEX
  5
329
  8
0
 62
     9
 10
0.0
 20
0.0
 30
0.0
 70
   128
 71
    21
 72
    20
 73
    19
  0
VERTEX
  5
32A
  8
0
 62
     9
 10
0.0
 20
0.0
 30
0.0
 70
   128
 71
    19
 72
     1
 73
    21
  0
VERTEX
  5
32B
  8
0
 62
     9
 10
0.0
 20
0.0
 30
0.0
 70
   128
 71
    24
 72
    23
 73
    22
  0
VERTEX
  5
32C
  8
0
 62
     9
 10
0.0
 20
0.0
 30
0.0
 70
   128
 71
    24
 72
    25
 73
    23
  0
VERTEX
  5
32D
  8
0
 62
     9
 10
0.0
 20
0.0
 30
0.0
 70
   128
 71
     2
 72
    27
 73
    26
  0
VERTEX
  5
32E
  8
0
 62
     9
 10
0.0
 20
0.0
 30
0.0
 70
   128
 71
    27
 72
    28
 73
    22
  0
VERTEX
  5
32F
  8
0
 62
     9
 10
0.0
 20
0.0
 30
0.0
 70
   128
 71
    31
 72
    30
 73
    29
  0
VERTEX
  5
330
  8
0
 62
     9
 10
0.0
 20
0.0
 30
0.0
 70
   128
 71
    29
 72
    32
 73
    31
  0
VERTEX
  5
331
  8
0
 62
     9
 10
0.0
 20
0.0
 30
0.0
 70
   128
 71
    34
 72
    33
 73
    32
  0
VERTEX
  5
332
  8
0
 62
     9
 10
0.0
 20
0.0
 30
0.0
 70
   128
 71
    32
 72
    23
 73
    34
  0
VERTEX
  5
333
  8
0
 62
     9
 10
0.0
 20
0.0
 30
0.0
 70
   128
 71
    22
 72
    23
 73
    35
  0
VERTEX
  5
334
  8
0
 62
     9
 10
0.0
 20
0.0
 30
0.0
 70
   128
 71
    23
 72
    36
 73
    35
  0
VERTEX
  5
335
  8
0
 62
     9
 10
0.0
 20
0.0
 30
0.0
 70
   128
 71
     1
 72
    26
 73
    37
  0
VERTEX
  5
336
  8
0
 62
     9
 10
0.0
 20
0.0
 30
0.0
 70
   128
 71
    26
 72
    38
 73
    37
  0
VERTEX
  5
337
  8
0
 62
     9
 10
0.0
 20
0.0
 30
0.0
 70
   128
 71
    39
 72
    38
 73
    22
  0
VERTEX
  5
338
  8
0
 62
     9
 10
0.0
 20
0.0
 30
0.0
 70
   128
 71
    26
 72
    22
 73
    38
  0
VERTEX
  5
339
  8
0
 62
     9
 10
0.0
 20
0.0
 30
0.0
 70
   128
 71
    22
 72
    35
 73
    39
  0
VERTEX
  5
33A
  8
0
 62
     9
 10
0.0
 20
0.0
 30
0.0
 70
   128
 71
    40
 72
    32
 73
    29
  0
VERTEX
  5
33B
  8
0
 62
     9
 10
0.0
 20
0.0
 30
0.0
 70
   128
 71
    40
 72
    41
 73
    32
  0
VERTEX
  5
33C
  8
0
 62
     9
 10
0.0
 20
0.0
 30
0.0
 70
   128
 71
    23
 72
    32
 73
    41
  0
VERTEX
  5
33D
  8
0
 62
     9
 10
0.0
 20
0.0
 30
0.0
 70
   128
 71
     8
 72
    43
 73
    42
  0
VERTEX
  5
33E
  8
0
 62
     9
 10
0.0
 20
0.0
 30
0.0
 70
   128
 71
    46
 72
    45
 73
    44
  0
VERTEX
  5
33F
  8
0
 62
     9
 10
0.0
 20
0.0
 30
0.0
 70
   128
 71
    44
 72
    47
 73
     4
  0
VERTEX
  5
340
  8
0
 62
     9
 10
0.0
 20
0.0
 30
0.0
 70
   128
 71
    49
 72
    48
 73
    42
  0
VERTEX
  5
341
  8
0
 62
     9
 10
0.0
 20
0.0
 30
0.0
 70
   128
 71
    48
 72
    46
 73
    42
  0
VERTEX
  5
342
  8
0
 62
     9
 10
0.0
 20
0.0
 30
0.0
 70
   128
 71
     4
 72
    42
 73
    46
  0
VERTEX
  5
343
  8
0
 62
     9
 10
0.0
 20
0.0
 30
0.0
 70
   128
 71
    42
 72
    50
 73
    49
  0
VERTEX
  5
344
  8
0
 62
     9
 10
0.0
 20
0.0
 30
0.0
 70
   128
 71
    43
 72
     3
 73
    19
  0
VERTEX
  5
345
  8
0
 62
     9
 10
0.0
 20
0.0
 30
0.0
 70
   128
 71
    42
 72
    19
 73
    50
  0
VERTEX
  5
346
  8
0
 62
     9
 10
0.0
 20
0.0
 30
0.0
 70
   128
 71
    19
 72
    20
 73
    50
  0
VERTEX
  5
347
  8
0
 62
     9
 10
0.0
 20
0.0
 30
0.0
 70
   128
 71
     8
 72
     7
 73
    51
  0
VERTEX
  5
348
  8
0
 62
     9
 10
0.0
 20
0.0
 30
0.0
 70
   128
 71
    51
 72
    52
 73
    15
  0
VERTEX
  5
349
  8
0
 62
     9
 10
0.0
 20
0.0
 30
0.0
 70
   128
 71
    54
 72
    53
 73
    15
  0
VERTEX
  5
34A
  8
0
 62
     9
 10
0.0
 20
0.0
 30
0.0
 70
   128
 71
    15
 72
    16
 73
    54
  0
VERTEX
  5
34B
  8
0
 62
     9
 10
0.0
 20
0.0
 30
0.0
 70
   128
 71
    54
 72
    55
 73
    53
  0
VERTEX
  5
34C
  8
0
 62
     9
 10
0.0
 20
0.0
 30
0.0
 70
   128
 71
    11
 72
     9
 73
    53
  0
VERTEX
  5
34D
  8
0
 62
     9
 10
0.0
 20
0.0
 30
0.0
 70
   128
 71
    53
 72
    55
 73
    11
  0
VERTEX
  5
34E
  8
0
 62
     9
 10
0.0
 20
0.0
 30
0.0
 70
   128
 71
    15
 72
    53
 73
    43
  0
VERTEX
  5
34F
  8
0
 62
     9
 10
0.0
 20
0.0
 30
0.0
 70
   128
 71
     9
 72
     3
 73
    43
  0
VERTEX
  5
350
  8
0
 62
     9
 10
0.0
 20
0.0
 30
0.0
 70
   128
 71
    12
 72
     2
 73
     3
  0
VERTEX
  5
351
  8
0
 62
     9
 10
0.0
 20
0.0
 30
0.0
 70
   128
 71
    13
 72
    56
 73
    12
  0
VERTEX
  5
352
  8
0
 62
     9
 10
0.0
 20
0.0
 30
0.0
 70
   128
 71
    56
 72
    58
 73
    57
  0
VERTEX
  5
353
  8
0
 62
     9
 10
0.0
 20
0.0
 30
0.0
 70
   128
 71
    57
 72
    12
 73
    56
  0
VERTEX
  5
354
  8
0
 62
     9
 10
0.0
 20
0.0
 30
0.0
 70
   128
 71
    27
 72
    12
 73
    57
  0
VERTEX
  5
355
  8
0
 62
     9
 10
0.0
 20
0.0
 30
0.0
 70
   128
 71
    27
 72
     2
 73
    12
  0
VERTEX
  5
356
  8
0
 62
     9
 10
0.0
 20
0.0
 30
0.0
 70
   128
 71
    61
 72
    60
 73
    59
  0
VERTEX
  5
357
  8
0
 62
     9
 10
0.0
 20
0.0
 30
0.0
 70
   128
 71
    60
 72
    62
 73
    59
  0
VERTEX
  5
358
  8
0
 62
     9
 10
0.0
 20
0.0
 30
0.0
 70
   128
 71
    59
 72
    63
 73
    29
  0
VERTEX
  5
359
  8
0
 62
     9
 10
0.0
 20
0.0
 30
0.0
 70
   128
 71
    65
 72
    64
 73
    29
  0
VERTEX
  5
35A
  8
0
 62
     9
 10
0.0
 20
0.0
 30
0.0
 70
   128
 71
    65
 72
    66
 73
    64
  0
VERTEX
  5
35B
  8
0
 62
     9
 10
0.0
 20
0.0
 30
0.0
 70
   128
 71
    64
 72
    67
 73
    29
  0
VERTEX
  5
35C
  8
0
 62
     9
 10
0.0
 20
0.0
 30
0.0
 70
   128
 71
    67
 72
    61
 73
    29
  0
VERTEX
  5
35D
  8
0
 62
     9
 10
0.0
 20
0.0
 30
0.0
 70
   128
 71
    70
 72
    69
 73
    68
  0
VERTEX
  5
35E
  8
0
 62
     9
 10
0.0
 20
0.0
 30
0.0
 70
   128
 71
    68
 72
    71
 73
    70
  0
VERTEX
  5
35F
  8
0
 62
     9
 10
0.0
 20
0.0
 30
0.0
 70
   128
 71
    70
 72
    72
 73
    69
  0
VERTEX
  5
360
  8
0
 62
     9
 10
0.0
 20
0.0
 30
0.0
 70
   128
 71
    30
 72
    74
 73
    73
  0
VERTEX
  5
361
  8
0
 62
     9
 10
0.0
 20
0.0
 30
0.0
 70
   128
 71
    76
 72
    75
 73
    73
  0
VERTEX
  5
362
  8
0
 62
     9
 10
0.0
 20
0.0
 30
0.0
 70
   128
 71
    75
 72
    65
 73
    73
  0
VERTEX
  5
363
  8
0
 62
     9
 10
0.0
 20
0.0
 30
0.0
 70
   128
 71
    72
 72
    78
 73
    77
  0
VERTEX
  5
364
  8
0
 62
     9
 10
0.0
 20
0.0
 30
0.0
 70
   128
 71
    78
 72
    76
 73
    77
  0
VERTEX
  5
365
  8
0
 62
     9
 10
0.0
 20
0.0
 30
0.0
 70
   128
 71
    77
 72
    69
 73
    72
  0
VERTEX
  5
366
  8
0
 62
     9
 10
0.0
 20
0.0
 30
0.0
 70
   128
 71
    73
 72
    77
 73
    76
  0
VERTEX
  5
367
  8
0
 62
     9
 10
0.0
 20
0.0
 30
0.0
 70
   128
 71
    79
 72
    31
 73
    33
  0
VERTEX
  5
368
  8
0
 62
     9
 10
0.0
 20
0.0
 30
0.0
 70
   128
 71
    80
 72
    30
 73
    31
  0
VERTEX
  5
369
  8
0
 62
     9
 10
0.0
 20
0.0
 30
0.0
 70
   128
 71
    31
 72
    79
 73
    80
  0
VERTEX
  5
36A
  8
0
 62
     9
 10
0.0
 20
0.0
 30
0.0
 70
   128
 71
    80
 72
    74
 73
    30
  0
VERTEX
  5
36B
  8
0
 62
     9
 10
0.0
 20
0.0
 30
0.0
 70
   128
 71
    34
 72
    25
 73
    81
  0
VERTEX
  5
36C
  8
0
 62
     9
 10
0.0
 20
0.0
 30
0.0
 70
   128
 71
    83
 72
    82
 73
    33
  0
VERTEX
  5
36D
  8
0
 62
     9
 10
0.0
 20
0.0
 30
0.0
 70
   128
 71
    33
 72
    34
 73
    83
  0
VERTEX
  5
36E
  8
0
 62
     9
 10
0.0
 20
0.0
 30
0.0
 70
   128
 71
    85
 72
    84
 73
    28
  0
VERTEX
  5
36F
  8
0
 62
     9
 10
0.0
 20
0.0
 30
0.0
 70
   128
 71
    86
 72
    24
 73
    28
  0
VERTEX
  5
370
  8
0
 62
     9
 10
0.0
 20
0.0
 30
0.0
 70
   128
 71
    28
 72
    84
 73
    86
  0
VERTEX
  5
371
  8
0
 62
     9
 10
0.0
 20
0.0
 30
0.0
 70
   128
 71
    87
 72
    81
 73
    25
  0
VERTEX
  5
372
  8
0
 62
     9
 10
0.0
 20
0.0
 30
0.0
 70
   128
 71
    25
 72
    24
 73
    87
  0
VERTEX
  5
373
  8
0
 62
     9
 10
0.0
 20
0.0
 30
0.0
 70
   128
 71
    24
 72
    86
 73
    87
  0
VERTEX
  5
374
  8
0
 62
     9
 10
0.0
 20
0.0
 30
0.0
 70
   128
 71
    57
 72
    58
 73
    88
  0
VERTEX
  5
375
  8
0
 62
     9
 10
0.0
 20
0.0
 30
0.0
 70
   128
 71
    88
 72
    89
 73
    57
  0
VERTEX
  5
376
  8
0
 62
     9
 10
0.0
 20
0.0
 30
0.0
 70
   128
 71
    89
 72
    85
 73
    57
  0
VERTEX
  5
377
  8
0
 62
     9
 10
0.0
 20
0.0
 30
0.0
 70
   128
 71
    28
 72
    57
 73
    85
  0
VERTEX
  5
378
  8
0
 62
     9
 10
0.0
 20
0.0
 30
0.0
 70
   128
 71
    81
 72
    83
 73
    34
  0
VERTEX
  5
379
  8
0
 62
     9
 10
0.0
 20
0.0
 30
0.0
 70
   128
 71
    33
 72
    82
 73
    79
  0
VERTEX
  5
37A
  8
0
 62
     9
 10
0.0
 20
0.0
 30
0.0
 70
   128
 71
    73
 72
    65
 73
    30
  0
VERTEX
  5
37B
  8
0
 62
     9
 10
0.0
 20
0.0
 30
0.0
 70
   128
 71
    69
 72
    90
 73
    68
  0
VERTEX
  5
37C
  8
0
 62
     9
 10
0.0
 20
0.0
 30
0.0
 70
   128
 71
    29
 72
    30
 73
    65
  0
VERTEX
  5
37D
  8
0
 62
     9
 10
0.0
 20
0.0
 30
0.0
 70
   128
 71
    59
 72
    29
 73
    61
  0
VERTEX
  5
37E
  8
0
 62
     9
 10
0.0
 20
0.0
 30
0.0
 70
   128
 71
    57
 72
    28
 73
    27
  0
VERTEX
  5
37F
  8
0
 62
     9
 10
0.0
 20
0.0
 30
0.0
 70
   128
 71
     3
 72
     9
 73
    12
  0
VERTEX
  5
380
  8
0
 62
     9
 10
0.0
 20
0.0
 30
0.0
 70
   128
 71
    43
 72
    53
 73
     9
  0
VERTEX
  5
381
  8
0
 62
     9
 10
0.0
 20
0.0
 30
0.0
 70
   128
 71
    43
 72
     8
 73
    15
  0
VERTEX
  5
382
  8
0
 62
     9
 10
0.0
 20
0.0
 30
0.0
 70
   128
 71
    51
 72
    15
 73
     8
  0
VERTEX
  5
383
  8
0
 62
     9
 10
0.0
 20
0.0
 30
0.0
 70
   128
 71
    19
 72
    42
 73
    43
  0
VERTEX
  5
384
  8
0
 62
     9
 10
0.0
 20
0.0
 30
0.0
 70
   128
 71
    44
 72
     4
 73
    46
  0
VERTEX
  5
385
  8
0
 62
     9
 10
0.0
 20
0.0
 30
0.0
 70
   128
 71
    42
 72
     4
 73
     8
  0
VERTEX
  5
386
  8
0
 62
     9
 10
0.0
 20
0.0
 30
0.0
 70
   128
 71
    41
 72
    36
 73
    23
  0
VERTEX
  5
387
  8
0
 62
     9
 10
0.0
 20
0.0
 30
0.0
 70
   128
 71
    29
 72
    63
 73
    40
  0
VERTEX
  5
388
  8
0
 62
     9
 10
0.0
 20
0.0
 30
0.0
 70
   128
 71
    23
 72
    25
 73
    34
  0
VERTEX
  5
389
  8
0
 62
     9
 10
0.0
 20
0.0
 30
0.0
 70
   128
 71
    32
 72
    33
 73
    31
  0
VERTEX
  5
38A
  8
0
 62
     9
 10
0.0
 20
0.0
 30
0.0
 70
   128
 71
    22
 72
    26
 73
    27
  0
VERTEX
  5
38B
  8
0
 62
     9
 10
0.0
 20
0.0
 30
0.0
 70
   128
 71
    26
 72
     1
 73
     2
  0
VERTEX
  5
38C
  8
0
 62
     9
 10
0.0
 20
0.0
 30
0.0
 70
   128
 71
    22
 72
    28
 73
    24
  0
VERTEX
  5
38D
  8
0
 62
     9
 10
0.0
 20
0.0
 30
0.0
 70
   128
 71
     1
 72
    37
 73
    21
  0
VERTEX
  5
38E
  8
0
 62
     9
 10
0.0
 20
0.0
 30
0.0
 70
   128
 71
    15
 72
    52
 73
    14
  0
VERTEX
  5
38F
  8
0
 62
     9
 10
0.0
 20
0.0
 30
0.0
 70
   128
 71
     4
 72
    47
 73
     6
  0
VERTEX
  5
390
  8
0
 62
     9
 10
0.0
 20
0.0
 30
0.0
 70
   128
 71
     1
 72
    19
 73
     3
  0
SEQEND
  5
391
  8
0
 62
     9
  0
ENDBLK
  5
394
  8
0
  0
BLOCK
  8
0
  2
E3_NODE_16_
 70
     0
 10
0.0
 20
0.0
 30
0.0
  3
E3_NODE_16_
  1

  0
POLYLINE
  5
396
  8
0
 62
     9
 66
     1
 10
0.0
 20
0.0
 30
0.0
 70
    64
 71
     9
 72
     7
  0
VERTEX
  5
397
  8
0
 10
-18.52899932861328
 20
83.75299835205078
 30
47.86199951171875
 70
   192
  0
VERTEX
  5
398
  8
0
 10
-17.8700008392334
 20
82.28199768066406
 30
47.70399856567383
 70
   192
  0
VERTEX
  5
399
  8
0
 10
-17.45400047302246
 20
82.60399627685547
 30
48.58100128173828
 70
   192
  0
VERTEX
  5
39A
  8
0
 10
-17.84199905395508
 20
84.01599884033203
 30
48.75400161743164
 70
   192
  0
VERTEX
  5
39B
  8
0
 10
-18.72400093078613
 20
84.18699645996094
 30
47.90900039672852
 70
   192
  0
VERTEX
  5
39C
  8
0
 10
-16.0319995880127
 20
81.76899719238281
 30
47.60499954223633
 70
   192
  0
VERTEX
  5
39D
  8
0
 10
-16.13199996948242
 20
81.3239974975586
 30
47.31700134277344
 70
   192
  0
VERTEX
  5
39E
  8
0
 10
-16.11899948120117
 20
81.44499969482422
 30
47.3380012512207
 70
   192
  0
VERTEX
  5
39F
  8
0
 10
-15.87600040435791
 20
81.83699798583984
 30
48.20999908447266
 70
   192
  0
VERTEX
  5
3A0
  8
0
 62
     9
 10
0.0
 20
0.0
 30
0.0
 70
   128
 71
     3
 72
     2
 73
     1
  0
VERTEX
  5
3A1
  8
0
 62
     9
 10
0.0
 20
0.0
 30
0.0
 70
   128
 71
     1
 72
     5
 73
     4
  0
VERTEX
  5
3A2
  8
0
 62
     9
 10
0.0
 20
0.0
 30
0.0
 70
   128
 71
     6
 72
     2
 73
     3
  0
VERTEX
  5
3A3
  8
0
 62
     9
 10
0.0
 20
0.0
 30
0.0
 70
   128
 71
     8
 72
     7
 73
     2
  0
VERTEX
  5
3A4
  8
0
 62
     9
 10
0.0
 20
0.0
 30
0.0
 70
   128
 71
     2
 72
     6
 73
     8
  0
VERTEX
  5
3A5
  8
0
 62
     9
 10
0.0
 20
0.0
 30
0.0
 70
   128
 71
     3
 72
     9
 73
     6
  0
VERTEX
  5
3A6
  8
0
 62
     9
 10
0.0
 20
0.0
 30
0.0
 70
   128
 71
     1
 72
     4
 73
     3
  0
SEQEND
  5
3A7
  8
0
 62
     9
  0
ENDBLK
  5
3AA
  8
0
  0
BLOCK
  8
0
  2
E3_NODE_17_
 70
     0
 10
0.0
 20
0.0
 30
0.0
  3
E3_NODE_17_
  1

  0
POLYLINE
  5
3AC
  8
0
 62
     9
 66
     1
 10
0.0
 20
0.0
 30
0.0
 70
    64
 71
     8
 72
     6
  0
VERTEX
  5
3AD
  8
0
 10
-17.8799991607666
 20
91.45500183105469
 30
49.83200073242188
 70
   192
  0
VERTEX
  5
3AE
  8
0
 10
-18.55100059509277
 20
87.90499877929688
 30
48.56600189208984
 70
   192
  0
VERTEX
  5
3AF
  8
0
 10
-17.14900016784668
 20
88.69100189208984
 30
50.11399841308594
 70
   192
  0
VERTEX
  5
3B0
  8
0
 10
-15.90499973297119
 20
93.22699737548828
 30
52.55599975585938
 70
   192
  0
VERTEX
  5
3B1
  8
0
 10
-16.76399993896484
 20
94.01699829101562
 30
51.55300140380859
 70
   192
  0
VERTEX
  5
3B2
  8
0
 10
-17.30299949645996
 20
94.51200103759766
 30
50.92300033569336
 70
   192
  0
VERTEX
  5
3B3
  8
0
 10
-17.84199905395508
 20
84.01599884033203
 30
48.75400161743164
 70
   192
  0
VERTEX
  5
3B4
  8
0
 10
-18.72400093078613
 20
84.18699645996094
 30
47.90900039672852
 70
   192
  0
VERTEX
  5
3B5
  8
0
 62
     9
 10
0.0
 20
0.0
 30
0.0
 70
   128
 71
     3
 72
     2
 73
     1
  0
VERTEX
  5
3B6
  8
0
 62
     9
 10
0.0
 20
0.0
 30
0.0
 70
   128
 71
     5
 72
     4
 73
     1
  0
VERTEX
  5
3B7
  8
0
 62
     9
 10
0.0
 20
0.0
 30
0.0
 70
   128
 71
     1
 72
     6
 73
     5
  0
VERTEX
  5
3B8
  8
0
 62
     9
 10
0.0
 20
0.0
 30
0.0
 70
   128
 71
     2
 72
     3
 73
     7
  0
VERTEX
  5
3B9
  8
0
 62
     9
 10
0.0
 20
0.0
 30
0.0
 70
   128
 71
     7
 72
     8
 73
     2
  0
VERTEX
  5
3BA
  8
0
 62
     9
 10
0.0
 20
0.0
 30
0.0
 70
   128
 71
     1
 72
     4
 73
     3
  0
SEQEND
  5
3BB
  8
0
 62
     9
  0
ENDBLK
  5
3BE
  8
0
  0
BLOCK
  8
0
  2
E3_NODE_18_
 70
     0
 10
0.0
 20
0.0
 30
0.0
  3
E3_NODE_18_
  1

  0
POLYLINE
  5
3C0
  8
0
 62
     9
 66
     1
 10
0.0
 20
0.0
 30
0.0
 70
    64
 71
     8
 72
     6
  0
VERTEX
  5
3C1
  8
0
 10
-10.2209997177124
 20
89.87300109863281
 30
63.71099853515625
 70
   192
  0
VERTEX
  5
3C2
  8
0
 10
-9.694999694824219
 20
91.82599639892578
 30
64.02999877929688
 70
   192
  0
VERTEX
  5
3C3
  8
0
 10
-14.69999980926514
 20
94.80599975585938
 30
54.00199890136719
 70
   192
  0
VERTEX
  5
3C4
  8
0
 10
-13.82800006866455
 20
95.31800079345703
 30
54.61700057983398
 70
   192
  0
VERTEX
  5
3C5
  8
0
 10
-14.52099990844727
 20
95.04000091552734
 30
54.21599960327148
 70
   192
  0
VERTEX
  5
3C6
  8
0
 10
-8.086999893188477
 20
92.76899719238281
 30
63.49499893188477
 70
   192
  0
VERTEX
  5
3C7
  8
0
 10
-12.55399990081787
 20
95.40599822998047
 30
54.72900009155273
 70
   192
  0
VERTEX
  5
3C8
  8
0
 10
-15.90499973297119
 20
93.22699737548828
 30
52.55599975585938
 70
   192
  0
VERTEX
  5
3C9
  8
0
 62
     9
 10
0.0
 20
0.0
 30
0.0
 70
   128
 71
     3
 72
     2
 73
     1
  0
VERTEX
  5
3CA
  8
0
 62
     9
 10
0.0
 20
0.0
 30
0.0
 70
   128
 71
     5
 72
     4
 73
     2
  0
VERTEX
  5
3CB
  8
0
 62
     9
 10
0.0
 20
0.0
 30
0.0
 70
   128
 71
     7
 72
     6
 73
     2
  0
VERTEX
  5
3CC
  8
0
 62
     9
 10
0.0
 20
0.0
 30
0.0
 70
   128
 71
     2
 72
     4
 73
     7
  0
VERTEX
  5
3CD
  8
0
 62
     9
 10
0.0
 20
0.0
 30
0.0
 70
   128
 71
     2
 72
     3
 73
     5
  0
VERTEX
  5
3CE
  8
0
 62
     9
 10
0.0
 20
0.0
 30
0.0
 70
   128
 71
     1
 72
     8
 73
     3
  0
SEQEND
  5
3CF
  8
0
 62
     9
  0
ENDBLK
  5
3D2
  8
0
  0
BLOCK
  8
0
  2
E3_NODE_19_
 70
     0
 10
0.0
 20
0.0
 30
0.0
  3
E3_NODE_19_
  1

  0
POLYLINE
  5
3D4
  8
0
 62
     9
 66
     1
 10
0.0
 20
0.0
 30
0.0
 70
    64
 71
     5
 72
     3
  0
VERTEX
  5
3D5
  8
0
 10
-11.39599990844727
 20
80.21199798583984
 30
61.40499877929688
 70
   192
  0
VERTEX
  5
3D6
  8
0
 10
-10.2209997177124
 20
89.87300109863281
 30
63.71099853515625
 70
   192
  0
VERTEX
  5
3D7
  8
0
 10
-15.90499973297119
 20
93.22699737548828
 30
52.55599975585938
 70
   192
  0
VERTEX
  5
3D8
  8
0
 10
-17.14900016784668
 20
88.69100189208984
 30
50.11399841308594
 70
   192
  0
VERTEX
  5
3D9
  8
0
 10
-17.84199905395508
 20
84.01599884033203
 30
48.75400161743164
 70
   192
  0
VERTEX
  5
3DA
  8
0
 62
     9
 10
0.0
 20
0.0
 30
0.0
 70
   128
 71
     3
 72
     2
 73
     1
  0
VERTEX
  5
3DB
  8
0
 62
     9
 10
0.0
 20
0.0
 30
0.0
 70
   128
 71
     1
 72
     4
 73
     3
  0
VERTEX
  5
3DC
  8
0
 62
     9
 10
0.0
 20
0.0
 30
0.0
 70
   128
 71
     1
 72
     5
 73
     4
  0
SEQEND
  5
3DD
  8
0
 62
     9
  0
ENDBLK
  5
3E0
  8
0
  0
BLOCK
  8
0
  2
E3_NODE_20_
 70
     0
 10
0.0
 20
0.0
 30
0.0
  3
E3_NODE_20_
  1

  0
POLYLINE
  5
3E2
  8
0
 62
     9
 66
     1
 10
0.0
 20
0.0
 30
0.0
 70
    64
 71
    16
 72
    16
  0
VERTEX
  5
3E3
  8
0
 10
-11.05500030517578
 20
47.65399932861328
 30
45.55400085449219
 70
   192
  0
VERTEX
  5
3E4
  8
0
 10
7.525000095367432
 20
47.65399932861328
 30
44.09199905395508
 70
   192
  0
VERTEX
  5
3E5
  8
0
 10
7.525000095367432
 20
39.45399856567383
 30
44.09199905395508
 70
   192
  0
VERTEX
  5
3E6
  8
0
 10
-11.05500030517578
 20
39.45399856567383
 30
45.55400085449219
 70
   192
  0
VERTEX
  5
3E7
  8
0
 10
21.69599914550781
 20
47.65399932861328
 30
56.19499969482422
 70
   192
  0
VERTEX
  5
3E8
  8
0
 10
21.69599914550781
 20
39.45399856567383
 30
56.19499969482422
 70
   192
  0
VERTEX
  5
3E9
  8
0
 10
23.15800094604492
 20
47.65399932861328
 30
74.7750015258789
 70
   192
  0
VERTEX
  5
3EA
  8
0
 10
23.15800094604492
 20
39.45399856567383
 30
74.7750015258789
 70
   192
  0
VERTEX
  5
3EB
  8
0
 10
11.05500030517578
 20
47.65399932861328
 30
88.94599914550781
 70
   192
  0
VERTEX
  5
3EC
  8
0
 10
11.05500030517578
 20
39.45399856567383
 30
88.94599914550781
 70
   192
  0
VERTEX
  5
3ED
  8
0
 10
-7.525000095367432
 20
47.65399932861328
 30
90.40799713134766
 70
   192
  0
VERTEX
  5
3EE
  8
0
 10
-7.525000095367432
 20
39.45399856567383
 30
90.40799713134766
 70
   192
  0
VERTEX
  5
3EF
  8
0
 10
-21.69599914550781
 20
47.65399932861328
 30
78.30500030517578
 70
   192
  0
VERTEX
  5
3F0
  8
0
 10
-21.69599914550781
 20
39.45399856567383
 30
78.30500030517578
 70
   192
  0
VERTEX
  5
3F1
  8
0
 10
-23.15800094604492
 20
47.65399932861328
 30
59.72499847412109
 70
   192
  0
VERTEX
  5
3F2
  8
0
 10
-23.15800094604492
 20
39.45399856567383
 30
59.72499847412109
 70
   192
  0
VERTEX
  5
3F3
  8
0
 62
     9
 10
0.0
 20
0.0
 30
0.0
 70
   128
 71
     3
 72
     2
 73
     1
  0
VERTEX
  5
3F4
  8
0
 62
     9
 10
0.0
 20
0.0
 30
0.0
 70
   128
 71
     4
 72
     3
 73
     1
  0
VERTEX
  5
3F5
  8
0
 62
     9
 10
0.0
 20
0.0
 30
0.0
 70
   128
 71
     6
 72
     5
 73
     2
  0
VERTEX
  5
3F6
  8
0
 62
     9
 10
0.0
 20
0.0
 30
0.0
 70
   128
 71
     3
 72
     6
 73
     2
  0
VERTEX
  5
3F7
  8
0
 62
     9
 10
0.0
 20
0.0
 30
0.0
 70
   128
 71
     8
 72
     7
 73
     5
  0
VERTEX
  5
3F8
  8
0
 62
     9
 10
0.0
 20
0.0
 30
0.0
 70
   128
 71
     6
 72
     8
 73
     5
  0
VERTEX
  5
3F9
  8
0
 62
     9
 10
0.0
 20
0.0
 30
0.0
 70
   128
 71
    10
 72
     9
 73
     7
  0
VERTEX
  5
3FA
  8
0
 62
     9
 10
0.0
 20
0.0
 30
0.0
 70
   128
 71
     8
 72
    10
 73
     7
  0
VERTEX
  5
3FB
  8
0
 62
     9
 10
0.0
 20
0.0
 30
0.0
 70
   128
 71
    12
 72
    11
 73
     9
  0
VERTEX
  5
3FC
  8
0
 62
     9
 10
0.0
 20
0.0
 30
0.0
 70
   128
 71
    10
 72
    12
 73
     9
  0
VERTEX
  5
3FD
  8
0
 62
     9
 10
0.0
 20
0.0
 30
0.0
 70
   128
 71
    14
 72
    13
 73
    11
  0
VERTEX
  5
3FE
  8
0
 62
     9
 10
0.0
 20
0.0
 30
0.0
 70
   128
 71
    12
 72
    14
 73
    11
  0
VERTEX
  5
3FF
  8
0
 62
     9
 10
0.0
 20
0.0
 30
0.0
 70
   128
 71
    16
 72
    15
 73
    13
  0
VERTEX
  5
400
  8
0
 62
     9
 10
0.0
 20
0.0
 30
0.0
 70
   128
 71
    14
 72
    16
 73
    13
  0
VERTEX
  5
401
  8
0
 62
     9
 10
0.0
 20
0.0
 30
0.0
 70
   128
 71
     4
 72
     1
 73
    15
  0
VERTEX
  5
402
  8
0
 62
     9
 10
0.0
 20
0.0
 30
0.0
 70
   128
 71
    16
 72
     4
 73
    15
  0
SEQEND
  5
403
  8
0
 62
     9
  0
ENDBLK
  5
406
  8
0
  0
BLOCK
  8
0
  2
E3_NODE_21_
 70
     0
 10
0.0
 20
0.0
 30
0.0
  3
E3_NODE_21_
  1

  0
POLYLINE
  5
408
  8
0
 62
     9
 66
     1
 10
0.0
 20
0.0
 30
0.0
 70
    64
 71
    12
 72
    12
  0
VERTEX
  5
409
  8
0
 10
0.0
 20
14.5
 30
200.5
 70
   192
  0
VERTEX
  5
40A
  8
0
 10
12.55700016021729
 20
7.25
 30
200.5
 70
   192
  0
VERTEX
  5
40B
  8
0
 10
12.55700016021729
 20
7.25
 30
200.0
 70
   192
  0
VERTEX
  5
40C
  8
0
 10
0.0
 20
14.5
 30
200.0
 70
   192
  0
VERTEX
  5
40D
  8
0
 10
12.55700016021729
 20
-7.25
 30
200.5
 70
   192
  0
VERTEX
  5
40E
  8
0
 10
12.55700016021729
 20
-7.25
 30
200.0
 70
   192
  0
VERTEX
  5
40F
  8
0
 10
0.0
 20
-14.5
 30
200.5
 70
   192
  0
VERTEX
  5
410
  8
0
 10
0.0
 20
-14.5
 30
200.0
 70
   192
  0
VERTEX
  5
411
  8
0
 10
-12.55700016021729
 20
-7.25
 30
200.5
 70
   192
  0
VERTEX
  5
412
  8
0
 10
-12.55700016021729
 20
-7.25
 30
200.0
 70
   192
  0
VERTEX
  5
413
  8
0
 10
-12.55700016021729
 20
7.25
 30
200.5
 70
   192
  0
VERTEX
  5
414
  8
0
 10
-12.55700016021729
 20
7.25
 30
200.0
 70
   192
  0
VERTEX
  5
415
  8
0
 62
     9
 10
0.0
 20
0.0
 30
0.0
 70
   128
 71
     3
 72
     2
 73
     1
  0
VERTEX
  5
416
  8
0
 62
     9
 10
0.0
 20
0.0
 30
0.0
 70
   128
 71
     4
 72
     3
 73
     1
  0
VERTEX
  5
417
  8
0
 62
     9
 10
0.0
 20
0.0
 30
0.0
 70
   128
 71
     6
 72
     5
 73
     2
  0
VERTEX
  5
418
  8
0
 62
     9
 10
0.0
 20
0.0
 30
0.0
 70
   128
 71
     3
 72
     6
 73
     2
  0
VERTEX
  5
419
  8
0
 62
     9
 10
0.0
 20
0.0
 30
0.0
 70
   128
 71
     8
 72
     7
 73
     5
  0
VERTEX
  5
41A
  8
0
 62
     9
 10
0.0
 20
0.0
 30
0.0
 70
   128
 71
     6
 72
     8
 73
     5
  0
VERTEX
  5
41B
  8
0
 62
     9
 10
0.0
 20
0.0
 30
0.0
 70
   128
 71
    10
 72
     9
 73
     7
  0
VERTEX
  5
41C
  8
0
 62
     9
 10
0.0
 20
0.0
 30
0.0
 70
   128
 71
     8
 72
    10
 73
     7
  0
VERTEX
  5
41D
  8
0
 62
     9
 10
0.0
 20
0.0
 30
0.0
 70
   128
 71
    12
 72
    11
 73
     9
  0
VERTEX
  5
41E
  8
0
 62
     9
 10
0.0
 20
0.0
 30
0.0
 70
   128
 71
    10
 72
    12
 73
     9
  0
VERTEX
  5
41F
  8
0
 62
     9
 10
0.0
 20
0.0
 30
0.0
 70
   128
 71
     4
 72
     1
 73
    11
  0
VERTEX
  5
420
  8
0
 62
     9
 10
0.0
 20
0.0
 30
0.0
 70
   128
 71
    12
 72
     4
 73
    11
  0
SEQEND
  5
421
  8
0
 62
     9
  0
ENDBLK
  5
424
  8
0
  0
BLOCK
  8
0
  2
E3_NODE_22_
 70
     0
 10
0.0
 20
0.0
 30
0.0
  3
E3_NODE_22_
  1

  0
POLYLINE
  5
426
  8
0
 62
     9
 66
     1
 10
0.0
 20
0.0
 30
0.0
 70
    64
 71
     9
 72
     7
  0
VERTEX
  5
427
  8
0
 10
-6.24399995803833
 20
39.92399978637695
 30
93.81500244140625
 70
   192
  0
VERTEX
  5
428
  8
0
 10
-27.45700073242188
 20
39.92399978637695
 30
65.66500091552734
 70
   192
  0
VERTEX
  5
429
  8
0
 10
-20.12899971008301
 20
39.92399978637695
 30
48.40000152587891
 70
   192
  0
VERTEX
  5
42A
  8
0
 10
-3.417999982833862
 20
39.92399978637695
 30
39.88600158691406
 70
   192
  0
VERTEX
  5
42B
  8
0
 10
25.16200065612793
 20
39.92399978637695
 30
77.81300354003906
 70
   192
  0
VERTEX
  5
42C
  8
0
 10
12.37100028991699
 20
39.92399978637695
 30
91.52899932861328
 70
   192
  0
VERTEX
  5
42D
  8
0
 10
14.85599994659424
 20
39.92399978637695
 30
44.10499954223633
 70
   192
  0
VERTEX
  5
42E
  8
0
 10
-21.97400093078613
 20
39.92399978637695
 30
83.5999984741211
 70
   192
  0
VERTEX
  5
42F
  8
0
 10
26.14399909973145
 20
39.92399978637695
 30
59.08300018310547
 70
   192
  0
VERTEX
  5
430
  8
0
 62
     9
 10
0.0
 20
0.0
 30
0.0
 70
   128
 71
     3
 72
     2
 73
     1
  0
VERTEX
  5
431
  8
0
 62
     9
 10
0.0
 20
0.0
 30
0.0
 70
   128
 71
     6
 72
     5
 73
     4
  0
VERTEX
  5
432
  8
0
 62
     9
 10
0.0
 20
0.0
 30
0.0
 70
   128
 71
     7
 72
     4
 73
     5
  0
VERTEX
  5
433
  8
0
 62
     9
 10
0.0
 20
0.0
 30
0.0
 70
   128
 71
     2
 72
     8
 73
     1
  0
VERTEX
  5
434
  8
0
 62
     9
 10
0.0
 20
0.0
 30
0.0
 70
   128
 71
     5
 72
     9
 73
     7
  0
VERTEX
  5
435
  8
0
 62
     9
 10
0.0
 20
0.0
 30
0.0
 70
   128
 71
     4
 72
     1
 73
     6
  0
VERTEX
  5
436
  8
0
 62
     9
 10
0.0
 20
0.0
 30
0.0
 70
   128
 71
     1
 72
     4
 73
     3
  0
SEQEND
  5
437
  8
0
 62
     9
  0
ENDBLK
  5
43A
  8
0
  0
BLOCK
  8
0
  2
E3_NODE_23_
 70
     0
 10
0.0
 20
0.0
 30
0.0
  3
E3_NODE_23_
  1

  0
POLYLINE
  5
43C
  8
0
 62
     9
 66
     1
 10
0.0
 20
0.0
 30
0.0
 70
    64
 71
    27
 72
    27
  0
VERTEX
  5
43D
  8
0
 10
12.37100028991699
 20
39.92399978637695
 30
91.52899932861328
 70
   192
  0
VERTEX
  5
43E
  8
0
 10
25.16200065612793
 20
39.92399978637695
 30
77.81300354003906
 70
   192
  0
VERTEX
  5
43F
  8
0
 10
22.91799926757812
 20
70.53099822998047
 30
82.03299713134766
 70
   192
  0
VERTEX
  5
440
  8
0
 10
24.37299919128418
 20
70.53099822998047
 30
77.55599975585938
 70
   192
  0
VERTEX
  5
441
  8
0
 10
26.14399909973145
 20
39.92399978637695
 30
59.08300018310547
 70
   192
  0
VERTEX
  5
442
  8
0
 10
25.33200073242188
 20
70.53099822998047
 30
59.25600051879883
 70
   192
  0
VERTEX
  5
443
  8
0
 10
27.30400085449219
 20
70.53099822998047
 30
68.53399658203125
 70
   192
  0
VERTEX
  5
444
  8
0
 10
14.85599994659424
 20
39.92399978637695
 30
44.10499954223633
 70
   192
  0
VERTEX
  5
445
  8
0
 10
14.85599994659424
 20
70.53099822998047
 30
44.10499954223633
 70
   192
  0
VERTEX
  5
446
  8
0
 10
24.35300064086914
 20
70.53099822998047
 30
54.65200042724609
 70
   192
  0
VERTEX
  5
447
  8
0
 10
-3.417999982833862
 20
39.92399978637695
 30
39.88600158691406
 70
   192
  0
VERTEX
  5
448
  8
0
 10
1.358000040054321
 20
70.53099822998047
 30
39.71900177001953
 70
   192
  0
VERTEX
  5
449
  8
0
 10
-3.246000051498413
 20
70.53099822998047
 30
40.69699859619141
 70
   192
  0
VERTEX
  5
44A
  8
0
 10
-20.12899971008301
 20
39.92399978637695
 30
48.40000152587891
 70
   192
  0
VERTEX
  5
44B
  8
0
 10
-19.57399940490723
 20
70.53099822998047
 30
49.01699829101562
 70
   192
  0
VERTEX
  5
44C
  8
0
 10
-12.52400016784668
 20
70.53099822998047
 30
42.66999816894531
 70
   192
  0
VERTEX
  5
44D
  8
0
 10
-27.45700073242188
 20
39.92399978637695
 30
65.66500091552734
 70
   192
  0
VERTEX
  5
44E
  8
0
 10
-27.45700073242188
 20
70.53099822998047
 30
65.66500091552734
 70
   192
  0
VERTEX
  5
44F
  8
0
 10
-23.07200050354004
 20
70.53099822998047
 30
52.16600036621094
 70
   192
  0
VERTEX
  5
450
  8
0
 10
-21.97400093078613
 20
39.92399978637695
 30
83.5999984741211
 70
   192
  0
VERTEX
  5
451
  8
0
 10
-24.50699996948242
 20
70.53099822998047
 30
79.5469970703125
 70
   192
  0
VERTEX
  5
452
  8
0
 10
-21.35700035095215
 20
70.53099822998047
 30
83.04499816894531
 70
   192
  0
VERTEX
  5
453
  8
0
 10
-6.24399995803833
 20
39.92399978637695
 30
93.81500244140625
 70
   192
  0
VERTEX
  5
454
  8
0
 10
-5.98799991607666
 20
70.53099822998047
 30
93.0260009765625
 70
   192
  0
VERTEX
  5
455
  8
0
 10
-15.01000022888184
 20
70.53099822998047
 30
90.09400177001953
 70
   192
  0
VERTEX
  5
456
  8
0
 10
12.37100028991699
 20
70.53099822998047
 30
91.52899932861328
 70
   192
  0
VERTEX
  5
457
  8
0
 10
-1.51199996471405
 20
70.53099822998047
 30
94.4800033569336
 70
   192
  0
VERTEX
  5
458
  8
0
 62
     9
 10
0.0
 20
0.0
 30
0.0
 70
   128
 71
     3
 72
     2
 73
     1
  0
VERTEX
  5
459
  8
0
 62
     9
 10
0.0
 20
0.0
 30
0.0
 70
   128
 71
     3
 72
     4
 73
     2
  0
VERTEX
  5
45A
  8
0
 62
     9
 10
0.0
 20
0.0
 30
0.0
 70
   128
 71
     7
 72
     6
 73
     5
  0
VERTEX
  5
45B
  8
0
 62
     9
 10
0.0
 20
0.0
 30
0.0
 70
   128
 71
     5
 72
     2
 73
     7
  0
VERTEX
  5
45C
  8
0
 62
     9
 10
0.0
 20
0.0
 30
0.0
 70
   128
 71
    10
 72
     9
 73
     8
  0
VERTEX
  5
45D
  8
0
 62
     9
 10
0.0
 20
0.0
 30
0.0
 70
   128
 71
     8
 72
     5
 73
    10
  0
VERTEX
  5
45E
  8
0
 62
     9
 10
0.0
 20
0.0
 30
0.0
 70
   128
 71
    12
 72
    11
 73
     8
  0
VERTEX
  5
45F
  8
0
 62
     9
 10
0.0
 20
0.0
 30
0.0
 70
   128
 71
    12
 72
    13
 73
    11
  0
VERTEX
  5
460
  8
0
 62
     9
 10
0.0
 20
0.0
 30
0.0
 70
   128
 71
    16
 72
    15
 73
    14
  0
VERTEX
  5
461
  8
0
 62
     9
 10
0.0
 20
0.0
 30
0.0
 70
   128
 71
    14
 72
    11
 73
    16
  0
VERTEX
  5
462
  8
0
 62
     9
 10
0.0
 20
0.0
 30
0.0
 70
   128
 71
    19
 72
    18
 73
    17
  0
VERTEX
  5
463
  8
0
 62
     9
 10
0.0
 20
0.0
 30
0.0
 70
   128
 71
    17
 72
    14
 73
    19
  0
VERTEX
  5
464
  8
0
 62
     9
 10
0.0
 20
0.0
 30
0.0
 70
   128
 71
    21
 72
    20
 73
    17
  0
VERTEX
  5
465
  8
0
 62
     9
 10
0.0
 20
0.0
 30
0.0
 70
   128
 71
    21
 72
    22
 73
    20
  0
VERTEX
  5
466
  8
0
 62
     9
 10
0.0
 20
0.0
 30
0.0
 70
   128
 71
    25
 72
    24
 73
    23
  0
VERTEX
  5
467
  8
0
 62
     9
 10
0.0
 20
0.0
 30
0.0
 70
   128
 71
    23
 72
    20
 73
    25
  0
VERTEX
  5
468
  8
0
 62
     9
 10
0.0
 20
0.0
 30
0.0
 70
   128
 71
    27
 72
    26
 73
     1
  0
VERTEX
  5
469
  8
0
 62
     9
 10
0.0
 20
0.0
 30
0.0
 70
   128
 71
     1
 72
    23
 73
    27
  0
VERTEX
  5
46A
  8
0
 62
     9
 10
0.0
 20
0.0
 30
0.0
 70
   128
 71
    23
 72
    24
 73
    27
  0
VERTEX
  5
46B
  8
0
 62
     9
 10
0.0
 20
0.0
 30
0.0
 70
   128
 71
    20
 72
    22
 73
    25
  0
VERTEX
  5
46C
  8
0
 62
     9
 10
0.0
 20
0.0
 30
0.0
 70
   128
 71
    17
 72
    18
 73
    21
  0
VERTEX
  5
46D
  8
0
 62
     9
 10
0.0
 20
0.0
 30
0.0
 70
   128
 71
    14
 72
    15
 73
    19
  0
VERTEX
  5
46E
  8
0
 62
     9
 10
0.0
 20
0.0
 30
0.0
 70
   128
 71
    11
 72
    13
 73
    16
  0
VERTEX
  5
46F
  8
0
 62
     9
 10
0.0
 20
0.0
 30
0.0
 70
   128
 71
     8
 72
     9
 73
    12
  0
VERTEX
  5
470
  8
0
 62
     9
 10
0.0
 20
0.0
 30
0.0
 70
   128
 71
     5
 72
     6
 73
    10
  0
VERTEX
  5
471
  8
0
 62
     9
 10
0.0
 20
0.0
 30
0.0
 70
   128
 71
     2
 72
     4
 73
     7
  0
VERTEX
  5
472
  8
0
 62
     9
 10
0.0
 20
0.0
 30
0.0
 70
   128
 71
     1
 72
    26
 73
     3
  0
SEQEND
  5
473
  8
0
 62
     9
  0
ENDBLK
  5
476
  8
0
  0
BLOCK
  8
0
  2
E3_NODE_24_
 70
     0
 10
0.0
 20
0.0
 30
0.0
  3
E3_NODE_24_
  1

  0
POLYLINE
  5
478
  8
0
 62
     9
 66
     1
 10
0.0
 20
0.0
 30
0.0
 70
    64
 71
    54
 72
    78
  0
VERTEX
  5
479
  8
0
 10
22.80500030517578
 20
78.02200317382812
 30
81.95899963378906
 70
   192
  0
VERTEX
  5
47A
  8
0
 10
22.48299980163574
 20
80.69200134277344
 30
81.75
 70
   192
  0
VERTEX
  5
47B
  8
0
 10
12.13500022888184
 20
80.69200134277344
 30
91.06700134277344
 70
   192
  0
VERTEX
  5
47C
  8
0
 10
27.16900062561035
 20
78.02200317382812
 30
68.5270004272461
 70
   192
  0
VERTEX
  5
47D
  8
0
 10
26.7859992980957
 20
80.69200134277344
 30
68.50700378417969
 70
   192
  0
VERTEX
  5
47E
  8
0
 10
24.23299980163574
 20
78.02200317382812
 30
54.7130012512207
 70
   192
  0
VERTEX
  5
47F
  8
0
 10
23.89100074768066
 20
80.69200134277344
 30
54.88800048828125
 70
   192
  0
VERTEX
  5
480
  8
0
 10
14.78299999237061
 20
78.02200317382812
 30
44.21799850463867
 70
   192
  0
VERTEX
  5
481
  8
0
 10
14.57400035858154
 20
80.69200134277344
 30
44.54000091552734
 70
   192
  0
VERTEX
  5
482
  8
0
 10
1.35099995136261
 20
78.02200317382812
 30
39.85300064086914
 70
   192
  0
VERTEX
  5
483
  8
0
 10
1.330999970436096
 20
80.69200134277344
 30
40.23699951171875
 70
   192
  0
VERTEX
  5
484
  8
0
 10
-12.46300029754639
 20
78.02200317382812
 30
42.79000091552734
 70
   192
  0
VERTEX
  5
485
  8
0
 10
-12.28899955749512
 20
80.69200134277344
 30
43.13199996948242
 70
   192
  0
VERTEX
  5
486
  8
0
 10
-22.95800018310547
 20
78.02200317382812
 30
52.2400016784668
 70
   192
  0
VERTEX
  5
487
  8
0
 10
-22.63599967956543
 20
80.69200134277344
 30
52.44900131225586
 70
   192
  0
VERTEX
  5
488
  8
0
 10
-27.32299995422363
 20
78.02200317382812
 30
65.6719970703125
 70
   192
  0
VERTEX
  5
489
  8
0
 10
-26.93899917602539
 20
80.69200134277344
 30
65.69200134277344
 70
   192
  0
VERTEX
  5
48A
  8
0
 10
-24.38599967956543
 20
78.02200317382812
 30
79.48600006103516
 70
   192
  0
VERTEX
  5
48B
  8
0
 10
-24.04400062561035
 20
80.69200134277344
 30
79.31199645996094
 70
   192
  0
VERTEX
  5
48C
  8
0
 10
-14.93599987030029
 20
78.02200317382812
 30
89.98100280761719
 70
   192
  0
VERTEX
  5
48D
  8
0
 10
-14.72700023651123
 20
80.69200134277344
 30
89.65899658203125
 70
   192
  0
VERTEX
  5
48E
  8
0
 10
-1.504999995231628
 20
78.02200317382812
 30
94.34600067138672
 70
   192
  0
VERTEX
  5
48F
  8
0
 10
-1.483999967575073
 20
80.69200134277344
 30
93.96199798583984
 70
   192
  0
VERTEX
  5
490
  8
0
 10
12.3100004196167
 20
78.02200317382812
 30
91.40899658203125
 70
   192
  0
VERTEX
  5
491
  8
0
 10
12.36800003051758
 20
75.55799865722656
 30
91.52400207519531
 70
   192
  0
VERTEX
  5
492
  8
0
 10
22.91300010681152
 20
75.55799865722656
 30
82.02899932861328
 70
   192
  0
VERTEX
  5
493
  8
0
 10
27.29800033569336
 20
75.55799865722656
 30
68.53399658203125
 70
   192
  0
VERTEX
  5
494
  8
0
 10
24.34799957275391
 20
75.55799865722656
 30
54.65499877929688
 70
   192
  0
VERTEX
  5
495
  8
0
 10
14.85299968719482
 20
75.55799865722656
 30
44.11000061035156
 70
   192
  0
VERTEX
  5
496
  8
0
 10
1.358000040054321
 20
75.55799865722656
 30
39.72499847412109
 70
   192
  0
VERTEX
  5
497
  8
0
 10
-12.52200031280518
 20
75.55799865722656
 30
42.67499923706055
 70
   192
  0
VERTEX
  5
498
  8
0
 10
-23.0669994354248
 20
75.55799865722656
 30
52.16999816894531
 70
   192
  0
VERTEX
  5
499
  8
0
 10
-27.45100021362305
 20
75.55799865722656
 30
65.66500091552734
 70
   192
  0
VERTEX
  5
49A
  8
0
 10
-24.50099945068359
 20
75.55799865722656
 30
79.54399871826172
 70
   192
  0
VERTEX
  5
49B
  8
0
 10
-15.00699996948242
 20
75.55799865722656
 30
90.08899688720703
 70
   192
  0
VERTEX
  5
49C
  8
0
 10
-1.511000037193298
 20
75.55799865722656
 30
94.4739990234375
 70
   192
  0
VERTEX
  5
49D
  8
0
 10
22.91799926757812
 20
70.53099822998047
 30
82.03299713134766
 70
   192
  0
VERTEX
  5
49E
  8
0
 10
24.37299919128418
 20
70.53099822998047
 30
77.55599975585938
 70
   192
  0
VERTEX
  5
49F
  8
0
 10
27.30400085449219
 20
70.53099822998047
 30
68.53399658203125
 70
   192
  0
VERTEX
  5
4A0
  8
0
 10
25.33200073242188
 20
70.53099822998047
 30
59.25600051879883
 70
   192
  0
VERTEX
  5
4A1
  8
0
 10
14.85599994659424
 20
70.53099822998047
 30
44.10499954223633
 70
   192
  0
VERTEX
  5
4A2
  8
0
 10
1.358000040054321
 20
70.53099822998047
 30
39.71900177001953
 70
   192
  0
VERTEX
  5
4A3
  8
0
 10
-3.246000051498413
 20
70.53099822998047
 30
40.69699859619141
 70
   192
  0
VERTEX
  5
4A4
  8
0
 10
-12.52400016784668
 20
70.53099822998047
 30
42.66999816894531
 70
   192
  0
VERTEX
  5
4A5
  8
0
 10
-19.57399940490723
 20
70.53099822998047
 30
49.01699829101562
 70
   192
  0
VERTEX
  5
4A6
  8
0
 10
-27.45700073242188
 20
70.53099822998047
 30
65.66500091552734
 70
   192
  0
VERTEX
  5
4A7
  8
0
 10
-24.50699996948242
 20
70.53099822998047
 30
79.5469970703125
 70
   192
  0
VERTEX
  5
4A8
  8
0
 10
-21.35700035095215
 20
70.53099822998047
 30
83.04499816894531
 70
   192
  0
VERTEX
  5
4A9
  8
0
 10
-15.01000022888184
 20
70.53099822998047
 30
90.09400177001953
 70
   192
  0
VERTEX
  5
4AA
  8
0
 10
-5.98799991607666
 20
70.53099822998047
 30
93.0260009765625
 70
   192
  0
VERTEX
  5
4AB
  8
0
 10
12.37100028991699
 20
70.53099822998047
 30
91.52899932861328
 70
   192
  0
VERTEX
  5
4AC
  8
0
 10
-1.51199996471405
 20
70.53099822998047
 30
94.4800033569336
 70
   192
  0
VERTEX
  5
4AD
  8
0
 10
-23.07200050354004
 20
70.53099822998047
 30
52.16600036621094
 70
   192
  0
VERTEX
  5
4AE
  8
0
 10
24.35300064086914
 20
70.53099822998047
 30
54.65200042724609
 70
   192
  0
VERTEX
  5
4AF
  8
0
 62
     9
 10
0.0
 20
0.0
 30
0.0
 70
   128
 71
     3
 72
     2
 73
     1
  0
VERTEX
  5
4B0
  8
0
 62
     9
 10
0.0
 20
0.0
 30
0.0
 70
   128
 71
     2
 72
     5
 73
     4
  0
VERTEX
  5
4B1
  8
0
 62
     9
 10
0.0
 20
0.0
 30
0.0
 70
   128
 71
     7
 72
     6
 73
     4
  0
VERTEX
  5
4B2
  8
0
 62
     9
 10
0.0
 20
0.0
 30
0.0
 70
   128
 71
     9
 72
     8
 73
     6
  0
VERTEX
  5
4B3
  8
0
 62
     9
 10
0.0
 20
0.0
 30
0.0
 70
   128
 71
    11
 72
    10
 73
     8
  0
VERTEX
  5
4B4
  8
0
 62
     9
 10
0.0
 20
0.0
 30
0.0
 70
   128
 71
    13
 72
    12
 73
    10
  0
VERTEX
  5
4B5
  8
0
 62
     9
 10
0.0
 20
0.0
 30
0.0
 70
   128
 71
    15
 72
    14
 73
    12
  0
VERTEX
  5
4B6
  8
0
 62
     9
 10
0.0
 20
0.0
 30
0.0
 70
   128
 71
    17
 72
    16
 73
    14
  0
VERTEX
  5
4B7
  8
0
 62
     9
 10
0.0
 20
0.0
 30
0.0
 70
   128
 71
    19
 72
    18
 73
    16
  0
VERTEX
  5
4B8
  8
0
 62
     9
 10
0.0
 20
0.0
 30
0.0
 70
   128
 71
    21
 72
    20
 73
    18
  0
VERTEX
  5
4B9
  8
0
 62
     9
 10
0.0
 20
0.0
 30
0.0
 70
   128
 71
    23
 72
    22
 73
    20
  0
VERTEX
  5
4BA
  8
0
 62
     9
 10
0.0
 20
0.0
 30
0.0
 70
   128
 71
     3
 72
    24
 73
    22
  0
VERTEX
  5
4BB
  8
0
 62
     9
 10
0.0
 20
0.0
 30
0.0
 70
   128
 71
     1
 72
    26
 73
    25
  0
VERTEX
  5
4BC
  8
0
 62
     9
 10
0.0
 20
0.0
 30
0.0
 70
   128
 71
     4
 72
    27
 73
    26
  0
VERTEX
  5
4BD
  8
0
 62
     9
 10
0.0
 20
0.0
 30
0.0
 70
   128
 71
     6
 72
    28
 73
    27
  0
VERTEX
  5
4BE
  8
0
 62
     9
 10
0.0
 20
0.0
 30
0.0
 70
   128
 71
     8
 72
    29
 73
    28
  0
VERTEX
  5
4BF
  8
0
 62
     9
 10
0.0
 20
0.0
 30
0.0
 70
   128
 71
    10
 72
    30
 73
    29
  0
VERTEX
  5
4C0
  8
0
 62
     9
 10
0.0
 20
0.0
 30
0.0
 70
   128
 71
    12
 72
    31
 73
    30
  0
VERTEX
  5
4C1
  8
0
 62
     9
 10
0.0
 20
0.0
 30
0.0
 70
   128
 71
    14
 72
    32
 73
    31
  0
VERTEX
  5
4C2
  8
0
 62
     9
 10
0.0
 20
0.0
 30
0.0
 70
   128
 71
    16
 72
    33
 73
    32
  0
VERTEX
  5
4C3
  8
0
 62
     9
 10
0.0
 20
0.0
 30
0.0
 70
   128
 71
    18
 72
    34
 73
    33
  0
VERTEX
  5
4C4
  8
0
 62
     9
 10
0.0
 20
0.0
 30
0.0
 70
   128
 71
    20
 72
    35
 73
    34
  0
VERTEX
  5
4C5
  8
0
 62
     9
 10
0.0
 20
0.0
 30
0.0
 70
   128
 71
    22
 72
    36
 73
    35
  0
VERTEX
  5
4C6
  8
0
 62
     9
 10
0.0
 20
0.0
 30
0.0
 70
   128
 71
    24
 72
    25
 73
    36
  0
VERTEX
  5
4C7
  8
0
 62
     9
 10
0.0
 20
0.0
 30
0.0
 70
   128
 71
    25
 72
    26
 73
    37
  0
VERTEX
  5
4C8
  8
0
 62
     9
 10
0.0
 20
0.0
 30
0.0
 70
   128
 71
    38
 72
    26
 73
    27
  0
VERTEX
  5
4C9
  8
0
 62
     9
 10
0.0
 20
0.0
 30
0.0
 70
   128
 71
    38
 72
    37
 73
    26
  0
VERTEX
  5
4CA
  8
0
 62
     9
 10
0.0
 20
0.0
 30
0.0
 70
   128
 71
    40
 72
    39
 73
    27
  0
VERTEX
  5
4CB
  8
0
 62
     9
 10
0.0
 20
0.0
 30
0.0
 70
   128
 71
    27
 72
    28
 73
    40
  0
VERTEX
  5
4CC
  8
0
 62
     9
 10
0.0
 20
0.0
 30
0.0
 70
   128
 71
    28
 72
    29
 73
    41
  0
VERTEX
  5
4CD
  8
0
 62
     9
 10
0.0
 20
0.0
 30
0.0
 70
   128
 71
    29
 72
    30
 73
    42
  0
VERTEX
  5
4CE
  8
0
 62
     9
 10
0.0
 20
0.0
 30
0.0
 70
   128
 71
    43
 72
    30
 73
    31
  0
VERTEX
  5
4CF
  8
0
 62
     9
 10
0.0
 20
0.0
 30
0.0
 70
   128
 71
    43
 72
    42
 73
    30
  0
VERTEX
  5
4D0
  8
0
 62
     9
 10
0.0
 20
0.0
 30
0.0
 70
   128
 71
    45
 72
    44
 73
    31
  0
VERTEX
  5
4D1
  8
0
 62
     9
 10
0.0
 20
0.0
 30
0.0
 70
   128
 71
    31
 72
    32
 73
    45
  0
VERTEX
  5
4D2
  8
0
 62
     9
 10
0.0
 20
0.0
 30
0.0
 70
   128
 71
    32
 72
    33
 73
    46
  0
VERTEX
  5
4D3
  8
0
 62
     9
 10
0.0
 20
0.0
 30
0.0
 70
   128
 71
    33
 72
    34
 73
    47
  0
VERTEX
  5
4D4
  8
0
 62
     9
 10
0.0
 20
0.0
 30
0.0
 70
   128
 71
    48
 72
    34
 73
    35
  0
VERTEX
  5
4D5
  8
0
 62
     9
 10
0.0
 20
0.0
 30
0.0
 70
   128
 71
    48
 72
    47
 73
    34
  0
VERTEX
  5
4D6
  8
0
 62
     9
 10
0.0
 20
0.0
 30
0.0
 70
   128
 71
    50
 72
    49
 73
    35
  0
VERTEX
  5
4D7
  8
0
 62
     9
 10
0.0
 20
0.0
 30
0.0
 70
   128
 71
    35
 72
    36
 73
    50
  0
VERTEX
  5
4D8
  8
0
 62
     9
 10
0.0
 20
0.0
 30
0.0
 70
   128
 71
    36
 72
    25
 73
    51
  0
VERTEX
  5
4D9
  8
0
 62
     9
 10
0.0
 20
0.0
 30
0.0
 70
   128
 71
    51
 72
    52
 73
    36
  0
VERTEX
  5
4DA
  8
0
 62
     9
 10
0.0
 20
0.0
 30
0.0
 70
   128
 71
    36
 72
    52
 73
    50
  0
VERTEX
  5
4DB
  8
0
 62
     9
 10
0.0
 20
0.0
 30
0.0
 70
   128
 71
    35
 72
    49
 73
    48
  0
VERTEX
  5
4DC
  8
0
 62
     9
 10
0.0
 20
0.0
 30
0.0
 70
   128
 71
    47
 72
    46
 73
    33
  0
VERTEX
  5
4DD
  8
0
 62
     9
 10
0.0
 20
0.0
 30
0.0
 70
   128
 71
    46
 72
    53
 73
    32
  0
VERTEX
  5
4DE
  8
0
 62
     9
 10
0.0
 20
0.0
 30
0.0
 70
   128
 71
    32
 72
    53
 73
    45
  0
VERTEX
  5
4DF
  8
0
 62
     9
 10
0.0
 20
0.0
 30
0.0
 70
   128
 71
    31
 72
    44
 73
    43
  0
VERTEX
  5
4E0
  8
0
 62
     9
 10
0.0
 20
0.0
 30
0.0
 70
   128
 71
    42
 72
    41
 73
    29
  0
VERTEX
  5
4E1
  8
0
 62
     9
 10
0.0
 20
0.0
 30
0.0
 70
   128
 71
    41
 72
    54
 73
    28
  0
VERTEX
  5
4E2
  8
0
 62
     9
 10
0.0
 20
0.0
 30
0.0
 70
   128
 71
    28
 72
    54
 73
    40
  0
VERTEX
  5
4E3
  8
0
 62
     9
 10
0.0
 20
0.0
 30
0.0
 70
   128
 71
    27
 72
    39
 73
    38
  0
VERTEX
  5
4E4
  8
0
 62
     9
 10
0.0
 20
0.0
 30
0.0
 70
   128
 71
    37
 72
    51
 73
    25
  0
VERTEX
  5
4E5
  8
0
 62
     9
 10
0.0
 20
0.0
 30
0.0
 70
   128
 71
    36
 72
    22
 73
    24
  0
VERTEX
  5
4E6
  8
0
 62
     9
 10
0.0
 20
0.0
 30
0.0
 70
   128
 71
    35
 72
    20
 73
    22
  0
VERTEX
  5
4E7
  8
0
 62
     9
 10
0.0
 20
0.0
 30
0.0
 70
   128
 71
    34
 72
    18
 73
    20
  0
VERTEX
  5
4E8
  8
0
 62
     9
 10
0.0
 20
0.0
 30
0.0
 70
   128
 71
    33
 72
    16
 73
    18
  0
VERTEX
  5
4E9
  8
0
 62
     9
 10
0.0
 20
0.0
 30
0.0
 70
   128
 71
    32
 72
    14
 73
    16
  0
VERTEX
  5
4EA
  8
0
 62
     9
 10
0.0
 20
0.0
 30
0.0
 70
   128
 71
    31
 72
    12
 73
    14
  0
VERTEX
  5
4EB
  8
0
 62
     9
 10
0.0
 20
0.0
 30
0.0
 70
   128
 71
    30
 72
    10
 73
    12
  0
VERTEX
  5
4EC
  8
0
 62
     9
 10
0.0
 20
0.0
 30
0.0
 70
   128
 71
    29
 72
     8
 73
    10
  0
VERTEX
  5
4ED
  8
0
 62
     9
 10
0.0
 20
0.0
 30
0.0
 70
   128
 71
    28
 72
     6
 73
     8
  0
VERTEX
  5
4EE
  8
0
 62
     9
 10
0.0
 20
0.0
 30
0.0
 70
   128
 71
    27
 72
     4
 73
     6
  0
VERTEX
  5
4EF
  8
0
 62
     9
 10
0.0
 20
0.0
 30
0.0
 70
   128
 71
    26
 72
     1
 73
     4
  0
VERTEX
  5
4F0
  8
0
 62
     9
 10
0.0
 20
0.0
 30
0.0
 70
   128
 71
    25
 72
    24
 73
     1
  0
VERTEX
  5
4F1
  8
0
 62
     9
 10
0.0
 20
0.0
 30
0.0
 70
   128
 71
    22
 72
    23
 73
     3
  0
VERTEX
  5
4F2
  8
0
 62
     9
 10
0.0
 20
0.0
 30
0.0
 70
   128
 71
    20
 72
    21
 73
    23
  0
VERTEX
  5
4F3
  8
0
 62
     9
 10
0.0
 20
0.0
 30
0.0
 70
   128
 71
    18
 72
    19
 73
    21
  0
VERTEX
  5
4F4
  8
0
 62
     9
 10
0.0
 20
0.0
 30
0.0
 70
   128
 71
    16
 72
    17
 73
    19
  0
VERTEX
  5
4F5
  8
0
 62
     9
 10
0.0
 20
0.0
 30
0.0
 70
   128
 71
    14
 72
    15
 73
    17
  0
VERTEX
  5
4F6
  8
0
 62
     9
 10
0.0
 20
0.0
 30
0.0
 70
   128
 71
    12
 72
    13
 73
    15
  0
VERTEX
  5
4F7
  8
0
 62
     9
 10
0.0
 20
0.0
 30
0.0
 70
   128
 71
    10
 72
    11
 73
    13
  0
VERTEX
  5
4F8
  8
0
 62
     9
 10
0.0
 20
0.0
 30
0.0
 70
   128
 71
     8
 72
     9
 73
    11
  0
VERTEX
  5
4F9
  8
0
 62
     9
 10
0.0
 20
0.0
 30
0.0
 70
   128
 71
     6
 72
     7
 73
     9
  0
VERTEX
  5
4FA
  8
0
 62
     9
 10
0.0
 20
0.0
 30
0.0
 70
   128
 71
     4
 72
     5
 73
     7
  0
VERTEX
  5
4FB
  8
0
 62
     9
 10
0.0
 20
0.0
 30
0.0
 70
   128
 71
     4
 72
     1
 73
     2
  0
VERTEX
  5
4FC
  8
0
 62
     9
 10
0.0
 20
0.0
 30
0.0
 70
   128
 71
     1
 72
    24
 73
     3
  0
SEQEND
  5
4FD
  8
0
 62
     9
  0
ENDBLK
  5
500
  8
0
  0
BLOCK
  8
0
  2
E3_NODE_25_
 70
     0
 10
0.0
 20
0.0
 30
0.0
  3
E3_NODE_25_
  1

  0
POLYLINE
  5
502
  8
0
 62
     9
 66
     1
 10
0.0
 20
0.0
 30
0.0
 70
    64
 71
    37
 72
    60
  0
VERTEX
  5
503
  8
0
 10
12.13500022888184
 20
80.69200134277344
 30
91.06700134277344
 70
   192
  0
VERTEX
  5
504
  8
0
 10
22.48299980163574
 20
80.69200134277344
 30
81.75
 70
   192
  0
VERTEX
  5
505
  8
0
 10
18.17399978637695
 20
92.01699829101562
 30
78.95099639892578
 70
   192
  0
VERTEX
  5
506
  8
0
 10
26.7859992980957
 20
80.69200134277344
 30
68.50700378417969
 70
   192
  0
VERTEX
  5
507
  8
0
 10
21.65399932861328
 20
92.01699829101562
 30
68.23799896240234
 70
   192
  0
VERTEX
  5
508
  8
0
 10
23.89100074768066
 20
80.69200134277344
 30
54.88800048828125
 70
   192
  0
VERTEX
  5
509
  8
0
 10
19.3120002746582
 20
92.01699829101562
 30
57.22000122070312
 70
   192
  0
VERTEX
  5
50A
  8
0
 10
14.57400035858154
 20
80.69200134277344
 30
44.54000091552734
 70
   192
  0
VERTEX
  5
50B
  8
0
 10
11.77499961853027
 20
92.01699829101562
 30
48.8489990234375
 70
   192
  0
VERTEX
  5
50C
  8
0
 10
1.330999970436096
 20
80.69200134277344
 30
40.23699951171875
 70
   192
  0
VERTEX
  5
50D
  8
0
 10
1.062000036239624
 20
92.01699829101562
 30
45.36800003051758
 70
   192
  0
VERTEX
  5
50E
  8
0
 10
-12.28899955749512
 20
80.69200134277344
 30
43.13199996948242
 70
   192
  0
VERTEX
  5
50F
  8
0
 10
-9.956000328063965
 20
92.01699829101562
 30
47.70999908447266
 70
   192
  0
VERTEX
  5
510
  8
0
 10
-22.63599967956543
 20
80.69200134277344
 30
52.44900131225586
 70
   192
  0
VERTEX
  5
511
  8
0
 10
-18.32699966430664
 20
92.01699829101562
 30
55.24800109863281
 70
   192
  0
VERTEX
  5
512
  8
0
 10
-26.93899917602539
 20
80.69200134277344
 30
65.69200134277344
 70
   192
  0
VERTEX
  5
513
  8
0
 10
-21.8080005645752
 20
92.01699829101562
 30
65.96099853515625
 70
   192
  0
VERTEX
  5
514
  8
0
 10
-24.04400062561035
 20
80.69200134277344
 30
79.31199645996094
 70
   192
  0
VERTEX
  5
515
  8
0
 10
-19.46599960327148
 20
92.01699829101562
 30
76.97899627685547
 70
   192
  0
VERTEX
  5
516
  8
0
 10
-14.72700023651123
 20
80.69200134277344
 30
89.65899658203125
 70
   192
  0
VERTEX
  5
517
  8
0
 10
-11.92899990081787
 20
92.01699829101562
 30
85.3499984741211
 70
   192
  0
VERTEX
  5
518
  8
0
 10
-1.483999967575073
 20
80.69200134277344
 30
93.96199798583984
 70
   192
  0
VERTEX
  5
519
  8
0
 10
-1.215999960899353
 20
92.01699829101562
 30
88.83100128173828
 70
   192
  0
VERTEX
  5
51A
  8
0
 10
9.803000450134277
 20
92.01699829101562
 30
86.48899841308594
 70
   192
  0
VERTEX
  5
51B
  8
0
 10
10.0930004119873
 20
99.87999725341797
 30
73.7040023803711
 70
   192
  0
VERTEX
  5
51C
  8
0
 10
12.0319995880127
 20
99.87999725341797
 30
67.73400115966797
 70
   192
  0
VERTEX
  5
51D
  8
0
 10
10.72700023651123
 20
99.87999725341797
 30
61.59500122070312
 70
   192
  0
VERTEX
  5
51E
  8
0
 10
6.526999950408936
 20
99.87999725341797
 30
56.93000030517578
 70
   192
  0
VERTEX
  5
51F
  8
0
 10
0.5580000281333923
 20
99.87999725341797
 30
54.99100112915039
 70
   192
  0
VERTEX
  5
520
  8
0
 10
-5.581999778747559
 20
99.87999725341797
 30
56.29600143432617
 70
   192
  0
VERTEX
  5
521
  8
0
 10
-10.24600028991699
 20
99.87999725341797
 30
60.49599838256836
 70
   192
  0
VERTEX
  5
522
  8
0
 10
-12.18599987030029
 20
99.87999725341797
 30
66.46499633789062
 70
   192
  0
VERTEX
  5
523
  8
0
 10
-10.88099956512451
 20
99.87999725341797
 30
72.60399627685547
 70
   192
  0
VERTEX
  5
524
  8
0
 10
-6.681000232696533
 20
99.87999725341797
 30
77.26899719238281
 70
   192
  0
VERTEX
  5
525
  8
0
 10
-0.7110000252723694
 20
99.87999725341797
 30
79.20800018310547
 70
   192
  0
VERTEX
  5
526
  8
0
 10
5.427999973297119
 20
99.87999725341797
 30
77.90299987792969
 70
   192
  0
VERTEX
  5
527
  8
0
 10
-0.0769999995827675
 20
102.6419982910156
 30
67.0999984741211
 70
   192
  0
VERTEX
  5
528
  8
0
 62
     9
 10
0.0
 20
0.0
 30
0.0
 70
   128
 71
     3
 72
     2
 73
     1
  0
VERTEX
  5
529
  8
0
 62
     9
 10
0.0
 20
0.0
 30
0.0
 70
   128
 71
     5
 72
     4
 73
     2
  0
VERTEX
  5
52A
  8
0
 62
     9
 10
0.0
 20
0.0
 30
0.0
 70
   128
 71
     5
 72
     7
 73
     6
  0
VERTEX
  5
52B
  8
0
 62
     9
 10
0.0
 20
0.0
 30
0.0
 70
   128
 71
     7
 72
     9
 73
     8
  0
VERTEX
  5
52C
  8
0
 62
     9
 10
0.0
 20
0.0
 30
0.0
 70
   128
 71
    11
 72
    10
 73
     8
  0
VERTEX
  5
52D
  8
0
 62
     9
 10
0.0
 20
0.0
 30
0.0
 70
   128
 71
    13
 72
    12
 73
    10
  0
VERTEX
  5
52E
  8
0
 62
     9
 10
0.0
 20
0.0
 30
0.0
 70
   128
 71
    13
 72
    15
 73
    14
  0
VERTEX
  5
52F
  8
0
 62
     9
 10
0.0
 20
0.0
 30
0.0
 70
   128
 71
    17
 72
    16
 73
    14
  0
VERTEX
  5
530
  8
0
 62
     9
 10
0.0
 20
0.0
 30
0.0
 70
   128
 71
    19
 72
    18
 73
    16
  0
VERTEX
  5
531
  8
0
 62
     9
 10
0.0
 20
0.0
 30
0.0
 70
   128
 71
    21
 72
    20
 73
    18
  0
VERTEX
  5
532
  8
0
 62
     9
 10
0.0
 20
0.0
 30
0.0
 70
   128
 71
    23
 72
    22
 73
    20
  0
VERTEX
  5
533
  8
0
 62
     9
 10
0.0
 20
0.0
 30
0.0
 70
   128
 71
    24
 72
     1
 73
    22
  0
VERTEX
  5
534
  8
0
 62
     9
 10
0.0
 20
0.0
 30
0.0
 70
   128
 71
    25
 72
     3
 73
    24
  0
VERTEX
  5
535
  8
0
 62
     9
 10
0.0
 20
0.0
 30
0.0
 70
   128
 71
    26
 72
     5
 73
     3
  0
VERTEX
  5
536
  8
0
 62
     9
 10
0.0
 20
0.0
 30
0.0
 70
   128
 71
    27
 72
     7
 73
     5
  0
VERTEX
  5
537
  8
0
 62
     9
 10
0.0
 20
0.0
 30
0.0
 70
   128
 71
    28
 72
     9
 73
     7
  0
VERTEX
  5
538
  8
0
 62
     9
 10
0.0
 20
0.0
 30
0.0
 70
   128
 71
    29
 72
    11
 73
     9
  0
VERTEX
  5
539
  8
0
 62
     9
 10
0.0
 20
0.0
 30
0.0
 70
   128
 71
    30
 72
    13
 73
    11
  0
VERTEX
  5
53A
  8
0
 62
     9
 10
0.0
 20
0.0
 30
0.0
 70
   128
 71
    31
 72
    15
 73
    13
  0
VERTEX
  5
53B
  8
0
 62
     9
 10
0.0
 20
0.0
 30
0.0
 70
   128
 71
    32
 72
    17
 73
    15
  0
VERTEX
  5
53C
  8
0
 62
     9
 10
0.0
 20
0.0
 30
0.0
 70
   128
 71
    33
 72
    19
 73
    17
  0
VERTEX
  5
53D
  8
0
 62
     9
 10
0.0
 20
0.0
 30
0.0
 70
   128
 71
    34
 72
    21
 73
    19
  0
VERTEX
  5
53E
  8
0
 62
     9
 10
0.0
 20
0.0
 30
0.0
 70
   128
 71
    35
 72
    23
 73
    21
  0
VERTEX
  5
53F
  8
0
 62
     9
 10
0.0
 20
0.0
 30
0.0
 70
   128
 71
    36
 72
    24
 73
    23
  0
VERTEX
  5
540
  8
0
 62
     9
 10
0.0
 20
0.0
 30
0.0
 70
   128
 71
    36
 72
    35
 73
    37
  0
VERTEX
  5
541
  8
0
 62
     9
 10
0.0
 20
0.0
 30
0.0
 70
   128
 71
    35
 72
    34
 73
    37
  0
VERTEX
  5
542
  8
0
 62
     9
 10
0.0
 20
0.0
 30
0.0
 70
   128
 71
    34
 72
    33
 73
    37
  0
VERTEX
  5
543
  8
0
 62
     9
 10
0.0
 20
0.0
 30
0.0
 70
   128
 71
    33
 72
    32
 73
    37
  0
VERTEX
  5
544
  8
0
 62
     9
 10
0.0
 20
0.0
 30
0.0
 70
   128
 71
    32
 72
    31
 73
    37
  0
VERTEX
  5
545
  8
0
 62
     9
 10
0.0
 20
0.0
 30
0.0
 70
   128
 71
    31
 72
    30
 73
    37
  0
VERTEX
  5
546
  8
0
 62
     9
 10
0.0
 20
0.0
 30
0.0
 70
   128
 71
    30
 72
    29
 73
    37
  0
VERTEX
  5
547
  8
0
 62
     9
 10
0.0
 20
0.0
 30
0.0
 70
   128
 71
    29
 72
    28
 73
    37
  0
VERTEX
  5
548
  8
0
 62
     9
 10
0.0
 20
0.0
 30
0.0
 70
   128
 71
    28
 72
    27
 73
    37
  0
VERTEX
  5
549
  8
0
 62
     9
 10
0.0
 20
0.0
 30
0.0
 70
   128
 71
    27
 72
    26
 73
    37
  0
VERTEX
  5
54A
  8
0
 62
     9
 10
0.0
 20
0.0
 30
0.0
 70
   128
 71
    26
 72
    25
 73
    37
  0
VERTEX
  5
54B
  8
0
 62
     9
 10
0.0
 20
0.0
 30
0.0
 70
   128
 71
    25
 72
    36
 73
    37
  0
VERTEX
  5
54C
  8
0
 62
     9
 10
0.0
 20
0.0
 30
0.0
 70
   128
 71
    23
 72
    35
 73
    36
  0
VERTEX
  5
54D
  8
0
 62
     9
 10
0.0
 20
0.0
 30
0.0
 70
   128
 71
    21
 72
    34
 73
    35
  0
VERTEX
  5
54E
  8
0
 62
     9
 10
0.0
 20
0.0
 30
0.0
 70
   128
 71
    19
 72
    33
 73
    34
  0
VERTEX
  5
54F
  8
0
 62
     9
 10
0.0
 20
0.0
 30
0.0
 70
   128
 71
    17
 72
    32
 73
    33
  0
VERTEX
  5
550
  8
0
 62
     9
 10
0.0
 20
0.0
 30
0.0
 70
   128
 71
    15
 72
    31
 73
    32
  0
VERTEX
  5
551
  8
0
 62
     9
 10
0.0
 20
0.0
 30
0.0
 70
   128
 71
    13
 72
    30
 73
    31
  0
VERTEX
  5
552
  8
0
 62
     9
 10
0.0
 20
0.0
 30
0.0
 70
   128
 71
    11
 72
    29
 73
    30
  0
VERTEX
  5
553
  8
0
 62
     9
 10
0.0
 20
0.0
 30
0.0
 70
   128
 71
     9
 72
    28
 73
    29
  0
VERTEX
  5
554
  8
0
 62
     9
 10
0.0
 20
0.0
 30
0.0
 70
   128
 71
     7
 72
    27
 73
    28
  0
VERTEX
  5
555
  8
0
 62
     9
 10
0.0
 20
0.0
 30
0.0
 70
   128
 71
     5
 72
    26
 73
    27
  0
VERTEX
  5
556
  8
0
 62
     9
 10
0.0
 20
0.0
 30
0.0
 70
   128
 71
     3
 72
    25
 73
    26
  0
VERTEX
  5
557
  8
0
 62
     9
 10
0.0
 20
0.0
 30
0.0
 70
   128
 71
    24
 72
    36
 73
    25
  0
VERTEX
  5
558
  8
0
 62
     9
 10
0.0
 20
0.0
 30
0.0
 70
   128
 71
    22
 72
    23
 73
    24
  0
VERTEX
  5
559
  8
0
 62
     9
 10
0.0
 20
0.0
 30
0.0
 70
   128
 71
    20
 72
    21
 73
    23
  0
VERTEX
  5
55A
  8
0
 62
     9
 10
0.0
 20
0.0
 30
0.0
 70
   128
 71
    18
 72
    19
 73
    21
  0
VERTEX
  5
55B
  8
0
 62
     9
 10
0.0
 20
0.0
 30
0.0
 70
   128
 71
    16
 72
    17
 73
    19
  0
VERTEX
  5
55C
  8
0
 62
     9
 10
0.0
 20
0.0
 30
0.0
 70
   128
 71
    14
 72
    15
 73
    17
  0
VERTEX
  5
55D
  8
0
 62
     9
 10
0.0
 20
0.0
 30
0.0
 70
   128
 71
    14
 72
    12
 73
    13
  0
VERTEX
  5
55E
  8
0
 62
     9
 10
0.0
 20
0.0
 30
0.0
 70
   128
 71
    10
 72
    11
 73
    13
  0
VERTEX
  5
55F
  8
0
 62
     9
 10
0.0
 20
0.0
 30
0.0
 70
   128
 71
     8
 72
     9
 73
    11
  0
VERTEX
  5
560
  8
0
 62
     9
 10
0.0
 20
0.0
 30
0.0
 70
   128
 71
     8
 72
     6
 73
     7
  0
VERTEX
  5
561
  8
0
 62
     9
 10
0.0
 20
0.0
 30
0.0
 70
   128
 71
     6
 72
     4
 73
     5
  0
VERTEX
  5
562
  8
0
 62
     9
 10
0.0
 20
0.0
 30
0.0
 70
   128
 71
     2
 72
     3
 73
     5
  0
VERTEX
  5
563
  8
0
 62
     9
 10
0.0
 20
0.0
 30
0.0
 70
   128
 71
     1
 72
    24
 73
     3
  0
SEQEND
  5
564
  8
0
 62
     9
  0
ENDBLK
  5
567
  8
0
  0
BLOCK
  8
0
  2
E3_NODE_26_
 70
     0
 10
0.0
 20
0.0
 30
0.0
  3
E3_NODE_26_
  1

  0
POLYLINE
  5
569
  8
0
 62
     9
 66
     1
 10
0.0
 20
0.0
 30
0.0
 70
    64
 71
     6
 72
     4
  0
VERTEX
  5
56A
  8
0
 10
217.3470001220703
 20
-12.13199996948242
 30
298.9289855957031
 70
   192
  0
VERTEX
  5
56B
  8
0
 10
224.2440032958984
 20
0.0
 30
300.1449890136719
 70
   192
  0
VERTEX
  5
56C
  8
0
 10
217.3470001220703
 20
12.13199996948242
 30
298.9289855957031
 70
   192
  0
VERTEX
  5
56D
  8
0
 10
203.5509948730469
 20
12.13199996948242
 30
296.4960021972656
 70
   192
  0
VERTEX
  5
56E
  8
0
 10
196.6529998779297
 20
0.0
 30
295.2799987792969
 70
   192
  0
VERTEX
  5
56F
  8
0
 10
203.5509948730469
 20
-12.13199996948242
 30
296.4960021972656
 70
   192
  0
VERTEX
  5
570
  8
0
 62
     9
 10
0.0
 20
0.0
 30
0.0
 70
   128
 71
     3
 72
     2
 73
     1
  0
VERTEX
  5
571
  8
0
 62
     9
 10
0.0
 20
0.0
 30
0.0
 70
   128
 71
     6
 72
     5
 73
     4
  0
VERTEX
  5
572
  8
0
 62
     9
 10
0.0
 20
0.0
 30
0.0
 70
   128
 71
     4
 72
     1
 73
     6
  0
VERTEX
  5
573
  8
0
 62
     9
 10
0.0
 20
0.0
 30
0.0
 70
   128
 71
     1
 72
     4
 73
     3
  0
SEQEND
  5
574
  8
0
 62
     9
  0
ENDBLK
  5
577
  8
0
  0
BLOCK
  8
0
  2
E3_NODE_27_
 70
     0
 10
0.0
 20
0.0
 30
0.0
  3
E3_NODE_27_
  1

  0
POLYLINE
  5
579
  8
0
 62
     9
 66
     1
 10
0.0
 20
0.0
 30
0.0
 70
    64
 71
    22
 72
    22
  0
VERTEX
  5
57A
  8
0
 10
196.6529998779297
 20
0.0
 30
295.2799987792969
 70
   192
  0
VERTEX
  5
57B
  8
0
 10
203.4250030517578
 20
0.0
 30
256.8729858398438
 70
   192
  0
VERTEX
  5
57C
  8
0
 10
206.6529998779297
 20
-9.005000114440918
 30
257.4419860839844
 70
   192
  0
VERTEX
  5
57D
  8
0
 10
203.5509948730469
 20
-12.13199996948242
 30
296.4960021972656
 70
   192
  0
VERTEX
  5
57E
  8
0
 10
214.8249969482422
 20
-13.79599952697754
 30
258.8829956054688
 70
   192
  0
VERTEX
  5
57F
  8
0
 10
218.0229949951172
 20
-13.98499965667725
 30
259.4469909667969
 70
   192
  0
VERTEX
  5
580
  8
0
 10
210.7389984130859
 20
-11.39999961853027
 30
258.1629943847656
 70
   192
  0
VERTEX
  5
581
  8
0
 10
217.3470001220703
 20
-12.13199996948242
 30
298.9289855957031
 70
   192
  0
VERTEX
  5
582
  8
0
 10
221.1779937744141
 20
-13.42000007629395
 30
260.0029907226562
 70
   192
  0
VERTEX
  5
583
  8
0
 10
224.1190032958984
 20
-12.13199996948242
 30
260.5220031738281
 70
   192
  0
VERTEX
  5
584
  8
0
 10
230.1849975585938
 20
-4.790999889373779
 30
261.5910034179688
 70
   192
  0
VERTEX
  5
585
  8
0
 10
224.2440032958984
 20
0.0
 30
300.1449890136719
 70
   192
  0
VERTEX
  5
586
  8
0
 10
217.3470001220703
 20
12.13199996948242
 30
298.9289855957031
 70
   192
  0
VERTEX
  5
587
  8
0
 10
230.1849975585938
 20
4.790999889373779
 30
261.5910034179688
 70
   192
  0
VERTEX
  5
588
  8
0
 10
230.1849975585938
 20
0.0
 30
261.5910034179688
 70
   192
  0
VERTEX
  5
589
  8
0
 10
203.5509948730469
 20
12.13199996948242
 30
296.4960021972656
 70
   192
  0
VERTEX
  5
58A
  8
0
 10
218.0229949951172
 20
13.98499965667725
 30
259.4469909667969
 70
   192
  0
VERTEX
  5
58B
  8
0
 10
214.8249969482422
 20
13.79599952697754
 30
258.8829956054688
 70
   192
  0
VERTEX
  5
58C
  8
0
 10
221.1779937744141
 20
13.42000007629395
 30
260.0029907226562
 70
   192
  0
VERTEX
  5
58D
  8
0
 10
224.1190032958984
 20
12.13199996948242
 30
260.5220031738281
 70
   192
  0
VERTEX
  5
58E
  8
0
 10
206.6529998779297
 20
9.005000114440918
 30
257.4419860839844
 70
   192
  0
VERTEX
  5
58F
  8
0
 10
210.7389984130859
 20
11.39999961853027
 30
258.1629943847656
 70
   192
  0
VERTEX
  5
590
  8
0
 62
     9
 10
0.0
 20
0.0
 30
0.0
 70
   128
 71
     3
 72
     2
 73
     1
  0
VERTEX
  5
591
  8
0
 62
     9
 10
0.0
 20
0.0
 30
0.0
 70
   128
 71
     1
 72
     4
 73
     3
  0
VERTEX
  5
592
  8
0
 62
     9
 10
0.0
 20
0.0
 30
0.0
 70
   128
 71
     6
 72
     5
 73
     4
  0
VERTEX
  5
593
  8
0
 62
     9
 10
0.0
 20
0.0
 30
0.0
 70
   128
 71
     5
 72
     7
 73
     4
  0
VERTEX
  5
594
  8
0
 62
     9
 10
0.0
 20
0.0
 30
0.0
 70
   128
 71
     4
 72
     8
 73
     6
  0
VERTEX
  5
595
  8
0
 62
     9
 10
0.0
 20
0.0
 30
0.0
 70
   128
 71
     8
 72
     9
 73
     6
  0
VERTEX
  5
596
  8
0
 62
     9
 10
0.0
 20
0.0
 30
0.0
 70
   128
 71
    11
 72
    10
 73
     8
  0
VERTEX
  5
597
  8
0
 62
     9
 10
0.0
 20
0.0
 30
0.0
 70
   128
 71
     8
 72
    12
 73
    11
  0
VERTEX
  5
598
  8
0
 62
     9
 10
0.0
 20
0.0
 30
0.0
 70
   128
 71
    14
 72
    12
 73
    13
  0
VERTEX
  5
599
  8
0
 62
     9
 10
0.0
 20
0.0
 30
0.0
 70
   128
 71
    14
 72
    15
 73
    12
  0
VERTEX
  5
59A
  8
0
 62
     9
 10
0.0
 20
0.0
 30
0.0
 70
   128
 71
    17
 72
    13
 73
    16
  0
VERTEX
  5
59B
  8
0
 62
     9
 10
0.0
 20
0.0
 30
0.0
 70
   128
 71
    16
 72
    18
 73
    17
  0
VERTEX
  5
59C
  8
0
 62
     9
 10
0.0
 20
0.0
 30
0.0
 70
   128
 71
    17
 72
    19
 73
    13
  0
VERTEX
  5
59D
  8
0
 62
     9
 10
0.0
 20
0.0
 30
0.0
 70
   128
 71
    19
 72
    20
 73
    13
  0
VERTEX
  5
59E
  8
0
 62
     9
 10
0.0
 20
0.0
 30
0.0
 70
   128
 71
    21
 72
    16
 73
     1
  0
VERTEX
  5
59F
  8
0
 62
     9
 10
0.0
 20
0.0
 30
0.0
 70
   128
 71
    21
 72
    22
 73
    16
  0
VERTEX
  5
5A0
  8
0
 62
     9
 10
0.0
 20
0.0
 30
0.0
 70
   128
 71
     1
 72
     2
 73
    21
  0
VERTEX
  5
5A1
  8
0
 62
     9
 10
0.0
 20
0.0
 30
0.0
 70
   128
 71
    16
 72
    22
 73
    18
  0
VERTEX
  5
5A2
  8
0
 62
     9
 10
0.0
 20
0.0
 30
0.0
 70
   128
 71
    13
 72
    20
 73
    14
  0
VERTEX
  5
5A3
  8
0
 62
     9
 10
0.0
 20
0.0
 30
0.0
 70
   128
 71
    12
 72
    15
 73
    11
  0
VERTEX
  5
5A4
  8
0
 62
     9
 10
0.0
 20
0.0
 30
0.0
 70
   128
 71
     8
 72
    10
 73
     9
  0
VERTEX
  5
5A5
  8
0
 62
     9
 10
0.0
 20
0.0
 30
0.0
 70
   128
 71
     4
 72
     7
 73
     3
  0
SEQEND
  5
5A6
  8
0
 62
     9
  0
ENDBLK
  5
5A9
  8
0
  0
BLOCK
  8
0
  2
E3_NODE_28_
 70
     0
 10
0.0
 20
0.0
 30
0.0
  3
E3_NODE_28_
  1

  0
POLYLINE
  5
5AB
  8
0
 62
     9
 66
     1
 10
0.0
 20
0.0
 30
0.0
 70
    64
 71
    36
 72
    43
  0
VERTEX
  5
5AC
  8
0
 10
203.8370056152344
 20
0.0
 30
256.2269897460938
 70
   192
  0
VERTEX
  5
5AD
  8
0
 10
204.5839996337891
 20
0.0
 30
256.06201171875
 70
   192
  0
VERTEX
  5
5AE
  8
0
 10
207.5809936523438
 20
-8.362000465393066
 30
256.5899963378906
 70
   192
  0
VERTEX
  5
5AF
  8
0
 10
214.9980010986328
 20
-13.50699996948242
 30
258.1950073242188
 70
   192
  0
VERTEX
  5
5B0
  8
0
 10
206.9969940185547
 20
-8.815999984741211
 30
256.7839965820312
 70
   192
  0
VERTEX
  5
5B1
  8
0
 10
217.343994140625
 20
-13.71599960327148
 30
258.6090087890625
 70
   192
  0
VERTEX
  5
5B2
  8
0
 10
223.8000030517578
 20
-11.26500034332275
 30
259.4500122070312
 70
   192
  0
VERTEX
  5
5B3
  8
0
 10
224.0970001220703
 20
-11.87800025939941
 30
259.7999877929688
 70
   192
  0
VERTEX
  5
5B4
  8
0
 10
224.1190032958984
 20
-12.13199996948242
 30
260.5220031738281
 70
   192
  0
VERTEX
  5
5B5
  8
0
 10
221.1779937744141
 20
-13.42000007629395
 30
260.0029907226562
 70
   192
  0
VERTEX
  5
5B6
  8
0
 10
217.2460021972656
 20
-13.99899959564209
 30
259.1669921875
 70
   192
  0
VERTEX
  5
5B7
  8
0
 10
218.0229949951172
 20
-13.98499965667725
 30
259.4469909667969
 70
   192
  0
VERTEX
  5
5B8
  8
0
 10
217.2209930419922
 20
-14.00899982452393
 30
259.3049926757812
 70
   192
  0
VERTEX
  5
5B9
  8
0
 10
217.3289947509766
 20
-13.78899955749512
 30
258.6900024414062
 70
   192
  0
VERTEX
  5
5BA
  8
0
 10
214.8249969482422
 20
-13.79599952697754
 30
258.8829956054688
 70
   192
  0
VERTEX
  5
5BB
  8
0
 10
215.1699981689453
 20
-12.81099987030029
 30
257.9280090332031
 70
   192
  0
VERTEX
  5
5BC
  8
0
 10
230.0359954833984
 20
-4.690999984741211
 30
260.8469848632812
 70
   192
  0
VERTEX
  5
5BD
  8
0
 10
230.0359954833984
 20
4.690999984741211
 30
260.8469848632812
 70
   192
  0
VERTEX
  5
5BE
  8
0
 10
229.4329986572266
 20
-4.448999881744385
 30
260.4429931640625
 70
   192
  0
VERTEX
  5
5BF
  8
0
 10
229.4329986572266
 20
4.448999881744385
 30
260.4429931640625
 70
   192
  0
VERTEX
  5
5C0
  8
0
 10
223.8000030517578
 20
11.26500034332275
 30
259.4500122070312
 70
   192
  0
VERTEX
  5
5C1
  8
0
 10
214.9980010986328
 20
13.50699996948242
 30
258.1950073242188
 70
   192
  0
VERTEX
  5
5C2
  8
0
 10
215.1699981689453
 20
12.81099987030029
 30
257.9280090332031
 70
   192
  0
VERTEX
  5
5C3
  8
0
 10
207.5809936523438
 20
8.362000465393066
 30
256.5899963378906
 70
   192
  0
VERTEX
  5
5C4
  8
0
 10
206.9969940185547
 20
8.815999984741211
 30
256.7839965820312
 70
   192
  0
VERTEX
  5
5C5
  8
0
 10
203.4250030517578
 20
0.0
 30
256.8729858398438
 70
   192
  0
VERTEX
  5
5C6
  8
0
 10
210.7389984130859
 20
-11.39999961853027
 30
258.1629943847656
 70
   192
  0
VERTEX
  5
5C7
  8
0
 10
230.1849975585938
 20
4.790999889373779
 30
261.5910034179688
 70
   192
  0
VERTEX
  5
5C8
  8
0
 10
230.1849975585938
 20
0.0
 30
261.5910034179688
 70
   192
  0
VERTEX
  5
5C9
  8
0
 10
224.1190032958984
 20
12.13199996948242
 30
260.5220031738281
 70
   192
  0
VERTEX
  5
5CA
  8
0
 10
206.6529998779297
 20
9.005000114440918
 30
257.4419860839844
 70
   192
  0
VERTEX
  5
5CB
  8
0
 10
210.7389984130859
 20
11.39999961853027
 30
258.1629943847656
 70
   192
  0
VERTEX
  5
5CC
  8
0
 10
214.8249969482422
 20
13.79599952697754
 30
258.8829956054688
 70
   192
  0
VERTEX
  5
5CD
  8
0
 10
224.0970001220703
 20
11.87800025939941
 30
259.7999877929688
 70
   192
  0
VERTEX
  5
5CE
  8
0
 10
230.1849975585938
 20
-4.790999889373779
 30
261.5910034179688
 70
   192
  0
VERTEX
  5
5CF
  8
0
 10
206.6529998779297
 20
-9.005000114440918
 30
257.4419860839844
 70
   192
  0
VERTEX
  5
5D0
  8
0
 62
     9
 10
0.0
 20
0.0
 30
0.0
 70
   128
 71
     3
 72
     2
 73
     1
  0
VERTEX
  5
5D1
  8
0
 62
     9
 10
0.0
 20
0.0
 30
0.0
 70
   128
 71
     3
 72
     5
 73
     4
  0
VERTEX
  5
5D2
  8
0
 62
     9
 10
0.0
 20
0.0
 30
0.0
 70
   128
 71
     8
 72
     7
 73
     6
  0
VERTEX
  5
5D3
  8
0
 62
     9
 10
0.0
 20
0.0
 30
0.0
 70
   128
 71
    10
 72
     9
 73
     6
  0
VERTEX
  5
5D4
  8
0
 62
     9
 10
0.0
 20
0.0
 30
0.0
 70
   128
 71
    12
 72
    10
 73
    11
  0
VERTEX
  5
5D5
  8
0
 62
     9
 10
0.0
 20
0.0
 30
0.0
 70
   128
 71
     4
 72
    12
 73
    13
  0
VERTEX
  5
5D6
  8
0
 62
     9
 10
0.0
 20
0.0
 30
0.0
 70
   128
 71
    13
 72
    14
 73
     4
  0
VERTEX
  5
5D7
  8
0
 62
     9
 10
0.0
 20
0.0
 30
0.0
 70
   128
 71
     4
 72
    15
 73
    12
  0
VERTEX
  5
5D8
  8
0
 62
     9
 10
0.0
 20
0.0
 30
0.0
 70
   128
 71
    11
 72
    13
 73
    12
  0
VERTEX
  5
5D9
  8
0
 62
     9
 10
0.0
 20
0.0
 30
0.0
 70
   128
 71
     6
 72
    11
 73
    10
  0
VERTEX
  5
5DA
  8
0
 62
     9
 10
0.0
 20
0.0
 30
0.0
 70
   128
 71
     6
 72
    16
 73
     4
  0
VERTEX
  5
5DB
  8
0
 62
     9
 10
0.0
 20
0.0
 30
0.0
 70
   128
 71
     4
 72
    14
 73
     6
  0
VERTEX
  5
5DC
  8
0
 62
     9
 10
0.0
 20
0.0
 30
0.0
 70
   128
 71
     6
 72
     9
 73
     8
  0
VERTEX
  5
5DD
  8
0
 62
     9
 10
0.0
 20
0.0
 30
0.0
 70
   128
 71
     7
 72
     8
 73
    17
  0
VERTEX
  5
5DE
  8
0
 62
     9
 10
0.0
 20
0.0
 30
0.0
 70
   128
 71
    19
 72
    17
 73
    18
  0
VERTEX
  5
5DF
  8
0
 62
     9
 10
0.0
 20
0.0
 30
0.0
 70
   128
 71
    21
 72
    20
 73
    18
  0
VERTEX
  5
5E0
  8
0
 62
     9
 10
0.0
 20
0.0
 30
0.0
 70
   128
 71
    24
 72
    23
 73
    22
  0
VERTEX
  5
5E1
  8
0
 62
     9
 10
0.0
 20
0.0
 30
0.0
 70
   128
 71
     2
 72
    24
 73
    25
  0
VERTEX
  5
5E2
  8
0
 62
     9
 10
0.0
 20
0.0
 30
0.0
 70
   128
 71
     5
 72
     1
 73
    26
  0
VERTEX
  5
5E3
  8
0
 62
     9
 10
0.0
 20
0.0
 30
0.0
 70
   128
 71
    27
 72
     4
 73
     5
  0
VERTEX
  5
5E4
  8
0
 62
     9
 10
0.0
 20
0.0
 30
0.0
 70
   128
 71
    27
 72
    15
 73
     4
  0
VERTEX
  5
5E5
  8
0
 62
     9
 10
0.0
 20
0.0
 30
0.0
 70
   128
 71
    17
 72
     8
 73
     9
  0
VERTEX
  5
5E6
  8
0
 62
     9
 10
0.0
 20
0.0
 30
0.0
 70
   128
 71
    29
 72
    28
 73
    18
  0
VERTEX
  5
5E7
  8
0
 62
     9
 10
0.0
 20
0.0
 30
0.0
 70
   128
 71
    18
 72
    17
 73
    29
  0
VERTEX
  5
5E8
  8
0
 62
     9
 10
0.0
 20
0.0
 30
0.0
 70
   128
 71
    18
 72
    28
 73
    30
  0
VERTEX
  5
5E9
  8
0
 62
     9
 10
0.0
 20
0.0
 30
0.0
 70
   128
 71
    32
 72
    31
 73
    25
  0
VERTEX
  5
5EA
  8
0
 62
     9
 10
0.0
 20
0.0
 30
0.0
 70
   128
 71
    25
 72
    22
 73
    32
  0
VERTEX
  5
5EB
  8
0
 62
     9
 10
0.0
 20
0.0
 30
0.0
 70
   128
 71
    25
 72
    31
 73
    26
  0
VERTEX
  5
5EC
  8
0
 62
     9
 10
0.0
 20
0.0
 30
0.0
 70
   128
 71
    26
 72
     1
 73
    25
  0
VERTEX
  5
5ED
  8
0
 62
     9
 10
0.0
 20
0.0
 30
0.0
 70
   128
 71
    22
 72
    33
 73
    32
  0
VERTEX
  5
5EE
  8
0
 62
     9
 10
0.0
 20
0.0
 30
0.0
 70
   128
 71
    30
 72
    34
 73
    18
  0
VERTEX
  5
5EF
  8
0
 62
     9
 10
0.0
 20
0.0
 30
0.0
 70
   128
 71
    17
 72
    35
 73
    29
  0
VERTEX
  5
5F0
  8
0
 62
     9
 10
0.0
 20
0.0
 30
0.0
 70
   128
 71
     9
 72
    35
 73
    17
  0
VERTEX
  5
5F1
  8
0
 62
     9
 10
0.0
 20
0.0
 30
0.0
 70
   128
 71
     5
 72
    36
 73
    27
  0
VERTEX
  5
5F2
  8
0
 62
     9
 10
0.0
 20
0.0
 30
0.0
 70
   128
 71
    26
 72
    36
 73
     5
  0
VERTEX
  5
5F3
  8
0
 62
     9
 10
0.0
 20
0.0
 30
0.0
 70
   128
 71
    25
 72
     1
 73
     2
  0
VERTEX
  5
5F4
  8
0
 62
     9
 10
0.0
 20
0.0
 30
0.0
 70
   128
 71
    22
 72
    25
 73
    24
  0
VERTEX
  5
5F5
  8
0
 62
     9
 10
0.0
 20
0.0
 30
0.0
 70
   128
 71
    18
 72
    34
 73
    21
  0
VERTEX
  5
5F6
  8
0
 62
     9
 10
0.0
 20
0.0
 30
0.0
 70
   128
 71
    18
 72
    20
 73
    19
  0
VERTEX
  5
5F7
  8
0
 62
     9
 10
0.0
 20
0.0
 30
0.0
 70
   128
 71
    17
 72
    19
 73
     7
  0
VERTEX
  5
5F8
  8
0
 62
     9
 10
0.0
 20
0.0
 30
0.0
 70
   128
 71
     7
 72
    16
 73
     6
  0
VERTEX
  5
5F9
  8
0
 62
     9
 10
0.0
 20
0.0
 30
0.0
 70
   128
 71
     4
 72
    16
 73
     3
  0
VERTEX
  5
5FA
  8
0
 62
     9
 10
0.0
 20
0.0
 30
0.0
 70
   128
 71
     1
 72
     5
 73
     3
  0
SEQEND
  5
5FB
  8
0
 62
     9
  0
ENDBLK
  5
5FE
  8
0
  0
BLOCK
  8
0
  2
E3_NODE_29_
 70
     0
 10
0.0
 20
0.0
 30
0.0
  3
E3_NODE_29_
  1

  0
POLYLINE
  5
600
  8
0
 62
     9
 66
     1
 10
0.0
 20
0.0
 30
0.0
 70
    64
 71
     9
 72
     7
  0
VERTEX
  5
601
  8
0
 10
207.5809936523438
 20
8.362000465393066
 30
256.5899963378906
 70
   192
  0
VERTEX
  5
602
  8
0
 10
229.4329986572266
 20
4.448999881744385
 30
260.4429931640625
 70
   192
  0
VERTEX
  5
603
  8
0
 10
229.4329986572266
 20
-4.448999881744385
 30
260.4429931640625
 70
   192
  0
VERTEX
  5
604
  8
0
 10
215.1699981689453
 20
12.81099987030029
 30
257.9280090332031
 70
   192
  0
VERTEX
  5
605
  8
0
 10
215.1699981689453
 20
-12.81099987030029
 30
257.9280090332031
 70
   192
  0
VERTEX
  5
606
  8
0
 10
207.5809936523438
 20
-8.362000465393066
 30
256.5899963378906
 70
   192
  0
VERTEX
  5
607
  8
0
 10
204.5839996337891
 20
0.0
 30
256.06201171875
 70
   192
  0
VERTEX
  5
608
  8
0
 10
223.8000030517578
 20
11.26500034332275
 30
259.4500122070312
 70
   192
  0
VERTEX
  5
609
  8
0
 10
223.8000030517578
 20
-11.26500034332275
 30
259.4500122070312
 70
   192
  0
VERTEX
  5
60A
  8
0
 62
     9
 10
0.0
 20
0.0
 30
0.0
 70
   128
 71
     3
 72
     2
 73
     1
  0
VERTEX
  5
60B
  8
0
 62
     9
 10
0.0
 20
0.0
 30
0.0
 70
   128
 71
     4
 72
     1
 73
     2
  0
VERTEX
  5
60C
  8
0
 62
     9
 10
0.0
 20
0.0
 30
0.0
 70
   128
 71
     7
 72
     6
 73
     5
  0
VERTEX
  5
60D
  8
0
 62
     9
 10
0.0
 20
0.0
 30
0.0
 70
   128
 71
     2
 72
     8
 73
     4
  0
VERTEX
  5
60E
  8
0
 62
     9
 10
0.0
 20
0.0
 30
0.0
 70
   128
 71
     5
 72
     9
 73
     1
  0
VERTEX
  5
60F
  8
0
 62
     9
 10
0.0
 20
0.0
 30
0.0
 70
   128
 71
     5
 72
     1
 73
     7
  0
VERTEX
  5
610
  8
0
 62
     9
 10
0.0
 20
0.0
 30
0.0
 70
   128
 71
     1
 72
     9
 73
     3
  0
SEQEND
  5
611
  8
0
 62
     9
  0
ENDBLK
  5
614
  8
0
  0
BLOCK
  8
0
  2
E3_NODE_30_
 70
     0
 10
0.0
 20
0.0
 30
0.0
  3
E3_NODE_30_
  1

  0
POLYLINE
  5
616
  8
0
 62
     9
 66
     1
 10
0.0
 20
0.0
 30
0.0
 70
    64
 71
     6
 72
     4
  0
VERTEX
  5
617
  8
0
 10
217.3079986572266
 20
12.12399959564209
 30
299.125
 70
   192
  0
VERTEX
  5
618
  8
0
 10
224.2010040283203
 20
0.0
 30
300.3410034179688
 70
   192
  0
VERTEX
  5
619
  8
0
 10
217.3079986572266
 20
-12.12399959564209
 30
299.125
 70
   192
  0
VERTEX
  5
61A
  8
0
 10
203.5200042724609
 20
-12.12399959564209
 30
296.6940002441406
 70
   192
  0
VERTEX
  5
61B
  8
0
 10
196.6269989013672
 20
0.0
 30
295.47900390625
 70
   192
  0
VERTEX
  5
61C
  8
0
 10
203.5200042724609
 20
12.12399959564209
 30
296.6940002441406
 70
   192
  0
VERTEX
  5
61D
  8
0
 62
     9
 10
0.0
 20
0.0
 30
0.0
 70
   128
 71
     3
 72
     2
 73
     1
  0
VERTEX
  5
61E
  8
0
 62
     9
 10
0.0
 20
0.0
 30
0.0
 70
   128
 71
     5
 72
     4
 73
     1
  0
VERTEX
  5
61F
  8
0
 62
     9
 10
0.0
 20
0.0
 30
0.0
 70
   128
 71
     1
 72
     6
 73
     5
  0
VERTEX
  5
620
  8
0
 62
     9
 10
0.0
 20
0.0
 30
0.0
 70
   128
 71
     1
 72
     4
 73
     3
  0
SEQEND
  5
621
  8
0
 62
     9
  0
ENDBLK
  5
624
  8
0
  0
BLOCK
  8
0
  2
E3_NODE_31_
 70
     0
 10
0.0
 20
0.0
 30
0.0
  3
E3_NODE_31_
  1

  0
POLYLINE
  5
626
  8
0
 62
     9
 66
     1
 10
0.0
 20
0.0
 30
0.0
 70
    64
 71
    37
 72
    37
  0
VERTEX
  5
627
  8
0
 10
203.5200042724609
 20
-12.12399959564209
 30
296.6940002441406
 70
   192
  0
VERTEX
  5
628
  8
0
 10
196.7550048828125
 20
-11.30399990081787
 30
319.7430114746094
 70
   192
  0
VERTEX
  5
629
  8
0
 10
193.3130035400391
 20
-7.025000095367432
 30
319.2260131835938
 70
   192
  0
VERTEX
  5
62A
  8
0
 10
196.6269989013672
 20
0.0
 30
295.47900390625
 70
   192
  0
VERTEX
  5
62B
  8
0
 10
191.6840057373047
 20
-1.86300003528595
 30
318.9920043945312
 70
   192
  0
VERTEX
  5
62C
  8
0
 10
191.6499938964844
 20
-1.312000036239624
 30
318.9869995117188
 70
   192
  0
VERTEX
  5
62D
  8
0
 10
199.0659942626953
 20
-12.67300033569336
 30
320.1050109863281
 70
   192
  0
VERTEX
  5
62E
  8
0
 10
196.8470001220703
 20
-11.41800022125244
 30
319.7569885253906
 70
   192
  0
VERTEX
  5
62F
  8
0
 10
203.5200042724609
 20
12.12399959564209
 30
296.6940002441406
 70
   192
  0
VERTEX
  5
630
  8
0
 10
195.0509948730469
 20
9.425999641418457
 30
319.4849853515625
 70
   192
  0
VERTEX
  5
631
  8
0
 10
195.4040069580078
 20
10.01700019836426
 30
319.5369873046875
 70
   192
  0
VERTEX
  5
632
  8
0
 10
192.4440002441406
 20
5.054999828338623
 30
319.1000061035156
 70
   192
  0
VERTEX
  5
633
  8
0
 10
191.5679931640625
 20
0.0
 30
318.9750061035156
 70
   192
  0
VERTEX
  5
634
  8
0
 10
217.3079986572266
 20
12.12399959564209
 30
299.125
 70
   192
  0
VERTEX
  5
635
  8
0
 10
205.6210021972656
 20
14.875
 30
321.1489868164062
 70
   192
  0
VERTEX
  5
636
  8
0
 10
210.3739929199219
 20
14.30399990081787
 30
321.9280090332031
 70
   192
  0
VERTEX
  5
637
  8
0
 10
204.7100067138672
 20
14.63799953460693
 30
321.0029907226562
 70
   192
  0
VERTEX
  5
638
  8
0
 10
199.0330047607422
 20
12.77600002288818
 30
320.0979919433594
 70
   192
  0
VERTEX
  5
639
  8
0
 10
199.8139953613281
 20
13.36900043487549
 30
320.218994140625
 70
   192
  0
VERTEX
  5
63A
  8
0
 10
224.2010040283203
 20
0.0
 30
300.3410034179688
 70
   192
  0
VERTEX
  5
63B
  8
0
 10
220.8840026855469
 20
1.324000000953674
 30
323.6809997558594
 70
   192
  0
VERTEX
  5
63C
  8
0
 10
220.9389953613281
 20
1.128999948501587
 30
323.6900024414062
 70
   192
  0
VERTEX
  5
63D
  8
0
 10
215.5980072021484
 20
11.52099990844727
 30
322.7950134277344
 70
   192
  0
VERTEX
  5
63E
  8
0
 10
219.3190002441406
 20
6.88100004196167
 30
323.4179992675781
 70
   192
  0
VERTEX
  5
63F
  8
0
 10
215.5030059814453
 20
11.57199954986572
 30
322.7789916992188
 70
   192
  0
VERTEX
  5
640
  8
0
 10
213.5079956054688
 20
12.63399982452393
 30
322.447998046875
 70
   192
  0
VERTEX
  5
641
  8
0
 10
217.3079986572266
 20
-12.12399959564209
 30
299.125
 70
   192
  0
VERTEX
  5
642
  8
0
 10
217.2940063476562
 20
-9.664999961853027
 30
323.0780029296875
 70
   192
  0
VERTEX
  5
643
  8
0
 10
216.8919982910156
 20
-10.30900001525879
 30
323.010986328125
 70
   192
  0
VERTEX
  5
644
  8
0
 10
220.0249938964844
 20
-5.284999847412109
 30
323.5360107421875
 70
   192
  0
VERTEX
  5
645
  8
0
 10
220.1580047607422
 20
-4.551000118255615
 30
323.5589904785156
 70
   192
  0
VERTEX
  5
646
  8
0
 10
220.9810028076172
 20
0.0
 30
323.6969909667969
 70
   192
  0
VERTEX
  5
647
  8
0
 10
207.2330017089844
 20
-14.73900032043457
 30
321.4129943847656
 70
   192
  0
VERTEX
  5
648
  8
0
 10
206.5760040283203
 20
-14.88700008392334
 30
321.3049926757812
 70
   192
  0
VERTEX
  5
649
  8
0
 10
201.6260070800781
 20
-14.12199974060059
 30
320.5060119628906
 70
   192
  0
VERTEX
  5
64A
  8
0
 10
213.5189971923828
 20
-12.71599960327148
 30
322.4490051269531
 70
   192
  0
VERTEX
  5
64B
  8
0
 10
212.2899932861328
 20
-13.59200000762939
 30
322.2449951171875
 70
   192
  0
VERTEX
  5
64C
  8
0
 62
     9
 10
0.0
 20
0.0
 30
0.0
 70
   128
 71
     3
 72
     2
 73
     1
  0
VERTEX
  5
64D
  8
0
 62
     9
 10
0.0
 20
0.0
 30
0.0
 70
   128
 71
     1
 72
     4
 73
     3
  0
VERTEX
  5
64E
  8
0
 62
     9
 10
0.0
 20
0.0
 30
0.0
 70
   128
 71
     4
 72
     5
 73
     3
  0
VERTEX
  5
64F
  8
0
 62
     9
 10
0.0
 20
0.0
 30
0.0
 70
   128
 71
     4
 72
     6
 73
     5
  0
VERTEX
  5
650
  8
0
 62
     9
 10
0.0
 20
0.0
 30
0.0
 70
   128
 71
     8
 72
     7
 73
     1
  0
VERTEX
  5
651
  8
0
 62
     9
 10
0.0
 20
0.0
 30
0.0
 70
   128
 71
     1
 72
     2
 73
     8
  0
VERTEX
  5
652
  8
0
 62
     9
 10
0.0
 20
0.0
 30
0.0
 70
   128
 71
    11
 72
    10
 73
     9
  0
VERTEX
  5
653
  8
0
 62
     9
 10
0.0
 20
0.0
 30
0.0
 70
   128
 71
    10
 72
    12
 73
     4
  0
VERTEX
  5
654
  8
0
 62
     9
 10
0.0
 20
0.0
 30
0.0
 70
   128
 71
    12
 72
    13
 73
     4
  0
VERTEX
  5
655
  8
0
 62
     9
 10
0.0
 20
0.0
 30
0.0
 70
   128
 71
     4
 72
     9
 73
    10
  0
VERTEX
  5
656
  8
0
 62
     9
 10
0.0
 20
0.0
 30
0.0
 70
   128
 71
    15
 72
     9
 73
    14
  0
VERTEX
  5
657
  8
0
 62
     9
 10
0.0
 20
0.0
 30
0.0
 70
   128
 71
    14
 72
    16
 73
    15
  0
VERTEX
  5
658
  8
0
 62
     9
 10
0.0
 20
0.0
 30
0.0
 70
   128
 71
    15
 72
    17
 73
     9
  0
VERTEX
  5
659
  8
0
 62
     9
 10
0.0
 20
0.0
 30
0.0
 70
   128
 71
    19
 72
    18
 73
     9
  0
VERTEX
  5
65A
  8
0
 62
     9
 10
0.0
 20
0.0
 30
0.0
 70
   128
 71
     9
 72
    17
 73
    19
  0
VERTEX
  5
65B
  8
0
 62
     9
 10
0.0
 20
0.0
 30
0.0
 70
   128
 71
    22
 72
    21
 73
    20
  0
VERTEX
  5
65C
  8
0
 62
     9
 10
0.0
 20
0.0
 30
0.0
 70
   128
 71
    24
 72
    23
 73
    14
  0
VERTEX
  5
65D
  8
0
 62
     9
 10
0.0
 20
0.0
 30
0.0
 70
   128
 71
    14
 72
    20
 73
    24
  0
VERTEX
  5
65E
  8
0
 62
     9
 10
0.0
 20
0.0
 30
0.0
 70
   128
 71
    23
 72
    25
 73
    14
  0
VERTEX
  5
65F
  8
0
 62
     9
 10
0.0
 20
0.0
 30
0.0
 70
   128
 71
    25
 72
    26
 73
    14
  0
VERTEX
  5
660
  8
0
 62
     9
 10
0.0
 20
0.0
 30
0.0
 70
   128
 71
    20
 72
    21
 73
    24
  0
VERTEX
  5
661
  8
0
 62
     9
 10
0.0
 20
0.0
 30
0.0
 70
   128
 71
    29
 72
    28
 73
    27
  0
VERTEX
  5
662
  8
0
 62
     9
 10
0.0
 20
0.0
 30
0.0
 70
   128
 71
    30
 72
    20
 73
    27
  0
VERTEX
  5
663
  8
0
 62
     9
 10
0.0
 20
0.0
 30
0.0
 70
   128
 71
    30
 72
    31
 73
    20
  0
VERTEX
  5
664
  8
0
 62
     9
 10
0.0
 20
0.0
 30
0.0
 70
   128
 71
    27
 72
    28
 73
    30
  0
VERTEX
  5
665
  8
0
 62
     9
 10
0.0
 20
0.0
 30
0.0
 70
   128
 71
    31
 72
    32
 73
    20
  0
VERTEX
  5
666
  8
0
 62
     9
 10
0.0
 20
0.0
 30
0.0
 70
   128
 71
    34
 72
    33
 73
    27
  0
VERTEX
  5
667
  8
0
 62
     9
 10
0.0
 20
0.0
 30
0.0
 70
   128
 71
    27
 72
     1
 73
    34
  0
VERTEX
  5
668
  8
0
 62
     9
 10
0.0
 20
0.0
 30
0.0
 70
   128
 71
     1
 72
    35
 73
    34
  0
VERTEX
  5
669
  8
0
 62
     9
 10
0.0
 20
0.0
 30
0.0
 70
   128
 71
    37
 72
    36
 73
    27
  0
VERTEX
  5
66A
  8
0
 62
     9
 10
0.0
 20
0.0
 30
0.0
 70
   128
 71
    27
 72
    33
 73
    37
  0
VERTEX
  5
66B
  8
0
 62
     9
 10
0.0
 20
0.0
 30
0.0
 70
   128
 71
     1
 72
     7
 73
    35
  0
VERTEX
  5
66C
  8
0
 62
     9
 10
0.0
 20
0.0
 30
0.0
 70
   128
 71
    27
 72
    36
 73
    29
  0
VERTEX
  5
66D
  8
0
 62
     9
 10
0.0
 20
0.0
 30
0.0
 70
   128
 71
    20
 72
    32
 73
    22
  0
VERTEX
  5
66E
  8
0
 62
     9
 10
0.0
 20
0.0
 30
0.0
 70
   128
 71
    14
 72
    26
 73
    16
  0
VERTEX
  5
66F
  8
0
 62
     9
 10
0.0
 20
0.0
 30
0.0
 70
   128
 71
     9
 72
    18
 73
    11
  0
VERTEX
  5
670
  8
0
 62
     9
 10
0.0
 20
0.0
 30
0.0
 70
   128
 71
     4
 72
    13
 73
     6
  0
SEQEND
  5
671
  8
0
 62
     9
  0
ENDBLK
  5
674
  8
0
  0
BLOCK
  8
0
  2
E3_NODE_32_
 70
     0
 10
0.0
 20
0.0
 30
0.0
  3
E3_NODE_32_
  1

  0
POLYLINE
  5
676
  8
0
 62
     9
 66
     1
 10
0.0
 20
0.0
 30
0.0
 70
    64
 71
    47
 72
    52
  0
VERTEX
  5
677
  8
0
 10
217.3760070800781
 20
-9.718999862670898
 30
323.4179992675781
 70
   192
  0
VERTEX
  5
678
  8
0
 10
217.2940063476562
 20
-9.664999961853027
 30
323.0780029296875
 70
   192
  0
VERTEX
  5
679
  8
0
 10
220.0249938964844
 20
-5.284999847412109
 30
323.5360107421875
 70
   192
  0
VERTEX
  5
67A
  8
0
 10
220.2259979248047
 20
-4.561999797821045
 30
323.9089965820312
 70
   192
  0
VERTEX
  5
67B
  8
0
 10
210.3730010986328
 20
14.29399967193604
 30
322.218994140625
 70
   192
  0
VERTEX
  5
67C
  8
0
 10
215.4929962158203
 20
11.57400035858154
 30
323.093994140625
 70
   192
  0
VERTEX
  5
67D
  8
0
 10
213.5079956054688
 20
12.63399982452393
 30
322.447998046875
 70
   192
  0
VERTEX
  5
67E
  8
0
 10
215.5030059814453
 20
11.57199954986572
 30
322.7789916992188
 70
   192
  0
VERTEX
  5
67F
  8
0
 10
207.2680053710938
 20
-14.86100006103516
 30
321.6919860839844
 70
   192
  0
VERTEX
  5
680
  8
0
 10
207.2330017089844
 20
-14.73900032043457
 30
321.4129943847656
 70
   192
  0
VERTEX
  5
681
  8
0
 10
212.2899932861328
 20
-13.59200000762939
 30
322.2449951171875
 70
   192
  0
VERTEX
  5
682
  8
0
 10
212.8049926757812
 20
-13.32999992370605
 30
322.6340026855469
 70
   192
  0
VERTEX
  5
683
  8
0
 10
213.5189971923828
 20
-12.71599960327148
 30
322.4490051269531
 70
   192
  0
VERTEX
  5
684
  8
0
 10
216.8919982910156
 20
-10.30900001525879
 30
323.010986328125
 70
   192
  0
VERTEX
  5
685
  8
0
 10
201.6410064697266
 20
-14.14500045776367
 30
320.7489929199219
 70
   192
  0
VERTEX
  5
686
  8
0
 10
201.6260070800781
 20
-14.12199974060059
 30
320.5060119628906
 70
   192
  0
VERTEX
  5
687
  8
0
 10
206.5760040283203
 20
-14.88700008392334
 30
321.3049926757812
 70
   192
  0
VERTEX
  5
688
  8
0
 10
220.8719940185547
 20
1.332000017166138
 30
324.0199890136719
 70
   192
  0
VERTEX
  5
689
  8
0
 10
220.8840026855469
 20
1.324000000953674
 30
323.6809997558594
 70
   192
  0
VERTEX
  5
68A
  8
0
 10
219.3190002441406
 20
6.88100004196167
 30
323.4179992675781
 70
   192
  0
VERTEX
  5
68B
  8
0
 10
215.5980072021484
 20
11.52099990844727
 30
322.7950134277344
 70
   192
  0
VERTEX
  5
68C
  8
0
 10
219.2010040283203
 20
7.015999794006348
 30
323.7319946289062
 70
   192
  0
VERTEX
  5
68D
  8
0
 10
220.1580047607422
 20
-4.551000118255615
 30
323.5589904785156
 70
   192
  0
VERTEX
  5
68E
  8
0
 10
220.9810028076172
 20
0.0
 30
323.6969909667969
 70
   192
  0
VERTEX
  5
68F
  8
0
 10
220.9389953613281
 20
1.128999948501587
 30
323.6900024414062
 70
   192
  0
VERTEX
  5
690
  8
0
 10
210.3719940185547
 20
14.28499984741211
 30
322.5069885253906
 70
   192
  0
VERTEX
  5
691
  8
0
 10
213.4010009765625
 20
12.64500045776367
 30
323.0400085449219
 70
   192
  0
VERTEX
  5
692
  8
0
 10
215.5579986572266
 20
11.47700023651123
 30
323.4190063476562
 70
   192
  0
VERTEX
  5
693
  8
0
 10
219.2409973144531
 20
6.830999851226807
 30
324.0700073242188
 70
   192
  0
VERTEX
  5
694
  8
0
 10
215.4570007324219
 20
11.5310001373291
 30
323.4010009765625
 70
   192
  0
VERTEX
  5
695
  8
0
 10
219.7409973144531
 20
5.025000095367432
 30
324.1579895019531
 70
   192
  0
VERTEX
  5
696
  8
0
 10
220.8520050048828
 20
-0.8140000104904175
 30
324.3550109863281
 70
   192
  0
VERTEX
  5
697
  8
0
 10
220.8350067138672
 20
1.080000042915344
 30
324.3519897460938
 70
   192
  0
VERTEX
  5
698
  8
0
 10
220.8739929199219
 20
0.0
 30
324.3590087890625
 70
   192
  0
VERTEX
  5
699
  8
0
 10
220.7700042724609
 20
1.315000057220459
 30
324.3399963378906
 70
   192
  0
VERTEX
  5
69A
  8
0
 10
219.5670013427734
 20
-6.146999835968018
 30
324.1270141601562
 70
   192
  0
VERTEX
  5
69B
  8
0
 10
219.8300018310547
 20
-5.057000160217285
 30
324.1740112304688
 70
   192
  0
VERTEX
  5
69C
  8
0
 10
219.9640045166016
 20
-4.498000144958496
 30
324.197998046875
 70
   192
  0
VERTEX
  5
69D
  8
0
 10
216.7350006103516
 20
-10.37199974060059
 30
323.6270141601562
 70
   192
  0
VERTEX
  5
69E
  8
0
 10
213.4429931640625
 20
-12.77099990844727
 30
323.0469970703125
 70
   192
  0
VERTEX
  5
69F
  8
0
 10
217.2359924316406
 20
-9.625
 30
323.7149963378906
 70
   192
  0
VERTEX
  5
6A0
  8
0
 10
212.5050048828125
 20
-13.45499992370605
 30
322.8810119628906
 70
   192
  0
VERTEX
  5
6A1
  8
0
 10
206.8450012207031
 20
-14.88599967956543
 30
321.8900146484375
 70
   192
  0
VERTEX
  5
6A2
  8
0
 10
203.6790008544922
 20
-14.44799995422363
 30
321.3399963378906
 70
   192
  0
VERTEX
  5
6A3
  8
0
 10
207.2570037841797
 20
-14.7819995880127
 30
321.9620056152344
 70
   192
  0
VERTEX
  5
6A4
  8
0
 10
201.6549987792969
 20
-14.16899967193604
 30
320.989013671875
 70
   192
  0
VERTEX
  5
6A5
  8
0
 10
210.3739929199219
 20
14.30399990081787
 30
321.9280090332031
 70
   192
  0
VERTEX
  5
6A6
  8
0
 62
     9
 10
0.0
 20
0.0
 30
0.0
 70
   128
 71
     3
 72
     2
 73
     1
  0
VERTEX
  5
6A7
  8
0
 62
     9
 10
0.0
 20
0.0
 30
0.0
 70
   128
 71
     1
 72
     4
 73
     3
  0
VERTEX
  5
6A8
  8
0
 62
     9
 10
0.0
 20
0.0
 30
0.0
 70
   128
 71
     7
 72
     6
 73
     5
  0
VERTEX
  5
6A9
  8
0
 62
     9
 10
0.0
 20
0.0
 30
0.0
 70
   128
 71
     7
 72
     8
 73
     6
  0
VERTEX
  5
6AA
  8
0
 62
     9
 10
0.0
 20
0.0
 30
0.0
 70
   128
 71
    11
 72
    10
 73
     9
  0
VERTEX
  5
6AB
  8
0
 62
     9
 10
0.0
 20
0.0
 30
0.0
 70
   128
 71
    13
 72
    12
 73
     1
  0
VERTEX
  5
6AC
  8
0
 62
     9
 10
0.0
 20
0.0
 30
0.0
 70
   128
 71
    13
 72
    11
 73
    12
  0
VERTEX
  5
6AD
  8
0
 62
     9
 10
0.0
 20
0.0
 30
0.0
 70
   128
 71
     1
 72
    14
 73
    13
  0
VERTEX
  5
6AE
  8
0
 62
     9
 10
0.0
 20
0.0
 30
0.0
 70
   128
 71
    17
 72
    16
 73
    15
  0
VERTEX
  5
6AF
  8
0
 62
     9
 10
0.0
 20
0.0
 30
0.0
 70
   128
 71
    15
 72
     9
 73
    17
  0
VERTEX
  5
6B0
  8
0
 62
     9
 10
0.0
 20
0.0
 30
0.0
 70
   128
 71
    20
 72
    19
 73
    18
  0
VERTEX
  5
6B1
  8
0
 62
     9
 10
0.0
 20
0.0
 30
0.0
 70
   128
 71
    22
 72
     6
 73
    21
  0
VERTEX
  5
6B2
  8
0
 62
     9
 10
0.0
 20
0.0
 30
0.0
 70
   128
 71
    21
 72
    20
 73
    22
  0
VERTEX
  5
6B3
  8
0
 62
     9
 10
0.0
 20
0.0
 30
0.0
 70
   128
 71
    24
 72
    23
 73
     4
  0
VERTEX
  5
6B4
  8
0
 62
     9
 10
0.0
 20
0.0
 30
0.0
 70
   128
 71
     4
 72
    18
 73
    24
  0
VERTEX
  5
6B5
  8
0
 62
     9
 10
0.0
 20
0.0
 30
0.0
 70
   128
 71
    18
 72
    25
 73
    24
  0
VERTEX
  5
6B6
  8
0
 62
     9
 10
0.0
 20
0.0
 30
0.0
 70
   128
 71
    27
 72
    26
 73
     5
  0
VERTEX
  5
6B7
  8
0
 62
     9
 10
0.0
 20
0.0
 30
0.0
 70
   128
 71
     5
 72
     6
 73
    27
  0
VERTEX
  5
6B8
  8
0
 62
     9
 10
0.0
 20
0.0
 30
0.0
 70
   128
 71
    22
 72
    29
 73
    28
  0
VERTEX
  5
6B9
  8
0
 62
     9
 10
0.0
 20
0.0
 30
0.0
 70
   128
 71
    28
 72
    30
 73
     6
  0
VERTEX
  5
6BA
  8
0
 62
     9
 10
0.0
 20
0.0
 30
0.0
 70
   128
 71
    31
 72
    22
 73
    18
  0
VERTEX
  5
6BB
  8
0
 62
     9
 10
0.0
 20
0.0
 30
0.0
 70
   128
 71
    31
 72
    29
 73
    22
  0
VERTEX
  5
6BC
  8
0
 62
     9
 10
0.0
 20
0.0
 30
0.0
 70
   128
 71
    32
 72
    18
 73
     4
  0
VERTEX
  5
6BD
  8
0
 62
     9
 10
0.0
 20
0.0
 30
0.0
 70
   128
 71
    34
 72
    33
 73
    18
  0
VERTEX
  5
6BE
  8
0
 62
     9
 10
0.0
 20
0.0
 30
0.0
 70
   128
 71
    18
 72
    32
 73
    34
  0
VERTEX
  5
6BF
  8
0
 62
     9
 10
0.0
 20
0.0
 30
0.0
 70
   128
 71
    33
 72
    35
 73
    18
  0
VERTEX
  5
6C0
  8
0
 62
     9
 10
0.0
 20
0.0
 30
0.0
 70
   128
 71
    36
 72
     4
 73
     1
  0
VERTEX
  5
6C1
  8
0
 62
     9
 10
0.0
 20
0.0
 30
0.0
 70
   128
 71
    36
 72
    37
 73
     4
  0
VERTEX
  5
6C2
  8
0
 62
     9
 10
0.0
 20
0.0
 30
0.0
 70
   128
 71
    37
 72
    38
 73
     4
  0
VERTEX
  5
6C3
  8
0
 62
     9
 10
0.0
 20
0.0
 30
0.0
 70
   128
 71
    40
 72
    39
 73
     1
  0
VERTEX
  5
6C4
  8
0
 62
     9
 10
0.0
 20
0.0
 30
0.0
 70
   128
 71
    39
 72
    41
 73
     1
  0
VERTEX
  5
6C5
  8
0
 62
     9
 10
0.0
 20
0.0
 30
0.0
 70
   128
 71
     1
 72
    12
 73
    40
  0
VERTEX
  5
6C6
  8
0
 62
     9
 10
0.0
 20
0.0
 30
0.0
 70
   128
 71
    42
 72
    12
 73
     9
  0
VERTEX
  5
6C7
  8
0
 62
     9
 10
0.0
 20
0.0
 30
0.0
 70
   128
 71
    44
 72
    43
 73
     9
  0
VERTEX
  5
6C8
  8
0
 62
     9
 10
0.0
 20
0.0
 30
0.0
 70
   128
 71
    43
 72
    45
 73
     9
  0
VERTEX
  5
6C9
  8
0
 62
     9
 10
0.0
 20
0.0
 30
0.0
 70
   128
 71
     9
 72
    15
 73
    44
  0
VERTEX
  5
6CA
  8
0
 62
     9
 10
0.0
 20
0.0
 30
0.0
 70
   128
 71
    15
 72
    46
 73
    44
  0
VERTEX
  5
6CB
  8
0
 62
     9
 10
0.0
 20
0.0
 30
0.0
 70
   128
 71
     9
 72
    45
 73
    42
  0
VERTEX
  5
6CC
  8
0
 62
     9
 10
0.0
 20
0.0
 30
0.0
 70
   128
 71
    12
 72
    42
 73
    40
  0
VERTEX
  5
6CD
  8
0
 62
     9
 10
0.0
 20
0.0
 30
0.0
 70
   128
 71
     1
 72
    41
 73
    36
  0
VERTEX
  5
6CE
  8
0
 62
     9
 10
0.0
 20
0.0
 30
0.0
 70
   128
 71
     4
 72
    38
 73
    32
  0
VERTEX
  5
6CF
  8
0
 62
     9
 10
0.0
 20
0.0
 30
0.0
 70
   128
 71
    18
 72
    35
 73
    31
  0
VERTEX
  5
6D0
  8
0
 62
     9
 10
0.0
 20
0.0
 30
0.0
 70
   128
 71
    28
 72
     6
 73
    22
  0
VERTEX
  5
6D1
  8
0
 62
     9
 10
0.0
 20
0.0
 30
0.0
 70
   128
 71
     6
 72
    30
 73
    27
  0
VERTEX
  5
6D2
  8
0
 62
     9
 10
0.0
 20
0.0
 30
0.0
 70
   128
 71
    18
 72
    19
 73
    25
  0
VERTEX
  5
6D3
  8
0
 62
     9
 10
0.0
 20
0.0
 30
0.0
 70
   128
 71
     6
 72
     8
 73
    21
  0
VERTEX
  5
6D4
  8
0
 62
     9
 10
0.0
 20
0.0
 30
0.0
 70
   128
 71
    18
 72
    22
 73
    20
  0
VERTEX
  5
6D5
  8
0
 62
     9
 10
0.0
 20
0.0
 30
0.0
 70
   128
 71
     9
 72
    10
 73
    17
  0
VERTEX
  5
6D6
  8
0
 62
     9
 10
0.0
 20
0.0
 30
0.0
 70
   128
 71
     1
 72
     2
 73
    14
  0
VERTEX
  5
6D7
  8
0
 62
     9
 10
0.0
 20
0.0
 30
0.0
 70
   128
 71
     9
 72
    12
 73
    11
  0
VERTEX
  5
6D8
  8
0
 62
     9
 10
0.0
 20
0.0
 30
0.0
 70
   128
 71
     5
 72
    47
 73
     7
  0
VERTEX
  5
6D9
  8
0
 62
     9
 10
0.0
 20
0.0
 30
0.0
 70
   128
 71
     4
 72
    23
 73
     3
  0
SEQEND
  5
6DA
  8
0
 62
     9
  0
ENDBLK
  5
6DD
  8
0
  0
BLOCK
  8
0
  2
E3_NODE_33_
 70
     0
 10
0.0
 20
0.0
 30
0.0
  3
E3_NODE_33_
  1

  0
POLYLINE
  5
6DF
  8
0
 62
     9
 66
     1
 10
0.0
 20
0.0
 30
0.0
 70
    64
 71
    44
 72
    49
  0
VERTEX
  5
6E0
  8
0
 10
194.9440002441406
 20
9.531000137329102
 30
319.6589965820312
 70
   192
  0
VERTEX
  5
6E1
  8
0
 10
195.0509948730469
 20
9.425999641418457
 30
319.4849853515625
 70
   192
  0
VERTEX
  5
6E2
  8
0
 10
192.4440002441406
 20
5.054999828338623
 30
319.1000061035156
 70
   192
  0
VERTEX
  5
6E3
  8
0
 10
196.7369995117188
 20
-11.36200046539307
 30
319.9460144042969
 70
   192
  0
VERTEX
  5
6E4
  8
0
 10
196.8470001220703
 20
-11.41800022125244
 30
319.7569885253906
 70
   192
  0
VERTEX
  5
6E5
  8
0
 10
199.0659942626953
 20
-12.67300033569336
 30
320.1050109863281
 70
   192
  0
VERTEX
  5
6E6
  8
0
 10
201.6410064697266
 20
-14.14500045776367
 30
320.7489929199219
 70
   192
  0
VERTEX
  5
6E7
  8
0
 10
196.7550048828125
 20
-11.30399990081787
 30
319.7430114746094
 70
   192
  0
VERTEX
  5
6E8
  8
0
 10
204.6829986572266
 20
14.8129997253418
 30
321.2569885253906
 70
   192
  0
VERTEX
  5
6E9
  8
0
 10
204.7100067138672
 20
14.63799953460693
 30
321.0029907226562
 70
   192
  0
VERTEX
  5
6EA
  8
0
 10
199.8139953613281
 20
13.36900043487549
 30
320.218994140625
 70
   192
  0
VERTEX
  5
6EB
  8
0
 10
199.2899932861328
 20
13.12399959564209
 30
320.3609924316406
 70
   192
  0
VERTEX
  5
6EC
  8
0
 10
199.0330047607422
 20
12.77600002288818
 30
320.0979919433594
 70
   192
  0
VERTEX
  5
6ED
  8
0
 10
195.4040069580078
 20
10.01700019836426
 30
319.5369873046875
 70
   192
  0
VERTEX
  5
6EE
  8
0
 10
210.3730010986328
 20
14.29399967193604
 30
322.218994140625
 70
   192
  0
VERTEX
  5
6EF
  8
0
 10
210.3739929199219
 20
14.30399990081787
 30
321.9280090332031
 70
   192
  0
VERTEX
  5
6F0
  8
0
 10
205.6210021972656
 20
14.875
 30
321.1489868164062
 70
   192
  0
VERTEX
  5
6F1
  8
0
 10
193.2140045166016
 20
-6.906000137329102
 30
319.3880004882812
 70
   192
  0
VERTEX
  5
6F2
  8
0
 10
191.5930023193359
 20
-1.322000026702881
 30
319.1400146484375
 70
   192
  0
VERTEX
  5
6F3
  8
0
 10
191.6840057373047
 20
-1.86300003528595
 30
318.9920043945312
 70
   192
  0
VERTEX
  5
6F4
  8
0
 10
191.6499938964844
 20
-1.312000036239624
 30
318.9869995117188
 70
   192
  0
VERTEX
  5
6F5
  8
0
 10
193.3130035400391
 20
-7.025000095367432
 30
319.2260131835938
 70
   192
  0
VERTEX
  5
6F6
  8
0
 10
192.2230072021484
 20
4.498000144958496
 30
319.2349853515625
 70
   192
  0
VERTEX
  5
6F7
  8
0
 10
191.5679931640625
 20
0.0
 30
318.9750061035156
 70
   192
  0
VERTEX
  5
6F8
  8
0
 10
201.6549987792969
 20
-14.16899967193604
 30
320.989013671875
 70
   192
  0
VERTEX
  5
6F9
  8
0
 10
196.7839965820312
 20
-11.32699966430664
 30
320.1579895019531
 70
   192
  0
VERTEX
  5
6FA
  8
0
 10
195.1710052490234
 20
-9.409000396728516
 30
319.8880004882812
 70
   192
  0
VERTEX
  5
6FB
  8
0
 10
196.4080047607422
 20
-11.10700035095215
 30
320.093994140625
 70
   192
  0
VERTEX
  5
6FC
  8
0
 10
192.8509979248047
 20
-6.22599983215332
 30
319.5029907226562
 70
   192
  0
VERTEX
  5
6FD
  8
0
 10
193.3110046386719
 20
-6.857999801635742
 30
319.5790100097656
 70
   192
  0
VERTEX
  5
6FE
  8
0
 10
191.5050048828125
 20
0.0
 30
319.2850036621094
 70
   192
  0
VERTEX
  5
6FF
  8
0
 10
191.7200012207031
 20
-1.292999982833862
 30
319.3200073242188
 70
   192
  0
VERTEX
  5
700
  8
0
 10
191.5099945068359
 20
-0.3770000040531158
 30
319.2860107421875
 70
   192
  0
VERTEX
  5
701
  8
0
 10
192.4250030517578
 20
5.184999942779541
 30
319.4330139160156
 70
   192
  0
VERTEX
  5
702
  8
0
 10
192.3040008544922
 20
4.505000114440918
 30
319.4140014648438
 70
   192
  0
VERTEX
  5
703
  8
0
 10
195.4819946289062
 20
10.1899995803833
 30
319.93798828125
 70
   192
  0
VERTEX
  5
704
  8
0
 10
195.0630035400391
 20
9.503999710083008
 30
319.8689880371094
 70
   192
  0
VERTEX
  5
705
  8
0
 10
195.0590057373047
 20
9.496999740600586
 30
319.8689880371094
 70
   192
  0
VERTEX
  5
706
  8
0
 10
199.677001953125
 20
13.35000038146973
 30
320.6489868164062
 70
   192
  0
VERTEX
  5
707
  8
0
 10
203.7120056152344
 20
14.43000030517578
 30
321.3460083007812
 70
   192
  0
VERTEX
  5
708
  8
0
 10
205.3800048828125
 20
14.8769998550415
 30
321.6340026855469
 70
   192
  0
VERTEX
  5
709
  8
0
 10
204.7270050048828
 20
14.70199966430664
 30
321.52099609375
 70
   192
  0
VERTEX
  5
70A
  8
0
 10
210.3719940185547
 20
14.28499984741211
 30
322.5069885253906
 70
   192
  0
VERTEX
  5
70B
  8
0
 10
201.6260070800781
 20
-14.12199974060059
 30
320.5060119628906
 70
   192
  0
VERTEX
  5
70C
  8
0
 62
     9
 10
0.0
 20
0.0
 30
0.0
 70
   128
 71
     3
 72
     2
 73
     1
  0
VERTEX
  5
70D
  8
0
 62
     9
 10
0.0
 20
0.0
 30
0.0
 70
   128
 71
     6
 72
     5
 73
     4
  0
VERTEX
  5
70E
  8
0
 62
     9
 10
0.0
 20
0.0
 30
0.0
 70
   128
 71
     4
 72
     7
 73
     6
  0
VERTEX
  5
70F
  8
0
 62
     9
 10
0.0
 20
0.0
 30
0.0
 70
   128
 71
     5
 72
     8
 73
     4
  0
VERTEX
  5
710
  8
0
 62
     9
 10
0.0
 20
0.0
 30
0.0
 70
   128
 71
    11
 72
    10
 73
     9
  0
VERTEX
  5
711
  8
0
 62
     9
 10
0.0
 20
0.0
 30
0.0
 70
   128
 71
    14
 72
    13
 73
    12
  0
VERTEX
  5
712
  8
0
 62
     9
 10
0.0
 20
0.0
 30
0.0
 70
   128
 71
    13
 72
    11
 73
    12
  0
VERTEX
  5
713
  8
0
 62
     9
 10
0.0
 20
0.0
 30
0.0
 70
   128
 71
    12
 72
     1
 73
    14
  0
VERTEX
  5
714
  8
0
 62
     9
 10
0.0
 20
0.0
 30
0.0
 70
   128
 71
    17
 72
    16
 73
    15
  0
VERTEX
  5
715
  8
0
 62
     9
 10
0.0
 20
0.0
 30
0.0
 70
   128
 71
    15
 72
     9
 73
    17
  0
VERTEX
  5
716
  8
0
 62
     9
 10
0.0
 20
0.0
 30
0.0
 70
   128
 71
    20
 72
    19
 73
    18
  0
VERTEX
  5
717
  8
0
 62
     9
 10
0.0
 20
0.0
 30
0.0
 70
   128
 71
    20
 72
    21
 73
    19
  0
VERTEX
  5
718
  8
0
 62
     9
 10
0.0
 20
0.0
 30
0.0
 70
   128
 71
    22
 72
    18
 73
     4
  0
VERTEX
  5
719
  8
0
 62
     9
 10
0.0
 20
0.0
 30
0.0
 70
   128
 71
    24
 72
     3
 73
    23
  0
VERTEX
  5
71A
  8
0
 62
     9
 10
0.0
 20
0.0
 30
0.0
 70
   128
 71
    23
 72
    19
 73
    24
  0
VERTEX
  5
71B
  8
0
 62
     9
 10
0.0
 20
0.0
 30
0.0
 70
   128
 71
    26
 72
    25
 73
     7
  0
VERTEX
  5
71C
  8
0
 62
     9
 10
0.0
 20
0.0
 30
0.0
 70
   128
 71
    27
 72
     4
 73
    18
  0
VERTEX
  5
71D
  8
0
 62
     9
 10
0.0
 20
0.0
 30
0.0
 70
   128
 71
    28
 72
    26
 73
     4
  0
VERTEX
  5
71E
  8
0
 62
     9
 10
0.0
 20
0.0
 30
0.0
 70
   128
 71
     4
 72
    27
 73
    28
  0
VERTEX
  5
71F
  8
0
 62
     9
 10
0.0
 20
0.0
 30
0.0
 70
   128
 71
    29
 72
    18
 73
    19
  0
VERTEX
  5
720
  8
0
 62
     9
 10
0.0
 20
0.0
 30
0.0
 70
   128
 71
    29
 72
    30
 73
    18
  0
VERTEX
  5
721
  8
0
 62
     9
 10
0.0
 20
0.0
 30
0.0
 70
   128
 71
    31
 72
    19
 73
    23
  0
VERTEX
  5
722
  8
0
 62
     9
 10
0.0
 20
0.0
 30
0.0
 70
   128
 71
    33
 72
    32
 73
    19
  0
VERTEX
  5
723
  8
0
 62
     9
 10
0.0
 20
0.0
 30
0.0
 70
   128
 71
    19
 72
    31
 73
    33
  0
VERTEX
  5
724
  8
0
 62
     9
 10
0.0
 20
0.0
 30
0.0
 70
   128
 71
    34
 72
    23
 73
     1
  0
VERTEX
  5
725
  8
0
 62
     9
 10
0.0
 20
0.0
 30
0.0
 70
   128
 71
    34
 72
    35
 73
    23
  0
VERTEX
  5
726
  8
0
 62
     9
 10
0.0
 20
0.0
 30
0.0
 70
   128
 71
    36
 72
     1
 73
    12
  0
VERTEX
  5
727
  8
0
 62
     9
 10
0.0
 20
0.0
 30
0.0
 70
   128
 71
    36
 72
    37
 73
     1
  0
VERTEX
  5
728
  8
0
 62
     9
 10
0.0
 20
0.0
 30
0.0
 70
   128
 71
    37
 72
    38
 73
     1
  0
VERTEX
  5
729
  8
0
 62
     9
 10
0.0
 20
0.0
 30
0.0
 70
   128
 71
    40
 72
    39
 73
    12
  0
VERTEX
  5
72A
  8
0
 62
     9
 10
0.0
 20
0.0
 30
0.0
 70
   128
 71
    12
 72
     9
 73
    40
  0
VERTEX
  5
72B
  8
0
 62
     9
 10
0.0
 20
0.0
 30
0.0
 70
   128
 71
    41
 72
     9
 73
    15
  0
VERTEX
  5
72C
  8
0
 62
     9
 10
0.0
 20
0.0
 30
0.0
 70
   128
 71
    41
 72
    42
 73
     9
  0
VERTEX
  5
72D
  8
0
 62
     9
 10
0.0
 20
0.0
 30
0.0
 70
   128
 71
    15
 72
    43
 73
    41
  0
VERTEX
  5
72E
  8
0
 62
     9
 10
0.0
 20
0.0
 30
0.0
 70
   128
 71
     9
 72
    42
 73
    40
  0
VERTEX
  5
72F
  8
0
 62
     9
 10
0.0
 20
0.0
 30
0.0
 70
   128
 71
    12
 72
    39
 73
    36
  0
VERTEX
  5
730
  8
0
 62
     9
 10
0.0
 20
0.0
 30
0.0
 70
   128
 71
     1
 72
    38
 73
    34
  0
VERTEX
  5
731
  8
0
 62
     9
 10
0.0
 20
0.0
 30
0.0
 70
   128
 71
    23
 72
    35
 73
    31
  0
VERTEX
  5
732
  8
0
 62
     9
 10
0.0
 20
0.0
 30
0.0
 70
   128
 71
    19
 72
    32
 73
    29
  0
VERTEX
  5
733
  8
0
 62
     9
 10
0.0
 20
0.0
 30
0.0
 70
   128
 71
    18
 72
    30
 73
    27
  0
VERTEX
  5
734
  8
0
 62
     9
 10
0.0
 20
0.0
 30
0.0
 70
   128
 71
     7
 72
     4
 73
    26
  0
VERTEX
  5
735
  8
0
 62
     9
 10
0.0
 20
0.0
 30
0.0
 70
   128
 71
    19
 72
    21
 73
    24
  0
VERTEX
  5
736
  8
0
 62
     9
 10
0.0
 20
0.0
 30
0.0
 70
   128
 71
     4
 72
     8
 73
    22
  0
VERTEX
  5
737
  8
0
 62
     9
 10
0.0
 20
0.0
 30
0.0
 70
   128
 71
    18
 72
    22
 73
    20
  0
VERTEX
  5
738
  8
0
 62
     9
 10
0.0
 20
0.0
 30
0.0
 70
   128
 71
     9
 72
    10
 73
    17
  0
VERTEX
  5
739
  8
0
 62
     9
 10
0.0
 20
0.0
 30
0.0
 70
   128
 71
     1
 72
     2
 73
    14
  0
VERTEX
  5
73A
  8
0
 62
     9
 10
0.0
 20
0.0
 30
0.0
 70
   128
 71
     9
 72
    12
 73
    11
  0
VERTEX
  5
73B
  8
0
 62
     9
 10
0.0
 20
0.0
 30
0.0
 70
   128
 71
     7
 72
    44
 73
     6
  0
VERTEX
  5
73C
  8
0
 62
     9
 10
0.0
 20
0.0
 30
0.0
 70
   128
 71
     1
 72
    23
 73
     3
  0
SEQEND
  5
73D
  8
0
 62
     9
  0
ENDBLK
  5
740
  8
0
  0
BLOCK
  8
0
  2
E3_NODE_34_
 70
     0
 10
0.0
 20
0.0
 30
0.0
  3
E3_NODE_34_
  1

  0
POLYLINE
  5
742
  8
0
 62
     9
 66
     1
 10
0.0
 20
0.0
 30
0.0
 70
    64
 71
   161
 72
   269
  0
VERTEX
  5
743
  8
0
 10
15.37199974060059
 20
0.0
 30
311.6589965820312
 70
   192
  0
VERTEX
  5
744
  8
0
 10
20.44499969482422
 20
0.0
 30
333.4419860839844
 70
   192
  0
VERTEX
  5
745
  8
0
 10
17.17600059509277
 20
-9.57800006866455
 30
334.6520080566406
 70
   192
  0
VERTEX
  5
746
  8
0
 10
30.78300094604492
 20
0.0
 30
353.2749938964844
 70
   192
  0
VERTEX
  5
747
  8
0
 10
27.91799926757812
 20
-9.57800006866455
 30
355.260986328125
 70
   192
  0
VERTEX
  5
748
  8
0
 10
45.73400115966797
 20
0.0
 30
369.9089965820312
 70
   192
  0
VERTEX
  5
749
  8
0
 10
43.45399856567383
 20
-9.57800006866455
 30
372.5459899902344
 70
   192
  0
VERTEX
  5
74A
  8
0
 10
64.35700225830078
 20
0.0
 30
382.2959899902344
 70
   192
  0
VERTEX
  5
74B
  8
0
 10
62.80599975585938
 20
-9.57800006866455
 30
385.4179992675781
 70
   192
  0
VERTEX
  5
74C
  8
0
 10
85.47699737548828
 20
0.0
 30
389.6539916992188
 70
   192
  0
VERTEX
  5
74D
  8
0
 10
84.75299835205078
 20
-9.57800006866455
 30
393.0639953613281
 70
   192
  0
VERTEX
  5
74E
  8
0
 10
107.7649993896484
 20
0.0
 30
391.52099609375
 70
   192
  0
VERTEX
  5
74F
  8
0
 10
107.9120025634766
 20
-9.57800006866455
 30
395.0039978027344
 70
   192
  0
VERTEX
  5
750
  8
0
 10
129.8159942626953
 20
0.0
 30
387.7789916992188
 70
   192
  0
VERTEX
  5
751
  8
0
 10
130.8260040283203
 20
-9.57800006866455
 30
391.114990234375
 70
   192
  0
VERTEX
  5
752
  8
0
 10
150.2400054931641
 20
0.0
 30
378.6629943847656
 70
   192
  0
VERTEX
  5
753
  8
0
 10
152.0489959716797
 20
-9.57800006866455
 30
381.6430053710938
 70
   192
  0
VERTEX
  5
754
  8
0
 10
167.75
 20
0.0
 30
364.7479858398438
 70
   192
  0
VERTEX
  5
755
  8
0
 10
170.2440032958984
 20
-9.57800006866455
 30
367.1839904785156
 70
   192
  0
VERTEX
  5
756
  8
0
 10
181.2429962158203
 20
0.0
 30
346.9110107421875
 70
   192
  0
VERTEX
  5
757
  8
0
 10
184.2649993896484
 20
-9.57800006866455
 30
348.6489868164062
 70
   192
  0
VERTEX
  5
758
  8
0
 10
189.8690032958984
 20
0.0
 30
326.2760009765625
 70
   192
  0
VERTEX
  5
759
  8
0
 10
193.22900390625
 20
-9.57800006866455
 30
327.2059936523438
 70
   192
  0
VERTEX
  5
75A
  8
0
 10
11.9040002822876
 20
-9.57800006866455
 30
312.0169982910156
 70
   192
  0
VERTEX
  5
75B
  8
0
 10
8.89799976348877
 20
-14.67399978637695
 30
337.7170104980469
 70
   192
  0
VERTEX
  5
75C
  8
0
 10
20.66500091552734
 20
-14.67399978637695
 30
360.2909851074219
 70
   192
  0
VERTEX
  5
75D
  8
0
 10
37.68199920654297
 20
-14.67399978637695
 30
379.2239990234375
 70
   192
  0
VERTEX
  5
75E
  8
0
 10
58.87799835205078
 20
-14.67399978637695
 30
393.3219909667969
 70
   192
  0
VERTEX
  5
75F
  8
0
 10
82.91799926757812
 20
-14.67399978637695
 30
401.697998046875
 70
   192
  0
VERTEX
  5
760
  8
0
 10
108.2850036621094
 20
-14.67399978637695
 30
403.822998046875
 70
   192
  0
VERTEX
  5
761
  8
0
 10
133.3829956054688
 20
-14.67399978637695
 30
399.56298828125
 70
   192
  0
VERTEX
  5
762
  8
0
 10
156.6289978027344
 20
-14.67399978637695
 30
389.18798828125
 70
   192
  0
VERTEX
  5
763
  8
0
 10
176.5590057373047
 20
-14.67399978637695
 30
373.3500061035156
 70
   192
  0
VERTEX
  5
764
  8
0
 10
191.9170074462891
 20
-14.67399978637695
 30
353.0480041503906
 70
   192
  0
VERTEX
  5
765
  8
0
 10
201.7359924316406
 20
-14.67399978637695
 30
329.5610046386719
 70
   192
  0
VERTEX
  5
766
  8
0
 10
3.124000072479248
 20
-14.67399978637695
 30
312.9240112304688
 70
   192
  0
VERTEX
  5
767
  8
0
 10
-0.5139999985694885
 20
-12.9040002822876
 30
341.2030029296875
 70
   192
  0
VERTEX
  5
768
  8
0
 10
12.41699981689453
 20
-12.9040002822876
 30
366.010986328125
 70
   192
  0
VERTEX
  5
769
  8
0
 10
31.11800003051758
 20
-12.9040002822876
 30
386.8179931640625
 70
   192
  0
VERTEX
  5
76A
  8
0
 10
54.4119987487793
 20
-12.9040002822876
 30
402.3110046386719
 70
   192
  0
VERTEX
  5
76B
  8
0
 10
80.83100128173828
 20
-12.9040002822876
 30
411.5159912109375
 70
   192
  0
VERTEX
  5
76C
  8
0
 10
108.7099990844727
 20
-12.9040002822876
 30
413.8510131835938
 70
   192
  0
VERTEX
  5
76D
  8
0
 10
136.2910003662109
 20
-12.9040002822876
 30
409.1700134277344
 70
   192
  0
VERTEX
  5
76E
  8
0
 10
161.8379974365234
 20
-12.9040002822876
 30
397.7680053710938
 70
   192
  0
VERTEX
  5
76F
  8
0
 10
183.7409973144531
 20
-12.9040002822876
 30
380.3630065917969
 70
   192
  0
VERTEX
  5
770
  8
0
 10
200.6190032958984
 20
-12.9040002822876
 30
358.0509948730469
 70
   192
  0
VERTEX
  5
771
  8
0
 10
211.4089965820312
 20
-12.9040002822876
 30
332.239990234375
 70
   192
  0
VERTEX
  5
772
  8
0
 10
-6.860000133514404
 20
-12.9040002822876
 30
313.9559936523438
 70
   192
  0
VERTEX
  5
773
  8
0
 10
-6.657999992370605
 20
-5.096000194549561
 30
343.4779968261719
 70
   192
  0
VERTEX
  5
774
  8
0
 10
7.032999992370605
 20
-5.096000194549561
 30
369.7449951171875
 70
   192
  0
VERTEX
  5
775
  8
0
 10
26.83399963378906
 20
-5.096000194549561
 30
391.7739868164062
 70
   192
  0
VERTEX
  5
776
  8
0
 10
51.49700164794922
 20
-5.096000194549561
 30
408.1789855957031
 70
   192
  0
VERTEX
  5
777
  8
0
 10
79.46900177001953
 20
-5.096000194549561
 30
417.9240112304688
 70
   192
  0
VERTEX
  5
778
  8
0
 10
108.9860000610352
 20
-5.096000194549561
 30
420.3970031738281
 70
   192
  0
VERTEX
  5
779
  8
0
 10
138.1900024414062
 20
-5.096000194549561
 30
415.4410095214844
 70
   192
  0
VERTEX
  5
77A
  8
0
 10
165.2380065917969
 20
-5.096000194549561
 30
403.3680114746094
 70
   192
  0
VERTEX
  5
77B
  8
0
 10
188.4290008544922
 20
-5.096000194549561
 30
384.9400024414062
 70
   192
  0
VERTEX
  5
77C
  8
0
 10
206.2989959716797
 20
-5.096000194549561
 30
361.3169860839844
 70
   192
  0
VERTEX
  5
77D
  8
0
 10
217.7230072021484
 20
-5.096000194549561
 30
333.9880065917969
 70
   192
  0
VERTEX
  5
77E
  8
0
 10
-13.3769998550415
 20
-5.096000194549561
 30
314.6289978027344
 70
   192
  0
VERTEX
  5
77F
  8
0
 10
-6.657999992370605
 20
5.096000194549561
 30
343.4779968261719
 70
   192
  0
VERTEX
  5
780
  8
0
 10
7.032999992370605
 20
5.096000194549561
 30
369.7449951171875
 70
   192
  0
VERTEX
  5
781
  8
0
 10
26.83399963378906
 20
5.096000194549561
 30
391.7739868164062
 70
   192
  0
VERTEX
  5
782
  8
0
 10
51.49700164794922
 20
5.096000194549561
 30
408.1789855957031
 70
   192
  0
VERTEX
  5
783
  8
0
 10
79.46900177001953
 20
5.096000194549561
 30
417.9240112304688
 70
   192
  0
VERTEX
  5
784
  8
0
 10
108.9860000610352
 20
5.096000194549561
 30
420.3970031738281
 70
   192
  0
VERTEX
  5
785
  8
0
 10
138.1900024414062
 20
5.096000194549561
 30
415.4410095214844
 70
   192
  0
VERTEX
  5
786
  8
0
 10
165.2380065917969
 20
5.096000194549561
 30
403.3680114746094
 70
   192
  0
VERTEX
  5
787
  8
0
 10
188.4290008544922
 20
5.096000194549561
 30
384.9400024414062
 70
   192
  0
VERTEX
  5
788
  8
0
 10
206.2989959716797
 20
5.096000194549561
 30
361.3169860839844
 70
   192
  0
VERTEX
  5
789
  8
0
 10
217.7230072021484
 20
5.096000194549561
 30
333.9880065917969
 70
   192
  0
VERTEX
  5
78A
  8
0
 10
-13.3769998550415
 20
5.096000194549561
 30
314.6289978027344
 70
   192
  0
VERTEX
  5
78B
  8
0
 10
-0.5139999985694885
 20
12.9040002822876
 30
341.2030029296875
 70
   192
  0
VERTEX
  5
78C
  8
0
 10
12.41699981689453
 20
12.9040002822876
 30
366.010986328125
 70
   192
  0
VERTEX
  5
78D
  8
0
 10
31.11800003051758
 20
12.9040002822876
 30
386.8179931640625
 70
   192
  0
VERTEX
  5
78E
  8
0
 10
54.4119987487793
 20
12.9040002822876
 30
402.3110046386719
 70
   192
  0
VERTEX
  5
78F
  8
0
 10
80.83100128173828
 20
12.9040002822876
 30
411.5159912109375
 70
   192
  0
VERTEX
  5
790
  8
0
 10
108.7099990844727
 20
12.9040002822876
 30
413.8510131835938
 70
   192
  0
VERTEX
  5
791
  8
0
 10
136.2910003662109
 20
12.9040002822876
 30
409.1700134277344
 70
   192
  0
VERTEX
  5
792
  8
0
 10
161.8379974365234
 20
12.9040002822876
 30
397.7680053710938
 70
   192
  0
VERTEX
  5
793
  8
0
 10
183.7409973144531
 20
12.9040002822876
 30
380.3630065917969
 70
   192
  0
VERTEX
  5
794
  8
0
 10
200.6190032958984
 20
12.9040002822876
 30
358.0509948730469
 70
   192
  0
VERTEX
  5
795
  8
0
 10
211.4089965820312
 20
12.9040002822876
 30
332.239990234375
 70
   192
  0
VERTEX
  5
796
  8
0
 10
-6.860000133514404
 20
12.9040002822876
 30
313.9559936523438
 70
   192
  0
VERTEX
  5
797
  8
0
 10
8.89799976348877
 20
14.67399978637695
 30
337.7170104980469
 70
   192
  0
VERTEX
  5
798
  8
0
 10
20.66500091552734
 20
14.67399978637695
 30
360.2909851074219
 70
   192
  0
VERTEX
  5
799
  8
0
 10
37.68199920654297
 20
14.67399978637695
 30
379.2239990234375
 70
   192
  0
VERTEX
  5
79A
  8
0
 10
58.87799835205078
 20
14.67399978637695
 30
393.3219909667969
 70
   192
  0
VERTEX
  5
79B
  8
0
 10
82.91799926757812
 20
14.67399978637695
 30
401.697998046875
 70
   192
  0
VERTEX
  5
79C
  8
0
 10
108.2850036621094
 20
14.67399978637695
 30
403.822998046875
 70
   192
  0
VERTEX
  5
79D
  8
0
 10
133.3829956054688
 20
14.67399978637695
 30
399.56298828125
 70
   192
  0
VERTEX
  5
79E
  8
0
 10
156.6289978027344
 20
14.67399978637695
 30
389.18798828125
 70
   192
  0
VERTEX
  5
79F
  8
0
 10
176.5590057373047
 20
14.67399978637695
 30
373.3500061035156
 70
   192
  0
VERTEX
  5
7A0
  8
0
 10
191.9170074462891
 20
14.67399978637695
 30
353.0480041503906
 70
   192
  0
VERTEX
  5
7A1
  8
0
 10
201.7359924316406
 20
14.67399978637695
 30
329.5610046386719
 70
   192
  0
VERTEX
  5
7A2
  8
0
 10
3.124000072479248
 20
14.67399978637695
 30
312.9240112304688
 70
   192
  0
VERTEX
  5
7A3
  8
0
 10
17.17600059509277
 20
9.57800006866455
 30
334.6520080566406
 70
   192
  0
VERTEX
  5
7A4
  8
0
 10
27.91799926757812
 20
9.57800006866455
 30
355.260986328125
 70
   192
  0
VERTEX
  5
7A5
  8
0
 10
43.45399856567383
 20
9.57800006866455
 30
372.5459899902344
 70
   192
  0
VERTEX
  5
7A6
  8
0
 10
62.80599975585938
 20
9.57800006866455
 30
385.4179992675781
 70
   192
  0
VERTEX
  5
7A7
  8
0
 10
84.75299835205078
 20
9.57800006866455
 30
393.0639953613281
 70
   192
  0
VERTEX
  5
7A8
  8
0
 10
107.9120025634766
 20
9.57800006866455
 30
395.0039978027344
 70
   192
  0
VERTEX
  5
7A9
  8
0
 10
130.8260040283203
 20
9.57800006866455
 30
391.114990234375
 70
   192
  0
VERTEX
  5
7AA
  8
0
 10
152.0489959716797
 20
9.57800006866455
 30
381.6430053710938
 70
   192
  0
VERTEX
  5
7AB
  8
0
 10
170.2440032958984
 20
9.57800006866455
 30
367.1839904785156
 70
   192
  0
VERTEX
  5
7AC
  8
0
 10
184.2649993896484
 20
9.57800006866455
 30
348.6489868164062
 70
   192
  0
VERTEX
  5
7AD
  8
0
 10
193.22900390625
 20
9.57800006866455
 30
327.2059936523438
 70
   192
  0
VERTEX
  5
7AE
  8
0
 10
11.9040002822876
 20
9.57800006866455
 30
312.0169982910156
 70
   192
  0
VERTEX
  5
7AF
  8
0
 10
199.677001953125
 20
13.35000038146973
 30
320.6489868164062
 70
   192
  0
VERTEX
  5
7B0
  8
0
 10
203.7120056152344
 20
14.43000030517578
 30
321.3460083007812
 70
   192
  0
VERTEX
  5
7B1
  8
0
 10
195.4819946289062
 20
10.1899995803833
 30
319.93798828125
 70
   192
  0
VERTEX
  5
7B2
  8
0
 10
192.4250030517578
 20
5.184999942779541
 30
319.4330139160156
 70
   192
  0
VERTEX
  5
7B3
  8
0
 10
192.3040008544922
 20
4.505000114440918
 30
319.4140014648438
 70
   192
  0
VERTEX
  5
7B4
  8
0
 10
195.0630035400391
 20
9.503999710083008
 30
319.8689880371094
 70
   192
  0
VERTEX
  5
7B5
  8
0
 10
195.0590057373047
 20
9.496999740600586
 30
319.8689880371094
 70
   192
  0
VERTEX
  5
7B6
  8
0
 10
192.8509979248047
 20
-6.22599983215332
 30
319.5029907226562
 70
   192
  0
VERTEX
  5
7B7
  8
0
 10
193.3110046386719
 20
-6.857999801635742
 30
319.5790100097656
 70
   192
  0
VERTEX
  5
7B8
  8
0
 10
191.7200012207031
 20
-1.292999982833862
 30
319.3200073242188
 70
   192
  0
VERTEX
  5
7B9
  8
0
 10
191.5099945068359
 20
-0.3770000040531158
 30
319.2860107421875
 70
   192
  0
VERTEX
  5
7BA
  8
0
 10
191.5050048828125
 20
0.0
 30
319.2850036621094
 70
   192
  0
VERTEX
  5
7BB
  8
0
 10
196.7839965820312
 20
-11.32699966430664
 30
320.1579895019531
 70
   192
  0
VERTEX
  5
7BC
  8
0
 10
196.4080047607422
 20
-11.10700035095215
 30
320.093994140625
 70
   192
  0
VERTEX
  5
7BD
  8
0
 10
201.6549987792969
 20
-14.16899967193604
 30
320.989013671875
 70
   192
  0
VERTEX
  5
7BE
  8
0
 10
195.1710052490234
 20
-9.409000396728516
 30
319.8880004882812
 70
   192
  0
VERTEX
  5
7BF
  8
0
 10
207.2570037841797
 20
-14.7819995880127
 30
321.9620056152344
 70
   192
  0
VERTEX
  5
7C0
  8
0
 10
212.5050048828125
 20
-13.45499992370605
 30
322.8810119628906
 70
   192
  0
VERTEX
  5
7C1
  8
0
 10
203.6790008544922
 20
-14.44799995422363
 30
321.3399963378906
 70
   192
  0
VERTEX
  5
7C2
  8
0
 10
206.8450012207031
 20
-14.88599967956543
 30
321.8900146484375
 70
   192
  0
VERTEX
  5
7C3
  8
0
 10
217.2359924316406
 20
-9.625
 30
323.7149963378906
 70
   192
  0
VERTEX
  5
7C4
  8
0
 10
219.5670013427734
 20
-6.146999835968018
 30
324.1270141601562
 70
   192
  0
VERTEX
  5
7C5
  8
0
 10
216.7350006103516
 20
-10.37199974060059
 30
323.6270141601562
 70
   192
  0
VERTEX
  5
7C6
  8
0
 10
213.4429931640625
 20
-12.77099990844727
 30
323.0469970703125
 70
   192
  0
VERTEX
  5
7C7
  8
0
 10
220.8739929199219
 20
0.0
 30
324.3590087890625
 70
   192
  0
VERTEX
  5
7C8
  8
0
 10
220.8350067138672
 20
1.080000042915344
 30
324.3519897460938
 70
   192
  0
VERTEX
  5
7C9
  8
0
 10
220.8520050048828
 20
-0.8140000104904175
 30
324.3550109863281
 70
   192
  0
VERTEX
  5
7CA
  8
0
 10
219.9640045166016
 20
-4.498000144958496
 30
324.197998046875
 70
   192
  0
VERTEX
  5
7CB
  8
0
 10
220.7700042724609
 20
1.315000057220459
 30
324.3399963378906
 70
   192
  0
VERTEX
  5
7CC
  8
0
 10
219.8300018310547
 20
-5.057000160217285
 30
324.1740112304688
 70
   192
  0
VERTEX
  5
7CD
  8
0
 10
219.2409973144531
 20
6.830999851226807
 30
324.0700073242188
 70
   192
  0
VERTEX
  5
7CE
  8
0
 10
215.5579986572266
 20
11.47700023651123
 30
323.4190063476562
 70
   192
  0
VERTEX
  5
7CF
  8
0
 10
219.7409973144531
 20
5.025000095367432
 30
324.1579895019531
 70
   192
  0
VERTEX
  5
7D0
  8
0
 10
215.4570007324219
 20
11.5310001373291
 30
323.4010009765625
 70
   192
  0
VERTEX
  5
7D1
  8
0
 10
210.3719940185547
 20
14.28499984741211
 30
322.5069885253906
 70
   192
  0
VERTEX
  5
7D2
  8
0
 10
205.3800048828125
 20
14.8769998550415
 30
321.6340026855469
 70
   192
  0
VERTEX
  5
7D3
  8
0
 10
213.4010009765625
 20
12.64500045776367
 30
323.0400085449219
 70
   192
  0
VERTEX
  5
7D4
  8
0
 10
204.7270050048828
 20
14.70199966430664
 30
321.52099609375
 70
   192
  0
VERTEX
  5
7D5
  8
0
 10
2.586999893188477
 20
-14.67399978637695
 30
302.5010070800781
 70
   192
  0
VERTEX
  5
7D6
  8
0
 10
11.41399955749512
 20
-9.57800006866455
 30
302.5010070800781
 70
   192
  0
VERTEX
  5
7D7
  8
0
 10
12.27200031280518
 20
-7.21999979019165
 30
302.5010070800781
 70
   192
  0
VERTEX
  5
7D8
  8
0
 10
14.89999961853027
 20
0.0
 30
302.5010070800781
 70
   192
  0
VERTEX
  5
7D9
  8
0
 10
12.27200031280518
 20
7.21999979019165
 30
302.5010070800781
 70
   192
  0
VERTEX
  5
7DA
  8
0
 10
11.41399955749512
 20
9.57800006866455
 30
302.5010070800781
 70
   192
  0
VERTEX
  5
7DB
  8
0
 10
0.1169999986886978
 20
14.23799991607666
 30
302.5010070800781
 70
   192
  0
VERTEX
  5
7DC
  8
0
 10
2.586999893188477
 20
14.67399978637695
 30
302.5010070800781
 70
   192
  0
VERTEX
  5
7DD
  8
0
 10
-7.449999809265137
 20
12.9040002822876
 30
302.5010070800781
 70
   192
  0
VERTEX
  5
7DE
  8
0
 10
-12.38899993896484
 20
7.01800012588501
 30
302.5010070800781
 70
   192
  0
VERTEX
  5
7DF
  8
0
 10
-14.00100040435791
 20
5.096000194549561
 30
302.5010070800781
 70
   192
  0
VERTEX
  5
7E0
  8
0
 10
-14.00100040435791
 20
-5.096000194549561
 30
302.5010070800781
 70
   192
  0
VERTEX
  5
7E1
  8
0
 10
-12.38899993896484
 20
-7.01800012588501
 30
302.5010070800781
 70
   192
  0
VERTEX
  5
7E2
  8
0
 10
-7.449999809265137
 20
-12.9040002822876
 30
302.5010070800781
 70
   192
  0
VERTEX
  5
7E3
  8
0
 10
0.0
 20
-14.89999961853027
 30
302.5010070800781
 70
   192
  0
VERTEX
  5
7E4
  8
0
 62
     9
 10
0.0
 20
0.0
 30
0.0
 70
   128
 71
     3
 72
     2
 73
     1
  0
VERTEX
  5
7E5
  8
0
 62
     9
 10
0.0
 20
0.0
 30
0.0
 70
   128
 71
     5
 72
     4
 73
     2
  0
VERTEX
  5
7E6
  8
0
 62
     9
 10
0.0
 20
0.0
 30
0.0
 70
   128
 71
     7
 72
     6
 73
     4
  0
VERTEX
  5
7E7
  8
0
 62
     9
 10
0.0
 20
0.0
 30
0.0
 70
   128
 71
     9
 72
     8
 73
     6
  0
VERTEX
  5
7E8
  8
0
 62
     9
 10
0.0
 20
0.0
 30
0.0
 70
   128
 71
    11
 72
    10
 73
     8
  0
VERTEX
  5
7E9
  8
0
 62
     9
 10
0.0
 20
0.0
 30
0.0
 70
   128
 71
    13
 72
    12
 73
    10
  0
VERTEX
  5
7EA
  8
0
 62
     9
 10
0.0
 20
0.0
 30
0.0
 70
   128
 71
    15
 72
    14
 73
    12
  0
VERTEX
  5
7EB
  8
0
 62
     9
 10
0.0
 20
0.0
 30
0.0
 70
   128
 71
    17
 72
    16
 73
    14
  0
VERTEX
  5
7EC
  8
0
 62
     9
 10
0.0
 20
0.0
 30
0.0
 70
   128
 71
    19
 72
    18
 73
    16
  0
VERTEX
  5
7ED
  8
0
 62
     9
 10
0.0
 20
0.0
 30
0.0
 70
   128
 71
    21
 72
    20
 73
    18
  0
VERTEX
  5
7EE
  8
0
 62
     9
 10
0.0
 20
0.0
 30
0.0
 70
   128
 71
    23
 72
    22
 73
    20
  0
VERTEX
  5
7EF
  8
0
 62
     9
 10
0.0
 20
0.0
 30
0.0
 70
   128
 71
    25
 72
     3
 73
    24
  0
VERTEX
  5
7F0
  8
0
 62
     9
 10
0.0
 20
0.0
 30
0.0
 70
   128
 71
    26
 72
     5
 73
     3
  0
VERTEX
  5
7F1
  8
0
 62
     9
 10
0.0
 20
0.0
 30
0.0
 70
   128
 71
    27
 72
     7
 73
     5
  0
VERTEX
  5
7F2
  8
0
 62
     9
 10
0.0
 20
0.0
 30
0.0
 70
   128
 71
    28
 72
     9
 73
     7
  0
VERTEX
  5
7F3
  8
0
 62
     9
 10
0.0
 20
0.0
 30
0.0
 70
   128
 71
    29
 72
    11
 73
     9
  0
VERTEX
  5
7F4
  8
0
 62
     9
 10
0.0
 20
0.0
 30
0.0
 70
   128
 71
    30
 72
    13
 73
    11
  0
VERTEX
  5
7F5
  8
0
 62
     9
 10
0.0
 20
0.0
 30
0.0
 70
   128
 71
    31
 72
    15
 73
    13
  0
VERTEX
  5
7F6
  8
0
 62
     9
 10
0.0
 20
0.0
 30
0.0
 70
   128
 71
    32
 72
    17
 73
    15
  0
VERTEX
  5
7F7
  8
0
 62
     9
 10
0.0
 20
0.0
 30
0.0
 70
   128
 71
    33
 72
    19
 73
    17
  0
VERTEX
  5
7F8
  8
0
 62
     9
 10
0.0
 20
0.0
 30
0.0
 70
   128
 71
    34
 72
    21
 73
    19
  0
VERTEX
  5
7F9
  8
0
 62
     9
 10
0.0
 20
0.0
 30
0.0
 70
   128
 71
    35
 72
    23
 73
    21
  0
VERTEX
  5
7FA
  8
0
 62
     9
 10
0.0
 20
0.0
 30
0.0
 70
   128
 71
    37
 72
    25
 73
    36
  0
VERTEX
  5
7FB
  8
0
 62
     9
 10
0.0
 20
0.0
 30
0.0
 70
   128
 71
    38
 72
    26
 73
    25
  0
VERTEX
  5
7FC
  8
0
 62
     9
 10
0.0
 20
0.0
 30
0.0
 70
   128
 71
    39
 72
    27
 73
    26
  0
VERTEX
  5
7FD
  8
0
 62
     9
 10
0.0
 20
0.0
 30
0.0
 70
   128
 71
    40
 72
    28
 73
    27
  0
VERTEX
  5
7FE
  8
0
 62
     9
 10
0.0
 20
0.0
 30
0.0
 70
   128
 71
    41
 72
    29
 73
    28
  0
VERTEX
  5
7FF
  8
0
 62
     9
 10
0.0
 20
0.0
 30
0.0
 70
   128
 71
    42
 72
    30
 73
    29
  0
VERTEX
  5
800
  8
0
 62
     9
 10
0.0
 20
0.0
 30
0.0
 70
   128
 71
    43
 72
    31
 73
    30
  0
VERTEX
  5
801
  8
0
 62
     9
 10
0.0
 20
0.0
 30
0.0
 70
   128
 71
    44
 72
    32
 73
    31
  0
VERTEX
  5
802
  8
0
 62
     9
 10
0.0
 20
0.0
 30
0.0
 70
   128
 71
    45
 72
    33
 73
    32
  0
VERTEX
  5
803
  8
0
 62
     9
 10
0.0
 20
0.0
 30
0.0
 70
   128
 71
    46
 72
    34
 73
    33
  0
VERTEX
  5
804
  8
0
 62
     9
 10
0.0
 20
0.0
 30
0.0
 70
   128
 71
    47
 72
    35
 73
    34
  0
VERTEX
  5
805
  8
0
 62
     9
 10
0.0
 20
0.0
 30
0.0
 70
   128
 71
    49
 72
    37
 73
    48
  0
VERTEX
  5
806
  8
0
 62
     9
 10
0.0
 20
0.0
 30
0.0
 70
   128
 71
    50
 72
    38
 73
    37
  0
VERTEX
  5
807
  8
0
 62
     9
 10
0.0
 20
0.0
 30
0.0
 70
   128
 71
    51
 72
    39
 73
    38
  0
VERTEX
  5
808
  8
0
 62
     9
 10
0.0
 20
0.0
 30
0.0
 70
   128
 71
    52
 72
    40
 73
    39
  0
VERTEX
  5
809
  8
0
 62
     9
 10
0.0
 20
0.0
 30
0.0
 70
   128
 71
    53
 72
    41
 73
    40
  0
VERTEX
  5
80A
  8
0
 62
     9
 10
0.0
 20
0.0
 30
0.0
 70
   128
 71
    54
 72
    42
 73
    41
  0
VERTEX
  5
80B
  8
0
 62
     9
 10
0.0
 20
0.0
 30
0.0
 70
   128
 71
    55
 72
    43
 73
    42
  0
VERTEX
  5
80C
  8
0
 62
     9
 10
0.0
 20
0.0
 30
0.0
 70
   128
 71
    56
 72
    44
 73
    43
  0
VERTEX
  5
80D
  8
0
 62
     9
 10
0.0
 20
0.0
 30
0.0
 70
   128
 71
    57
 72
    45
 73
    44
  0
VERTEX
  5
80E
  8
0
 62
     9
 10
0.0
 20
0.0
 30
0.0
 70
   128
 71
    58
 72
    46
 73
    45
  0
VERTEX
  5
80F
  8
0
 62
     9
 10
0.0
 20
0.0
 30
0.0
 70
   128
 71
    59
 72
    47
 73
    46
  0
VERTEX
  5
810
  8
0
 62
     9
 10
0.0
 20
0.0
 30
0.0
 70
   128
 71
    61
 72
    49
 73
    60
  0
VERTEX
  5
811
  8
0
 62
     9
 10
0.0
 20
0.0
 30
0.0
 70
   128
 71
    62
 72
    50
 73
    49
  0
VERTEX
  5
812
  8
0
 62
     9
 10
0.0
 20
0.0
 30
0.0
 70
   128
 71
    63
 72
    51
 73
    50
  0
VERTEX
  5
813
  8
0
 62
     9
 10
0.0
 20
0.0
 30
0.0
 70
   128
 71
    64
 72
    52
 73
    51
  0
VERTEX
  5
814
  8
0
 62
     9
 10
0.0
 20
0.0
 30
0.0
 70
   128
 71
    65
 72
    53
 73
    52
  0
VERTEX
  5
815
  8
0
 62
     9
 10
0.0
 20
0.0
 30
0.0
 70
   128
 71
    66
 72
    54
 73
    53
  0
VERTEX
  5
816
  8
0
 62
     9
 10
0.0
 20
0.0
 30
0.0
 70
   128
 71
    67
 72
    55
 73
    54
  0
VERTEX
  5
817
  8
0
 62
     9
 10
0.0
 20
0.0
 30
0.0
 70
   128
 71
    68
 72
    56
 73
    55
  0
VERTEX
  5
818
  8
0
 62
     9
 10
0.0
 20
0.0
 30
0.0
 70
   128
 71
    69
 72
    57
 73
    56
  0
VERTEX
  5
819
  8
0
 62
     9
 10
0.0
 20
0.0
 30
0.0
 70
   128
 71
    70
 72
    58
 73
    57
  0
VERTEX
  5
81A
  8
0
 62
     9
 10
0.0
 20
0.0
 30
0.0
 70
   128
 71
    71
 72
    59
 73
    58
  0
VERTEX
  5
81B
  8
0
 62
     9
 10
0.0
 20
0.0
 30
0.0
 70
   128
 71
    73
 72
    61
 73
    72
  0
VERTEX
  5
81C
  8
0
 62
     9
 10
0.0
 20
0.0
 30
0.0
 70
   128
 71
    74
 72
    62
 73
    61
  0
VERTEX
  5
81D
  8
0
 62
     9
 10
0.0
 20
0.0
 30
0.0
 70
   128
 71
    75
 72
    63
 73
    62
  0
VERTEX
  5
81E
  8
0
 62
     9
 10
0.0
 20
0.0
 30
0.0
 70
   128
 71
    76
 72
    64
 73
    63
  0
VERTEX
  5
81F
  8
0
 62
     9
 10
0.0
 20
0.0
 30
0.0
 70
   128
 71
    77
 72
    65
 73
    64
  0
VERTEX
  5
820
  8
0
 62
     9
 10
0.0
 20
0.0
 30
0.0
 70
   128
 71
    78
 72
    66
 73
    65
  0
VERTEX
  5
821
  8
0
 62
     9
 10
0.0
 20
0.0
 30
0.0
 70
   128
 71
    79
 72
    67
 73
    66
  0
VERTEX
  5
822
  8
0
 62
     9
 10
0.0
 20
0.0
 30
0.0
 70
   128
 71
    80
 72
    68
 73
    67
  0
VERTEX
  5
823
  8
0
 62
     9
 10
0.0
 20
0.0
 30
0.0
 70
   128
 71
    81
 72
    69
 73
    68
  0
VERTEX
  5
824
  8
0
 62
     9
 10
0.0
 20
0.0
 30
0.0
 70
   128
 71
    82
 72
    70
 73
    69
  0
VERTEX
  5
825
  8
0
 62
     9
 10
0.0
 20
0.0
 30
0.0
 70
   128
 71
    83
 72
    71
 73
    70
  0
VERTEX
  5
826
  8
0
 62
     9
 10
0.0
 20
0.0
 30
0.0
 70
   128
 71
    85
 72
    73
 73
    84
  0
VERTEX
  5
827
  8
0
 62
     9
 10
0.0
 20
0.0
 30
0.0
 70
   128
 71
    86
 72
    74
 73
    73
  0
VERTEX
  5
828
  8
0
 62
     9
 10
0.0
 20
0.0
 30
0.0
 70
   128
 71
    87
 72
    75
 73
    74
  0
VERTEX
  5
829
  8
0
 62
     9
 10
0.0
 20
0.0
 30
0.0
 70
   128
 71
    88
 72
    76
 73
    75
  0
VERTEX
  5
82A
  8
0
 62
     9
 10
0.0
 20
0.0
 30
0.0
 70
   128
 71
    89
 72
    77
 73
    76
  0
VERTEX
  5
82B
  8
0
 62
     9
 10
0.0
 20
0.0
 30
0.0
 70
   128
 71
    90
 72
    78
 73
    77
  0
VERTEX
  5
82C
  8
0
 62
     9
 10
0.0
 20
0.0
 30
0.0
 70
   128
 71
    91
 72
    79
 73
    78
  0
VERTEX
  5
82D
  8
0
 62
     9
 10
0.0
 20
0.0
 30
0.0
 70
   128
 71
    92
 72
    80
 73
    79
  0
VERTEX
  5
82E
  8
0
 62
     9
 10
0.0
 20
0.0
 30
0.0
 70
   128
 71
    93
 72
    81
 73
    80
  0
VERTEX
  5
82F
  8
0
 62
     9
 10
0.0
 20
0.0
 30
0.0
 70
   128
 71
    94
 72
    82
 73
    81
  0
VERTEX
  5
830
  8
0
 62
     9
 10
0.0
 20
0.0
 30
0.0
 70
   128
 71
    95
 72
    83
 73
    82
  0
VERTEX
  5
831
  8
0
 62
     9
 10
0.0
 20
0.0
 30
0.0
 70
   128
 71
    97
 72
    85
 73
    96
  0
VERTEX
  5
832
  8
0
 62
     9
 10
0.0
 20
0.0
 30
0.0
 70
   128
 71
    98
 72
    86
 73
    85
  0
VERTEX
  5
833
  8
0
 62
     9
 10
0.0
 20
0.0
 30
0.0
 70
   128
 71
    99
 72
    87
 73
    86
  0
VERTEX
  5
834
  8
0
 62
     9
 10
0.0
 20
0.0
 30
0.0
 70
   128
 71
   100
 72
    88
 73
    87
  0
VERTEX
  5
835
  8
0
 62
     9
 10
0.0
 20
0.0
 30
0.0
 70
   128
 71
   101
 72
    89
 73
    88
  0
VERTEX
  5
836
  8
0
 62
     9
 10
0.0
 20
0.0
 30
0.0
 70
   128
 71
   102
 72
    90
 73
    89
  0
VERTEX
  5
837
  8
0
 62
     9
 10
0.0
 20
0.0
 30
0.0
 70
   128
 71
   103
 72
    91
 73
    90
  0
VERTEX
  5
838
  8
0
 62
     9
 10
0.0
 20
0.0
 30
0.0
 70
   128
 71
   104
 72
    92
 73
    91
  0
VERTEX
  5
839
  8
0
 62
     9
 10
0.0
 20
0.0
 30
0.0
 70
   128
 71
   105
 72
    93
 73
    92
  0
VERTEX
  5
83A
  8
0
 62
     9
 10
0.0
 20
0.0
 30
0.0
 70
   128
 71
   106
 72
    94
 73
    93
  0
VERTEX
  5
83B
  8
0
 62
     9
 10
0.0
 20
0.0
 30
0.0
 70
   128
 71
   107
 72
    95
 73
    94
  0
VERTEX
  5
83C
  8
0
 62
     9
 10
0.0
 20
0.0
 30
0.0
 70
   128
 71
     2
 72
    97
 73
   108
  0
VERTEX
  5
83D
  8
0
 62
     9
 10
0.0
 20
0.0
 30
0.0
 70
   128
 71
     4
 72
    98
 73
    97
  0
VERTEX
  5
83E
  8
0
 62
     9
 10
0.0
 20
0.0
 30
0.0
 70
   128
 71
     6
 72
    99
 73
    98
  0
VERTEX
  5
83F
  8
0
 62
     9
 10
0.0
 20
0.0
 30
0.0
 70
   128
 71
     8
 72
   100
 73
    99
  0
VERTEX
  5
840
  8
0
 62
     9
 10
0.0
 20
0.0
 30
0.0
 70
   128
 71
    10
 72
   101
 73
   100
  0
VERTEX
  5
841
  8
0
 62
     9
 10
0.0
 20
0.0
 30
0.0
 70
   128
 71
    12
 72
   102
 73
   101
  0
VERTEX
  5
842
  8
0
 62
     9
 10
0.0
 20
0.0
 30
0.0
 70
   128
 71
    14
 72
   103
 73
   102
  0
VERTEX
  5
843
  8
0
 62
     9
 10
0.0
 20
0.0
 30
0.0
 70
   128
 71
    16
 72
   104
 73
   103
  0
VERTEX
  5
844
  8
0
 62
     9
 10
0.0
 20
0.0
 30
0.0
 70
   128
 71
    18
 72
   105
 73
   104
  0
VERTEX
  5
845
  8
0
 62
     9
 10
0.0
 20
0.0
 30
0.0
 70
   128
 71
    20
 72
   106
 73
   105
  0
VERTEX
  5
846
  8
0
 62
     9
 10
0.0
 20
0.0
 30
0.0
 70
   128
 71
    22
 72
   107
 73
   106
  0
VERTEX
  5
847
  8
0
 62
     9
 10
0.0
 20
0.0
 30
0.0
 70
   128
 71
   109
 72
    95
 73
   107
  0
VERTEX
  5
848
  8
0
 62
     9
 10
0.0
 20
0.0
 30
0.0
 70
   128
 71
   109
 72
   110
 73
    95
  0
VERTEX
  5
849
  8
0
 62
     9
 10
0.0
 20
0.0
 30
0.0
 70
   128
 71
   107
 72
   111
 73
   109
  0
VERTEX
  5
84A
  8
0
 62
     9
 10
0.0
 20
0.0
 30
0.0
 70
   128
 71
   112
 72
   107
 73
    22
  0
VERTEX
  5
84B
  8
0
 62
     9
 10
0.0
 20
0.0
 30
0.0
 70
   128
 71
    22
 72
   113
 73
   112
  0
VERTEX
  5
84C
  8
0
 62
     9
 10
0.0
 20
0.0
 30
0.0
 70
   128
 71
   115
 72
   114
 73
   107
  0
VERTEX
  5
84D
  8
0
 62
     9
 10
0.0
 20
0.0
 30
0.0
 70
   128
 71
   107
 72
   112
 73
   115
  0
VERTEX
  5
84E
  8
0
 62
     9
 10
0.0
 20
0.0
 30
0.0
 70
   128
 71
   117
 72
   116
 73
    23
  0
VERTEX
  5
84F
  8
0
 62
     9
 10
0.0
 20
0.0
 30
0.0
 70
   128
 71
   116
 72
   118
 73
    22
  0
VERTEX
  5
850
  8
0
 62
     9
 10
0.0
 20
0.0
 30
0.0
 70
   128
 71
   118
 72
   119
 73
    22
  0
VERTEX
  5
851
  8
0
 62
     9
 10
0.0
 20
0.0
 30
0.0
 70
   128
 71
   119
 72
   120
 73
    22
  0
VERTEX
  5
852
  8
0
 62
     9
 10
0.0
 20
0.0
 30
0.0
 70
   128
 71
    22
 72
    23
 73
   116
  0
VERTEX
  5
853
  8
0
 62
     9
 10
0.0
 20
0.0
 30
0.0
 70
   128
 71
   121
 72
    23
 73
    35
  0
VERTEX
  5
854
  8
0
 62
     9
 10
0.0
 20
0.0
 30
0.0
 70
   128
 71
   121
 72
   122
 73
    23
  0
VERTEX
  5
855
  8
0
 62
     9
 10
0.0
 20
0.0
 30
0.0
 70
   128
 71
    35
 72
   123
 73
   121
  0
VERTEX
  5
856
  8
0
 62
     9
 10
0.0
 20
0.0
 30
0.0
 70
   128
 71
   122
 72
   124
 73
    23
  0
VERTEX
  5
857
  8
0
 62
     9
 10
0.0
 20
0.0
 30
0.0
 70
   128
 71
   125
 72
    35
 73
    47
  0
VERTEX
  5
858
  8
0
 62
     9
 10
0.0
 20
0.0
 30
0.0
 70
   128
 71
    47
 72
   126
 73
   125
  0
VERTEX
  5
859
  8
0
 62
     9
 10
0.0
 20
0.0
 30
0.0
 70
   128
 71
   128
 72
   127
 73
    35
  0
VERTEX
  5
85A
  8
0
 62
     9
 10
0.0
 20
0.0
 30
0.0
 70
   128
 71
    35
 72
   125
 73
   128
  0
VERTEX
  5
85B
  8
0
 62
     9
 10
0.0
 20
0.0
 30
0.0
 70
   128
 71
   130
 72
   129
 73
    59
  0
VERTEX
  5
85C
  8
0
 62
     9
 10
0.0
 20
0.0
 30
0.0
 70
   128
 71
   129
 72
   131
 73
    47
  0
VERTEX
  5
85D
  8
0
 62
     9
 10
0.0
 20
0.0
 30
0.0
 70
   128
 71
   131
 72
   132
 73
    47
  0
VERTEX
  5
85E
  8
0
 62
     9
 10
0.0
 20
0.0
 30
0.0
 70
   128
 71
    47
 72
    59
 73
   129
  0
VERTEX
  5
85F
  8
0
 62
     9
 10
0.0
 20
0.0
 30
0.0
 70
   128
 71
   134
 72
   133
 73
    71
  0
VERTEX
  5
860
  8
0
 62
     9
 10
0.0
 20
0.0
 30
0.0
 70
   128
 71
   133
 72
   135
 73
    59
  0
VERTEX
  5
861
  8
0
 62
     9
 10
0.0
 20
0.0
 30
0.0
 70
   128
 71
   135
 72
   136
 73
    59
  0
VERTEX
  5
862
  8
0
 62
     9
 10
0.0
 20
0.0
 30
0.0
 70
   128
 71
    59
 72
    71
 73
   133
  0
VERTEX
  5
863
  8
0
 62
     9
 10
0.0
 20
0.0
 30
0.0
 70
   128
 71
    71
 72
   137
 73
   134
  0
VERTEX
  5
864
  8
0
 62
     9
 10
0.0
 20
0.0
 30
0.0
 70
   128
 71
   136
 72
   138
 73
    59
  0
VERTEX
  5
865
  8
0
 62
     9
 10
0.0
 20
0.0
 30
0.0
 70
   128
 71
   140
 72
   139
 73
    71
  0
VERTEX
  5
866
  8
0
 62
     9
 10
0.0
 20
0.0
 30
0.0
 70
   128
 71
    71
 72
    83
 73
   140
  0
VERTEX
  5
867
  8
0
 62
     9
 10
0.0
 20
0.0
 30
0.0
 70
   128
 71
   139
 72
   141
 73
    71
  0
VERTEX
  5
868
  8
0
 62
     9
 10
0.0
 20
0.0
 30
0.0
 70
   128
 71
    83
 72
   142
 73
   140
  0
VERTEX
  5
869
  8
0
 62
     9
 10
0.0
 20
0.0
 30
0.0
 70
   128
 71
   143
 72
    83
 73
    95
  0
VERTEX
  5
86A
  8
0
 62
     9
 10
0.0
 20
0.0
 30
0.0
 70
   128
 71
    95
 72
   144
 73
   143
  0
VERTEX
  5
86B
  8
0
 62
     9
 10
0.0
 20
0.0
 30
0.0
 70
   128
 71
   143
 72
   145
 73
    83
  0
VERTEX
  5
86C
  8
0
 62
     9
 10
0.0
 20
0.0
 30
0.0
 70
   128
 71
    95
 72
   146
 73
   144
  0
VERTEX
  5
86D
  8
0
 62
     9
 10
0.0
 20
0.0
 30
0.0
 70
   128
 71
   148
 72
   147
 73
    36
  0
VERTEX
  5
86E
  8
0
 62
     9
 10
0.0
 20
0.0
 30
0.0
 70
   128
 71
   149
 72
    24
 73
     1
  0
VERTEX
  5
86F
  8
0
 62
     9
 10
0.0
 20
0.0
 30
0.0
 70
   128
 71
   149
 72
   148
 73
    24
  0
VERTEX
  5
870
  8
0
 62
     9
 10
0.0
 20
0.0
 30
0.0
 70
   128
 71
   151
 72
   150
 73
     1
  0
VERTEX
  5
871
  8
0
 62
     9
 10
0.0
 20
0.0
 30
0.0
 70
   128
 71
     1
 72
   108
 73
   151
  0
VERTEX
  5
872
  8
0
 62
     9
 10
0.0
 20
0.0
 30
0.0
 70
   128
 71
   152
 72
   108
 73
    96
  0
VERTEX
  5
873
  8
0
 62
     9
 10
0.0
 20
0.0
 30
0.0
 70
   128
 71
   153
 72
    96
 73
    84
  0
VERTEX
  5
874
  8
0
 62
     9
 10
0.0
 20
0.0
 30
0.0
 70
   128
 71
   153
 72
   154
 73
    96
  0
VERTEX
  5
875
  8
0
 62
     9
 10
0.0
 20
0.0
 30
0.0
 70
   128
 71
   156
 72
   155
 73
    84
  0
VERTEX
  5
876
  8
0
 62
     9
 10
0.0
 20
0.0
 30
0.0
 70
   128
 71
    84
 72
    72
 73
   156
  0
VERTEX
  5
877
  8
0
 62
     9
 10
0.0
 20
0.0
 30
0.0
 70
   128
 71
    60
 72
   158
 73
   157
  0
VERTEX
  5
878
  8
0
 62
     9
 10
0.0
 20
0.0
 30
0.0
 70
   128
 71
   159
 72
    60
 73
    48
  0
VERTEX
  5
879
  8
0
 62
     9
 10
0.0
 20
0.0
 30
0.0
 70
   128
 71
   159
 72
   158
 73
    60
  0
VERTEX
  5
87A
  8
0
 62
     9
 10
0.0
 20
0.0
 30
0.0
 70
   128
 71
   161
 72
   160
 73
    48
  0
VERTEX
  5
87B
  8
0
 62
     9
 10
0.0
 20
0.0
 30
0.0
 70
   128
 71
    48
 72
    36
 73
   161
  0
VERTEX
  5
87C
  8
0
 62
     9
 10
0.0
 20
0.0
 30
0.0
 70
   128
 71
    36
 72
   147
 73
   161
  0
VERTEX
  5
87D
  8
0
 62
     9
 10
0.0
 20
0.0
 30
0.0
 70
   128
 71
    48
 72
   160
 73
   159
  0
VERTEX
  5
87E
  8
0
 62
     9
 10
0.0
 20
0.0
 30
0.0
 70
   128
 71
   157
 72
    72
 73
    60
  0
VERTEX
  5
87F
  8
0
 62
     9
 10
0.0
 20
0.0
 30
0.0
 70
   128
 71
    72
 72
   157
 73
   156
  0
VERTEX
  5
880
  8
0
 62
     9
 10
0.0
 20
0.0
 30
0.0
 70
   128
 71
    84
 72
   155
 73
   153
  0
VERTEX
  5
881
  8
0
 62
     9
 10
0.0
 20
0.0
 30
0.0
 70
   128
 71
    96
 72
   154
 73
   152
  0
VERTEX
  5
882
  8
0
 62
     9
 10
0.0
 20
0.0
 30
0.0
 70
   128
 71
   108
 72
   152
 73
   151
  0
VERTEX
  5
883
  8
0
 62
     9
 10
0.0
 20
0.0
 30
0.0
 70
   128
 71
     1
 72
   150
 73
   149
  0
VERTEX
  5
884
  8
0
 62
     9
 10
0.0
 20
0.0
 30
0.0
 70
   128
 71
    36
 72
    24
 73
   148
  0
VERTEX
  5
885
  8
0
 62
     9
 10
0.0
 20
0.0
 30
0.0
 70
   128
 71
    95
 72
   110
 73
   146
  0
VERTEX
  5
886
  8
0
 62
     9
 10
0.0
 20
0.0
 30
0.0
 70
   128
 71
    83
 72
   145
 73
   142
  0
VERTEX
  5
887
  8
0
 62
     9
 10
0.0
 20
0.0
 30
0.0
 70
   128
 71
    71
 72
   141
 73
   137
  0
VERTEX
  5
888
  8
0
 62
     9
 10
0.0
 20
0.0
 30
0.0
 70
   128
 71
    59
 72
   138
 73
   130
  0
VERTEX
  5
889
  8
0
 62
     9
 10
0.0
 20
0.0
 30
0.0
 70
   128
 71
    47
 72
   132
 73
   126
  0
VERTEX
  5
88A
  8
0
 62
     9
 10
0.0
 20
0.0
 30
0.0
 70
   128
 71
    35
 72
   127
 73
   123
  0
VERTEX
  5
88B
  8
0
 62
     9
 10
0.0
 20
0.0
 30
0.0
 70
   128
 71
    23
 72
   124
 73
   117
  0
VERTEX
  5
88C
  8
0
 62
     9
 10
0.0
 20
0.0
 30
0.0
 70
   128
 71
    22
 72
   120
 73
   113
  0
VERTEX
  5
88D
  8
0
 62
     9
 10
0.0
 20
0.0
 30
0.0
 70
   128
 71
   107
 72
   114
 73
   111
  0
VERTEX
  5
88E
  8
0
 62
     9
 10
0.0
 20
0.0
 30
0.0
 70
   128
 71
   106
 72
    20
 73
    22
  0
VERTEX
  5
88F
  8
0
 62
     9
 10
0.0
 20
0.0
 30
0.0
 70
   128
 71
   105
 72
    18
 73
    20
  0
VERTEX
  5
890
  8
0
 62
     9
 10
0.0
 20
0.0
 30
0.0
 70
   128
 71
   104
 72
    16
 73
    18
  0
VERTEX
  5
891
  8
0
 62
     9
 10
0.0
 20
0.0
 30
0.0
 70
   128
 71
   103
 72
    14
 73
    16
  0
VERTEX
  5
892
  8
0
 62
     9
 10
0.0
 20
0.0
 30
0.0
 70
   128
 71
   102
 72
    12
 73
    14
  0
VERTEX
  5
893
  8
0
 62
     9
 10
0.0
 20
0.0
 30
0.0
 70
   128
 71
   101
 72
    10
 73
    12
  0
VERTEX
  5
894
  8
0
 62
     9
 10
0.0
 20
0.0
 30
0.0
 70
   128
 71
   100
 72
     8
 73
    10
  0
VERTEX
  5
895
  8
0
 62
     9
 10
0.0
 20
0.0
 30
0.0
 70
   128
 71
    99
 72
     6
 73
     8
  0
VERTEX
  5
896
  8
0
 62
     9
 10
0.0
 20
0.0
 30
0.0
 70
   128
 71
    98
 72
     4
 73
     6
  0
VERTEX
  5
897
  8
0
 62
     9
 10
0.0
 20
0.0
 30
0.0
 70
   128
 71
    97
 72
     2
 73
     4
  0
VERTEX
  5
898
  8
0
 62
     9
 10
0.0
 20
0.0
 30
0.0
 70
   128
 71
   108
 72
     1
 73
     2
  0
VERTEX
  5
899
  8
0
 62
     9
 10
0.0
 20
0.0
 30
0.0
 70
   128
 71
    94
 72
   106
 73
   107
  0
VERTEX
  5
89A
  8
0
 62
     9
 10
0.0
 20
0.0
 30
0.0
 70
   128
 71
    93
 72
   105
 73
   106
  0
VERTEX
  5
89B
  8
0
 62
     9
 10
0.0
 20
0.0
 30
0.0
 70
   128
 71
    92
 72
   104
 73
   105
  0
VERTEX
  5
89C
  8
0
 62
     9
 10
0.0
 20
0.0
 30
0.0
 70
   128
 71
    91
 72
   103
 73
   104
  0
VERTEX
  5
89D
  8
0
 62
     9
 10
0.0
 20
0.0
 30
0.0
 70
   128
 71
    90
 72
   102
 73
   103
  0
VERTEX
  5
89E
  8
0
 62
     9
 10
0.0
 20
0.0
 30
0.0
 70
   128
 71
    89
 72
   101
 73
   102
  0
VERTEX
  5
89F
  8
0
 62
     9
 10
0.0
 20
0.0
 30
0.0
 70
   128
 71
    88
 72
   100
 73
   101
  0
VERTEX
  5
8A0
  8
0
 62
     9
 10
0.0
 20
0.0
 30
0.0
 70
   128
 71
    87
 72
    99
 73
   100
  0
VERTEX
  5
8A1
  8
0
 62
     9
 10
0.0
 20
0.0
 30
0.0
 70
   128
 71
    86
 72
    98
 73
    99
  0
VERTEX
  5
8A2
  8
0
 62
     9
 10
0.0
 20
0.0
 30
0.0
 70
   128
 71
    85
 72
    97
 73
    98
  0
VERTEX
  5
8A3
  8
0
 62
     9
 10
0.0
 20
0.0
 30
0.0
 70
   128
 71
    96
 72
   108
 73
    97
  0
VERTEX
  5
8A4
  8
0
 62
     9
 10
0.0
 20
0.0
 30
0.0
 70
   128
 71
    82
 72
    94
 73
    95
  0
VERTEX
  5
8A5
  8
0
 62
     9
 10
0.0
 20
0.0
 30
0.0
 70
   128
 71
    81
 72
    93
 73
    94
  0
VERTEX
  5
8A6
  8
0
 62
     9
 10
0.0
 20
0.0
 30
0.0
 70
   128
 71
    80
 72
    92
 73
    93
  0
VERTEX
  5
8A7
  8
0
 62
     9
 10
0.0
 20
0.0
 30
0.0
 70
   128
 71
    79
 72
    91
 73
    92
  0
VERTEX
  5
8A8
  8
0
 62
     9
 10
0.0
 20
0.0
 30
0.0
 70
   128
 71
    78
 72
    90
 73
    91
  0
VERTEX
  5
8A9
  8
0
 62
     9
 10
0.0
 20
0.0
 30
0.0
 70
   128
 71
    77
 72
    89
 73
    90
  0
VERTEX
  5
8AA
  8
0
 62
     9
 10
0.0
 20
0.0
 30
0.0
 70
   128
 71
    76
 72
    88
 73
    89
  0
VERTEX
  5
8AB
  8
0
 62
     9
 10
0.0
 20
0.0
 30
0.0
 70
   128
 71
    75
 72
    87
 73
    88
  0
VERTEX
  5
8AC
  8
0
 62
     9
 10
0.0
 20
0.0
 30
0.0
 70
   128
 71
    74
 72
    86
 73
    87
  0
VERTEX
  5
8AD
  8
0
 62
     9
 10
0.0
 20
0.0
 30
0.0
 70
   128
 71
    73
 72
    85
 73
    86
  0
VERTEX
  5
8AE
  8
0
 62
     9
 10
0.0
 20
0.0
 30
0.0
 70
   128
 71
    84
 72
    96
 73
    85
  0
VERTEX
  5
8AF
  8
0
 62
     9
 10
0.0
 20
0.0
 30
0.0
 70
   128
 71
    70
 72
    82
 73
    83
  0
VERTEX
  5
8B0
  8
0
 62
     9
 10
0.0
 20
0.0
 30
0.0
 70
   128
 71
    69
 72
    81
 73
    82
  0
VERTEX
  5
8B1
  8
0
 62
     9
 10
0.0
 20
0.0
 30
0.0
 70
   128
 71
    68
 72
    80
 73
    81
  0
VERTEX
  5
8B2
  8
0
 62
     9
 10
0.0
 20
0.0
 30
0.0
 70
   128
 71
    67
 72
    79
 73
    80
  0
VERTEX
  5
8B3
  8
0
 62
     9
 10
0.0
 20
0.0
 30
0.0
 70
   128
 71
    66
 72
    78
 73
    79
  0
VERTEX
  5
8B4
  8
0
 62
     9
 10
0.0
 20
0.0
 30
0.0
 70
   128
 71
    65
 72
    77
 73
    78
  0
VERTEX
  5
8B5
  8
0
 62
     9
 10
0.0
 20
0.0
 30
0.0
 70
   128
 71
    64
 72
    76
 73
    77
  0
VERTEX
  5
8B6
  8
0
 62
     9
 10
0.0
 20
0.0
 30
0.0
 70
   128
 71
    63
 72
    75
 73
    76
  0
VERTEX
  5
8B7
  8
0
 62
     9
 10
0.0
 20
0.0
 30
0.0
 70
   128
 71
    62
 72
    74
 73
    75
  0
VERTEX
  5
8B8
  8
0
 62
     9
 10
0.0
 20
0.0
 30
0.0
 70
   128
 71
    61
 72
    73
 73
    74
  0
VERTEX
  5
8B9
  8
0
 62
     9
 10
0.0
 20
0.0
 30
0.0
 70
   128
 71
    72
 72
    84
 73
    73
  0
VERTEX
  5
8BA
  8
0
 62
     9
 10
0.0
 20
0.0
 30
0.0
 70
   128
 71
    58
 72
    70
 73
    71
  0
VERTEX
  5
8BB
  8
0
 62
     9
 10
0.0
 20
0.0
 30
0.0
 70
   128
 71
    57
 72
    69
 73
    70
  0
VERTEX
  5
8BC
  8
0
 62
     9
 10
0.0
 20
0.0
 30
0.0
 70
   128
 71
    56
 72
    68
 73
    69
  0
VERTEX
  5
8BD
  8
0
 62
     9
 10
0.0
 20
0.0
 30
0.0
 70
   128
 71
    55
 72
    67
 73
    68
  0
VERTEX
  5
8BE
  8
0
 62
     9
 10
0.0
 20
0.0
 30
0.0
 70
   128
 71
    54
 72
    66
 73
    67
  0
VERTEX
  5
8BF
  8
0
 62
     9
 10
0.0
 20
0.0
 30
0.0
 70
   128
 71
    53
 72
    65
 73
    66
  0
VERTEX
  5
8C0
  8
0
 62
     9
 10
0.0
 20
0.0
 30
0.0
 70
   128
 71
    52
 72
    64
 73
    65
  0
VERTEX
  5
8C1
  8
0
 62
     9
 10
0.0
 20
0.0
 30
0.0
 70
   128
 71
    51
 72
    63
 73
    64
  0
VERTEX
  5
8C2
  8
0
 62
     9
 10
0.0
 20
0.0
 30
0.0
 70
   128
 71
    50
 72
    62
 73
    63
  0
VERTEX
  5
8C3
  8
0
 62
     9
 10
0.0
 20
0.0
 30
0.0
 70
   128
 71
    49
 72
    61
 73
    62
  0
VERTEX
  5
8C4
  8
0
 62
     9
 10
0.0
 20
0.0
 30
0.0
 70
   128
 71
    60
 72
    72
 73
    61
  0
VERTEX
  5
8C5
  8
0
 62
     9
 10
0.0
 20
0.0
 30
0.0
 70
   128
 71
    46
 72
    58
 73
    59
  0
VERTEX
  5
8C6
  8
0
 62
     9
 10
0.0
 20
0.0
 30
0.0
 70
   128
 71
    45
 72
    57
 73
    58
  0
VERTEX
  5
8C7
  8
0
 62
     9
 10
0.0
 20
0.0
 30
0.0
 70
   128
 71
    44
 72
    56
 73
    57
  0
VERTEX
  5
8C8
  8
0
 62
     9
 10
0.0
 20
0.0
 30
0.0
 70
   128
 71
    43
 72
    55
 73
    56
  0
VERTEX
  5
8C9
  8
0
 62
     9
 10
0.0
 20
0.0
 30
0.0
 70
   128
 71
    42
 72
    54
 73
    55
  0
VERTEX
  5
8CA
  8
0
 62
     9
 10
0.0
 20
0.0
 30
0.0
 70
   128
 71
    41
 72
    53
 73
    54
  0
VERTEX
  5
8CB
  8
0
 62
     9
 10
0.0
 20
0.0
 30
0.0
 70
   128
 71
    40
 72
    52
 73
    53
  0
VERTEX
  5
8CC
  8
0
 62
     9
 10
0.0
 20
0.0
 30
0.0
 70
   128
 71
    39
 72
    51
 73
    52
  0
VERTEX
  5
8CD
  8
0
 62
     9
 10
0.0
 20
0.0
 30
0.0
 70
   128
 71
    38
 72
    50
 73
    51
  0
VERTEX
  5
8CE
  8
0
 62
     9
 10
0.0
 20
0.0
 30
0.0
 70
   128
 71
    37
 72
    49
 73
    50
  0
VERTEX
  5
8CF
  8
0
 62
     9
 10
0.0
 20
0.0
 30
0.0
 70
   128
 71
    48
 72
    60
 73
    49
  0
VERTEX
  5
8D0
  8
0
 62
     9
 10
0.0
 20
0.0
 30
0.0
 70
   128
 71
    34
 72
    46
 73
    47
  0
VERTEX
  5
8D1
  8
0
 62
     9
 10
0.0
 20
0.0
 30
0.0
 70
   128
 71
    33
 72
    45
 73
    46
  0
VERTEX
  5
8D2
  8
0
 62
     9
 10
0.0
 20
0.0
 30
0.0
 70
   128
 71
    32
 72
    44
 73
    45
  0
VERTEX
  5
8D3
  8
0
 62
     9
 10
0.0
 20
0.0
 30
0.0
 70
   128
 71
    31
 72
    43
 73
    44
  0
VERTEX
  5
8D4
  8
0
 62
     9
 10
0.0
 20
0.0
 30
0.0
 70
   128
 71
    30
 72
    42
 73
    43
  0
VERTEX
  5
8D5
  8
0
 62
     9
 10
0.0
 20
0.0
 30
0.0
 70
   128
 71
    29
 72
    41
 73
    42
  0
VERTEX
  5
8D6
  8
0
 62
     9
 10
0.0
 20
0.0
 30
0.0
 70
   128
 71
    28
 72
    40
 73
    41
  0
VERTEX
  5
8D7
  8
0
 62
     9
 10
0.0
 20
0.0
 30
0.0
 70
   128
 71
    27
 72
    39
 73
    40
  0
VERTEX
  5
8D8
  8
0
 62
     9
 10
0.0
 20
0.0
 30
0.0
 70
   128
 71
    26
 72
    38
 73
    39
  0
VERTEX
  5
8D9
  8
0
 62
     9
 10
0.0
 20
0.0
 30
0.0
 70
   128
 71
    25
 72
    37
 73
    38
  0
VERTEX
  5
8DA
  8
0
 62
     9
 10
0.0
 20
0.0
 30
0.0
 70
   128
 71
    36
 72
    48
 73
    37
  0
VERTEX
  5
8DB
  8
0
 62
     9
 10
0.0
 20
0.0
 30
0.0
 70
   128
 71
    21
 72
    34
 73
    35
  0
VERTEX
  5
8DC
  8
0
 62
     9
 10
0.0
 20
0.0
 30
0.0
 70
   128
 71
    19
 72
    33
 73
    34
  0
VERTEX
  5
8DD
  8
0
 62
     9
 10
0.0
 20
0.0
 30
0.0
 70
   128
 71
    17
 72
    32
 73
    33
  0
VERTEX
  5
8DE
  8
0
 62
     9
 10
0.0
 20
0.0
 30
0.0
 70
   128
 71
    15
 72
    31
 73
    32
  0
VERTEX
  5
8DF
  8
0
 62
     9
 10
0.0
 20
0.0
 30
0.0
 70
   128
 71
    13
 72
    30
 73
    31
  0
VERTEX
  5
8E0
  8
0
 62
     9
 10
0.0
 20
0.0
 30
0.0
 70
   128
 71
    11
 72
    29
 73
    30
  0
VERTEX
  5
8E1
  8
0
 62
     9
 10
0.0
 20
0.0
 30
0.0
 70
   128
 71
     9
 72
    28
 73
    29
  0
VERTEX
  5
8E2
  8
0
 62
     9
 10
0.0
 20
0.0
 30
0.0
 70
   128
 71
     7
 72
    27
 73
    28
  0
VERTEX
  5
8E3
  8
0
 62
     9
 10
0.0
 20
0.0
 30
0.0
 70
   128
 71
     5
 72
    26
 73
    27
  0
VERTEX
  5
8E4
  8
0
 62
     9
 10
0.0
 20
0.0
 30
0.0
 70
   128
 71
     3
 72
    25
 73
    26
  0
VERTEX
  5
8E5
  8
0
 62
     9
 10
0.0
 20
0.0
 30
0.0
 70
   128
 71
    24
 72
    36
 73
    25
  0
VERTEX
  5
8E6
  8
0
 62
     9
 10
0.0
 20
0.0
 30
0.0
 70
   128
 71
    20
 72
    21
 73
    23
  0
VERTEX
  5
8E7
  8
0
 62
     9
 10
0.0
 20
0.0
 30
0.0
 70
   128
 71
    18
 72
    19
 73
    21
  0
VERTEX
  5
8E8
  8
0
 62
     9
 10
0.0
 20
0.0
 30
0.0
 70
   128
 71
    16
 72
    17
 73
    19
  0
VERTEX
  5
8E9
  8
0
 62
     9
 10
0.0
 20
0.0
 30
0.0
 70
   128
 71
    14
 72
    15
 73
    17
  0
VERTEX
  5
8EA
  8
0
 62
     9
 10
0.0
 20
0.0
 30
0.0
 70
   128
 71
    12
 72
    13
 73
    15
  0
VERTEX
  5
8EB
  8
0
 62
     9
 10
0.0
 20
0.0
 30
0.0
 70
   128
 71
    10
 72
    11
 73
    13
  0
VERTEX
  5
8EC
  8
0
 62
     9
 10
0.0
 20
0.0
 30
0.0
 70
   128
 71
     8
 72
     9
 73
    11
  0
VERTEX
  5
8ED
  8
0
 62
     9
 10
0.0
 20
0.0
 30
0.0
 70
   128
 71
     6
 72
     7
 73
     9
  0
VERTEX
  5
8EE
  8
0
 62
     9
 10
0.0
 20
0.0
 30
0.0
 70
   128
 71
     4
 72
     5
 73
     7
  0
VERTEX
  5
8EF
  8
0
 62
     9
 10
0.0
 20
0.0
 30
0.0
 70
   128
 71
     2
 72
     3
 73
     5
  0
VERTEX
  5
8F0
  8
0
 62
     9
 10
0.0
 20
0.0
 30
0.0
 70
   128
 71
     1
 72
    24
 73
     3
  0
SEQEND
  5
8F1
  8
0
 62
     9
  0
ENDBLK
  5
8F4
  8
0
  0
BLOCK
  8
0
  2
E3_NODE_35_
 70
     0
 10
0.0
 20
0.0
 30
0.0
  3
E3_NODE_35_
  1

  0
POLYLINE
  5
8F6
  8
0
 62
     9
 66
     1
 10
0.0
 20
0.0
 30
0.0
 70
    64
 71
    21
 72
    21
  0
VERTEX
  5
8F7
  8
0
 10
12.9040002822876
 20
7.449999809265137
 30
200.5
 70
   192
  0
VERTEX
  5
8F8
  8
0
 10
0.0
 20
14.89999961853027
 30
200.5
 70
   192
  0
VERTEX
  5
8F9
  8
0
 10
2.586999893188477
 20
14.67399978637695
 30
302.5010070800781
 70
   192
  0
VERTEX
  5
8FA
  8
0
 10
11.41399955749512
 20
9.57800006866455
 30
302.5010070800781
 70
   192
  0
VERTEX
  5
8FB
  8
0
 10
0.1169999986886978
 20
14.23799991607666
 30
302.5010070800781
 70
   192
  0
VERTEX
  5
8FC
  8
0
 10
12.27200031280518
 20
7.21999979019165
 30
302.5010070800781
 70
   192
  0
VERTEX
  5
8FD
  8
0
 10
14.89999961853027
 20
0.0
 30
302.5010070800781
 70
   192
  0
VERTEX
  5
8FE
  8
0
 10
12.9040002822876
 20
-7.449999809265137
 30
200.5
 70
   192
  0
VERTEX
  5
8FF
  8
0
 10
0.0
 20
-14.89999961853027
 30
200.5
 70
   192
  0
VERTEX
  5
900
  8
0
 10
11.41399955749512
 20
-9.57800006866455
 30
302.5010070800781
 70
   192
  0
VERTEX
  5
901
  8
0
 10
12.27200031280518
 20
-7.21999979019165
 30
302.5010070800781
 70
   192
  0
VERTEX
  5
902
  8
0
 10
2.586999893188477
 20
-14.67399978637695
 30
302.5010070800781
 70
   192
  0
VERTEX
  5
903
  8
0
 10
-12.9040002822876
 20
-7.449999809265137
 30
200.5
 70
   192
  0
VERTEX
  5
904
  8
0
 10
-7.449999809265137
 20
-12.9040002822876
 30
302.5010070800781
 70
   192
  0
VERTEX
  5
905
  8
0
 10
0.0
 20
-14.89999961853027
 30
302.5010070800781
 70
   192
  0
VERTEX
  5
906
  8
0
 10
-14.00100040435791
 20
-5.096000194549561
 30
302.5010070800781
 70
   192
  0
VERTEX
  5
907
  8
0
 10
-14.00100040435791
 20
5.096000194549561
 30
302.5010070800781
 70
   192
  0
VERTEX
  5
908
  8
0
 10
-12.9040002822876
 20
7.449999809265137
 30
200.5
 70
   192
  0
VERTEX
  5
909
  8
0
 10
-12.38899993896484
 20
-7.01800012588501
 30
302.5010070800781
 70
   192
  0
VERTEX
  5
90A
  8
0
 10
-12.38899993896484
 20
7.01800012588501
 30
302.5010070800781
 70
   192
  0
VERTEX
  5
90B
  8
0
 10
-7.449999809265137
 20
12.9040002822876
 30
302.5010070800781
 70
   192
  0
VERTEX
  5
90C
  8
0
 62
     9
 10
0.0
 20
0.0
 30
0.0
 70
   128
 71
     3
 72
     2
 73
     1
  0
VERTEX
  5
90D
  8
0
 62
     9
 10
0.0
 20
0.0
 30
0.0
 70
   128
 71
     1
 72
     4
 73
     3
  0
VERTEX
  5
90E
  8
0
 62
     9
 10
0.0
 20
0.0
 30
0.0
 70
   128
 71
     3
 72
     5
 73
     2
  0
VERTEX
  5
90F
  8
0
 62
     9
 10
0.0
 20
0.0
 30
0.0
 70
   128
 71
     7
 72
     6
 73
     1
  0
VERTEX
  5
910
  8
0
 62
     9
 10
0.0
 20
0.0
 30
0.0
 70
   128
 71
     1
 72
     8
 73
     7
  0
VERTEX
  5
911
  8
0
 62
     9
 10
0.0
 20
0.0
 30
0.0
 70
   128
 71
    10
 72
     8
 73
     9
  0
VERTEX
  5
912
  8
0
 62
     9
 10
0.0
 20
0.0
 30
0.0
 70
   128
 71
    10
 72
    11
 73
     8
  0
VERTEX
  5
913
  8
0
 62
     9
 10
0.0
 20
0.0
 30
0.0
 70
   128
 71
     9
 72
    12
 73
    10
  0
VERTEX
  5
914
  8
0
 62
     9
 10
0.0
 20
0.0
 30
0.0
 70
   128
 71
    14
 72
     9
 73
    13
  0
VERTEX
  5
915
  8
0
 62
     9
 10
0.0
 20
0.0
 30
0.0
 70
   128
 71
    14
 72
    15
 73
     9
  0
VERTEX
  5
916
  8
0
 62
     9
 10
0.0
 20
0.0
 30
0.0
 70
   128
 71
    17
 72
    16
 73
    13
  0
VERTEX
  5
917
  8
0
 62
     9
 10
0.0
 20
0.0
 30
0.0
 70
   128
 71
    13
 72
    18
 73
    17
  0
VERTEX
  5
918
  8
0
 62
     9
 10
0.0
 20
0.0
 30
0.0
 70
   128
 71
    16
 72
    19
 73
    13
  0
VERTEX
  5
919
  8
0
 62
     9
 10
0.0
 20
0.0
 30
0.0
 70
   128
 71
    21
 72
    20
 73
    18
  0
VERTEX
  5
91A
  8
0
 62
     9
 10
0.0
 20
0.0
 30
0.0
 70
   128
 71
    18
 72
     2
 73
    21
  0
VERTEX
  5
91B
  8
0
 62
     9
 10
0.0
 20
0.0
 30
0.0
 70
   128
 71
     2
 72
     5
 73
    21
  0
VERTEX
  5
91C
  8
0
 62
     9
 10
0.0
 20
0.0
 30
0.0
 70
   128
 71
    18
 72
    20
 73
    17
  0
VERTEX
  5
91D
  8
0
 62
     9
 10
0.0
 20
0.0
 30
0.0
 70
   128
 71
    13
 72
    19
 73
    14
  0
VERTEX
  5
91E
  8
0
 62
     9
 10
0.0
 20
0.0
 30
0.0
 70
   128
 71
     9
 72
    15
 73
    12
  0
VERTEX
  5
91F
  8
0
 62
     9
 10
0.0
 20
0.0
 30
0.0
 70
   128
 71
     8
 72
    11
 73
     7
  0
VERTEX
  5
920
  8
0
 62
     9
 10
0.0
 20
0.0
 30
0.0
 70
   128
 71
     1
 72
     6
 73
     4
  0
SEQEND
  5
921
  8
0
 62
     9
  0
ENDBLK
  5
924
  8
0
  0
BLOCK
  8
0
  2
E3_NODE_36_
 70
     0
 10
0.0
 20
0.0
 30
0.0
  3
E3_NODE_36_
  1

  0
POLYLINE
  5
926
  8
0
 62
     9
 66
     1
 10
0.0
 20
0.0
 30
0.0
 70
    64
 71
     6
 72
     4
  0
VERTEX
  5
927
  8
0
 10
0.0
 20
14.89999961853027
 30
200.5
 70
   192
  0
VERTEX
  5
928
  8
0
 10
12.9040002822876
 20
7.449999809265137
 30
200.5
 70
   192
  0
VERTEX
  5
929
  8
0
 10
12.9040002822876
 20
-7.449999809265137
 30
200.5
 70
   192
  0
VERTEX
  5
92A
  8
0
 10
0.0
 20
-14.89999961853027
 30
200.5
 70
   192
  0
VERTEX
  5
92B
  8
0
 10
-12.9040002822876
 20
-7.449999809265137
 30
200.5
 70
   192
  0
VERTEX
  5
92C
  8
0
 10
-12.9040002822876
 20
7.449999809265137
 30
200.5
 70
   192
  0
VERTEX
  5
92D
  8
0
 62
     9
 10
0.0
 20
0.0
 30
0.0
 70
   128
 71
     3
 72
     2
 73
     1
  0
VERTEX
  5
92E
  8
0
 62
     9
 10
0.0
 20
0.0
 30
0.0
 70
   128
 71
     5
 72
     4
 73
     1
  0
VERTEX
  5
92F
  8
0
 62
     9
 10
0.0
 20
0.0
 30
0.0
 70
   128
 71
     1
 72
     6
 73
     5
  0
VERTEX
  5
930
  8
0
 62
     9
 10
0.0
 20
0.0
 30
0.0
 70
   128
 71
     1
 72
     4
 73
     3
  0
SEQEND
  5
931
  8
0
 62
     9
  0
ENDBLK
  5
934
  8
0
  0
BLOCK
  8
0
  2
E3_NODE_37_
 70
     0
 10
0.0
 20
0.0
 30
0.0
  3
E3_NODE_37_
  1

  0
POLYLINE
  5
936
  8
0
 62
     9
 66
     1
 10
0.0
 20
0.0
 30
0.0
 70
    64
 71
    10
 72
     8
  0
VERTEX
  5
937
  8
0
 10
9.319999694824219
 20
38.95399856567383
 30
92.85700225830078
 70
   192
  0
VERTEX
  5
938
  8
0
 10
26.83600044250488
 20
38.95399856567383
 30
62.51800155639648
 70
   192
  0
VERTEX
  5
939
  8
0
 10
17.51600074768066
 20
38.95399856567383
 30
46.375
 70
   192
  0
VERTEX
  5
93A
  8
0
 10
-17.51600074768066
 20
38.95399856567383
 30
46.375
 70
   192
  0
VERTEX
  5
93B
  8
0
 10
-26.83600044250488
 20
38.95399856567383
 30
62.51800155639648
 70
   192
  0
VERTEX
  5
93C
  8
0
 10
-23.59900093078613
 20
38.95399856567383
 30
80.875
 70
   192
  0
VERTEX
  5
93D
  8
0
 10
23.59900093078613
 20
38.95399856567383
 30
80.875
 70
   192
  0
VERTEX
  5
93E
  8
0
 10
-9.319999694824219
 20
38.95399856567383
 30
92.85700225830078
 70
   192
  0
VERTEX
  5
93F
  8
0
 10
0.0
 20
38.95399856567383
 30
40.0
 70
   192
  0
VERTEX
  5
940
  8
0
 10
0.0
 20
38.95399856567383
 30
94.5
 70
   192
  0
VERTEX
  5
941
  8
0
 62
     9
 10
0.0
 20
0.0
 30
0.0
 70
   128
 71
     3
 72
     2
 73
     1
  0
VERTEX
  5
942
  8
0
 62
     9
 10
0.0
 20
0.0
 30
0.0
 70
   128
 71
     6
 72
     5
 73
     4
  0
VERTEX
  5
943
  8
0
 62
     9
 10
0.0
 20
0.0
 30
0.0
 70
   128
 71
     2
 72
     7
 73
     1
  0
VERTEX
  5
944
  8
0
 62
     9
 10
0.0
 20
0.0
 30
0.0
 70
   128
 71
     4
 72
     9
 73
     8
  0
VERTEX
  5
945
  8
0
 62
     9
 10
0.0
 20
0.0
 30
0.0
 70
   128
 71
     1
 72
    10
 73
     9
  0
VERTEX
  5
946
  8
0
 62
     9
 10
0.0
 20
0.0
 30
0.0
 70
   128
 71
     4
 72
     8
 73
     6
  0
VERTEX
  5
947
  8
0
 62
     9
 10
0.0
 20
0.0
 30
0.0
 70
   128
 71
     9
 72
    10
 73
     8
  0
VERTEX
  5
948
  8
0
 62
     9
 10
0.0
 20
0.0
 30
0.0
 70
   128
 71
     1
 72
     9
 73
     3
  0
SEQEND
  5
949
  8
0
 62
     9
  0
ENDBLK
  5
94C
  8
0
  0
BLOCK
  8
0
  2
E3_NODE_38_
 70
     0
 10
0.0
 20
0.0
 30
0.0
  3
E3_NODE_38_
  1

  0
POLYLINE
  5
94E
  8
0
 62
     9
 66
     1
 10
0.0
 20
0.0
 30
0.0
 70
    64
 71
    56
 72
    56
  0
VERTEX
  5
94F
  8
0
 10
23.59900093078613
 20
38.95399856567383
 30
80.875
 70
   192
  0
VERTEX
  5
950
  8
0
 10
13.78699970245361
 20
31.66600036621094
 30
90.75499725341797
 70
   192
  0
VERTEX
  5
951
  8
0
 10
19.19400024414062
 20
29.25
 30
86.59300231933594
 70
   192
  0
VERTEX
  5
952
  8
0
 10
9.319999694824219
 20
38.95399856567383
 30
92.85700225830078
 70
   192
  0
VERTEX
  5
953
  8
0
 10
10.51099967956543
 20
32.6619987487793
 30
92.12300109863281
 70
   192
  0
VERTEX
  5
954
  8
0
 10
9.236000061035156
 20
33.04999923706055
 30
92.65599822998047
 70
   192
  0
VERTEX
  5
955
  8
0
 10
26.83600044250488
 20
38.95399856567383
 30
62.51800155639648
 70
   192
  0
VERTEX
  5
956
  8
0
 10
26.63899993896484
 20
25.21999931335449
 30
72.98699951171875
 70
   192
  0
VERTEX
  5
957
  8
0
 10
27.25
 20
25.0
 30
67.25
 70
   192
  0
VERTEX
  5
958
  8
0
 10
24.94700050354004
 20
26.15900039672852
 30
77.59600067138672
 70
   192
  0
VERTEX
  5
959
  8
0
 10
23.50600051879883
 20
26.94799995422363
 30
80.80599975585938
 70
   192
  0
VERTEX
  5
95A
  8
0
 10
24.02499961853027
 20
26.67099952697754
 30
80.11000061035156
 70
   192
  0
VERTEX
  5
95B
  8
0
 10
27.20800018310547
 20
25.03899955749512
 30
66.94300079345703
 70
   192
  0
VERTEX
  5
95C
  8
0
 10
23.48900032043457
 20
27.95000076293945
 30
53.43500137329102
 70
   192
  0
VERTEX
  5
95D
  8
0
 10
19.21299934387207
 20
30.70899963378906
 30
47.92599868774414
 70
   192
  0
VERTEX
  5
95E
  8
0
 10
24.76700019836426
 20
27.01099967956543
 30
56.45600128173828
 70
   192
  0
VERTEX
  5
95F
  8
0
 10
17.51600074768066
 20
38.95399856567383
 30
46.375
 70
   192
  0
VERTEX
  5
960
  8
0
 10
26.61400032043457
 20
25.58799934387207
 30
62.54800033569336
 70
   192
  0
VERTEX
  5
961
  8
0
 10
26.27099990844727
 20
25.90500068664551
 30
60.01200103759766
 70
   192
  0
VERTEX
  5
962
  8
0
 10
10.57100009918213
 20
34.93000030517578
 30
42.14500045776367
 70
   192
  0
VERTEX
  5
963
  8
0
 10
3.476999998092651
 20
36.72900009155273
 30
40.22299957275391
 70
   192
  0
VERTEX
  5
964
  8
0
 10
10.64299964904785
 20
34.9109992980957
 30
42.16400146484375
 70
   192
  0
VERTEX
  5
965
  8
0
 10
17.50799942016602
 20
31.69000053405762
 30
46.38399887084961
 70
   192
  0
VERTEX
  5
966
  8
0
 10
17.30400085449219
 20
31.8080005645752
 30
46.19900131225586
 70
   192
  0
VERTEX
  5
967
  8
0
 10
0.0
 20
38.95399856567383
 30
40.0
 70
   192
  0
VERTEX
  5
968
  8
0
 10
0.0070000002160668
 20
36.95399856567383
 30
40.0
 70
   192
  0
VERTEX
  5
969
  8
0
 10
-17.51600074768066
 20
38.95399856567383
 30
46.375
 70
   192
  0
VERTEX
  5
96A
  8
0
 10
-6.73799991607666
 20
36.11899948120117
 30
40.84600067138672
 70
   192
  0
VERTEX
  5
96B
  8
0
 10
-10.45100021362305
 20
34.81000137329102
 30
42.34199905395508
 70
   192
  0
VERTEX
  5
96C
  8
0
 10
-13.44900035858154
 20
33.75199890136719
 30
43.54999923706055
 70
   192
  0
VERTEX
  5
96D
  8
0
 10
0.0
 20
36.95299911499023
 30
40.00099945068359
 70
   192
  0
VERTEX
  5
96E
  8
0
 10
-26.83600044250488
 20
38.95399856567383
 30
62.51800155639648
 70
   192
  0
VERTEX
  5
96F
  8
0
 10
-20.36499977111816
 20
30.0049991607666
 30
49.14400100708008
 70
   192
  0
VERTEX
  5
970
  8
0
 10
-24.52000045776367
 20
27.22100067138672
 30
55.36199951171875
 70
   192
  0
VERTEX
  5
971
  8
0
 10
-19.07699966430664
 20
30.7859992980957
 30
47.81100082397461
 70
   192
  0
VERTEX
  5
972
  8
0
 10
-17.42200088500977
 20
31.67399978637695
 30
46.50099945068359
 70
   192
  0
VERTEX
  5
973
  8
0
 10
-18.79899978637695
 20
30.95499992370605
 30
47.52199935913086
 70
   192
  0
VERTEX
  5
974
  8
0
 10
-24.84499931335449
 20
26.96999931335449
 30
56.37799835205078
 70
   192
  0
VERTEX
  5
975
  8
0
 10
-23.59900093078613
 20
38.95399856567383
 30
80.875
 70
   192
  0
VERTEX
  5
976
  8
0
 10
-26.27000045776367
 20
25.41600036621094
 30
74.49299621582031
 70
   192
  0
VERTEX
  5
977
  8
0
 10
-27.25
 20
25.0
 30
67.25
 70
   192
  0
VERTEX
  5
978
  8
0
 10
-27.22200012207031
 20
25.03000068664551
 30
66.91500091552734
 70
   192
  0
VERTEX
  5
979
  8
0
 10
-24.97800064086914
 20
26.13800048828125
 30
77.56300354003906
 70
   192
  0
VERTEX
  5
97A
  8
0
 10
-26.80999946594238
 20
25.45599937438965
 30
62.5260009765625
 70
   192
  0
VERTEX
  5
97B
  8
0
 10
-26.8700008392334
 20
25.40999984741211
 30
62.7140007019043
 70
   192
  0
VERTEX
  5
97C
  8
0
 10
-9.319999694824219
 20
38.95399856567383
 30
92.85700225830078
 70
   192
  0
VERTEX
  5
97D
  8
0
 10
-12.94799995422363
 20
31.98399925231934
 30
91.22699737548828
 70
   192
  0
VERTEX
  5
97E
  8
0
 10
-10.54500007629395
 20
32.64899826049805
 30
92.11799621582031
 70
   192
  0
VERTEX
  5
97F
  8
0
 10
-19.20100021362305
 20
29.24699974060059
 30
86.58699798583984
 70
   192
  0
VERTEX
  5
980
  8
0
 10
-23.58600044250488
 20
26.91600036621094
 30
80.86900329589844
 70
   192
  0
VERTEX
  5
981
  8
0
 10
-23.54299926757812
 20
26.94000053405762
 30
80.97200012207031
 70
   192
  0
VERTEX
  5
982
  8
0
 10
0.0
 20
38.95399856567383
 30
94.5
 70
   192
  0
VERTEX
  5
983
  8
0
 10
0.0
 20
34.47900009155273
 30
94.5
 70
   192
  0
VERTEX
  5
984
  8
0
 10
7.027999877929688
 20
33.72200012207031
 30
93.5780029296875
 70
   192
  0
VERTEX
  5
985
  8
0
 10
-5.809999942779541
 20
33.95899963378906
 30
93.87300109863281
 70
   192
  0
VERTEX
  5
986
  8
0
 10
-9.22700023651123
 20
33.01399993896484
 30
92.60700225830078
 70
   192
  0
VERTEX
  5
987
  8
0
 62
     9
 10
0.0
 20
0.0
 30
0.0
 70
   128
 71
     3
 72
     2
 73
     1
  0
VERTEX
  5
988
  8
0
 62
     9
 10
0.0
 20
0.0
 30
0.0
 70
   128
 71
     2
 72
     5
 73
     4
  0
VERTEX
  5
989
  8
0
 62
     9
 10
0.0
 20
0.0
 30
0.0
 70
   128
 71
     5
 72
     6
 73
     4
  0
VERTEX
  5
98A
  8
0
 62
     9
 10
0.0
 20
0.0
 30
0.0
 70
   128
 71
     4
 72
     1
 73
     2
  0
VERTEX
  5
98B
  8
0
 62
     9
 10
0.0
 20
0.0
 30
0.0
 70
   128
 71
     9
 72
     8
 73
     7
  0
VERTEX
  5
98C
  8
0
 62
     9
 10
0.0
 20
0.0
 30
0.0
 70
   128
 71
    10
 72
     1
 73
     7
  0
VERTEX
  5
98D
  8
0
 62
     9
 10
0.0
 20
0.0
 30
0.0
 70
   128
 71
     7
 72
     8
 73
    10
  0
VERTEX
  5
98E
  8
0
 62
     9
 10
0.0
 20
0.0
 30
0.0
 70
   128
 71
    12
 72
    11
 73
     1
  0
VERTEX
  5
98F
  8
0
 62
     9
 10
0.0
 20
0.0
 30
0.0
 70
   128
 71
     1
 72
    10
 73
    12
  0
VERTEX
  5
990
  8
0
 62
     9
 10
0.0
 20
0.0
 30
0.0
 70
   128
 71
     7
 72
    13
 73
     9
  0
VERTEX
  5
991
  8
0
 62
     9
 10
0.0
 20
0.0
 30
0.0
 70
   128
 71
    15
 72
    14
 73
     7
  0
VERTEX
  5
992
  8
0
 62
     9
 10
0.0
 20
0.0
 30
0.0
 70
   128
 71
    14
 72
    16
 73
     7
  0
VERTEX
  5
993
  8
0
 62
     9
 10
0.0
 20
0.0
 30
0.0
 70
   128
 71
     7
 72
    17
 73
    15
  0
VERTEX
  5
994
  8
0
 62
     9
 10
0.0
 20
0.0
 30
0.0
 70
   128
 71
    19
 72
    18
 73
     7
  0
VERTEX
  5
995
  8
0
 62
     9
 10
0.0
 20
0.0
 30
0.0
 70
   128
 71
     7
 72
    16
 73
    19
  0
VERTEX
  5
996
  8
0
 62
     9
 10
0.0
 20
0.0
 30
0.0
 70
   128
 71
    21
 72
    20
 73
    17
  0
VERTEX
  5
997
  8
0
 62
     9
 10
0.0
 20
0.0
 30
0.0
 70
   128
 71
    20
 72
    22
 73
    17
  0
VERTEX
  5
998
  8
0
 62
     9
 10
0.0
 20
0.0
 30
0.0
 70
   128
 71
    24
 72
    23
 73
    17
  0
VERTEX
  5
999
  8
0
 62
     9
 10
0.0
 20
0.0
 30
0.0
 70
   128
 71
    17
 72
    22
 73
    24
  0
VERTEX
  5
99A
  8
0
 62
     9
 10
0.0
 20
0.0
 30
0.0
 70
   128
 71
    17
 72
    25
 73
    21
  0
VERTEX
  5
99B
  8
0
 62
     9
 10
0.0
 20
0.0
 30
0.0
 70
   128
 71
    25
 72
    26
 73
    21
  0
VERTEX
  5
99C
  8
0
 62
     9
 10
0.0
 20
0.0
 30
0.0
 70
   128
 71
    29
 72
    28
 73
    27
  0
VERTEX
  5
99D
  8
0
 62
     9
 10
0.0
 20
0.0
 30
0.0
 70
   128
 71
    27
 72
    30
 73
    29
  0
VERTEX
  5
99E
  8
0
 62
     9
 10
0.0
 20
0.0
 30
0.0
 70
   128
 71
    28
 72
    31
 73
    25
  0
VERTEX
  5
99F
  8
0
 62
     9
 10
0.0
 20
0.0
 30
0.0
 70
   128
 71
    25
 72
    27
 73
    28
  0
VERTEX
  5
9A0
  8
0
 62
     9
 10
0.0
 20
0.0
 30
0.0
 70
   128
 71
    34
 72
    33
 73
    32
  0
VERTEX
  5
9A1
  8
0
 62
     9
 10
0.0
 20
0.0
 30
0.0
 70
   128
 71
    35
 72
    27
 73
    32
  0
VERTEX
  5
9A2
  8
0
 62
     9
 10
0.0
 20
0.0
 30
0.0
 70
   128
 71
    32
 72
    33
 73
    35
  0
VERTEX
  5
9A3
  8
0
 62
     9
 10
0.0
 20
0.0
 30
0.0
 70
   128
 71
    37
 72
    36
 73
    27
  0
VERTEX
  5
9A4
  8
0
 62
     9
 10
0.0
 20
0.0
 30
0.0
 70
   128
 71
    27
 72
    35
 73
    37
  0
VERTEX
  5
9A5
  8
0
 62
     9
 10
0.0
 20
0.0
 30
0.0
 70
   128
 71
    32
 72
    38
 73
    34
  0
VERTEX
  5
9A6
  8
0
 62
     9
 10
0.0
 20
0.0
 30
0.0
 70
   128
 71
    40
 72
    32
 73
    39
  0
VERTEX
  5
9A7
  8
0
 62
     9
 10
0.0
 20
0.0
 30
0.0
 70
   128
 71
    40
 72
    41
 73
    32
  0
VERTEX
  5
9A8
  8
0
 62
     9
 10
0.0
 20
0.0
 30
0.0
 70
   128
 71
    41
 72
    42
 73
    32
  0
VERTEX
  5
9A9
  8
0
 62
     9
 10
0.0
 20
0.0
 30
0.0
 70
   128
 71
    39
 72
    43
 73
    40
  0
VERTEX
  5
9AA
  8
0
 62
     9
 10
0.0
 20
0.0
 30
0.0
 70
   128
 71
    45
 72
    44
 73
    32
  0
VERTEX
  5
9AB
  8
0
 62
     9
 10
0.0
 20
0.0
 30
0.0
 70
   128
 71
    32
 72
    42
 73
    45
  0
VERTEX
  5
9AC
  8
0
 62
     9
 10
0.0
 20
0.0
 30
0.0
 70
   128
 71
    48
 72
    47
 73
    46
  0
VERTEX
  5
9AD
  8
0
 62
     9
 10
0.0
 20
0.0
 30
0.0
 70
   128
 71
    47
 72
    49
 73
    39
  0
VERTEX
  5
9AE
  8
0
 62
     9
 10
0.0
 20
0.0
 30
0.0
 70
   128
 71
    51
 72
    50
 73
    39
  0
VERTEX
  5
9AF
  8
0
 62
     9
 10
0.0
 20
0.0
 30
0.0
 70
   128
 71
    39
 72
    49
 73
    51
  0
VERTEX
  5
9B0
  8
0
 62
     9
 10
0.0
 20
0.0
 30
0.0
 70
   128
 71
    39
 72
    46
 73
    47
  0
VERTEX
  5
9B1
  8
0
 62
     9
 10
0.0
 20
0.0
 30
0.0
 70
   128
 71
    54
 72
    53
 73
    52
  0
VERTEX
  5
9B2
  8
0
 62
     9
 10
0.0
 20
0.0
 30
0.0
 70
   128
 71
    52
 72
     4
 73
    54
  0
VERTEX
  5
9B3
  8
0
 62
     9
 10
0.0
 20
0.0
 30
0.0
 70
   128
 71
    55
 72
    46
 73
    52
  0
VERTEX
  5
9B4
  8
0
 62
     9
 10
0.0
 20
0.0
 30
0.0
 70
   128
 71
    55
 72
    56
 73
    46
  0
VERTEX
  5
9B5
  8
0
 62
     9
 10
0.0
 20
0.0
 30
0.0
 70
   128
 71
    52
 72
    53
 73
    55
  0
VERTEX
  5
9B6
  8
0
 62
     9
 10
0.0
 20
0.0
 30
0.0
 70
   128
 71
     4
 72
     6
 73
    54
  0
VERTEX
  5
9B7
  8
0
 62
     9
 10
0.0
 20
0.0
 30
0.0
 70
   128
 71
    46
 72
    56
 73
    48
  0
VERTEX
  5
9B8
  8
0
 62
     9
 10
0.0
 20
0.0
 30
0.0
 70
   128
 71
    39
 72
    50
 73
    43
  0
VERTEX
  5
9B9
  8
0
 62
     9
 10
0.0
 20
0.0
 30
0.0
 70
   128
 71
    32
 72
    44
 73
    38
  0
VERTEX
  5
9BA
  8
0
 62
     9
 10
0.0
 20
0.0
 30
0.0
 70
   128
 71
    27
 72
    36
 73
    30
  0
VERTEX
  5
9BB
  8
0
 62
     9
 10
0.0
 20
0.0
 30
0.0
 70
   128
 71
    25
 72
    31
 73
    26
  0
VERTEX
  5
9BC
  8
0
 62
     9
 10
0.0
 20
0.0
 30
0.0
 70
   128
 71
    17
 72
    23
 73
    15
  0
VERTEX
  5
9BD
  8
0
 62
     9
 10
0.0
 20
0.0
 30
0.0
 70
   128
 71
     7
 72
    18
 73
    13
  0
VERTEX
  5
9BE
  8
0
 62
     9
 10
0.0
 20
0.0
 30
0.0
 70
   128
 71
     1
 72
    11
 73
     3
  0
SEQEND
  5
9BF
  8
0
 62
     9
  0
ENDBLK
  5
9C2
  8
0
  0
BLOCK
  8
0
  2
E3_NODE_39_
 70
     0
 10
0.0
 20
0.0
 30
0.0
  3
E3_NODE_39_
  1

  0
POLYLINE
  5
9C4
  8
0
 62
     9
 66
     1
 10
0.0
 20
0.0
 30
0.0
 70
    64
 71
    83
 72
   100
  0
VERTEX
  5
9C5
  8
0
 10
26.9680004119873
 20
18.23299980163574
 30
66.49099731445312
 70
   192
  0
VERTEX
  5
9C6
  8
0
 10
27.25
 20
25.0
 30
67.25
 70
   192
  0
VERTEX
  5
9C7
  8
0
 10
26.63899993896484
 20
25.21999931335449
 30
72.98699951171875
 70
   192
  0
VERTEX
  5
9C8
  8
0
 10
23.93000030517578
 20
13.44900035858154
 30
78.02899932861328
 70
   192
  0
VERTEX
  5
9C9
  8
0
 10
26.08799934387207
 20
12.45100021362305
 30
65.5770034790039
 70
   192
  0
VERTEX
  5
9CA
  8
0
 10
27.20800018310547
 20
25.03899955749512
 30
66.94300079345703
 70
   192
  0
VERTEX
  5
9CB
  8
0
 10
24.62899971008301
 20
1.157999992370605
 30
78.24099731445312
 70
   192
  0
VERTEX
  5
9CC
  8
0
 10
25.5359992980957
 20
-0.0219999998807907
 30
68.73799896240234
 70
   192
  0
VERTEX
  5
9CD
  8
0
 10
24.5359992980957
 20
1.414000034332275
 30
78.92500305175781
 70
   192
  0
VERTEX
  5
9CE
  8
0
 10
0.0060000000521541
 20
32.81999969482422
 30
39.20500183105469
 70
   192
  0
VERTEX
  5
9CF
  8
0
 10
9.901000022888184
 20
30.9060001373291
 30
41.25799942016602
 70
   192
  0
VERTEX
  5
9D0
  8
0
 10
5.875999927520752
 20
29.76099967956543
 30
37.62300109863281
 70
   192
  0
VERTEX
  5
9D1
  8
0
 10
11.22500038146973
 20
27.4950008392334
 30
38.98500061035156
 70
   192
  0
VERTEX
  5
9D2
  8
0
 10
0.0060000000521541
 20
30.74200057983398
 30
37.0260009765625
 70
   192
  0
VERTEX
  5
9D3
  8
0
 10
10.76900005340576
 20
22.92900085449219
 30
94.47000122070312
 70
   192
  0
VERTEX
  5
9D4
  8
0
 10
18.62800025939941
 20
17.61700057983398
 30
88.02400207519531
 70
   192
  0
VERTEX
  5
9D5
  8
0
 10
19.19400024414062
 20
29.25
 30
86.59300231933594
 70
   192
  0
VERTEX
  5
9D6
  8
0
 10
13.78699970245361
 20
31.66600036621094
 30
90.75499725341797
 70
   192
  0
VERTEX
  5
9D7
  8
0
 10
24.02499961853027
 20
26.67099952697754
 30
80.11000061035156
 70
   192
  0
VERTEX
  5
9D8
  8
0
 10
23.50600051879883
 20
26.94799995422363
 30
80.80599975585938
 70
   192
  0
VERTEX
  5
9D9
  8
0
 10
24.94700050354004
 20
26.15900039672852
 30
77.59600067138672
 70
   192
  0
VERTEX
  5
9DA
  8
0
 10
10.51099967956543
 20
32.6619987487793
 30
92.12300109863281
 70
   192
  0
VERTEX
  5
9DB
  8
0
 10
9.236000061035156
 20
33.04999923706055
 30
92.65599822998047
 70
   192
  0
VERTEX
  5
9DC
  8
0
 10
5.683000087738037
 20
24.9950008392334
 30
96.2040023803711
 70
   192
  0
VERTEX
  5
9DD
  8
0
 10
7.027999877929688
 20
33.72200012207031
 30
93.5780029296875
 70
   192
  0
VERTEX
  5
9DE
  8
0
 10
0.0
 20
34.47900009155273
 30
94.5
 70
   192
  0
VERTEX
  5
9DF
  8
0
 10
0.0
 20
28.63599967956543
 30
95.25700378417969
 70
   192
  0
VERTEX
  5
9E0
  8
0
 10
0.0
 20
25.87400054931641
 30
96.93099975585938
 70
   192
  0
VERTEX
  5
9E1
  8
0
 10
21.40999984741211
 20
8.979000091552734
 30
93.89700317382812
 70
   192
  0
VERTEX
  5
9E2
  8
0
 10
20.2819995880127
 20
12.5649995803833
 30
89.34200286865234
 70
   192
  0
VERTEX
  5
9E3
  8
0
 10
17.11599922180176
 20
15.97299957275391
 30
93.94499969482422
 70
   192
  0
VERTEX
  5
9E4
  8
0
 10
18.7810001373291
 20
12.78899955749512
 30
97.81500244140625
 70
   192
  0
VERTEX
  5
9E5
  8
0
 10
22.84900093078613
 20
5.744999885559082
 30
88.94000244140625
 70
   192
  0
VERTEX
  5
9E6
  8
0
 10
23.45999908447266
 20
4.373000144958496
 30
86.83499908447266
 70
   192
  0
VERTEX
  5
9E7
  8
0
 10
21.80299949645996
 20
8.095999717712402
 30
92.54299926757812
 70
   192
  0
VERTEX
  5
9E8
  8
0
 10
13.14599990844727
 20
18.20999908447266
 30
102.1940002441406
 70
   192
  0
VERTEX
  5
9E9
  8
0
 10
12.6569995880127
 20
19.41799926757812
 30
97.41500091552734
 70
   192
  0
VERTEX
  5
9EA
  8
0
 10
6.802000045776367
 20
22.09700012207031
 30
99.55699920654297
 70
   192
  0
VERTEX
  5
9EB
  8
0
 10
7.534999847412109
 20
20.91600036621094
 30
103.7929992675781
 70
   192
  0
VERTEX
  5
9EC
  8
0
 10
16.60199928283691
 20
15.15100002288818
 30
99.89700317382812
 70
   192
  0
VERTEX
  5
9ED
  8
0
 10
18.01300048828125
 20
13.90200042724609
 30
98.95999908447266
 70
   192
  0
VERTEX
  5
9EE
  8
0
 10
14.01700019836426
 20
17.43899917602539
 30
101.6149978637695
 70
   192
  0
VERTEX
  5
9EF
  8
0
 10
7.000999927520752
 20
21.17300033569336
 30
103.9449996948242
 70
   192
  0
VERTEX
  5
9F0
  8
0
 10
0.0
 20
22.78300094604492
 30
101.2220001220703
 70
   192
  0
VERTEX
  5
9F1
  8
0
 10
0.0
 20
22.25
 30
104.5
 70
   192
  0
VERTEX
  5
9F2
  8
0
 10
7.343999862670898
 20
21.00799942016602
 30
103.8470001220703
 70
   192
  0
VERTEX
  5
9F3
  8
0
 10
0.0
 20
23.29299926757812
 30
100.3789978027344
 70
   192
  0
VERTEX
  5
9F4
  8
0
 10
0.0
 20
25.09099960327148
 30
97.40499877929688
 70
   192
  0
VERTEX
  5
9F5
  8
0
 10
24.29000091552734
 20
14.83800029754639
 30
37.42300033569336
 70
   192
  0
VERTEX
  5
9F6
  8
0
 10
19.36199951171875
 20
21.08099937438965
 30
44.41699981689453
 70
   192
  0
VERTEX
  5
9F7
  8
0
 10
22.2140007019043
 20
17.98699951171875
 30
48.49900054931641
 70
   192
  0
VERTEX
  5
9F8
  8
0
 10
26.27799987792969
 20
9.515999794006348
 30
42.69200134277344
 70
   192
  0
VERTEX
  5
9F9
  8
0
 10
26.24699974060059
 20
9.753999710083008
 30
42.34500122070312
 70
   192
  0
VERTEX
  5
9FA
  8
0
 10
14.79599952697754
 20
24.96999931335449
 30
31.44000053405762
 70
   192
  0
VERTEX
  5
9FB
  8
0
 10
15.74499988555908
 20
24.38199996948242
 30
41.25500106811523
 70
   192
  0
VERTEX
  5
9FC
  8
0
 10
9.527999877929688
 20
27.27799987792969
 30
30.61199951171875
 70
   192
  0
VERTEX
  5
9FD
  8
0
 10
21.12400054931641
 20
19.32699966430664
 30
34.36899948120117
 70
   192
  0
VERTEX
  5
9FE
  8
0
 10
24.34600067138672
 20
15.36699962615967
 30
53.49499893188477
 70
   192
  0
VERTEX
  5
9FF
  8
0
 10
26.42499923706055
 20
1.159999966621399
 30
58.91699981689453
 70
   192
  0
VERTEX
  5
A00
  8
0
 10
25.99600028991699
 20
0.5889999866485596
 30
63.65999984741211
 70
   192
  0
VERTEX
  5
A01
  8
0
 10
26.90299987792969
 20
4.663000106811523
 30
49.77399826049805
 70
   192
  0
VERTEX
  5
A02
  8
0
 10
26.63800048828125
 20
6.723000049591064
 30
46.76900100708008
 70
   192
  0
VERTEX
  5
A03
  8
0
 10
26.84000015258789
 20
5.150000095367432
 30
49.06399917602539
 70
   192
  0
VERTEX
  5
A04
  8
0
 10
18.13800048828125
 20
25.66399955749512
 30
46.30099868774414
 70
   192
  0
VERTEX
  5
A05
  8
0
 10
24.31800079345703
 20
20.78000068664551
 30
54.7859992980957
 70
   192
  0
VERTEX
  5
A06
  8
0
 10
0.0060000000521541
 20
33.45899963378906
 30
39.32799911499023
 70
   192
  0
VERTEX
  5
A07
  8
0
 10
3.476999998092651
 20
36.72900009155273
 30
40.22299957275391
 70
   192
  0
VERTEX
  5
A08
  8
0
 10
0.0070000002160668
 20
36.95399856567383
 30
40.0
 70
   192
  0
VERTEX
  5
A09
  8
0
 10
10.64299964904785
 20
34.9109992980957
 30
42.16400146484375
 70
   192
  0
VERTEX
  5
A0A
  8
0
 10
17.30400085449219
 20
31.8080005645752
 30
46.19900131225586
 70
   192
  0
VERTEX
  5
A0B
  8
0
 10
10.57100009918213
 20
34.93000030517578
 30
42.14500045776367
 70
   192
  0
VERTEX
  5
A0C
  8
0
 10
17.50799942016602
 20
31.69000053405762
 30
46.38399887084961
 70
   192
  0
VERTEX
  5
A0D
  8
0
 10
19.21299934387207
 20
30.70899963378906
 30
47.92599868774414
 70
   192
  0
VERTEX
  5
A0E
  8
0
 10
23.48900032043457
 20
27.95000076293945
 30
53.43500137329102
 70
   192
  0
VERTEX
  5
A0F
  8
0
 10
26.27099990844727
 20
25.90500068664551
 30
60.01200103759766
 70
   192
  0
VERTEX
  5
A10
  8
0
 10
26.61400032043457
 20
25.58799934387207
 30
62.54800033569336
 70
   192
  0
VERTEX
  5
A11
  8
0
 10
24.76700019836426
 20
27.01099967956543
 30
56.45600128173828
 70
   192
  0
VERTEX
  5
A12
  8
0
 10
7.640999794006348
 20
28.10499954223633
 30
30.31500053405762
 70
   192
  0
VERTEX
  5
A13
  8
0
 10
0.0060000000521541
 20
29.06900024414062
 30
32.6510009765625
 70
   192
  0
VERTEX
  5
A14
  8
0
 10
7.603000164031982
 20
28.12100028991699
 30
30.30999946594238
 70
   192
  0
VERTEX
  5
A15
  8
0
 10
0.0060000000521541
 20
29.16200065612793
 30
30.0
 70
   192
  0
VERTEX
  5
A16
  8
0
 10
0.0060000000521541
 20
30.09000015258789
 30
36.34299850463867
 70
   192
  0
VERTEX
  5
A17
  8
0
 10
20.39999961853027
 20
20.35300064086914
 30
33.67100143432617
 70
   192
  0
VERTEX
  5
A18
  8
0
 62
     9
 10
0.0
 20
0.0
 30
0.0
 70
   128
 71
     3
 72
     2
 73
     1
  0
VERTEX
  5
A19
  8
0
 62
     9
 10
0.0
 20
0.0
 30
0.0
 70
   128
 71
     1
 72
     5
 73
     4
  0
VERTEX
  5
A1A
  8
0
 62
     9
 10
0.0
 20
0.0
 30
0.0
 70
   128
 71
     1
 72
     4
 73
     3
  0
VERTEX
  5
A1B
  8
0
 62
     9
 10
0.0
 20
0.0
 30
0.0
 70
   128
 71
     2
 72
     6
 73
     1
  0
VERTEX
  5
A1C
  8
0
 62
     9
 10
0.0
 20
0.0
 30
0.0
 70
   128
 71
     8
 72
     7
 73
     4
  0
VERTEX
  5
A1D
  8
0
 62
     9
 10
0.0
 20
0.0
 30
0.0
 70
   128
 71
     4
 72
     5
 73
     8
  0
VERTEX
  5
A1E
  8
0
 62
     9
 10
0.0
 20
0.0
 30
0.0
 70
   128
 71
     7
 72
     9
 73
     4
  0
VERTEX
  5
A1F
  8
0
 62
     9
 10
0.0
 20
0.0
 30
0.0
 70
   128
 71
    12
 72
    11
 73
    10
  0
VERTEX
  5
A20
  8
0
 62
     9
 10
0.0
 20
0.0
 30
0.0
 70
   128
 71
    12
 72
    13
 73
    11
  0
VERTEX
  5
A21
  8
0
 62
     9
 10
0.0
 20
0.0
 30
0.0
 70
   128
 71
    10
 72
    14
 73
    12
  0
VERTEX
  5
A22
  8
0
 62
     9
 10
0.0
 20
0.0
 30
0.0
 70
   128
 71
    17
 72
    16
 73
    15
  0
VERTEX
  5
A23
  8
0
 62
     9
 10
0.0
 20
0.0
 30
0.0
 70
   128
 71
    15
 72
    18
 73
    17
  0
VERTEX
  5
A24
  8
0
 62
     9
 10
0.0
 20
0.0
 30
0.0
 70
   128
 71
    19
 72
     4
 73
    16
  0
VERTEX
  5
A25
  8
0
 62
     9
 10
0.0
 20
0.0
 30
0.0
 70
   128
 71
    16
 72
    20
 73
    19
  0
VERTEX
  5
A26
  8
0
 62
     9
 10
0.0
 20
0.0
 30
0.0
 70
   128
 71
    19
 72
    21
 73
     4
  0
VERTEX
  5
A27
  8
0
 62
     9
 10
0.0
 20
0.0
 30
0.0
 70
   128
 71
    23
 72
    22
 73
    15
  0
VERTEX
  5
A28
  8
0
 62
     9
 10
0.0
 20
0.0
 30
0.0
 70
   128
 71
    15
 72
    24
 73
    23
  0
VERTEX
  5
A29
  8
0
 62
     9
 10
0.0
 20
0.0
 30
0.0
 70
   128
 71
    27
 72
    26
 73
    25
  0
VERTEX
  5
A2A
  8
0
 62
     9
 10
0.0
 20
0.0
 30
0.0
 70
   128
 71
    25
 72
    24
 73
    27
  0
VERTEX
  5
A2B
  8
0
 62
     9
 10
0.0
 20
0.0
 30
0.0
 70
   128
 71
    24
 72
    28
 73
    27
  0
VERTEX
  5
A2C
  8
0
 62
     9
 10
0.0
 20
0.0
 30
0.0
 70
   128
 71
    31
 72
    30
 73
    29
  0
VERTEX
  5
A2D
  8
0
 62
     9
 10
0.0
 20
0.0
 30
0.0
 70
   128
 71
    29
 72
    32
 73
    31
  0
VERTEX
  5
A2E
  8
0
 62
     9
 10
0.0
 20
0.0
 30
0.0
 70
   128
 71
    34
 72
    33
 73
     4
  0
VERTEX
  5
A2F
  8
0
 62
     9
 10
0.0
 20
0.0
 30
0.0
 70
   128
 71
    30
 72
     4
 73
    33
  0
VERTEX
  5
A30
  8
0
 62
     9
 10
0.0
 20
0.0
 30
0.0
 70
   128
 71
    33
 72
    35
 73
    30
  0
VERTEX
  5
A31
  8
0
 62
     9
 10
0.0
 20
0.0
 30
0.0
 70
   128
 71
    30
 72
    16
 73
     4
  0
VERTEX
  5
A32
  8
0
 62
     9
 10
0.0
 20
0.0
 30
0.0
 70
   128
 71
    38
 72
    37
 73
    36
  0
VERTEX
  5
A33
  8
0
 62
     9
 10
0.0
 20
0.0
 30
0.0
 70
   128
 71
    36
 72
    39
 73
    38
  0
VERTEX
  5
A34
  8
0
 62
     9
 10
0.0
 20
0.0
 30
0.0
 70
   128
 71
    31
 72
    37
 73
    15
  0
VERTEX
  5
A35
  8
0
 62
     9
 10
0.0
 20
0.0
 30
0.0
 70
   128
 71
    15
 72
    16
 73
    31
  0
VERTEX
  5
A36
  8
0
 62
     9
 10
0.0
 20
0.0
 30
0.0
 70
   128
 71
    41
 72
    40
 73
    31
  0
VERTEX
  5
A37
  8
0
 62
     9
 10
0.0
 20
0.0
 30
0.0
 70
   128
 71
    40
 72
    42
 73
    37
  0
VERTEX
  5
A38
  8
0
 62
     9
 10
0.0
 20
0.0
 30
0.0
 70
   128
 71
    37
 72
    31
 73
    40
  0
VERTEX
  5
A39
  8
0
 62
     9
 10
0.0
 20
0.0
 30
0.0
 70
   128
 71
    15
 72
    37
 73
    38
  0
VERTEX
  5
A3A
  8
0
 62
     9
 10
0.0
 20
0.0
 30
0.0
 70
   128
 71
    44
 72
    38
 73
    43
  0
VERTEX
  5
A3B
  8
0
 62
     9
 10
0.0
 20
0.0
 30
0.0
 70
   128
 71
    43
 72
    45
 73
    44
  0
VERTEX
  5
A3C
  8
0
 62
     9
 10
0.0
 20
0.0
 30
0.0
 70
   128
 71
    38
 72
    46
 73
    43
  0
VERTEX
  5
A3D
  8
0
 62
     9
 10
0.0
 20
0.0
 30
0.0
 70
   128
 71
    44
 72
    47
 73
    38
  0
VERTEX
  5
A3E
  8
0
 62
     9
 10
0.0
 20
0.0
 30
0.0
 70
   128
 71
    48
 72
    24
 73
    38
  0
VERTEX
  5
A3F
  8
0
 62
     9
 10
0.0
 20
0.0
 30
0.0
 70
   128
 71
    48
 72
    28
 73
    24
  0
VERTEX
  5
A40
  8
0
 62
     9
 10
0.0
 20
0.0
 30
0.0
 70
   128
 71
    51
 72
    50
 73
    49
  0
VERTEX
  5
A41
  8
0
 62
     9
 10
0.0
 20
0.0
 30
0.0
 70
   128
 71
    53
 72
    52
 73
    51
  0
VERTEX
  5
A42
  8
0
 62
     9
 10
0.0
 20
0.0
 30
0.0
 70
   128
 71
    55
 72
    13
 73
    54
  0
VERTEX
  5
A43
  8
0
 62
     9
 10
0.0
 20
0.0
 30
0.0
 70
   128
 71
    56
 72
    13
 73
    12
  0
VERTEX
  5
A44
  8
0
 62
     9
 10
0.0
 20
0.0
 30
0.0
 70
   128
 71
    56
 72
    54
 73
    13
  0
VERTEX
  5
A45
  8
0
 62
     9
 10
0.0
 20
0.0
 30
0.0
 70
   128
 71
    57
 72
    50
 73
    55
  0
VERTEX
  5
A46
  8
0
 62
     9
 10
0.0
 20
0.0
 30
0.0
 70
   128
 71
    57
 72
    49
 73
    50
  0
VERTEX
  5
A47
  8
0
 62
     9
 10
0.0
 20
0.0
 30
0.0
 70
   128
 71
    59
 72
     5
 73
    58
  0
VERTEX
  5
A48
  8
0
 62
     9
 10
0.0
 20
0.0
 30
0.0
 70
   128
 71
    59
 72
    60
 73
     5
  0
VERTEX
  5
A49
  8
0
 62
     9
 10
0.0
 20
0.0
 30
0.0
 70
   128
 71
    58
 72
    61
 73
    59
  0
VERTEX
  5
A4A
  8
0
 62
     9
 10
0.0
 20
0.0
 30
0.0
 70
   128
 71
    52
 72
    62
 73
    58
  0
VERTEX
  5
A4B
  8
0
 62
     9
 10
0.0
 20
0.0
 30
0.0
 70
   128
 71
    62
 72
    63
 73
    58
  0
VERTEX
  5
A4C
  8
0
 62
     9
 10
0.0
 20
0.0
 30
0.0
 70
   128
 71
    51
 72
    65
 73
    64
  0
VERTEX
  5
A4D
  8
0
 62
     9
 10
0.0
 20
0.0
 30
0.0
 70
   128
 71
    51
 72
    58
 73
    65
  0
VERTEX
  5
A4E
  8
0
 62
     9
 10
0.0
 20
0.0
 30
0.0
 70
   128
 71
    67
 72
    66
 73
    11
  0
VERTEX
  5
A4F
  8
0
 62
     9
 10
0.0
 20
0.0
 30
0.0
 70
   128
 71
    67
 72
    68
 73
    66
  0
VERTEX
  5
A50
  8
0
 62
     9
 10
0.0
 20
0.0
 30
0.0
 70
   128
 71
    55
 72
    64
 73
    11
  0
VERTEX
  5
A51
  8
0
 62
     9
 10
0.0
 20
0.0
 30
0.0
 70
   128
 71
    55
 72
    50
 73
    64
  0
VERTEX
  5
A52
  8
0
 62
     9
 10
0.0
 20
0.0
 30
0.0
 70
   128
 71
    70
 72
    69
 73
    11
  0
VERTEX
  5
A53
  8
0
 62
     9
 10
0.0
 20
0.0
 30
0.0
 70
   128
 71
    69
 72
    71
 73
    11
  0
VERTEX
  5
A54
  8
0
 62
     9
 10
0.0
 20
0.0
 30
0.0
 70
   128
 71
    11
 72
    64
 73
    70
  0
VERTEX
  5
A55
  8
0
 62
     9
 10
0.0
 20
0.0
 30
0.0
 70
   128
 71
    64
 72
    72
 73
    70
  0
VERTEX
  5
A56
  8
0
 62
     9
 10
0.0
 20
0.0
 30
0.0
 70
   128
 71
    74
 72
    73
 73
    64
  0
VERTEX
  5
A57
  8
0
 62
     9
 10
0.0
 20
0.0
 30
0.0
 70
   128
 71
    64
 72
    65
 73
    74
  0
VERTEX
  5
A58
  8
0
 62
     9
 10
0.0
 20
0.0
 30
0.0
 70
   128
 71
     1
 72
    65
 73
    58
  0
VERTEX
  5
A59
  8
0
 62
     9
 10
0.0
 20
0.0
 30
0.0
 70
   128
 71
    75
 72
    65
 73
     1
  0
VERTEX
  5
A5A
  8
0
 62
     9
 10
0.0
 20
0.0
 30
0.0
 70
   128
 71
     1
 72
    76
 73
    75
  0
VERTEX
  5
A5B
  8
0
 62
     9
 10
0.0
 20
0.0
 30
0.0
 70
   128
 71
    75
 72
    77
 73
    65
  0
VERTEX
  5
A5C
  8
0
 62
     9
 10
0.0
 20
0.0
 30
0.0
 70
   128
 71
    79
 72
    78
 73
    12
  0
VERTEX
  5
A5D
  8
0
 62
     9
 10
0.0
 20
0.0
 30
0.0
 70
   128
 71
    80
 72
    78
 73
    79
  0
VERTEX
  5
A5E
  8
0
 62
     9
 10
0.0
 20
0.0
 30
0.0
 70
   128
 71
    79
 72
    81
 73
    80
  0
VERTEX
  5
A5F
  8
0
 62
     9
 10
0.0
 20
0.0
 30
0.0
 70
   128
 71
    12
 72
    82
 73
    79
  0
VERTEX
  5
A60
  8
0
 62
     9
 10
0.0
 20
0.0
 30
0.0
 70
   128
 71
    12
 72
    14
 73
    82
  0
VERTEX
  5
A61
  8
0
 62
     9
 10
0.0
 20
0.0
 30
0.0
 70
   128
 71
     1
 72
     6
 73
    76
  0
VERTEX
  5
A62
  8
0
 62
     9
 10
0.0
 20
0.0
 30
0.0
 70
   128
 71
    58
 72
     5
 73
     1
  0
VERTEX
  5
A63
  8
0
 62
     9
 10
0.0
 20
0.0
 30
0.0
 70
   128
 71
    65
 72
    77
 73
    74
  0
VERTEX
  5
A64
  8
0
 62
     9
 10
0.0
 20
0.0
 30
0.0
 70
   128
 71
    64
 72
    73
 73
    72
  0
VERTEX
  5
A65
  8
0
 62
     9
 10
0.0
 20
0.0
 30
0.0
 70
   128
 71
    11
 72
    13
 73
    55
  0
VERTEX
  5
A66
  8
0
 62
     9
 10
0.0
 20
0.0
 30
0.0
 70
   128
 71
    11
 72
    71
 73
    67
  0
VERTEX
  5
A67
  8
0
 62
     9
 10
0.0
 20
0.0
 30
0.0
 70
   128
 71
    64
 72
    50
 73
    51
  0
VERTEX
  5
A68
  8
0
 62
     9
 10
0.0
 20
0.0
 30
0.0
 70
   128
 71
    58
 72
    51
 73
    52
  0
VERTEX
  5
A69
  8
0
 62
     9
 10
0.0
 20
0.0
 30
0.0
 70
   128
 71
    58
 72
    63
 73
    61
  0
VERTEX
  5
A6A
  8
0
 62
     9
 10
0.0
 20
0.0
 30
0.0
 70
   128
 71
    55
 72
    83
 73
    57
  0
VERTEX
  5
A6B
  8
0
 62
     9
 10
0.0
 20
0.0
 30
0.0
 70
   128
 71
    12
 72
    78
 73
    56
  0
VERTEX
  5
A6C
  8
0
 62
     9
 10
0.0
 20
0.0
 30
0.0
 70
   128
 71
    54
 72
    83
 73
    55
  0
VERTEX
  5
A6D
  8
0
 62
     9
 10
0.0
 20
0.0
 30
0.0
 70
   128
 71
    49
 72
    53
 73
    51
  0
VERTEX
  5
A6E
  8
0
 62
     9
 10
0.0
 20
0.0
 30
0.0
 70
   128
 71
    38
 72
    47
 73
    48
  0
VERTEX
  5
A6F
  8
0
 62
     9
 10
0.0
 20
0.0
 30
0.0
 70
   128
 71
    38
 72
    39
 73
    46
  0
VERTEX
  5
A70
  8
0
 62
     9
 10
0.0
 20
0.0
 30
0.0
 70
   128
 71
    38
 72
    24
 73
    15
  0
VERTEX
  5
A71
  8
0
 62
     9
 10
0.0
 20
0.0
 30
0.0
 70
   128
 71
    31
 72
    32
 73
    41
  0
VERTEX
  5
A72
  8
0
 62
     9
 10
0.0
 20
0.0
 30
0.0
 70
   128
 71
    16
 72
    30
 73
    31
  0
VERTEX
  5
A73
  8
0
 62
     9
 10
0.0
 20
0.0
 30
0.0
 70
   128
 71
    37
 72
    42
 73
    36
  0
VERTEX
  5
A74
  8
0
 62
     9
 10
0.0
 20
0.0
 30
0.0
 70
   128
 71
     4
 72
     9
 73
    34
  0
VERTEX
  5
A75
  8
0
 62
     9
 10
0.0
 20
0.0
 30
0.0
 70
   128
 71
    30
 72
    35
 73
    29
  0
VERTEX
  5
A76
  8
0
 62
     9
 10
0.0
 20
0.0
 30
0.0
 70
   128
 71
    24
 72
    25
 73
    23
  0
VERTEX
  5
A77
  8
0
 62
     9
 10
0.0
 20
0.0
 30
0.0
 70
   128
 71
    16
 72
    17
 73
    20
  0
VERTEX
  5
A78
  8
0
 62
     9
 10
0.0
 20
0.0
 30
0.0
 70
   128
 71
    15
 72
    22
 73
    18
  0
VERTEX
  5
A79
  8
0
 62
     9
 10
0.0
 20
0.0
 30
0.0
 70
   128
 71
    11
 72
    66
 73
    10
  0
VERTEX
  5
A7A
  8
0
 62
     9
 10
0.0
 20
0.0
 30
0.0
 70
   128
 71
     5
 72
    60
 73
     8
  0
VERTEX
  5
A7B
  8
0
 62
     9
 10
0.0
 20
0.0
 30
0.0
 70
   128
 71
     4
 72
    21
 73
     3
  0
SEQEND
  5
A7C
  8
0
 62
     9
  0
ENDBLK
  5
A7F
  8
0
  0
BLOCK
  8
0
  2
E3_NODE_40_
 70
     0
 10
0.0
 20
0.0
 30
0.0
  3
E3_NODE_40_
  1

  0
POLYLINE
  5
A81
  8
0
 62
     9
 66
     1
 10
0.0
 20
0.0
 30
0.0
 70
    64
 71
    83
 72
   100
  0
VERTEX
  5
A82
  8
0
 10
-24.34099960327148
 20
15.37199974060059
 30
53.48300170898438
 70
   192
  0
VERTEX
  5
A83
  8
0
 10
-26.0890007019043
 20
12.45100021362305
 30
65.55799865722656
 70
   192
  0
VERTEX
  5
A84
  8
0
 10
-26.9689998626709
 20
18.23399925231934
 30
66.46700286865234
 70
   192
  0
VERTEX
  5
A85
  8
0
 10
-26.89999961853027
 20
5.081999778747559
 30
49.00600051879883
 70
   192
  0
VERTEX
  5
A86
  8
0
 10
-26.56999969482422
 20
1.664999961853027
 30
57.07400131225586
 70
   192
  0
VERTEX
  5
A87
  8
0
 10
-5.809999942779541
 20
33.95899963378906
 30
93.87300109863281
 70
   192
  0
VERTEX
  5
A88
  8
0
 10
-5.708000183105469
 20
24.98699951171875
 30
96.197998046875
 70
   192
  0
VERTEX
  5
A89
  8
0
 10
0.0
 20
28.63599967956543
 30
95.25700378417969
 70
   192
  0
VERTEX
  5
A8A
  8
0
 10
0.0
 20
25.87400054931641
 30
96.93099975585938
 70
   192
  0
VERTEX
  5
A8B
  8
0
 10
-10.78800010681152
 20
22.92000007629395
 30
94.46199798583984
 70
   192
  0
VERTEX
  5
A8C
  8
0
 10
-9.22700023651123
 20
33.01399993896484
 30
92.60700225830078
 70
   192
  0
VERTEX
  5
A8D
  8
0
 10
-10.54500007629395
 20
32.64899826049805
 30
92.11799621582031
 70
   192
  0
VERTEX
  5
A8E
  8
0
 10
-6.830999851226807
 20
22.08699989318848
 30
99.54900360107422
 70
   192
  0
VERTEX
  5
A8F
  8
0
 10
-7.35200023651123
 20
20.97500038146973
 30
103.8359985351562
 70
   192
  0
VERTEX
  5
A90
  8
0
 10
-1.016000032424927
 20
22.22800064086914
 30
104.4889984130859
 70
   192
  0
VERTEX
  5
A91
  8
0
 10
0.0
 20
22.78300094604492
 30
101.2220001220703
 70
   192
  0
VERTEX
  5
A92
  8
0
 10
-7.60200023651123
 20
20.92600059509277
 30
103.8099975585938
 70
   192
  0
VERTEX
  5
A93
  8
0
 10
0.0
 20
22.25
 30
104.5
 70
   192
  0
VERTEX
  5
A94
  8
0
 10
-9.904000282287598
 20
30.9060001373291
 30
41.25899887084961
 70
   192
  0
VERTEX
  5
A95
  8
0
 10
-11.22500038146973
 20
27.49600028991699
 30
38.98500061035156
 70
   192
  0
VERTEX
  5
A96
  8
0
 10
-15.73600006103516
 20
24.38299942016602
 30
41.25299835205078
 70
   192
  0
VERTEX
  5
A97
  8
0
 10
-18.11400032043457
 20
25.67600059509277
 30
46.28099822998047
 70
   192
  0
VERTEX
  5
A98
  8
0
 10
-24.31100082397461
 20
20.78499984741211
 30
54.77299880981445
 70
   192
  0
VERTEX
  5
A99
  8
0
 10
-26.80999946594238
 20
25.45599937438965
 30
62.5260009765625
 70
   192
  0
VERTEX
  5
A9A
  8
0
 10
-26.8700008392334
 20
25.40999984741211
 30
62.7140007019043
 70
   192
  0
VERTEX
  5
A9B
  8
0
 10
-27.22200012207031
 20
25.03000068664551
 30
66.91500091552734
 70
   192
  0
VERTEX
  5
A9C
  8
0
 10
-19.34799957275391
 20
21.08600044250488
 30
44.40800094604492
 70
   192
  0
VERTEX
  5
A9D
  8
0
 10
-22.20800018310547
 20
17.9950008392334
 30
48.48899841308594
 70
   192
  0
VERTEX
  5
A9E
  8
0
 10
-24.52000045776367
 20
27.22100067138672
 30
55.36199951171875
 70
   192
  0
VERTEX
  5
A9F
  8
0
 10
-20.36499977111816
 20
30.0049991607666
 30
49.14400100708008
 70
   192
  0
VERTEX
  5
AA0
  8
0
 10
-24.84499931335449
 20
26.96999931335449
 30
56.37799835205078
 70
   192
  0
VERTEX
  5
AA1
  8
0
 10
-17.42200088500977
 20
31.67399978637695
 30
46.50099945068359
 70
   192
  0
VERTEX
  5
AA2
  8
0
 10
-13.44900035858154
 20
33.75199890136719
 30
43.54999923706055
 70
   192
  0
VERTEX
  5
AA3
  8
0
 10
-18.79899978637695
 20
30.95499992370605
 30
47.52199935913086
 70
   192
  0
VERTEX
  5
AA4
  8
0
 10
-19.07699966430664
 20
30.7859992980957
 30
47.81100082397461
 70
   192
  0
VERTEX
  5
AA5
  8
0
 10
0.0060000000521541
 20
32.81999969482422
 30
39.20500183105469
 70
   192
  0
VERTEX
  5
AA6
  8
0
 10
0.0060000000521541
 20
30.74200057983398
 30
37.0260009765625
 70
   192
  0
VERTEX
  5
AA7
  8
0
 10
-5.882999897003174
 20
29.75699996948242
 30
37.625
 70
   192
  0
VERTEX
  5
AA8
  8
0
 10
0.0060000000521541
 20
33.45899963378906
 30
39.32799911499023
 70
   192
  0
VERTEX
  5
AA9
  8
0
 10
-6.73799991607666
 20
36.11899948120117
 30
40.84600067138672
 70
   192
  0
VERTEX
  5
AAA
  8
0
 10
-10.45100021362305
 20
34.81000137329102
 30
42.34199905395508
 70
   192
  0
VERTEX
  5
AAB
  8
0
 10
0.0
 20
36.95299911499023
 30
40.00099945068359
 70
   192
  0
VERTEX
  5
AAC
  8
0
 10
-20.40800094604492
 20
20.34199905395508
 30
33.67800140380859
 70
   192
  0
VERTEX
  5
AAD
  8
0
 10
-21.12599945068359
 20
19.32799911499023
 30
34.36600112915039
 70
   192
  0
VERTEX
  5
AAE
  8
0
 10
-26.31100082397461
 20
9.494999885559082
 30
42.64799880981445
 70
   192
  0
VERTEX
  5
AAF
  8
0
 10
-26.68000030517578
 20
6.730000019073486
 30
46.63100051879883
 70
   192
  0
VERTEX
  5
AB0
  8
0
 10
-24.23900032043457
 20
14.93200016021729
 30
37.3489990234375
 70
   192
  0
VERTEX
  5
AB1
  8
0
 10
-7.998000144958496
 20
28.00799942016602
 30
30.34499931335449
 70
   192
  0
VERTEX
  5
AB2
  8
0
 10
-9.545999526977539
 20
27.32099914550781
 30
30.59199905395508
 70
   192
  0
VERTEX
  5
AB3
  8
0
 10
-7.663000106811523
 20
28.05699920654297
 30
30.33099937438965
 70
   192
  0
VERTEX
  5
AB4
  8
0
 10
-14.67500019073486
 20
25.04500007629395
 30
31.40999984741211
 70
   192
  0
VERTEX
  5
AB5
  8
0
 10
0.0060000000521541
 20
29.06900024414062
 30
32.6510009765625
 70
   192
  0
VERTEX
  5
AB6
  8
0
 10
0.0060000000521541
 20
29.16200065612793
 30
30.0
 70
   192
  0
VERTEX
  5
AB7
  8
0
 10
0.0
 20
29.16200065612793
 30
30.0
 70
   192
  0
VERTEX
  5
AB8
  8
0
 10
0.0060000000521541
 20
30.09000015258789
 30
36.34299850463867
 70
   192
  0
VERTEX
  5
AB9
  8
0
 10
-22.84099960327148
 20
5.74399995803833
 30
88.81999969482422
 70
   192
  0
VERTEX
  5
ABA
  8
0
 10
-21.86599922180176
 20
8.043000221252441
 30
92.58499908447266
 70
   192
  0
VERTEX
  5
ABB
  8
0
 10
-20.28700065612793
 20
12.55900001525879
 30
89.33300018310547
 70
   192
  0
VERTEX
  5
ABC
  8
0
 10
-23.94000053405762
 20
13.44299983978271
 30
78.00499725341797
 70
   192
  0
VERTEX
  5
ABD
  8
0
 10
-24.51000022888184
 20
1.565999984741211
 30
78.8550033569336
 70
   192
  0
VERTEX
  5
ABE
  8
0
 10
-23.69099998474121
 20
3.736999988555908
 30
85.53500366210938
 70
   192
  0
VERTEX
  5
ABF
  8
0
 10
-12.67599964141846
 20
19.40800094604492
 30
97.40599822998047
 70
   192
  0
VERTEX
  5
AC0
  8
0
 10
-17.12400054931641
 20
15.96399974822998
 30
93.93199920654297
 70
   192
  0
VERTEX
  5
AC1
  8
0
 10
-16.55900001525879
 20
15.12100028991699
 30
99.822998046875
 70
   192
  0
VERTEX
  5
AC2
  8
0
 10
-18.95599937438965
 20
12.75399971008301
 30
97.93199920654297
 70
   192
  0
VERTEX
  5
AC3
  8
0
 10
0.0
 20
23.29299926757812
 30
100.3789978027344
 70
   192
  0
VERTEX
  5
AC4
  8
0
 10
0.0
 20
25.09099960327148
 30
97.40499877929688
 70
   192
  0
VERTEX
  5
AC5
  8
0
 10
-7.912000179290771
 20
20.86400032043457
 30
103.7779998779297
 70
   192
  0
VERTEX
  5
AC6
  8
0
 10
-14.16300010681152
 20
17.48699951171875
 30
101.7129974365234
 70
   192
  0
VERTEX
  5
AC7
  8
0
 10
-18.63699913024902
 20
17.61100006103516
 30
88.01399993896484
 70
   192
  0
VERTEX
  5
AC8
  8
0
 10
-21.71599960327148
 20
8.39900016784668
 30
93.16799926757812
 70
   192
  0
VERTEX
  5
AC9
  8
0
 10
-25.75099945068359
 20
0.0359999984502792
 30
66.4229965209961
 70
   192
  0
VERTEX
  5
ACA
  8
0
 10
-24.82999992370605
 20
0.7170000076293945
 30
76.24600219726562
 70
   192
  0
VERTEX
  5
ACB
  8
0
 10
-25.99399948120117
 20
0.5189999938011169
 30
63.6510009765625
 70
   192
  0
VERTEX
  5
ACC
  8
0
 10
-23.54299926757812
 20
26.94000053405762
 30
80.97200012207031
 70
   192
  0
VERTEX
  5
ACD
  8
0
 10
-23.58600044250488
 20
26.91600036621094
 30
80.86900329589844
 70
   192
  0
VERTEX
  5
ACE
  8
0
 10
-19.20100021362305
 20
29.24699974060059
 30
86.58699798583984
 70
   192
  0
VERTEX
  5
ACF
  8
0
 10
-12.94799995422363
 20
31.98399925231934
 30
91.22699737548828
 70
   192
  0
VERTEX
  5
AD0
  8
0
 10
-26.27000045776367
 20
25.41600036621094
 30
74.49299621582031
 70
   192
  0
VERTEX
  5
AD1
  8
0
 10
-27.25
 20
25.0
 30
67.25
 70
   192
  0
VERTEX
  5
AD2
  8
0
 10
-24.97800064086914
 20
26.13800048828125
 30
77.56300354003906
 70
   192
  0
VERTEX
  5
AD3
  8
0
 10
0.0070000002160668
 20
36.95399856567383
 30
40.0
 70
   192
  0
VERTEX
  5
AD4
  8
0
 10
0.0
 20
34.47900009155273
 30
94.5
 70
   192
  0
VERTEX
  5
AD5
  8
0
 62
     9
 10
0.0
 20
0.0
 30
0.0
 70
   128
 71
     3
 72
     2
 73
     1
  0
VERTEX
  5
AD6
  8
0
 62
     9
 10
0.0
 20
0.0
 30
0.0
 70
   128
 71
     5
 72
     4
 73
     1
  0
VERTEX
  5
AD7
  8
0
 62
     9
 10
0.0
 20
0.0
 30
0.0
 70
   128
 71
     1
 72
     2
 73
     5
  0
VERTEX
  5
AD8
  8
0
 62
     9
 10
0.0
 20
0.0
 30
0.0
 70
   128
 71
     8
 72
     7
 73
     6
  0
VERTEX
  5
AD9
  8
0
 62
     9
 10
0.0
 20
0.0
 30
0.0
 70
   128
 71
     8
 72
     9
 73
     7
  0
VERTEX
  5
ADA
  8
0
 62
     9
 10
0.0
 20
0.0
 30
0.0
 70
   128
 71
    11
 72
     7
 73
    10
  0
VERTEX
  5
ADB
  8
0
 62
     9
 10
0.0
 20
0.0
 30
0.0
 70
   128
 71
    11
 72
     6
 73
     7
  0
VERTEX
  5
ADC
  8
0
 62
     9
 10
0.0
 20
0.0
 30
0.0
 70
   128
 71
    10
 72
    12
 73
    11
  0
VERTEX
  5
ADD
  8
0
 62
     9
 10
0.0
 20
0.0
 30
0.0
 70
   128
 71
    15
 72
    14
 73
    13
  0
VERTEX
  5
ADE
  8
0
 62
     9
 10
0.0
 20
0.0
 30
0.0
 70
   128
 71
    13
 72
    16
 73
    15
  0
VERTEX
  5
ADF
  8
0
 62
     9
 10
0.0
 20
0.0
 30
0.0
 70
   128
 71
    14
 72
    17
 73
    13
  0
VERTEX
  5
AE0
  8
0
 62
     9
 10
0.0
 20
0.0
 30
0.0
 70
   128
 71
    16
 72
    18
 73
    15
  0
VERTEX
  5
AE1
  8
0
 62
     9
 10
0.0
 20
0.0
 30
0.0
 70
   128
 71
    21
 72
    20
 73
    19
  0
VERTEX
  5
AE2
  8
0
 62
     9
 10
0.0
 20
0.0
 30
0.0
 70
   128
 71
    19
 72
    22
 73
    21
  0
VERTEX
  5
AE3
  8
0
 62
     9
 10
0.0
 20
0.0
 30
0.0
 70
   128
 71
    24
 72
     3
 73
    23
  0
VERTEX
  5
AE4
  8
0
 62
     9
 10
0.0
 20
0.0
 30
0.0
 70
   128
 71
    24
 72
    25
 73
     3
  0
VERTEX
  5
AE5
  8
0
 62
     9
 10
0.0
 20
0.0
 30
0.0
 70
   128
 71
    25
 72
    26
 73
     3
  0
VERTEX
  5
AE6
  8
0
 62
     9
 10
0.0
 20
0.0
 30
0.0
 70
   128
 71
    28
 72
    27
 73
    22
  0
VERTEX
  5
AE7
  8
0
 62
     9
 10
0.0
 20
0.0
 30
0.0
 70
   128
 71
    22
 72
    23
 73
    28
  0
VERTEX
  5
AE8
  8
0
 62
     9
 10
0.0
 20
0.0
 30
0.0
 70
   128
 71
    30
 72
    29
 73
    23
  0
VERTEX
  5
AE9
  8
0
 62
     9
 10
0.0
 20
0.0
 30
0.0
 70
   128
 71
    23
 72
    22
 73
    30
  0
VERTEX
  5
AEA
  8
0
 62
     9
 10
0.0
 20
0.0
 30
0.0
 70
   128
 71
    29
 72
    31
 73
    23
  0
VERTEX
  5
AEB
  8
0
 62
     9
 10
0.0
 20
0.0
 30
0.0
 70
   128
 71
    33
 72
    32
 73
    22
  0
VERTEX
  5
AEC
  8
0
 62
     9
 10
0.0
 20
0.0
 30
0.0
 70
   128
 71
    22
 72
    19
 73
    33
  0
VERTEX
  5
AED
  8
0
 62
     9
 10
0.0
 20
0.0
 30
0.0
 70
   128
 71
    32
 72
    34
 73
    22
  0
VERTEX
  5
AEE
  8
0
 62
     9
 10
0.0
 20
0.0
 30
0.0
 70
   128
 71
    34
 72
    35
 73
    22
  0
VERTEX
  5
AEF
  8
0
 62
     9
 10
0.0
 20
0.0
 30
0.0
 70
   128
 71
    38
 72
    37
 73
    36
  0
VERTEX
  5
AF0
  8
0
 62
     9
 10
0.0
 20
0.0
 30
0.0
 70
   128
 71
    36
 72
    19
 73
    38
  0
VERTEX
  5
AF1
  8
0
 62
     9
 10
0.0
 20
0.0
 30
0.0
 70
   128
 71
    36
 72
    39
 73
    19
  0
VERTEX
  5
AF2
  8
0
 62
     9
 10
0.0
 20
0.0
 30
0.0
 70
   128
 71
    40
 72
    19
 73
    39
  0
VERTEX
  5
AF3
  8
0
 62
     9
 10
0.0
 20
0.0
 30
0.0
 70
   128
 71
    40
 72
    41
 73
    19
  0
VERTEX
  5
AF4
  8
0
 62
     9
 10
0.0
 20
0.0
 30
0.0
 70
   128
 71
    39
 72
    42
 73
    40
  0
VERTEX
  5
AF5
  8
0
 62
     9
 10
0.0
 20
0.0
 30
0.0
 70
   128
 71
    44
 72
    43
 73
    21
  0
VERTEX
  5
AF6
  8
0
 62
     9
 10
0.0
 20
0.0
 30
0.0
 70
   128
 71
    21
 72
    27
 73
    44
  0
VERTEX
  5
AF7
  8
0
 62
     9
 10
0.0
 20
0.0
 30
0.0
 70
   128
 71
    45
 72
    28
 73
     1
  0
VERTEX
  5
AF8
  8
0
 62
     9
 10
0.0
 20
0.0
 30
0.0
 70
   128
 71
     1
 72
    46
 73
    45
  0
VERTEX
  5
AF9
  8
0
 62
     9
 10
0.0
 20
0.0
 30
0.0
 70
   128
 71
    28
 72
    45
 73
    47
  0
VERTEX
  5
AFA
  8
0
 62
     9
 10
0.0
 20
0.0
 30
0.0
 70
   128
 71
    49
 72
    48
 73
    38
  0
VERTEX
  5
AFB
  8
0
 62
     9
 10
0.0
 20
0.0
 30
0.0
 70
   128
 71
    48
 72
    50
 73
    38
  0
VERTEX
  5
AFC
  8
0
 62
     9
 10
0.0
 20
0.0
 30
0.0
 70
   128
 71
    38
 72
    20
 73
    49
  0
VERTEX
  5
AFD
  8
0
 62
     9
 10
0.0
 20
0.0
 30
0.0
 70
   128
 71
    21
 72
    43
 73
    51
  0
VERTEX
  5
AFE
  8
0
 62
     9
 10
0.0
 20
0.0
 30
0.0
 70
   128
 71
    54
 72
    53
 73
    52
  0
VERTEX
  5
AFF
  8
0
 62
     9
 10
0.0
 20
0.0
 30
0.0
 70
   128
 71
    52
 72
    55
 73
    38
  0
VERTEX
  5
B00
  8
0
 62
     9
 10
0.0
 20
0.0
 30
0.0
 70
   128
 71
    38
 72
    50
 73
    52
  0
VERTEX
  5
B01
  8
0
 62
     9
 10
0.0
 20
0.0
 30
0.0
 70
   128
 71
    55
 72
    37
 73
    38
  0
VERTEX
  5
B02
  8
0
 62
     9
 10
0.0
 20
0.0
 30
0.0
 70
   128
 71
    58
 72
    57
 73
    56
  0
VERTEX
  5
B03
  8
0
 62
     9
 10
0.0
 20
0.0
 30
0.0
 70
   128
 71
    61
 72
    60
 73
    59
  0
VERTEX
  5
B04
  8
0
 62
     9
 10
0.0
 20
0.0
 30
0.0
 70
   128
 71
    59
 72
    56
 73
    61
  0
VERTEX
  5
B05
  8
0
 62
     9
 10
0.0
 20
0.0
 30
0.0
 70
   128
 71
    56
 72
    59
 73
    58
  0
VERTEX
  5
B06
  8
0
 62
     9
 10
0.0
 20
0.0
 30
0.0
 70
   128
 71
    64
 72
    63
 73
    62
  0
VERTEX
  5
B07
  8
0
 62
     9
 10
0.0
 20
0.0
 30
0.0
 70
   128
 71
    64
 72
    65
 73
    63
  0
VERTEX
  5
B08
  8
0
 62
     9
 10
0.0
 20
0.0
 30
0.0
 70
   128
 71
    67
 72
    66
 73
    13
  0
VERTEX
  5
B09
  8
0
 62
     9
 10
0.0
 20
0.0
 30
0.0
 70
   128
 71
    13
 72
     7
 73
    67
  0
VERTEX
  5
B0A
  8
0
 62
     9
 10
0.0
 20
0.0
 30
0.0
 70
   128
 71
    62
 72
    13
 73
    68
  0
VERTEX
  5
B0B
  8
0
 62
     9
 10
0.0
 20
0.0
 30
0.0
 70
   128
 71
    68
 72
    69
 73
    62
  0
VERTEX
  5
B0C
  8
0
 62
     9
 10
0.0
 20
0.0
 30
0.0
 70
   128
 71
    10
 72
     7
 73
    13
  0
VERTEX
  5
B0D
  8
0
 62
     9
 10
0.0
 20
0.0
 30
0.0
 70
   128
 71
    63
 72
    70
 73
    10
  0
VERTEX
  5
B0E
  8
0
 62
     9
 10
0.0
 20
0.0
 30
0.0
 70
   128
 71
    63
 72
    58
 73
    70
  0
VERTEX
  5
B0F
  8
0
 62
     9
 10
0.0
 20
0.0
 30
0.0
 70
   128
 71
    63
 72
    65
 73
    71
  0
VERTEX
  5
B10
  8
0
 62
     9
 10
0.0
 20
0.0
 30
0.0
 70
   128
 71
    71
 72
    57
 73
    58
  0
VERTEX
  5
B11
  8
0
 62
     9
 10
0.0
 20
0.0
 30
0.0
 70
   128
 71
    73
 72
    72
 73
     2
  0
VERTEX
  5
B12
  8
0
 62
     9
 10
0.0
 20
0.0
 30
0.0
 70
   128
 71
     2
 72
    59
 73
    73
  0
VERTEX
  5
B13
  8
0
 62
     9
 10
0.0
 20
0.0
 30
0.0
 70
   128
 71
    72
 72
    74
 73
     2
  0
VERTEX
  5
B14
  8
0
 62
     9
 10
0.0
 20
0.0
 30
0.0
 70
   128
 71
    76
 72
    75
 73
    59
  0
VERTEX
  5
B15
  8
0
 62
     9
 10
0.0
 20
0.0
 30
0.0
 70
   128
 71
    75
 72
    77
 73
    70
  0
VERTEX
  5
B16
  8
0
 62
     9
 10
0.0
 20
0.0
 30
0.0
 70
   128
 71
    70
 72
    59
 73
    75
  0
VERTEX
  5
B17
  8
0
 62
     9
 10
0.0
 20
0.0
 30
0.0
 70
   128
 71
    77
 72
    78
 73
    10
  0
VERTEX
  5
B18
  8
0
 62
     9
 10
0.0
 20
0.0
 30
0.0
 70
   128
 71
    78
 72
    12
 73
    10
  0
VERTEX
  5
B19
  8
0
 62
     9
 10
0.0
 20
0.0
 30
0.0
 70
   128
 71
     3
 72
    80
 73
    79
  0
VERTEX
  5
B1A
  8
0
 62
     9
 10
0.0
 20
0.0
 30
0.0
 70
   128
 71
    79
 72
    59
 73
     3
  0
VERTEX
  5
B1B
  8
0
 62
     9
 10
0.0
 20
0.0
 30
0.0
 70
   128
 71
    59
 72
     2
 73
     3
  0
VERTEX
  5
B1C
  8
0
 62
     9
 10
0.0
 20
0.0
 30
0.0
 70
   128
 71
    79
 72
    81
 73
    59
  0
VERTEX
  5
B1D
  8
0
 62
     9
 10
0.0
 20
0.0
 30
0.0
 70
   128
 71
     3
 72
    26
 73
    80
  0
VERTEX
  5
B1E
  8
0
 62
     9
 10
0.0
 20
0.0
 30
0.0
 70
   128
 71
    10
 72
    70
 73
    77
  0
VERTEX
  5
B1F
  8
0
 62
     9
 10
0.0
 20
0.0
 30
0.0
 70
   128
 71
    59
 72
    81
 73
    76
  0
VERTEX
  5
B20
  8
0
 62
     9
 10
0.0
 20
0.0
 30
0.0
 70
   128
 71
    59
 72
    60
 73
    73
  0
VERTEX
  5
B21
  8
0
 62
     9
 10
0.0
 20
0.0
 30
0.0
 70
   128
 71
    71
 72
    58
 73
    63
  0
VERTEX
  5
B22
  8
0
 62
     9
 10
0.0
 20
0.0
 30
0.0
 70
   128
 71
    10
 72
    62
 73
    63
  0
VERTEX
  5
B23
  8
0
 62
     9
 10
0.0
 20
0.0
 30
0.0
 70
   128
 71
    13
 72
    62
 73
    10
  0
VERTEX
  5
B24
  8
0
 62
     9
 10
0.0
 20
0.0
 30
0.0
 70
   128
 71
    13
 72
    17
 73
    68
  0
VERTEX
  5
B25
  8
0
 62
     9
 10
0.0
 20
0.0
 30
0.0
 70
   128
 71
     7
 72
     9
 73
    67
  0
VERTEX
  5
B26
  8
0
 62
     9
 10
0.0
 20
0.0
 30
0.0
 70
   128
 71
    62
 72
    69
 73
    64
  0
VERTEX
  5
B27
  8
0
 62
     9
 10
0.0
 20
0.0
 30
0.0
 70
   128
 71
    59
 72
    70
 73
    58
  0
VERTEX
  5
B28
  8
0
 62
     9
 10
0.0
 20
0.0
 30
0.0
 70
   128
 71
    52
 72
    50
 73
    54
  0
VERTEX
  5
B29
  8
0
 62
     9
 10
0.0
 20
0.0
 30
0.0
 70
   128
 71
    51
 72
    20
 73
    21
  0
VERTEX
  5
B2A
  8
0
 62
     9
 10
0.0
 20
0.0
 30
0.0
 70
   128
 71
    20
 72
    51
 73
    49
  0
VERTEX
  5
B2B
  8
0
 62
     9
 10
0.0
 20
0.0
 30
0.0
 70
   128
 71
    47
 72
    27
 73
    28
  0
VERTEX
  5
B2C
  8
0
 62
     9
 10
0.0
 20
0.0
 30
0.0
 70
   128
 71
     1
 72
     4
 73
    46
  0
VERTEX
  5
B2D
  8
0
 62
     9
 10
0.0
 20
0.0
 30
0.0
 70
   128
 71
    27
 72
    47
 73
    44
  0
VERTEX
  5
B2E
  8
0
 62
     9
 10
0.0
 20
0.0
 30
0.0
 70
   128
 71
    39
 72
    82
 73
    42
  0
VERTEX
  5
B2F
  8
0
 62
     9
 10
0.0
 20
0.0
 30
0.0
 70
   128
 71
    19
 72
    20
 73
    38
  0
VERTEX
  5
B30
  8
0
 62
     9
 10
0.0
 20
0.0
 30
0.0
 70
   128
 71
    19
 72
    41
 73
    33
  0
VERTEX
  5
B31
  8
0
 62
     9
 10
0.0
 20
0.0
 30
0.0
 70
   128
 71
    22
 72
    35
 73
    30
  0
VERTEX
  5
B32
  8
0
 62
     9
 10
0.0
 20
0.0
 30
0.0
 70
   128
 71
    23
 72
     1
 73
    28
  0
VERTEX
  5
B33
  8
0
 62
     9
 10
0.0
 20
0.0
 30
0.0
 70
   128
 71
    23
 72
    31
 73
    24
  0
VERTEX
  5
B34
  8
0
 62
     9
 10
0.0
 20
0.0
 30
0.0
 70
   128
 71
    22
 72
    27
 73
    21
  0
VERTEX
  5
B35
  8
0
 62
     9
 10
0.0
 20
0.0
 30
0.0
 70
   128
 71
    13
 72
    66
 73
    16
  0
VERTEX
  5
B36
  8
0
 62
     9
 10
0.0
 20
0.0
 30
0.0
 70
   128
 71
     6
 72
    83
 73
     8
  0
VERTEX
  5
B37
  8
0
 62
     9
 10
0.0
 20
0.0
 30
0.0
 70
   128
 71
     2
 72
    74
 73
     5
  0
VERTEX
  5
B38
  8
0
 62
     9
 10
0.0
 20
0.0
 30
0.0
 70
   128
 71
     1
 72
    23
 73
     3
  0
SEQEND
  5
B39
  8
0
 62
     9
  0
ENDBLK
  5
B3C
  8
0
  0
BLOCK
  8
0
  2
E3_NODE_41_
 70
     0
 10
0.0
 20
0.0
 30
0.0
  3
E3_NODE_41_
  1

  0
POLYLINE
  5
B3E
  8
0
 62
     9
 66
     1
 10
0.0
 20
0.0
 30
0.0
 70
    64
 71
    56
 72
    60
  0
VERTEX
  5
B3F
  8
0
 10
5.656000137329102
 20
-16.16399955749512
 30
163.375
 70
   192
  0
VERTEX
  5
B40
  8
0
 10
12.64000034332275
 20
-11.55399990081787
 30
163.375
 70
   192
  0
VERTEX
  5
B41
  8
0
 10
11.07199954986572
 20
-10.11999988555908
 30
200.0
 70
   192
  0
VERTEX
  5
B42
  8
0
 10
16.60600090026855
 20
-4.184000015258789
 30
163.375
 70
   192
  0
VERTEX
  5
B43
  8
0
 10
14.54500007629395
 20
-3.664999961853027
 30
200.0
 70
   192
  0
VERTEX
  5
B44
  8
0
 10
16.60600090026855
 20
4.184000015258789
 30
163.375
 70
   192
  0
VERTEX
  5
B45
  8
0
 10
14.54500007629395
 20
3.664999961853027
 30
200.0
 70
   192
  0
VERTEX
  5
B46
  8
0
 10
12.64000034332275
 20
11.55399990081787
 30
163.375
 70
   192
  0
VERTEX
  5
B47
  8
0
 10
11.07199954986572
 20
10.11999988555908
 30
200.0
 70
   192
  0
VERTEX
  5
B48
  8
0
 10
5.656000137329102
 20
16.16399955749512
 30
163.375
 70
   192
  0
VERTEX
  5
B49
  8
0
 10
4.953999996185303
 20
14.15799999237061
 30
200.0
 70
   192
  0
VERTEX
  5
B4A
  8
0
 10
10.56900024414062
 20
-30.20400047302246
 30
0.0
 70
   192
  0
VERTEX
  5
B4B
  8
0
 10
23.6200008392334
 20
-21.5890007019043
 30
0.0
 70
   192
  0
VERTEX
  5
B4C
  8
0
 10
31.03000068664551
 20
-7.818999767303467
 30
0.0
 70
   192
  0
VERTEX
  5
B4D
  8
0
 10
4.953999996185303
 20
-14.15799999237061
 30
200.0
 70
   192
  0
VERTEX
  5
B4E
  8
0
 10
0.0
 20
-15.0
 30
200.0
 70
   192
  0
VERTEX
  5
B4F
  8
0
 10
0.0
 20
-17.125
 30
163.375
 70
   192
  0
VERTEX
  5
B50
  8
0
 10
10.56900024414062
 20
30.20400047302246
 30
0.0
 70
   192
  0
VERTEX
  5
B51
  8
0
 10
7.603000164031982
 20
28.12100028991699
 30
30.30999946594238
 70
   192
  0
VERTEX
  5
B52
  8
0
 10
7.640999794006348
 20
28.10499954223633
 30
30.31500053405762
 70
   192
  0
VERTEX
  5
B53
  8
0
 10
0.0
 20
32.0
 30
0.0
 70
   192
  0
VERTEX
  5
B54
  8
0
 10
0.0
 20
29.16200065612793
 30
30.0
 70
   192
  0
VERTEX
  5
B55
  8
0
 10
0.0060000000521541
 20
29.16200065612793
 30
30.0
 70
   192
  0
VERTEX
  5
B56
  8
0
 10
9.527999877929688
 20
27.27799987792969
 30
30.61199951171875
 70
   192
  0
VERTEX
  5
B57
  8
0
 10
14.79599952697754
 20
24.96999931335449
 30
31.44000053405762
 70
   192
  0
VERTEX
  5
B58
  8
0
 10
23.6200008392334
 20
21.5890007019043
 30
0.0
 70
   192
  0
VERTEX
  5
B59
  8
0
 10
20.39999961853027
 20
20.35300064086914
 30
33.67100143432617
 70
   192
  0
VERTEX
  5
B5A
  8
0
 10
31.03000068664551
 20
7.818999767303467
 30
0.0
 70
   192
  0
VERTEX
  5
B5B
  8
0
 10
26.24699974060059
 20
9.753999710083008
 30
42.34500122070312
 70
   192
  0
VERTEX
  5
B5C
  8
0
 10
26.27799987792969
 20
9.515999794006348
 30
42.69200134277344
 70
   192
  0
VERTEX
  5
B5D
  8
0
 10
21.12400054931641
 20
19.32699966430664
 30
34.36899948120117
 70
   192
  0
VERTEX
  5
B5E
  8
0
 10
24.29000091552734
 20
14.83800029754639
 30
37.42300033569336
 70
   192
  0
VERTEX
  5
B5F
  8
0
 10
23.45999908447266
 20
4.373000144958496
 30
86.83499908447266
 70
   192
  0
VERTEX
  5
B60
  8
0
 10
22.84900093078613
 20
5.744999885559082
 30
88.94000244140625
 70
   192
  0
VERTEX
  5
B61
  8
0
 10
24.62899971008301
 20
1.157999992370605
 30
78.24099731445312
 70
   192
  0
VERTEX
  5
B62
  8
0
 10
24.5359992980957
 20
1.414000034332275
 30
78.92500305175781
 70
   192
  0
VERTEX
  5
B63
  8
0
 10
25.5359992980957
 20
-0.0219999998807907
 30
68.73799896240234
 70
   192
  0
VERTEX
  5
B64
  8
0
 10
26.42499923706055
 20
1.159999966621399
 30
58.91699981689453
 70
   192
  0
VERTEX
  5
B65
  8
0
 10
25.99600028991699
 20
0.5889999866485596
 30
63.65999984741211
 70
   192
  0
VERTEX
  5
B66
  8
0
 10
26.63800048828125
 20
6.723000049591064
 30
46.76900100708008
 70
   192
  0
VERTEX
  5
B67
  8
0
 10
26.84000015258789
 20
5.150000095367432
 30
49.06399917602539
 70
   192
  0
VERTEX
  5
B68
  8
0
 10
26.90299987792969
 20
4.663000106811523
 30
49.77399826049805
 70
   192
  0
VERTEX
  5
B69
  8
0
 10
18.01300048828125
 20
13.90200042724609
 30
98.95999908447266
 70
   192
  0
VERTEX
  5
B6A
  8
0
 10
16.60199928283691
 20
15.15100002288818
 30
99.89700317382812
 70
   192
  0
VERTEX
  5
B6B
  8
0
 10
21.40999984741211
 20
8.979000091552734
 30
93.89700317382812
 70
   192
  0
VERTEX
  5
B6C
  8
0
 10
18.7810001373291
 20
12.78899955749512
 30
97.81500244140625
 70
   192
  0
VERTEX
  5
B6D
  8
0
 10
21.80299949645996
 20
8.095999717712402
 30
92.54299926757812
 70
   192
  0
VERTEX
  5
B6E
  8
0
 10
7.534999847412109
 20
20.91600036621094
 30
103.7929992675781
 70
   192
  0
VERTEX
  5
B6F
  8
0
 10
7.343999862670898
 20
21.00799942016602
 30
103.8470001220703
 70
   192
  0
VERTEX
  5
B70
  8
0
 10
13.14599990844727
 20
18.20999908447266
 30
102.1940002441406
 70
   192
  0
VERTEX
  5
B71
  8
0
 10
14.01700019836426
 20
17.43899917602539
 30
101.6149978637695
 70
   192
  0
VERTEX
  5
B72
  8
0
 10
7.000999927520752
 20
21.17300033569336
 30
103.9449996948242
 70
   192
  0
VERTEX
  5
B73
  8
0
 10
0.0
 20
22.25
 30
104.5
 70
   192
  0
VERTEX
  5
B74
  8
0
 10
0.0
 20
17.125
 30
163.375
 70
   192
  0
VERTEX
  5
B75
  8
0
 10
0.0
 20
15.0
 30
200.0
 70
   192
  0
VERTEX
  5
B76
  8
0
 10
0.0
 20
-32.0
 30
0.0
 70
   192
  0
VERTEX
  5
B77
  8
0
 62
     9
 10
0.0
 20
0.0
 30
0.0
 70
   128
 71
     3
 72
     2
 73
     1
  0
VERTEX
  5
B78
  8
0
 62
     9
 10
0.0
 20
0.0
 30
0.0
 70
   128
 71
     3
 72
     5
 73
     4
  0
VERTEX
  5
B79
  8
0
 62
     9
 10
0.0
 20
0.0
 30
0.0
 70
   128
 71
     7
 72
     6
 73
     4
  0
VERTEX
  5
B7A
  8
0
 62
     9
 10
0.0
 20
0.0
 30
0.0
 70
   128
 71
     7
 72
     9
 73
     8
  0
VERTEX
  5
B7B
  8
0
 62
     9
 10
0.0
 20
0.0
 30
0.0
 70
   128
 71
    11
 72
    10
 73
     8
  0
VERTEX
  5
B7C
  8
0
 62
     9
 10
0.0
 20
0.0
 30
0.0
 70
   128
 71
     2
 72
    13
 73
    12
  0
VERTEX
  5
B7D
  8
0
 62
     9
 10
0.0
 20
0.0
 30
0.0
 70
   128
 71
     2
 72
     4
 73
    14
  0
VERTEX
  5
B7E
  8
0
 62
     9
 10
0.0
 20
0.0
 30
0.0
 70
   128
 71
    16
 72
    15
 73
     1
  0
VERTEX
  5
B7F
  8
0
 62
     9
 10
0.0
 20
0.0
 30
0.0
 70
   128
 71
    17
 72
     1
 73
    12
  0
VERTEX
  5
B80
  8
0
 62
     9
 10
0.0
 20
0.0
 30
0.0
 70
   128
 71
    20
 72
    19
 73
    18
  0
VERTEX
  5
B81
  8
0
 62
     9
 10
0.0
 20
0.0
 30
0.0
 70
   128
 71
    23
 72
    22
 73
    21
  0
VERTEX
  5
B82
  8
0
 62
     9
 10
0.0
 20
0.0
 30
0.0
 70
   128
 71
    21
 72
    18
 73
    23
  0
VERTEX
  5
B83
  8
0
 62
     9
 10
0.0
 20
0.0
 30
0.0
 70
   128
 71
    18
 72
    19
 73
    23
  0
VERTEX
  5
B84
  8
0
 62
     9
 10
0.0
 20
0.0
 30
0.0
 70
   128
 71
    25
 72
    24
 73
    18
  0
VERTEX
  5
B85
  8
0
 62
     9
 10
0.0
 20
0.0
 30
0.0
 70
   128
 71
    18
 72
    26
 73
    25
  0
VERTEX
  5
B86
  8
0
 62
     9
 10
0.0
 20
0.0
 30
0.0
 70
   128
 71
    26
 72
    27
 73
    25
  0
VERTEX
  5
B87
  8
0
 62
     9
 10
0.0
 20
0.0
 30
0.0
 70
   128
 71
    30
 72
    29
 73
    28
  0
VERTEX
  5
B88
  8
0
 62
     9
 10
0.0
 20
0.0
 30
0.0
 70
   128
 71
    31
 72
    26
 73
    28
  0
VERTEX
  5
B89
  8
0
 62
     9
 10
0.0
 20
0.0
 30
0.0
 70
   128
 71
    28
 72
    32
 73
    31
  0
VERTEX
  5
B8A
  8
0
 62
     9
 10
0.0
 20
0.0
 30
0.0
 70
   128
 71
    28
 72
    29
 73
    32
  0
VERTEX
  5
B8B
  8
0
 62
     9
 10
0.0
 20
0.0
 30
0.0
 70
   128
 71
    34
 72
    33
 73
     4
  0
VERTEX
  5
B8C
  8
0
 62
     9
 10
0.0
 20
0.0
 30
0.0
 70
   128
 71
    36
 72
    35
 73
     4
  0
VERTEX
  5
B8D
  8
0
 62
     9
 10
0.0
 20
0.0
 30
0.0
 70
   128
 71
     4
 72
    33
 73
    36
  0
VERTEX
  5
B8E
  8
0
 62
     9
 10
0.0
 20
0.0
 30
0.0
 70
   128
 71
    37
 72
    14
 73
     4
  0
VERTEX
  5
B8F
  8
0
 62
     9
 10
0.0
 20
0.0
 30
0.0
 70
   128
 71
     4
 72
    35
 73
    37
  0
VERTEX
  5
B90
  8
0
 62
     9
 10
0.0
 20
0.0
 30
0.0
 70
   128
 71
    39
 72
    38
 73
    14
  0
VERTEX
  5
B91
  8
0
 62
     9
 10
0.0
 20
0.0
 30
0.0
 70
   128
 71
    14
 72
    37
 73
    39
  0
VERTEX
  5
B92
  8
0
 62
     9
 10
0.0
 20
0.0
 30
0.0
 70
   128
 71
    40
 72
    28
 73
    14
  0
VERTEX
  5
B93
  8
0
 62
     9
 10
0.0
 20
0.0
 30
0.0
 70
   128
 71
    14
 72
    41
 73
    40
  0
VERTEX
  5
B94
  8
0
 62
     9
 10
0.0
 20
0.0
 30
0.0
 70
   128
 71
    14
 72
    42
 73
    41
  0
VERTEX
  5
B95
  8
0
 62
     9
 10
0.0
 20
0.0
 30
0.0
 70
   128
 71
    14
 72
    38
 73
    42
  0
VERTEX
  5
B96
  8
0
 62
     9
 10
0.0
 20
0.0
 30
0.0
 70
   128
 71
    44
 72
    43
 73
     6
  0
VERTEX
  5
B97
  8
0
 62
     9
 10
0.0
 20
0.0
 30
0.0
 70
   128
 71
    46
 72
    45
 73
     6
  0
VERTEX
  5
B98
  8
0
 62
     9
 10
0.0
 20
0.0
 30
0.0
 70
   128
 71
     6
 72
    43
 73
    46
  0
VERTEX
  5
B99
  8
0
 62
     9
 10
0.0
 20
0.0
 30
0.0
 70
   128
 71
    47
 72
    34
 73
     6
  0
VERTEX
  5
B9A
  8
0
 62
     9
 10
0.0
 20
0.0
 30
0.0
 70
   128
 71
     6
 72
    45
 73
    47
  0
VERTEX
  5
B9B
  8
0
 62
     9
 10
0.0
 20
0.0
 30
0.0
 70
   128
 71
    49
 72
    48
 73
     8
  0
VERTEX
  5
B9C
  8
0
 62
     9
 10
0.0
 20
0.0
 30
0.0
 70
   128
 71
    48
 72
    50
 73
     8
  0
VERTEX
  5
B9D
  8
0
 62
     9
 10
0.0
 20
0.0
 30
0.0
 70
   128
 71
    51
 72
    44
 73
     8
  0
VERTEX
  5
B9E
  8
0
 62
     9
 10
0.0
 20
0.0
 30
0.0
 70
   128
 71
     8
 72
    50
 73
    51
  0
VERTEX
  5
B9F
  8
0
 62
     9
 10
0.0
 20
0.0
 30
0.0
 70
   128
 71
    53
 72
    52
 73
    10
  0
VERTEX
  5
BA0
  8
0
 62
     9
 10
0.0
 20
0.0
 30
0.0
 70
   128
 71
    52
 72
    49
 73
    10
  0
VERTEX
  5
BA1
  8
0
 62
     9
 10
0.0
 20
0.0
 30
0.0
 70
   128
 71
    55
 72
    54
 73
    10
  0
VERTEX
  5
BA2
  8
0
 62
     9
 10
0.0
 20
0.0
 30
0.0
 70
   128
 71
    10
 72
    11
 73
    55
  0
VERTEX
  5
BA3
  8
0
 62
     9
 10
0.0
 20
0.0
 30
0.0
 70
   128
 71
    10
 72
    54
 73
    53
  0
VERTEX
  5
BA4
  8
0
 62
     9
 10
0.0
 20
0.0
 30
0.0
 70
   128
 71
     8
 72
    10
 73
    49
  0
VERTEX
  5
BA5
  8
0
 62
     9
 10
0.0
 20
0.0
 30
0.0
 70
   128
 71
     6
 72
     8
 73
    44
  0
VERTEX
  5
BA6
  8
0
 62
     9
 10
0.0
 20
0.0
 30
0.0
 70
   128
 71
     4
 72
     6
 73
    34
  0
VERTEX
  5
BA7
  8
0
 62
     9
 10
0.0
 20
0.0
 30
0.0
 70
   128
 71
    28
 72
    40
 73
    30
  0
VERTEX
  5
BA8
  8
0
 62
     9
 10
0.0
 20
0.0
 30
0.0
 70
   128
 71
    26
 72
    31
 73
    27
  0
VERTEX
  5
BA9
  8
0
 62
     9
 10
0.0
 20
0.0
 30
0.0
 70
   128
 71
    18
 72
    24
 73
    20
  0
VERTEX
  5
BAA
  8
0
 62
     9
 10
0.0
 20
0.0
 30
0.0
 70
   128
 71
    12
 72
    56
 73
    17
  0
VERTEX
  5
BAB
  8
0
 62
     9
 10
0.0
 20
0.0
 30
0.0
 70
   128
 71
     1
 72
    17
 73
    16
  0
VERTEX
  5
BAC
  8
0
 62
     9
 10
0.0
 20
0.0
 30
0.0
 70
   128
 71
    14
 72
    13
 73
     2
  0
VERTEX
  5
BAD
  8
0
 62
     9
 10
0.0
 20
0.0
 30
0.0
 70
   128
 71
    12
 72
     1
 73
     2
  0
VERTEX
  5
BAE
  8
0
 62
     9
 10
0.0
 20
0.0
 30
0.0
 70
   128
 71
     8
 72
     9
 73
    11
  0
VERTEX
  5
BAF
  8
0
 62
     9
 10
0.0
 20
0.0
 30
0.0
 70
   128
 71
     8
 72
     6
 73
     7
  0
VERTEX
  5
BB0
  8
0
 62
     9
 10
0.0
 20
0.0
 30
0.0
 70
   128
 71
     4
 72
     5
 73
     7
  0
VERTEX
  5
BB1
  8
0
 62
     9
 10
0.0
 20
0.0
 30
0.0
 70
   128
 71
     4
 72
     2
 73
     3
  0
VERTEX
  5
BB2
  8
0
 62
     9
 10
0.0
 20
0.0
 30
0.0
 70
   128
 71
     1
 72
    15
 73
     3
  0
SEQEND
  5
BB3
  8
0
 62
     9
  0
ENDBLK
  5
BB6
  8
0
  0
BLOCK
  8
0
  2
E3_NODE_42_
 70
     0
 10
0.0
 20
0.0
 30
0.0
  3
E3_NODE_42_
  1

  0
POLYLINE
  5
BB8
  8
0
 62
     9
 66
     1
 10
0.0
 20
0.0
 30
0.0
 70
    64
 71
    52
 72
    56
  0
VERTEX
  5
BB9
  8
0
 10
-12.64000034332275
 20
11.55399990081787
 30
163.375
 70
   192
  0
VERTEX
  5
BBA
  8
0
 10
-11.07199954986572
 20
10.11999988555908
 30
200.0
 70
   192
  0
VERTEX
  5
BBB
  8
0
 10
-4.953999996185303
 20
14.15799999237061
 30
200.0
 70
   192
  0
VERTEX
  5
BBC
  8
0
 10
-16.60600090026855
 20
4.184000015258789
 30
163.375
 70
   192
  0
VERTEX
  5
BBD
  8
0
 10
-14.54500007629395
 20
3.664999961853027
 30
200.0
 70
   192
  0
VERTEX
  5
BBE
  8
0
 10
-16.60600090026855
 20
-4.184000015258789
 30
163.375
 70
   192
  0
VERTEX
  5
BBF
  8
0
 10
-14.54500007629395
 20
-3.664999961853027
 30
200.0
 70
   192
  0
VERTEX
  5
BC0
  8
0
 10
-12.64000034332275
 20
-11.55399990081787
 30
163.375
 70
   192
  0
VERTEX
  5
BC1
  8
0
 10
-11.07199954986572
 20
-10.11999988555908
 30
200.0
 70
   192
  0
VERTEX
  5
BC2
  8
0
 10
-5.656000137329102
 20
-16.16399955749512
 30
163.375
 70
   192
  0
VERTEX
  5
BC3
  8
0
 10
-4.953999996185303
 20
-14.15799999237061
 30
200.0
 70
   192
  0
VERTEX
  5
BC4
  8
0
 10
-31.03000068664551
 20
-7.818999767303467
 30
0.0
 70
   192
  0
VERTEX
  5
BC5
  8
0
 10
-23.6200008392334
 20
-21.5890007019043
 30
0.0
 70
   192
  0
VERTEX
  5
BC6
  8
0
 10
-10.56900024414062
 20
-30.20400047302246
 30
0.0
 70
   192
  0
VERTEX
  5
BC7
  8
0
 10
0.0
 20
-32.0
 30
0.0
 70
   192
  0
VERTEX
  5
BC8
  8
0
 10
0.0
 20
-17.125
 30
163.375
 70
   192
  0
VERTEX
  5
BC9
  8
0
 10
0.0
 20
-15.0
 30
200.0
 70
   192
  0
VERTEX
  5
BCA
  8
0
 10
-5.656000137329102
 20
16.16399955749512
 30
163.375
 70
   192
  0
VERTEX
  5
BCB
  8
0
 10
0.0
 20
15.0
 30
200.0
 70
   192
  0
VERTEX
  5
BCC
  8
0
 10
0.0
 20
17.125
 30
163.375
 70
   192
  0
VERTEX
  5
BCD
  8
0
 10
0.0
 20
22.25
 30
104.5
 70
   192
  0
VERTEX
  5
BCE
  8
0
 10
-1.016000032424927
 20
22.22800064086914
 30
104.4889984130859
 70
   192
  0
VERTEX
  5
BCF
  8
0
 10
-7.35200023651123
 20
20.97500038146973
 30
103.8359985351562
 70
   192
  0
VERTEX
  5
BD0
  8
0
 10
-7.60200023651123
 20
20.92600059509277
 30
103.8099975585938
 70
   192
  0
VERTEX
  5
BD1
  8
0
 10
-7.912000179290771
 20
20.86400032043457
 30
103.7779998779297
 70
   192
  0
VERTEX
  5
BD2
  8
0
 10
-14.16300010681152
 20
17.48699951171875
 30
101.7129974365234
 70
   192
  0
VERTEX
  5
BD3
  8
0
 10
-21.71599960327148
 20
8.39900016784668
 30
93.16799926757812
 70
   192
  0
VERTEX
  5
BD4
  8
0
 10
-21.86599922180176
 20
8.043000221252441
 30
92.58499908447266
 70
   192
  0
VERTEX
  5
BD5
  8
0
 10
-16.55900001525879
 20
15.12100028991699
 30
99.822998046875
 70
   192
  0
VERTEX
  5
BD6
  8
0
 10
-18.95599937438965
 20
12.75399971008301
 30
97.93199920654297
 70
   192
  0
VERTEX
  5
BD7
  8
0
 10
-26.89999961853027
 20
5.081999778747559
 30
49.00600051879883
 70
   192
  0
VERTEX
  5
BD8
  8
0
 10
-26.68000030517578
 20
6.730000019073486
 30
46.63100051879883
 70
   192
  0
VERTEX
  5
BD9
  8
0
 10
-26.56999969482422
 20
1.664999961853027
 30
57.07400131225586
 70
   192
  0
VERTEX
  5
BDA
  8
0
 10
-25.75099945068359
 20
0.0359999984502792
 30
66.4229965209961
 70
   192
  0
VERTEX
  5
BDB
  8
0
 10
-25.99399948120117
 20
0.5189999938011169
 30
63.6510009765625
 70
   192
  0
VERTEX
  5
BDC
  8
0
 10
-24.82999992370605
 20
0.7170000076293945
 30
76.24600219726562
 70
   192
  0
VERTEX
  5
BDD
  8
0
 10
-23.69099998474121
 20
3.736999988555908
 30
85.53500366210938
 70
   192
  0
VERTEX
  5
BDE
  8
0
 10
-24.51000022888184
 20
1.565999984741211
 30
78.8550033569336
 70
   192
  0
VERTEX
  5
BDF
  8
0
 10
-22.84099960327148
 20
5.74399995803833
 30
88.81999969482422
 70
   192
  0
VERTEX
  5
BE0
  8
0
 10
-31.03000068664551
 20
7.818999767303467
 30
0.0
 70
   192
  0
VERTEX
  5
BE1
  8
0
 10
-24.23900032043457
 20
14.93200016021729
 30
37.3489990234375
 70
   192
  0
VERTEX
  5
BE2
  8
0
 10
-21.12599945068359
 20
19.32799911499023
 30
34.36600112915039
 70
   192
  0
VERTEX
  5
BE3
  8
0
 10
-26.31100082397461
 20
9.494999885559082
 30
42.64799880981445
 70
   192
  0
VERTEX
  5
BE4
  8
0
 10
-10.56900024414062
 20
30.20400047302246
 30
0.0
 70
   192
  0
VERTEX
  5
BE5
  8
0
 10
-23.6200008392334
 20
21.5890007019043
 30
0.0
 70
   192
  0
VERTEX
  5
BE6
  8
0
 10
-14.67500019073486
 20
25.04500007629395
 30
31.40999984741211
 70
   192
  0
VERTEX
  5
BE7
  8
0
 10
-20.40800094604492
 20
20.34199905395508
 30
33.67800140380859
 70
   192
  0
VERTEX
  5
BE8
  8
0
 10
-7.663000106811523
 20
28.05699920654297
 30
30.33099937438965
 70
   192
  0
VERTEX
  5
BE9
  8
0
 10
0.0
 20
29.16200065612793
 30
30.0
 70
   192
  0
VERTEX
  5
BEA
  8
0
 10
-7.998000144958496
 20
28.00799942016602
 30
30.34499931335449
 70
   192
  0
VERTEX
  5
BEB
  8
0
 10
-9.545999526977539
 20
27.32099914550781
 30
30.59199905395508
 70
   192
  0
VERTEX
  5
BEC
  8
0
 10
0.0
 20
32.0
 30
0.0
 70
   192
  0
VERTEX
  5
BED
  8
0
 62
     9
 10
0.0
 20
0.0
 30
0.0
 70
   128
 71
     3
 72
     2
 73
     1
  0
VERTEX
  5
BEE
  8
0
 62
     9
 10
0.0
 20
0.0
 30
0.0
 70
   128
 71
     2
 72
     5
 73
     4
  0
VERTEX
  5
BEF
  8
0
 62
     9
 10
0.0
 20
0.0
 30
0.0
 70
   128
 71
     7
 72
     6
 73
     4
  0
VERTEX
  5
BF0
  8
0
 62
     9
 10
0.0
 20
0.0
 30
0.0
 70
   128
 71
     9
 72
     8
 73
     6
  0
VERTEX
  5
BF1
  8
0
 62
     9
 10
0.0
 20
0.0
 30
0.0
 70
   128
 71
    11
 72
    10
 73
     8
  0
VERTEX
  5
BF2
  8
0
 62
     9
 10
0.0
 20
0.0
 30
0.0
 70
   128
 71
     8
 72
    13
 73
    12
  0
VERTEX
  5
BF3
  8
0
 62
     9
 10
0.0
 20
0.0
 30
0.0
 70
   128
 71
    10
 72
    14
 73
    13
  0
VERTEX
  5
BF4
  8
0
 62
     9
 10
0.0
 20
0.0
 30
0.0
 70
   128
 71
    16
 72
    15
 73
    14
  0
VERTEX
  5
BF5
  8
0
 62
     9
 10
0.0
 20
0.0
 30
0.0
 70
   128
 71
    17
 72
    16
 73
    10
  0
VERTEX
  5
BF6
  8
0
 62
     9
 10
0.0
 20
0.0
 30
0.0
 70
   128
 71
    19
 72
     3
 73
    18
  0
VERTEX
  5
BF7
  8
0
 62
     9
 10
0.0
 20
0.0
 30
0.0
 70
   128
 71
    22
 72
    21
 73
    20
  0
VERTEX
  5
BF8
  8
0
 62
     9
 10
0.0
 20
0.0
 30
0.0
 70
   128
 71
    20
 72
    18
 73
    22
  0
VERTEX
  5
BF9
  8
0
 62
     9
 10
0.0
 20
0.0
 30
0.0
 70
   128
 71
    23
 72
    18
 73
     1
  0
VERTEX
  5
BFA
  8
0
 62
     9
 10
0.0
 20
0.0
 30
0.0
 70
   128
 71
     1
 72
    24
 73
    23
  0
VERTEX
  5
BFB
  8
0
 62
     9
 10
0.0
 20
0.0
 30
0.0
 70
   128
 71
     1
 72
    25
 73
    24
  0
VERTEX
  5
BFC
  8
0
 62
     9
 10
0.0
 20
0.0
 30
0.0
 70
   128
 71
     1
 72
    26
 73
    25
  0
VERTEX
  5
BFD
  8
0
 62
     9
 10
0.0
 20
0.0
 30
0.0
 70
   128
 71
    28
 72
    27
 73
     4
  0
VERTEX
  5
BFE
  8
0
 62
     9
 10
0.0
 20
0.0
 30
0.0
 70
   128
 71
    29
 72
     1
 73
     4
  0
VERTEX
  5
BFF
  8
0
 62
     9
 10
0.0
 20
0.0
 30
0.0
 70
   128
 71
     4
 72
    30
 73
    29
  0
VERTEX
  5
C00
  8
0
 62
     9
 10
0.0
 20
0.0
 30
0.0
 70
   128
 71
     4
 72
    27
 73
    30
  0
VERTEX
  5
C01
  8
0
 62
     9
 10
0.0
 20
0.0
 30
0.0
 70
   128
 71
    32
 72
    31
 73
    12
  0
VERTEX
  5
C02
  8
0
 62
     9
 10
0.0
 20
0.0
 30
0.0
 70
   128
 71
    31
 72
    33
 73
    12
  0
VERTEX
  5
C03
  8
0
 62
     9
 10
0.0
 20
0.0
 30
0.0
 70
   128
 71
    35
 72
    34
 73
    12
  0
VERTEX
  5
C04
  8
0
 62
     9
 10
0.0
 20
0.0
 30
0.0
 70
   128
 71
    12
 72
    33
 73
    35
  0
VERTEX
  5
C05
  8
0
 62
     9
 10
0.0
 20
0.0
 30
0.0
 70
   128
 71
    34
 72
    36
 73
     6
  0
VERTEX
  5
C06
  8
0
 62
     9
 10
0.0
 20
0.0
 30
0.0
 70
   128
 71
     6
 72
    12
 73
    34
  0
VERTEX
  5
C07
  8
0
 62
     9
 10
0.0
 20
0.0
 30
0.0
 70
   128
 71
    38
 72
    37
 73
     6
  0
VERTEX
  5
C08
  8
0
 62
     9
 10
0.0
 20
0.0
 30
0.0
 70
   128
 71
    39
 72
     4
 73
     6
  0
VERTEX
  5
C09
  8
0
 62
     9
 10
0.0
 20
0.0
 30
0.0
 70
   128
 71
     6
 72
    37
 73
    39
  0
VERTEX
  5
C0A
  8
0
 62
     9
 10
0.0
 20
0.0
 30
0.0
 70
   128
 71
     6
 72
    36
 73
    38
  0
VERTEX
  5
C0B
  8
0
 62
     9
 10
0.0
 20
0.0
 30
0.0
 70
   128
 71
    42
 72
    41
 73
    40
  0
VERTEX
  5
C0C
  8
0
 62
     9
 10
0.0
 20
0.0
 30
0.0
 70
   128
 71
    41
 72
    43
 73
    40
  0
VERTEX
  5
C0D
  8
0
 62
     9
 10
0.0
 20
0.0
 30
0.0
 70
   128
 71
    43
 72
    32
 73
    40
  0
VERTEX
  5
C0E
  8
0
 62
     9
 10
0.0
 20
0.0
 30
0.0
 70
   128
 71
    46
 72
    45
 73
    44
  0
VERTEX
  5
C0F
  8
0
 62
     9
 10
0.0
 20
0.0
 30
0.0
 70
   128
 71
    46
 72
    47
 73
    45
  0
VERTEX
  5
C10
  8
0
 62
     9
 10
0.0
 20
0.0
 30
0.0
 70
   128
 71
    47
 72
    42
 73
    45
  0
VERTEX
  5
C11
  8
0
 62
     9
 10
0.0
 20
0.0
 30
0.0
 70
   128
 71
    49
 72
    48
 73
    44
  0
VERTEX
  5
C12
  8
0
 62
     9
 10
0.0
 20
0.0
 30
0.0
 70
   128
 71
    48
 72
    50
 73
    44
  0
VERTEX
  5
C13
  8
0
 62
     9
 10
0.0
 20
0.0
 30
0.0
 70
   128
 71
    50
 72
    51
 73
    44
  0
VERTEX
  5
C14
  8
0
 62
     9
 10
0.0
 20
0.0
 30
0.0
 70
   128
 71
    44
 72
    52
 73
    49
  0
VERTEX
  5
C15
  8
0
 62
     9
 10
0.0
 20
0.0
 30
0.0
 70
   128
 71
    44
 72
    51
 73
    46
  0
VERTEX
  5
C16
  8
0
 62
     9
 10
0.0
 20
0.0
 30
0.0
 70
   128
 71
    40
 72
    45
 73
    42
  0
VERTEX
  5
C17
  8
0
 62
     9
 10
0.0
 20
0.0
 30
0.0
 70
   128
 71
    12
 72
    40
 73
    32
  0
VERTEX
  5
C18
  8
0
 62
     9
 10
0.0
 20
0.0
 30
0.0
 70
   128
 71
     4
 72
    39
 73
    28
  0
VERTEX
  5
C19
  8
0
 62
     9
 10
0.0
 20
0.0
 30
0.0
 70
   128
 71
     1
 72
    29
 73
    26
  0
VERTEX
  5
C1A
  8
0
 62
     9
 10
0.0
 20
0.0
 30
0.0
 70
   128
 71
    18
 72
    23
 73
    22
  0
VERTEX
  5
C1B
  8
0
 62
     9
 10
0.0
 20
0.0
 30
0.0
 70
   128
 71
    18
 72
    20
 73
    19
  0
VERTEX
  5
C1C
  8
0
 62
     9
 10
0.0
 20
0.0
 30
0.0
 70
   128
 71
    10
 72
    11
 73
    17
  0
VERTEX
  5
C1D
  8
0
 62
     9
 10
0.0
 20
0.0
 30
0.0
 70
   128
 71
    14
 72
    10
 73
    16
  0
VERTEX
  5
C1E
  8
0
 62
     9
 10
0.0
 20
0.0
 30
0.0
 70
   128
 71
    13
 72
     8
 73
    10
  0
VERTEX
  5
C1F
  8
0
 62
     9
 10
0.0
 20
0.0
 30
0.0
 70
   128
 71
    12
 72
     6
 73
     8
  0
VERTEX
  5
C20
  8
0
 62
     9
 10
0.0
 20
0.0
 30
0.0
 70
   128
 71
     8
 72
     9
 73
    11
  0
VERTEX
  5
C21
  8
0
 62
     9
 10
0.0
 20
0.0
 30
0.0
 70
   128
 71
     6
 72
     7
 73
     9
  0
VERTEX
  5
C22
  8
0
 62
     9
 10
0.0
 20
0.0
 30
0.0
 70
   128
 71
     4
 72
     5
 73
     7
  0
VERTEX
  5
C23
  8
0
 62
     9
 10
0.0
 20
0.0
 30
0.0
 70
   128
 71
     4
 72
     1
 73
     2
  0
VERTEX
  5
C24
  8
0
 62
     9
 10
0.0
 20
0.0
 30
0.0
 70
   128
 71
     1
 72
    18
 73
     3
  0
SEQEND
  5
C25
  8
0
 62
     9
  0
ENDBLK
  5
C28
  8
0
  0
BLOCK
  8
0
  2
E3_NODE_43_
 70
     0
 10
0.0
 20
0.0
 30
0.0
  3
E3_NODE_43_
  1

  0
POLYLINE
  5
C2A
  8
0
 62
     9
 66
     1
 10
0.0
 20
0.0
 30
0.0
 70
    64
 71
    14
 72
    12
  0
VERTEX
  5
C2B
  8
0
 10
10.56900024414062
 20
-30.20400047302246
 30
0.0
 70
   192
  0
VERTEX
  5
C2C
  8
0
 10
23.6200008392334
 20
21.5890007019043
 30
0.0
 70
   192
  0
VERTEX
  5
C2D
  8
0
 10
31.03000068664551
 20
7.818999767303467
 30
0.0
 70
   192
  0
VERTEX
  5
C2E
  8
0
 10
31.03000068664551
 20
-7.818999767303467
 30
0.0
 70
   192
  0
VERTEX
  5
C2F
  8
0
 10
-10.56900024414062
 20
-30.20400047302246
 30
0.0
 70
   192
  0
VERTEX
  5
C30
  8
0
 10
-31.03000068664551
 20
7.818999767303467
 30
0.0
 70
   192
  0
VERTEX
  5
C31
  8
0
 10
-23.6200008392334
 20
21.5890007019043
 30
0.0
 70
   192
  0
VERTEX
  5
C32
  8
0
 10
-23.6200008392334
 20
-21.5890007019043
 30
0.0
 70
   192
  0
VERTEX
  5
C33
  8
0
 10
10.56900024414062
 20
30.20400047302246
 30
0.0
 70
   192
  0
VERTEX
  5
C34
  8
0
 10
-31.03000068664551
 20
-7.818999767303467
 30
0.0
 70
   192
  0
VERTEX
  5
C35
  8
0
 10
23.6200008392334
 20
-21.5890007019043
 30
0.0
 70
   192
  0
VERTEX
  5
C36
  8
0
 10
-10.56900024414062
 20
30.20400047302246
 30
0.0
 70
   192
  0
VERTEX
  5
C37
  8
0
 10
0.0
 20
-32.0
 30
0.0
 70
   192
  0
VERTEX
  5
C38
  8
0
 10
0.0
 20
32.0
 30
0.0
 70
   192
  0
VERTEX
  5
C39
  8
0
 62
     9
 10
0.0
 20
0.0
 30
0.0
 70
   128
 71
     3
 72
     2
 73
     1
  0
VERTEX
  5
C3A
  8
0
 62
     9
 10
0.0
 20
0.0
 30
0.0
 70
   128
 71
     1
 72
     4
 73
     3
  0
VERTEX
  5
C3B
  8
0
 62
     9
 10
0.0
 20
0.0
 30
0.0
 70
   128
 71
     7
 72
     6
 73
     5
  0
VERTEX
  5
C3C
  8
0
 62
     9
 10
0.0
 20
0.0
 30
0.0
 70
   128
 71
     8
 72
     5
 73
     6
  0
VERTEX
  5
C3D
  8
0
 62
     9
 10
0.0
 20
0.0
 30
0.0
 70
   128
 71
     2
 72
     9
 73
     1
  0
VERTEX
  5
C3E
  8
0
 62
     9
 10
0.0
 20
0.0
 30
0.0
 70
   128
 71
     6
 72
    10
 73
     8
  0
VERTEX
  5
C3F
  8
0
 62
     9
 10
0.0
 20
0.0
 30
0.0
 70
   128
 71
     1
 72
    11
 73
     4
  0
VERTEX
  5
C40
  8
0
 62
     9
 10
0.0
 20
0.0
 30
0.0
 70
   128
 71
     5
 72
    13
 73
    12
  0
VERTEX
  5
C41
  8
0
 62
     9
 10
0.0
 20
0.0
 30
0.0
 70
   128
 71
     9
 72
    14
 73
    13
  0
VERTEX
  5
C42
  8
0
 62
     9
 10
0.0
 20
0.0
 30
0.0
 70
   128
 71
     5
 72
    12
 73
     7
  0
VERTEX
  5
C43
  8
0
 62
     9
 10
0.0
 20
0.0
 30
0.0
 70
   128
 71
    13
 72
    14
 73
    12
  0
VERTEX
  5
C44
  8
0
 62
     9
 10
0.0
 20
0.0
 30
0.0
 70
   128
 71
     9
 72
    13
 73
     1
  0
SEQEND
  5
C45
  8
0
 62
     9
  0
ENDBLK
  5
C48
  8
0
  0
BLOCK
  8
0
  2
E3_NODE_44_
 70
     0
 10
0.0
 20
0.0
 30
0.0
  3
E3_NODE_44_
  1

  0
POLYLINE
  5
C4A
  8
0
 62
     9
 66
     1
 10
0.0
 20
0.0
 30
0.0
 70
    64
 71
    14
 72
    12
  0
VERTEX
  5
C4B
  8
0
 10
-11.07199954986572
 20
10.11999988555908
 30
200.0
 70
   192
  0
VERTEX
  5
C4C
  8
0
 10
-14.54500007629395
 20
3.664999961853027
 30
200.0
 70
   192
  0
VERTEX
  5
C4D
  8
0
 10
-14.54500007629395
 20
-3.664999961853027
 30
200.0
 70
   192
  0
VERTEX
  5
C4E
  8
0
 10
-11.07199954986572
 20
-10.11999988555908
 30
200.0
 70
   192
  0
VERTEX
  5
C4F
  8
0
 10
4.953999996185303
 20
-14.15799999237061
 30
200.0
 70
   192
  0
VERTEX
  5
C50
  8
0
 10
14.54500007629395
 20
3.664999961853027
 30
200.0
 70
   192
  0
VERTEX
  5
C51
  8
0
 10
11.07199954986572
 20
10.11999988555908
 30
200.0
 70
   192
  0
VERTEX
  5
C52
  8
0
 10
11.07199954986572
 20
-10.11999988555908
 30
200.0
 70
   192
  0
VERTEX
  5
C53
  8
0
 10
-4.953999996185303
 20
-14.15799999237061
 30
200.0
 70
   192
  0
VERTEX
  5
C54
  8
0
 10
-4.953999996185303
 20
14.15799999237061
 30
200.0
 70
   192
  0
VERTEX
  5
C55
  8
0
 10
14.54500007629395
 20
-3.664999961853027
 30
200.0
 70
   192
  0
VERTEX
  5
C56
  8
0
 10
4.953999996185303
 20
14.15799999237061
 30
200.0
 70
   192
  0
VERTEX
  5
C57
  8
0
 10
0.0
 20
-15.0
 30
200.0
 70
   192
  0
VERTEX
  5
C58
  8
0
 10
0.0
 20
15.0
 30
200.0
 70
   192
  0
VERTEX
  5
C59
  8
0
 62
     9
 10
0.0
 20
0.0
 30
0.0
 70
   128
 71
     3
 72
     2
 73
     1
  0
VERTEX
  5
C5A
  8
0
 62
     9
 10
0.0
 20
0.0
 30
0.0
 70
   128
 71
     1
 72
     4
 73
     3
  0
VERTEX
  5
C5B
  8
0
 62
     9
 10
0.0
 20
0.0
 30
0.0
 70
   128
 71
     7
 72
     6
 73
     5
  0
VERTEX
  5
C5C
  8
0
 62
     9
 10
0.0
 20
0.0
 30
0.0
 70
   128
 71
     8
 72
     5
 73
     6
  0
VERTEX
  5
C5D
  8
0
 62
     9
 10
0.0
 20
0.0
 30
0.0
 70
   128
 71
     1
 72
    10
 73
     9
  0
VERTEX
  5
C5E
  8
0
 62
     9
 10
0.0
 20
0.0
 30
0.0
 70
   128
 71
     6
 72
    11
 73
     8
  0
VERTEX
  5
C5F
  8
0
 62
     9
 10
0.0
 20
0.0
 30
0.0
 70
   128
 71
     1
 72
     9
 73
     4
  0
VERTEX
  5
C60
  8
0
 62
     9
 10
0.0
 20
0.0
 30
0.0
 70
   128
 71
     5
 72
    13
 73
    12
  0
VERTEX
  5
C61
  8
0
 62
     9
 10
0.0
 20
0.0
 30
0.0
 70
   128
 71
    10
 72
    14
 73
    13
  0
VERTEX
  5
C62
  8
0
 62
     9
 10
0.0
 20
0.0
 30
0.0
 70
   128
 71
     5
 72
    12
 73
     7
  0
VERTEX
  5
C63
  8
0
 62
     9
 10
0.0
 20
0.0
 30
0.0
 70
   128
 71
    13
 72
    14
 73
    12
  0
VERTEX
  5
C64
  8
0
 62
     9
 10
0.0
 20
0.0
 30
0.0
 70
   128
 71
    10
 72
    13
 73
     9
  0
SEQEND
  5
C65
  8
0
 62
     9
  0
ENDBLK
  5
C68
  8
0
  0
BLOCK
  8
0
  2
E3_NODE_45_
 70
     0
 10
0.0
 20
0.0
 30
0.0
  3
E3_NODE_45_
  1

  0
POLYLINE
  5
C6A
  8
0
 62
     9
 66
     1
 10
0.0
 20
0.0
 30
0.0
 70
    64
 71
     9
 72
     8
  0
VERTEX
  5
C6B
  8
0
 10
196.2599945068359
 20
0.0
 30
282.010009765625
 70
   192
  0
VERTEX
  5
C6C
  8
0
 10
197.6289978027344
 20
4.014999866485596
 30
279.2890014648438
 70
   192
  0
VERTEX
  5
C6D
  8
0
 10
197.8679962158203
 20
-0.2179999947547913
 30
277.9349975585938
 70
   192
  0
VERTEX
  5
C6E
  8
0
 10
196.6159973144531
 20
4.014999866485596
 30
285.0350036621094
 70
   192
  0
VERTEX
  5
C6F
  8
0
 10
197.1219940185547
 20
4.014999866485596
 30
282.1619873046875
 70
   192
  0
VERTEX
  5
C70
  8
0
 10
196.3029937744141
 20
-1.534000039100647
 30
286.8110046386719
 70
   192
  0
VERTEX
  5
C71
  8
0
 10
196.3769989013672
 20
-0.2179999947547913
 30
286.3900146484375
 70
   192
  0
VERTEX
  5
C72
  8
0
 10
197.1219940185547
 20
-4.962999820709229
 30
282.1619873046875
 70
   192
  0
VERTEX
  5
C73
  8
0
 10
197.9420013427734
 20
-1.534000039100647
 30
277.5140075683594
 70
   192
  0
VERTEX
  5
C74
  8
0
 62
     9
 10
0.0
 20
0.0
 30
0.0
 70
   128
 71
     3
 72
     2
 73
     1
  0
VERTEX
  5
C75
  8
0
 62
     9
 10
0.0
 20
0.0
 30
0.0
 70
   128
 71
     5
 72
     4
 73
     1
  0
VERTEX
  5
C76
  8
0
 62
     9
 10
0.0
 20
0.0
 30
0.0
 70
   128
 71
     7
 72
     6
 73
     1
  0
VERTEX
  5
C77
  8
0
 62
     9
 10
0.0
 20
0.0
 30
0.0
 70
   128
 71
     1
 72
     6
 73
     8
  0
VERTEX
  5
C78
  8
0
 62
     9
 10
0.0
 20
0.0
 30
0.0
 70
   128
 71
     1
 72
     4
 73
     7
  0
VERTEX
  5
C79
  8
0
 62
     9
 10
0.0
 20
0.0
 30
0.0
 70
   128
 71
     1
 72
     2
 73
     5
  0
VERTEX
  5
C7A
  8
0
 62
     9
 10
0.0
 20
0.0
 30
0.0
 70
   128
 71
     1
 72
     9
 73
     3
  0
VERTEX
  5
C7B
  8
0
 62
     9
 10
0.0
 20
0.0
 30
0.0
 70
   128
 71
     1
 72
     8
 73
     9
  0
SEQEND
  5
C7C
  8
0
 62
     9
  0
ENDBLK
  5
C7F
  8
0
  0
BLOCK
  8
0
  2
E3_NODE_46_
 70
     0
 10
0.0
 20
0.0
 30
0.0
  3
E3_NODE_46_
  1

  0
POLYLINE
  5
C81
  8
0
 62
     9
 66
     1
 10
0.0
 20
0.0
 30
0.0
 70
    64
 71
    12
 72
    12
  0
VERTEX
  5
C82
  8
0
 10
201.2819976806641
 20
-5.0
 30
282.89599609375
 70
   192
  0
VERTEX
  5
C83
  8
0
 10
197.1219940185547
 20
-4.962999820709229
 30
282.1619873046875
 70
   192
  0
VERTEX
  5
C84
  8
0
 10
197.9420013427734
 20
-1.534000039100647
 30
277.5140075683594
 70
   192
  0
VERTEX
  5
C85
  8
0
 10
202.1510009765625
 20
0.0
 30
277.9719848632812
 70
   192
  0
VERTEX
  5
C86
  8
0
 10
197.8679962158203
 20
-0.2179999947547913
 30
277.9349975585938
 70
   192
  0
VERTEX
  5
C87
  8
0
 10
197.6289978027344
 20
4.014999866485596
 30
279.2890014648438
 70
   192
  0
VERTEX
  5
C88
  8
0
 10
201.2819976806641
 20
5.0
 30
282.89599609375
 70
   192
  0
VERTEX
  5
C89
  8
0
 10
200.4140014648438
 20
0.0
 30
287.8200073242188
 70
   192
  0
VERTEX
  5
C8A
  8
0
 10
196.6159973144531
 20
4.014999866485596
 30
285.0350036621094
 70
   192
  0
VERTEX
  5
C8B
  8
0
 10
197.1219940185547
 20
4.014999866485596
 30
282.1619873046875
 70
   192
  0
VERTEX
  5
C8C
  8
0
 10
196.3029937744141
 20
-1.534000039100647
 30
286.8110046386719
 70
   192
  0
VERTEX
  5
C8D
  8
0
 10
196.3769989013672
 20
-0.2179999947547913
 30
286.3900146484375
 70
   192
  0
VERTEX
  5
C8E
  8
0
 62
     9
 10
0.0
 20
0.0
 30
0.0
 70
   128
 71
     3
 72
     2
 73
     1
  0
VERTEX
  5
C8F
  8
0
 62
     9
 10
0.0
 20
0.0
 30
0.0
 70
   128
 71
     1
 72
     4
 73
     3
  0
VERTEX
  5
C90
  8
0
 62
     9
 10
0.0
 20
0.0
 30
0.0
 70
   128
 71
     6
 72
     5
 73
     4
  0
VERTEX
  5
C91
  8
0
 62
     9
 10
0.0
 20
0.0
 30
0.0
 70
   128
 71
     4
 72
     7
 73
     6
  0
VERTEX
  5
C92
  8
0
 62
     9
 10
0.0
 20
0.0
 30
0.0
 70
   128
 71
     9
 72
     7
 73
     8
  0
VERTEX
  5
C93
  8
0
 62
     9
 10
0.0
 20
0.0
 30
0.0
 70
   128
 71
     9
 72
    10
 73
     7
  0
VERTEX
  5
C94
  8
0
 62
     9
 10
0.0
 20
0.0
 30
0.0
 70
   128
 71
    11
 72
     8
 73
     1
  0
VERTEX
  5
C95
  8
0
 62
     9
 10
0.0
 20
0.0
 30
0.0
 70
   128
 71
    11
 72
    12
 73
     8
  0
VERTEX
  5
C96
  8
0
 62
     9
 10
0.0
 20
0.0
 30
0.0
 70
   128
 71
     1
 72
     2
 73
    11
  0
VERTEX
  5
C97
  8
0
 62
     9
 10
0.0
 20
0.0
 30
0.0
 70
   128
 71
     8
 72
    12
 73
     9
  0
VERTEX
  5
C98
  8
0
 62
     9
 10
0.0
 20
0.0
 30
0.0
 70
   128
 71
     7
 72
    10
 73
     6
  0
VERTEX
  5
C99
  8
0
 62
     9
 10
0.0
 20
0.0
 30
0.0
 70
   128
 71
     4
 72
     5
 73
     3
  0
SEQEND
  5
C9A
  8
0
 62
     9
  0
ENDBLK
  5
C9D
  8
0
  0
BLOCK
  8
0
  2
E3_NODE_47_
 70
     0
 10
0.0
 20
0.0
 30
0.0
  3
E3_NODE_47_
  1

  0
POLYLINE
  5
C9F
  8
0
 62
     9
 66
     1
 10
0.0
 20
0.0
 30
0.0
 70
    64
 71
    10
 72
     8
  0
VERTEX
  5
CA0
  8
0
 10
200.7070007324219
 20
6.480999946594238
 30
295.4869995117188
 70
   192
  0
VERTEX
  5
CA1
  8
0
 10
200.7070007324219
 20
-6.480999946594238
 30
295.4869995117188
 70
   192
  0
VERTEX
  5
CA2
  8
0
 10
198.7359924316406
 20
-1.5
 30
296.1549987792969
 70
   192
  0
VERTEX
  5
CA3
  8
0
 10
200.5330047607422
 20
-6.480999946594238
 30
296.4719848632812
 70
   192
  0
VERTEX
  5
CA4
  8
0
 10
198.7359924316406
 20
1.5
 30
296.1549987792969
 70
   192
  0
VERTEX
  5
CA5
  8
0
 10
210.5350036621094
 20
11.89999961853027
 30
297.2200012207031
 70
   192
  0
VERTEX
  5
CA6
  8
0
 10
200.5330047607422
 20
6.480999946594238
 30
296.4719848632812
 70
   192
  0
VERTEX
  5
CA7
  8
0
 10
210.5350036621094
 20
-11.89999961853027
 30
297.2200012207031
 70
   192
  0
VERTEX
  5
CA8
  8
0
 10
210.3619995117188
 20
-11.89999961853027
 30
298.2049865722656
 70
   192
  0
VERTEX
  5
CA9
  8
0
 10
210.3619995117188
 20
11.89999961853027
 30
298.2049865722656
 70
   192
  0
VERTEX
  5
CAA
  8
0
 62
     9
 10
0.0
 20
0.0
 30
0.0
 70
   128
 71
     3
 72
     2
 73
     1
  0
VERTEX
  5
CAB
  8
0
 62
     9
 10
0.0
 20
0.0
 30
0.0
 70
   128
 71
     3
 72
     4
 73
     2
  0
VERTEX
  5
CAC
  8
0
 62
     9
 10
0.0
 20
0.0
 30
0.0
 70
   128
 71
     1
 72
     5
 73
     3
  0
VERTEX
  5
CAD
  8
0
 62
     9
 10
0.0
 20
0.0
 30
0.0
 70
   128
 71
     7
 72
     1
 73
     6
  0
VERTEX
  5
CAE
  8
0
 62
     9
 10
0.0
 20
0.0
 30
0.0
 70
   128
 71
     4
 72
     9
 73
     8
  0
VERTEX
  5
CAF
  8
0
 62
     9
 10
0.0
 20
0.0
 30
0.0
 70
   128
 71
     8
 72
     2
 73
     4
  0
VERTEX
  5
CB0
  8
0
 62
     9
 10
0.0
 20
0.0
 30
0.0
 70
   128
 71
     6
 72
    10
 73
     7
  0
VERTEX
  5
CB1
  8
0
 62
     9
 10
0.0
 20
0.0
 30
0.0
 70
   128
 71
     1
 72
     7
 73
     5
  0
SEQEND
  5
CB2
  8
0
 62
     9
  0
ENDBLK
  5
CB5
  8
0
  0
BLOCK
  8
0
  2
E3_NODE_48_
 70
     0
 10
0.0
 20
0.0
 30
0.0
  3
E3_NODE_48_
  1

  0
POLYLINE
  5
CB7
  8
0
 62
     9
 66
     1
 10
0.0
 20
0.0
 30
0.0
 70
    64
 71
    10
 72
     8
  0
VERTEX
  5
CB8
  8
0
 10
220.3639984130859
 20
-6.480999946594238
 30
298.9530029296875
 70
   192
  0
VERTEX
  5
CB9
  8
0
 10
220.3639984130859
 20
6.480999946594238
 30
298.9530029296875
 70
   192
  0
VERTEX
  5
CBA
  8
0
 10
221.9880065917969
 20
1.5
 30
300.2550048828125
 70
   192
  0
VERTEX
  5
CBB
  8
0
 10
220.1900024414062
 20
6.480999946594238
 30
299.93798828125
 70
   192
  0
VERTEX
  5
CBC
  8
0
 10
221.9880065917969
 20
-1.5
 30
300.2550048828125
 70
   192
  0
VERTEX
  5
CBD
  8
0
 10
210.5350036621094
 20
-11.89999961853027
 30
297.2200012207031
 70
   192
  0
VERTEX
  5
CBE
  8
0
 10
220.1900024414062
 20
-6.480999946594238
 30
299.93798828125
 70
   192
  0
VERTEX
  5
CBF
  8
0
 10
210.5350036621094
 20
11.89999961853027
 30
297.2200012207031
 70
   192
  0
VERTEX
  5
CC0
  8
0
 10
210.3619995117188
 20
11.89999961853027
 30
298.2049865722656
 70
   192
  0
VERTEX
  5
CC1
  8
0
 10
210.3619995117188
 20
-11.89999961853027
 30
298.2049865722656
 70
   192
  0
VERTEX
  5
CC2
  8
0
 62
     9
 10
0.0
 20
0.0
 30
0.0
 70
   128
 71
     3
 72
     2
 73
     1
  0
VERTEX
  5
CC3
  8
0
 62
     9
 10
0.0
 20
0.0
 30
0.0
 70
   128
 71
     3
 72
     4
 73
     2
  0
VERTEX
  5
CC4
  8
0
 62
     9
 10
0.0
 20
0.0
 30
0.0
 70
   128
 71
     1
 72
     5
 73
     3
  0
VERTEX
  5
CC5
  8
0
 62
     9
 10
0.0
 20
0.0
 30
0.0
 70
   128
 71
     7
 72
     1
 73
     6
  0
VERTEX
  5
CC6
  8
0
 62
     9
 10
0.0
 20
0.0
 30
0.0
 70
   128
 71
     8
 72
     2
 73
     4
  0
VERTEX
  5
CC7
  8
0
 62
     9
 10
0.0
 20
0.0
 30
0.0
 70
   128
 71
     4
 72
     9
 73
     8
  0
VERTEX
  5
CC8
  8
0
 62
     9
 10
0.0
 20
0.0
 30
0.0
 70
   128
 71
     6
 72
    10
 73
     7
  0
VERTEX
  5
CC9
  8
0
 62
     9
 10
0.0
 20
0.0
 30
0.0
 70
   128
 71
     1
 72
     7
 73
     5
  0
SEQEND
  5
CCA
  8
0
 62
     9
  0
ENDBLK
  5
CCD
  8
0
  0
BLOCK
  8
0
  2
E3_NODE_49_
 70
     0
 10
0.0
 20
0.0
 30
0.0
  3
E3_NODE_49_
  1

  0
POLYLINE
  5
CCF
  8
0
 62
     9
 66
     1
 10
0.0
 20
0.0
 30
0.0
 70
    64
 71
     9
 72
     7
  0
VERTEX
  5
CD0
  8
0
 10
-25.37199974060059
 20
39.45399856567383
 30
58.01499938964844
 70
   192
  0
VERTEX
  5
CD1
  8
0
 10
20.6830005645752
 20
39.45399856567383
 30
49.89500045776367
 70
   192
  0
VERTEX
  5
CD2
  8
0
 10
4.689000129699707
 20
39.45399856567383
 30
40.65999984741211
 70
   192
  0
VERTEX
  5
CD3
  8
0
 10
-13.5
 20
39.45399856567383
 30
90.63300323486328
 70
   192
  0
VERTEX
  5
CD4
  8
0
 10
4.689000129699707
 20
39.45399856567383
 30
93.83999633789062
 70
   192
  0
VERTEX
  5
CD5
  8
0
 10
27.0
 20
39.45399856567383
 30
67.25
 70
   192
  0
VERTEX
  5
CD6
  8
0
 10
-25.37199974060059
 20
39.45399856567383
 30
76.48500061035156
 70
   192
  0
VERTEX
  5
CD7
  8
0
 10
20.6830005645752
 20
39.45399856567383
 30
84.6050033569336
 70
   192
  0
VERTEX
  5
CD8
  8
0
 10
-13.5
 20
39.45399856567383
 30
43.86700057983398
 70
   192
  0
VERTEX
  5
CD9
  8
0
 62
     9
 10
0.0
 20
0.0
 30
0.0
 70
   128
 71
     3
 72
     2
 73
     1
  0
VERTEX
  5
CDA
  8
0
 62
     9
 10
0.0
 20
0.0
 30
0.0
 70
   128
 71
     5
 72
     4
 73
     1
  0
VERTEX
  5
CDB
  8
0
 62
     9
 10
0.0
 20
0.0
 30
0.0
 70
   128
 71
     2
 72
     6
 73
     1
  0
VERTEX
  5
CDC
  8
0
 62
     9
 10
0.0
 20
0.0
 30
0.0
 70
   128
 71
     4
 72
     7
 73
     1
  0
VERTEX
  5
CDD
  8
0
 62
     9
 10
0.0
 20
0.0
 30
0.0
 70
   128
 71
     6
 72
     8
 73
     1
  0
VERTEX
  5
CDE
  8
0
 62
     9
 10
0.0
 20
0.0
 30
0.0
 70
   128
 71
     1
 72
     9
 73
     3
  0
VERTEX
  5
CDF
  8
0
 62
     9
 10
0.0
 20
0.0
 30
0.0
 70
   128
 71
     1
 72
     8
 73
     5
  0
SEQEND
  5
CE0
  8
0
 62
     9
  0
ENDBLK
  5
CE3
  8
0
  0
BLOCK
  8
0
  2
E3_NODE_50_
 70
     0
 10
0.0
 20
0.0
 30
0.0
  3
E3_NODE_50_
  1

  0
POLYLINE
  5
CE5
  8
0
 62
     9
 66
     1
 10
0.0
 20
0.0
 30
0.0
 70
    64
 71
    18
 72
    18
  0
VERTEX
  5
CE6
  8
0
 10
20.6830005645752
 20
39.45399856567383
 30
84.6050033569336
 70
   192
  0
VERTEX
  5
CE7
  8
0
 10
20.6830005645752
 20
38.95399856567383
 30
84.6050033569336
 70
   192
  0
VERTEX
  5
CE8
  8
0
 10
27.0
 20
38.95399856567383
 30
67.25
 70
   192
  0
VERTEX
  5
CE9
  8
0
 10
4.689000129699707
 20
39.45399856567383
 30
93.83999633789062
 70
   192
  0
VERTEX
  5
CEA
  8
0
 10
4.689000129699707
 20
38.95399856567383
 30
93.83999633789062
 70
   192
  0
VERTEX
  5
CEB
  8
0
 10
-13.5
 20
39.45399856567383
 30
90.63300323486328
 70
   192
  0
VERTEX
  5
CEC
  8
0
 10
-13.5
 20
38.95399856567383
 30
90.63300323486328
 70
   192
  0
VERTEX
  5
CED
  8
0
 10
-25.37199974060059
 20
39.45399856567383
 30
76.48500061035156
 70
   192
  0
VERTEX
  5
CEE
  8
0
 10
-25.37199974060059
 20
38.95399856567383
 30
76.48500061035156
 70
   192
  0
VERTEX
  5
CEF
  8
0
 10
-25.37199974060059
 20
39.45399856567383
 30
58.01499938964844
 70
   192
  0
VERTEX
  5
CF0
  8
0
 10
-25.37199974060059
 20
38.95399856567383
 30
58.01499938964844
 70
   192
  0
VERTEX
  5
CF1
  8
0
 10
-13.5
 20
39.45399856567383
 30
43.86700057983398
 70
   192
  0
VERTEX
  5
CF2
  8
0
 10
-13.5
 20
38.95399856567383
 30
43.86700057983398
 70
   192
  0
VERTEX
  5
CF3
  8
0
 10
4.689000129699707
 20
38.95399856567383
 30
40.65999984741211
 70
   192
  0
VERTEX
  5
CF4
  8
0
 10
20.6830005645752
 20
38.95399856567383
 30
49.89500045776367
 70
   192
  0
VERTEX
  5
CF5
  8
0
 10
4.689000129699707
 20
39.45399856567383
 30
40.65999984741211
 70
   192
  0
VERTEX
  5
CF6
  8
0
 10
27.0
 20
39.45399856567383
 30
67.25
 70
   192
  0
VERTEX
  5
CF7
  8
0
 10
20.6830005645752
 20
39.45399856567383
 30
49.89500045776367
 70
   192
  0
VERTEX
  5
CF8
  8
0
 62
     9
 10
0.0
 20
0.0
 30
0.0
 70
   128
 71
     3
 72
     2
 73
     1
  0
VERTEX
  5
CF9
  8
0
 62
     9
 10
0.0
 20
0.0
 30
0.0
 70
   128
 71
     2
 72
     5
 73
     4
  0
VERTEX
  5
CFA
  8
0
 62
     9
 10
0.0
 20
0.0
 30
0.0
 70
   128
 71
     5
 72
     7
 73
     6
  0
VERTEX
  5
CFB
  8
0
 62
     9
 10
0.0
 20
0.0
 30
0.0
 70
   128
 71
     7
 72
     9
 73
     8
  0
VERTEX
  5
CFC
  8
0
 62
     9
 10
0.0
 20
0.0
 30
0.0
 70
   128
 71
     9
 72
    11
 73
    10
  0
VERTEX
  5
CFD
  8
0
 62
     9
 10
0.0
 20
0.0
 30
0.0
 70
   128
 71
    11
 72
    13
 73
    12
  0
VERTEX
  5
CFE
  8
0
 62
     9
 10
0.0
 20
0.0
 30
0.0
 70
   128
 71
    12
 72
    13
 73
    14
  0
VERTEX
  5
CFF
  8
0
 62
     9
 10
0.0
 20
0.0
 30
0.0
 70
   128
 71
    16
 72
    14
 73
    15
  0
VERTEX
  5
D00
  8
0
 62
     9
 10
0.0
 20
0.0
 30
0.0
 70
   128
 71
    15
 72
     3
 73
    17
  0
VERTEX
  5
D01
  8
0
 62
     9
 10
0.0
 20
0.0
 30
0.0
 70
   128
 71
    17
 72
    18
 73
    15
  0
VERTEX
  5
D02
  8
0
 62
     9
 10
0.0
 20
0.0
 30
0.0
 70
   128
 71
    15
 72
    18
 73
    16
  0
VERTEX
  5
D03
  8
0
 62
     9
 10
0.0
 20
0.0
 30
0.0
 70
   128
 71
    14
 72
    16
 73
    12
  0
VERTEX
  5
D04
  8
0
 62
     9
 10
0.0
 20
0.0
 30
0.0
 70
   128
 71
    12
 72
    10
 73
    11
  0
VERTEX
  5
D05
  8
0
 62
     9
 10
0.0
 20
0.0
 30
0.0
 70
   128
 71
    10
 72
     8
 73
     9
  0
VERTEX
  5
D06
  8
0
 62
     9
 10
0.0
 20
0.0
 30
0.0
 70
   128
 71
     8
 72
     6
 73
     7
  0
VERTEX
  5
D07
  8
0
 62
     9
 10
0.0
 20
0.0
 30
0.0
 70
   128
 71
     6
 72
     4
 73
     5
  0
VERTEX
  5
D08
  8
0
 62
     9
 10
0.0
 20
0.0
 30
0.0
 70
   128
 71
     4
 72
     1
 73
     2
  0
VERTEX
  5
D09
  8
0
 62
     9
 10
0.0
 20
0.0
 30
0.0
 70
   128
 71
     1
 72
    17
 73
     3
  0
SEQEND
  5
D0A
  8
0
 62
     9
  0
ENDBLK
  5
D0D
  8
0
  0
ENDSEC
  0
SECTION
  2
ENTITIES
  0
INSERT
  5
54
  8
LAYER_1
  2
E3_NODE
 10
0.0
 20
0.0
 30
0.0
  0
INSERT
  5
8B
  8
LAYER_1
  2
E3_NODE_1_
 10
0.0
 20
0.0
 30
0.0
  0
INSERT
  5
B7
  8
LAYER_1
  2
E3_NODE_2_
 10
0.0
 20
0.0
 30
0.0
  0
INSERT
  5
17F
  8
LAYER_1
  2
E3_NODE_3_
 10
0.0
 20
0.0
 30
0.0
  0
INSERT
  5
1D8
  8
LAYER_1
  2
E3_NODE_4_
 10
0.0
 20
0.0
 30
0.0
  0
INSERT
  5
1F4
  8
LAYER_1
  2
E3_NODE_5_
 10
0.0
 20
0.0
 30
0.0
  0
INSERT
  5
20C
  8
LAYER_1
  2
E3_NODE_6_
 10
0.0
 20
0.0
 30
0.0
  0
INSERT
  5
220
  8
LAYER_1
  2
E3_NODE_7_
 10
0.0
 20
0.0
 30
0.0
  0
INSERT
  5
234
  8
LAYER_1
  2
E3_NODE_8_
 10
0.0
 20
0.0
 30
0.0
  0
INSERT
  5
242
  8
LAYER_1
  2
E3_NODE_9_
 10
0.0
 20
0.0
 30
0.0
  0
INSERT
  5
25A
  8
LAYER_1
  2
E3_NODE_10_
 10
0.0
 20
0.0
 30
0.0
  0
INSERT
  5
272
  8
LAYER_1
  2
E3_NODE_11_
 10
0.0
 20
0.0
 30
0.0
  0
INSERT
  5
28C
  8
LAYER_1
  2
E3_NODE_12_
 10
0.0
 20
0.0
 30
0.0
  0
INSERT
  5
2A4
  8
LAYER_1
  2
E3_NODE_13_
 10
0.0
 20
0.0
 30
0.0
  0
INSERT
  5
2C0
  8
LAYER_1
  2
E3_NODE_14_
 10
0.0
 20
0.0
 30
0.0
  0
INSERT
  5
392
  8
LAYER_1
  2
E3_NODE_15_
 10
0.0
 20
0.0
 30
0.0
  0
INSERT
  5
3A8
  8
LAYER_1
  2
E3_NODE_16_
 10
0.0
 20
0.0
 30
0.0
  0
INSERT
  5
3BC
  8
LAYER_1
  2
E3_NODE_17_
 10
0.0
 20
0.0
 30
0.0
  0
INSERT
  5
3D0
  8
LAYER_1
  2
E3_NODE_18_
 10
0.0
 20
0.0
 30
0.0
  0
INSERT
  5
3DE
  8
LAYER_1
  2
E3_NODE_19_
 10
0.0
 20
0.0
 30
0.0
  0
INSERT
  5
404
  8
LAYER_1
  2
E3_NODE_20_
 10
0.0
 20
0.0
 30
0.0
  0
INSERT
  5
422
  8
LAYER_1
  2
E3_NODE_21_
 10
0.0
 20
0.0
 30
0.0
  0
INSERT
  5
438
  8
LAYER_1
  2
E3_NODE_22_
 10
0.0
 20
0.0
 30
0.0
  0
INSERT
  5
474
  8
LAYER_1
  2
E3_NODE_23_
 10
0.0
 20
0.0
 30
0.0
  0
INSERT
  5
4FE
  8
LAYER_1
  2
E3_NODE_24_
 10
0.0
 20
0.0
 30
0.0
  0
INSERT
  5
565
  8
LAYER_1
  2
E3_NODE_25_
 10
0.0
 20
0.0
 30
0.0
  0
INSERT
  5
575
  8
LAYER_1
  2
E3_NODE_26_
 10
0.0
 20
0.0
 30
0.0
  0
INSERT
  5
5A7
  8
LAYER_1
  2
E3_NODE_27_
 10
0.0
 20
0.0
 30
0.0
  0
INSERT
  5
5FC
  8
LAYER_1
  2
E3_NODE_28_
 10
0.0
 20
0.0
 30
0.0
  0
INSERT
  5
612
  8
LAYER_1
  2
E3_NODE_29_
 10
0.0
 20
0.0
 30
0.0
  0
INSERT
  5
622
  8
LAYER_1
  2
E3_NODE_30_
 10
0.0
 20
0.0
 30
0.0
  0
INSERT
  5
672
  8
LAYER_1
  2
E3_NODE_31_
 10
0.0
 20
0.0
 30
0.0
  0
INSERT
  5
6DB
  8
LAYER_1
  2
E3_NODE_32_
 10
0.0
 20
0.0
 30
0.0
  0
INSERT
  5
73E
  8
LAYER_1
  2
E3_NODE_33_
 10
0.0
 20
0.0
 30
0.0
  0
INSERT
  5
8F2
  8
LAYER_1
  2
E3_NODE_34_
 10
0.0
 20
0.0
 30
0.0
  0
INSERT
  5
922
  8
LAYER_1
  2
E3_NODE_35_
 10
0.0
 20
0.0
 30
0.0
  0
INSERT
  5
932
  8
LAYER_1
  2
E3_NODE_36_
 10
0.0
 20
0.0
 30
0.0
  0
INSERT
  5
94A
  8
LAYER_1
  2
E3_NODE_37_
 10
0.0
 20
0.0
 30
0.0
  0
INSERT
  5
9C0
  8
LAYER_1
  2
E3_NODE_38_
 10
0.0
 20
0.0
 30
0.0
  0
INSERT
  5
A7D
  8
LAYER_1
  2
E3_NODE_39_
 10
0.0
 20
0.0
 30
0.0
  0
INSERT
  5
B3A
  8
LAYER_1
  2
E3_NODE_40_
 10
0.0
 20
0.0
 30
0.0
  0
INSERT
  5
BB4
  8
LAYER_1
  2
E3_NODE_41_
 10
0.0
 20
0.0
 30
0.0
  0
INSERT
  5
C26
  8
LAYER_1
  2
E3_NODE_42_
 10
0.0
 20
0.0
 30
0.0
  0
INSERT
  5
C46
  8
LAYER_1
  2
E3_NODE_43_
 10
0.0
 20
0.0
 30
0.0
  0
INSERT
  5
C66
  8
LAYER_1
  2
E3_NODE_44_
 10
0.0
 20
0.0
 30
0.0
  0
INSERT
  5
C7D
  8
LAYER_1
  2
E3_NODE_45_
 10
0.0
 20
0.0
 30
0.0
  0
INSERT
  5
C9B
  8
LAYER_1
  2
E3_NODE_46_
 10
0.0
 20
0.0
 30
0.0
  0
INSERT
  5
CB3
  8
LAYER_1
  2
E3_NODE_47_
 10
0.0
 20
0.0
 30
0.0
  0
INSERT
  5
CCB
  8
LAYER_1
  2
E3_NODE_48_
 10
0.0
 20
0.0
 30
0.0
  0
INSERT
  5
CE1
  8
LAYER_1
  2
E3_NODE_49_
 10
0.0
 20
0.0
 30
0.0
  0
INSERT
  5
D0B
  8
LAYER_1
  2
E3_NODE_50_
 10
0.0
 20
0.0
 30
0.0
  0
ENDSEC
  0
EOF
