  0
SECTION
  2
HEADER
  9
$ACADVER
  1
AC1015
  9
$ACADMAINTVER
 70
     6
  9
$DWGCODEPAGE
  3
ANSI_1252
  9
$INSBASE
 10
0.0
 20
0.0
 30
0.0
  9
$EXTMIN
 10
0.0
 20
0.0
 30
0.0
  9
$EXTMAX
 10
1682.0
 20
2378.0
 30
0.0
  9
$LIMMIN
 10
0.0
 20
0.0
  9
$LIMMAX
 10
1682.0
 20
2378.0
  9
$ORTHOMODE
 70
     0
  9
$REGENMODE
 70
     1
  9
$FILLMODE
 70
     1
  9
$QTEXTMODE
 70
     0
  9
$MIRRTEXT
 70
     1
  9
$LTSCALE
 40
1.0
  9
$ATTMODE
 70
     1
  9
$TEXTSIZE
 40
2.5
  9
$TRACEWID
 40
1.0
  9
$TEXTSTYLE
  7
Standard
  9
$CLAYER
  8
0
  9
$CELTYPE
  6
ByLayer
  9
$CECOLOR
 62
   256
  9
$CELTSCALE
 40
1.0
  9
$DISPSILH
 70
     0
  9
$DIMSCALE
 40
1.0
  9
$DIMASZ
 40
2.5
  9
$DIMEXO
 40
0.625
  9
$DIMDLI
 40
3.75
  9
$DIMRND
 40
0.0
  9
$DIMDLE
 40
0.0
  9
$DIMEXE
 40
1.25
  9
$DIMTP
 40
0.0
  9
$DIMTM
 40
0.0
  9
$DIMTXT
 40
2.5
  9
$DIMCEN
 40
2.5
  9
$DIMTSZ
 40
0.0
  9
$DIMTOL
 70
     0
  9
$DIMLIM
 70
     0
  9
$DIMTIH
 70
     0
  9
$DIMTOH
 70
     0
  9
$DIMSE1
 70
     0
  9
$DIMSE2
 70
     0
  9
$DIMTAD
 70
     1
  9
$DIMZIN
 70
     8
  9
$DIMBLK
  1

  9
$DIMASO
 70
     1
  9
$DIMSHO
 70
     1
  9
$DIMPOST
  1

  9
$DIMAPOST
  1

  9
$DIMALT
 70
     0
  9
$DIMALTD
 70
     3
  9
$DIMALTF
 40
0.0393700787
  9
$DIMLFAC
 40
1.0
  9
$DIMTOFL
 70
     1
  9
$DIMTVP
 40
0.0
  9
$DIMTIX
 70
     0
  9
$DIMSOXD
 70
     0
  9
$DIMSAH
 70
     0
  9
$DIMBLK1
  1

  9
$DIMBLK2
  1

  9
$DIMSTYLE
  2
ISO-25
  9
$DIMCLRD
 70
     0
  9
$DIMCLRE
 70
     0
  9
$DIMCLRT
 70
     0
  9
$DIMTFAC
 40
1.0
  9
$DIMGAP
 40
0.625
  9
$DIMJUST
 70
     0
  9
$DIMSD1
 70
     0
  9
$DIMSD2
 70
     0
  9
$DIMTOLJ
 70
     0
  9
$DIMTZIN
 70
     8
  9
$DIMALTZ
 70
     0
  9
$DIMALTTZ
 70
     0
  9
$DIMUPT
 70
     0
  9
$DIMDEC
 70
     2
  9
$DIMTDEC
 70
     2
  9
$DIMALTU
 70
     2
  9
$DIMALTTD
 70
     3
  9
$DIMTXSTY
  7
Standard
  9
$DIMAUNIT
 70
     0
  9
$DIMADEC
 70
     0
  9
$DIMALTRND
 40
0.0
  9
$DIMAZIN
 70
     0
  9
$DIMDSEP
 70
    44
  9
$DIMATFIT
 70
     3
  9
$DIMFRAC
 70
     0
  9
$DIMLDRBLK
  1

  9
$DIMLUNIT
 70
     2
  9
$DIMLWD
 70
    -2
  9
$DIMLWE
 70
    -2
  9
$DIMTMOVE
 70
     0
  9
$LUNITS
 70
     2
  9
$LUPREC
 70
     4
  9
$SKETCHINC
 40
1.0
  9
$FILLETRAD
 40
10.0
  9
$AUNITS
 70
     0
  9
$AUPREC
 70
     0
  9
$MENU
  1
.
  9
$ELEVATION
 40
0.0
  9
$PELEVATION
 40
0.0
  9
$THICKNESS
 40
0.0
  9
$LIMCHECK
 70
     0
  9
$CHAMFERA
 40
10.0
  9
$CHAMFERB
 40
10.0
  9
$CHAMFERC
 40
20.0
  9
$CHAMFERD
 40
0.0
  9
$SKPOLY
 70
     0
  9
$TDCREATE
 40
2455442.555695012
  9
$TDUCREATE
 40
2455442.472361678
  9
$TDUPDATE
 40
2455442.555695023
  9
$TDUUPDATE
 40
2455442.47236169
  9
$TDINDWG
 40
0.0000000116
  9
$TDUSRTIMER
 40
0.0000000116
  9
$USRTIMER
 70
     1
  9
$ANGBASE
 50
0.0
  9
$ANGDIR
 70
     0
  9
$PDMODE
 70
     0
  9
$PDSIZE
 40
0.0
  9
$PLINEWID
 40
0.0
  9
$SPLFRAME
 70
     0
  9
$SPLINETYPE
 70
     6
  9
$SPLINESEGS
 70
     8
  9
$HANDSEED
  5
218
  9
$SURFTAB1
 70
     6
  9
$SURFTAB2
 70
     6
  9
$SURFTYPE
 70
     6
  9
$SURFU
 70
     6
  9
$SURFV
 70
     6
  9
$UCSBASE
  2

  9
$UCSNAME
  2

  9
$UCSORG
 10
0.0
 20
0.0
 30
0.0
  9
$UCSXDIR
 10
1.0
 20
0.0
 30
0.0
  9
$UCSYDIR
 10
0.0
 20
1.0
 30
0.0
  9
$UCSORTHOREF
  2

  9
$UCSORTHOVIEW
 70
     0
  9
$UCSORGTOP
 10
0.0
 20
0.0
 30
0.0
  9
$UCSORGBOTTOM
 10
0.0
 20
0.0
 30
0.0
  9
$UCSORGLEFT
 10
0.0
 20
0.0
 30
0.0
  9
$UCSORGRIGHT
 10
0.0
 20
0.0
 30
0.0
  9
$UCSORGFRONT
 10
0.0
 20
0.0
 30
0.0
  9
$UCSORGBACK
 10
0.0
 20
0.0
 30
0.0
  9
$PUCSBASE
  2

  9
$PUCSNAME
  2

  9
$PUCSORG
 10
0.0
 20
0.0
 30
0.0
  9
$PUCSXDIR
 10
1.0
 20
0.0
 30
0.0
  9
$PUCSYDIR
 10
0.0
 20
1.0
 30
0.0
  9
$PUCSORTHOREF
  2

  9
$PUCSORTHOVIEW
 70
     0
  9
$PUCSORGTOP
 10
0.0
 20
0.0
 30
0.0
  9
$PUCSORGBOTTOM
 10
0.0
 20
0.0
 30
0.0
  9
$PUCSORGLEFT
 10
0.0
 20
0.0
 30
0.0
  9
$PUCSORGRIGHT
 10
0.0
 20
0.0
 30
0.0
  9
$PUCSORGFRONT
 10
0.0
 20
0.0
 30
0.0
  9
$PUCSORGBACK
 10
0.0
 20
0.0
 30
0.0
  9
$USERI1
 70
     0
  9
$USERI2
 70
     0
  9
$USERI3
 70
     0
  9
$USERI4
 70
     0
  9
$USERI5
 70
     0
  9
$USERR1
 40
0.0
  9
$USERR2
 40
0.0
  9
$USERR3
 40
0.0
  9
$USERR4
 40
0.0
  9
$USERR5
 40
0.0
  9
$WORLDVIEW
 70
     1
  9
$SHADEDGE
 70
     3
  9
$SHADEDIF
 70
    70
  9
$TILEMODE
 70
     1
  9
$MAXACTVP
 70
    64
  9
$PINSBASE
 10
0.0
 20
0.0
 30
0.0
  9
$PLIMCHECK
 70
     0
  9
$PEXTMIN
 10
0.0
 20
0.0
 30
0.0
  9
$PEXTMAX
 10
1682.0
 20
2378.0
 30
0.0
  9
$PLIMMIN
 10
0.0
 20
0.0
  9
$PLIMMAX
 10
1682.0
 20
2378.0
  9
$UNITMODE
 70
     0
  9
$VISRETAIN
 70
     1
  9
$PLINEGEN
 70
     0
  9
$PSLTSCALE
 70
     1
  9
$TREEDEPTH
 70
  3020
  9
$CMLSTYLE
  2
Standard
  9
$CMLJUST
 70
     0
  9
$CMLSCALE
 40
20.0
  9
$PROXYGRAPHICS
 70
     1
  9
$MEASUREMENT
 70
     1
  9
$CELWEIGHT
370
    -1
  9
$ENDCAPS
280
     0
  9
$JOINSTYLE
280
     0
  9
$LWDISPLAY
290
     0
  9
$INSUNITS
 70
     4
  9
$HYPERLINKBASE
  1

  9
$STYLESHEET
  1

  9
$XEDIT
290
     1
  9
$CEPSNTYPE
380
     0
  9
$PSTYLEMODE
290
     1
  9
$FINGERPRINTGUID
  2
{24A06635-712C-4141-BC5B-252CD3D66E23}
  9
$VERSIONGUID
  2
{FAEB1C32-E019-11D5-929B-00C0DF256EC4}
  9
$EXTNAMES
290
     1
  9
$PSVPSCALE
 40
0.0
  9
$OLESTARTUP
290
     0
  0
ENDSEC
  0
SECTION
  2
CLASSES
  0
CLASS
  1
ACDBDICTIONARYWDFLT
  2
AcDbDictionaryWithDefault
  3
ObjectDBX Classes
 90
        0
280
     0
281
     0
  0
CLASS
  1
VISUALSTYLE
  2
AcDbVisualStyle
  3
ObjectDBX Classes
 90
     4095
280
     0
281
     0
  0
CLASS
  1
SCALE
  2
AcDbScale
  3
ObjectDBX Classes
 90
     1153
280
     0
281
     0
  0
CLASS
  1
DICTIONARYVAR
  2
AcDbDictionaryVar
  3
ObjectDBX Classes
 90
        0
280
     0
281
     0
  0
CLASS
  1
ACDBPLACEHOLDER
  2
AcDbPlaceHolder
  3
ObjectDBX Classes
 90
        0
280
     0
281
     0
  0
CLASS
  1
LAYOUT
  2
AcDbLayout
  3
ObjectDBX Classes
 90
        0
280
     0
281
     0
  0
ENDSEC
  0
SECTION
  2
TABLES
  0
TABLE
  2
VPORT
  5
8
330
0
100
AcDbSymbolTable
 70
     1
  0
VPORT
  5
29
330
8
100
AcDbSymbolTableRecord
100
AcDbViewportTableRecord
  2
*Active
 70
     0
 10
0.0
 20
0.0
 11
1.0
 21
1.0
 12
344.1869158879
 22
148.5
 13
0.0
 23
0.0
 14
10.0
 24
10.0
 15
10.0
 25
10.0
 16
0.0
 26
0.0
 36
1.0
 17
0.0
 27
0.0
 37
0.0
 40
297.0
 41
1.9729729729
 42
50.0
 43
0.0
 44
0.0
 50
0.0
 51
0.0
 71
     0
 72
   100
 73
     1
 74
     3
 75
     0
 76
     0
 77
     0
 78
     0
281
     0
 65
     1
110
0.0
120
0.0
130
0.0
111
1.0
121
0.0
131
0.0
112
0.0
122
1.0
132
0.0
 79
     0
146
0.0
  0
ENDTAB
  0
TABLE
  2
LTYPE
  5
5
330
0
100
AcDbSymbolTable
 70
     1
  0
LTYPE
  5
14
330
5
100
AcDbSymbolTableRecord
100
AcDbLinetypeTableRecord
  2
ByBlock
 70
     0
  3

 72
    65
 73
     0
 40
0.0
  0
LTYPE
  5
15
330
5
100
AcDbSymbolTableRecord
100
AcDbLinetypeTableRecord
  2
ByLayer
 70
     0
  3

 72
    65
 73
     0
 40
0.0
  0
LTYPE
  5
16
330
5
100
AcDbSymbolTableRecord
100
AcDbLinetypeTableRecord
  2
Continuous
 70
     0
  3
Solid line
 72
    65
 73
     0
 40
0.0
  0
ENDTAB
  0
TABLE
  2
LAYER
  5
2
330
0
100
AcDbSymbolTable
 70
    16
  0
LAYER
  5
10
330
2
100
AcDbSymbolTableRecord
100
AcDbLayerTableRecord
  2
0
 70
     0
 62
     7
  6
Continuous
370
    -3
390
F
  0
LAYER
  5
5D
330
2
100
AcDbSymbolTableRecord
100
AcDbLayerTableRecord
  2
Default
 70
     0
 62
     7
  6
Continuous
370
    -3
390
F
  0
LAYER
  5
60
330
2
100
AcDbSymbolTableRecord
100
AcDbLayerTableRecord
  2
$DDT_AUDIT_GENERATED_(60)
 70
     0
 62
     7
  6
Continuous
370
    -3
390
F
  0
LAYER
  5
62
330
2
100
AcDbSymbolTableRecord
100
AcDbLayerTableRecord
  2
$DDT_AUDIT_GENERATED_(62)
 70
     0
 62
     7
  6
Continuous
370
    -3
390
F
  0
LAYER
  5
68
330
2
100
AcDbSymbolTableRecord
100
AcDbLayerTableRecord
  2
$DDT_AUDIT_GENERATED_(68)
 70
     0
 62
     7
  6
Continuous
370
    -3
390
F
  0
LAYER
  5
6E
330
2
100
AcDbSymbolTableRecord
100
AcDbLayerTableRecord
  2
$DDT_AUDIT_GENERATED_(6E)
 70
     0
 62
     7
  6
Continuous
370
    -3
390
F
  0
LAYER
  5
77
330
2
100
AcDbSymbolTableRecord
100
AcDbLayerTableRecord
  2
$DDT_AUDIT_GENERATED_(77)
 70
     0
 62
     7
  6
Continuous
370
    -3
390
F
  0
LAYER
  5
8F
330
2
100
AcDbSymbolTableRecord
100
AcDbLayerTableRecord
  2
$DDT_AUDIT_GENERATED_(8F)
 70
     0
 62
     7
  6
Continuous
370
    -3
390
F
  0
LAYER
  5
9A
330
2
100
AcDbSymbolTableRecord
100
AcDbLayerTableRecord
  2
$DDT_AUDIT_GENERATED_(9A)
 70
     0
 62
     7
  6
Continuous
370
    -3
390
F
  0
LAYER
  5
AF
330
2
100
AcDbSymbolTableRecord
100
AcDbLayerTableRecord
  2
$DDT_AUDIT_GENERATED_(AF)
 70
     0
 62
     7
  6
Continuous
370
    -3
390
F
  0
LAYER
  5
C4
330
2
100
AcDbSymbolTableRecord
100
AcDbLayerTableRecord
  2
$DDT_AUDIT_GENERATED_(C4)
 70
     0
 62
     7
  6
Continuous
370
    -3
390
F
  0
LAYER
  5
CA
330
2
100
AcDbSymbolTableRecord
100
AcDbLayerTableRecord
  2
$DDT_AUDIT_GENERATED_(CA)
 70
     0
 62
     7
  6
Continuous
370
    -3
390
F
  0
LAYER
  5
147
330
2
100
AcDbSymbolTableRecord
100
AcDbLayerTableRecord
  2
$DDT_AUDIT_GENERATED_(147)
 70
     0
 62
     7
  6
Continuous
370
    -3
390
F
  0
LAYER
  5
14C
330
2
100
AcDbSymbolTableRecord
100
AcDbLayerTableRecord
  2
$DDT_AUDIT_GENERATED_(14C)
 70
     0
 62
     7
  6
Continuous
370
    -3
390
F
  0
LAYER
  5
1B0
330
2
100
AcDbSymbolTableRecord
100
AcDbLayerTableRecord
  2
$DDT_AUDIT_GENERATED_(1B0)
 70
     0
 62
     7
  6
Continuous
370
    -3
390
F
  0
LAYER
  5
1D8
330
2
100
AcDbSymbolTableRecord
100
AcDbLayerTableRecord
  2
$DDT_AUDIT_GENERATED_(1D8)
 70
     0
 62
     7
  6
Continuous
370
    -3
390
F
  0
ENDTAB
  0
TABLE
  2
STYLE
  5
3
330
0
100
AcDbSymbolTable
 70
     2
  0
STYLE
  5
11
330
3
100
AcDbSymbolTableRecord
100
AcDbTextStyleTableRecord
  2
Standard
 70
     0
 40
0.0
 41
1.0
 50
0.0
 71
     0
 42
2.5
  3
txt
  4

  0
STYLE
  5
207
330
3
100
AcDbSymbolTableRecord
100
AcDbTextStyleTableRecord
  2
SEACAD_seiso_ttf
 70
     0
 40
0.0
 41
1.0
 50
0.0
 71
     0
 42
0.2
  3
seiso.ttf
  4

  0
ENDTAB
  0
TABLE
  2
VIEW
  5
6
330
0
100
AcDbSymbolTable
 70
     0
  0
ENDTAB
  0
TABLE
  2
UCS
  5
7
330
0
100
AcDbSymbolTable
 70
     0
  0
ENDTAB
  0
TABLE
  2
APPID
  5
9
330
0
100
AcDbSymbolTable
 70
     1
  0
APPID
  5
12
330
9
100
AcDbSymbolTableRecord
100
AcDbRegAppTableRecord
  2
ACAD
 70
     0
  0
ENDTAB
  0
TABLE
  2
DIMSTYLE
  5
A
330
0
100
AcDbSymbolTable
 70
     1
100
AcDbDimStyleTable
  0
DIMSTYLE
105
27
330
A
100
AcDbSymbolTableRecord
100
AcDbDimStyleTableRecord
  2
ISO-25
 70
     0
 41
2.5
 42
0.625
 43
3.75
 44
1.25
 73
     0
 74
     0
 77
     1
 78
     8
140
2.5
141
2.5
143
0.0393700787
147
0.625
171
     3
172
     1
271
     2
272
     2
274
     3
278
    44
283
     0
284
     8
340
11
  0
ENDTAB
  0
TABLE
  2
BLOCK_RECORD
  5
1
330
0
100
AcDbSymbolTable
 70
     4
  0
BLOCK_RECORD
  5
1F
330
1
100
AcDbSymbolTableRecord
100
AcDbBlockTableRecord
  2
*Model_Space
340
22
  0
BLOCK_RECORD
  5
1B
330
1
100
AcDbSymbolTableRecord
100
AcDbBlockTableRecord
  2
*Paper_Space
340
1E
  0
BLOCK_RECORD
  5
5E
330
1
100
AcDbSymbolTableRecord
100
AcDbBlockTableRecord
  2
SE
340
0
102
{BLKREFS
331
5F
102
}
  0
BLOCK_RECORD
  5
12C
330
1
100
AcDbSymbolTableRecord
100
AcDbBlockTableRecord
  2
SE1
340
0
102
{BLKREFS
331
12D
102
}
  0
BLOCK_RECORD
  5
180
330
1
100
AcDbSymbolTableRecord
100
AcDbBlockTableRecord
  2
SE2
340
0
102
{BLKREFS
331
181
102
}
  0
ENDTAB
  0
ENDSEC
  0
SECTION
  2
BLOCKS
  0
BLOCK
  5
20
330
1F
100
AcDbEntity
  8
0
100
AcDbBlockBegin
  2
*Model_Space
 70
     0
 10
0.0
 20
0.0
 30
0.0
  3
*Model_Space
  1

  0
ENDBLK
  5
21
330
1F
100
AcDbEntity
  8
0
100
AcDbBlockEnd
  0
BLOCK
  5
1C
330
1B
100
AcDbEntity
 67
     1
  8
0
100
AcDbBlockBegin
  2
*Paper_Space
 70
     0
 10
0.0
 20
0.0
 30
0.0
  3
*Paper_Space
  1

  0
ENDBLK
  5
1D
330
1B
100
AcDbEntity
 67
     1
  8
0
100
AcDbBlockEnd
  0
BLOCK
  5
12A
330
5E
100
AcDbEntity
  8
0
100
AcDbBlockBegin
  2
SE
 70
     0
 10
0.0
 20
0.0
 30
0.0
  3
SE
  1

  0
LINE
  5
61
330
5E
100
AcDbEntity
  8
$DDT_AUDIT_GENERATED_(60)
  6
Continuous
 62
     7
100
AcDbLine
 10
38.2808695784
 20
760.5997850153
 30
0.0
 11
38.6385501012
 21
760.5997850153
 31
0.0
  0
LINE
  5
63
330
5E
100
AcDbEntity
  8
$DDT_AUDIT_GENERATED_(62)
  6
Continuous
 62
     7
100
AcDbLine
 10
21.3808695784
 20
741.3797850153
 30
0.0
 11
56.3808695784
 21
741.3797850153
 31
0.0
  0
LINE
  5
64
330
5E
100
AcDbEntity
  8
$DDT_AUDIT_GENERATED_(62)
  6
Continuous
 62
     7
100
AcDbLine
 10
20.8808695784
 20
740.8797850153
 30
0.0
 11
20.8808695784
 21
706.3797850153
 31
0.0
  0
LINE
  5
65
330
5E
100
AcDbEntity
  8
$DDT_AUDIT_GENERATED_(62)
  6
Continuous
 62
     7
100
AcDbLine
 10
56.8808695784
 20
706.3797850153
 30
0.0
 11
56.8808695784
 21
740.8797850153
 31
0.0
  0
ARC
  5
66
330
5E
100
AcDbEntity
  8
$DDT_AUDIT_GENERATED_(62)
  6
Continuous
 62
     7
100
AcDbCircle
 10
21.3808695784
 20
740.8797850153
 30
0.0
 40
0.5000000000000004
100
AcDbArc
 50
90.0
 51
180.0
  0
ARC
  5
67
330
5E
100
AcDbEntity
  8
$DDT_AUDIT_GENERATED_(62)
  6
Continuous
 62
     7
100
AcDbCircle
 10
56.3808695784
 20
740.8797850153
 30
0.0
 40
0.5000000000000004
100
AcDbArc
 50
0.0
 51
90.0
  0
LINE
  5
69
330
5E
100
AcDbEntity
  8
$DDT_AUDIT_GENERATED_(68)
  6
Continuous
 62
     7
100
AcDbLine
 10
112.9808695784
 20
706.4797850153
 30
0.0
 11
164.7808695784
 21
706.4797850153
 31
0.0
  0
LINE
  5
6A
330
5E
100
AcDbEntity
  8
$DDT_AUDIT_GENERATED_(68)
  6
Continuous
 62
     7
100
AcDbLine
 10
112.6808695784
 20
706.1797850153
 30
0.0
 11
112.6808695784
 21
706.0797850153
 31
0.0
  0
LINE
  5
6B
330
5E
100
AcDbEntity
  8
$DDT_AUDIT_GENERATED_(68)
  6
Continuous
 62
     7
100
AcDbLine
 10
165.0808695784
 20
706.0797850153
 30
0.0
 11
165.0808695784
 21
706.1797850153
 31
0.0
  0
ARC
  5
6C
330
5E
100
AcDbEntity
  8
$DDT_AUDIT_GENERATED_(68)
  6
Continuous
 62
     7
100
AcDbCircle
 10
164.7808695784
 20
706.1797850153
 30
0.0
 40
0.2999999999999947
100
AcDbArc
 50
0.0
 51
90.0
  0
ARC
  5
6D
330
5E
100
AcDbEntity
  8
$DDT_AUDIT_GENERATED_(68)
  6
Continuous
 62
     7
100
AcDbCircle
 10
112.9808695784
 20
706.1797850153
 30
0.0
 40
0.2999999999999947
100
AcDbArc
 50
90.0
 51
180.0
  0
LINE
  5
6F
330
5E
100
AcDbEntity
  8
$DDT_AUDIT_GENERATED_(6E)
  6
Continuous
 62
     7
100
AcDbLine
 10
265.0808695784
 20
706.3797850153
 30
0.0
 11
212.6808695784
 21
706.3797850153
 31
0.0
  0
LINE
  5
70
330
5E
100
AcDbEntity
  8
$DDT_AUDIT_GENERATED_(6E)
  6
Continuous
 62
     7
100
AcDbLine
 10
265.0808695784
 20
706.0797850153
 30
0.0
 11
265.0808695784
 21
706.3797850153
 31
0.0
  0
LINE
  5
71
330
5E
100
AcDbEntity
  8
$DDT_AUDIT_GENERATED_(6E)
  6
Continuous
 62
     7
100
AcDbLine
 10
212.6808695784
 20
706.3797850153
 30
0.0
 11
212.6808695784
 21
706.0797850153
 31
0.0
  0
LINE
  5
72
330
5E
100
AcDbEntity
  8
$DDT_AUDIT_GENERATED_(62)
  6
Continuous
 62
     7
100
AcDbLine
 10
221.3808695784
 20
741.3797850153
 30
0.0
 11
256.3808695784
 21
741.3797850153
 31
0.0
  0
LINE
  5
73
330
5E
100
AcDbEntity
  8
$DDT_AUDIT_GENERATED_(62)
  6
Continuous
 62
     7
100
AcDbLine
 10
220.8808695784
 20
740.8797850153
 30
0.0
 11
220.8808695784
 21
706.3797850153
 31
0.0
  0
LINE
  5
74
330
5E
100
AcDbEntity
  8
$DDT_AUDIT_GENERATED_(62)
  6
Continuous
 62
     7
100
AcDbLine
 10
256.8808695784
 20
706.3797850153
 30
0.0
 11
256.8808695784
 21
740.8797850153
 31
0.0
  0
ARC
  5
75
330
5E
100
AcDbEntity
  8
$DDT_AUDIT_GENERATED_(62)
  6
Continuous
 62
     7
100
AcDbCircle
 10
221.3808695784
 20
740.8797850153
 30
0.0
 40
0.5000000000000004
100
AcDbArc
 50
90.0
 51
180.0
  0
ARC
  5
76
330
5E
100
AcDbEntity
  8
$DDT_AUDIT_GENERATED_(62)
  6
Continuous
 62
     7
100
AcDbCircle
 10
256.3808695784
 20
740.8797850153
 30
0.0
 40
0.5000000000000004
100
AcDbArc
 50
0.0
 51
90.0
  0
LINE
  5
78
330
5E
100
AcDbEntity
  8
$DDT_AUDIT_GENERATED_(77)
  6
Continuous
 62
     7
100
AcDbLine
 10
123.8808695784
 20
706.4797850153
 30
0.0
 11
123.8808695784
 21
885.7773245633
 31
0.0
  0
LINE
  5
79
330
5E
100
AcDbEntity
  8
$DDT_AUDIT_GENERATED_(77)
  6
Continuous
 62
     7
100
AcDbLine
 10
153.8808695784
 20
927.4797850153
 30
0.0
 11
153.8808695784
 21
891.8788589824
 31
0.0
  0
LINE
  5
7A
330
5E
100
AcDbEntity
  8
$DDT_AUDIT_GENERATED_(77)
  6
Continuous
 62
     7
100
AcDbLine
 10
153.8808695784
 20
891.8788589824
 30
0.0
 11
153.8808695784
 21
886.9975049618
 31
0.0
  0
LINE
  5
7B
330
5E
100
AcDbEntity
  8
$DDT_AUDIT_GENERATED_(77)
  6
Continuous
 62
     7
100
AcDbLine
 10
153.8808695784
 20
706.4797850153
 30
0.0
 11
153.8808695784
 21
885.7773245633
 31
0.0
  0
ARC
  5
7C
330
5E
100
AcDbEntity
  8
$DDT_AUDIT_GENERATED_(77)
  6
Continuous
 62
     7
100
AcDbCircle
 10
124.3808695784
 20
927.4797850153
 30
0.0
 40
0.5000000000000004
100
AcDbArc
 50
90.0
 51
180.0
  0
LINE
  5
7D
330
5E
100
AcDbEntity
  8
$DDT_AUDIT_GENERATED_(77)
  6
Continuous
 62
     7
100
AcDbLine
 10
124.3808695784
 20
927.9797850153
 30
0.0
 11
153.3808695784
 21
927.9797850153
 31
0.0
  0
ARC
  5
7E
330
5E
100
AcDbEntity
  8
$DDT_AUDIT_GENERATED_(77)
  6
Continuous
 62
     7
100
AcDbCircle
 10
153.3808695784
 20
927.4797850153
 30
0.0
 40
0.5000000000000004
100
AcDbArc
 50
0.0
 51
90.0
  0
LINE
  5
7F
330
5E
100
AcDbEntity
  8
$DDT_AUDIT_GENERATED_(77)
  6
Continuous
 62
     7
100
AcDbLine
 10
123.8808695784
 20
927.4797850153
 30
0.0
 11
123.8808695784
 21
891.8788589824
 31
0.0
  0
LINE
  5
80
330
5E
100
AcDbEntity
  8
$DDT_AUDIT_GENERATED_(77)
  6
Continuous
 62
     7
100
AcDbLine
 10
123.8808695784
 20
891.8788589824
 30
0.0
 11
123.8808695784
 21
886.9975049618
 31
0.0
  0
LINE
  5
81
330
5E
100
AcDbEntity
  8
$DDT_AUDIT_GENERATED_(77)
  6
Continuous
 62
     7
100
AcDbLine
 10
153.8808695784
 20
886.9975049618
 30
0.0
 11
153.8808695784
 21
885.7773245633
 31
0.0
  0
LINE
  5
82
330
5E
100
AcDbEntity
  8
$DDT_AUDIT_GENERATED_(77)
  6
Continuous
 62
     7
100
AcDbLine
 10
123.8808695784
 20
885.7773245633
 30
0.0
 11
123.8808695784
 21
886.9975049618
 31
0.0
  0
ELLIPSE
  5
83
330
5E
100
AcDbEntity
  8
$DDT_AUDIT_GENERATED_(77)
  6
Continuous
 62
     7
100
AcDbEllipse
 10
129.6308695784
 20
886.0200510276
 30
0.0
 11
-3.599999999999992
 21
0.0
 31
0.0
210
0.0
220
0.0
230
1.0
 40
0.0871557427
 41
4.71238898038469
 42
5.336086282526669
  0
ELLIPSE
  5
84
330
5E
100
AcDbEntity
  8
$DDT_AUDIT_GENERATED_(77)
  6
Continuous
 62
     7
100
AcDbEllipse
 10
148.1308695784
 20
886.0200510276
 30
0.0
 11
-3.600000000000006
 21
0.0
 31
0.0
210
0.0
220
0.0
230
1.0
 40
0.0871557427
 41
4.104071712019211
 42
4.71238898038469
  0
LINE
  5
85
330
5E
100
AcDbEntity
  8
$DDT_AUDIT_GENERATED_(77)
  6
Continuous
 62
     7
100
AcDbLine
 10
129.6308695784
 20
886.3315285204
 30
0.0
 11
129.6308695784
 21
886.3338117015
 31
0.0
  0
ARC
  5
86
330
5E
100
AcDbEntity
  8
$DDT_AUDIT_GENERATED_(77)
  6
Continuous
 62
     7
100
AcDbCircle
 10
153.3808695784
 20
885.7773245633
 30
0.0
 40
0.5000000000000004
100
AcDbArc
 50
270.0
 51
0.0
  0
ARC
  5
87
330
5E
100
AcDbEntity
  8
$DDT_AUDIT_GENERATED_(77)
  6
Continuous
 62
     7
100
AcDbCircle
 10
124.3808695784
 20
885.7773245633
 30
0.0
 40
0.5000000000000004
100
AcDbArc
 50
180.0
 51
270.0
  0
LINE
  5
88
330
5E
100
AcDbEntity
  8
$DDT_AUDIT_GENERATED_(77)
  6
Continuous
 62
     7
100
AcDbLine
 10
124.3808695784
 20
885.2773245633
 30
0.0
 11
153.3808695784
 21
885.2773245633
 31
0.0
  0
SPLINE
  5
89
330
5E
100
AcDbEntity
  8
$DDT_AUDIT_GENERATED_(77)
  6
Continuous
 62
     7
100
AcDbSpline
210
0.0
220
0.0
230
1.0
 70
     8
 71
     3
 72
    12
 73
     8
 74
     0
 42
0.0000000056226499
 43
0.0000000001
 40
0.3021550665794853
 40
0.3021550665794853
 40
0.3021550665794853
 40
0.3021550665794853
 40
0.3198696625959555
 40
0.4317197925356859
 40
0.5918220391075114
 40
0.788497251135886
 40
1.0
 40
1.0
 40
1.0
 40
1.0
 10
126.3349580141593
 20
886.1269364031352
 30
0.0
 10
126.3349647150193
 20
886.1269560320302
 30
0.0
 10
126.3387201434304
 20
886.1285041040666
 30
0.0
 10
126.4006586098761
 20
886.1469096020867
 30
0.0
 10
126.6119188080882
 20
886.185824376341
 30
0.0
 10
127.003585093755
 20
886.2334486218017
 30
0.0
 10
127.3503210266825
 20
886.2583264157304
 30
0.0
 10
127.5652364290479
 20
886.2733659436124
 30
0.0
  0
LINE
  5
8A
330
5E
100
AcDbEntity
  8
$DDT_AUDIT_GENERATED_(77)
  6
Continuous
 62
     7
100
AcDbLine
 10
129.6308695784
 20
886.3315285204
 30
0.0
 11
148.1308695784
 21
886.3315285204
 31
0.0
  0
SPLINE
  5
8B
330
5E
100
AcDbEntity
  8
$DDT_AUDIT_GENERATED_(77)
  6
Continuous
 62
     7
100
AcDbSpline
210
0.0
220
0.0
230
1.0
 70
     8
 71
     3
 72
    11
 73
     7
 74
     0
 42
0.0000000054415561
 43
0.0000000001
 40
0.0
 40
0.0
 40
0.0
 40
0.0
 40
0.2038110703828594
 40
0.4245334586089877
 40
0.5970133153564186
 40
0.7025618526160673
 40
0.7025618526160673
 40
0.7025618526160673
 40
0.7025618526160673
 10
150.1474516318954
 20
886.2757891520369
 30
0.0
 10
150.3623923965883
 20
886.2615494813673
 30
0.0
 10
150.7376297433997
 20
886.2360501016052
 30
0.0
 10
151.1606724759437
 20
886.1850085538088
 30
0.0
 10
151.3790545313038
 20
886.1429174130558
 30
0.0
 10
151.427174161221
 20
886.1268748771558
 30
0.0
 10
151.4268389371308
 20
886.126989934263
 30
0.0
  0
LINE
  5
8C
330
5E
100
AcDbEntity
  8
$DDT_AUDIT_GENERATED_(6E)
  6
Continuous
 62
     7
100
AcDbLine
 10
12.6808695784
 20
706.3797850153
 30
0.0
 11
65.0808695784
 21
706.3797850153
 31
0.0
  0
LINE
  5
8D
330
5E
100
AcDbEntity
  8
$DDT_AUDIT_GENERATED_(6E)
  6
Continuous
 62
     7
100
AcDbLine
 10
12.6808695784
 20
706.3797850153
 30
0.0
 11
12.6808695784
 21
706.0797850153
 31
0.0
  0
LINE
  5
8E
330
5E
100
AcDbEntity
  8
$DDT_AUDIT_GENERATED_(6E)
  6
Continuous
 62
     7
100
AcDbLine
 10
65.0808695784
 20
706.0797850153
 30
0.0
 11
65.0808695784
 21
706.3797850153
 31
0.0
  0
LINE
  5
90
330
5E
100
AcDbEntity
  8
$DDT_AUDIT_GENERATED_(8F)
  6
Continuous
 62
     7
100
AcDbLine
 10
173.8808695784
 20
696.0797850153
 30
0.0
 11
172.2808695784
 21
696.0797850153
 31
0.0
  0
LINE
  5
91
330
5E
100
AcDbEntity
  8
$DDT_AUDIT_GENERATED_(8F)
  6
Continuous
 62
     7
100
AcDbLine
 10
105.4808695784
 20
696.0797850153
 30
0.0
 11
172.2808695784
 21
696.0797850153
 31
0.0
  0
LINE
  5
92
330
5E
100
AcDbEntity
  8
$DDT_AUDIT_GENERATED_(8F)
  6
Continuous
 62
     7
100
AcDbLine
 10
105.4808695784
 20
696.0797850153
 30
0.0
 11
103.8808695784
 21
696.0797850153
 31
0.0
  0
LINE
  5
93
330
5E
100
AcDbEntity
  8
$DDT_AUDIT_GENERATED_(8F)
  6
Continuous
 62
     7
100
AcDbLine
 10
103.8808695784
 20
696.0797850153
 30
0.0
 11
103.8808695784
 21
704.8797850153
 31
0.0
  0
LINE
  5
94
330
5E
100
AcDbEntity
  8
$DDT_AUDIT_GENERATED_(8F)
  6
Continuous
 62
     7
100
AcDbLine
 10
172.2808695784
 20
706.0797850153
 30
0.0
 11
172.6808695784
 21
706.0797850153
 31
0.0
  0
LINE
  5
95
330
5E
100
AcDbEntity
  8
$DDT_AUDIT_GENERATED_(8F)
  6
Continuous
 62
     7
100
AcDbLine
 10
105.4808695784
 20
706.0797850153
 30
0.0
 11
172.2808695784
 21
706.0797850153
 31
0.0
  0
LINE
  5
96
330
5E
100
AcDbEntity
  8
$DDT_AUDIT_GENERATED_(8F)
  6
Continuous
 62
     7
100
AcDbLine
 10
105.0808695784
 20
706.0797850153
 30
0.0
 11
105.4808695784
 21
706.0797850153
 31
0.0
  0
LINE
  5
97
330
5E
100
AcDbEntity
  8
$DDT_AUDIT_GENERATED_(8F)
  6
Continuous
 62
     7
100
AcDbLine
 10
173.8808695784
 20
704.8797850153
 30
0.0
 11
173.8808695784
 21
696.0797850153
 31
0.0
  0
ARC
  5
98
330
5E
100
AcDbEntity
  8
$DDT_AUDIT_GENERATED_(8F)
  6
Continuous
 62
     7
100
AcDbCircle
 10
172.6808695784
 20
704.8797850153
 30
0.0
 40
1.199999999999993
100
AcDbArc
 50
0.0
 51
90.0
  0
ARC
  5
99
330
5E
100
AcDbEntity
  8
$DDT_AUDIT_GENERATED_(8F)
  6
Continuous
 62
     7
100
AcDbCircle
 10
105.0808695784
 20
704.8797850153
 30
0.0
 40
1.200000000000007
100
AcDbArc
 50
90.0
 51
180.0
  0
LINE
  5
9B
330
5E
100
AcDbEntity
  8
$DDT_AUDIT_GENERATED_(9A)
  6
Continuous
 62
     7
100
AcDbLine
 10
5.4808695784
 20
696.0797850153
 30
0.0
 11
72.2808695784
 21
696.0797850153
 31
0.0
  0
LINE
  5
9C
330
5E
100
AcDbEntity
  8
$DDT_AUDIT_GENERATED_(9A)
  6
Continuous
 62
     7
100
AcDbLine
 10
5.4808695784
 20
696.0797850153
 30
0.0
 11
3.8808695784
 21
696.0797850153
 31
0.0
  0
LINE
  5
9D
330
5E
100
AcDbEntity
  8
$DDT_AUDIT_GENERATED_(9A)
  6
Continuous
 62
     7
100
AcDbLine
 10
3.8808695784
 20
696.0797850153
 30
0.0
 11
3.8808695784
 21
704.8797850153
 31
0.0
  0
LINE
  5
9E
330
5E
100
AcDbEntity
  8
$DDT_AUDIT_GENERATED_(9A)
  6
Continuous
 62
     7
100
AcDbLine
 10
73.8808695784
 20
696.0797850153
 30
0.0
 11
72.2808695784
 21
696.0797850153
 31
0.0
  0
LINE
  5
9F
330
5E
100
AcDbEntity
  8
$DDT_AUDIT_GENERATED_(9A)
  6
Continuous
 62
     7
100
AcDbLine
 10
72.2808695784
 20
706.0797850153
 30
0.0
 11
72.6808695784
 21
706.0797850153
 31
0.0
  0
LINE
  5
A0
330
5E
100
AcDbEntity
  8
$DDT_AUDIT_GENERATED_(9A)
  6
Continuous
 62
     7
100
AcDbLine
 10
5.4808695784
 20
706.0797850153
 30
0.0
 11
72.2808695784
 21
706.0797850153
 31
0.0
  0
LINE
  5
A1
330
5E
100
AcDbEntity
  8
$DDT_AUDIT_GENERATED_(9A)
  6
Continuous
 62
     7
100
AcDbLine
 10
5.0808695784
 20
706.0797850153
 30
0.0
 11
5.4808695784
 21
706.0797850153
 31
0.0
  0
LINE
  5
A2
330
5E
100
AcDbEntity
  8
$DDT_AUDIT_GENERATED_(9A)
  6
Continuous
 62
     7
100
AcDbLine
 10
73.8808695784
 20
704.8797850153
 30
0.0
 11
73.8808695784
 21
696.0797850153
 31
0.0
  0
ARC
  5
A3
330
5E
100
AcDbEntity
  8
$DDT_AUDIT_GENERATED_(9A)
  6
Continuous
 62
     7
100
AcDbCircle
 10
72.6808695784
 20
704.8797850153
 30
0.0
 40
1.200000000000007
100
AcDbArc
 50
0.0
 51
90.0
  0
ARC
  5
A4
330
5E
100
AcDbEntity
  8
$DDT_AUDIT_GENERATED_(9A)
  6
Continuous
 62
     7
100
AcDbCircle
 10
5.0808695784
 20
704.8797850153
 30
0.0
 40
1.200000000000007
100
AcDbArc
 50
90.0
 51
180.0
  0
LINE
  5
A5
330
5E
100
AcDbEntity
  8
$DDT_AUDIT_GENERATED_(9A)
  6
Continuous
 62
     7
100
AcDbLine
 10
205.4808695784
 20
696.0797850153
 30
0.0
 11
272.2808695784
 21
696.0797850153
 31
0.0
  0
LINE
  5
A6
330
5E
100
AcDbEntity
  8
$DDT_AUDIT_GENERATED_(9A)
  6
Continuous
 62
     7
100
AcDbLine
 10
205.4808695784
 20
696.0797850153
 30
0.0
 11
203.8808695784
 21
696.0797850153
 31
0.0
  0
LINE
  5
A7
330
5E
100
AcDbEntity
  8
$DDT_AUDIT_GENERATED_(9A)
  6
Continuous
 62
     7
100
AcDbLine
 10
203.8808695784
 20
696.0797850153
 30
0.0
 11
203.8808695784
 21
704.8797850153
 31
0.0
  0
LINE
  5
A8
330
5E
100
AcDbEntity
  8
$DDT_AUDIT_GENERATED_(9A)
  6
Continuous
 62
     7
100
AcDbLine
 10
273.8808695784
 20
696.0797850153
 30
0.0
 11
272.2808695784
 21
696.0797850153
 31
0.0
  0
LINE
  5
A9
330
5E
100
AcDbEntity
  8
$DDT_AUDIT_GENERATED_(9A)
  6
Continuous
 62
     7
100
AcDbLine
 10
272.2808695784
 20
706.0797850153
 30
0.0
 11
272.6808695784
 21
706.0797850153
 31
0.0
  0
LINE
  5
AA
330
5E
100
AcDbEntity
  8
$DDT_AUDIT_GENERATED_(9A)
  6
Continuous
 62
     7
100
AcDbLine
 10
205.4808695784
 20
706.0797850153
 30
0.0
 11
272.2808695784
 21
706.0797850153
 31
0.0
  0
LINE
  5
AB
330
5E
100
AcDbEntity
  8
$DDT_AUDIT_GENERATED_(9A)
  6
Continuous
 62
     7
100
AcDbLine
 10
205.0808695784
 20
706.0797850153
 30
0.0
 11
205.4808695784
 21
706.0797850153
 31
0.0
  0
LINE
  5
AC
330
5E
100
AcDbEntity
  8
$DDT_AUDIT_GENERATED_(9A)
  6
Continuous
 62
     7
100
AcDbLine
 10
273.8808695784
 20
704.8797850153
 30
0.0
 11
273.8808695784
 21
696.0797850153
 31
0.0
  0
ARC
  5
AD
330
5E
100
AcDbEntity
  8
$DDT_AUDIT_GENERATED_(9A)
  6
Continuous
 62
     7
100
AcDbCircle
 10
272.6808695784
 20
704.8797850153
 30
0.0
 40
1.2
100
AcDbArc
 50
0.0
 51
90.0
  0
ARC
  5
AE
330
5E
100
AcDbEntity
  8
$DDT_AUDIT_GENERATED_(9A)
  6
Continuous
 62
     7
100
AcDbCircle
 10
205.0808695784
 20
704.8797850153
 30
0.0
 40
1.2
100
AcDbArc
 50
90.0
 51
180.0
  0
ELLIPSE
  5
B0
330
5E
100
AcDbEntity
  8
$DDT_AUDIT_GENERATED_(AF)
  6
Continuous
 62
     7
100
AcDbEllipse
 10
238.8808695784
 20
762.5347455389
 30
0.0
 11
-1.570500000000004
 21
4.163336342344337E-13
 31
0.0
210
0.0
220
0.0
230
1.0
 40
0.9953961984
 41
0.0
 42
6.283185307179586
  0
LINE
  5
B1
330
5E
100
AcDbEntity
  8
$DDT_AUDIT_GENERATED_(AF)
  6
Continuous
 62
     7
100
AcDbLine
 10
238.8808695784
 20
763.684130065
 30
0.0
 11
239.8808695784
 21
763.109437802
 31
0.0
  0
LINE
  5
B2
330
5E
100
AcDbEntity
  8
$DDT_AUDIT_GENERATED_(AF)
  6
Continuous
 62
     7
100
AcDbLine
 10
239.8808695784
 20
763.109437802
 30
0.0
 11
239.8808695784
 21
761.9600532758
 31
0.0
  0
LINE
  5
B3
330
5E
100
AcDbEntity
  8
$DDT_AUDIT_GENERATED_(AF)
  6
Continuous
 62
     7
100
AcDbLine
 10
239.8808695784
 20
761.9600532758
 30
0.0
 11
238.8808695784
 21
761.3853610127
 31
0.0
  0
LINE
  5
B4
330
5E
100
AcDbEntity
  8
$DDT_AUDIT_GENERATED_(AF)
  6
Continuous
 62
     7
100
AcDbLine
 10
238.8808695784
 20
761.3853610127
 30
0.0
 11
237.8808695784
 21
761.9600532758
 31
0.0
  0
LINE
  5
B5
330
5E
100
AcDbEntity
  8
$DDT_AUDIT_GENERATED_(AF)
  6
Continuous
 62
     7
100
AcDbLine
 10
238.8808695784
 20
761.5770525178
 30
0.0
 11
238.8808695784
 21
761.3853610127
 31
0.0
  0
LINE
  5
B6
330
5E
100
AcDbEntity
  8
$DDT_AUDIT_GENERATED_(AF)
  6
Continuous
 62
     7
100
AcDbLine
 10
237.8808695784
 20
761.9600532758
 30
0.0
 11
237.8808695784
 21
763.109437802
 31
0.0
  0
LINE
  5
B7
330
5E
100
AcDbEntity
  8
$DDT_AUDIT_GENERATED_(AF)
  6
Continuous
 62
     7
100
AcDbLine
 10
237.8808695784
 20
763.109437802
 30
0.0
 11
238.8808695784
 21
763.684130065
 31
0.0
  0
ARC
  5
B8
330
5E
100
AcDbEntity
  8
$DDT_AUDIT_GENERATED_(AF)
  6
Continuous
 62
     7
100
AcDbCircle
 10
250.5411125741
 20
742.4448871772
 30
0.0
 40
22.40537920541576
100
AcDbArc
 50
118.4107633349
 51
121.3605349459
  0
ARC
  5
B9
330
5E
100
AcDbEntity
  8
$DDT_AUDIT_GENERATED_(AF)
  6
Continuous
 62
     7
100
AcDbCircle
 10
227.2199973463
 20
742.4437922672
 30
0.0
 40
22.40664162767513
100
AcDbArc
 50
58.6395481696
 51
61.5891535496
  0
ELLIPSE
  5
BA
330
5E
100
AcDbEntity
  8
$DDT_AUDIT_GENERATED_(AF)
  6
Continuous
 62
     7
100
AcDbEllipse
 10
38.8808695784
 20
762.5347455389
 30
0.0
 11
-1.570499999999975
 21
1.998401444325282E-12
 31
0.0
210
0.0
220
0.0
230
1.0
 40
0.9953961984
 41
0.0
 42
6.283185307179586
  0
LINE
  5
BB
330
5E
100
AcDbEntity
  8
$DDT_AUDIT_GENERATED_(AF)
  6
Continuous
 62
     7
100
AcDbLine
 10
38.8808695784
 20
763.684130065
 30
0.0
 11
39.8808695784
 21
763.109437802
 31
0.0
  0
LINE
  5
BC
330
5E
100
AcDbEntity
  8
$DDT_AUDIT_GENERATED_(AF)
  6
Continuous
 62
     7
100
AcDbLine
 10
39.8808695784
 20
763.109437802
 30
0.0
 11
39.8808695784
 21
761.9600532758
 31
0.0
  0
LINE
  5
BD
330
5E
100
AcDbEntity
  8
$DDT_AUDIT_GENERATED_(AF)
  6
Continuous
 62
     7
100
AcDbLine
 10
39.8808695784
 20
761.9600532758
 30
0.0
 11
38.8808695784
 21
761.3853610127
 31
0.0
  0
LINE
  5
BE
330
5E
100
AcDbEntity
  8
$DDT_AUDIT_GENERATED_(AF)
  6
Continuous
 62
     7
100
AcDbLine
 10
38.8808695784
 20
761.3853610127
 30
0.0
 11
37.8808695784
 21
761.9600532758
 31
0.0
  0
LINE
  5
BF
330
5E
100
AcDbEntity
  8
$DDT_AUDIT_GENERATED_(AF)
  6
Continuous
 62
     7
100
AcDbLine
 10
38.8808695784
 20
761.5770525178
 30
0.0
 11
38.8808695784
 21
761.3853610127
 31
0.0
  0
LINE
  5
C0
330
5E
100
AcDbEntity
  8
$DDT_AUDIT_GENERATED_(AF)
  6
Continuous
 62
     7
100
AcDbLine
 10
37.8808695784
 20
761.9600532758
 30
0.0
 11
37.8808695784
 21
763.109437802
 31
0.0
  0
LINE
  5
C1
330
5E
100
AcDbEntity
  8
$DDT_AUDIT_GENERATED_(AF)
  6
Continuous
 62
     7
100
AcDbLine
 10
37.8808695784
 20
763.109437802
 30
0.0
 11
38.8808695784
 21
763.684130065
 31
0.0
  0
ARC
  5
C2
330
5E
100
AcDbEntity
  8
$DDT_AUDIT_GENERATED_(AF)
  6
Continuous
 62
     7
100
AcDbCircle
 10
50.5411125741
 20
742.4448871772
 30
0.0
 40
22.40537920543482
100
AcDbArc
 50
118.4107633349
 51
121.3605349459
  0
ARC
  5
C3
330
5E
100
AcDbEntity
  8
$DDT_AUDIT_GENERATED_(AF)
  6
Continuous
 62
     7
100
AcDbCircle
 10
27.2199973463
 20
742.4437922672
 30
0.0
 40
22.40664162762229
100
AcDbArc
 50
58.6395481696
 51
61.5891535496
  0
LINE
  5
C5
330
5E
100
AcDbEntity
  8
$DDT_AUDIT_GENERATED_(C4)
  6
Continuous
 62
     7
100
AcDbLine
 10
24.5308695784
 20
745.0797850153
 30
0.0
 11
53.2308695784
 21
745.0797850153
 31
0.0
  0
LINE
  5
C6
330
5E
100
AcDbEntity
  8
$DDT_AUDIT_GENERATED_(C4)
  6
Continuous
 62
     7
100
AcDbLine
 10
53.7308695784
 20
741.3797850153
 30
0.0
 11
53.7308695784
 21
744.5797850153
 31
0.0
  0
LINE
  5
C7
330
5E
100
AcDbEntity
  8
$DDT_AUDIT_GENERATED_(C4)
  6
Continuous
 62
     7
100
AcDbLine
 10
24.0308695784
 20
744.5797850153
 30
0.0
 11
24.0308695784
 21
741.3797850153
 31
0.0
  0
ARC
  5
C8
330
5E
100
AcDbEntity
  8
$DDT_AUDIT_GENERATED_(C4)
  6
Continuous
 62
     7
100
AcDbCircle
 10
53.2308695784
 20
744.5797850153
 30
0.0
 40
0.5000000000000004
100
AcDbArc
 50
0.0
 51
90.0
  0
ARC
  5
C9
330
5E
100
AcDbEntity
  8
$DDT_AUDIT_GENERATED_(C4)
  6
Continuous
 62
     7
100
AcDbCircle
 10
24.5308695784
 20
744.5797850153
 30
0.0
 40
0.5000000000000004
100
AcDbArc
 50
90.0
 51
180.0
  0
LINE
  5
CB
330
5E
100
AcDbEntity
  8
$DDT_AUDIT_GENERATED_(CA)
  6
Continuous
 62
     7
100
AcDbLine
 10
25.3808695784
 20
764.5797850153
 30
0.0
 11
9.4001074648
 21
764.5797850153
 31
0.0
  0
LINE
  5
CC
330
5E
100
AcDbEntity
  8
$DDT_AUDIT_GENERATED_(CA)
  6
Continuous
 62
     7
100
AcDbLine
 10
9.4001074648
 20
764.5797850153
 30
0.0
 11
9.1501074648
 21
764.5797850153
 31
0.0
  0
LINE
  5
CD
330
5E
100
AcDbEntity
  8
$DDT_AUDIT_GENERATED_(CA)
  6
Continuous
 62
     7
100
AcDbLine
 10
31.8808695784
 20
764.5797850153
 30
0.0
 11
31.2620770231
 21
764.5797850153
 31
0.0
  0
LINE
  5
CE
330
5E
100
AcDbEntity
  8
$DDT_AUDIT_GENERATED_(CA)
  6
Continuous
 62
     7
100
AcDbLine
 10
32.3808695784
 20
764.5797850153
 30
0.0
 11
31.8808695784
 21
764.5797850153
 31
0.0
  0
LINE
  5
CF
330
5E
100
AcDbEntity
  8
$DDT_AUDIT_GENERATED_(CA)
  6
Continuous
 62
     7
100
AcDbLine
 10
45.3808695784
 20
764.5797850153
 30
0.0
 11
32.3808695784
 21
764.5797850153
 31
0.0
  0
LINE
  5
D0
330
5E
100
AcDbEntity
  8
$DDT_AUDIT_GENERATED_(CA)
  6
Continuous
 62
     7
100
AcDbLine
 10
45.8808695784
 20
764.5797850153
 30
0.0
 11
45.3808695784
 21
764.5797850153
 31
0.0
  0
LINE
  5
D1
330
5E
100
AcDbEntity
  8
$DDT_AUDIT_GENERATED_(CA)
  6
Continuous
 62
     7
100
AcDbLine
 10
68.6116316919
 20
764.5797850153
 30
0.0
 11
68.3616316919
 21
764.5797850153
 31
0.0
  0
LINE
  5
D2
330
5E
100
AcDbEntity
  8
$DDT_AUDIT_GENERATED_(CA)
  6
Continuous
 62
     7
100
AcDbLine
 10
68.3616316919
 20
764.5797850153
 30
0.0
 11
52.3808695784
 21
764.5797850153
 31
0.0
  0
LINE
  5
D3
330
5E
100
AcDbEntity
  8
$DDT_AUDIT_GENERATED_(CA)
  6
Continuous
 62
     7
100
AcDbLine
 10
52.3808695784
 20
764.5797850153
 30
0.0
 11
49.2581707731
 21
764.5797850153
 31
0.0
  0
LINE
  5
D4
330
5E
100
AcDbEntity
  8
$DDT_AUDIT_GENERATED_(CA)
  6
Continuous
 62
     7
100
AcDbLine
 10
31.3808695784
 20
765.0797850153
 30
0.0
 11
31.3808695784
 21
771.9316349826
 31
0.0
  0
ARC
  5
D5
330
5E
100
AcDbEntity
  8
$DDT_AUDIT_GENERATED_(CA)
  6
Continuous
 62
     7
100
AcDbCircle
 10
31.8808695784
 20
765.0797850153
 30
0.0
 40
0.5000000000000004
100
AcDbArc
 50
180.0
 51
270.0
  0
ARC
  5
D6
330
5E
100
AcDbEntity
  8
$DDT_AUDIT_GENERATED_(CA)
  6
Continuous
 62
     7
100
AcDbCircle
 10
45.8808695784
 20
765.0797850153
 30
0.0
 40
0.5000000000000004
100
AcDbArc
 50
270.0
 51
0.0
  0
SPLINE
  5
D7
330
5E
100
AcDbEntity
  8
$DDT_AUDIT_GENERATED_(CA)
  6
Continuous
 62
     7
100
AcDbSpline
210
0.0
220
0.0
230
1.0
 70
     8
 71
     3
 72
    20
 73
    16
 74
     0
 42
0.0000000015372284
 43
0.0000000001
 40
0.0
 40
0.0
 40
0.0
 40
0.0
 40
0.2500000000000002
 40
0.2500000000000002
 40
0.3750000000000002
 40
0.3750000000000002
 40
0.5000000000000004
 40
0.5000000000000004
 40
0.6250000000000004
 40
0.6250000000000004
 40
0.6875000000000004
 40
0.6875000000000004
 40
0.7500000000000004
 40
0.7500000000000004
 40
1.0
 40
1.0
 40
1.0
 40
1.0
 10
25.37876211874765
 20
772.5513167313868
 30
0.0
 10
26.3715578324564
 20
772.5554496607261
 30
0.0
 10
27.26787135740183
 20
772.55856059914
 30
0.0
 10
28.47187846375418
 20
772.5617391585001
 30
0.0
 10
28.8517101994982
 20
772.5625491669235
 30
0.0
 10
29.54354523842812
 20
772.5636147580221
 30
0.0
 10
29.85741992086405
 20
772.5638780386851
 30
0.0
 10
30.4222665763961
 20
772.5638755206413
 30
0.0
 10
30.67324241559791
 20
772.5636097544534
 30
0.0
 10
31.00095937440647
 20
772.5628010919029
 30
0.0
 10
31.10187282579876
 20
772.5624625239276
 30
0.0
 10
31.28429938796237
 20
772.5616591126205
 30
0.0
 10
31.3662601937365
 20
772.5611933465664
 30
0.0
 10
31.73077146067357
 20
772.5585509270916
 30
0.0
 10
31.87977682153076
 20
772.555449660567
 30
0.0
 10
31.87977682153076
 20
772.5513167313866
 30
0.0
  0
ELLIPSE
  5
D8
330
5E
100
AcDbEntity
  8
$DDT_AUDIT_GENERATED_(CA)
  6
Continuous
 62
     7
100
AcDbEllipse
 10
35.3802915152
 20
-2430.8229700619
 30
0.0
 11
0.0
 21
3203.389900145422
 31
0.0
210
0.0
220
0.0
230
1.0
 40
1.0
 41
0.0031221755570201
 42
0.0081118174103509
  0
ARC
  5
D9
330
5E
100
AcDbEntity
  8
$DDT_AUDIT_GENERATED_(CA)
  6
Continuous
 62
     7
100
AcDbCircle
 10
9.2207350778
 20
775.9474043299
 30
0.0
 40
3.520133711666426
100
AcDbArc
 50
269.5309911409
 51
272.8458331952
  0
ARC
  5
DA
330
5E
100
AcDbEntity
  8
$DDT_AUDIT_GENERATED_(CA)
  6
Continuous
 62
     7
100
AcDbCircle
 10
49.1324696866
 20
415.4572195112
 30
0.0
 40
357.1088910508491
100
AcDbArc
 50
89.4784702118
 51
90.5215297882
  0
ELLIPSE
  5
DB
330
5E
100
AcDbEntity
  8
$DDT_AUDIT_GENERATED_(CA)
  6
Continuous
 62
     7
100
AcDbEllipse
 10
42.3814508237
 20
-2430.8221915602
 30
0.0
 11
0.0
 21
3203.359195881079
 31
0.0
210
0.0
220
0.0
230
1.0
 40
1.0
 41
-0.0081118183883657
 42
-0.0031221753224349
  0
ARC
  5
DC
330
5E
100
AcDbEntity
  8
$DDT_AUDIT_GENERATED_(CA)
  6
Continuous
 62
     7
100
AcDbCircle
 10
68.5408746899
 20
775.9394923183
 30
0.0
 40
3.512225043538703
100
AcDbArc
 50
267.1498667662
 51
270.7952111211
  0
LINE
  5
DD
330
5E
100
AcDbEntity
  8
$DDT_AUDIT_GENERATED_(CA)
  6
Continuous
 62
     7
100
AcDbLine
 10
46.3808695784
 20
771.9316349826
 30
0.0
 11
46.3808695784
 21
765.0797850153
 31
0.0
  0
LINE
  5
DE
330
5E
100
AcDbEntity
  8
$DDT_AUDIT_GENERATED_(CA)
  6
Continuous
 62
     7
100
AcDbLine
 10
46.3808695784
 20
772.0513211748
 30
0.0
 11
46.3808695784
 21
771.9316349826
 31
0.0
  0
LINE
  5
DF
330
5E
100
AcDbEntity
  8
$DDT_AUDIT_GENERATED_(CA)
  6
Continuous
 62
     7
100
AcDbLine
 10
31.3808695784
 20
771.9316349826
 30
0.0
 11
31.3808695784
 21
772.0513211748
 31
0.0
  0
ELLIPSE
  5
E0
330
5E
100
AcDbEntity
  8
$DDT_AUDIT_GENERATED_(CA)
  6
Continuous
 62
     7
100
AcDbEllipse
 10
31.8808695784
 20
771.9316349826
 30
0.0
 11
0.500000000000167
 21
-1.836863994242321E-10
 31
0.0
210
0.0
220
0.0
230
1.0
 40
0.9999561333
 41
2.319352042378394
 42
3.141592653958091
  0
ELLIPSE
  5
E1
330
5E
100
AcDbEntity
  8
$DDT_AUDIT_GENERATED_(CA)
  6
Continuous
 62
     7
100
AcDbEllipse
 10
45.8808695784
 20
771.9316349826
 30
0.0
 11
-0.5000000000001392
 21
4.592992652874273E-10
 31
0.0
210
0.0
220
0.0
230
1.0
 40
0.9999561333
 41
3.141592653589793
 42
4.231900992962389
  0
LINE
  5
E2
330
5E
100
AcDbEntity
  8
$DDT_AUDIT_GENERATED_(CA)
  6
Continuous
 62
     7
100
AcDbLine
 10
46.4996621337
 20
764.5797850153
 30
0.0
 11
45.8808695784
 21
764.5797850153
 31
0.0
  0
ARC
  5
E3
330
5E
100
AcDbEntity
  8
$DDT_AUDIT_GENERATED_(CA)
  6
Continuous
 62
     7
100
AcDbCircle
 10
46.3688826515
 20
769.9571019688
 30
0.0
 40
5.378907035025769
100
AcDbArc
 50
271.3931921063
 51
273.6839790397
  0
LINE
  5
E4
330
5E
100
AcDbEntity
  8
$DDT_AUDIT_GENERATED_(CA)
  6
Continuous
 62
     7
100
AcDbLine
 10
28.5035683837
 20
764.5797850153
 30
0.0
 11
25.3808695784
 21
764.5797850153
 31
0.0
  0
ARC
  5
E5
330
5E
100
AcDbEntity
  8
$DDT_AUDIT_GENERATED_(CA)
  6
Continuous
 62
     7
100
AcDbCircle
 10
28.351554754
 20
769.5826595179
 30
0.0
 40
5.005183456436612
100
AcDbArc
 50
271.7404115222
 51
274.3138500439
  0
ARC
  5
E6
330
5E
100
AcDbEntity
  8
$DDT_AUDIT_GENERATED_(CA)
  6
Continuous
 62
     7
100
AcDbCircle
 10
49.4103457067
 20
769.5842543005
 30
0.0
 40
5.006782403665359
100
AcDbArc
 50
266.4188328112
 51
268.258297704
  0
ARC
  5
E7
330
5E
100
AcDbEntity
  8
$DDT_AUDIT_GENERATED_(CA)
  6
Continuous
 62
     7
100
AcDbCircle
 10
38.8808695784
 20
760.6703077243
 30
0.0
 40
3.68190853772669
100
AcDbArc
 50
67.8208687736
 51
112.1791312264
  0
SPLINE
  5
E8
330
5E
100
AcDbEntity
  8
$DDT_AUDIT_GENERATED_(CA)
  6
Continuous
 62
     7
100
AcDbSpline
210
0.0
220
0.0
230
1.0
 70
     8
 71
     3
 72
    21
 73
    17
 74
     0
 42
0.0000000012142371
 43
0.0000000001
 40
0.0
 40
0.0
 40
0.0
 40
0.0
 40
0.0445631929804644
 40
0.0879799226578264
 40
0.1303232032345005
 40
0.1716717692071393
 40
0.212110198905815
 40
0.251728933005185
 40
0.3148642719185885
 40
0.3780433769119617
 40
0.5018767330373753
 40
0.6257204452338643
 40
0.6887547032301803
 40
0.7521075076353283
 40
0.8665921138601339
 40
1.0
 40
1.0
 40
1.0
 40
1.0
 10
37.79643236530084
 20
763.7907117628777
 30
0.0
 10
37.71167492851499
 20
763.7079083212088
 30
0.0
 10
37.54434058296291
 20
763.5444316960709
 30
0.0
 10
37.3694521322375
 20
763.2408034231837
 30
0.0
 10
37.26028462126057
 20
762.9183330745066
 30
0.0
 10
37.22051680754107
 20
762.5872053218725
 30
0.0
 10
37.24550921018552
 20
762.2623750334519
 30
0.0
 10
37.34575521285763
 20
761.8933671137478
 30
0.0
 10
37.5627054126669
 20
761.503302066175
 30
0.0
 10
38.03990730078244
 20
761.0377152969554
 30
0.0
 10
38.88223261729848
 20
760.7568426944782
 30
0.0
 10
39.72191274669456
 20
761.0375880119287
 30
0.0
 10
40.20198463658092
 20
761.506338903726
 30
0.0
 10
40.51126259127691
 20
762.0655996080305
 30
0.0
 10
40.61284163847312
 20
762.9642445329248
 30
0.0
 10
40.1918637528709
 20
763.5015506386628
 30
0.0
 10
39.96530679144747
 20
763.7907117628777
 30
0.0
  0
ARC
  5
E9
330
5E
100
AcDbEntity
  8
$DDT_AUDIT_GENERATED_(CA)
  6
Continuous
 62
     7
100
AcDbCircle
 10
38.8808695784
 20
762.4670191881
 30
0.0
 40
1.71118850557393
100
AcDbArc
 50
50.6738978897
 51
129.3261021103
  0
SPLINE
  5
EA
330
5E
100
AcDbEntity
  8
$DDT_AUDIT_GENERATED_(CA)
  6
Continuous
 62
     7
100
AcDbSpline
210
0.0
220
0.0
230
1.0
 70
     8
 71
     3
 72
    21
 73
    17
 74
     0
 42
0.0000000009735458
 43
0.0000000001
 40
0.0
 40
0.0
 40
0.0
 40
0.0
 40
0.041576674725851
 40
0.0826849906264355
 40
0.1253312516637554
 40
0.1879796551940383
 40
0.2494201079095587
 40
0.3737335486429141
 40
0.5000340367339132
 40
0.5001478158918434
 40
0.6264534814739351
 40
0.7507038898554199
 40
0.8121035746916986
 40
0.8746742317153272
 40
0.9378431777079845
 40
1.0
 40
1.0
 40
1.0
 40
1.0
 10
40.27080305962752
 20
764.0797850152688
 30
0.0
 10
40.37311974441235
 20
763.9870440246376
 30
0.0
 10
40.57660052247228
 20
763.8026067652463
 30
0.0
 10
40.79672492756986
 20
763.4444333839223
 30
0.0
 10
40.96223786096206
 20
762.9853489872407
 30
0.0
 10
41.02541023376513
 20
762.4241583297662
 30
0.0
 10
40.84260583589153
 20
761.6044831679544
 30
0.0
 10
40.14976978073243
 20
760.7574833995005
 30
0.0
 10
39.30185493009786
 20
760.4856930418791
 30
0.0
 10
38.46100271320194
 20
760.4846877074204
 30
0.0
 10
37.6125417057079
 20
760.7557587750416
 30
0.0
 10
36.9201309334137
 20
761.6020131170013
 30
0.0
 10
36.73704404312783
 20
762.4221860444414
 30
0.0
 10
36.80816750667321
 20
763.0483773970246
 30
0.0
 10
37.04112404059553
 20
763.64377431567
 30
0.0
 10
37.34180818089003
 20
763.9352327158313
 30
0.0
 10
37.49093609712079
 20
764.0797850152688
 30
0.0
  0
LINE
  5
EB
330
5E
100
AcDbEntity
  8
$DDT_AUDIT_GENERATED_(CA)
  6
Continuous
 62
     7
100
AcDbLine
 10
37.4909360971
 20
764.0797850153
 30
0.0
 11
37.7964323653
 21
763.7907117629
 31
0.0
  0
LINE
  5
EC
330
5E
100
AcDbEntity
  8
$DDT_AUDIT_GENERATED_(CA)
  6
Continuous
 62
     7
100
AcDbLine
 10
39.9653067914
 20
763.7907117629
 30
0.0
 11
40.2708030596
 21
764.0797850153
 31
0.0
  0
LINE
  5
ED
330
5E
100
AcDbEntity
  8
$DDT_AUDIT_GENERATED_(CA)
  6
Continuous
 62
     7
100
AcDbLine
 10
28.6308695784
 20
764.0797850153
 30
0.0
 11
28.6308695784
 21
745.0797850153
 31
0.0
  0
LINE
  5
EE
330
5E
100
AcDbEntity
  8
$DDT_AUDIT_GENERATED_(CA)
  6
Continuous
 62
     7
100
AcDbLine
 10
49.1308695784
 20
745.0797850153
 30
0.0
 11
49.1308695784
 21
764.0797850153
 31
0.0
  0
ARC
  5
EF
330
5E
100
AcDbEntity
  8
$DDT_AUDIT_GENERATED_(CA)
  6
Continuous
 62
     7
100
AcDbCircle
 10
38.8808695784
 20
-2430.828548318
 30
0.0
 40
3203.408333333316
100
AcDbArc
 50
89.7495577819
 51
90.2504422181
  0
LINE
  5
F0
330
5E
100
AcDbEntity
  8
$DDT_AUDIT_GENERATED_(CA)
  6
Continuous
 62
     7
100
AcDbLine
 10
8.6501074648
 20
771.928111279
 30
0.0
 11
8.6501074648
 21
765.0797850153
 31
0.0
  0
LINE
  5
F1
330
5E
100
AcDbEntity
  8
$DDT_AUDIT_GENERATED_(CA)
  6
Continuous
 62
     7
100
AcDbLine
 10
69.1116316919
 20
765.0797850153
 30
0.0
 11
69.1116316919
 21
771.9281507766
 31
0.0
  0
ARC
  5
F2
330
5E
100
AcDbEntity
  8
$DDT_AUDIT_GENERATED_(CA)
  6
Continuous
 62
     7
100
AcDbCircle
 10
9.1501074648
 20
765.0797850153
 30
0.0
 40
0.5000000000000004
100
AcDbArc
 50
180.0
 51
270.0
  0
ARC
  5
F3
330
5E
100
AcDbEntity
  8
$DDT_AUDIT_GENERATED_(CA)
  6
Continuous
 62
     7
100
AcDbCircle
 10
68.6116316919
 20
765.0797850153
 30
0.0
 40
0.5000000000000004
100
AcDbArc
 50
270.0
 51
0.0
  0
ARC
  5
F4
330
5E
100
AcDbEntity
  8
$DDT_AUDIT_GENERATED_(CA)
  6
Continuous
 62
     7
100
AcDbCircle
 10
9.1511842754
 20
771.9320081377
 30
0.0
 40
0.4990541522125774
100
AcDbArc
 50
84.9310937406
 51
180.3880493727
  0
SPLINE
  5
F5
330
5E
100
AcDbEntity
  8
$DDT_AUDIT_GENERATED_(CA)
  6
Continuous
 62
     7
100
AcDbSpline
210
0.0
220
0.0
230
1.0
 70
     8
 71
     3
 72
    20
 73
    16
 74
     0
 42
0.0000000122153439
 43
0.0000000001
 40
0.0
 40
0.0
 40
0.0
 40
0.0
 40
0.0479363448540579
 40
0.2430620461274184
 40
0.3985207831565883
 40
0.5292330849649644
 40
0.6390314079770629
 40
0.7278366284764203
 40
0.7940759466790144
 40
0.8291924410977118
 40
0.8464929896660919
 40
0.8603970705147774
 40
0.8815597878165969
 40
0.9312496906703762
 40
1.0
 40
1.0
 40
1.0
 40
1.0
 10
69.10564995170171
 20
771.9273678889251
 30
0.0
 10
69.10773459169694
 20
771.943068757721
 30
0.0
 10
69.11643328106598
 20
772.0116696553833
 30
0.0
 10
69.0745839314306
 20
772.1339917183764
 30
0.0
 10
68.99734589268475
 20
772.2553620277911
 30
0.0
 10
68.90755782975027
 20
772.3359636141386
 30
0.0
 10
68.82114309108
 20
772.385058000557
 30
0.0
 10
68.74559673925923
 20
772.4114889886408
 30
0.0
 10
68.68986990271291
 20
772.422692585614
 30
0.0
 10
68.65434209461768
 20
772.4264340976108
 30
0.0
 10
68.63859614854826
 20
772.4274286352995
 30
0.0
 10
68.63040749622756
 20
772.4278164464506
 30
0.0
 10
68.6215685695161
 20
772.4281298685165
 30
0.0
 10
68.61287212085382
 20
772.4283772987905
 30
0.0
 10
68.5970068422149
 20
772.4286182041153
 30
0.0
 10
68.58653474710714
 20
772.4287644572328
 30
0.0
  0
ARC
  5
F6
330
5E
100
AcDbEntity
  8
$DDT_AUDIT_GENERATED_(CA)
  6
Continuous
 62
     7
100
AcDbCircle
 10
49.6308695784
 20
764.0797850153
 30
0.0
 40
0.5000000000000004
100
AcDbArc
 50
90.0
 51
180.0
  0
ARC
  5
F7
330
5E
100
AcDbEntity
  8
$DDT_AUDIT_GENERATED_(CA)
  6
Continuous
 62
     7
100
AcDbCircle
 10
28.1308695784
 20
764.0797850153
 30
0.0
 40
0.5000000000000004
100
AcDbArc
 50
0.0
 51
90.0
  0
LINE
  5
F8
330
5E
100
AcDbEntity
  8
$DDT_AUDIT_GENERATED_(C4)
  6
Continuous
 62
     7
100
AcDbLine
 10
224.5308695784
 20
745.0797850153
 30
0.0
 11
253.2308695784
 21
745.0797850153
 31
0.0
  0
LINE
  5
F9
330
5E
100
AcDbEntity
  8
$DDT_AUDIT_GENERATED_(C4)
  6
Continuous
 62
     7
100
AcDbLine
 10
253.7308695784
 20
741.3797850153
 30
0.0
 11
253.7308695784
 21
744.5797850153
 31
0.0
  0
LINE
  5
FA
330
5E
100
AcDbEntity
  8
$DDT_AUDIT_GENERATED_(C4)
  6
Continuous
 62
     7
100
AcDbLine
 10
224.0308695784
 20
744.5797850153
 30
0.0
 11
224.0308695784
 21
741.3797850153
 31
0.0
  0
ARC
  5
FB
330
5E
100
AcDbEntity
  8
$DDT_AUDIT_GENERATED_(C4)
  6
Continuous
 62
     7
100
AcDbCircle
 10
253.2308695784
 20
744.5797850153
 30
0.0
 40
0.5000000000000004
100
AcDbArc
 50
0.0
 51
90.0
  0
ARC
  5
FC
330
5E
100
AcDbEntity
  8
$DDT_AUDIT_GENERATED_(C4)
  6
Continuous
 62
     7
100
AcDbCircle
 10
224.5308695784
 20
744.5797850153
 30
0.0
 40
0.5000000000000004
100
AcDbArc
 50
90.0
 51
180.0
  0
LINE
  5
FD
330
5E
100
AcDbEntity
  8
$DDT_AUDIT_GENERATED_(CA)
  6
Continuous
 62
     7
100
AcDbLine
 10
225.3808695784
 20
764.5797850153
 30
0.0
 11
209.4001074648
 21
764.5797850153
 31
0.0
  0
LINE
  5
FE
330
5E
100
AcDbEntity
  8
$DDT_AUDIT_GENERATED_(CA)
  6
Continuous
 62
     7
100
AcDbLine
 10
209.4001074648
 20
764.5797850153
 30
0.0
 11
209.1501074648
 21
764.5797850153
 31
0.0
  0
LINE
  5
FF
330
5E
100
AcDbEntity
  8
$DDT_AUDIT_GENERATED_(CA)
  6
Continuous
 62
     7
100
AcDbLine
 10
231.8808695784
 20
764.5797850153
 30
0.0
 11
231.2620770231
 21
764.5797850153
 31
0.0
  0
LINE
  5
100
330
5E
100
AcDbEntity
  8
$DDT_AUDIT_GENERATED_(CA)
  6
Continuous
 62
     7
100
AcDbLine
 10
232.3808695784
 20
764.5797850153
 30
0.0
 11
231.8808695784
 21
764.5797850153
 31
0.0
  0
LINE
  5
101
330
5E
100
AcDbEntity
  8
$DDT_AUDIT_GENERATED_(CA)
  6
Continuous
 62
     7
100
AcDbLine
 10
245.3808695784
 20
764.5797850153
 30
0.0
 11
232.3808695784
 21
764.5797850153
 31
0.0
  0
LINE
  5
102
330
5E
100
AcDbEntity
  8
$DDT_AUDIT_GENERATED_(CA)
  6
Continuous
 62
     7
100
AcDbLine
 10
245.8808695784
 20
764.5797850153
 30
0.0
 11
245.3808695784
 21
764.5797850153
 31
0.0
  0
LINE
  5
103
330
5E
100
AcDbEntity
  8
$DDT_AUDIT_GENERATED_(CA)
  6
Continuous
 62
     7
100
AcDbLine
 10
268.6116316919
 20
764.5797850153
 30
0.0
 11
268.3616316919
 21
764.5797850153
 31
0.0
  0
LINE
  5
104
330
5E
100
AcDbEntity
  8
$DDT_AUDIT_GENERATED_(CA)
  6
Continuous
 62
     7
100
AcDbLine
 10
268.3616316919
 20
764.5797850153
 30
0.0
 11
252.3808695784
 21
764.5797850153
 31
0.0
  0
LINE
  5
105
330
5E
100
AcDbEntity
  8
$DDT_AUDIT_GENERATED_(CA)
  6
Continuous
 62
     7
100
AcDbLine
 10
252.3808695784
 20
764.5797850153
 30
0.0
 11
249.2581707731
 21
764.5797850153
 31
0.0
  0
LINE
  5
106
330
5E
100
AcDbEntity
  8
$DDT_AUDIT_GENERATED_(CA)
  6
Continuous
 62
     7
100
AcDbLine
 10
231.3808695784
 20
765.0797850153
 30
0.0
 11
231.3808695784
 21
771.9316349826
 31
0.0
  0
ARC
  5
107
330
5E
100
AcDbEntity
  8
$DDT_AUDIT_GENERATED_(CA)
  6
Continuous
 62
     7
100
AcDbCircle
 10
231.8808695784
 20
765.0797850153
 30
0.0
 40
0.4999999999999996
100
AcDbArc
 50
180.0
 51
270.0
  0
ARC
  5
108
330
5E
100
AcDbEntity
  8
$DDT_AUDIT_GENERATED_(CA)
  6
Continuous
 62
     7
100
AcDbCircle
 10
245.8808695784
 20
765.0797850153
 30
0.0
 40
0.4999999999999996
100
AcDbArc
 50
270.0
 51
0.0
  0
SPLINE
  5
109
330
5E
100
AcDbEntity
  8
$DDT_AUDIT_GENERATED_(CA)
  6
Continuous
 62
     7
100
AcDbSpline
210
0.0
220
0.0
230
1.0
 70
     8
 71
     3
 72
    20
 73
    16
 74
     0
 42
0.0000000015372284
 43
0.0000000001
 40
0.0
 40
0.0
 40
0.0
 40
0.0
 40
0.2500000000000002
 40
0.2500000000000002
 40
0.3750000000000002
 40
0.3750000000000002
 40
0.5000000000000004
 40
0.5000000000000004
 40
0.6250000000000004
 40
0.6250000000000004
 40
0.6875000000000004
 40
0.6875000000000004
 40
0.7500000000000004
 40
0.7500000000000004
 40
1.0
 40
1.0
 40
1.0
 40
1.0
 10
225.3787621187476
 20
772.5513167313862
 30
0.0
 10
226.3715578324563
 20
772.5554496607255
 30
0.0
 10
227.2678713574018
 20
772.5585605991395
 30
0.0
 10
228.4718784637541
 20
772.5617391584996
 30
0.0
 10
228.8517101994981
 20
772.562549166923
 30
0.0
 10
229.5435452384281
 20
772.5636147580216
 30
0.0
 10
229.857419920864
 20
772.5638780386845
 30
0.0
 10
230.422266576396
 20
772.5638755206407
 30
0.0
 10
230.6732424155978
 20
772.5636097544528
 30
0.0
 10
231.0009593744064
 20
772.5628010919023
 30
0.0
 10
231.1018728257987
 20
772.5624625239269
 30
0.0
 10
231.2842993879623
 20
772.5616591126201
 30
0.0
 10
231.3662601937365
 20
772.561193346566
 30
0.0
 10
231.7307714606735
 20
772.5585509270913
 30
0.0
 10
231.8797768215307
 20
772.5554496605664
 30
0.0
 10
231.8797768215307
 20
772.551316731386
 30
0.0
  0
ELLIPSE
  5
10A
330
5E
100
AcDbEntity
  8
$DDT_AUDIT_GENERATED_(CA)
  6
Continuous
 62
     7
100
AcDbEllipse
 10
235.3802915169
 20
-2430.8229703191
 30
0.0
 11
0.0
 21
3203.389900275991
 31
0.0
210
0.0
220
0.0
230
1.0
 40
1.0
 41
0.0031221755572852
 42
0.0081118174102686
  0
ARC
  5
10B
330
5E
100
AcDbEntity
  8
$DDT_AUDIT_GENERATED_(CA)
  6
Continuous
 62
     7
100
AcDbCircle
 10
209.2207350778
 20
775.9474043299
 30
0.0
 40
3.520133711682736
100
AcDbArc
 50
269.5309911409
 51
272.8458331952
  0
ARC
  5
10C
330
5E
100
AcDbEntity
  8
$DDT_AUDIT_GENERATED_(CA)
  6
Continuous
 62
     7
100
AcDbCircle
 10
249.1324696866
 20
415.4572195153
 30
0.0
 40
357.1088910467078
100
AcDbArc
 50
89.4784702118
 51
90.5215297882
  0
ELLIPSE
  5
10D
330
5E
100
AcDbEntity
  8
$DDT_AUDIT_GENERATED_(CA)
  6
Continuous
 62
     7
100
AcDbEllipse
 10
242.3814508164
 20
-2430.8221933601
 30
0.0
 11
0.0
 21
3203.35919770592
 31
0.0
210
0.0
220
0.0
230
1.0
 40
1.0
 41
-0.0081118183861766
 42
-0.0031221753230164
  0
ARC
  5
10E
330
5E
100
AcDbEntity
  8
$DDT_AUDIT_GENERATED_(CA)
  6
Continuous
 62
     7
100
AcDbCircle
 10
268.5408746899
 20
775.9394923183
 30
0.0
 40
3.512225043538647
100
AcDbArc
 50
267.1498667662
 51
270.7952111211
  0
LINE
  5
10F
330
5E
100
AcDbEntity
  8
$DDT_AUDIT_GENERATED_(CA)
  6
Continuous
 62
     7
100
AcDbLine
 10
246.3808695784
 20
771.9316349826
 30
0.0
 11
246.3808695784
 21
765.0797850153
 31
0.0
  0
LINE
  5
110
330
5E
100
AcDbEntity
  8
$DDT_AUDIT_GENERATED_(CA)
  6
Continuous
 62
     7
100
AcDbLine
 10
246.3808695784
 20
772.0513211748
 30
0.0
 11
246.3808695784
 21
771.9316349826
 31
0.0
  0
LINE
  5
111
330
5E
100
AcDbEntity
  8
$DDT_AUDIT_GENERATED_(CA)
  6
Continuous
 62
     7
100
AcDbLine
 10
231.3808695784
 20
771.9316349826
 30
0.0
 11
231.3808695784
 21
772.0513211748
 31
0.0
  0
ELLIPSE
  5
112
330
5E
100
AcDbEntity
  8
$DDT_AUDIT_GENERATED_(CA)
  6
Continuous
 62
     7
100
AcDbEllipse
 10
231.8808695784
 20
771.9316349826
 30
0.0
 11
0.5000000000001609
 21
-2.586819647376615E-11
 31
0.0
210
0.0
220
0.0
230
1.0
 40
0.9999561333
 41
2.319352042062656
 42
3.141592653589793
  0
ELLIPSE
  5
113
330
5E
100
AcDbEntity
  8
$DDT_AUDIT_GENERATED_(CA)
  6
Continuous
 62
     7
100
AcDbEllipse
 10
245.8808695784
 20
771.9316349826
 30
0.0
 11
-0.4999999999995789
 21
-3.677613769070831E-11
 31
0.0
210
0.0
220
0.0
230
1.0
 40
0.9999561333
 41
3.141592653589793
 42
4.231900991969601
  0
LINE
  5
114
330
5E
100
AcDbEntity
  8
$DDT_AUDIT_GENERATED_(CA)
  6
Continuous
 62
     7
100
AcDbLine
 10
246.4996621337
 20
764.5797850153
 30
0.0
 11
245.8808695784
 21
764.5797850153
 31
0.0
  0
ARC
  5
115
330
5E
100
AcDbEntity
  8
$DDT_AUDIT_GENERATED_(CA)
  6
Continuous
 62
     7
100
AcDbCircle
 10
246.3688826515
 20
769.9571019688
 30
0.0
 40
5.3789070350301
100
AcDbArc
 50
271.3931921063
 51
273.6839790397
  0
LINE
  5
116
330
5E
100
AcDbEntity
  8
$DDT_AUDIT_GENERATED_(CA)
  6
Continuous
 62
     7
100
AcDbLine
 10
228.5035683837
 20
764.5797850153
 30
0.0
 11
225.3808695784
 21
764.5797850153
 31
0.0
  0
ARC
  5
117
330
5E
100
AcDbEntity
  8
$DDT_AUDIT_GENERATED_(CA)
  6
Continuous
 62
     7
100
AcDbCircle
 10
228.351554754
 20
769.5826595179
 30
0.0
 40
5.005183456436745
100
AcDbArc
 50
271.7404115222
 51
274.3138500439
  0
ARC
  5
118
330
5E
100
AcDbEntity
  8
$DDT_AUDIT_GENERATED_(CA)
  6
Continuous
 62
     7
100
AcDbCircle
 10
249.4103457067
 20
769.5842543005
 30
0.0
 40
5.006782403662227
100
AcDbArc
 50
266.4188328112
 51
268.258297704
  0
ARC
  5
119
330
5E
100
AcDbEntity
  8
$DDT_AUDIT_GENERATED_(CA)
  6
Continuous
 62
     7
100
AcDbCircle
 10
238.8808695784
 20
760.6703077243
 30
0.0
 40
3.681908537726451
100
AcDbArc
 50
67.8208687736
 51
112.1791312264
  0
SPLINE
  5
11A
330
5E
100
AcDbEntity
  8
$DDT_AUDIT_GENERATED_(CA)
  6
Continuous
 62
     7
100
AcDbSpline
210
0.0
220
0.0
230
1.0
 70
     8
 71
     3
 72
    21
 73
    17
 74
     0
 42
0.0000000012142371
 43
0.0000000001
 40
0.0
 40
0.0
 40
0.0
 40
0.0
 40
0.0445631929804644
 40
0.0879799226578264
 40
0.1303232032345005
 40
0.1716717692071393
 40
0.212110198905815
 40
0.251728933005185
 40
0.3148642719185885
 40
0.3780433769119617
 40
0.5018767330373753
 40
0.6257204452338643
 40
0.6887547032301803
 40
0.7521075076353283
 40
0.8665921138601339
 40
1.0
 40
1.0
 40
1.0
 40
1.0
 10
237.7964323653008
 20
763.7907117628772
 30
0.0
 10
237.711674928515
 20
763.7079083212084
 30
0.0
 10
237.5443405829629
 20
763.5444316960703
 30
0.0
 10
237.3694521322375
 20
763.2408034231831
 30
0.0
 10
237.2602846212606
 20
762.918333074506
 30
0.0
 10
237.220516807541
 20
762.5872053218719
 30
0.0
 10
237.2455092101855
 20
762.2623750334513
 30
0.0
 10
237.3457552128576
 20
761.8933671137472
 30
0.0
 10
237.5627054126669
 20
761.5033020661746
 30
0.0
 10
238.0399073007824
 20
761.0377152969548
 30
0.0
 10
238.8822326172985
 20
760.7568426944777
 30
0.0
 10
239.7219127466945
 20
761.0375880119283
 30
0.0
 10
240.2019846365809
 20
761.5063389037255
 30
0.0
 10
240.5112625912769
 20
762.0655996080301
 30
0.0
 10
240.6128416384731
 20
762.9642445329242
 30
0.0
 10
240.1918637528709
 20
763.5015506386625
 30
0.0
 10
239.9653067914474
 20
763.7907117628772
 30
0.0
  0
ARC
  5
11B
330
5E
100
AcDbEntity
  8
$DDT_AUDIT_GENERATED_(CA)
  6
Continuous
 62
     7
100
AcDbCircle
 10
238.8808695784
 20
762.4670191881
 30
0.0
 40
1.711188505573907
100
AcDbArc
 50
50.6738978897
 51
129.3261021103
  0
SPLINE
  5
11C
330
5E
100
AcDbEntity
  8
$DDT_AUDIT_GENERATED_(CA)
  6
Continuous
 62
     7
100
AcDbSpline
210
0.0
220
0.0
230
1.0
 70
     8
 71
     3
 72
    21
 73
    17
 74
     0
 42
0.0000000009735458
 43
0.0000000001
 40
0.0
 40
0.0
 40
0.0
 40
0.0
 40
0.041576674725851
 40
0.0826849906264355
 40
0.1253312516637554
 40
0.1879796551940383
 40
0.2494201079095587
 40
0.3737335486429141
 40
0.5000340367339132
 40
0.5001478158918434
 40
0.6264534814739351
 40
0.7507038898554199
 40
0.8121035746916986
 40
0.8746742317153272
 40
0.9378431777079845
 40
1.0
 40
1.0
 40
1.0
 40
1.0
 10
240.2708030596275
 20
764.0797850152683
 30
0.0
 10
240.3731197444123
 20
763.987044024637
 30
0.0
 10
240.5766005224723
 20
763.8026067652459
 30
0.0
 10
240.7967249275698
 20
763.4444333839217
 30
0.0
 10
240.962237860962
 20
762.9853489872403
 30
0.0
 10
241.0254102337651
 20
762.4241583297656
 30
0.0
 10
240.8426058358915
 20
761.6044831679538
 30
0.0
 10
240.1497697807324
 20
760.7574833995
 30
0.0
 10
239.3018549300978
 20
760.4856930418786
 30
0.0
 10
238.4610027132019
 20
760.4846877074199
 30
0.0
 10
237.6125417057079
 20
760.755758775041
 30
0.0
 10
236.9201309334136
 20
761.6020131170008
 30
0.0
 10
236.7370440431278
 20
762.4221860444409
 30
0.0
 10
236.8081675066732
 20
763.0483773970243
 30
0.0
 10
237.0411240405955
 20
763.6437743156697
 30
0.0
 10
237.34180818089
 20
763.9352327158307
 30
0.0
 10
237.4909360971207
 20
764.0797850152683
 30
0.0
  0
LINE
  5
11D
330
5E
100
AcDbEntity
  8
$DDT_AUDIT_GENERATED_(CA)
  6
Continuous
 62
     7
100
AcDbLine
 10
237.4909360971
 20
764.0797850153
 30
0.0
 11
237.7964323653
 21
763.7907117629
 31
0.0
  0
LINE
  5
11E
330
5E
100
AcDbEntity
  8
$DDT_AUDIT_GENERATED_(CA)
  6
Continuous
 62
     7
100
AcDbLine
 10
239.9653067914
 20
763.7907117629
 30
0.0
 11
240.2708030596
 21
764.0797850153
 31
0.0
  0
LINE
  5
11F
330
5E
100
AcDbEntity
  8
$DDT_AUDIT_GENERATED_(CA)
  6
Continuous
 62
     7
100
AcDbLine
 10
228.6308695784
 20
764.0797850153
 30
0.0
 11
228.6308695784
 21
745.0797850153
 31
0.0
  0
LINE
  5
120
330
5E
100
AcDbEntity
  8
$DDT_AUDIT_GENERATED_(CA)
  6
Continuous
 62
     7
100
AcDbLine
 10
249.1308695784
 20
745.0797850153
 30
0.0
 11
249.1308695784
 21
764.0797850153
 31
0.0
  0
ARC
  5
121
330
5E
100
AcDbEntity
  8
$DDT_AUDIT_GENERATED_(CA)
  6
Continuous
 62
     7
100
AcDbCircle
 10
238.8808695784
 20
-2430.828548318
 30
0.0
 40
3203.408333333316
100
AcDbArc
 50
89.7495577819
 51
90.2504422181
  0
LINE
  5
122
330
5E
100
AcDbEntity
  8
$DDT_AUDIT_GENERATED_(CA)
  6
Continuous
 62
     7
100
AcDbLine
 10
208.6501074648
 20
771.928111279
 30
0.0
 11
208.6501074648
 21
765.0797850153
 31
0.0
  0
LINE
  5
123
330
5E
100
AcDbEntity
  8
$DDT_AUDIT_GENERATED_(CA)
  6
Continuous
 62
     7
100
AcDbLine
 10
269.1116316919
 20
765.0797850153
 30
0.0
 11
269.1116316919
 21
771.9281507766
 31
0.0
  0
ARC
  5
124
330
5E
100
AcDbEntity
  8
$DDT_AUDIT_GENERATED_(CA)
  6
Continuous
 62
     7
100
AcDbCircle
 10
209.1501074648
 20
765.0797850153
 30
0.0
 40
0.5000000000000004
100
AcDbArc
 50
180.0
 51
270.0
  0
ARC
  5
125
330
5E
100
AcDbEntity
  8
$DDT_AUDIT_GENERATED_(CA)
  6
Continuous
 62
     7
100
AcDbCircle
 10
268.6116316919
 20
765.0797850153
 30
0.0
 40
0.5000000000000004
100
AcDbArc
 50
270.0
 51
0.0
  0
ARC
  5
126
330
5E
100
AcDbEntity
  8
$DDT_AUDIT_GENERATED_(CA)
  6
Continuous
 62
     7
100
AcDbCircle
 10
209.1511842754
 20
771.9320081377
 30
0.0
 40
0.4990541522125475
100
AcDbArc
 50
84.9310937406
 51
180.3880493727
  0
SPLINE
  5
127
330
5E
100
AcDbEntity
  8
$DDT_AUDIT_GENERATED_(CA)
  6
Continuous
 62
     7
100
AcDbSpline
210
0.0
220
0.0
230
1.0
 70
     8
 71
     3
 72
    20
 73
    16
 74
     0
 42
0.0000000122153439
 43
0.0000000001
 40
0.0
 40
0.0
 40
0.0
 40
0.0
 40
0.047936344854057
 40
0.2430620461274146
 40
0.3985207831565944
 40
0.5292330849649934
 40
0.6390314079770663
 40
0.7278366284764196
 40
0.7940759466790097
 40
0.8291924410977216
 40
0.8464929896660869
 40
0.8603970705147723
 40
0.8815597878165947
 40
0.931249690670378
 40
1.0
 40
1.0
 40
1.0
 40
1.0
 10
269.1056499517016
 20
771.9273678889244
 30
0.0
 10
269.1077345916969
 20
771.9430687577204
 30
0.0
 10
269.1164332810658
 20
772.0116696553827
 30
0.0
 10
269.0745839314305
 20
772.133991718376
 30
0.0
 10
268.9973458926849
 20
772.2553620277905
 30
0.0
 10
268.90755782975
 20
772.335963614138
 30
0.0
 10
268.82114309108
 20
772.3850580005566
 30
0.0
 10
268.7455967392591
 20
772.4114889886404
 30
0.0
 10
268.6898699027131
 20
772.4226925856134
 30
0.0
 10
268.6543420946173
 20
772.4264340976101
 30
0.0
 10
268.6385961485483
 20
772.4274286352992
 30
0.0
 10
268.6304074962273
 20
772.4278164464498
 30
0.0
 10
268.621568569516
 20
772.4281298685161
 30
0.0
 10
268.6128721208536
 20
772.4283772987898
 30
0.0
 10
268.5970068422148
 20
772.4286182041146
 30
0.0
 10
268.586534747107
 20
772.4287644572322
 30
0.0
  0
ARC
  5
128
330
5E
100
AcDbEntity
  8
$DDT_AUDIT_GENERATED_(CA)
  6
Continuous
 62
     7
100
AcDbCircle
 10
249.6308695784
 20
764.0797850153
 30
0.0
 40
0.5000000000000022
100
AcDbArc
 50
90.0
 51
180.0
  0
ARC
  5
129
330
5E
100
AcDbEntity
  8
$DDT_AUDIT_GENERATED_(CA)
  6
Continuous
 62
     7
100
AcDbCircle
 10
228.1308695784
 20
764.0797850153
 30
0.0
 40
0.5000000000000004
100
AcDbArc
 50
0.0
 51
90.0
  0
ENDBLK
  5
12B
330
5E
100
AcDbEntity
  8
0
100
AcDbBlockEnd
  0
BLOCK
  5
17E
330
12C
100
AcDbEntity
  8
0
100
AcDbBlockBegin
  2
SE1
 70
     0
 10
0.0
 20
0.0
 30
0.0
  3
SE1
  1

  0
LINE
  5
12E
330
12C
100
AcDbEntity
  8
$DDT_AUDIT_GENERATED_(62)
  6
Continuous
 62
     7
100
AcDbLine
 10
445.8708692758
 20
741.3797850153
 30
0.0
 11
410.8708692758
 21
741.3797850153
 31
0.0
  0
LINE
  5
12F
330
12C
100
AcDbEntity
  8
$DDT_AUDIT_GENERATED_(62)
  6
Continuous
 62
     7
100
AcDbLine
 10
410.3708692758
 20
740.8797850153
 30
0.0
 11
410.3708692758
 21
706.3797850153
 31
0.0
  0
LINE
  5
130
330
12C
100
AcDbEntity
  8
$DDT_AUDIT_GENERATED_(62)
  6
Continuous
 62
     7
100
AcDbLine
 10
446.3708692758
 20
706.3797850153
 30
0.0
 11
446.3708692758
 21
740.8797850153
 31
0.0
  0
ARC
  5
131
330
12C
100
AcDbEntity
  8
$DDT_AUDIT_GENERATED_(62)
  6
Continuous
 62
     7
100
AcDbCircle
 10
410.8708692758
 20
740.8797850153
 30
0.0
 40
0.5000000000000004
100
AcDbArc
 50
90.0
 51
180.0
  0
ARC
  5
132
330
12C
100
AcDbEntity
  8
$DDT_AUDIT_GENERATED_(62)
  6
Continuous
 62
     7
100
AcDbCircle
 10
445.8708692758
 20
740.8797850153
 30
0.0
 40
0.5000000000000004
100
AcDbArc
 50
0.0
 51
90.0
  0
LINE
  5
133
330
12C
100
AcDbEntity
  8
$DDT_AUDIT_GENERATED_(68)
  6
Continuous
 62
     7
100
AcDbLine
 10
454.2708692758
 20
706.4797850153
 30
0.0
 11
446.3708692758
 21
706.4797850153
 31
0.0
  0
LINE
  5
134
330
12C
100
AcDbEntity
  8
$DDT_AUDIT_GENERATED_(68)
  6
Continuous
 62
     7
100
AcDbLine
 10
410.3708692758
 20
706.4797850153
 30
0.0
 11
402.4708692758
 21
706.4797850153
 31
0.0
  0
ARC
  5
135
330
12C
100
AcDbEntity
  8
$DDT_AUDIT_GENERATED_(68)
  6
Continuous
 62
     7
100
AcDbCircle
 10
454.2708692758
 20
706.1797850153
 30
0.0
 40
0.3000000000000017
100
AcDbArc
 50
41.8103148958
 51
90.0
  0
ARC
  5
136
330
12C
100
AcDbEntity
  8
$DDT_AUDIT_GENERATED_(68)
  6
Continuous
 62
     7
100
AcDbCircle
 10
402.4708692758
 20
706.1797850153
 30
0.0
 40
0.3000000000000086
100
AcDbArc
 50
90.0
 51
138.1896851042
  0
LINE
  5
137
330
12C
100
AcDbEntity
  8
$DDT_AUDIT_GENERATED_(77)
  6
Continuous
 62
     7
100
AcDbLine
 10
435.8708692758
 20
772.571005292
 30
0.0
 11
435.8708692758
 21
888.4797850153
 31
0.0
  0
LINE
  5
138
330
12C
100
AcDbEntity
  8
$DDT_AUDIT_GENERATED_(77)
  6
Continuous
 62
     7
100
AcDbLine
 10
420.8708692758
 20
772.571005292
 30
0.0
 11
420.8708692758
 21
888.4797850153
 31
0.0
  0
ARC
  5
139
330
12C
100
AcDbEntity
  8
$DDT_AUDIT_GENERATED_(77)
  6
Continuous
 62
     7
100
AcDbCircle
 10
460.3708692758
 20
888.4797850153
 30
0.0
 40
24.49999999999989
100
AcDbArc
 50
90.0
 51
180.0
  0
ARC
  5
13A
330
12C
100
AcDbEntity
  8
$DDT_AUDIT_GENERATED_(77)
  6
Continuous
 62
     7
100
AcDbCircle
 10
460.3708692758
 20
888.4797850153
 30
0.0
 40
39.4999999999999
100
AcDbArc
 50
90.0
 51
180.0
  0
LINE
  5
13B
330
12C
100
AcDbEntity
  8
$DDT_AUDIT_GENERATED_(77)
  6
Continuous
 62
     7
100
AcDbLine
 10
460.3708692758
 20
912.9797850153
 30
0.0
 11
556.021997926
 21
912.9797850153
 31
0.0
  0
LINE
  5
13C
330
12C
100
AcDbEntity
  8
$DDT_AUDIT_GENERATED_(77)
  6
Continuous
 62
     7
100
AcDbLine
 10
460.3708692758
 20
927.9797850153
 30
0.0
 11
556.021997926
 21
927.9797850153
 31
0.0
  0
ARC
  5
13D
330
12C
100
AcDbEntity
  8
$DDT_AUDIT_GENERATED_(77)
  6
Continuous
 62
     7
100
AcDbCircle
 10
556.021997926
 20
888.4797850153
 30
0.0
 40
24.50000000000008
100
AcDbArc
 50
5.0
 51
90.0
  0
ARC
  5
13E
330
12C
100
AcDbEntity
  8
$DDT_AUDIT_GENERATED_(77)
  6
Continuous
 62
     7
100
AcDbCircle
 10
556.021997926
 20
888.4797850153
 30
0.0
 40
39.50000000000009
100
AcDbArc
 50
5.0
 51
90.0
  0
LINE
  5
13F
330
12C
100
AcDbEntity
  8
$DDT_AUDIT_GENERATED_(77)
  6
Continuous
 62
     7
100
AcDbLine
 10
580.4287680292
 20
890.6151007126
 30
0.0
 11
580.8558311687
 21
885.7337466919
 31
0.0
  0
LINE
  5
140
330
12C
100
AcDbEntity
  8
$DDT_AUDIT_GENERATED_(77)
  6
Continuous
 62
     7
100
AcDbLine
 10
595.3716885006
 20
891.9224368538
 30
0.0
 11
595.7987516401
 21
887.0410828332
 31
0.0
  0
LINE
  5
141
330
12C
100
AcDbEntity
  8
$DDT_AUDIT_GENERATED_(77)
  6
Continuous
 62
     7
100
AcDbLine
 10
595.3442321624
 20
886.4994076127
 30
0.0
 11
581.3975063891
 21
885.2792272143
 31
0.0
  0
ARC
  5
142
330
12C
100
AcDbEntity
  8
$DDT_AUDIT_GENERATED_(77)
  6
Continuous
 62
     7
100
AcDbCircle
 10
595.300654291
 20
886.9975049618
 30
0.0
 40
0.5000000000000051
100
AcDbArc
 50
275.0
 51
5.0
  0
ARC
  5
143
330
12C
100
AcDbEntity
  8
$DDT_AUDIT_GENERATED_(77)
  6
Continuous
 62
     7
100
AcDbCircle
 10
581.3539285178
 20
885.7773245633
 30
0.0
 40
0.5000000000000051
100
AcDbArc
 50
185.0
 51
275.0
  0
LINE
  5
144
330
12C
100
AcDbEntity
  8
$DDT_AUDIT_GENERATED_(6E)
  6
Continuous
 62
     7
100
AcDbLine
 10
454.5708692758
 20
706.3797850153
 30
0.0
 11
402.1708692758
 21
706.3797850153
 31
0.0
  0
LINE
  5
145
330
12C
100
AcDbEntity
  8
$DDT_AUDIT_GENERATED_(6E)
  6
Continuous
 62
     7
100
AcDbLine
 10
402.1708692758
 20
706.3797850153
 30
0.0
 11
402.1708692758
 21
706.0797850153
 31
0.0
  0
LINE
  5
146
330
12C
100
AcDbEntity
  8
$DDT_AUDIT_GENERATED_(6E)
  6
Continuous
 62
     7
100
AcDbLine
 10
454.5708692758
 20
706.0797850153
 30
0.0
 11
454.5708692758
 21
706.3797850153
 31
0.0
  0
ARC
  5
148
330
12C
100
AcDbEntity
  8
$DDT_AUDIT_GENERATED_(147)
  6
Continuous
 62
     7
100
AcDbCircle
 10
406.3708692758
 20
696.6797850153
 30
0.0
 40
1.500000000000001
100
AcDbArc
 50
203.5781784782
 51
270.0
  0
ARC
  5
149
330
12C
100
AcDbEntity
  8
$DDT_AUDIT_GENERATED_(147)
  6
Continuous
 62
     7
100
AcDbCircle
 10
450.3708692758
 20
696.6797850153
 30
0.0
 40
1.499999999999994
100
AcDbArc
 50
270.0
 51
336.4218215218
  0
LINE
  5
14A
330
12C
100
AcDbEntity
  8
$DDT_AUDIT_GENERATED_(147)
  6
Continuous
 62
     7
100
AcDbLine
 10
406.3708692758
 20
695.1797850153
 30
0.0
 11
414.3708692758
 21
695.1797850153
 31
0.0
  0
LINE
  5
14B
330
12C
100
AcDbEntity
  8
$DDT_AUDIT_GENERATED_(147)
  6
Continuous
 62
     7
100
AcDbLine
 10
442.3708692758
 20
695.1797850153
 30
0.0
 11
450.3708692758
 21
695.1797850153
 31
0.0
  0
LINE
  5
14D
330
12C
100
AcDbEntity
  8
$DDT_AUDIT_GENERATED_(14C)
  6
Continuous
 62
     7
100
AcDbLine
 10
402.3708692758
 20
724.4797850153
 30
0.0
 11
402.3708692758
 21
728.4797850153
 31
0.0
  0
LINE
  5
14E
330
12C
100
AcDbEntity
  8
$DDT_AUDIT_GENERATED_(14C)
  6
Continuous
 62
     7
100
AcDbLine
 10
402.3708692758
 20
724.4797850153
 30
0.0
 11
410.3708692758
 21
724.4797850153
 31
0.0
  0
LINE
  5
14F
330
12C
100
AcDbEntity
  8
$DDT_AUDIT_GENERATED_(14C)
  6
Continuous
 62
     7
100
AcDbLine
 10
410.3708692758
 20
728.4797850153
 30
0.0
 11
402.3708692758
 21
728.4797850153
 31
0.0
  0
LINE
  5
150
330
12C
100
AcDbEntity
  8
$DDT_AUDIT_GENERATED_(9A)
  6
Continuous
 62
     7
100
AcDbLine
 10
394.9708692758
 20
696.0797850153
 30
0.0
 11
461.7708692758
 21
696.0797850153
 31
0.0
  0
LINE
  5
151
330
12C
100
AcDbEntity
  8
$DDT_AUDIT_GENERATED_(9A)
  6
Continuous
 62
     7
100
AcDbLine
 10
394.9708692758
 20
696.0797850153
 30
0.0
 11
393.3708692758
 21
696.0797850153
 31
0.0
  0
LINE
  5
152
330
12C
100
AcDbEntity
  8
$DDT_AUDIT_GENERATED_(9A)
  6
Continuous
 62
     7
100
AcDbLine
 10
393.3708692758
 20
696.0797850153
 30
0.0
 11
393.3708692758
 21
704.8797850153
 31
0.0
  0
LINE
  5
153
330
12C
100
AcDbEntity
  8
$DDT_AUDIT_GENERATED_(9A)
  6
Continuous
 62
     7
100
AcDbLine
 10
463.3708692758
 20
696.0797850153
 30
0.0
 11
461.7708692758
 21
696.0797850153
 31
0.0
  0
LINE
  5
154
330
12C
100
AcDbEntity
  8
$DDT_AUDIT_GENERATED_(9A)
  6
Continuous
 62
     7
100
AcDbLine
 10
461.7708692758
 20
706.0797850153
 30
0.0
 11
462.1708692758
 21
706.0797850153
 31
0.0
  0
LINE
  5
155
330
12C
100
AcDbEntity
  8
$DDT_AUDIT_GENERATED_(9A)
  6
Continuous
 62
     7
100
AcDbLine
 10
394.5708692758
 20
706.0797850153
 30
0.0
 11
394.9708692758
 21
706.0797850153
 31
0.0
  0
LINE
  5
156
330
12C
100
AcDbEntity
  8
$DDT_AUDIT_GENERATED_(9A)
  6
Continuous
 62
     7
100
AcDbLine
 10
394.9708692758
 20
706.0797850153
 30
0.0
 11
461.7708692758
 21
706.0797850153
 31
0.0
  0
LINE
  5
157
330
12C
100
AcDbEntity
  8
$DDT_AUDIT_GENERATED_(9A)
  6
Continuous
 62
     7
100
AcDbLine
 10
463.3708692758
 20
704.8797850153
 30
0.0
 11
463.3708692758
 21
696.0797850153
 31
0.0
  0
ARC
  5
158
330
12C
100
AcDbEntity
  8
$DDT_AUDIT_GENERATED_(9A)
  6
Continuous
 62
     7
100
AcDbCircle
 10
394.5708692758
 20
704.8797850153
 30
0.0
 40
1.200000000000007
100
AcDbArc
 50
90.0
 51
180.0
  0
ARC
  5
159
330
12C
100
AcDbEntity
  8
$DDT_AUDIT_GENERATED_(9A)
  6
Continuous
 62
     7
100
AcDbCircle
 10
462.1708692758
 20
704.8797850153
 30
0.0
 40
1.2
100
AcDbArc
 50
0.0
 51
90.0
  0
LINE
  5
15A
330
12C
100
AcDbEntity
  8
$DDT_AUDIT_GENERATED_(C4)
  6
Continuous
 62
     7
100
AcDbLine
 10
442.7208692758
 20
745.0797850153
 30
0.0
 11
414.0208692758
 21
745.0797850153
 31
0.0
  0
LINE
  5
15B
330
12C
100
AcDbEntity
  8
$DDT_AUDIT_GENERATED_(C4)
  6
Continuous
 62
     7
100
AcDbLine
 10
443.2208692758
 20
741.3797850153
 30
0.0
 11
443.2208692758
 21
744.5797850153
 31
0.0
  0
LINE
  5
15C
330
12C
100
AcDbEntity
  8
$DDT_AUDIT_GENERATED_(C4)
  6
Continuous
 62
     7
100
AcDbLine
 10
413.5208692758
 20
744.5797850153
 30
0.0
 11
413.5208692758
 21
741.3797850153
 31
0.0
  0
ARC
  5
15D
330
12C
100
AcDbEntity
  8
$DDT_AUDIT_GENERATED_(C4)
  6
Continuous
 62
     7
100
AcDbCircle
 10
442.7208692758
 20
744.5797850153
 30
0.0
 40
0.5000000000000004
100
AcDbArc
 50
0.0
 51
90.0
  0
ARC
  5
15E
330
12C
100
AcDbEntity
  8
$DDT_AUDIT_GENERATED_(C4)
  6
Continuous
 62
     7
100
AcDbCircle
 10
414.0208692758
 20
744.5797850153
 30
0.0
 40
0.5000000000000004
100
AcDbArc
 50
90.0
 51
180.0
  0
LINE
  5
15F
330
12C
100
AcDbEntity
  8
$DDT_AUDIT_GENERATED_(CA)
  6
Continuous
 62
     7
100
AcDbLine
 10
428.6595444104
 20
764.5797850153
 30
0.0
 11
419.4330471023
 21
764.5797850153
 31
0.0
  0
LINE
  5
160
330
12C
100
AcDbEntity
  8
$DDT_AUDIT_GENERATED_(CA)
  6
Continuous
 62
     7
100
AcDbLine
 10
419.4330471023
 20
764.5797850153
 30
0.0
 11
418.7500344004
 21
764.5797850153
 31
0.0
  0
LINE
  5
161
330
12C
100
AcDbEntity
  8
$DDT_AUDIT_GENERATED_(CA)
  6
Continuous
 62
     7
100
AcDbLine
 10
418.7500344004
 20
764.5797850153
 30
0.0
 11
407.4917041512
 21
764.5797850153
 31
0.0
  0
LINE
  5
162
330
12C
100
AcDbEntity
  8
$DDT_AUDIT_GENERATED_(CA)
  6
Continuous
 62
     7
100
AcDbLine
 10
407.4917041512
 20
764.5797850153
 30
0.0
 11
407.2417041512
 21
764.5797850153
 31
0.0
  0
LINE
  5
163
330
12C
100
AcDbEntity
  8
$DDT_AUDIT_GENERATED_(CA)
  6
Continuous
 62
     7
100
AcDbLine
 10
439.9178746596
 20
764.5797850153
 30
0.0
 11
435.9548326195
 21
764.5797850153
 31
0.0
  0
LINE
  5
164
330
12C
100
AcDbEntity
  8
$DDT_AUDIT_GENERATED_(CA)
  6
Continuous
 62
     7
100
AcDbLine
 10
458.3708692758
 20
764.5797850153
 30
0.0
 11
439.9178746596
 21
764.5797850153
 31
0.0
  0
LINE
  5
165
330
12C
100
AcDbEntity
  8
$DDT_AUDIT_GENERATED_(CA)
  6
Continuous
 62
     7
100
AcDbLine
 10
458.8708692758
 20
764.5797850153
 30
0.0
 11
458.3708692758
 21
764.5797850153
 31
0.0
  0
ARC
  5
166
330
12C
100
AcDbEntity
  8
$DDT_AUDIT_GENERATED_(CA)
  6
Continuous
 62
     7
100
AcDbCircle
 10
458.8708692758
 20
765.0797850153
 30
0.0
 40
0.5000000000000004
100
AcDbArc
 50
270.0
 51
0.0
  0
ELLIPSE
  5
167
330
12C
100
AcDbEntity
  8
$DDT_AUDIT_GENERATED_(CA)
  6
Continuous
 62
     7
100
AcDbEllipse
 10
434.4339751642
 20
-2430.8229700619
 30
0.0
 11
0.0
 21
3203.379491234846
 31
0.0
210
0.0
220
0.0
230
1.0
 40
1.0
 41
0.001802592803045
 42
0.0046834284491533
  0
ARC
  5
168
330
12C
100
AcDbEntity
  8
$DDT_AUDIT_GENERATED_(CA)
  6
Continuous
 62
     7
100
AcDbCircle
 10
413.1184886268
 20
-1630.0144255866
 30
0.0
 40
2402.448965057773
100
AcDbArc
 50
89.8657294898
 51
90.1342705102
  0
ELLIPSE
  5
169
330
12C
100
AcDbEntity
  8
$DDT_AUDIT_GENERATED_(CA)
  6
Continuous
 62
     7
100
AcDbEllipse
 10
422.307726499
 20
-2430.8227244177
 30
0.0
 11
0.0
 21
3203.379245588186
 31
0.0
210
0.0
220
0.0
230
1.0
 40
1.0
 41
0.0018025928470555
 42
0.0046834287140931
  0
LINE
  5
16A
330
12C
100
AcDbEntity
  8
$DDT_AUDIT_GENERATED_(CA)
  6
Continuous
 62
     7
100
AcDbLine
 10
418.2752821305
 20
772.5638767797
 30
0.0
 11
416.5333411115
 21
772.5513167314
 31
0.0
  0
LINE
  5
16B
330
12C
100
AcDbEntity
  8
$DDT_AUDIT_GENERATED_(CA)
  6
Continuous
 62
     7
100
AcDbLine
 10
459.3708692758
 20
771.92796627
 30
0.0
 11
459.3708692758
 21
765.0797850153
 31
0.0
  0
LINE
  5
16C
330
12C
100
AcDbEntity
  8
$DDT_AUDIT_GENERATED_(CA)
  6
Continuous
 62
     7
100
AcDbLine
 10
459.3708692758
 20
771.92796627
 30
0.0
 11
459.3708692758
 21
771.9345621439
 31
0.0
  0
ARC
  5
16D
330
12C
100
AcDbEntity
  8
$DDT_AUDIT_GENERATED_(CA)
  6
Continuous
 62
     7
100
AcDbCircle
 10
458.8708692954
 20
771.92796627
 30
0.0
 40
0.4999989701904456
100
AcDbArc
 50
0.0
 51
67.4459743398
  0
ARC
  5
16E
330
12C
100
AcDbEntity
  8
$DDT_AUDIT_GENERATED_(CA)
  6
Continuous
 62
     7
100
AcDbCircle
 10
436.2013998866
 20
779.8123318159
 30
0.0
 40
15.23454224619924
100
AcDbArc
 50
267.9564678855
 51
269.0726416077
  0
LINE
  5
16F
330
12C
100
AcDbEntity
  8
$DDT_AUDIT_GENERATED_(CA)
  6
Continuous
 62
     7
100
AcDbLine
 10
431.1769555029
 20
764.5797850153
 30
0.0
 11
428.6595444104
 21
764.5797850153
 31
0.0
  0
ARC
  5
170
330
12C
100
AcDbEntity
  8
$DDT_AUDIT_GENERATED_(CA)
  6
Continuous
 62
     7
100
AcDbCircle
 10
430.9427264886
 20
780.1836026545
 30
0.0
 40
15.60557554692792
100
AcDbArc
 50
270.860002751
 51
271.5690560677
  0
ARC
  5
171
330
12C
100
AcDbEntity
  8
$DDT_AUDIT_GENERATED_(CA)
  6
Continuous
 62
     7
100
AcDbCircle
 10
439.0959395214
 20
763.9051495856
 30
0.0
 40
0.595910626684495
100
AcDbArc
 50
131.4882547425
 51
162.9589721883
  0
ARC
  5
172
330
12C
100
AcDbEntity
  8
$DDT_AUDIT_GENERATED_(CA)
  6
Continuous
 62
     7
100
AcDbCircle
 10
448.0457186633
 20
762.531972666
 30
0.0
 40
9.64453762538358
100
AcDbArc
 50
170.7648989986
 51
192.2525976796
  0
LINE
  5
173
330
12C
100
AcDbEntity
  8
$DDT_AUDIT_GENERATED_(CA)
  6
Continuous
 62
     7
100
AcDbLine
 10
418.1208692758
 20
764.2499942913
 30
0.0
 11
418.1208692758
 21
745.0797850153
 31
0.0
  0
LINE
  5
174
330
12C
100
AcDbEntity
  8
$DDT_AUDIT_GENERATED_(CA)
  6
Continuous
 62
     7
100
AcDbLine
 10
438.6208692758
 20
745.0797850153
 30
0.0
 11
438.6208692758
 21
760.4853611735
 31
0.0
  0
ARC
  5
175
330
12C
100
AcDbEntity
  8
$DDT_AUDIT_GENERATED_(CA)
  6
Continuous
 62
     7
100
AcDbCircle
 10
428.3708692758
 20
-2430.828548318
 30
0.0
 40
3203.408333333315
100
AcDbArc
 50
89.4543872302
 51
90.1809208827
  0
LINE
  5
176
330
12C
100
AcDbEntity
  8
$DDT_AUDIT_GENERATED_(CA)
  6
Continuous
 62
     7
100
AcDbLine
 10
406.7417041512
 20
771.9294435725
 30
0.0
 11
406.7417041512
 21
765.0797850153
 31
0.0
  0
LINE
  5
177
330
12C
100
AcDbEntity
  8
$DDT_AUDIT_GENERATED_(CA)
  6
Continuous
 62
     7
100
AcDbLine
 10
406.7417041512
 20
771.9294735375
 30
0.0
 11
406.7417041512
 21
771.9294435725
 31
0.0
  0
ARC
  5
178
330
12C
100
AcDbEntity
  8
$DDT_AUDIT_GENERATED_(CA)
  6
Continuous
 62
     7
100
AcDbCircle
 10
407.2417041512
 20
765.0797850153
 30
0.0
 40
0.5000000000000004
100
AcDbArc
 50
180.0
 51
270.0
  0
ARC
  5
179
330
12C
100
AcDbEntity
  8
$DDT_AUDIT_GENERATED_(CA)
  6
Continuous
 62
     7
100
AcDbCircle
 10
458.8708692758
 20
771.9345621439
 30
0.0
 40
0.5000000000000004
100
AcDbArc
 50
0.0
 51
89.4543872302
  0
SPLINE
  5
17A
330
12C
100
AcDbEntity
  8
$DDT_AUDIT_GENERATED_(CA)
  6
Continuous
 62
     7
100
AcDbSpline
210
0.0
220
0.0
230
1.0
 70
     8
 71
     3
 72
    18
 73
    14
 74
     0
 42
0.0000000116706858
 43
0.0000000001
 40
0.0
 40
0.0
 40
0.0
 40
0.0
 40
0.0434130665285449
 40
0.1499881257781411
 40
0.2086504615141203
 40
0.2369536913045258
 40
0.2689742357333674
 40
0.3726085944960362
 40
0.4797390765651251
 40
0.6381638766768621
 40
0.8104061133957172
 40
0.9941298147467975
 40
1.0
 40
1.0
 40
1.0
 40
1.0
 10
407.3025496132411
 20
772.431547986937
 30
0.0
 10
407.2934231109858
 20
772.4313979838033
 30
0.0
 10
407.2664148886905
 20
772.4309475842709
 30
0.0
 10
407.2429775031854
 20
772.4302458905879
 30
0.0
 10
407.2217582795469
 20
772.4294450025939
 30
0.0
 10
407.199151051751
 20
772.4279135172605
 30
0.0
 10
407.1512002058159
 20
772.4226854651691
 30
0.0
 10
407.0718663603682
 20
772.4036444363607
 30
0.0
 10
406.9636316249743
 20
772.3516626791953
 30
0.0
 10
406.8515799163289
 20
772.2570621267217
 30
0.0
 10
406.7692973913169
 20
772.1127712611353
 30
0.0
 10
406.7315835103265
 20
771.988420595421
 30
0.0
 10
406.7424191018255
 20
771.9307522188714
 30
0.0
 10
406.7428089642165
 20
771.9286840273752
 30
0.0
  0
SPLINE
  5
17B
330
12C
100
AcDbEntity
  8
$DDT_AUDIT_GENERATED_(CA)
  6
Continuous
 62
     7
100
AcDbSpline
210
0.0
220
0.0
230
1.0
 70
     8
 71
     3
 72
    11
 73
     7
 74
     0
 42
0.0000000209225437
 43
0.0000000001
 40
0.348003629956162
 40
0.348003629956162
 40
0.348003629956162
 40
0.348003629956162
 40
0.3582855855989325
 40
0.651058739785062
 40
0.9960457607298352
 40
1.0
 40
1.0
 40
1.0
 40
1.0
 10
418.053499669577
 20
764.5527667673857
 30
0.0
 10
418.0542400118241
 20
764.5514859432636
 30
0.0
 10
418.0759499438142
 20
764.5134666368929
 30
0.0
 10
418.1128945403501
 20
764.4175522257455
 30
0.0
 10
418.1324460905416
 20
764.3089031417171
 30
0.0
 10
418.1190710930769
 20
764.2581391083536
 30
0.0
 10
418.1188954160967
 20
764.2574729029792
 30
0.0
  0
SPLINE
  5
17C
330
12C
100
AcDbEntity
  8
$DDT_AUDIT_GENERATED_(CA)
  6
Continuous
 62
     7
100
AcDbSpline
210
0.0
220
0.0
230
1.0
 70
     8
 71
     3
 72
     9
 73
     5
 74
     0
 42
0.0000000884660944
 43
0.0000000001
 40
0.0
 40
0.0
 40
0.0
 40
0.0
 40
0.2026213013746062
 40
0.7411974516555818
 40
0.7411974516555818
 40
0.7411974516555818
 40
0.7411974516555818
 10
418.0017701641568
 20
764.5730580978175
 30
0.0
 10
418.01584796816
 20
764.5722278420335
 30
0.0
 10
418.0586131482642
 20
764.5717326494088
 30
0.0
 10
418.0753108275687
 20
764.5520828504937
 30
0.0
 10
418.0746937700288
 20
764.5511401091479
 30
0.0
  0
ARC
  5
17D
330
12C
100
AcDbEntity
  8
$DDT_AUDIT_GENERATED_(CA)
  6
Continuous
 62
     7
100
AcDbCircle
 10
439.1208692758
 20
764.0797850153
 30
0.0
 40
0.4999999999999989
100
AcDbArc
 50
90.0
 51
147.1201560279
  0
ENDBLK
  5
17F
330
12C
100
AcDbEntity
  8
0
100
AcDbBlockEnd
  0
BLOCK
  5
205
330
180
100
AcDbEntity
  8
0
100
AcDbBlockBegin
  2
SE2
 70
     0
 10
0.0
 20
0.0
 30
0.0
  3
SE2
  1

  0
ARC
  5
182
330
180
100
AcDbEntity
  8
$DDT_AUDIT_GENERATED_(62)
  6
Continuous
 62
     7
100
AcDbCircle
 10
38.8808695784
 20
439.2115232642
 30
0.0
 40
15.0
100
AcDbArc
 50
60.0
 51
120.0
  0
ARC
  5
183
330
180
100
AcDbEntity
  8
$DDT_AUDIT_GENERATED_(62)
  6
Continuous
 62
     7
100
AcDbCircle
 10
38.8808695784
 20
439.2115232642
 30
0.0
 40
15.0
100
AcDbArc
 50
180.0
 51
240.0
  0
ARC
  5
184
330
180
100
AcDbEntity
  8
$DDT_AUDIT_GENERATED_(62)
  6
Continuous
 62
     7
100
AcDbCircle
 10
38.8808695784
 20
439.2115232642
 30
0.0
 40
15.0
100
AcDbArc
 50
300.0
 51
0.0
  0
ARC
  5
185
330
180
100
AcDbEntity
  8
$DDT_AUDIT_GENERATED_(62)
  6
Continuous
 62
     7
100
AcDbCircle
 10
38.8808695784
 20
439.2115232642
 30
0.0
 40
18.00000000000001
100
AcDbArc
 50
294.6243183522
 51
0.0
  0
ARC
  5
186
330
180
100
AcDbEntity
  8
$DDT_AUDIT_GENERATED_(62)
  6
Continuous
 62
     7
100
AcDbCircle
 10
38.8808695784
 20
439.2115232642
 30
0.0
 40
18.00000000000001
100
AcDbArc
 50
174.6243183522
 51
245.3756816478
  0
ARC
  5
187
330
180
100
AcDbEntity
  8
$DDT_AUDIT_GENERATED_(62)
  6
Continuous
 62
     7
100
AcDbCircle
 10
38.8808695784
 20
439.2115232642
 30
0.0
 40
18.00000000000001
100
AcDbArc
 50
54.6243183522
 51
125.3756816478
  0
ARC
  5
188
330
180
100
AcDbEntity
  8
$DDT_AUDIT_GENERATED_(62)
  6
Continuous
 62
     7
100
AcDbCircle
 10
38.8808695784
 20
439.2115232642
 30
0.0
 40
18.00000000000001
100
AcDbArc
 50
0.0
 51
5.3756816478
  0
ARC
  5
189
330
180
100
AcDbEntity
  8
$DDT_AUDIT_GENERATED_(68)
  6
Continuous
 62
     7
100
AcDbCircle
 10
138.8808695784
 20
439.2115232642
 30
0.0
 40
26.20000000000001
100
AcDbArc
 50
304.9260766138
 51
0.0
  0
ARC
  5
18A
330
180
100
AcDbEntity
  8
$DDT_AUDIT_GENERATED_(68)
  6
Continuous
 62
     7
100
AcDbCircle
 10
138.8808695784
 20
439.2115232642
 30
0.0
 40
26.20000000000001
100
AcDbArc
 50
0.0
 51
235.0739233862
  0
ARC
  5
18B
330
180
100
AcDbEntity
  8
$DDT_AUDIT_GENERATED_(68)
  6
Continuous
 62
     7
100
AcDbCircle
 10
138.8808695784
 20
449.2115232642
 30
0.0
 40
2.25
100
AcDbArc
 50
152.7339555493
 51
0.0
  0
ARC
  5
18C
330
180
100
AcDbEntity
  8
$DDT_AUDIT_GENERATED_(68)
  6
Continuous
 62
     7
100
AcDbCircle
 10
138.8808695784
 20
449.2115232642
 30
0.0
 40
2.25
100
AcDbArc
 50
0.0
 51
27.2660444507
  0
ARC
  5
18D
330
180
100
AcDbEntity
  8
$DDT_AUDIT_GENERATED_(6E)
  6
Continuous
 62
     7
100
AcDbCircle
 10
238.8808695784
 20
439.2115232642
 30
0.0
 40
26.2
100
AcDbArc
 50
286.6341521774
 51
0.0
  0
ARC
  5
18E
330
180
100
AcDbEntity
  8
$DDT_AUDIT_GENERATED_(6E)
  6
Continuous
 62
     7
100
AcDbCircle
 10
238.8808695784
 20
439.2115232642
 30
0.0
 40
26.2
100
AcDbArc
 50
166.6341521774
 51
253.3658478226
  0
ARC
  5
18F
330
180
100
AcDbEntity
  8
$DDT_AUDIT_GENERATED_(6E)
  6
Continuous
 62
     7
100
AcDbCircle
 10
238.8808695784
 20
439.2115232642
 30
0.0
 40
26.2
100
AcDbArc
 50
46.6341521774
 51
133.3658478226
  0
ARC
  5
190
330
180
100
AcDbEntity
  8
$DDT_AUDIT_GENERATED_(6E)
  6
Continuous
 62
     7
100
AcDbCircle
 10
238.8808695784
 20
439.2115232642
 30
0.0
 40
26.2
100
AcDbArc
 50
0.0
 51
13.3658478226
  0
ARC
  5
191
330
180
100
AcDbEntity
  8
$DDT_AUDIT_GENERATED_(62)
  6
Continuous
 62
     7
100
AcDbCircle
 10
238.8808695784
 20
439.2115232642
 30
0.0
 40
15.0
100
AcDbArc
 50
60.0
 51
120.0
  0
ARC
  5
192
330
180
100
AcDbEntity
  8
$DDT_AUDIT_GENERATED_(62)
  6
Continuous
 62
     7
100
AcDbCircle
 10
238.8808695784
 20
439.2115232642
 30
0.0
 40
15.0
100
AcDbArc
 50
180.0
 51
240.0
  0
ARC
  5
193
330
180
100
AcDbEntity
  8
$DDT_AUDIT_GENERATED_(62)
  6
Continuous
 62
     7
100
AcDbCircle
 10
238.8808695784
 20
439.2115232642
 30
0.0
 40
15.0
100
AcDbArc
 50
300.0
 51
0.0
  0
ARC
  5
194
330
180
100
AcDbEntity
  8
$DDT_AUDIT_GENERATED_(62)
  6
Continuous
 62
     7
100
AcDbCircle
 10
238.8808695784
 20
439.2115232642
 30
0.0
 40
18.00000000000001
100
AcDbArc
 50
294.6243183522
 51
0.0
  0
ARC
  5
195
330
180
100
AcDbEntity
  8
$DDT_AUDIT_GENERATED_(62)
  6
Continuous
 62
     7
100
AcDbCircle
 10
238.8808695784
 20
439.2115232642
 30
0.0
 40
18.00000000000001
100
AcDbArc
 50
174.6243183522
 51
245.3756816478
  0
ARC
  5
196
330
180
100
AcDbEntity
  8
$DDT_AUDIT_GENERATED_(62)
  6
Continuous
 62
     7
100
AcDbCircle
 10
238.8808695784
 20
439.2115232642
 30
0.0
 40
18.00000000000001
100
AcDbArc
 50
54.6243183522
 51
125.3756816478
  0
ARC
  5
197
330
180
100
AcDbEntity
  8
$DDT_AUDIT_GENERATED_(62)
  6
Continuous
 62
     7
100
AcDbCircle
 10
238.8808695784
 20
439.2115232642
 30
0.0
 40
18.00000000000001
100
AcDbArc
 50
0.0
 51
5.3756816478
  0
ARC
  5
198
330
180
100
AcDbEntity
  8
$DDT_AUDIT_GENERATED_(77)
  6
Continuous
 62
     7
100
AcDbCircle
 10
124.3808695784
 20
446.2115232642
 30
0.0
 40
0.5000000000000004
100
AcDbArc
 50
90.0
 51
180.0
  0
LINE
  5
199
330
180
100
AcDbEntity
  8
$DDT_AUDIT_GENERATED_(77)
  6
Continuous
 62
     7
100
AcDbLine
 10
124.3808695784
 20
446.7115232642
 30
0.0
 11
153.3808695784
 21
446.7115232642
 31
0.0
  0
ARC
  5
19A
330
180
100
AcDbEntity
  8
$DDT_AUDIT_GENERATED_(77)
  6
Continuous
 62
     7
100
AcDbCircle
 10
153.3808695784
 20
446.2115232642
 30
0.0
 40
0.4999999999999996
100
AcDbArc
 50
0.0
 51
90.0
  0
LINE
  5
19B
330
180
100
AcDbEntity
  8
$DDT_AUDIT_GENERATED_(77)
  6
Continuous
 62
     7
100
AcDbLine
 10
153.8808695784
 20
446.2115232642
 30
0.0
 11
153.8808695784
 21
407.2115232642
 31
0.0
  0
LINE
  5
19C
330
180
100
AcDbEntity
  8
$DDT_AUDIT_GENERATED_(77)
  6
Continuous
 62
     7
100
AcDbLine
 10
153.8808695784
 20
407.2115232642
 30
0.0
 11
153.8808695784
 21
311.560394614
 31
0.0
  0
LINE
  5
19D
330
180
100
AcDbEntity
  8
$DDT_AUDIT_GENERATED_(77)
  6
Continuous
 62
     7
100
AcDbLine
 10
153.8808695784
 20
311.560394614
 30
0.0
 11
153.8808695784
 21
272.7088013884
 31
0.0
  0
LINE
  5
19E
330
180
100
AcDbEntity
  8
$DDT_AUDIT_GENERATED_(77)
  6
Continuous
 62
     7
100
AcDbLine
 10
153.8808695784
 20
272.7088013884
 30
0.0
 11
153.8808695784
 21
272.2817382489
 31
0.0
  0
LINE
  5
19F
330
180
100
AcDbEntity
  8
$DDT_AUDIT_GENERATED_(77)
  6
Continuous
 62
     7
100
AcDbLine
 10
123.8808695784
 20
446.2115232642
 30
0.0
 11
123.8808695784
 21
407.2115232642
 31
0.0
  0
LINE
  5
1A0
330
180
100
AcDbEntity
  8
$DDT_AUDIT_GENERATED_(77)
  6
Continuous
 62
     7
100
AcDbLine
 10
123.8808695784
 20
407.2115232642
 30
0.0
 11
123.8808695784
 21
311.560394614
 31
0.0
  0
LINE
  5
1A1
330
180
100
AcDbEntity
  8
$DDT_AUDIT_GENERATED_(77)
  6
Continuous
 62
     7
100
AcDbLine
 10
123.8808695784
 20
311.560394614
 30
0.0
 11
123.8808695784
 21
272.7088013884
 31
0.0
  0
LINE
  5
1A2
330
180
100
AcDbEntity
  8
$DDT_AUDIT_GENERATED_(77)
  6
Continuous
 62
     7
100
AcDbLine
 10
123.8808695784
 20
272.7088013884
 30
0.0
 11
123.8808695784
 21
272.2817382489
 31
0.0
  0
LINE
  5
1A3
330
180
100
AcDbEntity
  8
$DDT_AUDIT_GENERATED_(77)
  6
Continuous
 62
     7
100
AcDbLine
 10
124.3808695784
 20
271.7817382489
 30
0.0
 11
153.3808695784
 21
271.7817382489
 31
0.0
  0
ARC
  5
1A4
330
180
100
AcDbEntity
  8
$DDT_AUDIT_GENERATED_(77)
  6
Continuous
 62
     7
100
AcDbCircle
 10
153.3808695784
 20
272.2817382489
 30
0.0
 40
0.5000000000000004
100
AcDbArc
 50
270.0
 51
360.0
  0
ARC
  5
1A5
330
180
100
AcDbEntity
  8
$DDT_AUDIT_GENERATED_(77)
  6
Continuous
 62
     7
100
AcDbCircle
 10
124.3808695784
 20
272.2817382489
 30
0.0
 40
0.5000000000000004
100
AcDbArc
 50
180.0
 51
270.0
  0
ARC
  5
1A6
330
180
100
AcDbEntity
  8
$DDT_AUDIT_GENERATED_(6E)
  6
Continuous
 62
     7
100
AcDbCircle
 10
38.8808695784
 20
439.2115232642
 30
0.0
 40
26.2
100
AcDbArc
 50
0.0
 51
13.3658478226
  0
ARC
  5
1A7
330
180
100
AcDbEntity
  8
$DDT_AUDIT_GENERATED_(6E)
  6
Continuous
 62
     7
100
AcDbCircle
 10
38.8808695784
 20
439.2115232642
 30
0.0
 40
26.2
100
AcDbArc
 50
46.6341521774
 51
133.3658478226
  0
ARC
  5
1A8
330
180
100
AcDbEntity
  8
$DDT_AUDIT_GENERATED_(6E)
  6
Continuous
 62
     7
100
AcDbCircle
 10
38.8808695784
 20
439.2115232642
 30
0.0
 40
26.2
100
AcDbArc
 50
166.6341521774
 51
253.3658478226
  0
ARC
  5
1A9
330
180
100
AcDbEntity
  8
$DDT_AUDIT_GENERATED_(6E)
  6
Continuous
 62
     7
100
AcDbCircle
 10
38.8808695784
 20
439.2115232642
 30
0.0
 40
26.2
100
AcDbArc
 50
286.6341521774
 51
0.0
  0
ARC
  5
1AA
330
180
100
AcDbEntity
  8
$DDT_AUDIT_GENERATED_(14C)
  6
Continuous
 62
     7
100
AcDbCircle
 10
138.8808695784
 20
449.2115232642
 30
0.0
 40
2.000000000000002
100
AcDbArc
 50
180.0
 51
0.0
  0
LINE
  5
1AB
330
180
100
AcDbEntity
  8
$DDT_AUDIT_GENERATED_(14C)
  6
Continuous
 62
     7
100
AcDbLine
 10
140.8808695784
 20
465.2115232642
 30
0.0
 11
136.8808695784
 21
465.2115232642
 31
0.0
  0
LINE
  5
1AC
330
180
100
AcDbEntity
  8
$DDT_AUDIT_GENERATED_(14C)
  6
Continuous
 62
     7
100
AcDbLine
 10
140.8808695784
 20
449.2115232642
 30
0.0
 11
140.8808695784
 21
453.2115232642
 31
0.0
  0
LINE
  5
1AD
330
180
100
AcDbEntity
  8
$DDT_AUDIT_GENERATED_(14C)
  6
Continuous
 62
     7
100
AcDbLine
 10
136.8808695784
 20
453.2115232642
 30
0.0
 11
136.8808695784
 21
449.2115232642
 31
0.0
  0
LINE
  5
1AE
330
180
100
AcDbEntity
  8
$DDT_AUDIT_GENERATED_(14C)
  6
Continuous
 62
     7
100
AcDbLine
 10
136.8808695784
 20
465.2115232642
 30
0.0
 11
136.8808695784
 21
453.2115232642
 31
0.0
  0
LINE
  5
1AF
330
180
100
AcDbEntity
  8
$DDT_AUDIT_GENERATED_(14C)
  6
Continuous
 62
     7
100
AcDbLine
 10
140.8808695784
 20
453.2115232642
 30
0.0
 11
140.8808695784
 21
465.2115232642
 31
0.0
  0
ARC
  5
1B1
330
180
100
AcDbEntity
  8
$DDT_AUDIT_GENERATED_(1B0)
  6
Continuous
 62
     7
100
AcDbCircle
 10
138.8808695784
 20
439.2115232642
 30
0.0
 40
9.500000000000007
100
AcDbArc
 50
77.0768860747
 51
78.5976763907
  0
ARC
  5
1B2
330
180
100
AcDbEntity
  8
$DDT_AUDIT_GENERATED_(1B0)
  6
Continuous
 62
     7
100
AcDbCircle
 10
138.8808695784
 20
439.2115232642
 30
0.0
 40
9.500000000000002
100
AcDbArc
 50
101.4023236093
 51
102.9231139253
  0
LINE
  5
1B3
330
180
100
AcDbEntity
  8
$DDT_AUDIT_GENERATED_(1B0)
  6
Continuous
 62
     7
100
AcDbLine
 10
136.7261193085
 20
448.7115232642
 30
0.0
 11
136.9822032088
 21
448.7115232642
 31
0.0
  0
LINE
  5
1B4
330
180
100
AcDbEntity
  8
$DDT_AUDIT_GENERATED_(1B0)
  6
Continuous
 62
     7
100
AcDbLine
 10
140.7848761632
 20
448.7115232642
 30
0.0
 11
141.0343038352
 21
448.7115232642
 31
0.0
  0
LINE
  5
1B5
330
180
100
AcDbEntity
  8
$DDT_AUDIT_GENERATED_(8F)
  6
Continuous
 62
     7
100
AcDbLine
 10
103.8808695784
 20
405.8115232642
 30
0.0
 11
103.8808695784
 21
472.6115232642
 31
0.0
  0
ARC
  5
1B6
330
180
100
AcDbEntity
  8
$DDT_AUDIT_GENERATED_(8F)
  6
Continuous
 62
     7
100
AcDbCircle
 10
105.4808695784
 20
472.6115232642
 30
0.0
 40
1.600000000000018
100
AcDbArc
 50
90.0
 51
180.0
  0
ARC
  5
1B7
330
180
100
AcDbEntity
  8
$DDT_AUDIT_GENERATED_(8F)
  6
Continuous
 62
     7
100
AcDbCircle
 10
105.4808695784
 20
405.8115232642
 30
0.0
 40
1.599999999999997
100
AcDbArc
 50
180.0
 51
270.0
  0
LINE
  5
1B8
330
180
100
AcDbEntity
  8
$DDT_AUDIT_GENERATED_(8F)
  6
Continuous
 62
     7
100
AcDbLine
 10
105.4808695784
 20
474.2115232642
 30
0.0
 11
172.2808695784
 21
474.2115232642
 31
0.0
  0
LINE
  5
1B9
330
180
100
AcDbEntity
  8
$DDT_AUDIT_GENERATED_(8F)
  6
Continuous
 62
     7
100
AcDbLine
 10
172.2808695784
 20
404.2115232642
 30
0.0
 11
153.8808695784
 21
404.2115232642
 31
0.0
  0
LINE
  5
1BA
330
180
100
AcDbEntity
  8
$DDT_AUDIT_GENERATED_(8F)
  6
Continuous
 62
     7
100
AcDbLine
 10
123.8808695784
 20
404.2115232642
 30
0.0
 11
105.4808695784
 21
404.2115232642
 31
0.0
  0
ARC
  5
1BB
330
180
100
AcDbEntity
  8
$DDT_AUDIT_GENERATED_(8F)
  6
Continuous
 62
     7
100
AcDbCircle
 10
172.2808695784
 20
472.6115232642
 30
0.0
 40
1.599999999999997
100
AcDbArc
 50
0.0
 51
90.0
  0
ARC
  5
1BC
330
180
100
AcDbEntity
  8
$DDT_AUDIT_GENERATED_(8F)
  6
Continuous
 62
     7
100
AcDbCircle
 10
172.2808695784
 20
405.8115232642
 30
0.0
 40
1.600000000000004
100
AcDbArc
 50
270.0
 51
0.0
  0
LINE
  5
1BD
330
180
100
AcDbEntity
  8
$DDT_AUDIT_GENERATED_(8F)
  6
Continuous
 62
     7
100
AcDbLine
 10
173.8808695784
 20
472.6115232642
 30
0.0
 11
173.8808695784
 21
405.8115232642
 31
0.0
  0
ARC
  5
1BE
330
180
100
AcDbEntity
  8
$DDT_AUDIT_GENERATED_(8F)
  6
Continuous
 62
     7
100
AcDbCircle
 10
138.8808695784
 20
439.2115232642
 30
0.0
 40
26.25
100
AcDbArc
 50
304.849904579
 51
0.0
  0
ARC
  5
1BF
330
180
100
AcDbEntity
  8
$DDT_AUDIT_GENERATED_(8F)
  6
Continuous
 62
     7
100
AcDbCircle
 10
138.8808695784
 20
439.2115232642
 30
0.0
 40
26.25
100
AcDbArc
 50
0.0
 51
235.150095421
  0
LINE
  5
1C0
330
180
100
AcDbEntity
  8
$DDT_AUDIT_GENERATED_(9A)
  6
Continuous
 62
     7
100
AcDbLine
 10
3.8808695784
 20
405.8115232642
 30
0.0
 11
3.8808695784
 21
472.6115232642
 31
0.0
  0
ARC
  5
1C1
330
180
100
AcDbEntity
  8
$DDT_AUDIT_GENERATED_(9A)
  6
Continuous
 62
     7
100
AcDbCircle
 10
5.4808695784
 20
472.6115232642
 30
0.0
 40
1.59999999999999
100
AcDbArc
 50
90.0
 51
180.0
  0
ARC
  5
1C2
330
180
100
AcDbEntity
  8
$DDT_AUDIT_GENERATED_(9A)
  6
Continuous
 62
     7
100
AcDbCircle
 10
5.4808695784
 20
405.8115232642
 30
0.0
 40
1.599999999999997
100
AcDbArc
 50
180.0
 51
270.0
  0
LINE
  5
1C3
330
180
100
AcDbEntity
  8
$DDT_AUDIT_GENERATED_(9A)
  6
Continuous
 62
     7
100
AcDbLine
 10
5.4808695784
 20
474.2115232642
 30
0.0
 11
72.2808695784
 21
474.2115232642
 31
0.0
  0
LINE
  5
1C4
330
180
100
AcDbEntity
  8
$DDT_AUDIT_GENERATED_(9A)
  6
Continuous
 62
     7
100
AcDbLine
 10
72.2808695784
 20
404.2115232642
 30
0.0
 11
5.4808695784
 21
404.2115232642
 31
0.0
  0
ARC
  5
1C5
330
180
100
AcDbEntity
  8
$DDT_AUDIT_GENERATED_(9A)
  6
Continuous
 62
     7
100
AcDbCircle
 10
72.2808695784
 20
472.6115232642
 30
0.0
 40
1.599999999999997
100
AcDbArc
 50
0.0
 51
90.0
  0
ARC
  5
1C6
330
180
100
AcDbEntity
  8
$DDT_AUDIT_GENERATED_(9A)
  6
Continuous
 62
     7
100
AcDbCircle
 10
72.2808695784
 20
405.8115232642
 30
0.0
 40
1.600000000000018
100
AcDbArc
 50
270.0
 51
0.0
  0
LINE
  5
1C7
330
180
100
AcDbEntity
  8
$DDT_AUDIT_GENERATED_(9A)
  6
Continuous
 62
     7
100
AcDbLine
 10
73.8808695784
 20
472.6115232642
 30
0.0
 11
73.8808695784
 21
405.8115232642
 31
0.0
  0
ARC
  5
1C8
330
180
100
AcDbEntity
  8
$DDT_AUDIT_GENERATED_(9A)
  6
Continuous
 62
     7
100
AcDbCircle
 10
38.8808695784
 20
439.2115232642
 30
0.0
 40
26.25
100
AcDbArc
 50
0.0
 51
13.398450401
  0
ARC
  5
1C9
330
180
100
AcDbEntity
  8
$DDT_AUDIT_GENERATED_(9A)
  6
Continuous
 62
     7
100
AcDbCircle
 10
38.8808695784
 20
439.2115232642
 30
0.0
 40
26.25
100
AcDbArc
 50
46.601549599
 51
133.398450401
  0
ARC
  5
1CA
330
180
100
AcDbEntity
  8
$DDT_AUDIT_GENERATED_(9A)
  6
Continuous
 62
     7
100
AcDbCircle
 10
38.8808695784
 20
439.2115232642
 30
0.0
 40
26.25
100
AcDbArc
 50
166.601549599
 51
253.398450401
  0
ARC
  5
1CB
330
180
100
AcDbEntity
  8
$DDT_AUDIT_GENERATED_(9A)
  6
Continuous
 62
     7
100
AcDbCircle
 10
38.8808695784
 20
439.2115232642
 30
0.0
 40
26.25
100
AcDbArc
 50
286.601549599
 51
0.0
  0
LINE
  5
1CC
330
180
100
AcDbEntity
  8
$DDT_AUDIT_GENERATED_(9A)
  6
Continuous
 62
     7
100
AcDbLine
 10
203.8808695784
 20
405.8115232642
 30
0.0
 11
203.8808695784
 21
472.6115232642
 31
0.0
  0
ARC
  5
1CD
330
180
100
AcDbEntity
  8
$DDT_AUDIT_GENERATED_(9A)
  6
Continuous
 62
     7
100
AcDbCircle
 10
205.4808695784
 20
472.6115232642
 30
0.0
 40
1.599999999999997
100
AcDbArc
 50
90.0
 51
180.0
  0
ARC
  5
1CE
330
180
100
AcDbEntity
  8
$DDT_AUDIT_GENERATED_(9A)
  6
Continuous
 62
     7
100
AcDbCircle
 10
205.4808695784
 20
405.8115232642
 30
0.0
 40
1.599999999999997
100
AcDbArc
 50
180.0
 51
270.0
  0
LINE
  5
1CF
330
180
100
AcDbEntity
  8
$DDT_AUDIT_GENERATED_(9A)
  6
Continuous
 62
     7
100
AcDbLine
 10
205.4808695784
 20
474.2115232642
 30
0.0
 11
272.2808695784
 21
474.2115232642
 31
0.0
  0
LINE
  5
1D0
330
180
100
AcDbEntity
  8
$DDT_AUDIT_GENERATED_(9A)
  6
Continuous
 62
     7
100
AcDbLine
 10
272.2808695784
 20
404.2115232642
 30
0.0
 11
205.4808695784
 21
404.2115232642
 31
0.0
  0
ARC
  5
1D1
330
180
100
AcDbEntity
  8
$DDT_AUDIT_GENERATED_(9A)
  6
Continuous
 62
     7
100
AcDbCircle
 10
272.2808695784
 20
472.6115232642
 30
0.0
 40
1.599999999999997
100
AcDbArc
 50
0.0
 51
90.0
  0
ARC
  5
1D2
330
180
100
AcDbEntity
  8
$DDT_AUDIT_GENERATED_(9A)
  6
Continuous
 62
     7
100
AcDbCircle
 10
272.2808695784
 20
405.8115232642
 30
0.0
 40
1.599999999999997
100
AcDbArc
 50
270.0
 51
0.0
  0
LINE
  5
1D3
330
180
100
AcDbEntity
  8
$DDT_AUDIT_GENERATED_(9A)
  6
Continuous
 62
     7
100
AcDbLine
 10
273.8808695784
 20
472.6115232642
 30
0.0
 11
273.8808695784
 21
405.8115232642
 31
0.0
  0
ARC
  5
1D4
330
180
100
AcDbEntity
  8
$DDT_AUDIT_GENERATED_(9A)
  6
Continuous
 62
     7
100
AcDbCircle
 10
238.8808695784
 20
439.2115232642
 30
0.0
 40
26.25
100
AcDbArc
 50
0.0
 51
13.398450401
  0
ARC
  5
1D5
330
180
100
AcDbEntity
  8
$DDT_AUDIT_GENERATED_(9A)
  6
Continuous
 62
     7
100
AcDbCircle
 10
238.8808695784
 20
439.2115232642
 30
0.0
 40
26.25
100
AcDbArc
 50
46.601549599
 51
133.398450401
  0
ARC
  5
1D6
330
180
100
AcDbEntity
  8
$DDT_AUDIT_GENERATED_(9A)
  6
Continuous
 62
     7
100
AcDbCircle
 10
238.8808695784
 20
439.2115232642
 30
0.0
 40
26.25
100
AcDbArc
 50
166.601549599
 51
253.398450401
  0
ARC
  5
1D7
330
180
100
AcDbEntity
  8
$DDT_AUDIT_GENERATED_(9A)
  6
Continuous
 62
     7
100
AcDbCircle
 10
238.8808695784
 20
439.2115232642
 30
0.0
 40
26.25
100
AcDbArc
 50
286.601549599
 51
0.0
  0
ARC
  5
1D9
330
180
100
AcDbEntity
  8
$DDT_AUDIT_GENERATED_(1D8)
  6
Continuous
 62
     7
100
AcDbCircle
 10
38.8808695784
 20
439.2115232642
 30
0.0
 40
14.95
100
AcDbArc
 50
60.1106963679
 51
119.8893036321
  0
ARC
  5
1DA
330
180
100
AcDbEntity
  8
$DDT_AUDIT_GENERATED_(C4)
  6
Continuous
 62
     7
100
AcDbCircle
 10
38.8808695784
 20
439.2115232642
 30
0.0
 40
14.85
100
AcDbArc
 50
300.3347050581
 51
359.6652949419
  0
ARC
  5
1DB
330
180
100
AcDbEntity
  8
$DDT_AUDIT_GENERATED_(C4)
  6
Continuous
 62
     7
100
AcDbCircle
 10
38.8808695784
 20
439.2115232642
 30
0.0
 40
14.85
100
AcDbArc
 50
180.3347050581
 51
239.6652949419
  0
ARC
  5
1DC
330
180
100
AcDbEntity
  8
$DDT_AUDIT_GENERATED_(C4)
  6
Continuous
 62
     7
100
AcDbCircle
 10
38.8808695784
 20
439.2115232642
 30
0.0
 40
14.85
100
AcDbArc
 50
60.3347050581
 51
119.6652949419
  0
LINE
  5
1DD
330
180
100
AcDbEntity
  8
$DDT_AUDIT_GENERATED_(CA)
  6
Continuous
 62
     7
100
AcDbLine
 10
62.4776570957
 20
460.3406883888
 30
0.0
 11
68.9776570957
 21
449.0823581396
 31
0.0
  0
ARC
  5
1DE
330
180
100
AcDbEntity
  8
$DDT_AUDIT_GENERATED_(CA)
  6
Continuous
 62
     7
100
AcDbCircle
 10
68.1116316919
 20
448.5823581396
 30
0.0
 40
0.99999999999998
100
AcDbArc
 50
300.0
 51
30.0
  0
ARC
  5
1DF
330
180
100
AcDbEntity
  8
$DDT_AUDIT_GENERATED_(CA)
  6
Continuous
 62
     7
100
AcDbCircle
 10
61.6116316919
 20
459.8406883888
 30
0.0
 40
0.999999999999962
100
AcDbArc
 50
30.0
 51
120.0
  0
LINE
  5
1E0
330
180
100
AcDbEntity
  8
$DDT_AUDIT_GENERATED_(CA)
  6
Continuous
 62
     7
100
AcDbLine
 10
68.6116316919
 20
447.7163327358
 30
0.0
 11
52.6308695784
 21
438.4898354277
 31
0.0
  0
LINE
  5
1E1
330
180
100
AcDbEntity
  8
$DDT_AUDIT_GENERATED_(CA)
  6
Continuous
 62
     7
100
AcDbLine
 10
45.1308695784
 20
451.4802164845
 30
0.0
 11
61.1116316919
 21
460.7067137926
 31
0.0
  0
ARC
  5
1E2
330
180
100
AcDbEntity
  8
$DDT_AUDIT_GENERATED_(CA)
  6
Continuous
 62
     7
100
AcDbCircle
 10
58.8808695784
 20
427.6645178804
 30
0.0
 40
12.49999999999981
100
AcDbArc
 50
120.0
 51
180.0
  0
ARC
  5
1E3
330
180
100
AcDbEntity
  8
$DDT_AUDIT_GENERATED_(CA)
  6
Continuous
 62
     7
100
AcDbCircle
 10
38.8808695784
 20
462.3055340318
 30
0.0
 40
12.49999999999996
100
AcDbArc
 50
240.0
 51
300.0
  0
LINE
  5
1E4
330
180
100
AcDbEntity
  8
$DDT_AUDIT_GENERATED_(CA)
  6
Continuous
 62
     7
100
AcDbLine
 10
46.3808695784
 20
427.6645178804
 30
0.0
 11
46.3808695784
 21
409.2115232642
 31
0.0
  0
LINE
  5
1E5
330
180
100
AcDbEntity
  8
$DDT_AUDIT_GENERATED_(CA)
  6
Continuous
 62
     7
100
AcDbLine
 10
16.6501074648
 20
460.7067137926
 30
0.0
 11
32.6308695784
 21
451.4802164845
 31
0.0
  0
ARC
  5
1E6
330
180
100
AcDbEntity
  8
$DDT_AUDIT_GENERATED_(CA)
  6
Continuous
 62
     7
100
AcDbCircle
 10
45.3808695784
 20
409.2115232642
 30
0.0
 40
0.9999999999999797
100
AcDbArc
 50
270.0
 51
0.0
  0
ARC
  5
1E7
330
180
100
AcDbEntity
  8
$DDT_AUDIT_GENERATED_(CA)
  6
Continuous
 62
     7
100
AcDbCircle
 10
16.1501074648
 20
459.8406883888
 30
0.0
 40
0.9999999999999556
100
AcDbArc
 50
60.0
 51
150.0
  0
LINE
  5
1E8
330
180
100
AcDbEntity
  8
$DDT_AUDIT_GENERATED_(CA)
  6
Continuous
 62
     7
100
AcDbLine
 10
45.3808695784
 20
408.2115232642
 30
0.0
 11
32.3808695784
 21
408.2115232642
 31
0.0
  0
LINE
  5
1E9
330
180
100
AcDbEntity
  8
$DDT_AUDIT_GENERATED_(CA)
  6
Continuous
 62
     7
100
AcDbLine
 10
8.7840820611
 20
449.0823581396
 30
0.0
 11
15.2840820611
 21
460.3406883888
 31
0.0
  0
ARC
  5
1EA
330
180
100
AcDbEntity
  8
$DDT_AUDIT_GENERATED_(CA)
  6
Continuous
 62
     7
100
AcDbCircle
 10
32.3808695784
 20
409.2115232642
 30
0.0
 40
0.9999999999999521
100
AcDbArc
 50
180.0
 51
270.0
  0
ARC
  5
1EB
330
180
100
AcDbEntity
  8
$DDT_AUDIT_GENERATED_(CA)
  6
Continuous
 62
     7
100
AcDbCircle
 10
9.6501074648
 20
448.5823581396
 30
0.0
 40
0.9999999999999404
100
AcDbArc
 50
150.0
 51
240.0
  0
LINE
  5
1EC
330
180
100
AcDbEntity
  8
$DDT_AUDIT_GENERATED_(CA)
  6
Continuous
 62
     7
100
AcDbLine
 10
31.3808695784
 20
409.2115232642
 30
0.0
 11
31.3808695784
 21
427.6645178804
 31
0.0
  0
LINE
  5
1ED
330
180
100
AcDbEntity
  8
$DDT_AUDIT_GENERATED_(CA)
  6
Continuous
 62
     7
100
AcDbLine
 10
25.1308695784
 20
438.4898354277
 30
0.0
 11
9.1501074648
 21
447.7163327358
 31
0.0
  0
ARC
  5
1EE
330
180
100
AcDbEntity
  8
$DDT_AUDIT_GENERATED_(CA)
  6
Continuous
 62
     7
100
AcDbCircle
 10
18.8808695784
 20
427.6645178804
 30
0.0
 40
12.49999999999976
100
AcDbArc
 50
0.0
 51
60.0
  0
ARC
  5
1EF
330
180
100
AcDbEntity
  8
$DDT_AUDIT_GENERATED_(1D8)
  6
Continuous
 62
     7
100
AcDbCircle
 10
238.8808695784
 20
439.2115232642
 30
0.0
 40
14.95
100
AcDbArc
 50
60.1106963679
 51
119.8893036321
  0
ARC
  5
1F0
330
180
100
AcDbEntity
  8
$DDT_AUDIT_GENERATED_(C4)
  6
Continuous
 62
     7
100
AcDbCircle
 10
238.8808695784
 20
439.2115232642
 30
0.0
 40
14.85
100
AcDbArc
 50
300.3347050581
 51
359.6652949419
  0
ARC
  5
1F1
330
180
100
AcDbEntity
  8
$DDT_AUDIT_GENERATED_(C4)
  6
Continuous
 62
     7
100
AcDbCircle
 10
238.8808695784
 20
439.2115232642
 30
0.0
 40
14.85
100
AcDbArc
 50
180.0859874828
 51
239.6652949419
  0
ARC
  5
1F2
330
180
100
AcDbEntity
  8
$DDT_AUDIT_GENERATED_(C4)
  6
Continuous
 62
     7
100
AcDbCircle
 10
238.8808695784
 20
439.2115232642
 30
0.0
 40
14.85
100
AcDbArc
 50
60.3347050581
 51
119.6652949419
  0
LINE
  5
1F3
330
180
100
AcDbEntity
  8
$DDT_AUDIT_GENERATED_(CA)
  6
Continuous
 62
     7
100
AcDbLine
 10
262.4776570957
 20
460.3406883888
 30
0.0
 11
268.9776570957
 21
449.0823581396
 31
0.0
  0
ARC
  5
1F4
330
180
100
AcDbEntity
  8
$DDT_AUDIT_GENERATED_(CA)
  6
Continuous
 62
     7
100
AcDbCircle
 10
268.1116316919
 20
448.5823581396
 30
0.0
 40
0.9999999999999597
100
AcDbArc
 50
300.0
 51
30.0
  0
ARC
  5
1F5
330
180
100
AcDbEntity
  8
$DDT_AUDIT_GENERATED_(CA)
  6
Continuous
 62
     7
100
AcDbCircle
 10
261.6116316919
 20
459.8406883888
 30
0.0
 40
0.9999999999999584
100
AcDbArc
 50
30.0
 51
120.0
  0
LINE
  5
1F6
330
180
100
AcDbEntity
  8
$DDT_AUDIT_GENERATED_(CA)
  6
Continuous
 62
     7
100
AcDbLine
 10
268.6116316919
 20
447.7163327358
 30
0.0
 11
252.6308695784
 21
438.4898354277
 31
0.0
  0
LINE
  5
1F7
330
180
100
AcDbEntity
  8
$DDT_AUDIT_GENERATED_(CA)
  6
Continuous
 62
     7
100
AcDbLine
 10
245.1308695784
 20
451.4802164845
 30
0.0
 11
261.1116316919
 21
460.7067137926
 31
0.0
  0
ARC
  5
1F8
330
180
100
AcDbEntity
  8
$DDT_AUDIT_GENERATED_(CA)
  6
Continuous
 62
     7
100
AcDbCircle
 10
258.8808695784
 20
427.6645178804
 30
0.0
 40
12.49999999999985
100
AcDbArc
 50
120.0
 51
180.0
  0
ARC
  5
1F9
330
180
100
AcDbEntity
  8
$DDT_AUDIT_GENERATED_(CA)
  6
Continuous
 62
     7
100
AcDbCircle
 10
238.8808695784
 20
462.3055340318
 30
0.0
 40
12.49999999999998
100
AcDbArc
 50
240.0
 51
300.0
  0
LINE
  5
1FA
330
180
100
AcDbEntity
  8
$DDT_AUDIT_GENERATED_(CA)
  6
Continuous
 62
     7
100
AcDbLine
 10
246.3808695784
 20
427.6645178804
 30
0.0
 11
246.3808695784
 21
409.2115232642
 31
0.0
  0
LINE
  5
1FB
330
180
100
AcDbEntity
  8
$DDT_AUDIT_GENERATED_(CA)
  6
Continuous
 62
     7
100
AcDbLine
 10
216.6501074648
 20
460.7067137926
 30
0.0
 11
232.6308695784
 21
451.4802164845
 31
0.0
  0
ARC
  5
1FC
330
180
100
AcDbEntity
  8
$DDT_AUDIT_GENERATED_(CA)
  6
Continuous
 62
     7
100
AcDbCircle
 10
245.3808695784
 20
409.2115232642
 30
0.0
 40
0.9999999999999521
100
AcDbArc
 50
270.0
 51
0.0
  0
ARC
  5
1FD
330
180
100
AcDbEntity
  8
$DDT_AUDIT_GENERATED_(CA)
  6
Continuous
 62
     7
100
AcDbCircle
 10
216.1501074648
 20
459.8406883888
 30
0.0
 40
0.9999999999999613
100
AcDbArc
 50
60.0
 51
150.0
  0
LINE
  5
1FE
330
180
100
AcDbEntity
  8
$DDT_AUDIT_GENERATED_(CA)
  6
Continuous
 62
     7
100
AcDbLine
 10
245.3808695784
 20
408.2115232642
 30
0.0
 11
232.3808695784
 21
408.2115232642
 31
0.0
  0
LINE
  5
1FF
330
180
100
AcDbEntity
  8
$DDT_AUDIT_GENERATED_(CA)
  6
Continuous
 62
     7
100
AcDbLine
 10
208.7840820611
 20
449.0823581396
 30
0.0
 11
215.2840820611
 21
460.3406883888
 31
0.0
  0
ARC
  5
200
330
180
100
AcDbEntity
  8
$DDT_AUDIT_GENERATED_(CA)
  6
Continuous
 62
     7
100
AcDbCircle
 10
232.3808695784
 20
409.2115232642
 30
0.0
 40
0.9999999999999527
100
AcDbArc
 50
180.0
 51
270.0
  0
ARC
  5
201
330
180
100
AcDbEntity
  8
$DDT_AUDIT_GENERATED_(CA)
  6
Continuous
 62
     7
100
AcDbCircle
 10
209.6501074648
 20
448.5823581396
 30
0.0
 40
0.999999999999946
100
AcDbArc
 50
150.0
 51
240.0
  0
LINE
  5
202
330
180
100
AcDbEntity
  8
$DDT_AUDIT_GENERATED_(CA)
  6
Continuous
 62
     7
100
AcDbLine
 10
231.3808695784
 20
409.2115232642
 30
0.0
 11
231.3808695784
 21
427.6645178804
 31
0.0
  0
LINE
  5
203
330
180
100
AcDbEntity
  8
$DDT_AUDIT_GENERATED_(CA)
  6
Continuous
 62
     7
100
AcDbLine
 10
225.1308695784
 20
438.4898354277
 30
0.0
 11
209.1501074648
 21
447.7163327358
 31
0.0
  0
ARC
  5
204
330
180
100
AcDbEntity
  8
$DDT_AUDIT_GENERATED_(CA)
  6
Continuous
 62
     7
100
AcDbCircle
 10
218.8808695784
 20
427.6645178804
 30
0.0
 40
12.49999999999973
100
AcDbArc
 50
0.0
 51
60.0
  0
ENDBLK
  5
206
330
180
100
AcDbEntity
  8
0
100
AcDbBlockEnd
  0
ENDSEC
  0
SECTION
  2
ENTITIES
  0
INSERT
  5
5F
330
1F
100
AcDbEntity
  8
Default
100
AcDbBlockReference
  2
SE
 10
0.0
 20
0.0
 30
0.0
  0
INSERT
  5
12D
330
1F
100
AcDbEntity
  8
Default
100
AcDbBlockReference
  2
SE1
 10
0.0
 20
0.0
 30
0.0
  0
INSERT
  5
181
330
1F
100
AcDbEntity
  8
Default
100
AcDbBlockReference
  2
SE2
 10
0.0
 20
0.0
 30
0.0
  0
TEXT
  5
208
330
1F
100
AcDbEntity
  8
Default
  6
Continuous
 62
     7
100
AcDbText
 10
5.9362635081
 20
53.4225120485
 30
0.0
 40
10.0
  1
Grohe AG^J
  7
SEACAD_seiso_ttf
 11
5.9362635081
 21
63.4225120485
 31
0.0
100
AcDbText
 73
     3
  0
TEXT
  5
209
330
1F
100
AcDbEntity
  8
Default
  6
Continuous
 62
     7
100
AcDbText
 10
5.9362635081
 20
37.0588756849
 30
0.0
 40
10.0
  1
 
  7
SEACAD_seiso_ttf
 11
5.9362635081
 21
47.0588756849
 31
0.0
100
AcDbText
 73
     3
  0
TEXT
  5
20A
330
1F
100
AcDbEntity
  8
Default
  6
Continuous
 62
     7
100
AcDbText
 10
5.9362635081
 20
20.6952393213
 30
0.0
 40
10.0
  1
ecn: 
  7
SEACAD_seiso_ttf
 11
5.9362635081
 21
30.6952393213
 31
0.0
100
AcDbText
 73
     3
  0
TEXT
  5
20B
330
1F
100
AcDbEntity
  8
Default
  6
Continuous
 62
     7
100
AcDbText
 10
5.9362635081
 20
4.3316029576
 30
0.0
 40
10.0
  1
unit: mm
  7
SEACAD_seiso_ttf
 11
5.9362635081
 21
14.3316029576
 31
0.0
100
AcDbText
 73
     3
  0
LINE
  5
20C
330
1F
100
AcDbEntity
  8
Default
  6
Continuous
 62
     7
100
AcDbLine
 10
0.0
 20
0.0
 30
0.0
 11
100.0
 21
0.0
 31
0.0
  0
LINE
  5
20D
330
1F
100
AcDbEntity
  8
Default
  6
Continuous
 62
     7
100
AcDbLine
 10
0.0
 20
0.0
 30
0.0
 11
0.0
 21
100.0
 31
0.0
  0
TEXT
  5
20E
330
1F
100
AcDbEntity
  8
Default
  6
Continuous
 62
     7
100
AcDbText
 10
24.3923665681
 20
-18.2375342018
 30
0.0
 40
10.0
  1
100 mm
  7
SEACAD_seiso_ttf
 11
24.3923665681
 21
-8.2375342018
 31
0.0
100
AcDbText
 73
     3
  0
TEXT
  5
20F
330
1F
100
AcDbEntity
  8
Default
  6
Continuous
 62
     7
100
AcDbText
 10
-7.6150308803
 20
24.6231930421
 30
0.0
 40
10.0
  1
100 mm
 50
90.0
  7
SEACAD_seiso_ttf
 11
-17.6150308803
 21
24.6231930421
 31
0.0
100
AcDbText
 73
     3
  0
TEXT
  5
210
330
1F
100
AcDbEntity
  8
Default
  6
Continuous
 62
     7
100
AcDbText
 10
28.4878128572
 20
20.0907663715
 30
0.0
 40
10.0
  1
212809
  7
SEACAD_seiso_ttf
 11
28.4878128572
 21
30.0907663715
 31
0.0
100
AcDbText
 73
     3
  0
TEXT
  5
211
330
1F
100
AcDbEntity
  8
Default
  6
Continuous
 62
     7
100
AcDbText
 10
5.9012241913
 20
36.7242780188
 30
0.0
 40
10.0
  1
20148000
  7
SEACAD_seiso_ttf
 11
5.9012241913
 21
46.7242780188
 31
0.0
100
AcDbText
 73
     3
  0
ENDSEC
  0
SECTION
  2
OBJECTS
  0
DICTIONARY
  5
C
330
0
100
AcDbDictionary
281
     1
  3
ACAD_GROUP
350
D
  3
ACAD_LAYOUT
350
1A
  3
ACAD_MLEADERSTYLE
350
215
  3
ACAD_MLINESTYLE
350
17
  3
ACAD_PLOTSETTINGS
350
19
  3
ACAD_PLOTSTYLENAME
350
E
  3
ACAD_SCALELIST
350
3B
  3
ACAD_TABLESTYLE
350
214
  3
ACAD_VISUALSTYLE
350
2A
  3
AcDbVariableDictionary
350
212
  0
DICTIONARY
  5
D
102
{ACAD_REACTORS
330
C
102
}
330
C
100
AcDbDictionary
281
     1
  0
DICTIONARY
  5
1A
102
{ACAD_REACTORS
330
C
102
}
330
C
100
AcDbDictionary
281
     1
  3
Layout1
350
1E
  3
Model
350
22
  0
DICTIONARY
  5
215
102
{ACAD_REACTORS
330
C
102
}
330
C
100
AcDbDictionary
281
     1
  0
DICTIONARY
  5
17
102
{ACAD_REACTORS
330
C
102
}
330
C
100
AcDbDictionary
281
     1
  3
Standard
350
18
  0
DICTIONARY
  5
19
102
{ACAD_REACTORS
330
C
102
}
330
C
100
AcDbDictionary
281
     1
  0
ACDBDICTIONARYWDFLT
  5
E
102
{ACAD_REACTORS
330
C
102
}
330
C
100
AcDbDictionary
281
     1
  3
Normal
350
F
100
AcDbDictionaryWithDefault
340
F
  0
DICTIONARY
  5
3B
102
{ACAD_REACTORS
330
C
102
}
330
C
100
AcDbDictionary
281
     1
  3
A0
350
3C
  3
A1
350
3D
  3
A2
350
3E
  3
A3
350
3F
  3
A4
350
40
  3
A5
350
41
  3
A6
350
42
  3
A7
350
43
  3
A8
350
44
  3
A9
350
45
  3
B0
350
46
  3
B1
350
47
  3
B2
350
48
  3
B3
350
49
  3
B4
350
4A
  3
B5
350
4B
  3
B6
350
4C
  3
B7
350
4D
  3
B8
350
4E
  3
B9
350
4F
  3
C0
350
50
  3
C1
350
51
  3
C2
350
52
  3
C3
350
53
  3
C4
350
54
  3
C5
350
55
  3
C6
350
56
  3
C7
350
57
  3
C8
350
58
  3
C9
350
59
  3
D0
350
5A
  3
D1
350
5B
  3
D2
350
5C
  0
DICTIONARY
  5
214
102
{ACAD_REACTORS
330
C
102
}
330
C
100
AcDbDictionary
281
     1
  0
DICTIONARY
  5
2A
102
{ACAD_REACTORS
330
C
102
}
330
C
100
AcDbDictionary
281
     1
  3
2dWireframe
350
2F
  3
3D Hidden
350
31
  3
3dWireframe
350
30
  3
Basic
350
32
  3
Brighten
350
36
  3
ColorChange
350
3A
  3
Conceptual
350
34
  3
Dim
350
35
  3
Facepattern
350
39
  3
Flat
350
2B
  3
FlatWithEdges
350
2C
  3
Gouraud
350
2D
  3
GouraudWithEdges
350
2E
  3
Linepattern
350
38
  3
Realistic
350
33
  3
Thicken
350
37
  0
DICTIONARY
  5
212
102
{ACAD_REACTORS
330
C
102
}
330
C
100
AcDbDictionary
281
     1
  3
CANNOSCALE
350
213
  3
PSOLHEIGHT
350
217
  3
PSOLWIDTH
350
216
  0
LAYOUT
  5
1E
102
{ACAD_REACTORS
330
1A
102
}
330
1A
100
AcDbPlotSettings
  1

  2
none_device
  4

  6

 40
0.0
 41
0.0
 42
0.0
 43
0.0
 44
0.0
 45
0.0
 46
0.0
 47
0.0
 48
0.0
 49
0.0
140
0.0
141
0.0
142
1.0
143
1.0
 70
   688
 72
     0
 73
     0
 74
     5
  7

 75
    16
147
1.0
148
0.0
149
0.0
100
AcDbLayout
  1
Layout1
 70
     1
 71
     1
 10
0.0
 20
0.0
 11
1682.0
 21
2378.0
 12
0.0
 22
0.0
 32
0.0
 14
0.0
 24
0.0
 34
0.0
 15
1682.0
 25
2378.0
 35
0.0
146
0.0
 13
0.0
 23
0.0
 33
0.0
 16
1.0
 26
0.0
 36
0.0
 17
0.0
 27
1.0
 37
0.0
 76
     0
330
1B
  0
LAYOUT
  5
22
102
{ACAD_REACTORS
330
1A
102
}
330
1A
100
AcDbPlotSettings
  1

  2
none_device
  4

  6

 40
0.0
 41
0.0
 42
0.0
 43
0.0
 44
0.0
 45
0.0
 46
0.0
 47
0.0
 48
0.0
 49
0.0
140
0.0
141
0.0
142
1.0
143
1.0
 70
  1712
 72
     0
 73
     0
 74
     0
  7

 75
     0
147
1.0
148
0.0
149
0.0
100
AcDbLayout
  1
Model
 70
     1
 71
     0
 10
0.0
 20
0.0
 11
1682.0
 21
2378.0
 12
0.0
 22
0.0
 32
0.0
 14
0.0
 24
0.0
 34
0.0
 15
1682.0
 25
2378.0
 35
0.0
146
0.0
 13
0.0
 23
0.0
 33
0.0
 16
1.0
 26
0.0
 36
0.0
 17
0.0
 27
1.0
 37
0.0
 76
     0
330
1F
331
29
  0
MLINESTYLE
  5
18
102
{ACAD_REACTORS
330
17
102
}
330
17
100
AcDbMlineStyle
  2
Standard
 70
     0
  3

 62
   256
 51
90.0
 52
90.0
 71
     2
 49
0.5
 62
   256
  6
BYLAYER
 49
-0.5
 62
   256
  6
BYLAYER
  0
ACDBPLACEHOLDER
  5
F
102
{ACAD_REACTORS
330
E
102
}
330
E
  0
SCALE
  5
3C
102
{ACAD_REACTORS
330
3B
102
}
330
3B
100
AcDbScale
 70
     0
300
1:1
140
1.0
141
1.0
290
     1
  0
SCALE
  5
3D
102
{ACAD_REACTORS
330
3B
102
}
330
3B
100
AcDbScale
 70
     0
300
1:2
140
1.0
141
2.0
290
     0
  0
SCALE
  5
3E
102
{ACAD_REACTORS
330
3B
102
}
330
3B
100
AcDbScale
 70
     0
300
1:4
140
1.0
141
4.0
290
     0
  0
SCALE
  5
3F
102
{ACAD_REACTORS
330
3B
102
}
330
3B
100
AcDbScale
 70
     0
300
1:5
140
1.0
141
5.0
290
     0
  0
SCALE
  5
40
102
{ACAD_REACTORS
330
3B
102
}
330
3B
100
AcDbScale
 70
     0
300
1:8
140
1.0
141
8.0
290
     0
  0
SCALE
  5
41
102
{ACAD_REACTORS
330
3B
102
}
330
3B
100
AcDbScale
 70
     0
300
1:10
140
1.0
141
10.0
290
     0
  0
SCALE
  5
42
102
{ACAD_REACTORS
330
3B
102
}
330
3B
100
AcDbScale
 70
     0
300
1:16
140
1.0
141
16.0
290
     0
  0
SCALE
  5
43
102
{ACAD_REACTORS
330
3B
102
}
330
3B
100
AcDbScale
 70
     0
300
1:20
140
1.0
141
20.0
290
     0
  0
SCALE
  5
44
102
{ACAD_REACTORS
330
3B
102
}
330
3B
100
AcDbScale
 70
     0
300
1:30
140
1.0
141
30.0
290
     0
  0
SCALE
  5
45
102
{ACAD_REACTORS
330
3B
102
}
330
3B
100
AcDbScale
 70
     0
300
1:40
140
1.0
141
40.0
290
     0
  0
SCALE
  5
46
102
{ACAD_REACTORS
330
3B
102
}
330
3B
100
AcDbScale
 70
     0
300
1:50
140
1.0
141
50.0
290
     0
  0
SCALE
  5
47
102
{ACAD_REACTORS
330
3B
102
}
330
3B
100
AcDbScale
 70
     0
300
1:100
140
1.0
141
100.0
290
     0
  0
SCALE
  5
48
102
{ACAD_REACTORS
330
3B
102
}
330
3B
100
AcDbScale
 70
     0
300
2:1
140
2.0
141
1.0
290
     0
  0
SCALE
  5
49
102
{ACAD_REACTORS
330
3B
102
}
330
3B
100
AcDbScale
 70
     0
300
4:1
140
4.0
141
1.0
290
     0
  0
SCALE
  5
4A
102
{ACAD_REACTORS
330
3B
102
}
330
3B
100
AcDbScale
 70
     0
300
8:1
140
8.0
141
1.0
290
     0
  0
SCALE
  5
4B
102
{ACAD_REACTORS
330
3B
102
}
330
3B
100
AcDbScale
 70
     0
300
10:1
140
10.0
141
1.0
290
     0
  0
SCALE
  5
4C
102
{ACAD_REACTORS
330
3B
102
}
330
3B
100
AcDbScale
 70
     0
300
100:1
140
100.0
141
1.0
290
     0
  0
SCALE
  5
4D
102
{ACAD_REACTORS
330
3B
102
}
330
3B
100
AcDbScale
 70
     0
300
1/128" = 1'-0"
140
0.0078125
141
12.0
290
     0
  0
SCALE
  5
4E
102
{ACAD_REACTORS
330
3B
102
}
330
3B
100
AcDbScale
 70
     0
300
1/64" = 1'-0"
140
0.015625
141
12.0
290
     0
  0
SCALE
  5
4F
102
{ACAD_REACTORS
330
3B
102
}
330
3B
100
AcDbScale
 70
     0
300
1/32" = 1'-0"
140
0.03125
141
12.0
290
     0
  0
SCALE
  5
50
102
{ACAD_REACTORS
330
3B
102
}
330
3B
100
AcDbScale
 70
     0
300
1/16" = 1'-0"
140
0.0625
141
12.0
290
     0
  0
SCALE
  5
51
102
{ACAD_REACTORS
330
3B
102
}
330
3B
100
AcDbScale
 70
     0
300
3/32" = 1'-0"
140
0.09375
141
12.0
290
     0
  0
SCALE
  5
52
102
{ACAD_REACTORS
330
3B
102
}
330
3B
100
AcDbScale
 70
     0
300
1/8" = 1'-0"
140
0.125
141
12.0
290
     0
  0
SCALE
  5
53
102
{ACAD_REACTORS
330
3B
102
}
330
3B
100
AcDbScale
 70
     0
300
3/16" = 1'-0"
140
0.1875
141
12.0
290
     0
  0
SCALE
  5
54
102
{ACAD_REACTORS
330
3B
102
}
330
3B
100
AcDbScale
 70
     0
300
1/4" = 1'-0"
140
0.25
141
12.0
290
     0
  0
SCALE
  5
55
102
{ACAD_REACTORS
330
3B
102
}
330
3B
100
AcDbScale
 70
     0
300
3/8" = 1'-0"
140
0.375
141
12.0
290
     0
  0
SCALE
  5
56
102
{ACAD_REACTORS
330
3B
102
}
330
3B
100
AcDbScale
 70
     0
300
1/2" = 1'-0"
140
0.5
141
12.0
290
     0
  0
SCALE
  5
57
102
{ACAD_REACTORS
330
3B
102
}
330
3B
100
AcDbScale
 70
     0
300
3/4" = 1'-0"
140
0.75
141
12.0
290
     0
  0
SCALE
  5
58
102
{ACAD_REACTORS
330
3B
102
}
330
3B
100
AcDbScale
 70
     0
300
1" = 1'-0"
140
1.0
141
12.0
290
     0
  0
SCALE
  5
59
102
{ACAD_REACTORS
330
3B
102
}
330
3B
100
AcDbScale
 70
     0
300
1-1/2" = 1'-0"
140
1.5
141
12.0
290
     0
  0
SCALE
  5
5A
102
{ACAD_REACTORS
330
3B
102
}
330
3B
100
AcDbScale
 70
     0
300
3" = 1'-0"
140
3.0
141
12.0
290
     0
  0
SCALE
  5
5B
102
{ACAD_REACTORS
330
3B
102
}
330
3B
100
AcDbScale
 70
     0
300
6" = 1'-0"
140
6.0
141
12.0
290
     0
  0
SCALE
  5
5C
102
{ACAD_REACTORS
330
3B
102
}
330
3B
100
AcDbScale
 70
     0
300
1'-0" = 1'-0"
140
12.0
141
12.0
290
     0
  0
VISUALSTYLE
  5
2F
102
{ACAD_REACTORS
330
2A
102
}
330
2A
100
AcDbVisualStyle
  2
2dWireframe
 70
     4
 71
     0
 72
     2
 73
     0
 90
        0
 40
-0.6
 41
-30.0
 62
     5
 63
     7
 74
     1
 91
        4
 64
     7
 65
   257
 75
     1
175
     1
 42
1.0
 92
        0
 66
   257
 43
1.0
 76
     1
 77
     6
 78
     2
 67
     7
 79
     5
170
     0
171
     0
290
     0
174
     0
 93
        1
 44
0.0
173
     0
291
     0
 45
0.0
1001
ACAD
1000
AcDbSavedByObjectVersion
1070
     0
  0
VISUALSTYLE
  5
31
102
{ACAD_REACTORS
330
2A
102
}
330
2A
100
AcDbVisualStyle
  2
3D Hidden
 70
     6
 71
     1
 72
     2
 73
     2
 90
        0
 40
-0.6
 41
-30.0
 62
     5
 63
     7
 74
     2
 91
        2
 64
     7
 65
   257
 75
     2
175
     1
 42
40.0
 92
        0
 66
   257
 43
1.0
 76
     1
 77
     6
 78
     2
 67
     7
 79
     3
170
     0
171
     0
290
     0
174
     0
 93
        1
 44
0.0
173
     0
291
     0
 45
0.0
1001
ACAD
1000
AcDbSavedByObjectVersion
1070
     0
  0
VISUALSTYLE
  5
30
102
{ACAD_REACTORS
330
2A
102
}
330
2A
100
AcDbVisualStyle
  2
3dWireframe
 70
     5
 71
     0
 72
     2
 73
     0
 90
        0
 40
-0.6
 41
-30.0
 62
     5
 63
     7
 74
     1
 91
        4
 64
     7
 65
   257
 75
     1
175
     1
 42
1.0
 92
        0
 66
   257
 43
1.0
 76
     1
 77
     6
 78
     2
 67
     7
 79
     5
170
     0
171
     0
290
     0
174
     0
 93
        1
 44
0.0
173
     0
291
     0
 45
0.0
1001
ACAD
1000
AcDbSavedByObjectVersion
1070
     0
  0
VISUALSTYLE
  5
32
102
{ACAD_REACTORS
330
2A
102
}
330
2A
100
AcDbVisualStyle
  2
Basic
 70
     7
 71
     1
 72
     0
 73
     1
 90
        0
 40
-0.6
 41
-30.0
 62
     5
 63
     7
 74
     0
 91
        4
 64
     7
 65
   257
 75
     1
175
     1
 42
1.0
 92
        8
 66
     7
 43
1.0
 76
     1
 77
     6
 78
     2
 67
     7
 79
     5
170
     0
171
     0
290
     0
174
     0
 93
        1
 44
0.0
173
     0
291
     1
 45
0.0
1001
ACAD
1000
AcDbSavedByObjectVersion
1070
     0
  0
VISUALSTYLE
  5
36
102
{ACAD_REACTORS
330
2A
102
}
330
2A
100
AcDbVisualStyle
  2
Brighten
 70
    12
 71
     2
 72
     2
 73
     0
 90
        0
 40
-0.6
 41
-30.0
 62
     5
 63
     7
 74
     1
 91
        4
 64
     7
 65
   257
 75
     1
175
     1
 42
1.0
 92
        8
 66
     7
 43
1.0
 76
     1
 77
     6
 78
     2
 67
     7
 79
     5
170
     0
171
     0
290
     0
174
     0
 93
        1
 44
50.0
173
     0
291
     1
 45
0.0
1001
ACAD
1000
AcDbSavedByObjectVersion
1070
     0
  0
VISUALSTYLE
  5
3A
102
{ACAD_REACTORS
330
2A
102
}
330
2A
100
AcDbVisualStyle
  2
ColorChange
 70
    16
 71
     2
 72
     2
 73
     3
 90
        0
 40
-0.6
 41
-30.0
 62
     5
 63
     8
 74
     1
 91
        4
 64
     7
 65
   257
 75
     1
175
     1
 42
1.0
 92
        8
 66
     8
 43
1.0
 76
     1
 77
     6
 78
     2
 67
     7
 79
     5
170
     0
171
     0
290
     0
174
     0
 93
        1
 44
0.0
173
     0
291
     1
 45
0.0
1001
ACAD
1000
AcDbSavedByObjectVersion
1070
     0
  0
VISUALSTYLE
  5
34
102
{ACAD_REACTORS
330
2A
102
}
330
2A
100
AcDbVisualStyle
  2
Conceptual
 70
     9
 71
     3
 72
     2
 73
     0
 90
        0
 40
-0.6
 41
-30.0
 62
     5
 63
     7
 74
     2
 91
        2
 64
     7
 65
   257
 75
     1
175
     1
 42
40.0
 92
        8
 66
     7
 43
1.0
 76
     1
 77
     6
 78
     2
 67
     7
 79
     3
170
     0
171
     0
290
     0
174
     0
 93
        1
 44
0.0
173
     0
291
     0
 45
0.0
1001
ACAD
1000
AcDbSavedByObjectVersion
1070
     0
  0
VISUALSTYLE
  5
35
102
{ACAD_REACTORS
330
2A
102
}
330
2A
100
AcDbVisualStyle
  2
Dim
 70
    11
 71
     2
 72
     2
 73
     0
 90
        0
 40
-0.6
 41
-30.0
 62
     5
 63
     7
 74
     1
 91
        4
 64
     7
 65
   257
 75
     1
175
     1
 42
1.0
 92
        8
 66
     7
 43
1.0
 76
     1
 77
     6
 78
     2
 67
     7
 79
     5
170
     0
171
     0
290
     0
174
     0
 93
        1
 44
-50.0
173
     0
291
     1
 45
0.0
1001
ACAD
1000
AcDbSavedByObjectVersion
1070
     0
  0
VISUALSTYLE
  5
39
102
{ACAD_REACTORS
330
2A
102
}
330
2A
100
AcDbVisualStyle
  2
Facepattern
 70
    15
 71
     2
 72
     2
 73
     0
 90
        0
 40
-0.6
 41
-30.0
 62
     5
 63
     7
 74
     1
 91
        4
 64
     7
 65
   257
 75
     1
175
     1
 42
1.0
 92
        8
 66
     7
 43
1.0
 76
     1
 77
     6
 78
     2
 67
     7
 79
     5
170
     0
171
     0
290
     0
174
     0
 93
        1
 44
0.0
173
     0
291
     1
 45
0.0
1001
ACAD
1000
AcDbSavedByObjectVersion
1070
     0
  0
VISUALSTYLE
  5
2B
102
{ACAD_REACTORS
330
2A
102
}
330
2A
100
AcDbVisualStyle
  2
Flat
 70
     0
 71
     2
 72
     1
 73
     1
 90
        2
 40
-0.6
 41
30.0
 62
     5
 63
     7
 74
     0
 91
        4
 64
     7
 65
   257
 75
     1
175
     1
 42
1.0
 92
        8
 66
     7
 43
1.0
 76
     1
 77
     6
 78
     2
 67
     7
 79
     5
170
     0
171
     0
290
     0
174
     0
 93
       13
 44
0.0
173
     0
291
     1
 45
0.0
1001
ACAD
1000
AcDbSavedByObjectVersion
1070
     0
  0
VISUALSTYLE
  5
2C
102
{ACAD_REACTORS
330
2A
102
}
330
2A
100
AcDbVisualStyle
  2
FlatWithEdges
 70
     1
 71
     2
 72
     1
 73
     1
 90
        2
 40
-0.6
 41
30.0
 62
     5
 63
     7
 74
     1
 91
        4
 64
     7
 65
   257
 75
     1
175
     1
 42
1.0
 92
        0
 66
   257
 43
1.0
 76
     1
 77
     6
 78
     2
 67
     7
 79
     5
170
     0
171
     0
290
     0
174
     0
 93
       13
 44
0.0
173
     0
291
     1
 45
0.0
1001
ACAD
1000
AcDbSavedByObjectVersion
1070
     0
  0
VISUALSTYLE
  5
2D
102
{ACAD_REACTORS
330
2A
102
}
330
2A
100
AcDbVisualStyle
  2
Gouraud
 70
     2
 71
     2
 72
     2
 73
     1
 90
        2
 40
-0.6
 41
30.0
 62
     5
 63
     7
 74
     0
 91
        4
 64
     7
 65
   257
 75
     1
175
     1
 42
1.0
 92
        0
 66
     7
 43
1.0
 76
     1
 77
     6
 78
     2
 67
     7
 79
     5
170
     0
171
     0
290
     0
174
     0
 93
       13
 44
0.0
173
     0
291
     1
 45
0.0
1001
ACAD
1000
AcDbSavedByObjectVersion
1070
     0
  0
VISUALSTYLE
  5
2E
102
{ACAD_REACTORS
330
2A
102
}
330
2A
100
AcDbVisualStyle
  2
GouraudWithEdges
 70
     3
 71
     2
 72
     2
 73
     1
 90
        2
 40
-0.6
 41
30.0
 62
     5
 63
     7
 74
     1
 91
        4
 64
     7
 65
   257
 75
     1
175
     1
 42
1.0
 92
        0
 66
   257
 43
1.0
 76
     1
 77
     6
 78
     2
 67
     7
 79
     5
170
     0
171
     0
290
     0
174
     0
 93
       13
 44
0.0
173
     0
291
     1
 45
0.0
1001
ACAD
1000
AcDbSavedByObjectVersion
1070
     0
  0
VISUALSTYLE
  5
38
102
{ACAD_REACTORS
330
2A
102
}
330
2A
100
AcDbVisualStyle
  2
Linepattern
 70
    14
 71
     2
 72
     2
 73
     0
 90
        0
 40
-0.6
 41
-30.0
 62
     5
 63
     7
 74
     1
 91
        4
 64
     7
 65
   257
 75
     7
175
     7
 42
1.0
 92
        8
 66
     7
 43
1.0
 76
     1
 77
     6
 78
     2
 67
     7
 79
     5
170
     0
171
     0
290
     0
174
     0
 93
        1
 44
0.0
173
     0
291
     1
 45
0.0
1001
ACAD
1000
AcDbSavedByObjectVersion
1070
     0
  0
VISUALSTYLE
  5
33
102
{ACAD_REACTORS
330
2A
102
}
330
2A
100
AcDbVisualStyle
  2
Realistic
 70
     8
 71
     2
 72
     2
 73
     0
 90
        0
 40
-0.6
 41
-30.0
 62
     5
 63
     7
 74
     1
 91
        0
 64
     7
 65
   257
 75
     1
175
     1
 42
1.0
 92
        8
 66
     8
 43
1.0
 76
     1
 77
     6
 78
     2
 67
     7
 79
     5
170
     0
171
     0
290
     0
174
     0
 93
       13
 44
0.0
173
     0
291
     0
 45
0.0
1001
ACAD
1000
AcDbSavedByObjectVersion
1070
     0
  0
VISUALSTYLE
  5
37
102
{ACAD_REACTORS
330
2A
102
}
330
2A
100
AcDbVisualStyle
  2
Thicken
 70
    13
 71
     2
 72
     2
 73
     0
 90
        0
 40
-0.6
 41
-30.0
 62
     5
 63
     7
 74
     1
 91
        4
 64
     7
 65
   257
 75
     1
175
     1
 42
1.0
 92
       12
 66
     7
 43
1.0
 76
     1
 77
     6
 78
     2
 67
     7
 79
     5
170
     0
171
     0
290
     0
174
     0
 93
        1
 44
0.0
173
     0
291
     1
 45
0.0
1001
ACAD
1000
AcDbSavedByObjectVersion
1070
     0
  0
DICTIONARYVAR
  5
213
102
{ACAD_REACTORS
330
212
102
}
330
212
100
DictionaryVariables
280
     0
  1
1:1
  0
DICTIONARYVAR
  5
217
102
{ACAD_REACTORS
330
212
102
}
330
212
100
DictionaryVariables
280
     0
  1
80.000000
  0
DICTIONARYVAR
  5
216
102
{ACAD_REACTORS
330
212
102
}
330
212
100
DictionaryVariables
280
     0
  1
5.000000
  0
ENDSEC
  0
EOF
